  0
SECTION
  2
HEADER
  9
$ACADVER
  1
AC1015
  9
$ACADMAINTVER
 70
     6
  9
$DWGCODEPAGE
  3
ANSI_1251
  9
$INSBASE
 10
0.0
 20
0.0
 30
0.0
  9
$EXTMIN
 10
0.0
 20
0.0
 30
0.0
  9
$EXTMAX
 10
420.0
 20
297.0
 30
0.0
  9
$LIMMIN
 10
0.0
 20
0.0
  9
$LIMMAX
 10
420.0
 20
297.0
  9
$ORTHOMODE
 70
     0
  9
$REGENMODE
 70
     1
  9
$FILLMODE
 70
     1
  9
$QTEXTMODE
 70
     0
  9
$MIRRTEXT
 70
     1
  9
$LTSCALE
 40
1.0
  9
$ATTMODE
 70
     1
  9
$TEXTSIZE
 40
5.0
  9
$TRACEWID
 40
1.0
  9
$TEXTSTYLE
  7
Standard
  9
$CLAYER
  8
0
  9
$CELTYPE
  6
ByLayer
  9
$CECOLOR
 62
   256
  9
$CELTSCALE
 40
1.0
  9
$DISPSILH
 70
     0
  9
$DIMSCALE
 40
1.0
  9
$DIMASZ
 40
5.0
  9
$DIMEXO
 40
0.0
  9
$DIMDLI
 40
3.75
  9
$DIMRND
 40
0.0
  9
$DIMDLE
 40
0.0
  9
$DIMEXE
 40
1.0
  9
$DIMTP
 40
0.0
  9
$DIMTM
 40
0.0
  9
$DIMTXT
 40
3.5
  9
$DIMCEN
 40
2.5
  9
$DIMTSZ
 40
0.0
  9
$DIMTOL
 70
     0
  9
$DIMLIM
 70
     0
  9
$DIMTIH
 70
     1
  9
$DIMTOH
 70
     1
  9
$DIMSE1
 70
     0
  9
$DIMSE2
 70
     0
  9
$DIMTAD
 70
     1
  9
$DIMZIN
 70
     0
  9
$DIMBLK
  1

  9
$DIMASO
 70
     1
  9
$DIMSHO
 70
     1
  9
$DIMPOST
  1

  9
$DIMAPOST
  1

  9
$DIMALT
 70
     0
  9
$DIMALTD
 70
     3
  9
$DIMALTF
 40
0.0393700787
  9
$DIMLFAC
 40
1.0
  9
$DIMTOFL
 70
     1
  9
$DIMTVP
 40
0.0
  9
$DIMTIX
 70
     0
  9
$DIMSOXD
 70
     0
  9
$DIMSAH
 70
     0
  9
$DIMBLK1
  1

  9
$DIMBLK2
  1

  9
$DIMSTYLE
  2
ISO-25
  9
$DIMCLRD
 70
     0
  9
$DIMCLRE
 70
     0
  9
$DIMCLRT
 70
     0
  9
$DIMTFAC
 40
1.0
  9
$DIMGAP
 40
1.5
  9
$DIMJUST
 70
     0
  9
$DIMSD1
 70
     0
  9
$DIMSD2
 70
     0
  9
$DIMTOLJ
 70
     0
  9
$DIMTZIN
 70
     0
  9
$DIMALTZ
 70
     0
  9
$DIMALTTZ
 70
     0
  9
$DIMUPT
 70
     0
  9
$DIMDEC
 70
     1
  9
$DIMTDEC
 70
     1
  9
$DIMALTU
 70
     2
  9
$DIMALTTD
 70
     3
  9
$DIMTXSTY
  7
Standard
  9
$DIMAUNIT
 70
     0
  9
$DIMADEC
 70
     2
  9
$DIMALTRND
 40
0.0
  9
$DIMAZIN
 70
     0
  9
$DIMDSEP
 70
    44
  9
$DIMATFIT
 70
     3
  9
$DIMFRAC
 70
     0
  9
$DIMLDRBLK
  1

  9
$DIMLUNIT
 70
     2
  9
$DIMLWD
 70
    -2
  9
$DIMLWE
 70
    -2
  9
$DIMTMOVE
 70
     0
  9
$LUNITS
 70
     2
  9
$LUPREC
 70
     1
  9
$SKETCHINC
 40
1.0
  9
$FILLETRAD
 40
0.0
  9
$AUNITS
 70
     0
  9
$AUPREC
 70
     2
  9
$MENU
  1
.
  9
$ELEVATION
 40
0.0
  9
$PELEVATION
 40
0.0
  9
$THICKNESS
 40
0.0
  9
$LIMCHECK
 70
     0
  9
$CHAMFERA
 40
0.0
  9
$CHAMFERB
 40
0.0
  9
$CHAMFERC
 40
0.0
  9
$CHAMFERD
 40
0.0
  9
$SKPOLY
 70
     0
  9
$TDCREATE
 40
2460696.540459977
  9
$TDUCREATE
 40
2460696.415459977
  9
$TDUPDATE
 40
2460696.54046096
  9
$TDUUPDATE
 40
2460696.41546096
  9
$TDINDWG
 40
0.0000000116
  9
$TDUSRTIMER
 40
0.0000000116
  9
$USRTIMER
 70
     1
  9
$ANGBASE
 50
0.0
  9
$ANGDIR
 70
     0
  9
$PDMODE
 70
     0
  9
$PDSIZE
 40
-1.0
  9
$PLINEWID
 40
0.0
  9
$SPLFRAME
 70
     0
  9
$SPLINETYPE
 70
     6
  9
$SPLINESEGS
 70
     8
  9
$HANDSEED
  5
4E6
  9
$SURFTAB1
 70
     6
  9
$SURFTAB2
 70
     6
  9
$SURFTYPE
 70
     6
  9
$SURFU
 70
     6
  9
$SURFV
 70
     6
  9
$UCSBASE
  2

  9
$UCSNAME
  2

  9
$UCSORG
 10
0.0
 20
0.0
 30
0.0
  9
$UCSXDIR
 10
1.0
 20
0.0
 30
0.0
  9
$UCSYDIR
 10
0.0
 20
1.0
 30
0.0
  9
$UCSORTHOREF
  2

  9
$UCSORTHOVIEW
 70
     0
  9
$UCSORGTOP
 10
0.0
 20
0.0
 30
0.0
  9
$UCSORGBOTTOM
 10
0.0
 20
0.0
 30
0.0
  9
$UCSORGLEFT
 10
0.0
 20
0.0
 30
0.0
  9
$UCSORGRIGHT
 10
0.0
 20
0.0
 30
0.0
  9
$UCSORGFRONT
 10
0.0
 20
0.0
 30
0.0
  9
$UCSORGBACK
 10
0.0
 20
0.0
 30
0.0
  9
$PUCSBASE
  2

  9
$PUCSNAME
  2

  9
$PUCSORG
 10
0.0
 20
0.0
 30
0.0
  9
$PUCSXDIR
 10
1.0
 20
0.0
 30
0.0
  9
$PUCSYDIR
 10
0.0
 20
1.0
 30
0.0
  9
$PUCSORTHOREF
  2

  9
$PUCSORTHOVIEW
 70
     0
  9
$PUCSORGTOP
 10
0.0
 20
0.0
 30
0.0
  9
$PUCSORGBOTTOM
 10
0.0
 20
0.0
 30
0.0
  9
$PUCSORGLEFT
 10
0.0
 20
0.0
 30
0.0
  9
$PUCSORGRIGHT
 10
0.0
 20
0.0
 30
0.0
  9
$PUCSORGFRONT
 10
0.0
 20
0.0
 30
0.0
  9
$PUCSORGBACK
 10
0.0
 20
0.0
 30
0.0
  9
$USERI1
 70
     0
  9
$USERI2
 70
     0
  9
$USERI3
 70
     0
  9
$USERI4
 70
     0
  9
$USERI5
 70
     0
  9
$USERR1
 40
0.0
  9
$USERR2
 40
0.0
  9
$USERR3
 40
0.0
  9
$USERR4
 40
0.0
  9
$USERR5
 40
0.0
  9
$WORLDVIEW
 70
     1
  9
$SHADEDGE
 70
     3
  9
$SHADEDIF
 70
    70
  9
$TILEMODE
 70
     1
  9
$MAXACTVP
 70
    64
  9
$PINSBASE
 10
0.0
 20
0.0
 30
0.0
  9
$PLIMCHECK
 70
     0
  9
$PEXTMIN
 10
1.0000000000E+20
 20
1.0000000000E+20
 30
1.0000000000E+20
  9
$PEXTMAX
 10
-1.0000000000E+20
 20
-1.0000000000E+20
 30
-1.0000000000E+20
  9
$PLIMMIN
 10
0.0
 20
0.0
  9
$PLIMMAX
 10
420.0
 20
297.0
  9
$UNITMODE
 70
     0
  9
$VISRETAIN
 70
     1
  9
$PLINEGEN
 70
     0
  9
$PSLTSCALE
 70
     1
  9
$TREEDEPTH
 70
  3020
  9
$CMLSTYLE
  2
Standard
  9
$CMLJUST
 70
     0
  9
$CMLSCALE
 40
20.0
  9
$PROXYGRAPHICS
 70
     1
  9
$MEASUREMENT
 70
     1
  9
$CELWEIGHT
370
    -1
  9
$ENDCAPS
280
     0
  9
$JOINSTYLE
280
     0
  9
$LWDISPLAY
290
     1
  9
$INSUNITS
 70
     4
  9
$HYPERLINKBASE
  1

  9
$STYLESHEET
  1

  9
$XEDIT
290
     1
  9
$CEPSNTYPE
380
     0
  9
$PSTYLEMODE
290
     1
  9
$FINGERPRINTGUID
  2
{4eddc879-6d1d-4e95-a7e2-e790d5cd902c}
  9
$VERSIONGUID
  2
{FAEB1C32-E019-11D5-929B-00C0DF256EC4}
  9
$EXTNAMES
290
     1
  9
$PSVPSCALE
 40
0.0
  9
$OLESTARTUP
290
     0
  0
ENDSEC
  0
SECTION
  2
CLASSES
  0
CLASS
  1
ACDBDICTIONARYWDFLT
  2
AcDbDictionaryWithDefault
  3
ObjectDBX Classes
 90
        0
280
     0
281
     0
  0
CLASS
  1
VISUALSTYLE
  2
AcDbVisualStyle
  3
ObjectDBX Classes
 90
     4095
280
     0
281
     0
  0
CLASS
  1
MATERIAL
  2
AcDbMaterial
  3
ObjectDBX Classes
 90
     1153
280
     0
281
     0
  0
CLASS
  1
SCALE
  2
AcDbScale
  3
ObjectDBX Classes
 90
     1153
280
     0
281
     0
  0
CLASS
  1
TABLESTYLE
  2
AcDbTableStyle
  3
ObjectDBX Classes
 90
     4095
280
     0
281
     0
  0
CLASS
  1
MLEADERSTYLE
  2
AcDbMLeaderStyle
  3
ACDB_MLEADERSTYLE_CLASS
 90
     4095
280
     0
281
     0
  0
CLASS
  1
SUN
  2
AcDbSun
  3
SCENEOE
 90
     1153
280
     0
281
     0
  0
CLASS
  1
ACDBPLACEHOLDER
  2
AcDbPlaceHolder
  3
ObjectDBX Classes
 90
        0
280
     0
281
     0
  0
CLASS
  1
LAYOUT
  2
AcDbLayout
  3
ObjectDBX Classes
 90
        0
280
     0
281
     0
  0
ENDSEC
  0
SECTION
  2
TABLES
  0
TABLE
  2
VPORT
  5
8
330
0
100
AcDbSymbolTable
 70
     1
  0
VPORT
  5
29
330
8
100
AcDbSymbolTableRecord
100
AcDbViewportTableRecord
  2
*Active
 70
     0
 10
0.0
 20
0.0
 11
1.0
 21
1.0
 12
210.0
 22
148.5
 13
0.0
 23
0.0
 14
10.0
 24
10.0
 15
10.0
 25
10.0
 16
0.0
 26
0.0
 36
1.0
 17
0.0
 27
0.0
 37
0.0
 40
297.0
 41
1.4141414141
 42
50.0
 43
0.0
 44
0.0
 50
0.0
 51
0.0
 71
     0
 72
  2000
 73
     1
 74
     3
 75
     0
 76
     0
 77
     0
 78
     0
281
     0
 65
     1
110
0.0
120
0.0
130
0.0
111
1.0
121
0.0
131
0.0
112
0.0
122
1.0
132
0.0
 79
     0
146
0.0
  0
ENDTAB
  0
TABLE
  2
LTYPE
  5
5
330
0
100
AcDbSymbolTable
 70
     6
  0
LTYPE
  5
14
330
5
100
AcDbSymbolTableRecord
100
AcDbLinetypeTableRecord
  2
ByBlock
 70
     0
  3

 72
    65
 73
     0
 40
0.0
  0
LTYPE
  5
15
330
5
100
AcDbSymbolTableRecord
100
AcDbLinetypeTableRecord
  2
ByLayer
 70
     0
  3

 72
    65
 73
     0
 40
0.0
  0
LTYPE
  5
16
330
5
100
AcDbSymbolTableRecord
100
AcDbLinetypeTableRecord
  2
Continuous
 70
     0
  3
Solid line
 72
    65
 73
     0
 40
0.0
  0
LTYPE
  5
5E
330
5
100
AcDbSymbolTableRecord
100
AcDbLinetypeTableRecord
  2
HIDDEN
 70
     0
  3
Hidden __ __ __ __ __ __ __ __ __ __ __ __ __ __
 72
    65
 73
     2
 40
1.905
 49
1.27
 74
     0
 49
-0.635
 74
     0
  0
LTYPE
  5
5F
330
5
100
AcDbSymbolTableRecord
100
AcDbLinetypeTableRecord
  2
PHANTOM
 70
     0
  3
Phantom ______  __  __  ______  __  __  ______
 72
    65
 73
     6
 40
12.7
 49
6.35
 74
     0
 49
-1.27
 74
     0
 49
1.27
 74
     0
 49
-1.27
 74
     0
 49
1.27
 74
     0
 49
-1.27
 74
     0
  0
LTYPE
  5
60
330
5
100
AcDbSymbolTableRecord
100
AcDbLinetypeTableRecord
  2
CENTER
 70
     0
  3
Center ____ _ ____ _ ____ _ ____ _ ____ _ ____
 72
    65
 73
     4
 40
10.16
 49
6.35
 74
     0
 49
-1.27
 74
     0
 49
1.27
 74
     0
 49
-1.27
 74
     0
  0
LTYPE
  5
61
330
5
100
AcDbSymbolTableRecord
100
AcDbLinetypeTableRecord
  2
CENTERX2
 70
     0
  3
Center (2x) ________  __  ________  __  _____
 72
    65
 73
     4
 40
20.32
 49
12.7
 74
     0
 49
-2.54
 74
     0
 49
2.54
 74
     0
 49
-2.54
 74
     0
  0
LTYPE
  5
62
330
5
100
AcDbSymbolTableRecord
100
AcDbLinetypeTableRecord
  2
DOT2
 70
     0
  3
Dot (.5x) ........................................
 72
    65
 73
     2
 40
0.635
 49
0.0
 74
     0
 49
-0.635
 74
     0
  0
ENDTAB
  0
TABLE
  2
LAYER
  5
2
330
0
100
AcDbSymbolTable
 70
     3
  0
LAYER
  5
10
330
2
100
AcDbSymbolTableRecord
100
AcDbLayerTableRecord
  2
0
 70
     0
 62
     7
  6
Continuous
370
    -3
390
F
  0
LAYER
  5
63
330
2
100
AcDbSymbolTableRecord
100
AcDbLayerTableRecord
  2
ВОДЯНОЙ_ЗНАК
 70
     0
 62
    11
  6
Continuous
370
    -3
390
F
  0
LAYER
  5
64
330
2
100
AcDbSymbolTableRecord
100
AcDbLayerTableRecord
  2
ОСНОВНОЙ
 70
     0
 62
     7
  6
Continuous
370
    -3
390
F
  0
ENDTAB
  0
TABLE
  2
STYLE
  5
3
330
0
100
AcDbSymbolTable
 70
     1
  0
STYLE
  5
11
330
3
100
AcDbSymbolTableRecord
100
AcDbTextStyleTableRecord
  2
Standard
 70
     0
 40
0.0
 41
1.0
 50
0.0
 71
     0
 42
5.0
  3
txt
  4

  0
ENDTAB
  0
TABLE
  2
VIEW
  5
6
330
0
100
AcDbSymbolTable
 70
     0
  0
ENDTAB
  0
TABLE
  2
UCS
  5
7
330
0
100
AcDbSymbolTable
 70
     0
  0
ENDTAB
  0
TABLE
  2
APPID
  5
9
330
0
100
AcDbSymbolTable
 70
     1
  0
APPID
  5
12
330
9
100
AcDbSymbolTableRecord
100
AcDbRegAppTableRecord
  2
ACAD
 70
     0
  0
ENDTAB
  0
TABLE
  2
DIMSTYLE
  5
A
330
0
100
AcDbSymbolTable
 70
     1
100
AcDbDimStyleTable
  0
DIMSTYLE
105
27
330
A
100
AcDbSymbolTableRecord
100
AcDbDimStyleTableRecord
  2
ISO-25
 70
     0
 41
2.5
 42
0.625
 43
3.75
 44
1.25
 73
     0
 74
     0
 77
     1
 78
     8
140
2.5
141
2.5
143
0.0393700787
147
0.625
171
     3
172
     1
178
     0
271
     2
272
     2
274
     3
278
    44
283
     0
284
     8
340
11
  0
ENDTAB
  0
TABLE
  2
BLOCK_RECORD
  5
1
330
0
100
AcDbSymbolTable
 70
     1
  0
BLOCK_RECORD
  5
1F
330
1
100
AcDbSymbolTableRecord
100
AcDbBlockTableRecord
  2
*Model_Space
340
22
  0
BLOCK_RECORD
  5
1B
330
1
100
AcDbSymbolTableRecord
100
AcDbBlockTableRecord
  2
*Paper_Space
340
1E
  0
BLOCK_RECORD
  5
23
330
1
100
AcDbSymbolTableRecord
100
AcDbBlockTableRecord
  2
*Paper_Space0
340
26
  0
ENDTAB
  0
ENDSEC
  0
SECTION
  2
BLOCKS
  0
BLOCK
  5
20
330
1F
100
AcDbEntity
  8
0
100
AcDbBlockBegin
  2
*Model_Space
 70
     0
 10
0.0
 20
0.0
 30
0.0
  3
*Model_Space
  1

  0
ENDBLK
  5
21
330
1F
100
AcDbEntity
  8
0
100
AcDbBlockEnd
  0
BLOCK
  5
1C
330
1B
100
AcDbEntity
 67
     1
  8
0
100
AcDbBlockBegin
  2
*Paper_Space
 70
     0
 10
0.0
 20
0.0
 30
0.0
  3
*Paper_Space
  1

  0
ENDBLK
  5
1D
330
1B
100
AcDbEntity
 67
     1
  8
0
100
AcDbBlockEnd
  0
BLOCK
  5
24
330
23
100
AcDbEntity
  8
0
100
AcDbBlockBegin
  2
*Paper_Space0
 70
     0
 10
0.0
 20
0.0
 30
0.0
  3
*Paper_Space0
  1

  0
ENDBLK
  5
25
330
23
100
AcDbEntity
  8
0
100
AcDbBlockEnd
  0
ENDSEC
  0
SECTION
  2
ENTITIES
  0
ARC
  5
65
330
1F
100
AcDbEntity
  8
0
  6
Continuous
 62
     7
100
AcDbCircle
 10
1038.8360230378
 20
143.3053912706
 30
0.0
 40
4.154201555956429
100
AcDbArc
 50
164.7819379122
 51
196.7084968357
  0
ARC
  5
66
330
1F
100
AcDbEntity
  8
0
  6
Continuous
 62
     7
100
AcDbCircle
 10
1034.5380134345
 20
144.4745896932
 30
0.0
 40
0.3000000000005422
100
AcDbArc
 50
344.7819379122
 51
76.7084968357
  0
ARC
  5
67
330
1F
100
AcDbEntity
  8
0
  6
Continuous
 62
     7
100
AcDbCircle
 10
1035.5620584891
 20
148.8094764538
 30
0.0
 40
4.154201555956362
100
AcDbArc
 50
224.7819379122
 51
256.7084968357
  0
ARC
  5
68
330
1F
100
AcDbEntity
  8
0
  6
Continuous
 62
     7
100
AcDbCircle
 10
1032.4004981515
 20
145.6718901629
 30
0.0
 40
0.3000000000007147
100
AcDbArc
 50
44.7819379122
 51
136.7084968357
  0
ARC
  5
69
330
1F
100
AcDbEntity
  8
0
  6
Continuous
 62
     7
100
AcDbCircle
 10
1029.1583986216
 20
148.7261825751
 30
0.0
 40
4.154201555956203
100
AcDbArc
 50
284.7819379122
 51
316.7084968357
  0
ARC
  5
6A
330
1F
100
AcDbEntity
  8
0
  6
Continuous
 62
     7
100
AcDbCircle
 10
1030.2948478872
 20
144.4193978617
 30
0.0
 40
0.3000000000007673
100
AcDbArc
 50
104.7819379122
 51
196.7084968357
  0
ARC
  5
6B
330
1F
100
AcDbEntity
  8
0
  6
Continuous
 62
     7
100
AcDbCircle
 10
1026.0287033027
 20
143.1388035133
 30
0.0
 40
4.154201555956181
100
AcDbArc
 50
344.7819379122
 51
16.7084968357
  0
ARC
  5
6C
330
1F
100
AcDbEntity
  8
0
  6
Continuous
 62
     7
100
AcDbCircle
 10
1030.326712906
 20
141.9696050908
 30
0.0
 40
0.3000000000005548
100
AcDbArc
 50
164.7819379122
 51
256.7084968357
  0
ARC
  5
6D
330
1F
100
AcDbEntity
  8
0
  6
Continuous
 62
     7
100
AcDbCircle
 10
1029.3026678514
 20
137.6347183302
 30
0.0
 40
4.154201555956184
100
AcDbArc
 50
44.7819379122
 51
76.7084968357
  0
ARC
  5
6E
330
1F
100
AcDbEntity
  8
0
  6
Continuous
 62
     7
100
AcDbCircle
 10
1032.464228189
 20
140.772304621
 30
0.0
 40
0.2999999999999258
100
AcDbArc
 50
224.7819379122
 51
316.7084968357
  0
ARC
  5
6F
330
1F
100
AcDbEntity
  8
0
  6
Continuous
 62
     7
100
AcDbCircle
 10
1035.7063277189
 20
137.7180122088
 30
0.0
 40
4.154201555956435
100
AcDbArc
 50
104.7819379122
 51
136.7084968357
  0
ARC
  5
70
330
1F
100
AcDbEntity
  8
0
  6
Continuous
 62
     7
100
AcDbCircle
 10
1034.5698784533
 20
142.0247969222
 30
0.0
 40
0.3000000000005032
100
AcDbArc
 50
284.7819379121
 51
16.7084968357
  0
CIRCLE
  5
71
330
1F
100
AcDbEntity
  8
0
  6
Continuous
 62
     7
100
AcDbCircle
 10
1032.4323631702
 20
143.222097392
 30
0.0
 40
3.132785809343601
  0
CIRCLE
  5
72
330
1F
100
AcDbEntity
  8
0
  6
Continuous
 62
     7
100
AcDbCircle
 10
1032.4323631702
 20
143.222097392
 30
0.0
 40
3.825687437599278
  0
CIRCLE
  5
73
330
1F
100
AcDbEntity
  8
0
  6
Continuous
 62
     7
100
AcDbCircle
 10
1032.4323631702
 20
143.222097392
 30
0.0
 40
5.092901628255428
  0
CIRCLE
  5
74
330
1F
100
AcDbEntity
  8
0
  6
Continuous
 62
     7
100
AcDbCircle
 10
1032.4323631702
 20
143.222097392
 30
0.0
 40
5.899999999999878
  0
ARC
  5
75
330
1F
100
AcDbEntity
  8
0
  6
Continuous
 62
     7
100
AcDbCircle
 10
613.8399335308
 20
141.6846724932
 30
0.0
 40
0.3000000000004687
100
AcDbArc
 50
275.1693048236
 51
7.0958637471
  0
ARC
  5
76
330
1F
100
AcDbEntity
  8
0
  6
Continuous
 62
     7
100
AcDbCircle
 10
614.2175973693
 20
144.1053893343
 30
0.0
 40
0.3000000000005104
100
AcDbArc
 50
335.1693048236
 51
67.0958637471
  0
ARC
  5
77
330
1F
100
AcDbEntity
  8
0
  6
Continuous
 62
     7
100
AcDbCircle
 10
609.6234735247
 20
149.1956077648
 30
0.0
 40
4.15420155595621
100
AcDbArc
 50
275.1693048236
 51
307.0958637471
  0
ARC
  5
78
330
1F
100
AcDbEntity
  8
0
  6
Continuous
 62
     7
100
AcDbCircle
 10
609.6471289712
 20
142.3388054496
 30
0.0
 40
0.299999999999882
100
AcDbArc
 50
155.1693048236
 51
247.095863747
  0
ARC
  5
79
330
1F
100
AcDbEntity
  8
0
  6
Continuous
 62
     7
100
AcDbCircle
 10
607.9135962604
 20
138.235785118
 30
0.0
 40
4.154201555956379
100
AcDbArc
 50
35.1693048236
 51
67.0958637471
  0
ARC
  5
7A
330
1F
100
AcDbEntity
  8
0
  6
Continuous
 62
     7
100
AcDbCircle
 10
611.5546993317
 20
140.8013805508
 30
0.0
 40
0.3000000000005186
100
AcDbArc
 50
215.1693048236
 51
307.0958637471
  0
CIRCLE
  5
7B
330
1F
100
AcDbEntity
  8
0
  6
Continuous
 62
     7
100
AcDbCircle
 10
611.9323631702
 20
143.222097392
 30
0.0
 40
3.132785809343624
  0
ARC
  5
7C
330
1F
100
AcDbEntity
  8
0
  6
Continuous
 62
     7
100
AcDbCircle
 10
614.2412528158
 20
137.2485870192
 30
0.0
 40
4.154201555956255
100
AcDbArc
 50
95.1693048236
 51
127.0958637471
  0
ARC
  5
7D
330
1F
100
AcDbEntity
  8
0
  6
Continuous
 62
     7
100
AcDbCircle
 10
605.6047066148
 20
144.2092954908
 30
0.0
 40
4.154201555956188
100
AcDbArc
 50
335.1693048236
 51
7.0958637471
  0
ARC
  5
7E
330
1F
100
AcDbEntity
  8
0
  6
Continuous
 62
     7
100
AcDbCircle
 10
610.0247928097
 20
144.7595222908
 30
0.0
 40
0.3000000000006978
100
AcDbArc
 50
95.1693048236
 51
187.0958637471
  0
ARC
  5
7F
330
1F
100
AcDbEntity
  8
0
  6
Continuous
 62
     7
100
AcDbCircle
 10
618.2600197256
 20
142.2348992931
 30
0.0
 40
4.154201555956321
100
AcDbArc
 50
155.1693048236
 51
187.0958637471
  0
ARC
  5
80
330
1F
100
AcDbEntity
  8
0
  6
Continuous
 62
     7
100
AcDbCircle
 10
612.3100270087
 20
145.6428142331
 30
0.0
 40
0.3000000000005514
100
AcDbArc
 50
35.1693048236
 51
127.0958637471
  0
ARC
  5
81
330
1F
100
AcDbEntity
  8
0
  6
Continuous
 62
     7
100
AcDbCircle
 10
615.9511300801
 20
148.2084096659
 30
0.0
 40
4.154201555956378
100
AcDbArc
 50
215.1693048236
 51
247.0958637471
  0
CIRCLE
  5
82
330
1F
100
AcDbEntity
  8
0
  6
Continuous
 62
     7
100
AcDbCircle
 10
611.9323631702
 20
143.222097392
 30
0.0
 40
3.825687437599099
  0
CIRCLE
  5
83
330
1F
100
AcDbEntity
  8
0
  6
Continuous
 62
     7
100
AcDbCircle
 10
611.9323631702
 20
143.222097392
 30
0.0
 40
5.092901628255406
  0
CIRCLE
  5
84
330
1F
100
AcDbEntity
  8
0
  6
Continuous
 62
     7
100
AcDbCircle
 10
611.9323631702
 20
143.222097392
 30
0.0
 40
5.899999999999968
  0
ARC
  5
85
330
1F
100
AcDbEntity
  8
0
  6
Continuous
 62
     7
100
AcDbCircle
 10
880.0323631702
 20
109.769097392
 30
0.0
 40
0.0208514492890686
100
AcDbArc
 50
90.0
 51
180.0
  0
LINE
  5
86
330
1F
100
AcDbEntity
  8
0
  6
Continuous
 62
     7
100
AcDbLine
 10
914.3323631702
 20
109.7899488413
 30
0.0
 11
880.0323631702
 21
109.7899488413
 31
0.0
  0
ARC
  5
87
330
1F
100
AcDbEntity
  8
0
  6
Continuous
 62
     7
100
AcDbCircle
 10
914.3323631702
 20
109.769097392
 30
0.0
 40
0.0208514492891254
100
AcDbArc
 50
0.0
 51
90.0
  0
LINE
  5
88
330
1F
100
AcDbEntity
  8
0
  6
Continuous
 62
     7
100
AcDbLine
 10
880.0115117209
 20
109.769097392
 30
0.0
 11
914.3532146195
 21
109.769097392
 31
0.0
  0
ARC
  5
89
330
1F
100
AcDbEntity
  8
0
  6
Continuous
 62
     7
100
AcDbCircle
 10
839.3323631702
 20
109.769097392
 30
0.0
 40
0.0208514492890686
100
AcDbArc
 50
0.0
 51
90.0
  0
LINE
  5
8A
330
1F
100
AcDbEntity
  8
0
  6
Continuous
 62
     7
100
AcDbLine
 10
839.3323631702
 20
122.169656603
 30
0.0
 11
839.3323631702
 21
109.7899488413
 31
0.0
  0
ARC
  5
8B
330
1F
100
AcDbEntity
  8
0
  6
Continuous
 62
     7
100
AcDbCircle
 10
839.3323631702
 20
109.769097392
 30
0.0
 40
12.40055921103635
100
AcDbArc
 50
0.0
 51
90.0
  0
LINE
  5
8C
330
1F
100
AcDbEntity
  8
0
  6
Continuous
 62
     7
100
AcDbLine
 10
851.7329223813
 20
109.769097392
 30
0.0
 11
839.3532146195
 21
109.769097392
 31
0.0
  0
ARC
  5
8D
330
1F
100
AcDbEntity
  8
0
  6
Continuous
 62
     7
100
AcDbCircle
 10
689.3323631702
 20
109.769097392
 30
0.0
 40
0.0208514492891254
100
AcDbArc
 50
0.0
 51
90.0
  0
LINE
  5
8E
330
1F
100
AcDbEntity
  8
0
  6
Continuous
 62
     7
100
AcDbLine
 10
689.3323631702
 20
122.169656603
 30
0.0
 11
689.3323631702
 21
109.7899488413
 31
0.0
  0
ARC
  5
8F
330
1F
100
AcDbEntity
  8
0
  6
Continuous
 62
     7
100
AcDbCircle
 10
689.3323631702
 20
109.769097392
 30
0.0
 40
12.40055921103635
100
AcDbArc
 50
0.0
 51
90.0
  0
LINE
  5
90
330
1F
100
AcDbEntity
  8
0
  6
Continuous
 62
     7
100
AcDbLine
 10
701.7329223813
 20
109.769097392
 30
0.0
 11
689.3532146195
 21
109.769097392
 31
0.0
  0
LINE
  5
91
330
1F
100
AcDbEntity
  8
0
  6
Continuous
 62
     7
100
AcDbLine
 10
689.3323631702
 20
109.7899488413
 30
0.0
 11
655.0323631702
 21
109.7899488413
 31
0.0
  0
LINE
  5
92
330
1F
100
AcDbEntity
  8
0
  6
Continuous
 62
     7
100
AcDbLine
 10
655.0323631702
 20
122.169656603
 30
0.0
 11
655.0323631702
 21
109.7899488413
 31
0.0
  0
LINE
  5
93
330
1F
100
AcDbEntity
  8
0
  6
Continuous
 62
     7
100
AcDbLine
 10
689.3323631702
 20
122.169656603
 30
0.0
 11
655.0323631702
 21
122.169656603
 31
0.0
  0
ARC
  5
94
330
1F
100
AcDbEntity
  8
0
  6
Continuous
 62
     7
100
AcDbCircle
 10
655.0323631702
 20
109.769097392
 30
0.0
 40
0.0208514492891254
100
AcDbArc
 50
90.0
 51
180.0
  0
LINE
  5
95
330
1F
100
AcDbEntity
  8
0
  6
Continuous
 62
     7
100
AcDbLine
 10
655.0115117209
 20
109.769097392
 30
0.0
 11
642.6318039592
 21
109.769097392
 31
0.0
  0
ARC
  5
96
330
1F
100
AcDbEntity
  8
0
  6
Continuous
 62
     7
100
AcDbCircle
 10
655.0323631702
 20
109.769097392
 30
0.0
 40
12.40055921103634
100
AcDbArc
 50
90.0
 51
180.0
  0
LINE
  5
97
330
1F
100
AcDbEntity
  8
0
  6
Continuous
 62
     7
100
AcDbLine
 10
655.0115117209
 20
109.769097392
 30
0.0
 11
689.3532146195
 21
109.769097392
 31
0.0
  0
ARC
  5
98
330
1F
100
AcDbEntity
  8
0
  6
Continuous
 62
     7
100
AcDbCircle
 10
764.3323631702
 20
109.769097392
 30
0.0
 40
0.0208514492890686
100
AcDbArc
 50
0.0
 51
90.0
  0
LINE
  5
99
330
1F
100
AcDbEntity
  8
0
  6
Continuous
 62
     7
100
AcDbLine
 10
764.3323631702
 20
122.169656603
 30
0.0
 11
764.3323631702
 21
109.7899488413
 31
0.0
  0
ARC
  5
9A
330
1F
100
AcDbEntity
  8
0
  6
Continuous
 62
     7
100
AcDbCircle
 10
764.3323631702
 20
109.769097392
 30
0.0
 40
12.40055921103634
100
AcDbArc
 50
0.0
 51
90.0
  0
LINE
  5
9B
330
1F
100
AcDbEntity
  8
0
  6
Continuous
 62
     7
100
AcDbLine
 10
776.7329223813
 20
109.769097392
 30
0.0
 11
764.3532146195
 21
109.769097392
 31
0.0
  0
LINE
  5
9C
330
1F
100
AcDbEntity
  8
0
  6
Continuous
 62
     7
100
AcDbLine
 10
764.3323631702
 20
109.7899488413
 30
0.0
 11
730.0323631702
 21
109.7899488413
 31
0.0
  0
LINE
  5
9D
330
1F
100
AcDbEntity
  8
0
  6
Continuous
 62
     7
100
AcDbLine
 10
730.0323631702
 20
122.169656603
 30
0.0
 11
730.0323631702
 21
109.7899488413
 31
0.0
  0
LINE
  5
9E
330
1F
100
AcDbEntity
  8
0
  6
Continuous
 62
     7
100
AcDbLine
 10
764.3323631702
 20
122.169656603
 30
0.0
 11
730.0323631702
 21
122.169656603
 31
0.0
  0
ARC
  5
9F
330
1F
100
AcDbEntity
  8
0
  6
Continuous
 62
     7
100
AcDbCircle
 10
730.0323631702
 20
109.769097392
 30
0.0
 40
0.0208514492891254
100
AcDbArc
 50
90.0
 51
180.0
  0
LINE
  5
A0
330
1F
100
AcDbEntity
  8
0
  6
Continuous
 62
     7
100
AcDbLine
 10
730.0115117209
 20
109.769097392
 30
0.0
 11
717.6318039592
 21
109.769097392
 31
0.0
  0
ARC
  5
A1
330
1F
100
AcDbEntity
  8
0
  6
Continuous
 62
     7
100
AcDbCircle
 10
730.0323631702
 20
109.769097392
 30
0.0
 40
12.40055921103635
100
AcDbArc
 50
90.0
 51
180.0
  0
LINE
  5
A2
330
1F
100
AcDbEntity
  8
0
  6
Continuous
 62
     7
100
AcDbLine
 10
730.0115117209
 20
109.769097392
 30
0.0
 11
764.3532146195
 21
109.769097392
 31
0.0
  0
LINE
  5
A3
330
1F
100
AcDbEntity
  8
0
  6
Continuous
 62
     7
100
AcDbLine
 10
914.3323631702
 20
122.169656603
 30
0.0
 11
914.3323631702
 21
109.7899488413
 31
0.0
  0
ARC
  5
A4
330
1F
100
AcDbEntity
  8
0
  6
Continuous
 62
     7
100
AcDbCircle
 10
914.3323631702
 20
109.769097392
 30
0.0
 40
12.40055921103635
100
AcDbArc
 50
0.0
 51
90.0
  0
LINE
  5
A5
330
1F
100
AcDbEntity
  8
0
  6
Continuous
 62
     7
100
AcDbLine
 10
926.7329223813
 20
109.769097392
 30
0.0
 11
914.3532146195
 21
109.769097392
 31
0.0
  0
LINE
  5
A6
330
1F
100
AcDbEntity
  8
0
  6
Continuous
 62
     7
100
AcDbLine
 10
880.0323631702
 20
122.169656603
 30
0.0
 11
880.0323631702
 21
109.7899488413
 31
0.0
  0
LINE
  5
A7
330
1F
100
AcDbEntity
  8
0
  6
Continuous
 62
     7
100
AcDbLine
 10
914.3323631702
 20
122.169656603
 30
0.0
 11
880.0323631702
 21
122.169656603
 31
0.0
  0
ARC
  5
A8
330
1F
100
AcDbEntity
  8
0
  6
Continuous
 62
     7
100
AcDbCircle
 10
880.0323631702
 20
109.769097392
 30
0.0
 40
12.40055921103634
100
AcDbArc
 50
90.0
 51
180.0
  0
LINE
  5
A9
330
1F
100
AcDbEntity
  8
0
  6
Continuous
 62
     7
100
AcDbLine
 10
880.0115117209
 20
109.769097392
 30
0.0
 11
867.6318039592
 21
109.769097392
 31
0.0
  0
ARC
  5
AA
330
1F
100
AcDbEntity
  8
0
  6
Continuous
 62
     7
100
AcDbCircle
 10
955.0323631702
 20
109.769097392
 30
0.0
 40
0.0208514492891254
100
AcDbArc
 50
90.0
 51
180.0
  0
ARC
  5
AB
330
1F
100
AcDbEntity
  8
0
  6
Continuous
 62
     7
100
AcDbCircle
 10
955.0323631702
 20
109.769097392
 30
0.0
 40
12.40055921103635
100
AcDbArc
 50
90.0
 51
180.0
  0
LINE
  5
AC
330
1F
100
AcDbEntity
  8
0
  6
Continuous
 62
     7
100
AcDbLine
 10
955.0323631702
 20
122.169656603
 30
0.0
 11
955.0323631702
 21
109.7899488413
 31
0.0
  0
LINE
  5
AD
330
1F
100
AcDbEntity
  8
0
  6
Continuous
 62
     7
100
AcDbLine
 10
955.0115117209
 20
109.769097392
 30
0.0
 11
942.6318039592
 21
109.769097392
 31
0.0
  0
ARC
  5
AE
330
1F
100
AcDbEntity
  8
0
  6
Continuous
 62
     7
100
AcDbCircle
 10
805.0323631702
 20
109.769097392
 30
0.0
 40
0.0208514492890686
100
AcDbArc
 50
90.0
 51
180.0
  0
LINE
  5
AF
330
1F
100
AcDbEntity
  8
0
  6
Continuous
 62
     7
100
AcDbLine
 10
805.0115117209
 20
109.769097392
 30
0.0
 11
792.6318039592
 21
109.769097392
 31
0.0
  0
ARC
  5
B0
330
1F
100
AcDbEntity
  8
0
  6
Continuous
 62
     7
100
AcDbCircle
 10
805.0323631702
 20
109.769097392
 30
0.0
 40
12.40055921103635
100
AcDbArc
 50
90.0
 51
180.0
  0
LINE
  5
B1
330
1F
100
AcDbEntity
  8
0
  6
Continuous
 62
     7
100
AcDbLine
 10
805.0323631702
 20
122.169656603
 30
0.0
 11
805.0323631702
 21
109.7899488413
 31
0.0
  0
LINE
  5
B2
330
1F
100
AcDbEntity
  8
0
  6
Continuous
 62
     7
100
AcDbLine
 10
839.3323631702
 20
109.7899488413
 30
0.0
 11
805.0323631702
 21
109.7899488413
 31
0.0
  0
LINE
  5
B3
330
1F
100
AcDbEntity
  8
0
  6
Continuous
 62
     7
100
AcDbLine
 10
805.0115117209
 20
109.769097392
 30
0.0
 11
839.3532146195
 21
109.769097392
 31
0.0
  0
LINE
  5
B4
330
1F
100
AcDbEntity
  8
0
  6
Continuous
 62
     7
100
AcDbLine
 10
989.3323631702
 20
109.7899488413
 30
0.0
 11
955.0323631702
 21
109.7899488413
 31
0.0
  0
LINE
  5
B5
330
1F
100
AcDbEntity
  8
0
  6
Continuous
 62
     7
100
AcDbLine
 10
989.3323631702
 20
122.169656603
 30
0.0
 11
955.0323631702
 21
122.169656603
 31
0.0
  0
LINE
  5
B6
330
1F
100
AcDbEntity
  8
0
  6
Continuous
 62
     7
100
AcDbLine
 10
989.3323631702
 20
122.169656603
 30
0.0
 11
989.3323631702
 21
109.7899488413
 31
0.0
  0
ARC
  5
B7
330
1F
100
AcDbEntity
  8
0
  6
Continuous
 62
     7
100
AcDbCircle
 10
989.3323631702
 20
109.769097392
 30
0.0
 40
0.0208514492891254
100
AcDbArc
 50
0.0
 51
90.0
  0
ARC
  5
B8
330
1F
100
AcDbEntity
  8
0
  6
Continuous
 62
     7
100
AcDbCircle
 10
989.3323631702
 20
109.769097392
 30
0.0
 40
12.40055921103634
100
AcDbArc
 50
0.0
 51
90.0
  0
LINE
  5
B9
330
1F
100
AcDbEntity
  8
0
  6
Continuous
 62
     7
100
AcDbLine
 10
1001.7329223813
 20
109.769097392
 30
0.0
 11
989.3532146195
 21
109.769097392
 31
0.0
  0
LINE
  5
BA
330
1F
100
AcDbEntity
  8
0
  6
Continuous
 62
     7
100
AcDbLine
 10
955.0115117209
 20
109.769097392
 30
0.0
 11
989.3532146195
 21
109.769097392
 31
0.0
  0
LINE
  5
BB
330
1F
100
AcDbEntity
  8
0
  6
Continuous
 62
     7
100
AcDbLine
 10
839.3323631702
 20
122.169656603
 30
0.0
 11
805.0323631702
 21
122.169656603
 31
0.0
  0
ARC
  5
BC
330
1F
100
AcDbEntity
  8
0
  6
Continuous
 62
     7
100
AcDbCircle
 10
955.0323631702
 20
127.769097392
 30
0.0
 40
0.0208514492891254
100
AcDbArc
 50
90.0
 51
180.0
  0
LINE
  5
BD
330
1F
100
AcDbEntity
  8
0
  6
Continuous
 62
     7
100
AcDbLine
 10
989.3323631702
 20
127.7899488413
 30
0.0
 11
955.0323631702
 21
127.7899488413
 31
0.0
  0
ARC
  5
BE
330
1F
100
AcDbEntity
  8
0
  6
Continuous
 62
     7
100
AcDbCircle
 10
989.3323631702
 20
127.769097392
 30
0.0
 40
0.0208514492891254
100
AcDbArc
 50
0.0
 51
90.0
  0
LINE
  5
BF
330
1F
100
AcDbEntity
  8
0
  6
Continuous
 62
     7
100
AcDbLine
 10
955.0115117209
 20
127.769097392
 30
0.0
 11
989.3532146195
 21
127.769097392
 31
0.0
  0
ARC
  5
C0
330
1F
100
AcDbEntity
  8
0
  6
Continuous
 62
     7
100
AcDbCircle
 10
805.0323631702
 20
127.769097392
 30
0.0
 40
0.0208514492890686
100
AcDbArc
 50
90.0
 51
180.0
  0
LINE
  5
C1
330
1F
100
AcDbEntity
  8
0
  6
Continuous
 62
     7
100
AcDbLine
 10
839.3323631702
 20
127.7899488413
 30
0.0
 11
805.0323631702
 21
127.7899488413
 31
0.0
  0
ARC
  5
C2
330
1F
100
AcDbEntity
  8
0
  6
Continuous
 62
     7
100
AcDbCircle
 10
839.3323631702
 20
127.769097392
 30
0.0
 40
0.0208514492890686
100
AcDbArc
 50
0.0
 51
90.0
  0
LINE
  5
C3
330
1F
100
AcDbEntity
  8
0
  6
Continuous
 62
     7
100
AcDbLine
 10
805.0115117209
 20
127.769097392
 30
0.0
 11
839.3532146195
 21
127.769097392
 31
0.0
  0
LINE
  5
C4
330
1F
100
AcDbEntity
  8
0
  6
Continuous
 62
     7
100
AcDbLine
 10
805.0115117209
 20
127.769097392
 30
0.0
 11
792.6318039592
 21
127.769097392
 31
0.0
  0
ARC
  5
C5
330
1F
100
AcDbEntity
  8
0
  6
Continuous
 62
     7
100
AcDbCircle
 10
805.0323631702
 20
127.769097392
 30
0.0
 40
12.40055921103635
100
AcDbArc
 50
90.0
 51
180.0
  0
LINE
  5
C6
330
1F
100
AcDbEntity
  8
0
  6
Continuous
 62
     7
100
AcDbLine
 10
805.0323631702
 20
140.169656603
 30
0.0
 11
805.0323631702
 21
127.7899488413
 31
0.0
  0
ARC
  5
C7
330
1F
100
AcDbEntity
  8
0
  6
Continuous
 62
     7
100
AcDbCircle
 10
655.0323631702
 20
127.769097392
 30
0.0
 40
0.0208514492891254
100
AcDbArc
 50
90.0
 51
180.0
  0
LINE
  5
C8
330
1F
100
AcDbEntity
  8
0
  6
Continuous
 62
     7
100
AcDbLine
 10
689.3323631702
 20
127.7899488413
 30
0.0
 11
655.0323631702
 21
127.7899488413
 31
0.0
  0
ARC
  5
C9
330
1F
100
AcDbEntity
  8
0
  6
Continuous
 62
     7
100
AcDbCircle
 10
689.3323631702
 20
127.769097392
 30
0.0
 40
0.0208514492891254
100
AcDbArc
 50
0.0
 51
90.0
  0
LINE
  5
CA
330
1F
100
AcDbEntity
  8
0
  6
Continuous
 62
     7
100
AcDbLine
 10
655.0115117209
 20
127.769097392
 30
0.0
 11
689.3532146195
 21
127.769097392
 31
0.0
  0
ARC
  5
CB
330
1F
100
AcDbEntity
  8
0
  6
Continuous
 62
     7
100
AcDbCircle
 10
880.0323631702
 20
127.769097392
 30
0.0
 40
0.0208514492890686
100
AcDbArc
 50
90.0
 51
180.0
  0
LINE
  5
CC
330
1F
100
AcDbEntity
  8
0
  6
Continuous
 62
     7
100
AcDbLine
 10
914.3323631702
 20
127.7899488413
 30
0.0
 11
880.0323631702
 21
127.7899488413
 31
0.0
  0
ARC
  5
CD
330
1F
100
AcDbEntity
  8
0
  6
Continuous
 62
     7
100
AcDbCircle
 10
914.3323631702
 20
127.769097392
 30
0.0
 40
0.0208514492891254
100
AcDbArc
 50
0.0
 51
90.0
  0
LINE
  5
CE
330
1F
100
AcDbEntity
  8
0
  6
Continuous
 62
     7
100
AcDbLine
 10
880.0115117209
 20
127.769097392
 30
0.0
 11
914.3532146195
 21
127.769097392
 31
0.0
  0
ARC
  5
CF
330
1F
100
AcDbEntity
  8
0
  6
Continuous
 62
     7
100
AcDbCircle
 10
764.3323631702
 20
127.769097392
 30
0.0
 40
0.0208514492890686
100
AcDbArc
 50
0.0
 51
90.0
  0
LINE
  5
D0
330
1F
100
AcDbEntity
  8
0
  6
Continuous
 62
     7
100
AcDbLine
 10
764.3323631702
 20
140.169656603
 30
0.0
 11
764.3323631702
 21
127.7899488413
 31
0.0
  0
ARC
  5
D1
330
1F
100
AcDbEntity
  8
0
  6
Continuous
 62
     7
100
AcDbCircle
 10
764.3323631702
 20
127.769097392
 30
0.0
 40
12.40055921103632
100
AcDbArc
 50
0.0
 51
90.0
  0
LINE
  5
D2
330
1F
100
AcDbEntity
  8
0
  6
Continuous
 62
     7
100
AcDbLine
 10
776.7329223813
 20
127.769097392
 30
0.0
 11
764.3532146195
 21
127.769097392
 31
0.0
  0
LINE
  5
D3
330
1F
100
AcDbEntity
  8
0
  6
Continuous
 62
     7
100
AcDbLine
 10
839.3323631702
 20
140.169656603
 30
0.0
 11
839.3323631702
 21
127.7899488413
 31
0.0
  0
ARC
  5
D4
330
1F
100
AcDbEntity
  8
0
  6
Continuous
 62
     7
100
AcDbCircle
 10
839.3323631702
 20
127.769097392
 30
0.0
 40
12.40055921103635
100
AcDbArc
 50
0.0
 51
90.0
  0
LINE
  5
D5
330
1F
100
AcDbEntity
  8
0
  6
Continuous
 62
     7
100
AcDbLine
 10
851.7329223813
 20
127.769097392
 30
0.0
 11
839.3532146195
 21
127.769097392
 31
0.0
  0
LINE
  5
D6
330
1F
100
AcDbEntity
  8
0
  6
Continuous
 62
     7
100
AcDbLine
 10
689.3323631702
 20
140.169656603
 30
0.0
 11
689.3323631702
 21
127.7899488413
 31
0.0
  0
ARC
  5
D7
330
1F
100
AcDbEntity
  8
0
  6
Continuous
 62
     7
100
AcDbCircle
 10
689.3323631702
 20
127.769097392
 30
0.0
 40
12.40055921103635
100
AcDbArc
 50
0.0
 51
90.0
  0
LINE
  5
D8
330
1F
100
AcDbEntity
  8
0
  6
Continuous
 62
     7
100
AcDbLine
 10
701.7329223813
 20
127.769097392
 30
0.0
 11
689.3532146195
 21
127.769097392
 31
0.0
  0
LINE
  5
D9
330
1F
100
AcDbEntity
  8
0
  6
Continuous
 62
     7
100
AcDbLine
 10
914.3323631702
 20
140.169656603
 30
0.0
 11
914.3323631702
 21
127.7899488413
 31
0.0
  0
ARC
  5
DA
330
1F
100
AcDbEntity
  8
0
  6
Continuous
 62
     7
100
AcDbCircle
 10
914.3323631702
 20
127.769097392
 30
0.0
 40
12.40055921103635
100
AcDbArc
 50
0.0
 51
90.0
  0
LINE
  5
DB
330
1F
100
AcDbEntity
  8
0
  6
Continuous
 62
     7
100
AcDbLine
 10
926.7329223813
 20
127.769097392
 30
0.0
 11
914.3532146195
 21
127.769097392
 31
0.0
  0
LINE
  5
DC
330
1F
100
AcDbEntity
  8
0
  6
Continuous
 62
     7
100
AcDbLine
 10
880.0323631702
 20
140.169656603
 30
0.0
 11
880.0323631702
 21
127.7899488413
 31
0.0
  0
LINE
  5
DD
330
1F
100
AcDbEntity
  8
0
  6
Continuous
 62
     7
100
AcDbLine
 10
914.3323631702
 20
140.169656603
 30
0.0
 11
880.0323631702
 21
140.169656603
 31
0.0
  0
LINE
  5
DE
330
1F
100
AcDbEntity
  8
0
  6
Continuous
 62
     7
100
AcDbLine
 10
880.0115117209
 20
127.769097392
 30
0.0
 11
867.6318039592
 21
127.769097392
 31
0.0
  0
ARC
  5
DF
330
1F
100
AcDbEntity
  8
0
  6
Continuous
 62
     7
100
AcDbCircle
 10
880.0323631702
 20
127.769097392
 30
0.0
 40
12.40055921103632
100
AcDbArc
 50
90.0
 51
180.0
  0
ARC
  5
E0
330
1F
100
AcDbEntity
  8
0
  6
Continuous
 62
     7
100
AcDbCircle
 10
955.0323631702
 20
127.769097392
 30
0.0
 40
12.40055921103635
100
AcDbArc
 50
90.0
 51
180.0
  0
LINE
  5
E1
330
1F
100
AcDbEntity
  8
0
  6
Continuous
 62
     7
100
AcDbLine
 10
955.0323631702
 20
140.169656603
 30
0.0
 11
955.0323631702
 21
127.7899488413
 31
0.0
  0
LINE
  5
E2
330
1F
100
AcDbEntity
  8
0
  6
Continuous
 62
     7
100
AcDbLine
 10
955.0115117209
 20
127.769097392
 30
0.0
 11
942.6318039592
 21
127.769097392
 31
0.0
  0
LINE
  5
E3
330
1F
100
AcDbEntity
  8
0
  6
Continuous
 62
     7
100
AcDbLine
 10
655.0115117209
 20
127.769097392
 30
0.0
 11
642.6318039592
 21
127.769097392
 31
0.0
  0
ARC
  5
E4
330
1F
100
AcDbEntity
  8
0
  6
Continuous
 62
     7
100
AcDbCircle
 10
655.0323631702
 20
127.769097392
 30
0.0
 40
12.40055921103632
100
AcDbArc
 50
90.0
 51
180.0
  0
LINE
  5
E5
330
1F
100
AcDbEntity
  8
0
  6
Continuous
 62
     7
100
AcDbLine
 10
655.0323631702
 20
140.169656603
 30
0.0
 11
655.0323631702
 21
127.7899488413
 31
0.0
  0
LINE
  5
E6
330
1F
100
AcDbEntity
  8
0
  6
Continuous
 62
     7
100
AcDbLine
 10
839.3323631702
 20
140.169656603
 30
0.0
 11
805.0323631702
 21
140.169656603
 31
0.0
  0
ARC
  5
E7
330
1F
100
AcDbEntity
  8
0
  6
Continuous
 62
     7
100
AcDbCircle
 10
730.0323631702
 20
127.769097392
 30
0.0
 40
0.0208514492891254
100
AcDbArc
 50
90.0
 51
180.0
  0
LINE
  5
E8
330
1F
100
AcDbEntity
  8
0
  6
Continuous
 62
     7
100
AcDbLine
 10
764.3323631702
 20
127.7899488413
 30
0.0
 11
730.0323631702
 21
127.7899488413
 31
0.0
  0
LINE
  5
E9
330
1F
100
AcDbEntity
  8
0
  6
Continuous
 62
     7
100
AcDbLine
 10
730.0115117209
 20
127.769097392
 30
0.0
 11
764.3532146195
 21
127.769097392
 31
0.0
  0
LINE
  5
EA
330
1F
100
AcDbEntity
  8
0
  6
Continuous
 62
     7
100
AcDbLine
 10
989.3323631702
 20
140.169656603
 30
0.0
 11
955.0323631702
 21
140.169656603
 31
0.0
  0
LINE
  5
EB
330
1F
100
AcDbEntity
  8
0
  6
Continuous
 62
     7
100
AcDbLine
 10
989.3323631702
 20
140.169656603
 30
0.0
 11
989.3323631702
 21
127.7899488413
 31
0.0
  0
ARC
  5
EC
330
1F
100
AcDbEntity
  8
0
  6
Continuous
 62
     7
100
AcDbCircle
 10
989.3323631702
 20
127.769097392
 30
0.0
 40
12.40055921103632
100
AcDbArc
 50
0.0
 51
90.0
  0
LINE
  5
ED
330
1F
100
AcDbEntity
  8
0
  6
Continuous
 62
     7
100
AcDbLine
 10
1001.7329223813
 20
127.769097392
 30
0.0
 11
989.3532146195
 21
127.769097392
 31
0.0
  0
LINE
  5
EE
330
1F
100
AcDbEntity
  8
0
  6
Continuous
 62
     7
100
AcDbLine
 10
730.0323631702
 20
140.169656603
 30
0.0
 11
730.0323631702
 21
127.7899488413
 31
0.0
  0
LINE
  5
EF
330
1F
100
AcDbEntity
  8
0
  6
Continuous
 62
     7
100
AcDbLine
 10
764.3323631702
 20
140.169656603
 30
0.0
 11
730.0323631702
 21
140.169656603
 31
0.0
  0
ARC
  5
F0
330
1F
100
AcDbEntity
  8
0
  6
Continuous
 62
     7
100
AcDbCircle
 10
730.0323631702
 20
127.769097392
 30
0.0
 40
12.40055921103635
100
AcDbArc
 50
90.0
 51
180.0
  0
LINE
  5
F1
330
1F
100
AcDbEntity
  8
0
  6
Continuous
 62
     7
100
AcDbLine
 10
730.0115117209
 20
127.769097392
 30
0.0
 11
717.6318039592
 21
127.769097392
 31
0.0
  0
LINE
  5
F2
330
1F
100
AcDbEntity
  8
0
  6
Continuous
 62
     7
100
AcDbLine
 10
689.3323631702
 20
140.169656603
 30
0.0
 11
655.0323631702
 21
140.169656603
 31
0.0
  0
LINE
  5
F3
330
1F
100
AcDbEntity
  8
0
  6
Continuous
 62
     7
100
AcDbLine
 10
914.3323631702
 20
145.7899488413
 30
0.0
 11
880.0323631702
 21
145.7899488413
 31
0.0
  0
LINE
  5
F4
330
1F
100
AcDbEntity
  8
0
  6
Continuous
 62
     7
100
AcDbLine
 10
880.0323631702
 20
158.169656603
 30
0.0
 11
880.0323631702
 21
145.7899488413
 31
0.0
  0
LINE
  5
F5
330
1F
100
AcDbEntity
  8
0
  6
Continuous
 62
     7
100
AcDbLine
 10
914.3323631702
 20
158.169656603
 30
0.0
 11
880.0323631702
 21
158.169656603
 31
0.0
  0
LINE
  5
F6
330
1F
100
AcDbEntity
  8
0
  6
Continuous
 62
     7
100
AcDbLine
 10
914.3323631702
 20
158.169656603
 30
0.0
 11
914.3323631702
 21
145.7899488413
 31
0.0
  0
LINE
  5
F7
330
1F
100
AcDbEntity
  8
0
  6
Continuous
 62
     7
100
AcDbLine
 10
989.3323631702
 20
145.7899488413
 30
0.0
 11
955.0323631702
 21
145.7899488413
 31
0.0
  0
LINE
  5
F8
330
1F
100
AcDbEntity
  8
0
  6
Continuous
 62
     7
100
AcDbLine
 10
955.0323631702
 20
158.169656603
 30
0.0
 11
955.0323631702
 21
145.7899488413
 31
0.0
  0
LINE
  5
F9
330
1F
100
AcDbEntity
  8
0
  6
Continuous
 62
     7
100
AcDbLine
 10
989.3323631702
 20
158.169656603
 30
0.0
 11
955.0323631702
 21
158.169656603
 31
0.0
  0
LINE
  5
FA
330
1F
100
AcDbEntity
  8
0
  6
Continuous
 62
     7
100
AcDbLine
 10
989.3323631702
 20
158.169656603
 30
0.0
 11
989.3323631702
 21
145.7899488413
 31
0.0
  0
ARC
  5
FB
330
1F
100
AcDbEntity
  8
0
  6
Continuous
 62
     7
100
AcDbCircle
 10
989.3323631702
 20
145.769097392
 30
0.0
 40
0.0208514492891254
100
AcDbArc
 50
0.0
 51
90.0
  0
ARC
  5
FC
330
1F
100
AcDbEntity
  8
0
  6
Continuous
 62
     7
100
AcDbCircle
 10
989.3323631702
 20
145.769097392
 30
0.0
 40
12.4005592110363
100
AcDbArc
 50
0.0
 51
90.0
  0
LINE
  5
FD
330
1F
100
AcDbEntity
  8
0
  6
Continuous
 62
     7
100
AcDbLine
 10
1001.7329223813
 20
145.769097392
 30
0.0
 11
989.3532146195
 21
145.769097392
 31
0.0
  0
ARC
  5
FE
330
1F
100
AcDbEntity
  8
0
  6
Continuous
 62
     7
100
AcDbCircle
 10
805.0323631702
 20
145.769097392
 30
0.0
 40
0.0208514492890686
100
AcDbArc
 50
90.0
 51
180.0
  0
LINE
  5
FF
330
1F
100
AcDbEntity
  8
0
  6
Continuous
 62
     7
100
AcDbLine
 10
839.3323631702
 20
145.7899488413
 30
0.0
 11
805.0323631702
 21
145.7899488413
 31
0.0
  0
ARC
  5
100
330
1F
100
AcDbEntity
  8
0
  6
Continuous
 62
     7
100
AcDbCircle
 10
839.3323631702
 20
145.769097392
 30
0.0
 40
0.0208514492890686
100
AcDbArc
 50
0.0
 51
90.0
  0
LINE
  5
101
330
1F
100
AcDbEntity
  8
0
  6
Continuous
 62
     7
100
AcDbLine
 10
805.0115117209
 20
145.769097392
 30
0.0
 11
839.3532146195
 21
145.769097392
 31
0.0
  0
ARC
  5
102
330
1F
100
AcDbEntity
  8
0
  6
Continuous
 62
     7
100
AcDbCircle
 10
655.0323631702
 20
145.769097392
 30
0.0
 40
0.0208514492891254
100
AcDbArc
 50
90.0
 51
180.0
  0
LINE
  5
103
330
1F
100
AcDbEntity
  8
0
  6
Continuous
 62
     7
100
AcDbLine
 10
689.3323631702
 20
145.7899488413
 30
0.0
 11
655.0323631702
 21
145.7899488413
 31
0.0
  0
ARC
  5
104
330
1F
100
AcDbEntity
  8
0
  6
Continuous
 62
     7
100
AcDbCircle
 10
689.3323631702
 20
145.769097392
 30
0.0
 40
0.0208514492891254
100
AcDbArc
 50
0.0
 51
90.0
  0
LINE
  5
105
330
1F
100
AcDbEntity
  8
0
  6
Continuous
 62
     7
100
AcDbLine
 10
655.0115117209
 20
145.769097392
 30
0.0
 11
689.3532146195
 21
145.769097392
 31
0.0
  0
ARC
  5
106
330
1F
100
AcDbEntity
  8
0
  6
Continuous
 62
     7
100
AcDbCircle
 10
730.0323631702
 20
145.769097392
 30
0.0
 40
0.0208514492891254
100
AcDbArc
 50
90.0
 51
180.0
  0
LINE
  5
107
330
1F
100
AcDbEntity
  8
0
  6
Continuous
 62
     7
100
AcDbLine
 10
764.3323631702
 20
145.7899488413
 30
0.0
 11
730.0323631702
 21
145.7899488413
 31
0.0
  0
ARC
  5
108
330
1F
100
AcDbEntity
  8
0
  6
Continuous
 62
     7
100
AcDbCircle
 10
764.3323631702
 20
145.769097392
 30
0.0
 40
0.0208514492890686
100
AcDbArc
 50
0.0
 51
90.0
  0
LINE
  5
109
330
1F
100
AcDbEntity
  8
0
  6
Continuous
 62
     7
100
AcDbLine
 10
730.0115117209
 20
145.769097392
 30
0.0
 11
764.3532146195
 21
145.769097392
 31
0.0
  0
ARC
  5
10A
330
1F
100
AcDbEntity
  8
0
  6
Continuous
 62
     7
100
AcDbCircle
 10
914.3323631702
 20
145.769097392
 30
0.0
 40
0.0208514492891254
100
AcDbArc
 50
0.0
 51
90.0
  0
ARC
  5
10B
330
1F
100
AcDbEntity
  8
0
  6
Continuous
 62
     7
100
AcDbCircle
 10
914.3323631702
 20
145.769097392
 30
0.0
 40
12.40055921103635
100
AcDbArc
 50
0.0
 51
90.0
  0
LINE
  5
10C
330
1F
100
AcDbEntity
  8
0
  6
Continuous
 62
     7
100
AcDbLine
 10
926.7329223813
 20
145.769097392
 30
0.0
 11
914.3532146195
 21
145.769097392
 31
0.0
  0
ARC
  5
10D
330
1F
100
AcDbEntity
  8
0
  6
Continuous
 62
     7
100
AcDbCircle
 10
880.0323631702
 20
145.769097392
 30
0.0
 40
0.0208514492890686
100
AcDbArc
 50
90.0
 51
180.0
  0
ARC
  5
10E
330
1F
100
AcDbEntity
  8
0
  6
Continuous
 62
     7
100
AcDbCircle
 10
880.0323631702
 20
145.769097392
 30
0.0
 40
12.4005592110363
100
AcDbArc
 50
90.0
 51
180.0
  0
LINE
  5
10F
330
1F
100
AcDbEntity
  8
0
  6
Continuous
 62
     7
100
AcDbLine
 10
880.0115117209
 20
145.769097392
 30
0.0
 11
867.6318039592
 21
145.769097392
 31
0.0
  0
LINE
  5
110
330
1F
100
AcDbEntity
  8
0
  6
Continuous
 62
     7
100
AcDbLine
 10
764.3323631702
 20
158.169656603
 30
0.0
 11
764.3323631702
 21
145.7899488413
 31
0.0
  0
ARC
  5
111
330
1F
100
AcDbEntity
  8
0
  6
Continuous
 62
     7
100
AcDbCircle
 10
764.3323631702
 20
145.769097392
 30
0.0
 40
12.4005592110363
100
AcDbArc
 50
0.0
 51
90.0
  0
LINE
  5
112
330
1F
100
AcDbEntity
  8
0
  6
Continuous
 62
     7
100
AcDbLine
 10
776.7329223813
 20
145.769097392
 30
0.0
 11
764.3532146195
 21
145.769097392
 31
0.0
  0
LINE
  5
113
330
1F
100
AcDbEntity
  8
0
  6
Continuous
 62
     7
100
AcDbLine
 10
689.3323631702
 20
158.169656603
 30
0.0
 11
689.3323631702
 21
145.7899488413
 31
0.0
  0
ARC
  5
114
330
1F
100
AcDbEntity
  8
0
  6
Continuous
 62
     7
100
AcDbCircle
 10
689.3323631702
 20
145.769097392
 30
0.0
 40
12.40055921103635
100
AcDbArc
 50
0.0
 51
90.0
  0
LINE
  5
115
330
1F
100
AcDbEntity
  8
0
  6
Continuous
 62
     7
100
AcDbLine
 10
701.7329223813
 20
145.769097392
 30
0.0
 11
689.3532146195
 21
145.769097392
 31
0.0
  0
ARC
  5
116
330
1F
100
AcDbEntity
  8
0
  6
Continuous
 62
     7
100
AcDbCircle
 10
805.0323631702
 20
145.769097392
 30
0.0
 40
12.40055921103635
100
AcDbArc
 50
90.0
 51
180.0
  0
LINE
  5
117
330
1F
100
AcDbEntity
  8
0
  6
Continuous
 62
     7
100
AcDbLine
 10
805.0323631702
 20
158.169656603
 30
0.0
 11
805.0323631702
 21
145.7899488413
 31
0.0
  0
LINE
  5
118
330
1F
100
AcDbEntity
  8
0
  6
Continuous
 62
     7
100
AcDbLine
 10
805.0115117209
 20
145.769097392
 30
0.0
 11
792.6318039592
 21
145.769097392
 31
0.0
  0
ARC
  5
119
330
1F
100
AcDbEntity
  8
0
  6
Continuous
 62
     7
100
AcDbCircle
 10
655.0323631702
 20
145.769097392
 30
0.0
 40
12.4005592110363
100
AcDbArc
 50
90.0
 51
180.0
  0
LINE
  5
11A
330
1F
100
AcDbEntity
  8
0
  6
Continuous
 62
     7
100
AcDbLine
 10
655.0323631702
 20
158.169656603
 30
0.0
 11
655.0323631702
 21
145.7899488413
 31
0.0
  0
LINE
  5
11B
330
1F
100
AcDbEntity
  8
0
  6
Continuous
 62
     7
100
AcDbLine
 10
655.0115117209
 20
145.769097392
 30
0.0
 11
642.6318039592
 21
145.769097392
 31
0.0
  0
LINE
  5
11C
330
1F
100
AcDbEntity
  8
0
  6
Continuous
 62
     7
100
AcDbLine
 10
689.3323631702
 20
158.169656603
 30
0.0
 11
655.0323631702
 21
158.169656603
 31
0.0
  0
ARC
  5
11D
330
1F
100
AcDbEntity
  8
0
  6
Continuous
 62
     7
100
AcDbCircle
 10
955.0323631702
 20
145.769097392
 30
0.0
 40
0.0208514492891254
100
AcDbArc
 50
90.0
 51
180.0
  0
LINE
  5
11E
330
1F
100
AcDbEntity
  8
0
  6
Continuous
 62
     7
100
AcDbLine
 10
955.0115117209
 20
145.769097392
 30
0.0
 11
942.6318039592
 21
145.769097392
 31
0.0
  0
ARC
  5
11F
330
1F
100
AcDbEntity
  8
0
  6
Continuous
 62
     7
100
AcDbCircle
 10
955.0323631702
 20
145.769097392
 30
0.0
 40
12.40055921103635
100
AcDbArc
 50
90.0
 51
180.0
  0
LINE
  5
120
330
1F
100
AcDbEntity
  8
0
  6
Continuous
 62
     7
100
AcDbLine
 10
839.3323631702
 20
158.169656603
 30
0.0
 11
839.3323631702
 21
145.7899488413
 31
0.0
  0
ARC
  5
121
330
1F
100
AcDbEntity
  8
0
  6
Continuous
 62
     7
100
AcDbCircle
 10
839.3323631702
 20
145.769097392
 30
0.0
 40
12.40055921103635
100
AcDbArc
 50
0.0
 51
90.0
  0
LINE
  5
122
330
1F
100
AcDbEntity
  8
0
  6
Continuous
 62
     7
100
AcDbLine
 10
851.7329223813
 20
145.769097392
 30
0.0
 11
839.3532146195
 21
145.769097392
 31
0.0
  0
LINE
  5
123
330
1F
100
AcDbEntity
  8
0
  6
Continuous
 62
     7
100
AcDbLine
 10
955.0115117209
 20
145.769097392
 30
0.0
 11
989.3532146195
 21
145.769097392
 31
0.0
  0
ARC
  5
124
330
1F
100
AcDbEntity
  8
0
  6
Continuous
 62
     7
100
AcDbCircle
 10
730.0323631702
 20
145.769097392
 30
0.0
 40
12.40055921103635
100
AcDbArc
 50
90.0
 51
180.0
  0
LINE
  5
125
330
1F
100
AcDbEntity
  8
0
  6
Continuous
 62
     7
100
AcDbLine
 10
730.0323631702
 20
158.169656603
 30
0.0
 11
730.0323631702
 21
145.7899488413
 31
0.0
  0
LINE
  5
126
330
1F
100
AcDbEntity
  8
0
  6
Continuous
 62
     7
100
AcDbLine
 10
730.0115117209
 20
145.769097392
 30
0.0
 11
717.6318039592
 21
145.769097392
 31
0.0
  0
LINE
  5
127
330
1F
100
AcDbEntity
  8
0
  6
Continuous
 62
     7
100
AcDbLine
 10
839.3323631702
 20
158.169656603
 30
0.0
 11
805.0323631702
 21
158.169656603
 31
0.0
  0
LINE
  5
128
330
1F
100
AcDbEntity
  8
0
  6
Continuous
 62
     7
100
AcDbLine
 10
880.0115117209
 20
145.769097392
 30
0.0
 11
914.3532146195
 21
145.769097392
 31
0.0
  0
LINE
  5
129
330
1F
100
AcDbEntity
  8
0
  6
Continuous
 62
     7
100
AcDbLine
 10
764.3323631702
 20
158.169656603
 30
0.0
 11
730.0323631702
 21
158.169656603
 31
0.0
  0
ARC
  5
12A
330
1F
100
AcDbEntity
  8
0
  6
Continuous
 62
     7
100
AcDbCircle
 10
880.0323631702
 20
163.769097392
 30
0.0
 40
0.0208514492890686
100
AcDbArc
 50
90.0
 51
180.0
  0
LINE
  5
12B
330
1F
100
AcDbEntity
  8
0
  6
Continuous
 62
     7
100
AcDbLine
 10
914.3323631702
 20
163.7899488413
 30
0.0
 11
880.0323631702
 21
163.7899488413
 31
0.0
  0
ARC
  5
12C
330
1F
100
AcDbEntity
  8
0
  6
Continuous
 62
     7
100
AcDbCircle
 10
914.3323631702
 20
163.769097392
 30
0.0
 40
0.0208514492891254
100
AcDbArc
 50
0.0
 51
90.0
  0
LINE
  5
12D
330
1F
100
AcDbEntity
  8
0
  6
Continuous
 62
     7
100
AcDbLine
 10
880.0115117209
 20
163.769097392
 30
0.0
 11
914.3532146195
 21
163.769097392
 31
0.0
  0
LINE
  5
12E
330
1F
100
AcDbEntity
  8
0
  6
Continuous
 62
     7
100
AcDbLine
 10
914.3323631702
 20
176.169656603
 30
0.0
 11
914.3323631702
 21
163.7899488413
 31
0.0
  0
ARC
  5
12F
330
1F
100
AcDbEntity
  8
0
  6
Continuous
 62
     7
100
AcDbCircle
 10
914.3323631702
 20
163.769097392
 30
0.0
 40
12.40055921103635
100
AcDbArc
 50
0.0
 51
90.0
  0
LINE
  5
130
330
1F
100
AcDbEntity
  8
0
  6
Continuous
 62
     7
100
AcDbLine
 10
926.7329223813
 20
163.769097392
 30
0.0
 11
914.3532146195
 21
163.769097392
 31
0.0
  0
ARC
  5
131
330
1F
100
AcDbEntity
  8
0
  6
Continuous
 62
     7
100
AcDbCircle
 10
805.0323631702
 20
163.769097392
 30
0.0
 40
0.0208514492890686
100
AcDbArc
 50
90.0
 51
180.0
  0
LINE
  5
132
330
1F
100
AcDbEntity
  8
0
  6
Continuous
 62
     7
100
AcDbLine
 10
839.3323631702
 20
163.7899488413
 30
0.0
 11
805.0323631702
 21
163.7899488413
 31
0.0
  0
ARC
  5
133
330
1F
100
AcDbEntity
  8
0
  6
Continuous
 62
     7
100
AcDbCircle
 10
839.3323631702
 20
163.769097392
 30
0.0
 40
0.0208514492890686
100
AcDbArc
 50
0.0
 51
90.0
  0
LINE
  5
134
330
1F
100
AcDbEntity
  8
0
  6
Continuous
 62
     7
100
AcDbLine
 10
805.0115117209
 20
163.769097392
 30
0.0
 11
839.3532146195
 21
163.769097392
 31
0.0
  0
ARC
  5
135
330
1F
100
AcDbEntity
  8
0
  6
Continuous
 62
     7
100
AcDbCircle
 10
730.0323631702
 20
163.769097392
 30
0.0
 40
0.0208514492891254
100
AcDbArc
 50
90.0
 51
180.0
  0
LINE
  5
136
330
1F
100
AcDbEntity
  8
0
  6
Continuous
 62
     7
100
AcDbLine
 10
730.0115117209
 20
163.769097392
 30
0.0
 11
717.6318039592
 21
163.769097392
 31
0.0
  0
ARC
  5
137
330
1F
100
AcDbEntity
  8
0
  6
Continuous
 62
     7
100
AcDbCircle
 10
730.0323631702
 20
163.769097392
 30
0.0
 40
12.40055921103635
100
AcDbArc
 50
90.0
 51
180.0
  0
LINE
  5
138
330
1F
100
AcDbEntity
  8
0
  6
Continuous
 62
     7
100
AcDbLine
 10
730.0323631702
 20
176.169656603
 30
0.0
 11
730.0323631702
 21
163.7899488413
 31
0.0
  0
LINE
  5
139
330
1F
100
AcDbEntity
  8
0
  6
Continuous
 62
     7
100
AcDbLine
 10
764.3323631702
 20
163.7899488413
 30
0.0
 11
730.0323631702
 21
163.7899488413
 31
0.0
  0
LINE
  5
13A
330
1F
100
AcDbEntity
  8
0
  6
Continuous
 62
     7
100
AcDbLine
 10
764.3323631702
 20
176.169656603
 30
0.0
 11
730.0323631702
 21
176.169656603
 31
0.0
  0
LINE
  5
13B
330
1F
100
AcDbEntity
  8
0
  6
Continuous
 62
     7
100
AcDbLine
 10
764.3323631702
 20
176.169656603
 30
0.0
 11
764.3323631702
 21
163.7899488413
 31
0.0
  0
ARC
  5
13C
330
1F
100
AcDbEntity
  8
0
  6
Continuous
 62
     7
100
AcDbCircle
 10
655.0323631702
 20
163.769097392
 30
0.0
 40
0.0208514492891254
100
AcDbArc
 50
90.0
 51
180.0
  0
LINE
  5
13D
330
1F
100
AcDbEntity
  8
0
  6
Continuous
 62
     7
100
AcDbLine
 10
689.3323631702
 20
163.7899488413
 30
0.0
 11
655.0323631702
 21
163.7899488413
 31
0.0
  0
ARC
  5
13E
330
1F
100
AcDbEntity
  8
0
  6
Continuous
 62
     7
100
AcDbCircle
 10
689.3323631702
 20
163.769097392
 30
0.0
 40
0.0208514492891254
100
AcDbArc
 50
0.0
 51
90.0
  0
LINE
  5
13F
330
1F
100
AcDbEntity
  8
0
  6
Continuous
 62
     7
100
AcDbLine
 10
655.0115117209
 20
163.769097392
 30
0.0
 11
689.3532146195
 21
163.769097392
 31
0.0
  0
ARC
  5
140
330
1F
100
AcDbEntity
  8
0
  6
Continuous
 62
     7
100
AcDbCircle
 10
805.0323631702
 20
163.769097392
 30
0.0
 40
12.40055921103635
100
AcDbArc
 50
90.0
 51
180.0
  0
LINE
  5
141
330
1F
100
AcDbEntity
  8
0
  6
Continuous
 62
     7
100
AcDbLine
 10
805.0323631702
 20
176.169656603
 30
0.0
 11
805.0323631702
 21
163.7899488413
 31
0.0
  0
LINE
  5
142
330
1F
100
AcDbEntity
  8
0
  6
Continuous
 62
     7
100
AcDbLine
 10
805.0115117209
 20
163.769097392
 30
0.0
 11
792.6318039592
 21
163.769097392
 31
0.0
  0
LINE
  5
143
330
1F
100
AcDbEntity
  8
0
  6
Continuous
 62
     7
100
AcDbLine
 10
839.3323631702
 20
176.169656603
 30
0.0
 11
839.3323631702
 21
163.7899488413
 31
0.0
  0
ARC
  5
144
330
1F
100
AcDbEntity
  8
0
  6
Continuous
 62
     7
100
AcDbCircle
 10
839.3323631702
 20
163.769097392
 30
0.0
 40
12.40055921103635
100
AcDbArc
 50
0.0
 51
90.0
  0
LINE
  5
145
330
1F
100
AcDbEntity
  8
0
  6
Continuous
 62
     7
100
AcDbLine
 10
851.7329223813
 20
163.769097392
 30
0.0
 11
839.3532146195
 21
163.769097392
 31
0.0
  0
LINE
  5
146
330
1F
100
AcDbEntity
  8
0
  6
Continuous
 62
     7
100
AcDbLine
 10
655.0115117209
 20
163.769097392
 30
0.0
 11
642.6318039592
 21
163.769097392
 31
0.0
  0
ARC
  5
147
330
1F
100
AcDbEntity
  8
0
  6
Continuous
 62
     7
100
AcDbCircle
 10
655.0323631702
 20
163.769097392
 30
0.0
 40
12.40055921103635
100
AcDbArc
 50
90.0
 51
180.0
  0
LINE
  5
148
330
1F
100
AcDbEntity
  8
0
  6
Continuous
 62
     7
100
AcDbLine
 10
655.0323631702
 20
176.169656603
 30
0.0
 11
655.0323631702
 21
163.7899488413
 31
0.0
  0
LINE
  5
149
330
1F
100
AcDbEntity
  8
0
  6
Continuous
 62
     7
100
AcDbLine
 10
689.3323631702
 20
176.169656603
 30
0.0
 11
655.0323631702
 21
176.169656603
 31
0.0
  0
LINE
  5
14A
330
1F
100
AcDbEntity
  8
0
  6
Continuous
 62
     7
100
AcDbLine
 10
689.3323631702
 20
176.169656603
 30
0.0
 11
689.3323631702
 21
163.7899488413
 31
0.0
  0
ARC
  5
14B
330
1F
100
AcDbEntity
  8
0
  6
Continuous
 62
     7
100
AcDbCircle
 10
989.3323631702
 20
163.769097392
 30
0.0
 40
0.0208514492891254
100
AcDbArc
 50
0.0
 51
90.0
  0
LINE
  5
14C
330
1F
100
AcDbEntity
  8
0
  6
Continuous
 62
     7
100
AcDbLine
 10
989.3323631702
 20
176.169656603
 30
0.0
 11
989.3323631702
 21
163.7899488413
 31
0.0
  0
ARC
  5
14D
330
1F
100
AcDbEntity
  8
0
  6
Continuous
 62
     7
100
AcDbCircle
 10
989.3323631702
 20
163.769097392
 30
0.0
 40
12.40055921103632
100
AcDbArc
 50
0.0
 51
90.0
  0
LINE
  5
14E
330
1F
100
AcDbEntity
  8
0
  6
Continuous
 62
     7
100
AcDbLine
 10
1001.7329223813
 20
163.769097392
 30
0.0
 11
989.3532146195
 21
163.769097392
 31
0.0
  0
LINE
  5
14F
330
1F
100
AcDbEntity
  8
0
  6
Continuous
 62
     7
100
AcDbLine
 10
839.3323631702
 20
176.169656603
 30
0.0
 11
805.0323631702
 21
176.169656603
 31
0.0
  0
ARC
  5
150
330
1F
100
AcDbEntity
  8
0
  6
Continuous
 62
     7
100
AcDbCircle
 10
880.0323631702
 20
163.769097392
 30
0.0
 40
12.40055921103635
100
AcDbArc
 50
90.0
 51
180.0
  0
LINE
  5
151
330
1F
100
AcDbEntity
  8
0
  6
Continuous
 62
     7
100
AcDbLine
 10
880.0323631702
 20
176.169656603
 30
0.0
 11
880.0323631702
 21
163.7899488413
 31
0.0
  0
LINE
  5
152
330
1F
100
AcDbEntity
  8
0
  6
Continuous
 62
     7
100
AcDbLine
 10
880.0115117209
 20
163.769097392
 30
0.0
 11
867.6318039592
 21
163.769097392
 31
0.0
  0
ARC
  5
153
330
1F
100
AcDbEntity
  8
0
  6
Continuous
 62
     7
100
AcDbCircle
 10
955.0323631702
 20
163.769097392
 30
0.0
 40
0.0208514492891254
100
AcDbArc
 50
90.0
 51
180.0
  0
ARC
  5
154
330
1F
100
AcDbEntity
  8
0
  6
Continuous
 62
     7
100
AcDbCircle
 10
955.0323631702
 20
163.769097392
 30
0.0
 40
12.40055921103635
100
AcDbArc
 50
90.0
 51
180.0
  0
LINE
  5
155
330
1F
100
AcDbEntity
  8
0
  6
Continuous
 62
     7
100
AcDbLine
 10
955.0323631702
 20
176.169656603
 30
0.0
 11
955.0323631702
 21
163.7899488413
 31
0.0
  0
LINE
  5
156
330
1F
100
AcDbEntity
  8
0
  6
Continuous
 62
     7
100
AcDbLine
 10
955.0115117209
 20
163.769097392
 30
0.0
 11
942.6318039592
 21
163.769097392
 31
0.0
  0
LINE
  5
157
330
1F
100
AcDbEntity
  8
0
  6
Continuous
 62
     7
100
AcDbLine
 10
989.3323631702
 20
163.7899488413
 30
0.0
 11
955.0323631702
 21
163.7899488413
 31
0.0
  0
LINE
  5
158
330
1F
100
AcDbEntity
  8
0
  6
Continuous
 62
     7
100
AcDbLine
 10
989.3323631702
 20
176.169656603
 30
0.0
 11
955.0323631702
 21
176.169656603
 31
0.0
  0
LINE
  5
159
330
1F
100
AcDbEntity
  8
0
  6
Continuous
 62
     7
100
AcDbLine
 10
955.0115117209
 20
163.769097392
 30
0.0
 11
989.3532146195
 21
163.769097392
 31
0.0
  0
ARC
  5
15A
330
1F
100
AcDbEntity
  8
0
  6
Continuous
 62
     7
100
AcDbCircle
 10
764.3323631702
 20
163.769097392
 30
0.0
 40
0.0208514492890686
100
AcDbArc
 50
0.0
 51
90.0
  0
ARC
  5
15B
330
1F
100
AcDbEntity
  8
0
  6
Continuous
 62
     7
100
AcDbCircle
 10
764.3323631702
 20
163.769097392
 30
0.0
 40
12.40055921103632
100
AcDbArc
 50
0.0
 51
90.0
  0
LINE
  5
15C
330
1F
100
AcDbEntity
  8
0
  6
Continuous
 62
     7
100
AcDbLine
 10
776.7329223813
 20
163.769097392
 30
0.0
 11
764.3532146195
 21
163.769097392
 31
0.0
  0
LINE
  5
15D
330
1F
100
AcDbEntity
  8
0
  6
Continuous
 62
     7
100
AcDbLine
 10
730.0115117209
 20
163.769097392
 30
0.0
 11
764.3532146195
 21
163.769097392
 31
0.0
  0
ARC
  5
15E
330
1F
100
AcDbEntity
  8
0
  6
Continuous
 62
     7
100
AcDbCircle
 10
689.3323631702
 20
163.769097392
 30
0.0
 40
12.40055921103635
100
AcDbArc
 50
0.0
 51
90.0
  0
LINE
  5
15F
330
1F
100
AcDbEntity
  8
0
  6
Continuous
 62
     7
100
AcDbLine
 10
701.7329223813
 20
163.769097392
 30
0.0
 11
689.3532146195
 21
163.769097392
 31
0.0
  0
LINE
  5
160
330
1F
100
AcDbEntity
  8
0
  6
Continuous
 62
     7
100
AcDbLine
 10
914.3323631702
 20
176.169656603
 30
0.0
 11
880.0323631702
 21
176.169656603
 31
0.0
  0
LINE
  5
161
330
1F
100
AcDbEntity
  8
0
  6
Continuous
 62
     7
100
AcDbLine
 10
764.3323631702
 20
122.5766606938
 30
0.0
 11
764.3323631702
 21
122.169656603
 31
0.0
  0
ARC
  5
162
330
1F
100
AcDbEntity
  8
0
  6
Continuous
 62
     7
100
AcDbCircle
 10
764.3323631702
 20
109.769097392
 30
0.0
 40
12.8075633018335
100
AcDbArc
 50
0.0
 51
90.0
  0
LINE
  5
163
330
1F
100
AcDbEntity
  8
0
  6
Continuous
 62
     7
100
AcDbLine
 10
777.1399264721
 20
109.769097392
 30
0.0
 11
776.7329223813
 21
109.769097392
 31
0.0
  0
LINE
  5
164
330
1F
100
AcDbEntity
  8
0
  6
Continuous
 62
     7
100
AcDbLine
 10
839.3323631702
 20
122.5766606938
 30
0.0
 11
839.3323631702
 21
122.169656603
 31
0.0
  0
ARC
  5
165
330
1F
100
AcDbEntity
  8
0
  6
Continuous
 62
     7
100
AcDbCircle
 10
839.3323631702
 20
109.769097392
 30
0.0
 40
12.8075633018335
100
AcDbArc
 50
0.0
 51
90.0
  0
LINE
  5
166
330
1F
100
AcDbEntity
  8
0
  6
Continuous
 62
     7
100
AcDbLine
 10
852.1399264721
 20
109.769097392
 30
0.0
 11
851.7329223813
 21
109.769097392
 31
0.0
  0
LINE
  5
167
330
1F
100
AcDbEntity
  8
0
  6
Continuous
 62
     7
100
AcDbLine
 10
989.3323631702
 20
122.5766606938
 30
0.0
 11
989.3323631702
 21
122.169656603
 31
0.0
  0
ARC
  5
168
330
1F
100
AcDbEntity
  8
0
  6
Continuous
 62
     7
100
AcDbCircle
 10
989.3323631702
 20
109.769097392
 30
0.0
 40
12.80756330183362
100
AcDbArc
 50
0.0
 51
90.0
  0
LINE
  5
169
330
1F
100
AcDbEntity
  8
0
  6
Continuous
 62
     7
100
AcDbLine
 10
1002.1399264721
 20
109.769097392
 30
0.0
 11
1001.7329223813
 21
109.769097392
 31
0.0
  0
LINE
  5
16A
330
1F
100
AcDbEntity
  8
0
  6
Continuous
 62
     7
100
AcDbLine
 10
689.3323631702
 20
122.5766606938
 30
0.0
 11
689.3323631702
 21
122.169656603
 31
0.0
  0
ARC
  5
16B
330
1F
100
AcDbEntity
  8
0
  6
Continuous
 62
     7
100
AcDbCircle
 10
689.3323631702
 20
109.769097392
 30
0.0
 40
12.80756330183351
100
AcDbArc
 50
0.0
 51
90.0
  0
LINE
  5
16C
330
1F
100
AcDbEntity
  8
0
  6
Continuous
 62
     7
100
AcDbLine
 10
702.1399264721
 20
109.769097392
 30
0.0
 11
701.7329223813
 21
109.769097392
 31
0.0
  0
LINE
  5
16D
330
1F
100
AcDbEntity
  8
0
  6
Continuous
 62
     7
100
AcDbLine
 10
914.3323631702
 20
122.5766606938
 30
0.0
 11
914.3323631702
 21
122.169656603
 31
0.0
  0
ARC
  5
16E
330
1F
100
AcDbEntity
  8
0
  6
Continuous
 62
     7
100
AcDbCircle
 10
914.3323631702
 20
109.769097392
 30
0.0
 40
12.80756330183351
100
AcDbArc
 50
0.0
 51
90.0
  0
LINE
  5
16F
330
1F
100
AcDbEntity
  8
0
  6
Continuous
 62
     7
100
AcDbLine
 10
927.1399264721
 20
109.769097392
 30
0.0
 11
926.7329223813
 21
109.769097392
 31
0.0
  0
ARC
  5
170
330
1F
100
AcDbEntity
  8
0
  6
Continuous
 62
     7
100
AcDbCircle
 10
730.0323631702
 20
109.769097392
 30
0.0
 40
12.80756330183351
100
AcDbArc
 50
90.0
 51
180.0
  0
LINE
  5
171
330
1F
100
AcDbEntity
  8
0
  6
Continuous
 62
     7
100
AcDbLine
 10
730.0323631702
 20
122.5766606938
 30
0.0
 11
730.0323631702
 21
122.169656603
 31
0.0
  0
LINE
  5
172
330
1F
100
AcDbEntity
  8
0
  6
Continuous
 62
     7
100
AcDbLine
 10
717.6318039592
 20
109.769097392
 30
0.0
 11
717.2247998684
 21
109.769097392
 31
0.0
  0
ARC
  5
173
330
1F
100
AcDbEntity
  8
0
  6
Continuous
 62
     7
100
AcDbCircle
 10
805.0323631702
 20
109.769097392
 30
0.0
 40
12.8075633018335
100
AcDbArc
 50
90.0
 51
180.0
  0
LINE
  5
174
330
1F
100
AcDbEntity
  8
0
  6
Continuous
 62
     7
100
AcDbLine
 10
805.0323631702
 20
122.5766606938
 30
0.0
 11
805.0323631702
 21
122.169656603
 31
0.0
  0
LINE
  5
175
330
1F
100
AcDbEntity
  8
0
  6
Continuous
 62
     7
100
AcDbLine
 10
792.6318039592
 20
109.769097392
 30
0.0
 11
792.2247998684
 21
109.769097392
 31
0.0
  0
ARC
  5
176
330
1F
100
AcDbEntity
  8
0
  6
Continuous
 62
     7
100
AcDbCircle
 10
955.0323631702
 20
109.769097392
 30
0.0
 40
12.80756330183351
100
AcDbArc
 50
90.0
 51
180.0
  0
LINE
  5
177
330
1F
100
AcDbEntity
  8
0
  6
Continuous
 62
     7
100
AcDbLine
 10
955.0323631702
 20
122.5766606938
 30
0.0
 11
955.0323631702
 21
122.169656603
 31
0.0
  0
LINE
  5
178
330
1F
100
AcDbEntity
  8
0
  6
Continuous
 62
     7
100
AcDbLine
 10
942.6318039592
 20
109.769097392
 30
0.0
 11
942.2247998684
 21
109.769097392
 31
0.0
  0
ARC
  5
179
330
1F
100
AcDbEntity
  8
0
  6
Continuous
 62
     7
100
AcDbCircle
 10
880.0323631702
 20
109.769097392
 30
0.0
 40
12.8075633018335
100
AcDbArc
 50
90.0
 51
180.0
  0
LINE
  5
17A
330
1F
100
AcDbEntity
  8
0
  6
Continuous
 62
     7
100
AcDbLine
 10
880.0323631702
 20
122.5766606938
 30
0.0
 11
880.0323631702
 21
122.169656603
 31
0.0
  0
LINE
  5
17B
330
1F
100
AcDbEntity
  8
0
  6
Continuous
 62
     7
100
AcDbLine
 10
867.6318039592
 20
109.769097392
 30
0.0
 11
867.2247998684
 21
109.769097392
 31
0.0
  0
ARC
  5
17C
330
1F
100
AcDbEntity
  8
0
  6
Continuous
 62
     7
100
AcDbCircle
 10
655.0323631702
 20
109.769097392
 30
0.0
 40
12.80756330183351
100
AcDbArc
 50
90.0
 51
180.0
  0
LINE
  5
17D
330
1F
100
AcDbEntity
  8
0
  6
Continuous
 62
     7
100
AcDbLine
 10
655.0323631702
 20
122.5766606938
 30
0.0
 11
655.0323631702
 21
122.169656603
 31
0.0
  0
LINE
  5
17E
330
1F
100
AcDbEntity
  8
0
  6
Continuous
 62
     7
100
AcDbLine
 10
642.6318039592
 20
109.769097392
 30
0.0
 11
642.2247998684
 21
109.769097392
 31
0.0
  0
LINE
  5
17F
330
1F
100
AcDbEntity
  8
0
  6
Continuous
 62
     7
100
AcDbLine
 10
955.0323631702
 20
122.5766606938
 30
0.0
 11
989.3323631702
 21
122.5766606938
 31
0.0
  0
LINE
  5
180
330
1F
100
AcDbEntity
  8
0
  6
Continuous
 62
     7
100
AcDbLine
 10
805.0323631702
 20
122.5766606938
 30
0.0
 11
839.3323631702
 21
122.5766606938
 31
0.0
  0
LINE
  5
181
330
1F
100
AcDbEntity
  8
0
  6
Continuous
 62
     7
100
AcDbLine
 10
655.0323631702
 20
122.5766606938
 30
0.0
 11
689.3323631702
 21
122.5766606938
 31
0.0
  0
LINE
  5
182
330
1F
100
AcDbEntity
  8
0
  6
Continuous
 62
     7
100
AcDbLine
 10
880.0323631702
 20
122.5766606938
 30
0.0
 11
914.3323631702
 21
122.5766606938
 31
0.0
  0
LINE
  5
183
330
1F
100
AcDbEntity
  8
0
  6
Continuous
 62
     7
100
AcDbLine
 10
730.0323631702
 20
122.5766606938
 30
0.0
 11
764.3323631702
 21
122.5766606938
 31
0.0
  0
LINE
  5
184
330
1F
100
AcDbEntity
  8
0
  6
Continuous
 62
     7
100
AcDbLine
 10
989.3323631702
 20
140.5766606938
 30
0.0
 11
989.3323631702
 21
140.169656603
 31
0.0
  0
ARC
  5
185
330
1F
100
AcDbEntity
  8
0
  6
Continuous
 62
     7
100
AcDbCircle
 10
989.3323631702
 20
127.769097392
 30
0.0
 40
12.80756330183362
100
AcDbArc
 50
0.0
 51
90.0
  0
LINE
  5
186
330
1F
100
AcDbEntity
  8
0
  6
Continuous
 62
     7
100
AcDbLine
 10
1002.1399264721
 20
127.769097392
 30
0.0
 11
1001.7329223813
 21
127.769097392
 31
0.0
  0
LINE
  5
187
330
1F
100
AcDbEntity
  8
0
  6
Continuous
 62
     7
100
AcDbLine
 10
914.3323631702
 20
140.5766606938
 30
0.0
 11
914.3323631702
 21
140.169656603
 31
0.0
  0
ARC
  5
188
330
1F
100
AcDbEntity
  8
0
  6
Continuous
 62
     7
100
AcDbCircle
 10
914.3323631702
 20
127.769097392
 30
0.0
 40
12.80756330183351
100
AcDbArc
 50
0.0
 51
90.0
  0
LINE
  5
189
330
1F
100
AcDbEntity
  8
0
  6
Continuous
 62
     7
100
AcDbLine
 10
927.1399264721
 20
127.769097392
 30
0.0
 11
926.7329223813
 21
127.769097392
 31
0.0
  0
LINE
  5
18A
330
1F
100
AcDbEntity
  8
0
  6
Continuous
 62
     7
100
AcDbLine
 10
839.3323631702
 20
140.5766606938
 30
0.0
 11
839.3323631702
 21
140.169656603
 31
0.0
  0
ARC
  5
18B
330
1F
100
AcDbEntity
  8
0
  6
Continuous
 62
     7
100
AcDbCircle
 10
839.3323631702
 20
127.769097392
 30
0.0
 40
12.80756330183348
100
AcDbArc
 50
0.0
 51
90.0
  0
LINE
  5
18C
330
1F
100
AcDbEntity
  8
0
  6
Continuous
 62
     7
100
AcDbLine
 10
852.1399264721
 20
127.769097392
 30
0.0
 11
851.7329223813
 21
127.769097392
 31
0.0
  0
LINE
  5
18D
330
1F
100
AcDbEntity
  8
0
  6
Continuous
 62
     7
100
AcDbLine
 10
689.3323631702
 20
140.5766606938
 30
0.0
 11
689.3323631702
 21
140.169656603
 31
0.0
  0
ARC
  5
18E
330
1F
100
AcDbEntity
  8
0
  6
Continuous
 62
     7
100
AcDbCircle
 10
689.3323631702
 20
127.769097392
 30
0.0
 40
12.80756330183351
100
AcDbArc
 50
0.0
 51
90.0
  0
LINE
  5
18F
330
1F
100
AcDbEntity
  8
0
  6
Continuous
 62
     7
100
AcDbLine
 10
702.1399264721
 20
127.769097392
 30
0.0
 11
701.7329223813
 21
127.769097392
 31
0.0
  0
LINE
  5
190
330
1F
100
AcDbEntity
  8
0
  6
Continuous
 62
     7
100
AcDbLine
 10
764.3323631702
 20
140.5766606938
 30
0.0
 11
764.3323631702
 21
140.169656603
 31
0.0
  0
ARC
  5
191
330
1F
100
AcDbEntity
  8
0
  6
Continuous
 62
     7
100
AcDbCircle
 10
764.3323631702
 20
127.769097392
 30
0.0
 40
12.80756330183348
100
AcDbArc
 50
0.0
 51
90.0
  0
LINE
  5
192
330
1F
100
AcDbEntity
  8
0
  6
Continuous
 62
     7
100
AcDbLine
 10
777.1399264721
 20
127.769097392
 30
0.0
 11
776.7329223813
 21
127.769097392
 31
0.0
  0
ARC
  5
193
330
1F
100
AcDbEntity
  8
0
  6
Continuous
 62
     7
100
AcDbCircle
 10
805.0323631702
 20
127.769097392
 30
0.0
 40
12.80756330183348
100
AcDbArc
 50
90.0
 51
180.0
  0
LINE
  5
194
330
1F
100
AcDbEntity
  8
0
  6
Continuous
 62
     7
100
AcDbLine
 10
805.0323631702
 20
140.5766606938
 30
0.0
 11
805.0323631702
 21
140.169656603
 31
0.0
  0
LINE
  5
195
330
1F
100
AcDbEntity
  8
0
  6
Continuous
 62
     7
100
AcDbLine
 10
792.6318039592
 20
127.769097392
 30
0.0
 11
792.2247998684
 21
127.769097392
 31
0.0
  0
ARC
  5
196
330
1F
100
AcDbEntity
  8
0
  6
Continuous
 62
     7
100
AcDbCircle
 10
955.0323631702
 20
127.769097392
 30
0.0
 40
12.80756330183351
100
AcDbArc
 50
90.0
 51
180.0
  0
LINE
  5
197
330
1F
100
AcDbEntity
  8
0
  6
Continuous
 62
     7
100
AcDbLine
 10
955.0323631702
 20
140.5766606938
 30
0.0
 11
955.0323631702
 21
140.169656603
 31
0.0
  0
LINE
  5
198
330
1F
100
AcDbEntity
  8
0
  6
Continuous
 62
     7
100
AcDbLine
 10
942.6318039592
 20
127.769097392
 30
0.0
 11
942.2247998684
 21
127.769097392
 31
0.0
  0
ARC
  5
199
330
1F
100
AcDbEntity
  8
0
  6
Continuous
 62
     7
100
AcDbCircle
 10
730.0323631702
 20
127.769097392
 30
0.0
 40
12.80756330183351
100
AcDbArc
 50
90.0
 51
180.0
  0
LINE
  5
19A
330
1F
100
AcDbEntity
  8
0
  6
Continuous
 62
     7
100
AcDbLine
 10
730.0323631702
 20
140.5766606938
 30
0.0
 11
730.0323631702
 21
140.169656603
 31
0.0
  0
LINE
  5
19B
330
1F
100
AcDbEntity
  8
0
  6
Continuous
 62
     7
100
AcDbLine
 10
717.6318039592
 20
127.769097392
 30
0.0
 11
717.2247998684
 21
127.769097392
 31
0.0
  0
ARC
  5
19C
330
1F
100
AcDbEntity
  8
0
  6
Continuous
 62
     7
100
AcDbCircle
 10
880.0323631702
 20
127.769097392
 30
0.0
 40
12.80756330183348
100
AcDbArc
 50
90.0
 51
180.0
  0
LINE
  5
19D
330
1F
100
AcDbEntity
  8
0
  6
Continuous
 62
     7
100
AcDbLine
 10
880.0323631702
 20
140.5766606938
 30
0.0
 11
880.0323631702
 21
140.169656603
 31
0.0
  0
LINE
  5
19E
330
1F
100
AcDbEntity
  8
0
  6
Continuous
 62
     7
100
AcDbLine
 10
867.6318039592
 20
127.769097392
 30
0.0
 11
867.2247998684
 21
127.769097392
 31
0.0
  0
ARC
  5
19F
330
1F
100
AcDbEntity
  8
0
  6
Continuous
 62
     7
100
AcDbCircle
 10
655.0323631702
 20
127.769097392
 30
0.0
 40
12.80756330183351
100
AcDbArc
 50
90.0
 51
180.0
  0
LINE
  5
1A0
330
1F
100
AcDbEntity
  8
0
  6
Continuous
 62
     7
100
AcDbLine
 10
655.0323631702
 20
140.5766606938
 30
0.0
 11
655.0323631702
 21
140.169656603
 31
0.0
  0
LINE
  5
1A1
330
1F
100
AcDbEntity
  8
0
  6
Continuous
 62
     7
100
AcDbLine
 10
642.6318039592
 20
127.769097392
 30
0.0
 11
642.2247998684
 21
127.769097392
 31
0.0
  0
LINE
  5
1A2
330
1F
100
AcDbEntity
  8
0
  6
Continuous
 62
     7
100
AcDbLine
 10
880.0323631702
 20
140.5766606938
 30
0.0
 11
914.3323631702
 21
140.5766606938
 31
0.0
  0
LINE
  5
1A3
330
1F
100
AcDbEntity
  8
0
  6
Continuous
 62
     7
100
AcDbLine
 10
730.0323631702
 20
140.5766606938
 30
0.0
 11
764.3323631702
 21
140.5766606938
 31
0.0
  0
LINE
  5
1A4
330
1F
100
AcDbEntity
  8
0
  6
Continuous
 62
     7
100
AcDbLine
 10
655.0323631702
 20
140.5766606938
 30
0.0
 11
689.3323631702
 21
140.5766606938
 31
0.0
  0
LINE
  5
1A5
330
1F
100
AcDbEntity
  8
0
  6
Continuous
 62
     7
100
AcDbLine
 10
955.0323631702
 20
140.5766606938
 30
0.0
 11
989.3323631702
 21
140.5766606938
 31
0.0
  0
LINE
  5
1A6
330
1F
100
AcDbEntity
  8
0
  6
Continuous
 62
     7
100
AcDbLine
 10
805.0323631702
 20
140.5766606938
 30
0.0
 11
839.3323631702
 21
140.5766606938
 31
0.0
  0
LINE
  5
1A7
330
1F
100
AcDbEntity
  8
0
  6
Continuous
 62
     7
100
AcDbLine
 10
914.3323631702
 20
158.5766606938
 30
0.0
 11
914.3323631702
 21
158.169656603
 31
0.0
  0
ARC
  5
1A8
330
1F
100
AcDbEntity
  8
0
  6
Continuous
 62
     7
100
AcDbCircle
 10
914.3323631702
 20
145.769097392
 30
0.0
 40
12.80756330183351
100
AcDbArc
 50
0.0
 51
90.0
  0
LINE
  5
1A9
330
1F
100
AcDbEntity
  8
0
  6
Continuous
 62
     7
100
AcDbLine
 10
927.1399264721
 20
145.769097392
 30
0.0
 11
926.7329223813
 21
145.769097392
 31
0.0
  0
LINE
  5
1AA
330
1F
100
AcDbEntity
  8
0
  6
Continuous
 62
     7
100
AcDbLine
 10
989.3323631702
 20
158.5766606938
 30
0.0
 11
989.3323631702
 21
158.169656603
 31
0.0
  0
ARC
  5
1AB
330
1F
100
AcDbEntity
  8
0
  6
Continuous
 62
     7
100
AcDbCircle
 10
989.3323631702
 20
145.769097392
 30
0.0
 40
12.80756330183362
100
AcDbArc
 50
0.0
 51
90.0
  0
LINE
  5
1AC
330
1F
100
AcDbEntity
  8
0
  6
Continuous
 62
     7
100
AcDbLine
 10
1002.1399264721
 20
145.769097392
 30
0.0
 11
1001.7329223813
 21
145.769097392
 31
0.0
  0
LINE
  5
1AD
330
1F
100
AcDbEntity
  8
0
  6
Continuous
 62
     7
100
AcDbLine
 10
839.3323631702
 20
158.5766606938
 30
0.0
 11
839.3323631702
 21
158.169656603
 31
0.0
  0
ARC
  5
1AE
330
1F
100
AcDbEntity
  8
0
  6
Continuous
 62
     7
100
AcDbCircle
 10
839.3323631702
 20
145.769097392
 30
0.0
 40
12.80756330183345
100
AcDbArc
 50
0.0
 51
90.0
  0
LINE
  5
1AF
330
1F
100
AcDbEntity
  8
0
  6
Continuous
 62
     7
100
AcDbLine
 10
852.1399264721
 20
145.769097392
 30
0.0
 11
851.7329223813
 21
145.769097392
 31
0.0
  0
LINE
  5
1B0
330
1F
100
AcDbEntity
  8
0
  6
Continuous
 62
     7
100
AcDbLine
 10
689.3323631702
 20
158.5766606938
 30
0.0
 11
689.3323631702
 21
158.169656603
 31
0.0
  0
ARC
  5
1B1
330
1F
100
AcDbEntity
  8
0
  6
Continuous
 62
     7
100
AcDbCircle
 10
689.3323631702
 20
145.769097392
 30
0.0
 40
12.80756330183351
100
AcDbArc
 50
0.0
 51
90.0
  0
LINE
  5
1B2
330
1F
100
AcDbEntity
  8
0
  6
Continuous
 62
     7
100
AcDbLine
 10
702.1399264721
 20
145.769097392
 30
0.0
 11
701.7329223813
 21
145.769097392
 31
0.0
  0
LINE
  5
1B3
330
1F
100
AcDbEntity
  8
0
  6
Continuous
 62
     7
100
AcDbLine
 10
764.3323631702
 20
158.5766606938
 30
0.0
 11
764.3323631702
 21
158.169656603
 31
0.0
  0
ARC
  5
1B4
330
1F
100
AcDbEntity
  8
0
  6
Continuous
 62
     7
100
AcDbCircle
 10
764.3323631702
 20
145.769097392
 30
0.0
 40
12.80756330183345
100
AcDbArc
 50
0.0
 51
90.0
  0
LINE
  5
1B5
330
1F
100
AcDbEntity
  8
0
  6
Continuous
 62
     7
100
AcDbLine
 10
777.1399264721
 20
145.769097392
 30
0.0
 11
776.7329223813
 21
145.769097392
 31
0.0
  0
ARC
  5
1B6
330
1F
100
AcDbEntity
  8
0
  6
Continuous
 62
     7
100
AcDbCircle
 10
880.0323631702
 20
145.769097392
 30
0.0
 40
12.80756330183345
100
AcDbArc
 50
90.0
 51
180.0
  0
LINE
  5
1B7
330
1F
100
AcDbEntity
  8
0
  6
Continuous
 62
     7
100
AcDbLine
 10
880.0323631702
 20
158.5766606938
 30
0.0
 11
880.0323631702
 21
158.169656603
 31
0.0
  0
LINE
  5
1B8
330
1F
100
AcDbEntity
  8
0
  6
Continuous
 62
     7
100
AcDbLine
 10
867.6318039592
 20
145.769097392
 30
0.0
 11
867.2247998684
 21
145.769097392
 31
0.0
  0
ARC
  5
1B9
330
1F
100
AcDbEntity
  8
0
  6
Continuous
 62
     7
100
AcDbCircle
 10
955.0323631702
 20
145.769097392
 30
0.0
 40
12.80756330183351
100
AcDbArc
 50
90.0
 51
180.0
  0
LINE
  5
1BA
330
1F
100
AcDbEntity
  8
0
  6
Continuous
 62
     7
100
AcDbLine
 10
955.0323631702
 20
158.5766606938
 30
0.0
 11
955.0323631702
 21
158.169656603
 31
0.0
  0
LINE
  5
1BB
330
1F
100
AcDbEntity
  8
0
  6
Continuous
 62
     7
100
AcDbLine
 10
942.6318039592
 20
145.769097392
 30
0.0
 11
942.2247998684
 21
145.769097392
 31
0.0
  0
ARC
  5
1BC
330
1F
100
AcDbEntity
  8
0
  6
Continuous
 62
     7
100
AcDbCircle
 10
730.0323631702
 20
145.769097392
 30
0.0
 40
12.80756330183351
100
AcDbArc
 50
90.0
 51
180.0
  0
LINE
  5
1BD
330
1F
100
AcDbEntity
  8
0
  6
Continuous
 62
     7
100
AcDbLine
 10
730.0323631702
 20
158.5766606938
 30
0.0
 11
730.0323631702
 21
158.169656603
 31
0.0
  0
LINE
  5
1BE
330
1F
100
AcDbEntity
  8
0
  6
Continuous
 62
     7
100
AcDbLine
 10
717.6318039592
 20
145.769097392
 30
0.0
 11
717.2247998684
 21
145.769097392
 31
0.0
  0
ARC
  5
1BF
330
1F
100
AcDbEntity
  8
0
  6
Continuous
 62
     7
100
AcDbCircle
 10
805.0323631702
 20
145.769097392
 30
0.0
 40
12.80756330183345
100
AcDbArc
 50
90.0
 51
180.0
  0
LINE
  5
1C0
330
1F
100
AcDbEntity
  8
0
  6
Continuous
 62
     7
100
AcDbLine
 10
805.0323631702
 20
158.5766606938
 30
0.0
 11
805.0323631702
 21
158.169656603
 31
0.0
  0
LINE
  5
1C1
330
1F
100
AcDbEntity
  8
0
  6
Continuous
 62
     7
100
AcDbLine
 10
792.6318039592
 20
145.769097392
 30
0.0
 11
792.2247998684
 21
145.769097392
 31
0.0
  0
ARC
  5
1C2
330
1F
100
AcDbEntity
  8
0
  6
Continuous
 62
     7
100
AcDbCircle
 10
655.0323631702
 20
145.769097392
 30
0.0
 40
12.80756330183351
100
AcDbArc
 50
90.0
 51
180.0
  0
LINE
  5
1C3
330
1F
100
AcDbEntity
  8
0
  6
Continuous
 62
     7
100
AcDbLine
 10
655.0323631702
 20
158.5766606938
 30
0.0
 11
655.0323631702
 21
158.169656603
 31
0.0
  0
LINE
  5
1C4
330
1F
100
AcDbEntity
  8
0
  6
Continuous
 62
     7
100
AcDbLine
 10
642.6318039592
 20
145.769097392
 30
0.0
 11
642.2247998684
 21
145.769097392
 31
0.0
  0
LINE
  5
1C5
330
1F
100
AcDbEntity
  8
0
  6
Continuous
 62
     7
100
AcDbLine
 10
955.0323631702
 20
158.5766606938
 30
0.0
 11
989.3323631702
 21
158.5766606938
 31
0.0
  0
LINE
  5
1C6
330
1F
100
AcDbEntity
  8
0
  6
Continuous
 62
     7
100
AcDbLine
 10
880.0323631702
 20
158.5766606938
 30
0.0
 11
914.3323631702
 21
158.5766606938
 31
0.0
  0
LINE
  5
1C7
330
1F
100
AcDbEntity
  8
0
  6
Continuous
 62
     7
100
AcDbLine
 10
805.0323631702
 20
158.5766606938
 30
0.0
 11
839.3323631702
 21
158.5766606938
 31
0.0
  0
LINE
  5
1C8
330
1F
100
AcDbEntity
  8
0
  6
Continuous
 62
     7
100
AcDbLine
 10
655.0323631702
 20
158.5766606938
 30
0.0
 11
689.3323631702
 21
158.5766606938
 31
0.0
  0
LINE
  5
1C9
330
1F
100
AcDbEntity
  8
0
  6
Continuous
 62
     7
100
AcDbLine
 10
730.0323631702
 20
158.5766606938
 30
0.0
 11
764.3323631702
 21
158.5766606938
 31
0.0
  0
LINE
  5
1CA
330
1F
100
AcDbEntity
  8
0
  6
Continuous
 62
     7
100
AcDbLine
 10
689.3323631702
 20
176.5766606938
 30
0.0
 11
689.3323631702
 21
176.169656603
 31
0.0
  0
ARC
  5
1CB
330
1F
100
AcDbEntity
  8
0
  6
Continuous
 62
     7
100
AcDbCircle
 10
689.3323631702
 20
163.769097392
 30
0.0
 40
12.80756330183351
100
AcDbArc
 50
0.0
 51
90.0
  0
LINE
  5
1CC
330
1F
100
AcDbEntity
  8
0
  6
Continuous
 62
     7
100
AcDbLine
 10
702.1399264721
 20
163.769097392
 30
0.0
 11
701.7329223813
 21
163.769097392
 31
0.0
  0
LINE
  5
1CD
330
1F
100
AcDbEntity
  8
0
  6
Continuous
 62
     7
100
AcDbLine
 10
764.3323631702
 20
176.5766606938
 30
0.0
 11
764.3323631702
 21
176.169656603
 31
0.0
  0
ARC
  5
1CE
330
1F
100
AcDbEntity
  8
0
  6
Continuous
 62
     7
100
AcDbCircle
 10
764.3323631702
 20
163.769097392
 30
0.0
 40
12.80756330183351
100
AcDbArc
 50
0.0
 51
90.0
  0
LINE
  5
1CF
330
1F
100
AcDbEntity
  8
0
  6
Continuous
 62
     7
100
AcDbLine
 10
777.1399264721
 20
163.769097392
 30
0.0
 11
776.7329223813
 21
163.769097392
 31
0.0
  0
LINE
  5
1D0
330
1F
100
AcDbEntity
  8
0
  6
Continuous
 62
     7
100
AcDbLine
 10
914.3323631702
 20
176.5766606938
 30
0.0
 11
914.3323631702
 21
176.169656603
 31
0.0
  0
ARC
  5
1D1
330
1F
100
AcDbEntity
  8
0
  6
Continuous
 62
     7
100
AcDbCircle
 10
914.3323631702
 20
163.769097392
 30
0.0
 40
12.80756330183351
100
AcDbArc
 50
0.0
 51
90.0
  0
LINE
  5
1D2
330
1F
100
AcDbEntity
  8
0
  6
Continuous
 62
     7
100
AcDbLine
 10
927.1399264721
 20
163.769097392
 30
0.0
 11
926.7329223813
 21
163.769097392
 31
0.0
  0
LINE
  5
1D3
330
1F
100
AcDbEntity
  8
0
  6
Continuous
 62
     7
100
AcDbLine
 10
839.3323631702
 20
176.5766606938
 30
0.0
 11
839.3323631702
 21
176.169656603
 31
0.0
  0
ARC
  5
1D4
330
1F
100
AcDbEntity
  8
0
  6
Continuous
 62
     7
100
AcDbCircle
 10
839.3323631702
 20
163.769097392
 30
0.0
 40
12.80756330183351
100
AcDbArc
 50
0.0
 51
90.0
  0
LINE
  5
1D5
330
1F
100
AcDbEntity
  8
0
  6
Continuous
 62
     7
100
AcDbLine
 10
852.1399264721
 20
163.769097392
 30
0.0
 11
851.7329223813
 21
163.769097392
 31
0.0
  0
LINE
  5
1D6
330
1F
100
AcDbEntity
  8
0
  6
Continuous
 62
     7
100
AcDbLine
 10
989.3323631702
 20
176.5766606938
 30
0.0
 11
989.3323631702
 21
176.169656603
 31
0.0
  0
ARC
  5
1D7
330
1F
100
AcDbEntity
  8
0
  6
Continuous
 62
     7
100
AcDbCircle
 10
989.3323631702
 20
163.769097392
 30
0.0
 40
12.80756330183362
100
AcDbArc
 50
0.0
 51
90.0
  0
LINE
  5
1D8
330
1F
100
AcDbEntity
  8
0
  6
Continuous
 62
     7
100
AcDbLine
 10
1002.1399264721
 20
163.769097392
 30
0.0
 11
1001.7329223813
 21
163.769097392
 31
0.0
  0
ARC
  5
1D9
330
1F
100
AcDbEntity
  8
0
  6
Continuous
 62
     7
100
AcDbCircle
 10
955.0323631702
 20
163.769097392
 30
0.0
 40
12.80756330183351
100
AcDbArc
 50
90.0
 51
180.0
  0
LINE
  5
1DA
330
1F
100
AcDbEntity
  8
0
  6
Continuous
 62
     7
100
AcDbLine
 10
955.0323631702
 20
176.5766606938
 30
0.0
 11
955.0323631702
 21
176.169656603
 31
0.0
  0
LINE
  5
1DB
330
1F
100
AcDbEntity
  8
0
  6
Continuous
 62
     7
100
AcDbLine
 10
942.6318039592
 20
163.769097392
 30
0.0
 11
942.2247998684
 21
163.769097392
 31
0.0
  0
ARC
  5
1DC
330
1F
100
AcDbEntity
  8
0
  6
Continuous
 62
     7
100
AcDbCircle
 10
730.0323631702
 20
163.769097392
 30
0.0
 40
12.80756330183351
100
AcDbArc
 50
90.0
 51
180.0
  0
LINE
  5
1DD
330
1F
100
AcDbEntity
  8
0
  6
Continuous
 62
     7
100
AcDbLine
 10
730.0323631702
 20
176.5766606938
 30
0.0
 11
730.0323631702
 21
176.169656603
 31
0.0
  0
LINE
  5
1DE
330
1F
100
AcDbEntity
  8
0
  6
Continuous
 62
     7
100
AcDbLine
 10
717.6318039592
 20
163.769097392
 30
0.0
 11
717.2247998684
 21
163.769097392
 31
0.0
  0
ARC
  5
1DF
330
1F
100
AcDbEntity
  8
0
  6
Continuous
 62
     7
100
AcDbCircle
 10
880.0323631702
 20
163.769097392
 30
0.0
 40
12.80756330183351
100
AcDbArc
 50
90.0
 51
180.0
  0
LINE
  5
1E0
330
1F
100
AcDbEntity
  8
0
  6
Continuous
 62
     7
100
AcDbLine
 10
880.0323631702
 20
176.5766606938
 30
0.0
 11
880.0323631702
 21
176.169656603
 31
0.0
  0
LINE
  5
1E1
330
1F
100
AcDbEntity
  8
0
  6
Continuous
 62
     7
100
AcDbLine
 10
867.6318039592
 20
163.769097392
 30
0.0
 11
867.2247998684
 21
163.769097392
 31
0.0
  0
ARC
  5
1E2
330
1F
100
AcDbEntity
  8
0
  6
Continuous
 62
     7
100
AcDbCircle
 10
805.0323631702
 20
163.769097392
 30
0.0
 40
12.80756330183351
100
AcDbArc
 50
90.0
 51
180.0
  0
LINE
  5
1E3
330
1F
100
AcDbEntity
  8
0
  6
Continuous
 62
     7
100
AcDbLine
 10
805.0323631702
 20
176.5766606938
 30
0.0
 11
805.0323631702
 21
176.169656603
 31
0.0
  0
LINE
  5
1E4
330
1F
100
AcDbEntity
  8
0
  6
Continuous
 62
     7
100
AcDbLine
 10
792.6318039592
 20
163.769097392
 30
0.0
 11
792.2247998684
 21
163.769097392
 31
0.0
  0
ARC
  5
1E5
330
1F
100
AcDbEntity
  8
0
  6
Continuous
 62
     7
100
AcDbCircle
 10
655.0323631702
 20
163.769097392
 30
0.0
 40
12.80756330183351
100
AcDbArc
 50
90.0
 51
180.0
  0
LINE
  5
1E6
330
1F
100
AcDbEntity
  8
0
  6
Continuous
 62
     7
100
AcDbLine
 10
655.0323631702
 20
176.5766606938
 30
0.0
 11
655.0323631702
 21
176.169656603
 31
0.0
  0
LINE
  5
1E7
330
1F
100
AcDbEntity
  8
0
  6
Continuous
 62
     7
100
AcDbLine
 10
642.6318039592
 20
163.769097392
 30
0.0
 11
642.2247998684
 21
163.769097392
 31
0.0
  0
LINE
  5
1E8
330
1F
100
AcDbEntity
  8
0
  6
Continuous
 62
     7
100
AcDbLine
 10
655.0323631702
 20
176.5766606938
 30
0.0
 11
689.3323631702
 21
176.5766606938
 31
0.0
  0
LINE
  5
1E9
330
1F
100
AcDbEntity
  8
0
  6
Continuous
 62
     7
100
AcDbLine
 10
955.0323631702
 20
176.5766606938
 30
0.0
 11
989.3323631702
 21
176.5766606938
 31
0.0
  0
LINE
  5
1EA
330
1F
100
AcDbEntity
  8
0
  6
Continuous
 62
     7
100
AcDbLine
 10
805.0323631702
 20
176.5766606938
 30
0.0
 11
839.3323631702
 21
176.5766606938
 31
0.0
  0
LINE
  5
1EB
330
1F
100
AcDbEntity
  8
0
  6
Continuous
 62
     7
100
AcDbLine
 10
880.0323631702
 20
176.5766606938
 30
0.0
 11
914.3323631702
 21
176.5766606938
 31
0.0
  0
LINE
  5
1EC
330
1F
100
AcDbEntity
  8
0
  6
Continuous
 62
     7
100
AcDbLine
 10
730.0323631702
 20
176.5766606938
 30
0.0
 11
764.3323631702
 21
176.5766606938
 31
0.0
  0
LINE
  5
1ED
330
1F
100
AcDbEntity
  8
0
  6
Continuous
 62
     7
100
AcDbLine
 10
1119.6823631702
 20
94.8661536668
 30
0.0
 11
1119.6823631702
 21
99.9131536668
 31
0.0
  0
LINE
  5
1EE
330
1F
100
AcDbEntity
  8
0
  6
Continuous
 62
     7
100
AcDbLine
 10
1019.6823631702
 20
94.8661536668
 30
0.0
 11
1119.6823631702
 21
94.8661536668
 31
0.0
  0
LINE
  5
1EF
330
1F
100
AcDbEntity
  8
0
  6
Continuous
 62
     7
100
AcDbLine
 10
1019.6823631702
 20
94.8661536668
 30
0.0
 11
1019.6823631702
 21
94.1632099417
 31
0.0
  0
LINE
  5
1F0
330
1F
100
AcDbEntity
  8
0
  6
Continuous
 62
     7
100
AcDbLine
 10
1019.6823631702
 20
94.1632099417
 30
0.0
 11
624.6823631702
 21
94.1632099417
 31
0.0
  0
LINE
  5
1F1
330
1F
100
AcDbEntity
  8
0
  6
Continuous
 62
     7
100
AcDbLine
 10
624.6823631702
 20
94.8661536668
 30
0.0
 11
624.6823631702
 21
94.1632099417
 31
0.0
  0
LINE
  5
1F2
330
1F
100
AcDbEntity
  8
0
  6
Continuous
 62
     7
100
AcDbLine
 10
624.6823631702
 20
94.8661536668
 30
0.0
 11
524.6823631702
 21
94.8661536668
 31
0.0
  0
LINE
  5
1F3
330
1F
100
AcDbEntity
  8
0
  6
Continuous
 62
     7
100
AcDbLine
 10
524.6823631702
 20
94.8661536668
 30
0.0
 11
524.6823631702
 21
99.9131536668
 31
0.0
  0
LINE
  5
1F4
330
1F
100
AcDbEntity
  8
0
  6
Continuous
 62
     7
100
AcDbLine
 10
1119.6823631702
 20
99.9131536668
 30
0.0
 11
524.6823631702
 21
99.9131536668
 31
0.0
  0
CIRCLE
  5
1F5
330
1F
100
AcDbEntity
  8
0
  6
Continuous
 62
     7
100
AcDbCircle
 10
1032.4323631702
 20
143.222097392
 30
0.0
 40
12.17548339959387
  0
CIRCLE
  5
1F6
330
1F
100
AcDbEntity
  8
0
  6
Continuous
 62
     7
100
AcDbCircle
 10
611.9323631702
 20
143.222097392
 30
0.0
 40
12.17548339959387
  0
LINE
  5
1F7
330
1F
100
AcDbEntity
  8
0
  6
Continuous
 62
     7
100
AcDbLine
 10
1119.6823631702
 20
186.5191536668
 30
0.0
 11
524.6823631702
 21
186.5191536668
 31
0.0
  0
LINE
  5
1F8
330
1F
100
AcDbEntity
  8
0
  6
Continuous
 62
     7
100
AcDbLine
 10
1119.6823631702
 20
186.5191536668
 30
0.0
 11
1119.6823631702
 21
99.9131536668
 31
0.0
  0
LINE
  5
1F9
330
1F
100
AcDbEntity
  8
0
  6
Continuous
 62
     7
100
AcDbLine
 10
524.6823631702
 20
99.9131536668
 30
0.0
 11
524.6823631702
 21
186.5191536668
 31
0.0
  0
LINE
  5
1FA
330
1F
100
AcDbEntity
  8
0
  6
Continuous
 62
     7
100
AcDbLine
 10
624.6823631702
 20
191.5661536668
 30
0.0
 11
524.6823631702
 21
191.5661536668
 31
0.0
  0
LINE
  5
1FB
330
1F
100
AcDbEntity
  8
0
  6
Continuous
 62
     7
100
AcDbLine
 10
624.6823631702
 20
191.5661536668
 30
0.0
 11
624.6823631702
 21
192.269097392
 31
0.0
  0
LINE
  5
1FC
330
1F
100
AcDbEntity
  8
0
  6
Continuous
 62
     7
100
AcDbLine
 10
624.6823631702
 20
192.269097392
 30
0.0
 11
1019.6823631702
 21
192.269097392
 31
0.0
  0
LINE
  5
1FD
330
1F
100
AcDbEntity
  8
0
  6
Continuous
 62
     7
100
AcDbLine
 10
1019.6823631702
 20
191.5661536668
 30
0.0
 11
1019.6823631702
 21
192.269097392
 31
0.0
  0
LINE
  5
1FE
330
1F
100
AcDbEntity
  8
0
  6
Continuous
 62
     7
100
AcDbLine
 10
1019.6823631702
 20
191.5661536668
 30
0.0
 11
1119.6823631702
 21
191.5661536668
 31
0.0
  0
LINE
  5
1FF
330
1F
100
AcDbEntity
  8
0
  6
Continuous
 62
     7
100
AcDbLine
 10
1119.6823631702
 20
186.5191536668
 30
0.0
 11
1119.6823631702
 21
191.5661536668
 31
0.0
  0
LINE
  5
200
330
1F
100
AcDbEntity
  8
0
  6
Continuous
 62
     7
100
AcDbLine
 10
524.6823631702
 20
186.5191536668
 30
0.0
 11
524.6823631702
 21
191.5661536668
 31
0.0
  0
CIRCLE
  5
201
330
1F
100
AcDbEntity
  8
0
  6
Continuous
 62
     7
100
AcDbCircle
 10
1032.4323631702
 20
143.222097392
 30
0.0
 40
9.912741699797039
  0
CIRCLE
  5
202
330
1F
100
AcDbEntity
  8
0
  6
Continuous
 62
     7
100
AcDbCircle
 10
611.9323631702
 20
143.222097392
 30
0.0
 40
9.912741699796925
  0
CIRCLE
  5
203
330
1F
100
AcDbEntity
  8
0
  6
Continuous
 62
     7
100
AcDbCircle
 10
1032.4323631702
 20
143.222097392
 30
0.0
 40
7.425735931288045
  0
CIRCLE
  5
204
330
1F
100
AcDbEntity
  8
0
  6
Continuous
 62
     7
100
AcDbCircle
 10
611.9323631702
 20
143.222097392
 30
0.0
 40
7.425735931288045
  0
CIRCLE
  5
205
330
1F
100
AcDbEntity
  8
0
  6
Continuous
 62
     7
100
AcDbCircle
 10
1032.4323631702
 20
143.222097392
 30
0.0
 40
7.001471862576182
  0
CIRCLE
  5
206
330
1F
100
AcDbEntity
  8
0
  6
Continuous
 62
     7
100
AcDbCircle
 10
611.9323631702
 20
143.222097392
 30
0.0
 40
7.001471862576182
  0
ARC
  5
207
330
1F
100
AcDbEntity
  8
0
  6
Continuous
 62
     7
100
AcDbCircle
 10
1182.3180703737
 20
138.822097392
 30
0.0
 40
1.499999999999993
100
AcDbArc
 50
300.4423795021
 51
332.4879973761
  0
ARC
  5
208
330
1F
100
AcDbEntity
  8
0
  6
Continuous
 62
     7
100
AcDbCircle
 10
1182.3180703737
 20
147.622097392
 30
0.0
 40
1.500000000000017
100
AcDbArc
 50
27.5120026239
 51
59.5576204979
  0
LINE
  5
209
330
1F
100
AcDbEntity
  8
0
  6
Continuous
 62
     7
100
AcDbLine
 10
1183.6484414999
 20
138.1291957637
 30
0.0
 11
1184.3084488909
 21
139.3964099544
 31
0.0
  0
LINE
  5
20A
330
1F
100
AcDbEntity
  8
0
  6
Continuous
 62
     7
100
AcDbLine
 10
1184.3084488909
 20
147.0477848296
 30
0.0
 11
1183.6484414999
 21
148.3149990202
 31
0.0
  0
ARC
  5
20B
330
1F
100
AcDbEntity
  8
0
  6
Continuous
 62
     7
100
AcDbCircle
 10
1182.9780777646
 20
140.0893115826
 30
0.0
 40
1.499999999999932
100
AcDbArc
 50
332.4879973761
 51
0.0
  0
ARC
  5
20C
330
1F
100
AcDbEntity
  8
0
  6
Continuous
 62
     7
100
AcDbCircle
 10
1182.9780777646
 20
146.3548832013
 30
0.0
 40
1.499999999999932
100
AcDbArc
 50
0.0
 51
27.5120026239
  0
LINE
  5
20D
330
1F
100
AcDbEntity
  8
0
  6
Continuous
 62
     7
100
AcDbLine
 10
1170.7780777646
 20
146.222097392
 30
0.0
 11
1170.2780777646
 21
145.722097392
 31
0.0
  0
LINE
  5
20E
330
1F
100
AcDbEntity
  8
0
  6
Continuous
 62
     7
100
AcDbLine
 10
1170.2780777646
 20
140.722097392
 30
0.0
 11
1170.7780777646
 21
140.222097392
 31
0.0
  0
LINE
  5
20F
330
1F
100
AcDbEntity
  8
0
  6
Continuous
 62
     7
100
AcDbLine
 10
1177.0410777648
 20
146.222097392
 30
0.0
 11
1170.7780777646
 21
146.222097392
 31
0.0
  0
LINE
  5
210
330
1F
100
AcDbEntity
  8
0
  6
Continuous
 62
     7
100
AcDbLine
 10
1170.7780777646
 20
140.222097392
 30
0.0
 11
1177.0410777648
 21
140.222097392
 31
0.0
  0
LINE
  5
211
330
1F
100
AcDbEntity
  8
0
  6
Continuous
 62
     7
100
AcDbLine
 10
1184.4780777646
 20
140.0893115826
 30
0.0
 11
1184.4780777646
 21
146.3548832013
 31
0.0
  0
LINE
  5
212
330
1F
100
AcDbEntity
  8
0
  6
Continuous
 62
     7
100
AcDbLine
 10
1170.7780777646
 20
140.222097392
 30
0.0
 11
1170.7780777646
 21
146.222097392
 31
0.0
  0
LINE
  5
213
330
1F
100
AcDbEntity
  8
0
  6
Continuous
 62
     7
100
AcDbLine
 10
1170.2780777646
 20
140.722097392
 30
0.0
 11
1170.2780777646
 21
145.722097392
 31
0.0
  0
LINE
  5
214
330
1F
100
AcDbEntity
  8
0
  6
Continuous
 62
     7
100
AcDbLine
 10
1183.0780777648
 20
186.5191536668
 30
0.0
 11
1178.0310777648
 21
191.5661536668
 31
0.0
  0
LINE
  5
215
330
1F
100
AcDbEntity
  8
0
  6
Continuous
 62
     7
100
AcDbLine
 10
1183.0780777648
 20
99.9131536668
 30
0.0
 11
1183.0780777648
 21
186.5191536668
 31
0.0
  0
LINE
  5
216
330
1F
100
AcDbEntity
  8
0
  6
Continuous
 62
     7
100
AcDbLine
 10
1178.0310777648
 20
94.8661536668
 30
0.0
 11
1183.0780777648
 21
99.9131536668
 31
0.0
  0
LINE
  5
217
330
1F
100
AcDbEntity
  8
0
  6
Continuous
 62
     7
100
AcDbLine
 10
1177.0411282711
 20
95.8561031605
 30
0.0
 11
1178.0310777648
 21
94.8661536668
 31
0.0
  0
LINE
  5
218
330
1F
100
AcDbEntity
  8
0
  6
Continuous
 62
     7
100
AcDbLine
 10
1177.0410777648
 20
96.0201014274
 30
0.0
 11
1177.0411282711
 21
95.8561031605
 31
0.0
  0
LINE
  5
219
330
1F
100
AcDbEntity
  8
0
  6
Continuous
 62
     7
100
AcDbLine
 10
1177.0410777648
 20
190.4122059063
 30
0.0
 11
1177.0410777648
 21
96.0201014274
 31
0.0
  0
LINE
  5
21A
330
1F
100
AcDbEntity
  8
0
  6
Continuous
 62
     7
100
AcDbLine
 10
1177.0411282711
 20
190.5762041732
 30
0.0
 11
1177.0410777648
 21
190.4122059063
 31
0.0
  0
LINE
  5
21B
330
1F
100
AcDbEntity
  8
0
  6
Continuous
 62
     7
100
AcDbLine
 10
1178.0310777648
 20
191.5661536668
 30
0.0
 11
1177.0411282711
 21
190.5762041732
 31
0.0
  0
LINE
  5
21C
330
1F
100
AcDbEntity
  8
0
  6
Continuous
 62
     7
100
AcDbLine
 10
1159.085184546
 20
94.1632099417
 30
0.0
 11
1159.085184546
 21
95.5632099417
 31
0.0
  0
LINE
  5
21D
330
1F
100
AcDbEntity
  8
0
  6
Continuous
 62
     7
100
AcDbLine
 10
1159.085184546
 20
95.5632099417
 30
0.0
 11
1164.085184546
 21
95.5632099417
 31
0.0
  0
LINE
  5
21E
330
1F
100
AcDbEntity
  8
0
  6
Continuous
 62
     7
100
AcDbLine
 10
1164.085184546
 20
95.5632099417
 30
0.0
 11
1164.085184546
 21
94.1632099417
 31
0.0
  0
LINE
  5
21F
330
1F
100
AcDbEntity
  8
0
  6
Continuous
 62
     7
100
AcDbLine
 10
1164.085184546
 20
94.1632099417
 30
0.0
 11
1159.085184546
 21
94.1632099417
 31
0.0
  0
LINE
  5
220
330
1F
100
AcDbEntity
  8
0
  6
Continuous
 62
     7
100
AcDbLine
 10
1176.33402149
 20
95.5632099417
 30
0.0
 11
1176.33402149
 21
94.1632099417
 31
0.0
  0
LINE
  5
221
330
1F
100
AcDbEntity
  8
0
  6
Continuous
 62
     7
100
AcDbLine
 10
1164.085184546
 20
95.5632099417
 30
0.0
 11
1176.33402149
 21
95.5632099417
 31
0.0
  0
LINE
  5
222
330
1F
100
AcDbEntity
  8
0
  6
Continuous
 62
     7
100
AcDbLine
 10
1164.085184546
 20
94.1632099417
 30
0.0
 11
1176.33402149
 21
94.1632099417
 31
0.0
  0
LINE
  5
223
330
1F
100
AcDbEntity
  8
0
  6
Continuous
 62
     7
100
AcDbLine
 10
1164.085184546
 20
192.269097392
 30
0.0
 11
1164.085184546
 21
190.869097392
 31
0.0
  0
LINE
  5
224
330
1F
100
AcDbEntity
  8
0
  6
Continuous
 62
     7
100
AcDbLine
 10
1159.085184546
 20
190.869097392
 30
0.0
 11
1159.085184546
 21
192.269097392
 31
0.0
  0
LINE
  5
225
330
1F
100
AcDbEntity
  8
0
  6
Continuous
 62
     7
100
AcDbLine
 10
1164.085184546
 20
190.869097392
 30
0.0
 11
1159.085184546
 21
190.869097392
 31
0.0
  0
LINE
  5
226
330
1F
100
AcDbEntity
  8
0
  6
Continuous
 62
     7
100
AcDbLine
 10
1159.085184546
 20
192.269097392
 30
0.0
 11
1164.085184546
 21
192.269097392
 31
0.0
  0
LINE
  5
227
330
1F
100
AcDbEntity
  8
0
  6
Continuous
 62
     7
100
AcDbLine
 10
1176.33402149
 20
190.869097392
 30
0.0
 11
1176.33402149
 21
192.269097392
 31
0.0
  0
LINE
  5
228
330
1F
100
AcDbEntity
  8
0
  6
Continuous
 62
     7
100
AcDbLine
 10
1176.33402149
 20
190.869097392
 30
0.0
 11
1164.085184546
 21
190.869097392
 31
0.0
  0
LINE
  5
229
330
1F
100
AcDbEntity
  8
0
  6
Continuous
 62
     7
100
AcDbLine
 10
1176.33402149
 20
192.269097392
 30
0.0
 11
1164.085184546
 21
192.269097392
 31
0.0
  0
LINE
  5
22A
330
1F
100
AcDbEntity
  8
0
  6
Continuous
 62
     7
100
AcDbLine
 10
1176.33402149
 20
95.5632099417
 30
0.0
 11
1176.7482350523
 21
95.5632099417
 31
0.0
  0
LINE
  5
22B
330
1F
100
AcDbEntity
  8
0
  6
Continuous
 62
     7
100
AcDbLine
 10
1176.33402149
 20
94.1632099417
 30
0.0
 11
1177.3281340397
 21
94.1632099417
 31
0.0
  0
LINE
  5
22C
330
1F
100
AcDbEntity
  8
0
  6
Continuous
 62
     7
100
AcDbLine
 10
1177.0411282711
 20
95.8561031605
 30
0.0
 11
1176.7482350523
 21
95.5632099417
 31
0.0
  0
LINE
  5
22D
330
1F
100
AcDbEntity
  8
0
  6
Continuous
 62
     7
100
AcDbLine
 10
1178.0310777648
 20
94.8661536668
 30
0.0
 11
1177.3281340397
 21
94.1632099417
 31
0.0
  0
LINE
  5
22E
330
1F
100
AcDbEntity
  8
0
  6
Continuous
 62
     7
100
AcDbLine
 10
1176.33402149
 20
190.869097392
 30
0.0
 11
1176.7482350523
 21
190.869097392
 31
0.0
  0
LINE
  5
22F
330
1F
100
AcDbEntity
  8
0
  6
Continuous
 62
     7
100
AcDbLine
 10
1176.33402149
 20
192.269097392
 30
0.0
 11
1177.3281340397
 21
192.269097392
 31
0.0
  0
LINE
  5
230
330
1F
100
AcDbEntity
  8
0
  6
Continuous
 62
     7
100
AcDbLine
 10
1177.0411282711
 20
190.5762041732
 30
0.0
 11
1176.7482350523
 21
190.869097392
 31
0.0
  0
LINE
  5
231
330
1F
100
AcDbEntity
  8
0
  6
Continuous
 62
     7
100
AcDbLine
 10
1178.0310777648
 20
191.5661536668
 30
0.0
 11
1177.3281340397
 21
192.269097392
 31
0.0
  0
ARC
  5
232
330
1F
100
AcDbEntity
  8
0
  6
Continuous
 62
     7
100
AcDbCircle
 10
1183.6780777648
 20
122.5766606938
 30
0.0
 40
0.6000000000001364
100
AcDbArc
 50
180.0
 51
222.7140723808
  0
LINE
  5
233
330
1F
100
AcDbEntity
  8
0
  6
Continuous
 62
     7
100
AcDbLine
 10
1183.2372289584
 20
122.169656603
 30
0.0
 11
1183.2372289584
 21
109.769097392
 31
0.0
  0
LINE
  5
234
330
1F
100
AcDbEntity
  8
0
  6
Continuous
 62
     7
100
AcDbLine
 10
1183.2372289584
 20
109.769097392
 30
0.0
 11
1183.0780777648
 21
109.769097392
 31
0.0
  0
ARC
  5
235
330
1F
100
AcDbEntity
  8
0
  6
Continuous
 62
     7
100
AcDbCircle
 10
1183.6780777648
 20
158.5766606938
 30
0.0
 40
0.6000000000000661
100
AcDbArc
 50
180.0
 51
222.7140723808
  0
LINE
  5
236
330
1F
100
AcDbEntity
  8
0
  6
Continuous
 62
     7
100
AcDbLine
 10
1183.2372289584
 20
127.769097392
 30
0.0
 11
1183.0780777648
 21
127.769097392
 31
0.0
  0
ARC
  5
237
330
1F
100
AcDbEntity
  8
0
  6
Continuous
 62
     7
100
AcDbCircle
 10
1183.6780777648
 20
176.5766606938
 30
0.0
 40
0.6000000000000661
100
AcDbArc
 50
180.0
 51
222.7140723808
  0
LINE
  5
238
330
1F
100
AcDbEntity
  8
0
  6
Continuous
 62
     7
100
AcDbLine
 10
1183.2372289584
 20
176.169656603
 30
0.0
 11
1183.2372289584
 21
163.769097392
 31
0.0
  0
LINE
  5
239
330
1F
100
AcDbEntity
  8
0
  6
Continuous
 62
     7
100
AcDbLine
 10
1183.2372289584
 20
163.769097392
 30
0.0
 11
1183.0780777648
 21
163.769097392
 31
0.0
  0
LINE
  5
23A
330
1F
100
AcDbEntity
  8
0
  6
Continuous
 62
     7
100
AcDbLine
 10
1188.0780777648
 20
163.7899488413
 30
0.0
 11
1188.0780777648
 21
163.769097392
 31
0.0
  0
ARC
  5
23B
330
1F
100
AcDbEntity
  8
0
  6
Continuous
 62
     7
100
AcDbCircle
 10
1169.8280777648
 20
163.7899488413
 30
0.0
 40
18.25
100
AcDbArc
 50
0.0
 51
42.7140723808
  0
LINE
  5
23C
330
1F
100
AcDbEntity
  8
0
  6
Continuous
 62
     7
100
AcDbLine
 10
1188.0780777648
 20
163.769097392
 30
0.0
 11
1183.2372289584
 21
163.769097392
 31
0.0
  0
LINE
  5
23D
330
1F
100
AcDbEntity
  8
0
  6
Continuous
 62
     7
100
AcDbLine
 10
1188.0780777648
 20
109.7899488413
 30
0.0
 11
1188.0780777648
 21
109.769097392
 31
0.0
  0
ARC
  5
23E
330
1F
100
AcDbEntity
  8
0
  6
Continuous
 62
     7
100
AcDbCircle
 10
1169.8280777648
 20
109.7899488413
 30
0.0
 40
18.24999999999989
100
AcDbArc
 50
0.0
 51
42.7140723808
  0
LINE
  5
23F
330
1F
100
AcDbEntity
  8
0
  6
Continuous
 62
     7
100
AcDbLine
 10
1188.0780777648
 20
109.769097392
 30
0.0
 11
1183.2372289584
 21
109.769097392
 31
0.0
  0
LINE
  5
240
330
1F
100
AcDbEntity
  8
0
  6
Continuous
 62
     7
100
AcDbLine
 10
1188.0780777648
 20
127.7899488413
 30
0.0
 11
1188.0780777648
 21
127.769097392
 31
0.0
  0
ARC
  5
241
330
1F
100
AcDbEntity
  8
0
  6
Continuous
 62
     7
100
AcDbCircle
 10
1169.8280777648
 20
127.7899488413
 30
0.0
 40
18.25000000000013
100
AcDbArc
 50
0.0
 51
38.2868757725
  0
LINE
  5
242
330
1F
100
AcDbEntity
  8
0
  6
Continuous
 62
     7
100
AcDbLine
 10
1188.0780777648
 20
127.769097392
 30
0.0
 11
1183.2372289584
 21
127.769097392
 31
0.0
  0
LINE
  5
243
330
1F
100
AcDbEntity
  8
0
  6
Continuous
 62
     7
100
AcDbLine
 10
1188.0780777648
 20
145.7899488413
 30
0.0
 11
1188.0780777648
 21
145.769097392
 31
0.0
  0
ARC
  5
244
330
1F
100
AcDbEntity
  8
0
  6
Continuous
 62
     7
100
AcDbCircle
 10
1169.8280777648
 20
145.7899488413
 30
0.0
 40
18.25
100
AcDbArc
 50
0.0
 51
42.7140723808
  0
LINE
  5
245
330
1F
100
AcDbEntity
  8
0
  6
Continuous
 62
     7
100
AcDbLine
 10
1188.0780777648
 20
145.769097392
 30
0.0
 11
1184.4780777646
 21
145.769097392
 31
0.0
  0
LINE
  5
246
330
1F
100
AcDbEntity
  8
0
  6
Continuous
 62
     7
100
AcDbLine
 10
1183.6484414999
 20
138.1291957637
 30
0.0
 11
1183.6484414999
 21
148.3149990202
 31
0.0
  0
LINE
  5
247
330
1F
100
AcDbEntity
  8
0
  6
Continuous
 62
     7
100
AcDbLine
 10
1184.3084488909
 20
139.3964099544
 30
0.0
 11
1184.3084488909
 21
147.0477848296
 31
0.0
  0
LINE
  5
248
330
1F
100
AcDbEntity
  8
0
  6
Continuous
 62
     7
100
AcDbLine
 10
1183.2372289584
 20
158.169656603
 30
0.0
 11
1183.2372289584
 21
148.8074865669
 31
0.0
  0
LINE
  5
249
330
1F
100
AcDbEntity
  8
0
  6
Continuous
 62
     7
100
AcDbLine
 10
1183.2372289584
 20
137.636708217
 30
0.0
 11
1183.2372289584
 21
127.769097392
 31
0.0
  0
ARC
  5
24A
330
1F
100
AcDbEntity
  8
0
  6
Continuous
 62
     7
100
AcDbCircle
 10
470.1319488585
 20
147.622097392
 30
0.0
 40
1.500000000000042
100
AcDbArc
 50
120.4423795021
 51
152.4879973761
  0
ARC
  5
24B
330
1F
100
AcDbEntity
  8
0
  6
Continuous
 62
     7
100
AcDbCircle
 10
470.1319488585
 20
138.822097392
 30
0.0
 40
1.499999999999993
100
AcDbArc
 50
207.5120026239
 51
239.5576204979
  0
LINE
  5
24C
330
1F
100
AcDbEntity
  8
0
  6
Continuous
 62
     7
100
AcDbLine
 10
468.8015777322
 20
148.3149990202
 30
0.0
 11
468.1415703413
 21
147.0477848296
 31
0.0
  0
LINE
  5
24D
330
1F
100
AcDbEntity
  8
0
  6
Continuous
 62
     7
100
AcDbLine
 10
468.1415703413
 20
139.3964099544
 30
0.0
 11
468.8015777322
 21
138.1291957637
 31
0.0
  0
ARC
  5
24E
330
1F
100
AcDbEntity
  8
0
  6
Continuous
 62
     7
100
AcDbCircle
 10
469.4719414675
 20
146.3548832013
 30
0.0
 40
1.5
100
AcDbArc
 50
152.4879973761
 51
180.0
  0
ARC
  5
24F
330
1F
100
AcDbEntity
  8
0
  6
Continuous
 62
     7
100
AcDbCircle
 10
469.4719414675
 20
140.0893115826
 30
0.0
 40
1.5
100
AcDbArc
 50
180.0
 51
207.5120026239
  0
LINE
  5
250
330
1F
100
AcDbEntity
  8
0
  6
Continuous
 62
     7
100
AcDbLine
 10
481.6719414675
 20
140.222097392
 30
0.0
 11
482.1719414675
 21
140.722097392
 31
0.0
  0
LINE
  5
251
330
1F
100
AcDbEntity
  8
0
  6
Continuous
 62
     7
100
AcDbLine
 10
482.1719414675
 20
145.722097392
 30
0.0
 11
481.6719414675
 21
146.222097392
 31
0.0
  0
LINE
  5
252
330
1F
100
AcDbEntity
  8
0
  6
Continuous
 62
     7
100
AcDbLine
 10
475.4089414674
 20
140.222097392
 30
0.0
 11
481.6719414675
 21
140.222097392
 31
0.0
  0
LINE
  5
253
330
1F
100
AcDbEntity
  8
0
  6
Continuous
 62
     7
100
AcDbLine
 10
481.6719414675
 20
146.222097392
 30
0.0
 11
475.4089414674
 21
146.222097392
 31
0.0
  0
LINE
  5
254
330
1F
100
AcDbEntity
  8
0
  6
Continuous
 62
     7
100
AcDbLine
 10
467.9719414675
 20
143.2628428118
 30
0.0
 11
467.9719414675
 21
140.0893115826
 31
0.0
  0
LINE
  5
255
330
1F
100
AcDbEntity
  8
0
  6
Continuous
 62
     7
100
AcDbLine
 10
467.9719414675
 20
146.3548832013
 30
0.0
 11
467.9719414675
 21
143.2628428118
 31
0.0
  0
LINE
  5
256
330
1F
100
AcDbEntity
  8
0
  6
Continuous
 62
     7
100
AcDbLine
 10
481.6719414675
 20
143.2611157823
 30
0.0
 11
481.6719414675
 21
140.222097392
 31
0.0
  0
LINE
  5
257
330
1F
100
AcDbEntity
  8
0
  6
Continuous
 62
     7
100
AcDbLine
 10
481.6719414675
 20
146.222097392
 30
0.0
 11
481.6719414675
 21
143.2611157823
 31
0.0
  0
LINE
  5
258
330
1F
100
AcDbEntity
  8
0
  6
Continuous
 62
     7
100
AcDbLine
 10
482.1719414675
 20
143.2546127172
 30
0.0
 11
482.1719414675
 21
140.722097392
 31
0.0
  0
LINE
  5
259
330
1F
100
AcDbEntity
  8
0
  6
Continuous
 62
     7
100
AcDbLine
 10
482.1719414675
 20
145.722097392
 30
0.0
 11
482.1719414675
 21
143.2546127172
 31
0.0
  0
LINE
  5
25A
330
1F
100
AcDbEntity
  8
0
  6
Continuous
 62
     7
100
AcDbLine
 10
475.4089414674
 20
190.4122059063
 30
0.0
 11
475.4089414674
 21
96.0201014274
 31
0.0
  0
LINE
  5
25B
330
1F
100
AcDbEntity
  8
0
  6
Continuous
 62
     7
100
AcDbLine
 10
474.4189414674
 20
94.8661536668
 30
0.0
 11
469.3719414674
 21
99.9131536668
 31
0.0
  0
LINE
  5
25C
330
1F
100
AcDbEntity
  8
0
  6
Continuous
 62
     7
100
AcDbLine
 10
469.3719414674
 20
186.5191536668
 30
0.0
 11
469.3719414674
 21
99.9131536668
 31
0.0
  0
LINE
  5
25D
330
1F
100
AcDbEntity
  8
0
  6
Continuous
 62
     7
100
AcDbLine
 10
469.3719414674
 20
186.5191536668
 30
0.0
 11
474.4189414674
 21
191.5661536668
 31
0.0
  0
LINE
  5
25E
330
1F
100
AcDbEntity
  8
0
  6
Continuous
 62
     7
100
AcDbLine
 10
474.4189414674
 20
191.5661536668
 30
0.0
 11
475.408890961
 21
190.5762041732
 31
0.0
  0
LINE
  5
25F
330
1F
100
AcDbEntity
  8
0
  6
Continuous
 62
     7
100
AcDbLine
 10
475.408890961
 20
95.8561031605
 30
0.0
 11
474.4189414674
 21
94.8661536668
 31
0.0
  0
LINE
  5
260
330
1F
100
AcDbEntity
  8
0
  6
Continuous
 62
     7
100
AcDbLine
 10
475.408890961
 20
95.8561031605
 30
0.0
 11
475.4089414674
 21
96.0201014274
 31
0.0
  0
LINE
  5
261
330
1F
100
AcDbEntity
  8
0
  6
Continuous
 62
     7
100
AcDbLine
 10
475.4089414674
 20
190.4122059063
 30
0.0
 11
475.408890961
 21
190.5762041732
 31
0.0
  0
LINE
  5
262
330
1F
100
AcDbEntity
  8
0
  6
Continuous
 62
     7
100
AcDbLine
 10
488.3648346862
 20
94.1632099417
 30
0.0
 11
488.3648346862
 21
95.5632099417
 31
0.0
  0
LINE
  5
263
330
1F
100
AcDbEntity
  8
0
  6
Continuous
 62
     7
100
AcDbLine
 10
493.3648346862
 20
95.5632099417
 30
0.0
 11
493.3648346862
 21
94.1632099417
 31
0.0
  0
LINE
  5
264
330
1F
100
AcDbEntity
  8
0
  6
Continuous
 62
     7
100
AcDbLine
 10
493.3648346862
 20
94.1632099417
 30
0.0
 11
488.3648346862
 21
94.1632099417
 31
0.0
  0
LINE
  5
265
330
1F
100
AcDbEntity
  8
0
  6
Continuous
 62
     7
100
AcDbLine
 10
488.3648346862
 20
95.5632099417
 30
0.0
 11
493.3648346862
 21
95.5632099417
 31
0.0
  0
LINE
  5
266
330
1F
100
AcDbEntity
  8
0
  6
Continuous
 62
     7
100
AcDbLine
 10
476.1159977422
 20
95.5632099417
 30
0.0
 11
476.1159977422
 21
94.1632099417
 31
0.0
  0
LINE
  5
267
330
1F
100
AcDbEntity
  8
0
  6
Continuous
 62
     7
100
AcDbLine
 10
488.3648346862
 20
94.1632099417
 30
0.0
 11
476.1159977422
 21
94.1632099417
 31
0.0
  0
LINE
  5
268
330
1F
100
AcDbEntity
  8
0
  6
Continuous
 62
     7
100
AcDbLine
 10
488.3648346862
 20
95.5632099417
 30
0.0
 11
476.1159977422
 21
95.5632099417
 31
0.0
  0
LINE
  5
269
330
1F
100
AcDbEntity
  8
0
  6
Continuous
 62
     7
100
AcDbLine
 10
493.3648346862
 20
192.269097392
 30
0.0
 11
493.3648346862
 21
190.869097392
 31
0.0
  0
LINE
  5
26A
330
1F
100
AcDbEntity
  8
0
  6
Continuous
 62
     7
100
AcDbLine
 10
493.3648346862
 20
190.869097392
 30
0.0
 11
488.3648346862
 21
190.869097392
 31
0.0
  0
LINE
  5
26B
330
1F
100
AcDbEntity
  8
0
  6
Continuous
 62
     7
100
AcDbLine
 10
488.3648346862
 20
190.869097392
 30
0.0
 11
488.3648346862
 21
192.269097392
 31
0.0
  0
LINE
  5
26C
330
1F
100
AcDbEntity
  8
0
  6
Continuous
 62
     7
100
AcDbLine
 10
488.3648346862
 20
192.269097392
 30
0.0
 11
493.3648346862
 21
192.269097392
 31
0.0
  0
LINE
  5
26D
330
1F
100
AcDbEntity
  8
0
  6
Continuous
 62
     7
100
AcDbLine
 10
476.1159977422
 20
94.1632099417
 30
0.0
 11
475.1218851925
 21
94.1632099417
 31
0.0
  0
LINE
  5
26E
330
1F
100
AcDbEntity
  8
0
  6
Continuous
 62
     7
100
AcDbLine
 10
476.1159977422
 20
95.5632099417
 30
0.0
 11
475.7017841798
 21
95.5632099417
 31
0.0
  0
LINE
  5
26F
330
1F
100
AcDbEntity
  8
0
  6
Continuous
 62
     7
100
AcDbLine
 10
475.408890961
 20
95.8561031605
 30
0.0
 11
475.7017841798
 21
95.5632099417
 31
0.0
  0
LINE
  5
270
330
1F
100
AcDbEntity
  8
0
  6
Continuous
 62
     7
100
AcDbLine
 10
474.4189414674
 20
94.8661536668
 30
0.0
 11
475.1218851925
 21
94.1632099417
 31
0.0
  0
LINE
  5
271
330
1F
100
AcDbEntity
  8
0
  6
Continuous
 62
     7
100
AcDbLine
 10
476.1159977422
 20
190.869097392
 30
0.0
 11
476.1159977422
 21
192.269097392
 31
0.0
  0
LINE
  5
272
330
1F
100
AcDbEntity
  8
0
  6
Continuous
 62
     7
100
AcDbLine
 10
476.1159977422
 20
190.869097392
 30
0.0
 11
488.3648346862
 21
190.869097392
 31
0.0
  0
LINE
  5
273
330
1F
100
AcDbEntity
  8
0
  6
Continuous
 62
     7
100
AcDbLine
 10
476.1159977422
 20
192.269097392
 30
0.0
 11
488.3648346862
 21
192.269097392
 31
0.0
  0
LINE
  5
274
330
1F
100
AcDbEntity
  8
0
  6
Continuous
 62
     7
100
AcDbLine
 10
476.1159977422
 20
190.869097392
 30
0.0
 11
475.7017841798
 21
190.869097392
 31
0.0
  0
LINE
  5
275
330
1F
100
AcDbEntity
  8
0
  6
Continuous
 62
     7
100
AcDbLine
 10
476.1159977422
 20
192.269097392
 30
0.0
 11
475.1218851925
 21
192.269097392
 31
0.0
  0
LINE
  5
276
330
1F
100
AcDbEntity
  8
0
  6
Continuous
 62
     7
100
AcDbLine
 10
475.408890961
 20
190.5762041732
 30
0.0
 11
475.7017841798
 21
190.869097392
 31
0.0
  0
LINE
  5
277
330
1F
100
AcDbEntity
  8
0
  6
Continuous
 62
     7
100
AcDbLine
 10
474.4189414674
 20
191.5661536668
 30
0.0
 11
475.1218851925
 21
192.269097392
 31
0.0
  0
LINE
  5
278
330
1F
100
AcDbEntity
  8
0
  6
Continuous
 62
     7
100
AcDbLine
 10
469.2127902737
 20
109.769097392
 30
0.0
 11
469.2127902737
 21
122.169656603
 31
0.0
  0
ARC
  5
279
330
1F
100
AcDbEntity
  8
0
  6
Continuous
 62
     7
100
AcDbCircle
 10
468.7719414674
 20
122.5766606938
 30
0.0
 40
0.6000000000000243
100
AcDbArc
 50
317.2859276192
 51
0.0
  0
LINE
  5
27A
330
1F
100
AcDbEntity
  8
0
  6
Continuous
 62
     7
100
AcDbLine
 10
469.3719414674
 20
109.769097392
 30
0.0
 11
469.2127902737
 21
109.769097392
 31
0.0
  0
LINE
  5
27B
330
1F
100
AcDbEntity
  8
0
  6
Continuous
 62
     7
100
AcDbLine
 10
469.3719414674
 20
127.769097392
 30
0.0
 11
469.2127902737
 21
127.769097392
 31
0.0
  0
ARC
  5
27C
330
1F
100
AcDbEntity
  8
0
  6
Continuous
 62
     7
100
AcDbCircle
 10
468.7719414674
 20
158.5766606938
 30
0.0
 40
0.6000000000000243
100
AcDbArc
 50
317.2859276192
 51
0.0
  0
LINE
  5
27D
330
1F
100
AcDbEntity
  8
0
  6
Continuous
 62
     7
100
AcDbLine
 10
469.2127902737
 20
163.769097392
 30
0.0
 11
469.2127902737
 21
176.169656603
 31
0.0
  0
ARC
  5
27E
330
1F
100
AcDbEntity
  8
0
  6
Continuous
 62
     7
100
AcDbCircle
 10
468.7719414674
 20
176.5766606938
 30
0.0
 40
0.6000000000000019
100
AcDbArc
 50
317.2859276192
 51
0.0
  0
LINE
  5
27F
330
1F
100
AcDbEntity
  8
0
  6
Continuous
 62
     7
100
AcDbLine
 10
469.3719414674
 20
163.769097392
 30
0.0
 11
469.2127902737
 21
163.769097392
 31
0.0
  0
LINE
  5
280
330
1F
100
AcDbEntity
  8
0
  6
Continuous
 62
     7
100
AcDbLine
 10
464.3719414674
 20
109.769097392
 30
0.0
 11
464.3719414674
 21
109.7899488413
 31
0.0
  0
ARC
  5
281
330
1F
100
AcDbEntity
  8
0
  6
Continuous
 62
     7
100
AcDbCircle
 10
482.6219414674
 20
109.7899488413
 30
0.0
 40
18.25
100
AcDbArc
 50
137.2859276192
 51
180.0
  0
LINE
  5
282
330
1F
100
AcDbEntity
  8
0
  6
Continuous
 62
     7
100
AcDbLine
 10
469.2127902737
 20
109.769097392
 30
0.0
 11
464.3719414674
 21
109.769097392
 31
0.0
  0
LINE
  5
283
330
1F
100
AcDbEntity
  8
0
  6
Continuous
 62
     7
100
AcDbLine
 10
464.3719414674
 20
163.769097392
 30
0.0
 11
464.3719414674
 21
163.7899488413
 31
0.0
  0
ARC
  5
284
330
1F
100
AcDbEntity
  8
0
  6
Continuous
 62
     7
100
AcDbCircle
 10
482.6219414674
 20
163.7899488413
 30
0.0
 40
18.25000000000001
100
AcDbArc
 50
137.2859276192
 51
180.0
  0
LINE
  5
285
330
1F
100
AcDbEntity
  8
0
  6
Continuous
 62
     7
100
AcDbLine
 10
469.2127902737
 20
163.769097392
 30
0.0
 11
464.3719414674
 21
163.769097392
 31
0.0
  0
LINE
  5
286
330
1F
100
AcDbEntity
  8
0
  6
Continuous
 62
     7
100
AcDbLine
 10
464.3719414674
 20
145.769097392
 30
0.0
 11
464.3719414674
 21
145.7899488413
 31
0.0
  0
ARC
  5
287
330
1F
100
AcDbEntity
  8
0
  6
Continuous
 62
     7
100
AcDbCircle
 10
482.6219414674
 20
145.7899488413
 30
0.0
 40
18.25
100
AcDbArc
 50
137.2859276192
 51
180.0
  0
LINE
  5
288
330
1F
100
AcDbEntity
  8
0
  6
Continuous
 62
     7
100
AcDbLine
 10
467.9719414675
 20
145.769097392
 30
0.0
 11
464.3719414674
 21
145.769097392
 31
0.0
  0
LINE
  5
289
330
1F
100
AcDbEntity
  8
0
  6
Continuous
 62
     7
100
AcDbLine
 10
464.3719414674
 20
127.769097392
 30
0.0
 11
464.3719414674
 21
127.7899488413
 31
0.0
  0
ARC
  5
28A
330
1F
100
AcDbEntity
  8
0
  6
Continuous
 62
     7
100
AcDbCircle
 10
482.6219414674
 20
127.7899488413
 30
0.0
 40
18.25000000000001
100
AcDbArc
 50
141.7131242275
 51
180.0
  0
LINE
  5
28B
330
1F
100
AcDbEntity
  8
0
  6
Continuous
 62
     7
100
AcDbLine
 10
469.2127902737
 20
127.769097392
 30
0.0
 11
464.3719414674
 21
127.769097392
 31
0.0
  0
LINE
  5
28C
330
1F
100
AcDbEntity
  8
0
  6
Continuous
 62
     7
100
AcDbLine
 10
468.8015777322
 20
143.2883363332
 30
0.0
 11
468.8015777322
 21
138.1291957637
 31
0.0
  0
LINE
  5
28D
330
1F
100
AcDbEntity
  8
0
  6
Continuous
 62
     7
100
AcDbLine
 10
468.8015777322
 20
148.3149990202
 30
0.0
 11
468.8015777322
 21
143.2883363332
 31
0.0
  0
LINE
  5
28E
330
1F
100
AcDbEntity
  8
0
  6
Continuous
 62
     7
100
AcDbLine
 10
468.1415703413
 20
143.2718547805
 30
0.0
 11
468.1415703413
 21
139.3964099544
 31
0.0
  0
LINE
  5
28F
330
1F
100
AcDbEntity
  8
0
  6
Continuous
 62
     7
100
AcDbLine
 10
468.1415703413
 20
147.0477848296
 30
0.0
 11
468.1415703413
 21
143.2718547805
 31
0.0
  0
LINE
  5
290
330
1F
100
AcDbEntity
  8
0
  6
Continuous
 62
     7
100
AcDbLine
 10
469.2127902737
 20
127.769097392
 30
0.0
 11
469.2127902737
 21
137.636708217
 31
0.0
  0
LINE
  5
291
330
1F
100
AcDbEntity
  8
0
  6
Continuous
 62
     7
100
AcDbLine
 10
469.2127902737
 20
148.8074865669
 30
0.0
 11
469.2127902737
 21
158.169656603
 31
0.0
  0
ARC
  5
292
330
1F
100
AcDbEntity
  8
0
  6
Continuous
 62
     7
100
AcDbCircle
 10
1036.8323631702
 20
246.4883251572
 30
0.0
 40
1.499999999999982
100
AcDbArc
 50
30.4423795021
 51
62.4879973761
  0
ARC
  5
293
330
1F
100
AcDbEntity
  8
0
  6
Continuous
 62
     7
100
AcDbCircle
 10
1028.0323631702
 20
246.4883251572
 30
0.0
 40
1.500000000000146
100
AcDbArc
 50
117.5120026239
 51
149.5576204979
  0
LINE
  5
294
330
1F
100
AcDbEntity
  8
0
  6
Continuous
 62
     7
100
AcDbLine
 10
1037.5252647985
 20
247.8186962834
 30
0.0
 11
1036.2580506078
 21
248.4787036744
 31
0.0
  0
LINE
  5
295
330
1F
100
AcDbEntity
  8
0
  6
Continuous
 62
     7
100
AcDbLine
 10
1028.6066757326
 20
248.4787036744
 30
0.0
 11
1027.339461542
 21
247.8186962834
 31
0.0
  0
ARC
  5
296
330
1F
100
AcDbEntity
  8
0
  6
Continuous
 62
     7
100
AcDbCircle
 10
1035.5651489796
 20
247.1483325482
 30
0.0
 40
1.5
100
AcDbArc
 50
62.4879973761
 51
90.0
  0
ARC
  5
297
330
1F
100
AcDbEntity
  8
0
  6
Continuous
 62
     7
100
AcDbCircle
 10
1029.2995773609
 20
247.1483325482
 30
0.0
 40
1.500000000000086
100
AcDbArc
 50
90.0
 51
117.5120026239
  0
LINE
  5
298
330
1F
100
AcDbEntity
  8
0
  6
Continuous
 62
     7
100
AcDbLine
 10
1029.4323631702
 20
241.2113830547
 30
0.0
 11
1029.4323631702
 21
234.9483325482
 31
0.0
  0
LINE
  5
299
330
1F
100
AcDbEntity
  8
0
  6
Continuous
 62
     7
100
AcDbLine
 10
1035.4323631702
 20
234.9483325482
 30
0.0
 11
1035.4323631702
 21
241.2113830547
 31
0.0
  0
LINE
  5
29A
330
1F
100
AcDbEntity
  8
0
  6
Continuous
 62
     7
100
AcDbLine
 10
1029.4323631702
 20
234.9483325482
 30
0.0
 11
1029.9323631702
 21
234.4483325482
 31
0.0
  0
LINE
  5
29B
330
1F
100
AcDbEntity
  8
0
  6
Continuous
 62
     7
100
AcDbLine
 10
1034.9323631702
 20
234.4483325482
 30
0.0
 11
1035.4323631702
 21
234.9483325482
 31
0.0
  0
ARC
  5
29C
330
1F
100
AcDbEntity
  8
0
  6
Continuous
 62
     7
100
AcDbCircle
 10
616.3323631702
 20
246.4883251572
 30
0.0
 40
1.499999999999984
100
AcDbArc
 50
30.4423795021
 51
62.4879973761
  0
ARC
  5
29D
330
1F
100
AcDbEntity
  8
0
  6
Continuous
 62
     7
100
AcDbCircle
 10
607.5323631702
 20
246.4883251572
 30
0.0
 40
1.499999999999984
100
AcDbArc
 50
117.5120026239
 51
149.5576204979
  0
LINE
  5
29E
330
1F
100
AcDbEntity
  8
0
  6
Continuous
 62
     7
100
AcDbLine
 10
617.0252647985
 20
247.8186962834
 30
0.0
 11
615.7580506078
 21
248.4787036744
 31
0.0
  0
LINE
  5
29F
330
1F
100
AcDbEntity
  8
0
  6
Continuous
 62
     7
100
AcDbLine
 10
608.1066757326
 20
248.4787036744
 30
0.0
 11
606.839461542
 21
247.8186962834
 31
0.0
  0
ARC
  5
2A0
330
1F
100
AcDbEntity
  8
0
  6
Continuous
 62
     7
100
AcDbCircle
 10
615.0651489796
 20
247.1483325482
 30
0.0
 40
1.500000000000009
100
AcDbArc
 50
62.4879973761
 51
90.0
  0
ARC
  5
2A1
330
1F
100
AcDbEntity
  8
0
  6
Continuous
 62
     7
100
AcDbCircle
 10
608.7995773609
 20
247.1483325482
 30
0.0
 40
1.500000000000009
100
AcDbArc
 50
90.0
 51
117.5120026239
  0
LINE
  5
2A2
330
1F
100
AcDbEntity
  8
0
  6
Continuous
 62
     7
100
AcDbLine
 10
608.9323631702
 20
241.2113830547
 30
0.0
 11
608.9323631702
 21
234.9483325482
 31
0.0
  0
LINE
  5
2A3
330
1F
100
AcDbEntity
  8
0
  6
Continuous
 62
     7
100
AcDbLine
 10
614.9323631702
 20
234.9483325482
 30
0.0
 11
614.9323631702
 21
241.2113830547
 31
0.0
  0
LINE
  5
2A4
330
1F
100
AcDbEntity
  8
0
  6
Continuous
 62
     7
100
AcDbLine
 10
608.9323631702
 20
234.9483325482
 30
0.0
 11
609.4323631702
 21
234.4483325482
 31
0.0
  0
LINE
  5
2A5
330
1F
100
AcDbEntity
  8
0
  6
Continuous
 62
     7
100
AcDbLine
 10
614.4323631702
 20
234.4483325482
 30
0.0
 11
614.9323631702
 21
234.9483325482
 31
0.0
  0
LINE
  5
2A6
330
1F
100
AcDbEntity
  8
0
  6
Continuous
 62
     7
100
AcDbLine
 10
1035.5648839983
 20
248.6483325482
 30
0.0
 11
1029.2995773609
 21
248.6483325482
 31
0.0
  0
LINE
  5
2A7
330
1F
100
AcDbEntity
  8
0
  6
Continuous
 62
     7
100
AcDbLine
 10
1035.4321094204
 20
234.9483325482
 30
0.0
 11
1029.4323631702
 21
234.9483325482
 31
0.0
  0
LINE
  5
2A8
330
1F
100
AcDbEntity
  8
0
  6
Continuous
 62
     7
100
AcDbLine
 10
1034.932151712
 20
234.4483325482
 30
0.0
 11
1029.9323631702
 21
234.4483325482
 31
0.0
  0
LINE
  5
2A9
330
1F
100
AcDbEntity
  8
0
  6
Continuous
 62
     7
100
AcDbLine
 10
613.0618180529
 20
248.6483325482
 30
0.0
 11
608.7995773609
 21
248.6483325482
 31
0.0
  0
LINE
  5
2AA
330
1F
100
AcDbEntity
  8
0
  6
Continuous
 62
     7
100
AcDbLine
 10
615.0651489796
 20
248.6483325482
 30
0.0
 11
613.0618180529
 21
248.6483325482
 31
0.0
  0
LINE
  5
2AB
330
1F
100
AcDbEntity
  8
0
  6
Continuous
 62
     7
100
AcDbLine
 10
613.0139451405
 20
234.9483325482
 30
0.0
 11
608.9323631702
 21
234.9483325482
 31
0.0
  0
LINE
  5
2AC
330
1F
100
AcDbEntity
  8
0
  6
Continuous
 62
     7
100
AcDbLine
 10
614.9323631702
 20
234.9483325482
 30
0.0
 11
613.0139451405
 21
234.9483325482
 31
0.0
  0
LINE
  5
2AD
330
1F
100
AcDbEntity
  8
0
  6
Continuous
 62
     7
100
AcDbLine
 10
612.8336814788
 20
234.4483325482
 30
0.0
 11
609.4323631702
 21
234.4483325482
 31
0.0
  0
LINE
  5
2AE
330
1F
100
AcDbEntity
  8
0
  6
Continuous
 62
     7
100
AcDbLine
 10
614.4323631702
 20
234.4483325482
 30
0.0
 11
612.8336814788
 21
234.4483325482
 31
0.0
  0
LINE
  5
2AF
330
1F
100
AcDbEntity
  8
0
  6
Continuous
 62
     7
100
AcDbLine
 10
624.6823631702
 20
240.5042762735
 30
0.0
 11
624.6823631702
 21
241.4983888232
 31
0.0
  0
LINE
  5
2B0
330
1F
100
AcDbEntity
  8
0
  6
Continuous
 62
     7
100
AcDbLine
 10
1019.6823631702
 20
241.4983888232
 30
0.0
 11
624.6823631702
 21
241.4983888232
 31
0.0
  0
LINE
  5
2B1
330
1F
100
AcDbEntity
  8
0
  6
Continuous
 62
     7
100
AcDbLine
 10
1019.6823631702
 20
240.5042762735
 30
0.0
 11
1019.6823631702
 21
241.4983888232
 31
0.0
  0
LINE
  5
2B2
330
1F
100
AcDbEntity
  8
0
  6
Continuous
 62
     7
100
AcDbLine
 10
1019.6823631702
 20
228.2554393295
 30
0.0
 11
1019.6823631702
 21
240.5042762735
 31
0.0
  0
LINE
  5
2B3
330
1F
100
AcDbEntity
  8
0
  6
Continuous
 62
     7
100
AcDbLine
 10
624.6823631702
 20
228.2554393295
 30
0.0
 11
624.6823631702
 21
240.5042762735
 31
0.0
  0
CIRCLE
  5
2B4
330
1F
100
AcDbEntity
  8
0
  6
Continuous
 62
     7
100
AcDbCircle
 10
1004.6823631702
 20
228.2483325483
 30
0.0
 40
2.749999999999773
  0
CIRCLE
  5
2B5
330
1F
100
AcDbEntity
  8
0
  6
Continuous
 62
     7
100
AcDbCircle
 10
639.6823631702
 20
228.2483325483
 30
0.0
 40
2.749999999999886
  0
LINE
  5
2B6
330
1F
100
AcDbEntity
  8
0
  6
Continuous
 62
     7
100
AcDbLine
 10
1014.6823631702
 20
223.2554393295
 30
0.0
 11
629.6823631702
 21
223.2554393295
 31
0.0
  0
ARC
  5
2B7
330
1F
100
AcDbEntity
  8
0
  6
Continuous
 62
     7
100
AcDbCircle
 10
1014.6823631702
 20
228.2554393295
 30
0.0
 40
5.0
100
AcDbArc
 50
270.0
 51
0.0
  0
ARC
  5
2B8
330
1F
100
AcDbEntity
  8
0
  6
Continuous
 62
     7
100
AcDbCircle
 10
629.6823631702
 20
228.2554393295
 30
0.0
 40
4.999999999999972
100
AcDbArc
 50
180.0
 51
270.0
  0
LINE
  5
2B9
330
1F
100
AcDbEntity
  8
0
  6
Continuous
 62
     7
100
AcDbLine
 10
1119.6823631702
 20
242.2013325483
 30
0.0
 11
1119.6823631702
 21
247.2483325483
 31
0.0
  0
LINE
  5
2BA
330
1F
100
AcDbEntity
  8
0
  6
Continuous
 62
     7
100
AcDbLine
 10
1019.6823631702
 20
242.2013325483
 30
0.0
 11
1119.6823631702
 21
242.2013325483
 31
0.0
  0
LINE
  5
2BB
330
1F
100
AcDbEntity
  8
0
  6
Continuous
 62
     7
100
AcDbLine
 10
624.6823631702
 20
242.2013325483
 30
0.0
 11
524.6823631702
 21
242.2013325483
 31
0.0
  0
LINE
  5
2BC
330
1F
100
AcDbEntity
  8
0
  6
Continuous
 62
     7
100
AcDbLine
 10
524.6823631702
 20
242.2013325483
 30
0.0
 11
524.6823631702
 21
247.2483325483
 31
0.0
  0
LINE
  5
2BD
330
1F
100
AcDbEntity
  8
0
  6
Continuous
 62
     7
100
AcDbLine
 10
1119.6823631702
 20
247.2483325483
 30
0.0
 11
524.6823631702
 21
247.2483325483
 31
0.0
  0
LINE
  5
2BE
330
1F
100
AcDbEntity
  8
0
  6
Continuous
 62
     7
100
AcDbLine
 10
1019.6823631702
 20
242.2013325483
 30
0.0
 11
1019.6823631702
 21
241.4983888232
 31
0.0
  0
LINE
  5
2BF
330
1F
100
AcDbEntity
  8
0
  6
Continuous
 62
     7
100
AcDbLine
 10
624.6823631702
 20
242.2013325483
 30
0.0
 11
624.6823631702
 21
241.4983888232
 31
0.0
  0
LINE
  5
2C0
330
1F
100
AcDbEntity
  8
0
  6
Continuous
 62
     7
100
AcDbLine
 10
1119.6823631702
 20
241.2113830547
 30
0.0
 11
1119.6823631702
 21
242.2013325483
 31
0.0
  0
LINE
  5
2C1
330
1F
100
AcDbEntity
  8
0
  6
Continuous
 62
     7
100
AcDbLine
 10
1118.2823631702
 20
241.2113830547
 30
0.0
 11
1119.6823631702
 21
241.2113830547
 31
0.0
  0
LINE
  5
2C2
330
1F
100
AcDbEntity
  8
0
  6
Continuous
 62
     7
100
AcDbLine
 10
1019.6823631702
 20
241.2113830547
 30
0.0
 11
1118.2823631702
 21
241.2113830547
 31
0.0
  0
LINE
  5
2C3
330
1F
100
AcDbEntity
  8
0
  6
Continuous
 62
     7
100
AcDbLine
 10
526.0823631702
 20
241.2113830547
 30
0.0
 11
524.6823631702
 21
241.2113830547
 31
0.0
  0
LINE
  5
2C4
330
1F
100
AcDbEntity
  8
0
  6
Continuous
 62
     7
100
AcDbLine
 10
524.6823631702
 20
241.2113830547
 30
0.0
 11
524.6823631702
 21
242.2013325483
 31
0.0
  0
LINE
  5
2C5
330
1F
100
AcDbEntity
  8
0
  6
Continuous
 62
     7
100
AcDbLine
 10
624.6823631702
 20
241.2113830547
 30
0.0
 11
526.0823631702
 21
241.2113830547
 31
0.0
  0
LINE
  5
2C6
330
1F
100
AcDbEntity
  8
0
  6
Continuous
 62
     7
100
AcDbLine
 10
524.6823631702
 20
241.2113325483
 30
0.0
 11
526.0823631702
 21
241.2113325483
 31
0.0
  0
LINE
  5
2C7
330
1F
100
AcDbEntity
  8
0
  6
Continuous
 62
     7
100
AcDbLine
 10
526.0823631702
 20
241.2113325483
 30
0.0
 11
526.0823631702
 21
241.2113830547
 31
0.0
  0
LINE
  5
2C8
330
1F
100
AcDbEntity
  8
0
  6
Continuous
 62
     7
100
AcDbLine
 10
524.6823631702
 20
241.2113325483
 30
0.0
 11
524.6823631702
 21
241.2113830547
 31
0.0
  0
LINE
  5
2C9
330
1F
100
AcDbEntity
  8
0
  6
Continuous
 62
     7
100
AcDbLine
 10
1119.6823631702
 20
241.2113325483
 30
0.0
 11
1118.2823631702
 21
241.2113325483
 31
0.0
  0
LINE
  5
2CA
330
1F
100
AcDbEntity
  8
0
  6
Continuous
 62
     7
100
AcDbLine
 10
1118.2823631702
 20
241.2113830547
 30
0.0
 11
1118.2823631702
 21
241.2113325483
 31
0.0
  0
LINE
  5
2CB
330
1F
100
AcDbEntity
  8
0
  6
Continuous
 62
     7
100
AcDbLine
 10
1119.6823631702
 20
241.2113830547
 30
0.0
 11
1119.6823631702
 21
241.2113325483
 31
0.0
  0
ARC
  5
2CC
330
1F
100
AcDbEntity
  8
0
  6
Continuous
 62
     7
100
AcDbCircle
 10
655.0115117209
 20
233.9983325483
 30
0.0
 40
18.25
100
AcDbArc
 50
90.0
 51
132.7140723808
  0
ARC
  5
2CD
330
1F
100
AcDbEntity
  8
0
  6
Continuous
 62
     7
100
AcDbCircle
 10
689.3532146195
 20
233.9983325483
 30
0.0
 40
18.25
100
AcDbArc
 50
47.2859276192
 51
90.0
  0
ARC
  5
2CE
330
1F
100
AcDbEntity
  8
0
  6
Continuous
 62
     7
100
AcDbCircle
 10
989.3532146195
 20
233.9983325483
 30
0.0
 40
16.84999999999997
100
AcDbArc
 50
51.8457234755
 51
90.0
  0
ARC
  5
2CF
330
1F
100
AcDbEntity
  8
0
  6
Continuous
 62
     7
100
AcDbCircle
 10
805.0115117209
 20
233.9983325483
 30
0.0
 40
18.25000000000006
100
AcDbArc
 50
90.0
 51
132.7140723808
  0
ARC
  5
2D0
330
1F
100
AcDbEntity
  8
0
  6
Continuous
 62
     7
100
AcDbCircle
 10
777.1399264721
 20
247.8483325483
 30
0.0
 40
0.6000000000000597
100
AcDbArc
 50
227.2859276192
 51
270.0
  0
ARC
  5
2D1
330
1F
100
AcDbEntity
  8
0
  6
Continuous
 62
     7
100
AcDbCircle
 10
839.3532146195
 20
233.9983325483
 30
0.0
 40
16.85000000000006
100
AcDbArc
 50
51.8457234755
 51
90.0
  0
ARC
  5
2D2
330
1F
100
AcDbEntity
  8
0
  6
Continuous
 62
     7
100
AcDbCircle
 10
914.3532146195
 20
233.9983325483
 30
0.0
 40
16.84999999999999
100
AcDbArc
 50
51.8457234755
 51
90.0
  0
LINE
  5
2D3
330
1F
100
AcDbEntity
  8
0
  6
Continuous
 62
     7
100
AcDbLine
 10
955.0115117209
 20
250.8483325483
 30
0.0
 11
989.3532146195
 21
250.8483325483
 31
0.0
  0
ARC
  5
2D4
330
1F
100
AcDbEntity
  8
0
  6
Continuous
 62
     7
100
AcDbCircle
 10
955.0115117209
 20
233.9983325483
 30
0.0
 40
16.84999999999997
100
AcDbArc
 50
90.0
 51
128.1542765245
  0
ARC
  5
2D5
330
1F
100
AcDbEntity
  8
0
  6
Continuous
 62
     7
100
AcDbCircle
 10
942.2247998684
 20
247.8483325483
 30
0.0
 40
0.5999999999999943
100
AcDbArc
 50
270.0
 51
312.7140723808
  0
ARC
  5
2D6
330
1F
100
AcDbEntity
  8
0
  6
Continuous
 62
     7
100
AcDbCircle
 10
955.0115117209
 20
233.9983325483
 30
0.0
 40
18.25
100
AcDbArc
 50
90.0
 51
132.7140723808
  0
LINE
  5
2D7
330
1F
100
AcDbEntity
  8
0
  6
Continuous
 62
     7
100
AcDbLine
 10
955.0115117209
 20
252.2483325483
 30
0.0
 11
989.3532146195
 21
252.2483325483
 31
0.0
  0
ARC
  5
2D8
330
1F
100
AcDbEntity
  8
0
  6
Continuous
 62
     7
100
AcDbCircle
 10
989.3532146195
 20
233.9983325483
 30
0.0
 40
18.25
100
AcDbArc
 50
47.2859276192
 51
90.0
  0
ARC
  5
2D9
330
1F
100
AcDbEntity
  8
0
  6
Continuous
 62
     7
100
AcDbCircle
 10
1002.1399264721
 20
247.8483325483
 30
0.0
 40
0.6000000000001369
100
AcDbArc
 50
227.2859276192
 51
270.0
  0
ARC
  5
2DA
330
1F
100
AcDbEntity
  8
0
  6
Continuous
 62
     7
100
AcDbCircle
 10
642.2247998684
 20
247.8483325483
 30
0.0
 40
0.6000000000000597
100
AcDbArc
 50
270.0
 51
312.7140723808
  0
ARC
  5
2DB
330
1F
100
AcDbEntity
  8
0
  6
Continuous
 62
     7
100
AcDbCircle
 10
927.1399264721
 20
247.8483325483
 30
0.0
 40
0.5999999999999943
100
AcDbArc
 50
227.2859276192
 51
270.0
  0
ARC
  5
2DC
330
1F
100
AcDbEntity
  8
0
  6
Continuous
 62
     7
100
AcDbCircle
 10
805.0115117209
 20
233.9983325483
 30
0.0
 40
16.85000000000006
100
AcDbArc
 50
90.0
 51
128.1542765245
  0
ARC
  5
2DD
330
1F
100
AcDbEntity
  8
0
  6
Continuous
 62
     7
100
AcDbCircle
 10
689.3532146195
 20
233.9983325483
 30
0.0
 40
16.84999999999999
100
AcDbArc
 50
51.8457234755
 51
90.0
  0
LINE
  5
2DE
330
1F
100
AcDbEntity
  8
0
  6
Continuous
 62
     7
100
AcDbLine
 10
655.0115117209
 20
250.8483325483
 30
0.0
 11
689.3532146195
 21
250.8483325483
 31
0.0
  0
ARC
  5
2DF
330
1F
100
AcDbEntity
  8
0
  6
Continuous
 62
     7
100
AcDbCircle
 10
655.0115117209
 20
233.9983325483
 30
0.0
 40
16.84999999999997
100
AcDbArc
 50
90.0
 51
128.1542765245
  0
LINE
  5
2E0
330
1F
100
AcDbEntity
  8
0
  6
Continuous
 62
     7
100
AcDbLine
 10
655.0115117209
 20
252.2483325483
 30
0.0
 11
689.3532146195
 21
252.2483325483
 31
0.0
  0
ARC
  5
2E1
330
1F
100
AcDbEntity
  8
0
  6
Continuous
 62
     7
100
AcDbCircle
 10
702.1399264721
 20
247.8483325483
 30
0.0
 40
0.5999999999999943
100
AcDbArc
 50
227.2859276192
 51
270.0
  0
ARC
  5
2E2
330
1F
100
AcDbEntity
  8
0
  6
Continuous
 62
     7
100
AcDbCircle
 10
764.3532146195
 20
233.9983325483
 30
0.0
 40
18.25
100
AcDbArc
 50
47.2859276192
 51
90.0
  0
ARC
  5
2E3
330
1F
100
AcDbEntity
  8
0
  6
Continuous
 62
     7
100
AcDbCircle
 10
880.0115117209
 20
233.9983325483
 30
0.0
 40
18.25000000000006
100
AcDbArc
 50
90.0
 51
132.7140723808
  0
ARC
  5
2E4
330
1F
100
AcDbEntity
  8
0
  6
Continuous
 62
     7
100
AcDbCircle
 10
764.3532146195
 20
233.9983325483
 30
0.0
 40
16.85000000000006
100
AcDbArc
 50
51.8457234755
 51
90.0
  0
LINE
  5
2E5
330
1F
100
AcDbEntity
  8
0
  6
Continuous
 62
     7
100
AcDbLine
 10
730.0115117209
 20
250.8483325483
 30
0.0
 11
764.3532146195
 21
250.8483325483
 31
0.0
  0
ARC
  5
2E6
330
1F
100
AcDbEntity
  8
0
  6
Continuous
 62
     7
100
AcDbCircle
 10
730.0115117209
 20
233.9983325483
 30
0.0
 40
16.84999999999999
100
AcDbArc
 50
90.0
 51
128.1542765245
  0
ARC
  5
2E7
330
1F
100
AcDbEntity
  8
0
  6
Continuous
 62
     7
100
AcDbCircle
 10
717.2247998684
 20
247.8483325483
 30
0.0
 40
0.5999999999999943
100
AcDbArc
 50
270.0
 51
312.7140723808
  0
ARC
  5
2E8
330
1F
100
AcDbEntity
  8
0
  6
Continuous
 62
     7
100
AcDbCircle
 10
730.0115117209
 20
233.9983325483
 30
0.0
 40
18.25
100
AcDbArc
 50
90.0
 51
132.7140723808
  0
LINE
  5
2E9
330
1F
100
AcDbEntity
  8
0
  6
Continuous
 62
     7
100
AcDbLine
 10
730.0115117209
 20
252.2483325483
 30
0.0
 11
764.3532146195
 21
252.2483325483
 31
0.0
  0
LINE
  5
2EA
330
1F
100
AcDbEntity
  8
0
  6
Continuous
 62
     7
100
AcDbLine
 10
880.0115117209
 20
250.8483325483
 30
0.0
 11
914.3532146195
 21
250.8483325483
 31
0.0
  0
ARC
  5
2EB
330
1F
100
AcDbEntity
  8
0
  6
Continuous
 62
     7
100
AcDbCircle
 10
880.0115117209
 20
233.9983325483
 30
0.0
 40
16.84999999999999
100
AcDbArc
 50
90.0
 51
128.1542765245
  0
ARC
  5
2EC
330
1F
100
AcDbEntity
  8
0
  6
Continuous
 62
     7
100
AcDbCircle
 10
867.2247998684
 20
247.8483325483
 30
0.0
 40
0.5999999999999943
100
AcDbArc
 50
270.0
 51
312.7140723808
  0
LINE
  5
2ED
330
1F
100
AcDbEntity
  8
0
  6
Continuous
 62
     7
100
AcDbLine
 10
880.0115117209
 20
252.2483325483
 30
0.0
 11
914.3532146195
 21
252.2483325483
 31
0.0
  0
ARC
  5
2EE
330
1F
100
AcDbEntity
  8
0
  6
Continuous
 62
     7
100
AcDbCircle
 10
914.3532146195
 20
233.9983325483
 30
0.0
 40
18.25
100
AcDbArc
 50
47.2859276192
 51
90.0
  0
LINE
  5
2EF
330
1F
100
AcDbEntity
  8
0
  6
Continuous
 62
     7
100
AcDbLine
 10
805.0115117209
 20
250.8483325483
 30
0.0
 11
839.3532146195
 21
250.8483325483
 31
0.0
  0
ARC
  5
2F0
330
1F
100
AcDbEntity
  8
0
  6
Continuous
 62
     7
100
AcDbCircle
 10
792.2247998684
 20
247.8483325483
 30
0.0
 40
0.5999999999999943
100
AcDbArc
 50
270.0
 51
312.7140723808
  0
LINE
  5
2F1
330
1F
100
AcDbEntity
  8
0
  6
Continuous
 62
     7
100
AcDbLine
 10
805.0115117209
 20
252.2483325483
 30
0.0
 11
839.3532146195
 21
252.2483325483
 31
0.0
  0
ARC
  5
2F2
330
1F
100
AcDbEntity
  8
0
  6
Continuous
 62
     7
100
AcDbCircle
 10
839.3532146195
 20
233.9983325483
 30
0.0
 40
18.25000000000006
100
AcDbArc
 50
47.2859276192
 51
90.0
  0
ARC
  5
2F3
330
1F
100
AcDbEntity
  8
0
  6
Continuous
 62
     7
100
AcDbCircle
 10
852.1399264721
 20
247.8483325483
 30
0.0
 40
0.5999999999999943
100
AcDbArc
 50
227.2859276192
 51
270.0
  0
LINE
  5
2F4
330
1F
100
AcDbEntity
  8
0
  6
Continuous
 62
     7
100
AcDbLine
 10
1037.5248340241
 20
247.8186962834
 30
0.0
 11
1027.339461542
 21
247.8186962834
 31
0.0
  0
LINE
  5
2F5
330
1F
100
AcDbEntity
  8
0
  6
Continuous
 62
     7
100
AcDbLine
 10
1036.2577270186
 20
248.4787036744
 30
0.0
 11
1028.6066757326
 21
248.4787036744
 31
0.0
  0
LINE
  5
2F6
330
1F
100
AcDbEntity
  8
0
  6
Continuous
 62
     7
100
AcDbLine
 10
613.7684933627
 20
247.8186962834
 30
0.0
 11
606.839461542
 21
247.8186962834
 31
0.0
  0
LINE
  5
2F7
330
1F
100
AcDbEntity
  8
0
  6
Continuous
 62
     7
100
AcDbLine
 10
617.0252647985
 20
247.8186962834
 30
0.0
 11
613.7684933627
 21
247.8186962834
 31
0.0
  0
LINE
  5
2F8
330
1F
100
AcDbEntity
  8
0
  6
Continuous
 62
     7
100
AcDbLine
 10
613.3116280223
 20
248.4787036744
 30
0.0
 11
608.1066757326
 21
248.4787036744
 31
0.0
  0
LINE
  5
2F9
330
1F
100
AcDbEntity
  8
0
  6
Continuous
 62
     7
100
AcDbLine
 10
615.7580506078
 20
248.4787036744
 30
0.0
 11
613.3116280223
 21
248.4787036744
 31
0.0
  0
LINE
  5
2FA
330
1F
100
AcDbEntity
  8
0
  6
Continuous
 62
     7
100
AcDbLine
 10
989.3323631702
 20
247.2483325483
 30
0.0
 11
989.3323631702
 21
250.8483325483
 31
0.0
  0
LINE
  5
2FB
330
1F
100
AcDbEntity
  8
0
  6
Continuous
 62
     7
100
AcDbLine
 10
839.3323631702
 20
247.2483325483
 30
0.0
 11
839.3323631702
 21
250.8483325483
 31
0.0
  0
LINE
  5
2FC
330
1F
100
AcDbEntity
  8
0
  6
Continuous
 62
     7
100
AcDbLine
 10
914.3323631702
 20
247.2483325483
 30
0.0
 11
914.3323631702
 21
250.8483325483
 31
0.0
  0
LINE
  5
2FD
330
1F
100
AcDbEntity
  8
0
  6
Continuous
 62
     7
100
AcDbLine
 10
805.0323631702
 20
247.2483325483
 30
0.0
 11
805.0323631702
 21
250.8483325483
 31
0.0
  0
LINE
  5
2FE
330
1F
100
AcDbEntity
  8
0
  6
Continuous
 62
     7
100
AcDbLine
 10
955.0323631702
 20
247.2483325483
 30
0.0
 11
955.0323631702
 21
250.8483325483
 31
0.0
  0
LINE
  5
2FF
330
1F
100
AcDbEntity
  8
0
  6
Continuous
 62
     7
100
AcDbLine
 10
730.0323631702
 20
247.2483325483
 30
0.0
 11
730.0323631702
 21
250.8483325483
 31
0.0
  0
LINE
  5
300
330
1F
100
AcDbEntity
  8
0
  6
Continuous
 62
     7
100
AcDbLine
 10
689.3323631702
 20
247.2483325483
 30
0.0
 11
689.3323631702
 21
250.8483325483
 31
0.0
  0
LINE
  5
301
330
1F
100
AcDbEntity
  8
0
  6
Continuous
 62
     7
100
AcDbLine
 10
880.0323631702
 20
247.2483325483
 30
0.0
 11
880.0323631702
 21
250.8483325483
 31
0.0
  0
LINE
  5
302
330
1F
100
AcDbEntity
  8
0
  6
Continuous
 62
     7
100
AcDbLine
 10
655.0323631702
 20
247.2483325483
 30
0.0
 11
655.0323631702
 21
250.8483325483
 31
0.0
  0
LINE
  5
303
330
1F
100
AcDbEntity
  8
0
  6
Continuous
 62
     7
100
AcDbLine
 10
764.3323631702
 20
247.2483325483
 30
0.0
 11
764.3323631702
 21
250.8483325483
 31
0.0
  0
ARC
  5
304
330
1F
100
AcDbEntity
  8
0
  6
Continuous
 62
     7
100
AcDbCircle
 10
1028.0323631702
 20
44.9195470329
 30
0.0
 40
1.50000000000023
100
AcDbArc
 50
210.4423795021
 51
242.4879973761
  0
ARC
  5
305
330
1F
100
AcDbEntity
  8
0
  6
Continuous
 62
     7
100
AcDbCircle
 10
1036.8323631702
 20
44.9195470329
 30
0.0
 40
1.499999999999982
100
AcDbArc
 50
297.5120026239
 51
329.5576204979
  0
LINE
  5
306
330
1F
100
AcDbEntity
  8
0
  6
Continuous
 62
     7
100
AcDbLine
 10
1027.339461542
 20
43.5891759066
 30
0.0
 11
1028.6066757326
 21
42.9291685156
 31
0.0
  0
LINE
  5
307
330
1F
100
AcDbEntity
  8
0
  6
Continuous
 62
     7
100
AcDbLine
 10
1036.2580506078
 20
42.9291685156
 30
0.0
 11
1037.5252647985
 21
43.5891759066
 31
0.0
  0
ARC
  5
308
330
1F
100
AcDbEntity
  8
0
  6
Continuous
 62
     7
100
AcDbCircle
 10
1029.2995773609
 20
44.2595396419
 30
0.0
 40
1.50000000000008
100
AcDbArc
 50
242.4879973761
 51
270.0
  0
ARC
  5
309
330
1F
100
AcDbEntity
  8
0
  6
Continuous
 62
     7
100
AcDbCircle
 10
1035.5651489796
 20
44.2595396419
 30
0.0
 40
1.5
100
AcDbArc
 50
270.0
 51
297.5120026239
  0
LINE
  5
30A
330
1F
100
AcDbEntity
  8
0
  6
Continuous
 62
     7
100
AcDbLine
 10
1035.4323631702
 20
56.4595396419
 30
0.0
 11
1034.9323631702
 21
56.9595396419
 31
0.0
  0
LINE
  5
30B
330
1F
100
AcDbEntity
  8
0
  6
Continuous
 62
     7
100
AcDbLine
 10
1029.9323631702
 20
56.9595396419
 30
0.0
 11
1029.4323631702
 21
56.4595396419
 31
0.0
  0
LINE
  5
30C
330
1F
100
AcDbEntity
  8
0
  6
Continuous
 62
     7
100
AcDbLine
 10
1035.4323631702
 20
50.1964891354
 30
0.0
 11
1035.4323631702
 21
56.4595396419
 31
0.0
  0
LINE
  5
30D
330
1F
100
AcDbEntity
  8
0
  6
Continuous
 62
     7
100
AcDbLine
 10
1029.4323631702
 20
56.4595396419
 30
0.0
 11
1029.4323631702
 21
50.1964891354
 31
0.0
  0
ARC
  5
30E
330
1F
100
AcDbEntity
  8
0
  6
Continuous
 62
     7
100
AcDbCircle
 10
607.5323631702
 20
44.9195470329
 30
0.0
 40
1.50000000000003
100
AcDbArc
 50
210.4423795021
 51
242.4879973761
  0
ARC
  5
30F
330
1F
100
AcDbEntity
  8
0
  6
Continuous
 62
     7
100
AcDbCircle
 10
616.3323631702
 20
44.9195470329
 30
0.0
 40
1.50000000000003
100
AcDbArc
 50
297.5120026239
 51
329.5576204979
  0
LINE
  5
310
330
1F
100
AcDbEntity
  8
0
  6
Continuous
 62
     7
100
AcDbLine
 10
606.839461542
 20
43.5891759066
 30
0.0
 11
608.1066757326
 21
42.9291685156
 31
0.0
  0
LINE
  5
311
330
1F
100
AcDbEntity
  8
0
  6
Continuous
 62
     7
100
AcDbLine
 10
615.7580506078
 20
42.9291685156
 30
0.0
 11
617.0252647985
 21
43.5891759066
 31
0.0
  0
ARC
  5
312
330
1F
100
AcDbEntity
  8
0
  6
Continuous
 62
     7
100
AcDbCircle
 10
608.7995773609
 20
44.2595396419
 30
0.0
 40
1.500000000000002
100
AcDbArc
 50
242.4879973761
 51
270.0
  0
ARC
  5
313
330
1F
100
AcDbEntity
  8
0
  6
Continuous
 62
     7
100
AcDbCircle
 10
615.0651489796
 20
44.2595396419
 30
0.0
 40
1.500000000000002
100
AcDbArc
 50
270.0
 51
297.5120026239
  0
LINE
  5
314
330
1F
100
AcDbEntity
  8
0
  6
Continuous
 62
     7
100
AcDbLine
 10
614.9323631702
 20
56.4595396419
 30
0.0
 11
614.4323631702
 21
56.9595396419
 31
0.0
  0
LINE
  5
315
330
1F
100
AcDbEntity
  8
0
  6
Continuous
 62
     7
100
AcDbLine
 10
609.4323631702
 20
56.9595396419
 30
0.0
 11
608.9323631702
 21
56.4595396419
 31
0.0
  0
LINE
  5
316
330
1F
100
AcDbEntity
  8
0
  6
Continuous
 62
     7
100
AcDbLine
 10
614.9323631702
 20
50.1964891354
 30
0.0
 11
614.9323631702
 21
56.4595396419
 31
0.0
  0
LINE
  5
317
330
1F
100
AcDbEntity
  8
0
  6
Continuous
 62
     7
100
AcDbLine
 10
608.9323631702
 20
56.4595396419
 30
0.0
 11
608.9323631702
 21
50.1964891354
 31
0.0
  0
LINE
  5
318
330
1F
100
AcDbEntity
  8
0
  6
Continuous
 62
     7
100
AcDbLine
 10
1029.2995773609
 20
42.7595396419
 30
0.0
 11
1035.5648839983
 21
42.7595396419
 31
0.0
  0
LINE
  5
319
330
1F
100
AcDbEntity
  8
0
  6
Continuous
 62
     7
100
AcDbLine
 10
1029.4323631702
 20
56.4595396419
 30
0.0
 11
1035.4321094204
 21
56.4595396419
 31
0.0
  0
LINE
  5
31A
330
1F
100
AcDbEntity
  8
0
  6
Continuous
 62
     7
100
AcDbLine
 10
1029.9323631702
 20
56.9595396419
 30
0.0
 11
1034.932151712
 21
56.9595396419
 31
0.0
  0
LINE
  5
31B
330
1F
100
AcDbEntity
  8
0
  6
Continuous
 62
     7
100
AcDbLine
 10
608.7995773609
 20
42.7595396419
 30
0.0
 11
615.0651489796
 21
42.7595396419
 31
0.0
  0
LINE
  5
31C
330
1F
100
AcDbEntity
  8
0
  6
Continuous
 62
     7
100
AcDbLine
 10
608.9323631702
 20
56.4595396419
 30
0.0
 11
614.9323631702
 21
56.4595396419
 31
0.0
  0
LINE
  5
31D
330
1F
100
AcDbEntity
  8
0
  6
Continuous
 62
     7
100
AcDbLine
 10
609.4323631702
 20
56.9595396419
 30
0.0
 11
614.4323631702
 21
56.9595396419
 31
0.0
  0
LINE
  5
31E
330
1F
100
AcDbEntity
  8
0
  6
Continuous
 62
     7
100
AcDbLine
 10
1019.6823631702
 20
50.9035959166
 30
0.0
 11
1019.6823631702
 21
49.9094833669
 31
0.0
  0
LINE
  5
31F
330
1F
100
AcDbEntity
  8
0
  6
Continuous
 62
     7
100
AcDbLine
 10
624.6823631702
 20
49.9094833669
 30
0.0
 11
1019.6823631702
 21
49.9094833669
 31
0.0
  0
LINE
  5
320
330
1F
100
AcDbEntity
  8
0
  6
Continuous
 62
     7
100
AcDbLine
 10
624.6823631702
 20
50.9035959166
 30
0.0
 11
624.6823631702
 21
49.9094833669
 31
0.0
  0
LINE
  5
321
330
1F
100
AcDbEntity
  8
0
  6
Continuous
 62
     7
100
AcDbLine
 10
624.6823631702
 20
50.9035959166
 30
0.0
 11
624.6823631702
 21
63.1524328605
 31
0.0
  0
ARC
  5
322
330
1F
100
AcDbEntity
  8
0
  6
Continuous
 62
     7
100
AcDbCircle
 10
629.6823631702
 20
63.1524328605
 30
0.0
 40
5.000000000000007
100
AcDbArc
 50
90.0
 51
180.0
  0
LINE
  5
323
330
1F
100
AcDbEntity
  8
0
  6
Continuous
 62
     7
100
AcDbLine
 10
629.6823631702
 20
68.1524328605
 30
0.0
 11
1014.6823631702
 21
68.1524328605
 31
0.0
  0
ARC
  5
324
330
1F
100
AcDbEntity
  8
0
  6
Continuous
 62
     7
100
AcDbCircle
 10
1014.6823631702
 20
63.1524328605
 30
0.0
 40
5.000000000000007
100
AcDbArc
 50
0.0
 51
90.0
  0
LINE
  5
325
330
1F
100
AcDbEntity
  8
0
  6
Continuous
 62
     7
100
AcDbLine
 10
1019.6823631702
 20
50.9035959166
 30
0.0
 11
1019.6823631702
 21
63.1524328605
 31
0.0
  0
CIRCLE
  5
326
330
1F
100
AcDbEntity
  8
0
  6
Continuous
 62
     7
100
AcDbCircle
 10
1004.6823631702
 20
63.1595396417
 30
0.0
 40
2.749999999999773
  0
CIRCLE
  5
327
330
1F
100
AcDbEntity
  8
0
  6
Continuous
 62
     7
100
AcDbCircle
 10
639.6823631702
 20
63.1595396417
 30
0.0
 40
2.749999999999886
  0
LINE
  5
328
330
1F
100
AcDbEntity
  8
0
  6
Continuous
 62
     7
100
AcDbLine
 10
524.6823631702
 20
44.1595396417
 30
0.0
 11
524.6823631702
 21
49.2065396417
 31
0.0
  0
LINE
  5
329
330
1F
100
AcDbEntity
  8
0
  6
Continuous
 62
     7
100
AcDbLine
 10
624.6823631702
 20
49.2065396417
 30
0.0
 11
524.6823631702
 21
49.2065396417
 31
0.0
  0
LINE
  5
32A
330
1F
100
AcDbEntity
  8
0
  6
Continuous
 62
     7
100
AcDbLine
 10
1019.6823631702
 20
49.2065396417
 30
0.0
 11
1019.6823631702
 21
49.9094833669
 31
0.0
  0
LINE
  5
32B
330
1F
100
AcDbEntity
  8
0
  6
Continuous
 62
     7
100
AcDbLine
 10
1019.6823631702
 20
49.2065396417
 30
0.0
 11
1119.6823631702
 21
49.2065396417
 31
0.0
  0
LINE
  5
32C
330
1F
100
AcDbEntity
  8
0
  6
Continuous
 62
     7
100
AcDbLine
 10
1119.6823631702
 20
44.1595396417
 30
0.0
 11
1119.6823631702
 21
49.2065396417
 31
0.0
  0
LINE
  5
32D
330
1F
100
AcDbEntity
  8
0
  6
Continuous
 62
     7
100
AcDbLine
 10
1119.6823631702
 20
44.1595396417
 30
0.0
 11
524.6823631702
 21
44.1595396417
 31
0.0
  0
LINE
  5
32E
330
1F
100
AcDbEntity
  8
0
  6
Continuous
 62
     7
100
AcDbLine
 10
624.6823631702
 20
49.2065396417
 30
0.0
 11
624.6823631702
 21
49.9094833669
 31
0.0
  0
LINE
  5
32F
330
1F
100
AcDbEntity
  8
0
  6
Continuous
 62
     7
100
AcDbLine
 10
1019.6823631702
 20
50.1964891354
 30
0.0
 11
1118.2823631702
 21
50.1964891354
 31
0.0
  0
LINE
  5
330
330
1F
100
AcDbEntity
  8
0
  6
Continuous
 62
     7
100
AcDbLine
 10
1118.2823631702
 20
50.1964891354
 30
0.0
 11
1119.6823631702
 21
50.1964891354
 31
0.0
  0
LINE
  5
331
330
1F
100
AcDbEntity
  8
0
  6
Continuous
 62
     7
100
AcDbLine
 10
1119.6823631702
 20
49.2065396417
 30
0.0
 11
1119.6823631702
 21
50.1964891354
 31
0.0
  0
LINE
  5
332
330
1F
100
AcDbEntity
  8
0
  6
Continuous
 62
     7
100
AcDbLine
 10
524.6823631702
 20
49.2065396417
 30
0.0
 11
524.6823631702
 21
50.1964891354
 31
0.0
  0
LINE
  5
333
330
1F
100
AcDbEntity
  8
0
  6
Continuous
 62
     7
100
AcDbLine
 10
526.0823631702
 20
50.1964891354
 30
0.0
 11
524.6823631702
 21
50.1964891354
 31
0.0
  0
LINE
  5
334
330
1F
100
AcDbEntity
  8
0
  6
Continuous
 62
     7
100
AcDbLine
 10
624.6823631702
 20
50.1964891354
 30
0.0
 11
526.0823631702
 21
50.1964891354
 31
0.0
  0
LINE
  5
335
330
1F
100
AcDbEntity
  8
0
  6
Continuous
 62
     7
100
AcDbLine
 10
1118.2823631702
 20
50.1965396417
 30
0.0
 11
1118.2823631702
 21
50.1964891354
 31
0.0
  0
LINE
  5
336
330
1F
100
AcDbEntity
  8
0
  6
Continuous
 62
     7
100
AcDbLine
 10
1119.6823631702
 20
50.1965396417
 30
0.0
 11
1118.2823631702
 21
50.1965396417
 31
0.0
  0
LINE
  5
337
330
1F
100
AcDbEntity
  8
0
  6
Continuous
 62
     7
100
AcDbLine
 10
1119.6823631702
 20
50.1965396417
 30
0.0
 11
1119.6823631702
 21
50.1964891354
 31
0.0
  0
LINE
  5
338
330
1F
100
AcDbEntity
  8
0
  6
Continuous
 62
     7
100
AcDbLine
 10
524.6823631702
 20
50.1965396417
 30
0.0
 11
526.0823631702
 21
50.1965396417
 31
0.0
  0
LINE
  5
339
330
1F
100
AcDbEntity
  8
0
  6
Continuous
 62
     7
100
AcDbLine
 10
526.0823631702
 20
50.1964891354
 30
0.0
 11
526.0823631702
 21
50.1965396417
 31
0.0
  0
LINE
  5
33A
330
1F
100
AcDbEntity
  8
0
  6
Continuous
 62
     7
100
AcDbLine
 10
524.6823631702
 20
50.1964891354
 30
0.0
 11
524.6823631702
 21
50.1965396417
 31
0.0
  0
LINE
  5
33B
330
1F
100
AcDbEntity
  8
0
  6
Continuous
 62
     7
100
AcDbLine
 10
880.0323631702
 20
44.1595396417
 30
0.0
 11
880.0323631702
 21
44.0003884481
 31
0.0
  0
LINE
  5
33C
330
1F
100
AcDbEntity
  8
0
  6
Continuous
 62
     7
100
AcDbLine
 10
880.0323631702
 20
44.0003884481
 30
0.0
 11
867.6318039592
 21
44.0003884481
 31
0.0
  0
ARC
  5
33D
330
1F
100
AcDbEntity
  8
0
  6
Continuous
 62
     7
100
AcDbCircle
 10
867.2247998684
 20
43.5595396417
 30
0.0
 40
0.6000000000000014
100
AcDbArc
 50
47.2859276192
 51
90.0
  0
LINE
  5
33E
330
1F
100
AcDbEntity
  8
0
  6
Continuous
 62
     7
100
AcDbLine
 10
805.0323631702
 20
44.1595396417
 30
0.0
 11
805.0323631702
 21
44.0003884481
 31
0.0
  0
LINE
  5
33F
330
1F
100
AcDbEntity
  8
0
  6
Continuous
 62
     7
100
AcDbLine
 10
805.0323631702
 20
44.0003884481
 30
0.0
 11
792.6318039592
 21
44.0003884481
 31
0.0
  0
ARC
  5
340
330
1F
100
AcDbEntity
  8
0
  6
Continuous
 62
     7
100
AcDbCircle
 10
792.2247998684
 20
43.5595396417
 30
0.0
 40
0.6000000000000014
100
AcDbArc
 50
47.2859276192
 51
90.0
  0
LINE
  5
341
330
1F
100
AcDbEntity
  8
0
  6
Continuous
 62
     7
100
AcDbLine
 10
764.3323631702
 20
44.1595396417
 30
0.0
 11
764.3323631702
 21
44.0003884481
 31
0.0
  0
LINE
  5
342
330
1F
100
AcDbEntity
  8
0
  6
Continuous
 62
     7
100
AcDbLine
 10
764.3323631702
 20
44.0003884481
 30
0.0
 11
730.0323631702
 21
44.0003884481
 31
0.0
  0
LINE
  5
343
330
1F
100
AcDbEntity
  8
0
  6
Continuous
 62
     7
100
AcDbLine
 10
730.0323631702
 20
44.1595396417
 30
0.0
 11
730.0323631702
 21
44.0003884481
 31
0.0
  0
LINE
  5
344
330
1F
100
AcDbEntity
  8
0
  6
Continuous
 62
     7
100
AcDbLine
 10
655.0323631702
 20
44.1595396417
 30
0.0
 11
655.0323631702
 21
44.0003884481
 31
0.0
  0
LINE
  5
345
330
1F
100
AcDbEntity
  8
0
  6
Continuous
 62
     7
100
AcDbLine
 10
655.0323631702
 20
44.0003884481
 30
0.0
 11
642.6318039592
 21
44.0003884481
 31
0.0
  0
ARC
  5
346
330
1F
100
AcDbEntity
  8
0
  6
Continuous
 62
     7
100
AcDbCircle
 10
642.2247998684
 20
43.5595396417
 30
0.0
 40
0.6000000000000701
100
AcDbArc
 50
47.2859276192
 51
90.0
  0
LINE
  5
347
330
1F
100
AcDbEntity
  8
0
  6
Continuous
 62
     7
100
AcDbLine
 10
701.7329223813
 20
44.0003884481
 30
0.0
 11
689.3323631702
 21
44.0003884481
 31
0.0
  0
LINE
  5
348
330
1F
100
AcDbEntity
  8
0
  6
Continuous
 62
     7
100
AcDbLine
 10
689.3323631702
 20
44.1595396417
 30
0.0
 11
689.3323631702
 21
44.0003884481
 31
0.0
  0
ARC
  5
349
330
1F
100
AcDbEntity
  8
0
  6
Continuous
 62
     7
100
AcDbCircle
 10
702.1399264721
 20
43.5595396417
 30
0.0
 40
0.6000000000000014
100
AcDbArc
 50
90.0
 51
132.7140723808
  0
LINE
  5
34A
330
1F
100
AcDbEntity
  8
0
  6
Continuous
 62
     7
100
AcDbLine
 10
926.7329223813
 20
44.0003884481
 30
0.0
 11
914.3323631702
 21
44.0003884481
 31
0.0
  0
LINE
  5
34B
330
1F
100
AcDbEntity
  8
0
  6
Continuous
 62
     7
100
AcDbLine
 10
914.3323631702
 20
44.1595396417
 30
0.0
 11
914.3323631702
 21
44.0003884481
 31
0.0
  0
ARC
  5
34C
330
1F
100
AcDbEntity
  8
0
  6
Continuous
 62
     7
100
AcDbCircle
 10
927.1399264721
 20
43.5595396417
 30
0.0
 40
0.6000000000000014
100
AcDbArc
 50
90.0
 51
132.7140723808
  0
LINE
  5
34D
330
1F
100
AcDbEntity
  8
0
  6
Continuous
 62
     7
100
AcDbLine
 10
776.7329223813
 20
44.0003884481
 30
0.0
 11
764.3323631702
 21
44.0003884481
 31
0.0
  0
ARC
  5
34E
330
1F
100
AcDbEntity
  8
0
  6
Continuous
 62
     7
100
AcDbCircle
 10
777.1399264721
 20
43.5595396417
 30
0.0
 40
0.6000000000000597
100
AcDbArc
 50
90.0
 51
132.7140723808
  0
LINE
  5
34F
330
1F
100
AcDbEntity
  8
0
  6
Continuous
 62
     7
100
AcDbLine
 10
851.7329223813
 20
44.0003884481
 30
0.0
 11
839.3323631702
 21
44.0003884481
 31
0.0
  0
LINE
  5
350
330
1F
100
AcDbEntity
  8
0
  6
Continuous
 62
     7
100
AcDbLine
 10
839.3323631702
 20
44.1595396417
 30
0.0
 11
839.3323631702
 21
44.0003884481
 31
0.0
  0
ARC
  5
351
330
1F
100
AcDbEntity
  8
0
  6
Continuous
 62
     7
100
AcDbCircle
 10
852.1399264721
 20
43.5595396417
 30
0.0
 40
0.6000000000000014
100
AcDbArc
 50
90.0
 51
132.7140723808
  0
LINE
  5
352
330
1F
100
AcDbEntity
  8
0
  6
Continuous
 62
     7
100
AcDbLine
 10
689.3323631702
 20
44.0003884481
 30
0.0
 11
655.0323631702
 21
44.0003884481
 31
0.0
  0
LINE
  5
353
330
1F
100
AcDbEntity
  8
0
  6
Continuous
 62
     7
100
AcDbLine
 10
839.3323631702
 20
44.0003884481
 30
0.0
 11
805.0323631702
 21
44.0003884481
 31
0.0
  0
LINE
  5
354
330
1F
100
AcDbEntity
  8
0
  6
Continuous
 62
     7
100
AcDbLine
 10
955.0323631702
 20
44.1595396417
 30
0.0
 11
955.0323631702
 21
44.0003884481
 31
0.0
  0
LINE
  5
355
330
1F
100
AcDbEntity
  8
0
  6
Continuous
 62
     7
100
AcDbLine
 10
955.0323631702
 20
44.0003884481
 30
0.0
 11
942.6318039592
 21
44.0003884481
 31
0.0
  0
ARC
  5
356
330
1F
100
AcDbEntity
  8
0
  6
Continuous
 62
     7
100
AcDbCircle
 10
942.2247998684
 20
43.5595396417
 30
0.0
 40
0.6000000000000014
100
AcDbArc
 50
47.2859276192
 51
90.0
  0
LINE
  5
357
330
1F
100
AcDbEntity
  8
0
  6
Continuous
 62
     7
100
AcDbLine
 10
730.0323631702
 20
44.0003884481
 30
0.0
 11
717.6318039592
 21
44.0003884481
 31
0.0
  0
ARC
  5
358
330
1F
100
AcDbEntity
  8
0
  6
Continuous
 62
     7
100
AcDbCircle
 10
717.2247998684
 20
43.5595396417
 30
0.0
 40
0.6000000000000014
100
AcDbArc
 50
47.2859276192
 51
90.0
  0
LINE
  5
359
330
1F
100
AcDbEntity
  8
0
  6
Continuous
 62
     7
100
AcDbLine
 10
989.3323631702
 20
44.1595396417
 30
0.0
 11
989.3323631702
 21
44.0003884481
 31
0.0
  0
LINE
  5
35A
330
1F
100
AcDbEntity
  8
0
  6
Continuous
 62
     7
100
AcDbLine
 10
989.3323631702
 20
44.0003884481
 30
0.0
 11
955.0323631702
 21
44.0003884481
 31
0.0
  0
LINE
  5
35B
330
1F
100
AcDbEntity
  8
0
  6
Continuous
 62
     7
100
AcDbLine
 10
914.3323631702
 20
44.0003884481
 30
0.0
 11
880.0323631702
 21
44.0003884481
 31
0.0
  0
LINE
  5
35C
330
1F
100
AcDbEntity
  8
0
  6
Continuous
 62
     7
100
AcDbLine
 10
1001.7329223813
 20
44.0003884481
 30
0.0
 11
989.3323631702
 21
44.0003884481
 31
0.0
  0
ARC
  5
35D
330
1F
100
AcDbEntity
  8
0
  6
Continuous
 62
     7
100
AcDbCircle
 10
1002.1399264721
 20
43.5595396417
 30
0.0
 40
0.6000000000001369
100
AcDbArc
 50
90.0
 51
132.7140723808
  0
LINE
  5
35E
330
1F
100
AcDbEntity
  8
0
  6
Continuous
 62
     7
100
AcDbLine
 10
689.3323631702
 20
39.1595396417
 30
0.0
 11
655.0323631702
 21
39.1595396417
 31
0.0
  0
LINE
  5
35F
330
1F
100
AcDbEntity
  8
0
  6
Continuous
 62
     7
100
AcDbLine
 10
655.0323631702
 20
44.0003884481
 30
0.0
 11
655.0323631702
 21
39.1595396417
 31
0.0
  0
LINE
  5
360
330
1F
100
AcDbEntity
  8
0
  6
Continuous
 62
     7
100
AcDbLine
 10
689.3323631702
 20
44.0003884481
 30
0.0
 11
689.3323631702
 21
39.1595396417
 31
0.0
  0
LINE
  5
361
330
1F
100
AcDbEntity
  8
0
  6
Continuous
 62
     7
100
AcDbLine
 10
764.3532146195
 20
39.1595396417
 30
0.0
 11
764.3323631702
 21
39.1595396417
 31
0.0
  0
LINE
  5
362
330
1F
100
AcDbEntity
  8
0
  6
Continuous
 62
     7
100
AcDbLine
 10
764.3323631702
 20
44.0003884481
 30
0.0
 11
764.3323631702
 21
39.1595396417
 31
0.0
  0
ARC
  5
363
330
1F
100
AcDbEntity
  8
0
  6
Continuous
 62
     7
100
AcDbCircle
 10
764.3532146195
 20
57.4095396417
 30
0.0
 40
18.25
100
AcDbArc
 50
270.0
 51
312.7140723808
  0
LINE
  5
364
330
1F
100
AcDbEntity
  8
0
  6
Continuous
 62
     7
100
AcDbLine
 10
955.0323631702
 20
39.1595396417
 30
0.0
 11
955.0115117209
 21
39.1595396417
 31
0.0
  0
ARC
  5
365
330
1F
100
AcDbEntity
  8
0
  6
Continuous
 62
     7
100
AcDbCircle
 10
955.0115117209
 20
57.4095396417
 30
0.0
 40
18.25
100
AcDbArc
 50
227.2859276192
 51
270.0
  0
LINE
  5
366
330
1F
100
AcDbEntity
  8
0
  6
Continuous
 62
     7
100
AcDbLine
 10
955.0323631702
 20
44.0003884481
 30
0.0
 11
955.0323631702
 21
39.1595396417
 31
0.0
  0
LINE
  5
367
330
1F
100
AcDbEntity
  8
0
  6
Continuous
 62
     7
100
AcDbLine
 10
689.3532146195
 20
39.1595396417
 30
0.0
 11
689.3323631702
 21
39.1595396417
 31
0.0
  0
ARC
  5
368
330
1F
100
AcDbEntity
  8
0
  6
Continuous
 62
     7
100
AcDbCircle
 10
689.3532146195
 20
57.4095396417
 30
0.0
 40
18.25
100
AcDbArc
 50
270.0
 51
312.7140723808
  0
LINE
  5
369
330
1F
100
AcDbEntity
  8
0
  6
Continuous
 62
     7
100
AcDbLine
 10
839.3532146195
 20
39.1595396417
 30
0.0
 11
839.3323631702
 21
39.1595396417
 31
0.0
  0
LINE
  5
36A
330
1F
100
AcDbEntity
  8
0
  6
Continuous
 62
     7
100
AcDbLine
 10
839.3323631702
 20
44.0003884481
 30
0.0
 11
839.3323631702
 21
39.1595396417
 31
0.0
  0
ARC
  5
36B
330
1F
100
AcDbEntity
  8
0
  6
Continuous
 62
     7
100
AcDbCircle
 10
839.3532146195
 20
57.4095396417
 30
0.0
 40
18.25000000000007
100
AcDbArc
 50
270.0
 51
312.7140723808
  0
LINE
  5
36C
330
1F
100
AcDbEntity
  8
0
  6
Continuous
 62
     7
100
AcDbLine
 10
839.3323631702
 20
39.1595396417
 30
0.0
 11
805.0323631702
 21
39.1595396417
 31
0.0
  0
LINE
  5
36D
330
1F
100
AcDbEntity
  8
0
  6
Continuous
 62
     7
100
AcDbLine
 10
805.0323631702
 20
44.0003884481
 30
0.0
 11
805.0323631702
 21
39.1595396417
 31
0.0
  0
LINE
  5
36E
330
1F
100
AcDbEntity
  8
0
  6
Continuous
 62
     7
100
AcDbLine
 10
655.0323631702
 20
39.1595396417
 30
0.0
 11
655.0115117209
 21
39.1595396417
 31
0.0
  0
ARC
  5
36F
330
1F
100
AcDbEntity
  8
0
  6
Continuous
 62
     7
100
AcDbCircle
 10
655.0115117209
 20
57.4095396417
 30
0.0
 40
18.25
100
AcDbArc
 50
227.2859276192
 51
270.0
  0
LINE
  5
370
330
1F
100
AcDbEntity
  8
0
  6
Continuous
 62
     7
100
AcDbLine
 10
805.0323631702
 20
39.1595396417
 30
0.0
 11
805.0115117209
 21
39.1595396417
 31
0.0
  0
ARC
  5
371
330
1F
100
AcDbEntity
  8
0
  6
Continuous
 62
     7
100
AcDbCircle
 10
805.0115117209
 20
57.4095396417
 30
0.0
 40
18.25000000000006
100
AcDbArc
 50
227.2859276192
 51
270.0
  0
LINE
  5
372
330
1F
100
AcDbEntity
  8
0
  6
Continuous
 62
     7
100
AcDbLine
 10
764.3323631702
 20
39.1595396417
 30
0.0
 11
730.0323631702
 21
39.1595396417
 31
0.0
  0
LINE
  5
373
330
1F
100
AcDbEntity
  8
0
  6
Continuous
 62
     7
100
AcDbLine
 10
730.0323631702
 20
44.0003884481
 30
0.0
 11
730.0323631702
 21
39.1595396417
 31
0.0
  0
LINE
  5
374
330
1F
100
AcDbEntity
  8
0
  6
Continuous
 62
     7
100
AcDbLine
 10
730.0323631702
 20
39.1595396417
 30
0.0
 11
730.0115117209
 21
39.1595396417
 31
0.0
  0
ARC
  5
375
330
1F
100
AcDbEntity
  8
0
  6
Continuous
 62
     7
100
AcDbCircle
 10
730.0115117209
 20
57.4095396417
 30
0.0
 40
18.25
100
AcDbArc
 50
227.2859276192
 51
270.0
  0
LINE
  5
376
330
1F
100
AcDbEntity
  8
0
  6
Continuous
 62
     7
100
AcDbLine
 10
989.3323631702
 20
39.1595396417
 30
0.0
 11
955.0323631702
 21
39.1595396417
 31
0.0
  0
LINE
  5
377
330
1F
100
AcDbEntity
  8
0
  6
Continuous
 62
     7
100
AcDbLine
 10
989.3323631702
 20
44.0003884481
 30
0.0
 11
989.3323631702
 21
39.1595396417
 31
0.0
  0
LINE
  5
378
330
1F
100
AcDbEntity
  8
0
  6
Continuous
 62
     7
100
AcDbLine
 10
880.0323631702
 20
39.1595396417
 30
0.0
 11
880.0115117209
 21
39.1595396417
 31
0.0
  0
ARC
  5
379
330
1F
100
AcDbEntity
  8
0
  6
Continuous
 62
     7
100
AcDbCircle
 10
880.0115117209
 20
57.4095396417
 30
0.0
 40
18.25000000000006
100
AcDbArc
 50
227.2859276192
 51
270.0
  0
LINE
  5
37A
330
1F
100
AcDbEntity
  8
0
  6
Continuous
 62
     7
100
AcDbLine
 10
880.0323631702
 20
44.0003884481
 30
0.0
 11
880.0323631702
 21
39.1595396417
 31
0.0
  0
LINE
  5
37B
330
1F
100
AcDbEntity
  8
0
  6
Continuous
 62
     7
100
AcDbLine
 10
914.3323631702
 20
39.1595396417
 30
0.0
 11
880.0323631702
 21
39.1595396417
 31
0.0
  0
LINE
  5
37C
330
1F
100
AcDbEntity
  8
0
  6
Continuous
 62
     7
100
AcDbLine
 10
914.3323631702
 20
44.0003884481
 30
0.0
 11
914.3323631702
 21
39.1595396417
 31
0.0
  0
LINE
  5
37D
330
1F
100
AcDbEntity
  8
0
  6
Continuous
 62
     7
100
AcDbLine
 10
989.3532146195
 20
39.1595396417
 30
0.0
 11
989.3323631702
 21
39.1595396417
 31
0.0
  0
ARC
  5
37E
330
1F
100
AcDbEntity
  8
0
  6
Continuous
 62
     7
100
AcDbCircle
 10
989.3532146195
 20
57.4095396417
 30
0.0
 40
18.25
100
AcDbArc
 50
270.0
 51
312.7140723808
  0
LINE
  5
37F
330
1F
100
AcDbEntity
  8
0
  6
Continuous
 62
     7
100
AcDbLine
 10
914.3532146195
 20
39.1595396417
 30
0.0
 11
914.3323631702
 21
39.1595396417
 31
0.0
  0
ARC
  5
380
330
1F
100
AcDbEntity
  8
0
  6
Continuous
 62
     7
100
AcDbCircle
 10
914.3532146195
 20
57.4095396417
 30
0.0
 40
18.25
100
AcDbArc
 50
270.0
 51
312.7140723808
  0
LINE
  5
381
330
1F
100
AcDbEntity
  8
0
  6
Continuous
 62
     7
100
AcDbLine
 10
1027.339461542
 20
43.5891759066
 30
0.0
 11
1037.5248340241
 21
43.5891759066
 31
0.0
  0
LINE
  5
382
330
1F
100
AcDbEntity
  8
0
  6
Continuous
 62
     7
100
AcDbLine
 10
1028.6066757326
 20
42.9291685156
 30
0.0
 11
1036.2577270186
 21
42.9291685156
 31
0.0
  0
LINE
  5
383
330
1F
100
AcDbEntity
  8
0
  6
Continuous
 62
     7
100
AcDbLine
 10
606.839461542
 20
43.5891759066
 30
0.0
 11
617.0252647985
 21
43.5891759066
 31
0.0
  0
LINE
  5
384
330
1F
100
AcDbEntity
  8
0
  6
Continuous
 62
     7
100
AcDbLine
 10
608.1066757326
 20
42.9291685156
 30
0.0
 11
615.7580506078
 21
42.9291685156
 31
0.0
  0
CIRCLE
  5
385
330
1F
100
AcDbEntity
  8
0
  6
Continuous
 62
     7
100
AcDbCircle
 10
1309.1333886771
 20
143.222097392
 30
0.0
 40
3.000000000000026
  0
CIRCLE
  5
386
330
1F
100
AcDbEntity
  8
0
  6
Continuous
 62
     7
100
AcDbCircle
 10
1309.1333886771
 20
143.222097392
 30
0.0
 40
2.50000000000006
  0
CIRCLE
  5
387
330
1F
100
AcDbEntity
  8
0
  6
Continuous
 62
     7
100
AcDbCircle
 10
1729.6333886771
 20
143.222097392
 30
0.0
 40
2.999999999999964
  0
CIRCLE
  5
388
330
1F
100
AcDbEntity
  8
0
  6
Continuous
 62
     7
100
AcDbCircle
 10
1729.6333886771
 20
143.222097392
 30
0.0
 40
2.49999999999997
  0
LINE
  5
389
330
1F
100
AcDbEntity
  8
0
  6
Continuous
 62
     7
100
AcDbLine
 10
1711.8833886771
 20
190.869097392
 30
0.0
 11
1711.8833886771
 21
192.269097392
 31
0.0
  0
LINE
  5
38A
330
1F
100
AcDbEntity
  8
0
  6
Continuous
 62
     7
100
AcDbLine
 10
1326.8833886771
 20
192.269097392
 30
0.0
 11
1326.8833886771
 21
190.869097392
 31
0.0
  0
LINE
  5
38B
330
1F
100
AcDbEntity
  8
0
  6
Continuous
 62
     7
100
AcDbLine
 10
1711.8833886771
 20
190.869097392
 30
0.0
 11
1326.8833886771
 21
190.869097392
 31
0.0
  0
LINE
  5
38C
330
1F
100
AcDbEntity
  8
0
  6
Continuous
 62
     7
100
AcDbLine
 10
1711.8833886771
 20
192.269097392
 30
0.0
 11
1326.8833886771
 21
192.269097392
 31
0.0
  0
LINE
  5
38D
330
1F
100
AcDbEntity
  8
0
  6
Continuous
 62
     7
100
AcDbLine
 10
1321.8833886771
 20
190.869097392
 30
0.0
 11
1321.8833886771
 21
192.269097392
 31
0.0
  0
LINE
  5
38E
330
1F
100
AcDbEntity
  8
0
  6
Continuous
 62
     7
100
AcDbLine
 10
1326.8833886771
 20
190.869097392
 30
0.0
 11
1321.8833886771
 21
190.869097392
 31
0.0
  0
LINE
  5
38F
330
1F
100
AcDbEntity
  8
0
  6
Continuous
 62
     7
100
AcDbLine
 10
1321.8833886771
 20
192.269097392
 30
0.0
 11
1326.8833886771
 21
192.269097392
 31
0.0
  0
LINE
  5
390
330
1F
100
AcDbEntity
  8
0
  6
Continuous
 62
     7
100
AcDbLine
 10
1321.8833886771
 20
94.1632099417
 30
0.0
 11
1321.8833886771
 21
95.5632099417
 31
0.0
  0
LINE
  5
391
330
1F
100
AcDbEntity
  8
0
  6
Continuous
 62
     7
100
AcDbLine
 10
1321.8833886771
 20
95.5632099417
 30
0.0
 11
1326.8833886771
 21
95.5632099417
 31
0.0
  0
LINE
  5
392
330
1F
100
AcDbEntity
  8
0
  6
Continuous
 62
     7
100
AcDbLine
 10
1326.8833886771
 20
95.5632099417
 30
0.0
 11
1326.8833886771
 21
94.1632099417
 31
0.0
  0
LINE
  5
393
330
1F
100
AcDbEntity
  8
0
  6
Continuous
 62
     7
100
AcDbLine
 10
1326.8833886771
 20
94.1632099417
 30
0.0
 11
1321.8833886771
 21
94.1632099417
 31
0.0
  0
LINE
  5
394
330
1F
100
AcDbEntity
  8
0
  6
Continuous
 62
     7
100
AcDbLine
 10
1711.8833886771
 20
94.1632099417
 30
0.0
 11
1711.8833886771
 21
95.5632099417
 31
0.0
  0
LINE
  5
395
330
1F
100
AcDbEntity
  8
0
  6
Continuous
 62
     7
100
AcDbLine
 10
1326.8833886771
 20
94.1632099417
 30
0.0
 11
1711.8833886771
 21
94.1632099417
 31
0.0
  0
LINE
  5
396
330
1F
100
AcDbEntity
  8
0
  6
Continuous
 62
     7
100
AcDbLine
 10
1326.8833886771
 20
95.5632099417
 30
0.0
 11
1711.8833886771
 21
95.5632099417
 31
0.0
  0
LINE
  5
397
330
1F
100
AcDbEntity
  8
0
  6
Continuous
 62
     7
100
AcDbLine
 10
1716.8833886771
 20
192.269097392
 30
0.0
 11
1716.8833886771
 21
190.869097392
 31
0.0
  0
LINE
  5
398
330
1F
100
AcDbEntity
  8
0
  6
Continuous
 62
     7
100
AcDbLine
 10
1716.8833886771
 20
190.869097392
 30
0.0
 11
1711.8833886771
 21
190.869097392
 31
0.0
  0
LINE
  5
399
330
1F
100
AcDbEntity
  8
0
  6
Continuous
 62
     7
100
AcDbLine
 10
1711.8833886771
 20
192.269097392
 30
0.0
 11
1716.8833886771
 21
192.269097392
 31
0.0
  0
LINE
  5
39A
330
1F
100
AcDbEntity
  8
0
  6
Continuous
 62
     7
100
AcDbLine
 10
1716.8833886771
 20
95.5632099417
 30
0.0
 11
1716.8833886771
 21
94.1632099417
 31
0.0
  0
LINE
  5
39B
330
1F
100
AcDbEntity
  8
0
  6
Continuous
 62
     7
100
AcDbLine
 10
1716.8833886771
 20
94.1632099417
 30
0.0
 11
1711.8833886771
 21
94.1632099417
 31
0.0
  0
LINE
  5
39C
330
1F
100
AcDbEntity
  8
0
  6
Continuous
 62
     7
100
AcDbLine
 10
1711.8833886771
 20
95.5632099417
 30
0.0
 11
1716.8833886771
 21
95.5632099417
 31
0.0
  0
LINE
  5
39D
330
1F
100
AcDbEntity
  8
0
  6
Continuous
 62
     7
100
AcDbLine
 10
1716.8833886771
 20
190.5762041732
 30
0.0
 11
1815.4833886771
 21
190.5762041732
 31
0.0
  0
LINE
  5
39E
330
1F
100
AcDbEntity
  8
0
  6
Continuous
 62
     7
100
AcDbLine
 10
1815.4833886771
 20
185.9392546795
 30
0.0
 11
1223.2833886771
 21
185.9392546795
 31
0.0
  0
LINE
  5
39F
330
1F
100
AcDbEntity
  8
0
  6
Continuous
 62
     7
100
AcDbLine
 10
1321.8833886771
 20
190.5762041732
 30
0.0
 11
1223.2833886771
 21
190.5762041732
 31
0.0
  0
LINE
  5
3A0
330
1F
100
AcDbEntity
  8
0
  6
Continuous
 62
     7
100
AcDbLine
 10
1716.8833886771
 20
190.5762041732
 30
0.0
 11
1716.8833886771
 21
190.869097392
 31
0.0
  0
LINE
  5
3A1
330
1F
100
AcDbEntity
  8
0
  6
Continuous
 62
     7
100
AcDbLine
 10
1321.8833886771
 20
190.5762041732
 30
0.0
 11
1321.8833886771
 21
190.869097392
 31
0.0
  0
LINE
  5
3A2
330
1F
100
AcDbEntity
  8
0
  6
Continuous
 62
     7
100
AcDbLine
 10
1815.4833886771
 20
100.4930526541
 30
0.0
 11
1223.2833886771
 21
100.4930526541
 31
0.0
  0
LINE
  5
3A3
330
1F
100
AcDbEntity
  8
0
  6
Continuous
 62
     7
100
AcDbLine
 10
1716.8833886771
 20
95.8561031605
 30
0.0
 11
1815.4833886771
 21
95.8561031605
 31
0.0
  0
LINE
  5
3A4
330
1F
100
AcDbEntity
  8
0
  6
Continuous
 62
     7
100
AcDbLine
 10
1321.8833886771
 20
95.8561031605
 30
0.0
 11
1223.2833886771
 21
95.8561031605
 31
0.0
  0
LINE
  5
3A5
330
1F
100
AcDbEntity
  8
0
  6
Continuous
 62
     7
100
AcDbLine
 10
1716.8833886771
 20
95.8561031605
 30
0.0
 11
1716.8833886771
 21
95.5632099417
 31
0.0
  0
LINE
  5
3A6
330
1F
100
AcDbEntity
  8
0
  6
Continuous
 62
     7
100
AcDbLine
 10
1321.8833886771
 20
95.8561031605
 30
0.0
 11
1321.8833886771
 21
95.5632099417
 31
0.0
  0
LINE
  5
3A7
330
1F
100
AcDbEntity
  8
0
  6
Continuous
 62
     7
100
AcDbLine
 10
1221.8833886771
 20
96.0201014274
 30
0.0
 11
1223.2833886771
 21
96.0201014274
 31
0.0
  0
LINE
  5
3A8
330
1F
100
AcDbEntity
  8
0
  6
Continuous
 62
     7
100
AcDbLine
 10
1221.8833886771
 20
190.4122059063
 30
0.0
 11
1221.8833886771
 21
96.0201014274
 31
0.0
  0
LINE
  5
3A9
330
1F
100
AcDbEntity
  8
0
  6
Continuous
 62
     7
100
AcDbLine
 10
1221.8833886771
 20
190.4122059063
 30
0.0
 11
1223.2833886771
 21
190.4122059063
 31
0.0
  0
LINE
  5
3AA
330
1F
100
AcDbEntity
  8
0
  6
Continuous
 62
     7
100
AcDbLine
 10
1223.2833886771
 20
190.4122059063
 30
0.0
 11
1223.2833886771
 21
96.0201014274
 31
0.0
  0
LINE
  5
3AB
330
1F
100
AcDbEntity
  8
0
  6
Continuous
 62
     7
100
AcDbLine
 10
1221.8833886771
 20
95.8561031605
 30
0.0
 11
1221.8833886771
 21
96.0201014274
 31
0.0
  0
LINE
  5
3AC
330
1F
100
AcDbEntity
  8
0
  6
Continuous
 62
     7
100
AcDbLine
 10
1223.2833886771
 20
95.8561031605
 30
0.0
 11
1223.2833886771
 21
96.0201014274
 31
0.0
  0
LINE
  5
3AD
330
1F
100
AcDbEntity
  8
0
  6
Continuous
 62
     7
100
AcDbLine
 10
1223.2833886771
 20
95.8561031605
 30
0.0
 11
1221.8833886771
 21
95.8561031605
 31
0.0
  0
LINE
  5
3AE
330
1F
100
AcDbEntity
  8
0
  6
Continuous
 62
     7
100
AcDbLine
 10
1223.2833886771
 20
190.5762041732
 30
0.0
 11
1221.8833886771
 21
190.5762041732
 31
0.0
  0
LINE
  5
3AF
330
1F
100
AcDbEntity
  8
0
  6
Continuous
 62
     7
100
AcDbLine
 10
1221.8833886771
 20
190.4122059063
 30
0.0
 11
1221.8833886771
 21
190.5762041732
 31
0.0
  0
LINE
  5
3B0
330
1F
100
AcDbEntity
  8
0
  6
Continuous
 62
     7
100
AcDbLine
 10
1223.2833886771
 20
190.4122059063
 30
0.0
 11
1223.2833886771
 21
190.5762041732
 31
0.0
  0
LINE
  5
3B1
330
1F
100
AcDbEntity
  8
0
  6
Continuous
 62
     7
100
AcDbLine
 10
1816.8833886771
 20
190.4122059063
 30
0.0
 11
1815.4833886771
 21
190.4122059063
 31
0.0
  0
LINE
  5
3B2
330
1F
100
AcDbEntity
  8
0
  6
Continuous
 62
     7
100
AcDbLine
 10
1816.8833886771
 20
190.4122059063
 30
0.0
 11
1816.8833886771
 21
96.0201014274
 31
0.0
  0
LINE
  5
3B3
330
1F
100
AcDbEntity
  8
0
  6
Continuous
 62
     7
100
AcDbLine
 10
1816.8833886771
 20
96.0201014274
 30
0.0
 11
1815.4833886771
 21
96.0201014274
 31
0.0
  0
LINE
  5
3B4
330
1F
100
AcDbEntity
  8
0
  6
Continuous
 62
     7
100
AcDbLine
 10
1815.4833886771
 20
190.4122059063
 30
0.0
 11
1815.4833886771
 21
96.0201014274
 31
0.0
  0
LINE
  5
3B5
330
1F
100
AcDbEntity
  8
0
  6
Continuous
 62
     7
100
AcDbLine
 10
1816.8833886771
 20
190.5762041732
 30
0.0
 11
1816.8833886771
 21
190.4122059063
 31
0.0
  0
LINE
  5
3B6
330
1F
100
AcDbEntity
  8
0
  6
Continuous
 62
     7
100
AcDbLine
 10
1815.4833886771
 20
190.5762041732
 30
0.0
 11
1815.4833886771
 21
190.4122059063
 31
0.0
  0
LINE
  5
3B7
330
1F
100
AcDbEntity
  8
0
  6
Continuous
 62
     7
100
AcDbLine
 10
1815.4833886771
 20
190.5762041732
 30
0.0
 11
1816.8833886771
 21
190.5762041732
 31
0.0
  0
LINE
  5
3B8
330
1F
100
AcDbEntity
  8
0
  6
Continuous
 62
     7
100
AcDbLine
 10
1815.4833886771
 20
95.8561031605
 30
0.0
 11
1816.8833886771
 21
95.8561031605
 31
0.0
  0
LINE
  5
3B9
330
1F
100
AcDbEntity
  8
0
  6
Continuous
 62
     7
100
AcDbLine
 10
1816.8833886771
 20
96.0201014274
 30
0.0
 11
1816.8833886771
 21
95.8561031605
 31
0.0
  0
LINE
  5
3BA
330
1F
100
AcDbEntity
  8
0
  6
Continuous
 62
     7
100
AcDbLine
 10
1815.4833886771
 20
96.0201014274
 30
0.0
 11
1815.4833886771
 21
95.8561031605
 31
0.0
  0
LINE
  5
3BB
330
1F
100
AcDbEntity
  8
0
  6
Continuous
 62
     7
100
AcDbLine
 10
1321.8833886771
 20
191.5661536668
 30
0.0
 11
1221.8833886771
 21
191.5661536668
 31
0.0
  0
LINE
  5
3BC
330
1F
100
AcDbEntity
  8
0
  6
Continuous
 62
     7
100
AcDbLine
 10
1221.8833886771
 20
191.5661536668
 30
0.0
 11
1221.8833886771
 21
190.5762041732
 31
0.0
  0
LINE
  5
3BD
330
1F
100
AcDbEntity
  8
0
  6
Continuous
 62
     7
100
AcDbLine
 10
1321.8833886771
 20
94.8661536668
 30
0.0
 11
1221.8833886771
 21
94.8661536668
 31
0.0
  0
LINE
  5
3BE
330
1F
100
AcDbEntity
  8
0
  6
Continuous
 62
     7
100
AcDbLine
 10
1221.8833886771
 20
95.8561031605
 30
0.0
 11
1221.8833886771
 21
94.8661536668
 31
0.0
  0
LINE
  5
3BF
330
1F
100
AcDbEntity
  8
0
  6
Continuous
 62
     7
100
AcDbLine
 10
1716.8833886771
 20
191.5661536668
 30
0.0
 11
1816.8833886771
 21
191.5661536668
 31
0.0
  0
LINE
  5
3C0
330
1F
100
AcDbEntity
  8
0
  6
Continuous
 62
     7
100
AcDbLine
 10
1816.8833886771
 20
191.5661536668
 30
0.0
 11
1816.8833886771
 21
190.5762041732
 31
0.0
  0
LINE
  5
3C1
330
1F
100
AcDbEntity
  8
0
  6
Continuous
 62
     7
100
AcDbLine
 10
1716.8833886771
 20
94.8661536668
 30
0.0
 11
1816.8833886771
 21
94.8661536668
 31
0.0
  0
LINE
  5
3C2
330
1F
100
AcDbEntity
  8
0
  6
Continuous
 62
     7
100
AcDbLine
 10
1816.8833886771
 20
95.8561031605
 30
0.0
 11
1816.8833886771
 21
94.8661536668
 31
0.0
  0
CIRCLE
  5
3C3
330
1F
100
AcDbEntity
  8
0
  6
Continuous
 62
     7
100
AcDbCircle
 10
1309.1333886771
 20
143.222097392
 30
0.0
 40
8.415685424949231
  0
CIRCLE
  5
3C4
330
1F
100
AcDbEntity
  8
0
  6
Continuous
 62
     7
100
AcDbCircle
 10
1309.1333886771
 20
143.222097392
 30
0.0
 40
7.001471862576125
  0
CIRCLE
  5
3C5
330
1F
100
AcDbEntity
  8
0
  6
Continuous
 62
     7
100
AcDbCircle
 10
1309.1333886771
 20
143.222097392
 30
0.0
 40
4.0
  0
CIRCLE
  5
3C6
330
1F
100
AcDbEntity
  8
0
  6
Continuous
 62
     7
100
AcDbCircle
 10
1729.6333886771
 20
143.222097392
 30
0.0
 40
8.415685424949231
  0
CIRCLE
  5
3C7
330
1F
100
AcDbEntity
  8
0
  6
Continuous
 62
     7
100
AcDbCircle
 10
1729.6333886771
 20
143.222097392
 30
0.0
 40
7.001471862576125
  0
CIRCLE
  5
3C8
330
1F
100
AcDbEntity
  8
0
  6
Continuous
 62
     7
100
AcDbCircle
 10
1729.6333886771
 20
143.222097392
 30
0.0
 40
4.0
  0
CIRCLE
  5
3C9
330
1F
100
AcDbEntity
  8
0
  6
Continuous
 62
     7
100
AcDbCircle
 10
1309.1333886771
 20
143.222097392
 30
0.0
 40
10.90269119345811
  0
CIRCLE
  5
3CA
330
1F
100
AcDbEntity
  8
0
  6
Continuous
 62
     7
100
AcDbCircle
 10
1729.6333886771
 20
143.222097392
 30
0.0
 40
10.90269119345811
  0
CIRCLE
  5
3CB
330
1F
100
AcDbEntity
  8
0
  6
Continuous
 62
     7
100
AcDbCircle
 10
1309.1333886771
 20
143.222097392
 30
0.0
 40
12.17548339959387
  0
CIRCLE
  5
3CC
330
1F
100
AcDbEntity
  8
0
  6
Continuous
 62
     7
100
AcDbCircle
 10
1729.6333886771
 20
143.222097392
 30
0.0
 40
12.17548339959387
  0
ARC
  5
3CD
330
1F
100
AcDbEntity
  8
0
  6
Continuous
 62
     7
100
AcDbCircle
 10
1536.5333886771
 20
163.769097392
 30
0.0
 40
12.80756330183351
100
AcDbArc
 50
0.0
 51
90.0
  0
LINE
  5
3CE
330
1F
100
AcDbEntity
  8
0
  6
Continuous
 62
     7
100
AcDbLine
 10
1536.5333886771
 20
176.5766606938
 30
0.0
 11
1502.2333886771
 21
176.5766606938
 31
0.0
  0
ARC
  5
3CF
330
1F
100
AcDbEntity
  8
0
  6
Continuous
 62
     7
100
AcDbCircle
 10
1502.2333886771
 20
163.769097392
 30
0.0
 40
12.80756330183351
100
AcDbArc
 50
90.0
 51
180.0
  0
LINE
  5
3D0
330
1F
100
AcDbEntity
  8
0
  6
Continuous
 62
     7
100
AcDbLine
 10
1549.3409519789
 20
163.769097392
 30
0.0
 11
1489.4258253753
 21
163.769097392
 31
0.0
  0
ARC
  5
3D1
330
1F
100
AcDbEntity
  8
0
  6
Continuous
 62
     7
100
AcDbCircle
 10
1536.5333886771
 20
145.769097392
 30
0.0
 40
12.80756330183345
100
AcDbArc
 50
0.0
 51
90.0
  0
LINE
  5
3D2
330
1F
100
AcDbEntity
  8
0
  6
Continuous
 62
     7
100
AcDbLine
 10
1536.5333886771
 20
158.5766606938
 30
0.0
 11
1502.2333886771
 21
158.5766606938
 31
0.0
  0
ARC
  5
3D3
330
1F
100
AcDbEntity
  8
0
  6
Continuous
 62
     7
100
AcDbCircle
 10
1502.2333886771
 20
145.769097392
 30
0.0
 40
12.80756330183345
100
AcDbArc
 50
90.0
 51
180.0
  0
LINE
  5
3D4
330
1F
100
AcDbEntity
  8
0
  6
Continuous
 62
     7
100
AcDbLine
 10
1549.3409519789
 20
145.769097392
 30
0.0
 11
1489.4258253753
 21
145.769097392
 31
0.0
  0
ARC
  5
3D5
330
1F
100
AcDbEntity
  8
0
  6
Continuous
 62
     7
100
AcDbCircle
 10
1536.5333886771
 20
127.769097392
 30
0.0
 40
12.80756330183348
100
AcDbArc
 50
0.0
 51
90.0
  0
LINE
  5
3D6
330
1F
100
AcDbEntity
  8
0
  6
Continuous
 62
     7
100
AcDbLine
 10
1536.5333886771
 20
140.5766606938
 30
0.0
 11
1502.2333886771
 21
140.5766606938
 31
0.0
  0
ARC
  5
3D7
330
1F
100
AcDbEntity
  8
0
  6
Continuous
 62
     7
100
AcDbCircle
 10
1502.2333886771
 20
127.769097392
 30
0.0
 40
12.80756330183348
100
AcDbArc
 50
90.0
 51
180.0
  0
LINE
  5
3D8
330
1F
100
AcDbEntity
  8
0
  6
Continuous
 62
     7
100
AcDbLine
 10
1549.3409519789
 20
127.769097392
 30
0.0
 11
1489.4258253753
 21
127.769097392
 31
0.0
  0
ARC
  5
3D9
330
1F
100
AcDbEntity
  8
0
  6
Continuous
 62
     7
100
AcDbCircle
 10
1536.5333886771
 20
109.769097392
 30
0.0
 40
12.8075633018335
100
AcDbArc
 50
0.0
 51
90.0
  0
LINE
  5
3DA
330
1F
100
AcDbEntity
  8
0
  6
Continuous
 62
     7
100
AcDbLine
 10
1536.5333886771
 20
122.5766606938
 30
0.0
 11
1502.2333886771
 21
122.5766606938
 31
0.0
  0
ARC
  5
3DB
330
1F
100
AcDbEntity
  8
0
  6
Continuous
 62
     7
100
AcDbCircle
 10
1502.2333886771
 20
109.769097392
 30
0.0
 40
12.8075633018335
100
AcDbArc
 50
90.0
 51
180.0
  0
LINE
  5
3DC
330
1F
100
AcDbEntity
  8
0
  6
Continuous
 62
     7
100
AcDbLine
 10
1549.3409519789
 20
109.769097392
 30
0.0
 11
1489.4258253753
 21
109.769097392
 31
0.0
  0
ARC
  5
3DD
330
1F
100
AcDbEntity
  8
0
  6
Continuous
 62
     7
100
AcDbCircle
 10
1611.5333886771
 20
163.769097392
 30
0.0
 40
12.80756330183351
100
AcDbArc
 50
0.0
 51
90.0
  0
LINE
  5
3DE
330
1F
100
AcDbEntity
  8
0
  6
Continuous
 62
     7
100
AcDbLine
 10
1611.5333886771
 20
176.5766606938
 30
0.0
 11
1577.2333886771
 21
176.5766606938
 31
0.0
  0
ARC
  5
3DF
330
1F
100
AcDbEntity
  8
0
  6
Continuous
 62
     7
100
AcDbCircle
 10
1577.2333886771
 20
163.769097392
 30
0.0
 40
12.80756330183351
100
AcDbArc
 50
90.0
 51
180.0
  0
LINE
  5
3E0
330
1F
100
AcDbEntity
  8
0
  6
Continuous
 62
     7
100
AcDbLine
 10
1624.3409519789
 20
163.769097392
 30
0.0
 11
1564.4258253753
 21
163.769097392
 31
0.0
  0
ARC
  5
3E1
330
1F
100
AcDbEntity
  8
0
  6
Continuous
 62
     7
100
AcDbCircle
 10
1686.5333886771
 20
163.769097392
 30
0.0
 40
12.80756330183351
100
AcDbArc
 50
0.0
 51
90.0
  0
LINE
  5
3E2
330
1F
100
AcDbEntity
  8
0
  6
Continuous
 62
     7
100
AcDbLine
 10
1686.5333886771
 20
176.5766606938
 30
0.0
 11
1652.2333886771
 21
176.5766606938
 31
0.0
  0
ARC
  5
3E3
330
1F
100
AcDbEntity
  8
0
  6
Continuous
 62
     7
100
AcDbCircle
 10
1652.2333886771
 20
163.769097392
 30
0.0
 40
12.80756330183351
100
AcDbArc
 50
90.0
 51
180.0
  0
LINE
  5
3E4
330
1F
100
AcDbEntity
  8
0
  6
Continuous
 62
     7
100
AcDbLine
 10
1699.3409519789
 20
163.769097392
 30
0.0
 11
1639.4258253753
 21
163.769097392
 31
0.0
  0
ARC
  5
3E5
330
1F
100
AcDbEntity
  8
0
  6
Continuous
 62
     7
100
AcDbCircle
 10
1461.5333886771
 20
163.769097392
 30
0.0
 40
12.80756330183351
100
AcDbArc
 50
0.0
 51
90.0
  0
LINE
  5
3E6
330
1F
100
AcDbEntity
  8
0
  6
Continuous
 62
     7
100
AcDbLine
 10
1461.5333886771
 20
176.5766606938
 30
0.0
 11
1427.2333886771
 21
176.5766606938
 31
0.0
  0
ARC
  5
3E7
330
1F
100
AcDbEntity
  8
0
  6
Continuous
 62
     7
100
AcDbCircle
 10
1427.2333886771
 20
163.769097392
 30
0.0
 40
12.80756330183362
100
AcDbArc
 50
90.0
 51
180.0
  0
LINE
  5
3E8
330
1F
100
AcDbEntity
  8
0
  6
Continuous
 62
     7
100
AcDbLine
 10
1474.3409519789
 20
163.769097392
 30
0.0
 11
1414.4258253753
 21
163.769097392
 31
0.0
  0
ARC
  5
3E9
330
1F
100
AcDbEntity
  8
0
  6
Continuous
 62
     7
100
AcDbCircle
 10
1386.5333886771
 20
163.769097392
 30
0.0
 40
12.80756330183362
100
AcDbArc
 50
0.0
 51
90.0
  0
LINE
  5
3EA
330
1F
100
AcDbEntity
  8
0
  6
Continuous
 62
     7
100
AcDbLine
 10
1386.5333886771
 20
176.5766606938
 30
0.0
 11
1352.2333886771
 21
176.5766606938
 31
0.0
  0
ARC
  5
3EB
330
1F
100
AcDbEntity
  8
0
  6
Continuous
 62
     7
100
AcDbCircle
 10
1352.2333886771
 20
163.769097392
 30
0.0
 40
12.80756330183351
100
AcDbArc
 50
90.0
 51
180.0
  0
LINE
  5
3EC
330
1F
100
AcDbEntity
  8
0
  6
Continuous
 62
     7
100
AcDbLine
 10
1399.3409519789
 20
163.769097392
 30
0.0
 11
1339.4258253753
 21
163.769097392
 31
0.0
  0
ARC
  5
3ED
330
1F
100
AcDbEntity
  8
0
  6
Continuous
 62
     7
100
AcDbCircle
 10
1611.5333886771
 20
145.769097392
 30
0.0
 40
12.80756330183345
100
AcDbArc
 50
0.0
 51
90.0
  0
LINE
  5
3EE
330
1F
100
AcDbEntity
  8
0
  6
Continuous
 62
     7
100
AcDbLine
 10
1611.5333886771
 20
158.5766606938
 30
0.0
 11
1577.2333886771
 21
158.5766606938
 31
0.0
  0
ARC
  5
3EF
330
1F
100
AcDbEntity
  8
0
  6
Continuous
 62
     7
100
AcDbCircle
 10
1577.2333886771
 20
145.769097392
 30
0.0
 40
12.80756330183345
100
AcDbArc
 50
90.0
 51
180.0
  0
LINE
  5
3F0
330
1F
100
AcDbEntity
  8
0
  6
Continuous
 62
     7
100
AcDbLine
 10
1624.3409519789
 20
145.769097392
 30
0.0
 11
1564.4258253753
 21
145.769097392
 31
0.0
  0
ARC
  5
3F1
330
1F
100
AcDbEntity
  8
0
  6
Continuous
 62
     7
100
AcDbCircle
 10
1611.5333886771
 20
127.769097392
 30
0.0
 40
12.80756330183348
100
AcDbArc
 50
0.0
 51
90.0
  0
LINE
  5
3F2
330
1F
100
AcDbEntity
  8
0
  6
Continuous
 62
     7
100
AcDbLine
 10
1611.5333886771
 20
140.5766606938
 30
0.0
 11
1577.2333886771
 21
140.5766606938
 31
0.0
  0
ARC
  5
3F3
330
1F
100
AcDbEntity
  8
0
  6
Continuous
 62
     7
100
AcDbCircle
 10
1577.2333886771
 20
127.769097392
 30
0.0
 40
12.80756330183348
100
AcDbArc
 50
90.0
 51
180.0
  0
LINE
  5
3F4
330
1F
100
AcDbEntity
  8
0
  6
Continuous
 62
     7
100
AcDbLine
 10
1624.3409519789
 20
127.769097392
 30
0.0
 11
1564.4258253753
 21
127.769097392
 31
0.0
  0
ARC
  5
3F5
330
1F
100
AcDbEntity
  8
0
  6
Continuous
 62
     7
100
AcDbCircle
 10
1611.5333886771
 20
109.769097392
 30
0.0
 40
12.8075633018335
100
AcDbArc
 50
0.0
 51
90.0
  0
LINE
  5
3F6
330
1F
100
AcDbEntity
  8
0
  6
Continuous
 62
     7
100
AcDbLine
 10
1611.5333886771
 20
122.5766606938
 30
0.0
 11
1577.2333886771
 21
122.5766606938
 31
0.0
  0
ARC
  5
3F7
330
1F
100
AcDbEntity
  8
0
  6
Continuous
 62
     7
100
AcDbCircle
 10
1577.2333886771
 20
109.769097392
 30
0.0
 40
12.8075633018335
100
AcDbArc
 50
90.0
 51
180.0
  0
LINE
  5
3F8
330
1F
100
AcDbEntity
  8
0
  6
Continuous
 62
     7
100
AcDbLine
 10
1624.3409519789
 20
109.769097392
 30
0.0
 11
1564.4258253753
 21
109.769097392
 31
0.0
  0
ARC
  5
3F9
330
1F
100
AcDbEntity
  8
0
  6
Continuous
 62
     7
100
AcDbCircle
 10
1686.5333886771
 20
145.769097392
 30
0.0
 40
12.80756330183345
100
AcDbArc
 50
0.0
 51
90.0
  0
LINE
  5
3FA
330
1F
100
AcDbEntity
  8
0
  6
Continuous
 62
     7
100
AcDbLine
 10
1686.5333886771
 20
158.5766606938
 30
0.0
 11
1652.2333886771
 21
158.5766606938
 31
0.0
  0
ARC
  5
3FB
330
1F
100
AcDbEntity
  8
0
  6
Continuous
 62
     7
100
AcDbCircle
 10
1652.2333886771
 20
145.769097392
 30
0.0
 40
12.80756330183345
100
AcDbArc
 50
90.0
 51
180.0
  0
LINE
  5
3FC
330
1F
100
AcDbEntity
  8
0
  6
Continuous
 62
     7
100
AcDbLine
 10
1699.3409519789
 20
145.769097392
 30
0.0
 11
1639.4258253753
 21
145.769097392
 31
0.0
  0
ARC
  5
3FD
330
1F
100
AcDbEntity
  8
0
  6
Continuous
 62
     7
100
AcDbCircle
 10
1686.5333886771
 20
127.769097392
 30
0.0
 40
12.80756330183348
100
AcDbArc
 50
0.0
 51
90.0
  0
LINE
  5
3FE
330
1F
100
AcDbEntity
  8
0
  6
Continuous
 62
     7
100
AcDbLine
 10
1686.5333886771
 20
140.5766606938
 30
0.0
 11
1652.2333886771
 21
140.5766606938
 31
0.0
  0
ARC
  5
3FF
330
1F
100
AcDbEntity
  8
0
  6
Continuous
 62
     7
100
AcDbCircle
 10
1652.2333886771
 20
127.769097392
 30
0.0
 40
12.80756330183348
100
AcDbArc
 50
90.0
 51
180.0
  0
LINE
  5
400
330
1F
100
AcDbEntity
  8
0
  6
Continuous
 62
     7
100
AcDbLine
 10
1699.3409519789
 20
127.769097392
 30
0.0
 11
1639.4258253753
 21
127.769097392
 31
0.0
  0
ARC
  5
401
330
1F
100
AcDbEntity
  8
0
  6
Continuous
 62
     7
100
AcDbCircle
 10
1686.5333886771
 20
109.769097392
 30
0.0
 40
12.8075633018335
100
AcDbArc
 50
0.0
 51
90.0
  0
LINE
  5
402
330
1F
100
AcDbEntity
  8
0
  6
Continuous
 62
     7
100
AcDbLine
 10
1686.5333886771
 20
122.5766606938
 30
0.0
 11
1652.2333886771
 21
122.5766606938
 31
0.0
  0
ARC
  5
403
330
1F
100
AcDbEntity
  8
0
  6
Continuous
 62
     7
100
AcDbCircle
 10
1652.2333886771
 20
109.769097392
 30
0.0
 40
12.8075633018335
100
AcDbArc
 50
90.0
 51
180.0
  0
LINE
  5
404
330
1F
100
AcDbEntity
  8
0
  6
Continuous
 62
     7
100
AcDbLine
 10
1699.3409519789
 20
109.769097392
 30
0.0
 11
1639.4258253753
 21
109.769097392
 31
0.0
  0
ARC
  5
405
330
1F
100
AcDbEntity
  8
0
  6
Continuous
 62
     7
100
AcDbCircle
 10
1461.5333886771
 20
145.769097392
 30
0.0
 40
12.80756330183345
100
AcDbArc
 50
0.0
 51
90.0
  0
LINE
  5
406
330
1F
100
AcDbEntity
  8
0
  6
Continuous
 62
     7
100
AcDbLine
 10
1461.5333886771
 20
158.5766606938
 30
0.0
 11
1427.2333886771
 21
158.5766606938
 31
0.0
  0
ARC
  5
407
330
1F
100
AcDbEntity
  8
0
  6
Continuous
 62
     7
100
AcDbCircle
 10
1427.2333886771
 20
145.769097392
 30
0.0
 40
12.80756330183362
100
AcDbArc
 50
90.0
 51
180.0
  0
LINE
  5
408
330
1F
100
AcDbEntity
  8
0
  6
Continuous
 62
     7
100
AcDbLine
 10
1474.3409519789
 20
145.769097392
 30
0.0
 11
1414.4258253753
 21
145.769097392
 31
0.0
  0
ARC
  5
409
330
1F
100
AcDbEntity
  8
0
  6
Continuous
 62
     7
100
AcDbCircle
 10
1461.5333886771
 20
127.769097392
 30
0.0
 40
12.80756330183348
100
AcDbArc
 50
0.0
 51
90.0
  0
LINE
  5
40A
330
1F
100
AcDbEntity
  8
0
  6
Continuous
 62
     7
100
AcDbLine
 10
1461.5333886771
 20
140.5766606938
 30
0.0
 11
1427.2333886771
 21
140.5766606938
 31
0.0
  0
ARC
  5
40B
330
1F
100
AcDbEntity
  8
0
  6
Continuous
 62
     7
100
AcDbCircle
 10
1427.2333886771
 20
127.769097392
 30
0.0
 40
12.80756330183362
100
AcDbArc
 50
90.0
 51
180.0
  0
LINE
  5
40C
330
1F
100
AcDbEntity
  8
0
  6
Continuous
 62
     7
100
AcDbLine
 10
1474.3409519789
 20
127.769097392
 30
0.0
 11
1414.4258253753
 21
127.769097392
 31
0.0
  0
ARC
  5
40D
330
1F
100
AcDbEntity
  8
0
  6
Continuous
 62
     7
100
AcDbCircle
 10
1461.5333886771
 20
109.769097392
 30
0.0
 40
12.8075633018335
100
AcDbArc
 50
0.0
 51
90.0
  0
LINE
  5
40E
330
1F
100
AcDbEntity
  8
0
  6
Continuous
 62
     7
100
AcDbLine
 10
1461.5333886771
 20
122.5766606938
 30
0.0
 11
1427.2333886771
 21
122.5766606938
 31
0.0
  0
ARC
  5
40F
330
1F
100
AcDbEntity
  8
0
  6
Continuous
 62
     7
100
AcDbCircle
 10
1427.2333886771
 20
109.769097392
 30
0.0
 40
12.80756330183362
100
AcDbArc
 50
90.0
 51
180.0
  0
LINE
  5
410
330
1F
100
AcDbEntity
  8
0
  6
Continuous
 62
     7
100
AcDbLine
 10
1474.3409519789
 20
109.769097392
 30
0.0
 11
1414.4258253753
 21
109.769097392
 31
0.0
  0
ARC
  5
411
330
1F
100
AcDbEntity
  8
0
  6
Continuous
 62
     7
100
AcDbCircle
 10
1386.5333886771
 20
145.769097392
 30
0.0
 40
12.80756330183362
100
AcDbArc
 50
0.0
 51
90.0
  0
LINE
  5
412
330
1F
100
AcDbEntity
  8
0
  6
Continuous
 62
     7
100
AcDbLine
 10
1386.5333886771
 20
158.5766606938
 30
0.0
 11
1352.2333886771
 21
158.5766606938
 31
0.0
  0
ARC
  5
413
330
1F
100
AcDbEntity
  8
0
  6
Continuous
 62
     7
100
AcDbCircle
 10
1352.2333886771
 20
145.769097392
 30
0.0
 40
12.80756330183345
100
AcDbArc
 50
90.0
 51
180.0
  0
LINE
  5
414
330
1F
100
AcDbEntity
  8
0
  6
Continuous
 62
     7
100
AcDbLine
 10
1399.3409519789
 20
145.769097392
 30
0.0
 11
1339.4258253753
 21
145.769097392
 31
0.0
  0
ARC
  5
415
330
1F
100
AcDbEntity
  8
0
  6
Continuous
 62
     7
100
AcDbCircle
 10
1386.5333886771
 20
127.769097392
 30
0.0
 40
12.80756330183362
100
AcDbArc
 50
0.0
 51
90.0
  0
LINE
  5
416
330
1F
100
AcDbEntity
  8
0
  6
Continuous
 62
     7
100
AcDbLine
 10
1386.5333886771
 20
140.5766606938
 30
0.0
 11
1352.2333886771
 21
140.5766606938
 31
0.0
  0
ARC
  5
417
330
1F
100
AcDbEntity
  8
0
  6
Continuous
 62
     7
100
AcDbCircle
 10
1352.2333886771
 20
127.769097392
 30
0.0
 40
12.80756330183348
100
AcDbArc
 50
90.0
 51
180.0
  0
LINE
  5
418
330
1F
100
AcDbEntity
  8
0
  6
Continuous
 62
     7
100
AcDbLine
 10
1399.3409519789
 20
127.769097392
 30
0.0
 11
1339.4258253753
 21
127.769097392
 31
0.0
  0
ARC
  5
419
330
1F
100
AcDbEntity
  8
0
  6
Continuous
 62
     7
100
AcDbCircle
 10
1386.5333886771
 20
109.769097392
 30
0.0
 40
12.80756330183362
100
AcDbArc
 50
0.0
 51
90.0
  0
LINE
  5
41A
330
1F
100
AcDbEntity
  8
0
  6
Continuous
 62
     7
100
AcDbLine
 10
1386.5333886771
 20
122.5766606938
 30
0.0
 11
1352.2333886771
 21
122.5766606938
 31
0.0
  0
ARC
  5
41B
330
1F
100
AcDbEntity
  8
0
  6
Continuous
 62
     7
100
AcDbCircle
 10
1352.2333886771
 20
109.769097392
 30
0.0
 40
12.8075633018335
100
AcDbArc
 50
90.0
 51
180.0
  0
LINE
  5
41C
330
1F
100
AcDbEntity
  8
0
  6
Continuous
 62
     7
100
AcDbLine
 10
1399.3409519789
 20
109.769097392
 30
0.0
 11
1339.4258253753
 21
109.769097392
 31
0.0
  0
LINE
  5
41D
330
1F
100
AcDbEntity
  8
0
  6
Continuous
 62
     7
100
AcDbLine
 10
1352.2333886771
 20
176.5766606938
 30
0.0
 11
1352.2333886771
 21
175.2199803911
 31
0.0
  0
ARC
  5
41E
330
1F
100
AcDbEntity
  8
0
  6
Continuous
 62
     7
100
AcDbCircle
 10
1352.2333886771
 20
163.769097392
 30
0.0
 40
11.45088299917629
100
AcDbArc
 50
90.0
 51
180.0
  0
LINE
  5
41F
330
1F
100
AcDbEntity
  8
0
  6
Continuous
 62
     7
100
AcDbLine
 10
1352.2333886771
 20
158.5766606938
 30
0.0
 11
1352.2333886771
 21
157.2199803911
 31
0.0
  0
ARC
  5
420
330
1F
100
AcDbEntity
  8
0
  6
Continuous
 62
     7
100
AcDbCircle
 10
1352.2333886771
 20
145.769097392
 30
0.0
 40
11.45088299917623
100
AcDbArc
 50
90.0
 51
180.0
  0
LINE
  5
421
330
1F
100
AcDbEntity
  8
0
  6
Continuous
 62
     7
100
AcDbLine
 10
1352.2333886771
 20
175.2199803911
 30
0.0
 11
1386.5333886771
 21
175.2199803911
 31
0.0
  0
LINE
  5
422
330
1F
100
AcDbEntity
  8
0
  6
Continuous
 62
     7
100
AcDbLine
 10
1386.5333886771
 20
176.5766606938
 30
0.0
 11
1386.5333886771
 21
175.2199803911
 31
0.0
  0
LINE
  5
423
330
1F
100
AcDbEntity
  8
0
  6
Continuous
 62
     7
100
AcDbLine
 10
1352.2333886771
 20
140.5766606938
 30
0.0
 11
1352.2333886771
 21
139.2199803911
 31
0.0
  0
ARC
  5
424
330
1F
100
AcDbEntity
  8
0
  6
Continuous
 62
     7
100
AcDbCircle
 10
1352.2333886771
 20
127.769097392
 30
0.0
 40
11.45088299917623
100
AcDbArc
 50
90.0
 51
180.0
  0
LINE
  5
425
330
1F
100
AcDbEntity
  8
0
  6
Continuous
 62
     7
100
AcDbLine
 10
1352.2333886771
 20
157.2199803911
 30
0.0
 11
1386.5333886771
 21
157.2199803911
 31
0.0
  0
LINE
  5
426
330
1F
100
AcDbEntity
  8
0
  6
Continuous
 62
     7
100
AcDbLine
 10
1386.5333886771
 20
158.5766606938
 30
0.0
 11
1386.5333886771
 21
157.2199803911
 31
0.0
  0
LINE
  5
427
330
1F
100
AcDbEntity
  8
0
  6
Continuous
 62
     7
100
AcDbLine
 10
1352.2333886771
 20
122.5766606938
 30
0.0
 11
1352.2333886771
 21
121.2199803911
 31
0.0
  0
ARC
  5
428
330
1F
100
AcDbEntity
  8
0
  6
Continuous
 62
     7
100
AcDbCircle
 10
1352.2333886771
 20
109.769097392
 30
0.0
 40
11.45088299917627
100
AcDbArc
 50
90.0
 51
180.0
  0
LINE
  5
429
330
1F
100
AcDbEntity
  8
0
  6
Continuous
 62
     7
100
AcDbLine
 10
1352.2333886771
 20
139.2199803911
 30
0.0
 11
1386.5333886771
 21
139.2199803911
 31
0.0
  0
LINE
  5
42A
330
1F
100
AcDbEntity
  8
0
  6
Continuous
 62
     7
100
AcDbLine
 10
1386.5333886771
 20
140.5766606938
 30
0.0
 11
1386.5333886771
 21
139.2199803911
 31
0.0
  0
LINE
  5
42B
330
1F
100
AcDbEntity
  8
0
  6
Continuous
 62
     7
100
AcDbLine
 10
1352.2333886771
 20
121.2199803911
 30
0.0
 11
1386.5333886771
 21
121.2199803911
 31
0.0
  0
LINE
  5
42C
330
1F
100
AcDbEntity
  8
0
  6
Continuous
 62
     7
100
AcDbLine
 10
1386.5333886771
 20
122.5766606938
 30
0.0
 11
1386.5333886771
 21
121.2199803911
 31
0.0
  0
ARC
  5
42D
330
1F
100
AcDbEntity
  8
0
  6
Continuous
 62
     7
100
AcDbCircle
 10
1386.5333886771
 20
163.769097392
 30
0.0
 40
11.45088299917643
100
AcDbArc
 50
0.0
 51
90.0
  0
ARC
  5
42E
330
1F
100
AcDbEntity
  8
0
  6
Continuous
 62
     7
100
AcDbCircle
 10
1386.5333886771
 20
145.769097392
 30
0.0
 40
11.45088299917643
100
AcDbArc
 50
0.0
 51
90.0
  0
ARC
  5
42F
330
1F
100
AcDbEntity
  8
0
  6
Continuous
 62
     7
100
AcDbCircle
 10
1386.5333886771
 20
127.769097392
 30
0.0
 40
11.45088299917643
100
AcDbArc
 50
0.0
 51
90.0
  0
ARC
  5
430
330
1F
100
AcDbEntity
  8
0
  6
Continuous
 62
     7
100
AcDbCircle
 10
1386.5333886771
 20
109.769097392
 30
0.0
 40
11.45088299917643
100
AcDbArc
 50
0.0
 51
90.0
  0
LINE
  5
431
330
1F
100
AcDbEntity
  8
0
  6
Continuous
 62
     7
100
AcDbLine
 10
1427.2333886771
 20
176.5766606938
 30
0.0
 11
1427.2333886771
 21
175.2199803911
 31
0.0
  0
ARC
  5
432
330
1F
100
AcDbEntity
  8
0
  6
Continuous
 62
     7
100
AcDbCircle
 10
1427.2333886771
 20
163.769097392
 30
0.0
 40
11.45088299917643
100
AcDbArc
 50
90.0
 51
180.0
  0
LINE
  5
433
330
1F
100
AcDbEntity
  8
0
  6
Continuous
 62
     7
100
AcDbLine
 10
1427.2333886771
 20
158.5766606938
 30
0.0
 11
1427.2333886771
 21
157.2199803911
 31
0.0
  0
ARC
  5
434
330
1F
100
AcDbEntity
  8
0
  6
Continuous
 62
     7
100
AcDbCircle
 10
1427.2333886771
 20
145.769097392
 30
0.0
 40
11.45088299917643
100
AcDbArc
 50
90.0
 51
180.0
  0
LINE
  5
435
330
1F
100
AcDbEntity
  8
0
  6
Continuous
 62
     7
100
AcDbLine
 10
1427.2333886771
 20
175.2199803911
 30
0.0
 11
1461.5333886771
 21
175.2199803911
 31
0.0
  0
LINE
  5
436
330
1F
100
AcDbEntity
  8
0
  6
Continuous
 62
     7
100
AcDbLine
 10
1461.5333886771
 20
176.5766606938
 30
0.0
 11
1461.5333886771
 21
175.2199803911
 31
0.0
  0
LINE
  5
437
330
1F
100
AcDbEntity
  8
0
  6
Continuous
 62
     7
100
AcDbLine
 10
1427.2333886771
 20
140.5766606938
 30
0.0
 11
1427.2333886771
 21
139.2199803911
 31
0.0
  0
ARC
  5
438
330
1F
100
AcDbEntity
  8
0
  6
Continuous
 62
     7
100
AcDbCircle
 10
1427.2333886771
 20
127.769097392
 30
0.0
 40
11.45088299917643
100
AcDbArc
 50
90.0
 51
180.0
  0
LINE
  5
439
330
1F
100
AcDbEntity
  8
0
  6
Continuous
 62
     7
100
AcDbLine
 10
1427.2333886771
 20
157.2199803911
 30
0.0
 11
1461.5333886771
 21
157.2199803911
 31
0.0
  0
LINE
  5
43A
330
1F
100
AcDbEntity
  8
0
  6
Continuous
 62
     7
100
AcDbLine
 10
1461.5333886771
 20
158.5766606938
 30
0.0
 11
1461.5333886771
 21
157.2199803911
 31
0.0
  0
LINE
  5
43B
330
1F
100
AcDbEntity
  8
0
  6
Continuous
 62
     7
100
AcDbLine
 10
1427.2333886771
 20
122.5766606938
 30
0.0
 11
1427.2333886771
 21
121.2199803911
 31
0.0
  0
ARC
  5
43C
330
1F
100
AcDbEntity
  8
0
  6
Continuous
 62
     7
100
AcDbCircle
 10
1427.2333886771
 20
109.769097392
 30
0.0
 40
11.45088299917643
100
AcDbArc
 50
90.0
 51
180.0
  0
LINE
  5
43D
330
1F
100
AcDbEntity
  8
0
  6
Continuous
 62
     7
100
AcDbLine
 10
1427.2333886771
 20
139.2199803911
 30
0.0
 11
1461.5333886771
 21
139.2199803911
 31
0.0
  0
LINE
  5
43E
330
1F
100
AcDbEntity
  8
0
  6
Continuous
 62
     7
100
AcDbLine
 10
1461.5333886771
 20
140.5766606938
 30
0.0
 11
1461.5333886771
 21
139.2199803911
 31
0.0
  0
LINE
  5
43F
330
1F
100
AcDbEntity
  8
0
  6
Continuous
 62
     7
100
AcDbLine
 10
1427.2333886771
 20
121.2199803911
 30
0.0
 11
1461.5333886771
 21
121.2199803911
 31
0.0
  0
LINE
  5
440
330
1F
100
AcDbEntity
  8
0
  6
Continuous
 62
     7
100
AcDbLine
 10
1461.5333886771
 20
122.5766606938
 30
0.0
 11
1461.5333886771
 21
121.2199803911
 31
0.0
  0
ARC
  5
441
330
1F
100
AcDbEntity
  8
0
  6
Continuous
 62
     7
100
AcDbCircle
 10
1461.5333886771
 20
163.769097392
 30
0.0
 40
11.45088299917629
100
AcDbArc
 50
0.0
 51
90.0
  0
ARC
  5
442
330
1F
100
AcDbEntity
  8
0
  6
Continuous
 62
     7
100
AcDbCircle
 10
1461.5333886771
 20
145.769097392
 30
0.0
 40
11.45088299917623
100
AcDbArc
 50
0.0
 51
90.0
  0
ARC
  5
443
330
1F
100
AcDbEntity
  8
0
  6
Continuous
 62
     7
100
AcDbCircle
 10
1461.5333886771
 20
127.769097392
 30
0.0
 40
11.45088299917623
100
AcDbArc
 50
0.0
 51
90.0
  0
ARC
  5
444
330
1F
100
AcDbEntity
  8
0
  6
Continuous
 62
     7
100
AcDbCircle
 10
1461.5333886771
 20
109.769097392
 30
0.0
 40
11.45088299917627
100
AcDbArc
 50
0.0
 51
90.0
  0
LINE
  5
445
330
1F
100
AcDbEntity
  8
0
  6
Continuous
 62
     7
100
AcDbLine
 10
1502.2333886771
 20
176.5766606938
 30
0.0
 11
1502.2333886771
 21
175.2199803911
 31
0.0
  0
ARC
  5
446
330
1F
100
AcDbEntity
  8
0
  6
Continuous
 62
     7
100
AcDbCircle
 10
1502.2333886771
 20
163.769097392
 30
0.0
 40
11.45088299917629
100
AcDbArc
 50
90.0
 51
180.0
  0
LINE
  5
447
330
1F
100
AcDbEntity
  8
0
  6
Continuous
 62
     7
100
AcDbLine
 10
1502.2333886771
 20
158.5766606938
 30
0.0
 11
1502.2333886771
 21
157.2199803911
 31
0.0
  0
ARC
  5
448
330
1F
100
AcDbEntity
  8
0
  6
Continuous
 62
     7
100
AcDbCircle
 10
1502.2333886771
 20
145.769097392
 30
0.0
 40
11.45088299917623
100
AcDbArc
 50
90.0
 51
180.0
  0
LINE
  5
449
330
1F
100
AcDbEntity
  8
0
  6
Continuous
 62
     7
100
AcDbLine
 10
1502.2333886771
 20
175.2199803911
 30
0.0
 11
1536.5333886771
 21
175.2199803911
 31
0.0
  0
LINE
  5
44A
330
1F
100
AcDbEntity
  8
0
  6
Continuous
 62
     7
100
AcDbLine
 10
1536.5333886771
 20
176.5766606938
 30
0.0
 11
1536.5333886771
 21
175.2199803911
 31
0.0
  0
LINE
  5
44B
330
1F
100
AcDbEntity
  8
0
  6
Continuous
 62
     7
100
AcDbLine
 10
1502.2333886771
 20
140.5766606938
 30
0.0
 11
1502.2333886771
 21
139.2199803911
 31
0.0
  0
ARC
  5
44C
330
1F
100
AcDbEntity
  8
0
  6
Continuous
 62
     7
100
AcDbCircle
 10
1502.2333886771
 20
127.769097392
 30
0.0
 40
11.45088299917623
100
AcDbArc
 50
90.0
 51
180.0
  0
LINE
  5
44D
330
1F
100
AcDbEntity
  8
0
  6
Continuous
 62
     7
100
AcDbLine
 10
1502.2333886771
 20
157.2199803911
 30
0.0
 11
1536.5333886771
 21
157.2199803911
 31
0.0
  0
LINE
  5
44E
330
1F
100
AcDbEntity
  8
0
  6
Continuous
 62
     7
100
AcDbLine
 10
1536.5333886771
 20
158.5766606938
 30
0.0
 11
1536.5333886771
 21
157.2199803911
 31
0.0
  0
LINE
  5
44F
330
1F
100
AcDbEntity
  8
0
  6
Continuous
 62
     7
100
AcDbLine
 10
1502.2333886771
 20
122.5766606938
 30
0.0
 11
1502.2333886771
 21
121.2199803911
 31
0.0
  0
ARC
  5
450
330
1F
100
AcDbEntity
  8
0
  6
Continuous
 62
     7
100
AcDbCircle
 10
1502.2333886771
 20
109.769097392
 30
0.0
 40
11.45088299917627
100
AcDbArc
 50
90.0
 51
180.0
  0
LINE
  5
451
330
1F
100
AcDbEntity
  8
0
  6
Continuous
 62
     7
100
AcDbLine
 10
1502.2333886771
 20
139.2199803911
 30
0.0
 11
1536.5333886771
 21
139.2199803911
 31
0.0
  0
LINE
  5
452
330
1F
100
AcDbEntity
  8
0
  6
Continuous
 62
     7
100
AcDbLine
 10
1536.5333886771
 20
140.5766606938
 30
0.0
 11
1536.5333886771
 21
139.2199803911
 31
0.0
  0
LINE
  5
453
330
1F
100
AcDbEntity
  8
0
  6
Continuous
 62
     7
100
AcDbLine
 10
1502.2333886771
 20
121.2199803911
 30
0.0
 11
1536.5333886771
 21
121.2199803911
 31
0.0
  0
LINE
  5
454
330
1F
100
AcDbEntity
  8
0
  6
Continuous
 62
     7
100
AcDbLine
 10
1536.5333886771
 20
122.5766606938
 30
0.0
 11
1536.5333886771
 21
121.2199803911
 31
0.0
  0
ARC
  5
455
330
1F
100
AcDbEntity
  8
0
  6
Continuous
 62
     7
100
AcDbCircle
 10
1536.5333886771
 20
163.769097392
 30
0.0
 40
11.45088299917629
100
AcDbArc
 50
0.0
 51
90.0
  0
ARC
  5
456
330
1F
100
AcDbEntity
  8
0
  6
Continuous
 62
     7
100
AcDbCircle
 10
1536.5333886771
 20
145.769097392
 30
0.0
 40
11.45088299917623
100
AcDbArc
 50
0.0
 51
90.0
  0
ARC
  5
457
330
1F
100
AcDbEntity
  8
0
  6
Continuous
 62
     7
100
AcDbCircle
 10
1536.5333886771
 20
127.769097392
 30
0.0
 40
11.45088299917623
100
AcDbArc
 50
0.0
 51
90.0
  0
ARC
  5
458
330
1F
100
AcDbEntity
  8
0
  6
Continuous
 62
     7
100
AcDbCircle
 10
1536.5333886771
 20
109.769097392
 30
0.0
 40
11.45088299917627
100
AcDbArc
 50
0.0
 51
90.0
  0
LINE
  5
459
330
1F
100
AcDbEntity
  8
0
  6
Continuous
 62
     7
100
AcDbLine
 10
1577.2333886771
 20
176.5766606938
 30
0.0
 11
1577.2333886771
 21
175.2199803911
 31
0.0
  0
ARC
  5
45A
330
1F
100
AcDbEntity
  8
0
  6
Continuous
 62
     7
100
AcDbCircle
 10
1577.2333886771
 20
163.769097392
 30
0.0
 40
11.45088299917629
100
AcDbArc
 50
90.0
 51
180.0
  0
LINE
  5
45B
330
1F
100
AcDbEntity
  8
0
  6
Continuous
 62
     7
100
AcDbLine
 10
1577.2333886771
 20
158.5766606938
 30
0.0
 11
1577.2333886771
 21
157.2199803911
 31
0.0
  0
ARC
  5
45C
330
1F
100
AcDbEntity
  8
0
  6
Continuous
 62
     7
100
AcDbCircle
 10
1577.2333886771
 20
145.769097392
 30
0.0
 40
11.45088299917623
100
AcDbArc
 50
90.0
 51
180.0
  0
LINE
  5
45D
330
1F
100
AcDbEntity
  8
0
  6
Continuous
 62
     7
100
AcDbLine
 10
1577.2333886771
 20
175.2199803911
 30
0.0
 11
1611.5333886771
 21
175.2199803911
 31
0.0
  0
LINE
  5
45E
330
1F
100
AcDbEntity
  8
0
  6
Continuous
 62
     7
100
AcDbLine
 10
1611.5333886771
 20
176.5766606938
 30
0.0
 11
1611.5333886771
 21
175.2199803911
 31
0.0
  0
LINE
  5
45F
330
1F
100
AcDbEntity
  8
0
  6
Continuous
 62
     7
100
AcDbLine
 10
1577.2333886771
 20
140.5766606938
 30
0.0
 11
1577.2333886771
 21
139.2199803911
 31
0.0
  0
ARC
  5
460
330
1F
100
AcDbEntity
  8
0
  6
Continuous
 62
     7
100
AcDbCircle
 10
1577.2333886771
 20
127.769097392
 30
0.0
 40
11.45088299917623
100
AcDbArc
 50
90.0
 51
180.0
  0
LINE
  5
461
330
1F
100
AcDbEntity
  8
0
  6
Continuous
 62
     7
100
AcDbLine
 10
1577.2333886771
 20
157.2199803911
 30
0.0
 11
1611.5333886771
 21
157.2199803911
 31
0.0
  0
LINE
  5
462
330
1F
100
AcDbEntity
  8
0
  6
Continuous
 62
     7
100
AcDbLine
 10
1611.5333886771
 20
158.5766606938
 30
0.0
 11
1611.5333886771
 21
157.2199803911
 31
0.0
  0
LINE
  5
463
330
1F
100
AcDbEntity
  8
0
  6
Continuous
 62
     7
100
AcDbLine
 10
1577.2333886771
 20
122.5766606938
 30
0.0
 11
1577.2333886771
 21
121.2199803911
 31
0.0
  0
ARC
  5
464
330
1F
100
AcDbEntity
  8
0
  6
Continuous
 62
     7
100
AcDbCircle
 10
1577.2333886771
 20
109.769097392
 30
0.0
 40
11.45088299917627
100
AcDbArc
 50
90.0
 51
180.0
  0
LINE
  5
465
330
1F
100
AcDbEntity
  8
0
  6
Continuous
 62
     7
100
AcDbLine
 10
1577.2333886771
 20
139.2199803911
 30
0.0
 11
1611.5333886771
 21
139.2199803911
 31
0.0
  0
LINE
  5
466
330
1F
100
AcDbEntity
  8
0
  6
Continuous
 62
     7
100
AcDbLine
 10
1611.5333886771
 20
140.5766606938
 30
0.0
 11
1611.5333886771
 21
139.2199803911
 31
0.0
  0
LINE
  5
467
330
1F
100
AcDbEntity
  8
0
  6
Continuous
 62
     7
100
AcDbLine
 10
1577.2333886771
 20
121.2199803911
 30
0.0
 11
1611.5333886771
 21
121.2199803911
 31
0.0
  0
LINE
  5
468
330
1F
100
AcDbEntity
  8
0
  6
Continuous
 62
     7
100
AcDbLine
 10
1611.5333886771
 20
122.5766606938
 30
0.0
 11
1611.5333886771
 21
121.2199803911
 31
0.0
  0
ARC
  5
469
330
1F
100
AcDbEntity
  8
0
  6
Continuous
 62
     7
100
AcDbCircle
 10
1611.5333886771
 20
163.769097392
 30
0.0
 40
11.45088299917629
100
AcDbArc
 50
0.0
 51
90.0
  0
ARC
  5
46A
330
1F
100
AcDbEntity
  8
0
  6
Continuous
 62
     7
100
AcDbCircle
 10
1611.5333886771
 20
145.769097392
 30
0.0
 40
11.45088299917623
100
AcDbArc
 50
0.0
 51
90.0
  0
ARC
  5
46B
330
1F
100
AcDbEntity
  8
0
  6
Continuous
 62
     7
100
AcDbCircle
 10
1611.5333886771
 20
127.769097392
 30
0.0
 40
11.45088299917623
100
AcDbArc
 50
0.0
 51
90.0
  0
ARC
  5
46C
330
1F
100
AcDbEntity
  8
0
  6
Continuous
 62
     7
100
AcDbCircle
 10
1611.5333886771
 20
109.769097392
 30
0.0
 40
11.45088299917627
100
AcDbArc
 50
0.0
 51
90.0
  0
LINE
  5
46D
330
1F
100
AcDbEntity
  8
0
  6
Continuous
 62
     7
100
AcDbLine
 10
1652.2333886771
 20
176.5766606938
 30
0.0
 11
1652.2333886771
 21
175.2199803911
 31
0.0
  0
ARC
  5
46E
330
1F
100
AcDbEntity
  8
0
  6
Continuous
 62
     7
100
AcDbCircle
 10
1652.2333886771
 20
163.769097392
 30
0.0
 40
11.45088299917629
100
AcDbArc
 50
90.0
 51
180.0
  0
LINE
  5
46F
330
1F
100
AcDbEntity
  8
0
  6
Continuous
 62
     7
100
AcDbLine
 10
1652.2333886771
 20
158.5766606938
 30
0.0
 11
1652.2333886771
 21
157.2199803911
 31
0.0
  0
ARC
  5
470
330
1F
100
AcDbEntity
  8
0
  6
Continuous
 62
     7
100
AcDbCircle
 10
1652.2333886771
 20
145.769097392
 30
0.0
 40
11.45088299917623
100
AcDbArc
 50
90.0
 51
180.0
  0
LINE
  5
471
330
1F
100
AcDbEntity
  8
0
  6
Continuous
 62
     7
100
AcDbLine
 10
1652.2333886771
 20
175.2199803911
 30
0.0
 11
1686.5333886771
 21
175.2199803911
 31
0.0
  0
LINE
  5
472
330
1F
100
AcDbEntity
  8
0
  6
Continuous
 62
     7
100
AcDbLine
 10
1686.5333886771
 20
176.5766606938
 30
0.0
 11
1686.5333886771
 21
175.2199803911
 31
0.0
  0
LINE
  5
473
330
1F
100
AcDbEntity
  8
0
  6
Continuous
 62
     7
100
AcDbLine
 10
1652.2333886771
 20
140.5766606938
 30
0.0
 11
1652.2333886771
 21
139.2199803911
 31
0.0
  0
ARC
  5
474
330
1F
100
AcDbEntity
  8
0
  6
Continuous
 62
     7
100
AcDbCircle
 10
1652.2333886771
 20
127.769097392
 30
0.0
 40
11.45088299917623
100
AcDbArc
 50
90.0
 51
180.0
  0
LINE
  5
475
330
1F
100
AcDbEntity
  8
0
  6
Continuous
 62
     7
100
AcDbLine
 10
1652.2333886771
 20
157.2199803911
 30
0.0
 11
1686.5333886771
 21
157.2199803911
 31
0.0
  0
LINE
  5
476
330
1F
100
AcDbEntity
  8
0
  6
Continuous
 62
     7
100
AcDbLine
 10
1686.5333886771
 20
158.5766606938
 30
0.0
 11
1686.5333886771
 21
157.2199803911
 31
0.0
  0
LINE
  5
477
330
1F
100
AcDbEntity
  8
0
  6
Continuous
 62
     7
100
AcDbLine
 10
1652.2333886771
 20
122.5766606938
 30
0.0
 11
1652.2333886771
 21
121.2199803911
 31
0.0
  0
ARC
  5
478
330
1F
100
AcDbEntity
  8
0
  6
Continuous
 62
     7
100
AcDbCircle
 10
1652.2333886771
 20
109.769097392
 30
0.0
 40
11.45088299917627
100
AcDbArc
 50
90.0
 51
180.0
  0
LINE
  5
479
330
1F
100
AcDbEntity
  8
0
  6
Continuous
 62
     7
100
AcDbLine
 10
1652.2333886771
 20
139.2199803911
 30
0.0
 11
1686.5333886771
 21
139.2199803911
 31
0.0
  0
LINE
  5
47A
330
1F
100
AcDbEntity
  8
0
  6
Continuous
 62
     7
100
AcDbLine
 10
1686.5333886771
 20
140.5766606938
 30
0.0
 11
1686.5333886771
 21
139.2199803911
 31
0.0
  0
LINE
  5
47B
330
1F
100
AcDbEntity
  8
0
  6
Continuous
 62
     7
100
AcDbLine
 10
1652.2333886771
 20
121.2199803911
 30
0.0
 11
1686.5333886771
 21
121.2199803911
 31
0.0
  0
LINE
  5
47C
330
1F
100
AcDbEntity
  8
0
  6
Continuous
 62
     7
100
AcDbLine
 10
1686.5333886771
 20
122.5766606938
 30
0.0
 11
1686.5333886771
 21
121.2199803911
 31
0.0
  0
ARC
  5
47D
330
1F
100
AcDbEntity
  8
0
  6
Continuous
 62
     7
100
AcDbCircle
 10
1686.5333886771
 20
163.769097392
 30
0.0
 40
11.45088299917629
100
AcDbArc
 50
0.0
 51
90.0
  0
ARC
  5
47E
330
1F
100
AcDbEntity
  8
0
  6
Continuous
 62
     7
100
AcDbCircle
 10
1686.5333886771
 20
145.769097392
 30
0.0
 40
11.45088299917623
100
AcDbArc
 50
0.0
 51
90.0
  0
ARC
  5
47F
330
1F
100
AcDbEntity
  8
0
  6
Continuous
 62
     7
100
AcDbCircle
 10
1686.5333886771
 20
127.769097392
 30
0.0
 40
11.45088299917623
100
AcDbArc
 50
0.0
 51
90.0
  0
ARC
  5
480
330
1F
100
AcDbEntity
  8
0
  6
Continuous
 62
     7
100
AcDbCircle
 10
1686.5333886771
 20
109.769097392
 30
0.0
 40
11.45088299917627
100
AcDbArc
 50
0.0
 51
90.0
  0
LINE
  5
481
330
1F
100
AcDbEntity
  8
0
  6
Continuous
 62
     7
100
AcDbLine
 10
1352.2333886771
 20
175.2199803911
 30
0.0
 11
1352.2333886771
 21
163.7899488413
 31
0.0
  0
ARC
  5
482
330
1F
100
AcDbEntity
  8
0
  6
Continuous
 62
     7
100
AcDbCircle
 10
1352.2333886771
 20
163.769097392
 30
0.0
 40
0.0208514492890686
100
AcDbArc
 50
90.0
 51
180.0
  0
LINE
  5
483
330
1F
100
AcDbEntity
  8
0
  6
Continuous
 62
     7
100
AcDbLine
 10
1352.2333886771
 20
157.2199803911
 30
0.0
 11
1352.2333886771
 21
145.7899488413
 31
0.0
  0
ARC
  5
484
330
1F
100
AcDbEntity
  8
0
  6
Continuous
 62
     7
100
AcDbCircle
 10
1352.2333886771
 20
145.769097392
 30
0.0
 40
0.0208514492890686
100
AcDbArc
 50
90.0
 51
180.0
  0
LINE
  5
485
330
1F
100
AcDbEntity
  8
0
  6
Continuous
 62
     7
100
AcDbLine
 10
1386.5333886771
 20
175.2199803911
 30
0.0
 11
1386.5333886771
 21
163.7899488413
 31
0.0
  0
LINE
  5
486
330
1F
100
AcDbEntity
  8
0
  6
Continuous
 62
     7
100
AcDbLine
 10
1352.2333886771
 20
163.7899488413
 30
0.0
 11
1386.5333886771
 21
163.7899488413
 31
0.0
  0
LINE
  5
487
330
1F
100
AcDbEntity
  8
0
  6
Continuous
 62
     7
100
AcDbLine
 10
1352.2333886771
 20
139.2199803911
 30
0.0
 11
1352.2333886771
 21
127.7899488413
 31
0.0
  0
ARC
  5
488
330
1F
100
AcDbEntity
  8
0
  6
Continuous
 62
     7
100
AcDbCircle
 10
1352.2333886771
 20
127.769097392
 30
0.0
 40
0.0208514492890686
100
AcDbArc
 50
90.0
 51
180.0
  0
LINE
  5
489
330
1F
100
AcDbEntity
  8
0
  6
Continuous
 62
     7
100
AcDbLine
 10
1386.5333886771
 20
157.2199803911
 30
0.0
 11
1386.5333886771
 21
145.7899488413
 31
0.0
  0
LINE
  5
48A
330
1F
100
AcDbEntity
  8
0
  6
Continuous
 62
     7
100
AcDbLine
 10
1352.2333886771
 20
145.7899488413
 30
0.0
 11
1386.5333886771
 21
145.7899488413
 31
0.0
  0
LINE
  5
48B
330
1F
100
AcDbEntity
  8
0
  6
Continuous
 62
     7
100
AcDbLine
 10
1352.2333886771
 20
121.2199803911
 30
0.0
 11
1352.2333886771
 21
109.7899488413
 31
0.0
  0
ARC
  5
48C
330
1F
100
AcDbEntity
  8
0
  6
Continuous
 62
     7
100
AcDbCircle
 10
1352.2333886771
 20
109.769097392
 30
0.0
 40
0.0208514492890401
100
AcDbArc
 50
90.0
 51
180.0
  0
LINE
  5
48D
330
1F
100
AcDbEntity
  8
0
  6
Continuous
 62
     7
100
AcDbLine
 10
1386.5333886771
 20
139.2199803911
 30
0.0
 11
1386.5333886771
 21
127.7899488413
 31
0.0
  0
LINE
  5
48E
330
1F
100
AcDbEntity
  8
0
  6
Continuous
 62
     7
100
AcDbLine
 10
1352.2333886771
 20
127.7899488413
 30
0.0
 11
1386.5333886771
 21
127.7899488413
 31
0.0
  0
LINE
  5
48F
330
1F
100
AcDbEntity
  8
0
  6
Continuous
 62
     7
100
AcDbLine
 10
1386.5333886771
 20
121.2199803911
 30
0.0
 11
1386.5333886771
 21
109.7899488413
 31
0.0
  0
LINE
  5
490
330
1F
100
AcDbEntity
  8
0
  6
Continuous
 62
     7
100
AcDbLine
 10
1352.2333886771
 20
109.7899488413
 30
0.0
 11
1386.5333886771
 21
109.7899488413
 31
0.0
  0
ARC
  5
491
330
1F
100
AcDbEntity
  8
0
  6
Continuous
 62
     7
100
AcDbCircle
 10
1386.5333886771
 20
163.769097392
 30
0.0
 40
0.0208514492890401
100
AcDbArc
 50
0.0
 51
90.0
  0
ARC
  5
492
330
1F
100
AcDbEntity
  8
0
  6
Continuous
 62
     7
100
AcDbCircle
 10
1386.5333886771
 20
145.769097392
 30
0.0
 40
0.0208514492890686
100
AcDbArc
 50
0.0
 51
90.0
  0
ARC
  5
493
330
1F
100
AcDbEntity
  8
0
  6
Continuous
 62
     7
100
AcDbCircle
 10
1386.5333886771
 20
127.769097392
 30
0.0
 40
0.0208514492890686
100
AcDbArc
 50
0.0
 51
90.0
  0
ARC
  5
494
330
1F
100
AcDbEntity
  8
0
  6
Continuous
 62
     7
100
AcDbCircle
 10
1386.5333886771
 20
109.769097392
 30
0.0
 40
0.0208514492890401
100
AcDbArc
 50
0.0
 51
90.0
  0
LINE
  5
495
330
1F
100
AcDbEntity
  8
0
  6
Continuous
 62
     7
100
AcDbLine
 10
1427.2333886771
 20
175.2199803911
 30
0.0
 11
1427.2333886771
 21
163.7899488413
 31
0.0
  0
ARC
  5
496
330
1F
100
AcDbEntity
  8
0
  6
Continuous
 62
     7
100
AcDbCircle
 10
1427.2333886771
 20
163.769097392
 30
0.0
 40
0.0208514492892391
100
AcDbArc
 50
90.0
 51
180.0
  0
LINE
  5
497
330
1F
100
AcDbEntity
  8
0
  6
Continuous
 62
     7
100
AcDbLine
 10
1427.2333886771
 20
157.2199803911
 30
0.0
 11
1427.2333886771
 21
145.7899488413
 31
0.0
  0
ARC
  5
498
330
1F
100
AcDbEntity
  8
0
  6
Continuous
 62
     7
100
AcDbCircle
 10
1427.2333886771
 20
145.769097392
 30
0.0
 40
0.0208514492892391
100
AcDbArc
 50
90.0
 51
180.0
  0
LINE
  5
499
330
1F
100
AcDbEntity
  8
0
  6
Continuous
 62
     7
100
AcDbLine
 10
1461.5333886771
 20
175.2199803911
 30
0.0
 11
1461.5333886771
 21
163.7899488413
 31
0.0
  0
LINE
  5
49A
330
1F
100
AcDbEntity
  8
0
  6
Continuous
 62
     7
100
AcDbLine
 10
1427.2333886771
 20
163.7899488413
 30
0.0
 11
1461.5333886771
 21
163.7899488413
 31
0.0
  0
LINE
  5
49B
330
1F
100
AcDbEntity
  8
0
  6
Continuous
 62
     7
100
AcDbLine
 10
1427.2333886771
 20
139.2199803911
 30
0.0
 11
1427.2333886771
 21
127.7899488413
 31
0.0
  0
ARC
  5
49C
330
1F
100
AcDbEntity
  8
0
  6
Continuous
 62
     7
100
AcDbCircle
 10
1427.2333886771
 20
127.769097392
 30
0.0
 40
0.0208514492892391
100
AcDbArc
 50
90.0
 51
180.0
  0
LINE
  5
49D
330
1F
100
AcDbEntity
  8
0
  6
Continuous
 62
     7
100
AcDbLine
 10
1461.5333886771
 20
157.2199803911
 30
0.0
 11
1461.5333886771
 21
145.7899488413
 31
0.0
  0
LINE
  5
49E
330
1F
100
AcDbEntity
  8
0
  6
Continuous
 62
     7
100
AcDbLine
 10
1427.2333886771
 20
145.7899488413
 30
0.0
 11
1461.5333886771
 21
145.7899488413
 31
0.0
  0
LINE
  5
49F
330
1F
100
AcDbEntity
  8
0
  6
Continuous
 62
     7
100
AcDbLine
 10
1427.2333886771
 20
121.2199803911
 30
0.0
 11
1427.2333886771
 21
109.7899488413
 31
0.0
  0
ARC
  5
4A0
330
1F
100
AcDbEntity
  8
0
  6
Continuous
 62
     7
100
AcDbCircle
 10
1427.2333886771
 20
109.769097392
 30
0.0
 40
0.0208514492892391
100
AcDbArc
 50
90.0
 51
180.0
  0
LINE
  5
4A1
330
1F
100
AcDbEntity
  8
0
  6
Continuous
 62
     7
100
AcDbLine
 10
1461.5333886771
 20
139.2199803911
 30
0.0
 11
1461.5333886771
 21
127.7899488413
 31
0.0
  0
LINE
  5
4A2
330
1F
100
AcDbEntity
  8
0
  6
Continuous
 62
     7
100
AcDbLine
 10
1427.2333886771
 20
127.7899488413
 30
0.0
 11
1461.5333886771
 21
127.7899488413
 31
0.0
  0
LINE
  5
4A3
330
1F
100
AcDbEntity
  8
0
  6
Continuous
 62
     7
100
AcDbLine
 10
1461.5333886771
 20
121.2199803911
 30
0.0
 11
1461.5333886771
 21
109.7899488413
 31
0.0
  0
LINE
  5
4A4
330
1F
100
AcDbEntity
  8
0
  6
Continuous
 62
     7
100
AcDbLine
 10
1427.2333886771
 20
109.7899488413
 30
0.0
 11
1461.5333886771
 21
109.7899488413
 31
0.0
  0
ARC
  5
4A5
330
1F
100
AcDbEntity
  8
0
  6
Continuous
 62
     7
100
AcDbCircle
 10
1461.5333886771
 20
163.769097392
 30
0.0
 40
0.0208514492890401
100
AcDbArc
 50
0.0
 51
90.0
  0
ARC
  5
4A6
330
1F
100
AcDbEntity
  8
0
  6
Continuous
 62
     7
100
AcDbCircle
 10
1461.5333886771
 20
145.769097392
 30
0.0
 40
0.0208514492890686
100
AcDbArc
 50
0.0
 51
90.0
  0
ARC
  5
4A7
330
1F
100
AcDbEntity
  8
0
  6
Continuous
 62
     7
100
AcDbCircle
 10
1461.5333886771
 20
127.769097392
 30
0.0
 40
0.0208514492890686
100
AcDbArc
 50
0.0
 51
90.0
  0
ARC
  5
4A8
330
1F
100
AcDbEntity
  8
0
  6
Continuous
 62
     7
100
AcDbCircle
 10
1461.5333886771
 20
109.769097392
 30
0.0
 40
0.0208514492890401
100
AcDbArc
 50
0.0
 51
90.0
  0
LINE
  5
4A9
330
1F
100
AcDbEntity
  8
0
  6
Continuous
 62
     7
100
AcDbLine
 10
1502.2333886771
 20
175.2199803911
 30
0.0
 11
1502.2333886771
 21
163.7899488413
 31
0.0
  0
ARC
  5
4AA
330
1F
100
AcDbEntity
  8
0
  6
Continuous
 62
     7
100
AcDbCircle
 10
1502.2333886771
 20
163.769097392
 30
0.0
 40
0.0208514492890686
100
AcDbArc
 50
90.0
 51
180.0
  0
LINE
  5
4AB
330
1F
100
AcDbEntity
  8
0
  6
Continuous
 62
     7
100
AcDbLine
 10
1502.2333886771
 20
157.2199803911
 30
0.0
 11
1502.2333886771
 21
145.7899488413
 31
0.0
  0
ARC
  5
4AC
330
1F
100
AcDbEntity
  8
0
  6
Continuous
 62
     7
100
AcDbCircle
 10
1502.2333886771
 20
145.769097392
 30
0.0
 40
0.0208514492890686
100
AcDbArc
 50
90.0
 51
180.0
  0
LINE
  5
4AD
330
1F
100
AcDbEntity
  8
0
  6
Continuous
 62
     7
100
AcDbLine
 10
1536.5333886771
 20
175.2199803911
 30
0.0
 11
1536.5333886771
 21
163.7899488413
 31
0.0
  0
LINE
  5
4AE
330
1F
100
AcDbEntity
  8
0
  6
Continuous
 62
     7
100
AcDbLine
 10
1502.2333886771
 20
163.7899488413
 30
0.0
 11
1536.5333886771
 21
163.7899488413
 31
0.0
  0
LINE
  5
4AF
330
1F
100
AcDbEntity
  8
0
  6
Continuous
 62
     7
100
AcDbLine
 10
1502.2333886771
 20
139.2199803911
 30
0.0
 11
1502.2333886771
 21
127.7899488413
 31
0.0
  0
ARC
  5
4B0
330
1F
100
AcDbEntity
  8
0
  6
Continuous
 62
     7
100
AcDbCircle
 10
1502.2333886771
 20
127.769097392
 30
0.0
 40
0.0208514492890686
100
AcDbArc
 50
90.0
 51
180.0
  0
LINE
  5
4B1
330
1F
100
AcDbEntity
  8
0
  6
Continuous
 62
     7
100
AcDbLine
 10
1536.5333886771
 20
157.2199803911
 30
0.0
 11
1536.5333886771
 21
145.7899488413
 31
0.0
  0
LINE
  5
4B2
330
1F
100
AcDbEntity
  8
0
  6
Continuous
 62
     7
100
AcDbLine
 10
1502.2333886771
 20
145.7899488413
 30
0.0
 11
1536.5333886771
 21
145.7899488413
 31
0.0
  0
LINE
  5
4B3
330
1F
100
AcDbEntity
  8
0
  6
Continuous
 62
     7
100
AcDbLine
 10
1502.2333886771
 20
121.2199803911
 30
0.0
 11
1502.2333886771
 21
109.7899488413
 31
0.0
  0
ARC
  5
4B4
330
1F
100
AcDbEntity
  8
0
  6
Continuous
 62
     7
100
AcDbCircle
 10
1502.2333886771
 20
109.769097392
 30
0.0
 40
0.0208514492890401
100
AcDbArc
 50
90.0
 51
180.0
  0
LINE
  5
4B5
330
1F
100
AcDbEntity
  8
0
  6
Continuous
 62
     7
100
AcDbLine
 10
1536.5333886771
 20
139.2199803911
 30
0.0
 11
1536.5333886771
 21
127.7899488413
 31
0.0
  0
LINE
  5
4B6
330
1F
100
AcDbEntity
  8
0
  6
Continuous
 62
     7
100
AcDbLine
 10
1502.2333886771
 20
127.7899488413
 30
0.0
 11
1536.5333886771
 21
127.7899488413
 31
0.0
  0
LINE
  5
4B7
330
1F
100
AcDbEntity
  8
0
  6
Continuous
 62
     7
100
AcDbLine
 10
1536.5333886771
 20
121.2199803911
 30
0.0
 11
1536.5333886771
 21
109.7899488413
 31
0.0
  0
LINE
  5
4B8
330
1F
100
AcDbEntity
  8
0
  6
Continuous
 62
     7
100
AcDbLine
 10
1502.2333886771
 20
109.7899488413
 30
0.0
 11
1536.5333886771
 21
109.7899488413
 31
0.0
  0
ARC
  5
4B9
330
1F
100
AcDbEntity
  8
0
  6
Continuous
 62
     7
100
AcDbCircle
 10
1536.5333886771
 20
163.769097392
 30
0.0
 40
0.0208514492890401
100
AcDbArc
 50
0.0
 51
90.0
  0
ARC
  5
4BA
330
1F
100
AcDbEntity
  8
0
  6
Continuous
 62
     7
100
AcDbCircle
 10
1536.5333886771
 20
145.769097392
 30
0.0
 40
0.0208514492890686
100
AcDbArc
 50
0.0
 51
90.0
  0
ARC
  5
4BB
330
1F
100
AcDbEntity
  8
0
  6
Continuous
 62
     7
100
AcDbCircle
 10
1536.5333886771
 20
127.769097392
 30
0.0
 40
0.0208514492890686
100
AcDbArc
 50
0.0
 51
90.0
  0
ARC
  5
4BC
330
1F
100
AcDbEntity
  8
0
  6
Continuous
 62
     7
100
AcDbCircle
 10
1536.5333886771
 20
109.769097392
 30
0.0
 40
0.0208514492890401
100
AcDbArc
 50
0.0
 51
90.0
  0
LINE
  5
4BD
330
1F
100
AcDbEntity
  8
0
  6
Continuous
 62
     7
100
AcDbLine
 10
1577.2333886771
 20
175.2199803911
 30
0.0
 11
1577.2333886771
 21
163.7899488413
 31
0.0
  0
ARC
  5
4BE
330
1F
100
AcDbEntity
  8
0
  6
Continuous
 62
     7
100
AcDbCircle
 10
1577.2333886771
 20
163.769097392
 30
0.0
 40
0.0208514492890686
100
AcDbArc
 50
90.0
 51
180.0
  0
LINE
  5
4BF
330
1F
100
AcDbEntity
  8
0
  6
Continuous
 62
     7
100
AcDbLine
 10
1577.2333886771
 20
157.2199803911
 30
0.0
 11
1577.2333886771
 21
145.7899488413
 31
0.0
  0
ARC
  5
4C0
330
1F
100
AcDbEntity
  8
0
  6
Continuous
 62
     7
100
AcDbCircle
 10
1577.2333886771
 20
145.769097392
 30
0.0
 40
0.0208514492890686
100
AcDbArc
 50
90.0
 51
180.0
  0
LINE
  5
4C1
330
1F
100
AcDbEntity
  8
0
  6
Continuous
 62
     7
100
AcDbLine
 10
1611.5333886771
 20
175.2199803911
 30
0.0
 11
1611.5333886771
 21
163.7899488413
 31
0.0
  0
LINE
  5
4C2
330
1F
100
AcDbEntity
  8
0
  6
Continuous
 62
     7
100
AcDbLine
 10
1577.2333886771
 20
163.7899488413
 30
0.0
 11
1611.5333886771
 21
163.7899488413
 31
0.0
  0
LINE
  5
4C3
330
1F
100
AcDbEntity
  8
0
  6
Continuous
 62
     7
100
AcDbLine
 10
1577.2333886771
 20
139.2199803911
 30
0.0
 11
1577.2333886771
 21
127.7899488413
 31
0.0
  0
ARC
  5
4C4
330
1F
100
AcDbEntity
  8
0
  6
Continuous
 62
     7
100
AcDbCircle
 10
1577.2333886771
 20
127.769097392
 30
0.0
 40
0.0208514492890686
100
AcDbArc
 50
90.0
 51
180.0
  0
LINE
  5
4C5
330
1F
100
AcDbEntity
  8
0
  6
Continuous
 62
     7
100
AcDbLine
 10
1611.5333886771
 20
157.2199803911
 30
0.0
 11
1611.5333886771
 21
145.7899488413
 31
0.0
  0
LINE
  5
4C6
330
1F
100
AcDbEntity
  8
0
  6
Continuous
 62
     7
100
AcDbLine
 10
1577.2333886771
 20
145.7899488413
 30
0.0
 11
1611.5333886771
 21
145.7899488413
 31
0.0
  0
LINE
  5
4C7
330
1F
100
AcDbEntity
  8
0
  6
Continuous
 62
     7
100
AcDbLine
 10
1577.2333886771
 20
121.2199803911
 30
0.0
 11
1577.2333886771
 21
109.7899488413
 31
0.0
  0
ARC
  5
4C8
330
1F
100
AcDbEntity
  8
0
  6
Continuous
 62
     7
100
AcDbCircle
 10
1577.2333886771
 20
109.769097392
 30
0.0
 40
0.0208514492890401
100
AcDbArc
 50
90.0
 51
180.0
  0
LINE
  5
4C9
330
1F
100
AcDbEntity
  8
0
  6
Continuous
 62
     7
100
AcDbLine
 10
1611.5333886771
 20
139.2199803911
 30
0.0
 11
1611.5333886771
 21
127.7899488413
 31
0.0
  0
LINE
  5
4CA
330
1F
100
AcDbEntity
  8
0
  6
Continuous
 62
     7
100
AcDbLine
 10
1577.2333886771
 20
127.7899488413
 30
0.0
 11
1611.5333886771
 21
127.7899488413
 31
0.0
  0
LINE
  5
4CB
330
1F
100
AcDbEntity
  8
0
  6
Continuous
 62
     7
100
AcDbLine
 10
1611.5333886771
 20
121.2199803911
 30
0.0
 11
1611.5333886771
 21
109.7899488413
 31
0.0
  0
LINE
  5
4CC
330
1F
100
AcDbEntity
  8
0
  6
Continuous
 62
     7
100
AcDbLine
 10
1577.2333886771
 20
109.7899488413
 30
0.0
 11
1611.5333886771
 21
109.7899488413
 31
0.0
  0
ARC
  5
4CD
330
1F
100
AcDbEntity
  8
0
  6
Continuous
 62
     7
100
AcDbCircle
 10
1611.5333886771
 20
163.769097392
 30
0.0
 40
0.0208514492890401
100
AcDbArc
 50
0.0
 51
90.0
  0
ARC
  5
4CE
330
1F
100
AcDbEntity
  8
0
  6
Continuous
 62
     7
100
AcDbCircle
 10
1611.5333886771
 20
145.769097392
 30
0.0
 40
0.0208514492890686
100
AcDbArc
 50
0.0
 51
90.0
  0
ARC
  5
4CF
330
1F
100
AcDbEntity
  8
0
  6
Continuous
 62
     7
100
AcDbCircle
 10
1611.5333886771
 20
127.769097392
 30
0.0
 40
0.0208514492890686
100
AcDbArc
 50
0.0
 51
90.0
  0
ARC
  5
4D0
330
1F
100
AcDbEntity
  8
0
  6
Continuous
 62
     7
100
AcDbCircle
 10
1611.5333886771
 20
109.769097392
 30
0.0
 40
0.0208514492890401
100
AcDbArc
 50
0.0
 51
90.0
  0
LINE
  5
4D1
330
1F
100
AcDbEntity
  8
0
  6
Continuous
 62
     7
100
AcDbLine
 10
1652.2333886771
 20
175.2199803911
 30
0.0
 11
1652.2333886771
 21
163.7899488413
 31
0.0
  0
ARC
  5
4D2
330
1F
100
AcDbEntity
  8
0
  6
Continuous
 62
     7
100
AcDbCircle
 10
1652.2333886771
 20
163.769097392
 30
0.0
 40
0.0208514492890686
100
AcDbArc
 50
90.0
 51
180.0
  0
LINE
  5
4D3
330
1F
100
AcDbEntity
  8
0
  6
Continuous
 62
     7
100
AcDbLine
 10
1652.2333886771
 20
157.2199803911
 30
0.0
 11
1652.2333886771
 21
145.7899488413
 31
0.0
  0
ARC
  5
4D4
330
1F
100
AcDbEntity
  8
0
  6
Continuous
 62
     7
100
AcDbCircle
 10
1652.2333886771
 20
145.769097392
 30
0.0
 40
0.0208514492890686
100
AcDbArc
 50
90.0
 51
180.0
  0
LINE
  5
4D5
330
1F
100
AcDbEntity
  8
0
  6
Continuous
 62
     7
100
AcDbLine
 10
1686.5333886771
 20
175.2199803911
 30
0.0
 11
1686.5333886771
 21
163.7899488413
 31
0.0
  0
LINE
  5
4D6
330
1F
100
AcDbEntity
  8
0
  6
Continuous
 62
     7
100
AcDbLine
 10
1652.2333886771
 20
163.7899488413
 30
0.0
 11
1686.5333886771
 21
163.7899488413
 31
0.0
  0
LINE
  5
4D7
330
1F
100
AcDbEntity
  8
0
  6
Continuous
 62
     7
100
AcDbLine
 10
1652.2333886771
 20
139.2199803911
 30
0.0
 11
1652.2333886771
 21
127.7899488413
 31
0.0
  0
ARC
  5
4D8
330
1F
100
AcDbEntity
  8
0
  6
Continuous
 62
     7
100
AcDbCircle
 10
1652.2333886771
 20
127.769097392
 30
0.0
 40
0.0208514492890686
100
AcDbArc
 50
90.0
 51
180.0
  0
LINE
  5
4D9
330
1F
100
AcDbEntity
  8
0
  6
Continuous
 62
     7
100
AcDbLine
 10
1686.5333886771
 20
157.2199803911
 30
0.0
 11
1686.5333886771
 21
145.7899488413
 31
0.0
  0
LINE
  5
4DA
330
1F
100
AcDbEntity
  8
0
  6
Continuous
 62
     7
100
AcDbLine
 10
1652.2333886771
 20
145.7899488413
 30
0.0
 11
1686.5333886771
 21
145.7899488413
 31
0.0
  0
LINE
  5
4DB
330
1F
100
AcDbEntity
  8
0
  6
Continuous
 62
     7
100
AcDbLine
 10
1652.2333886771
 20
121.2199803911
 30
0.0
 11
1652.2333886771
 21
109.7899488413
 31
0.0
  0
ARC
  5
4DC
330
1F
100
AcDbEntity
  8
0
  6
Continuous
 62
     7
100
AcDbCircle
 10
1652.2333886771
 20
109.769097392
 30
0.0
 40
0.0208514492890401
100
AcDbArc
 50
90.0
 51
180.0
  0
LINE
  5
4DD
330
1F
100
AcDbEntity
  8
0
  6
Continuous
 62
     7
100
AcDbLine
 10
1686.5333886771
 20
139.2199803911
 30
0.0
 11
1686.5333886771
 21
127.7899488413
 31
0.0
  0
LINE
  5
4DE
330
1F
100
AcDbEntity
  8
0
  6
Continuous
 62
     7
100
AcDbLine
 10
1652.2333886771
 20
127.7899488413
 30
0.0
 11
1686.5333886771
 21
127.7899488413
 31
0.0
  0
LINE
  5
4DF
330
1F
100
AcDbEntity
  8
0
  6
Continuous
 62
     7
100
AcDbLine
 10
1686.5333886771
 20
121.2199803911
 30
0.0
 11
1686.5333886771
 21
109.7899488413
 31
0.0
  0
LINE
  5
4E0
330
1F
100
AcDbEntity
  8
0
  6
Continuous
 62
     7
100
AcDbLine
 10
1652.2333886771
 20
109.7899488413
 30
0.0
 11
1686.5333886771
 21
109.7899488413
 31
0.0
  0
ARC
  5
4E1
330
1F
100
AcDbEntity
  8
0
  6
Continuous
 62
     7
100
AcDbCircle
 10
1686.5333886771
 20
163.769097392
 30
0.0
 40
0.0208514492892391
100
AcDbArc
 50
0.0
 51
90.0
  0
ARC
  5
4E2
330
1F
100
AcDbEntity
  8
0
  6
Continuous
 62
     7
100
AcDbCircle
 10
1686.5333886771
 20
145.769097392
 30
0.0
 40
0.0208514492892391
100
AcDbArc
 50
0.0
 51
90.0
  0
ARC
  5
4E3
330
1F
100
AcDbEntity
  8
0
  6
Continuous
 62
     7
100
AcDbCircle
 10
1686.5333886771
 20
127.769097392
 30
0.0
 40
0.0208514492892391
100
AcDbArc
 50
0.0
 51
90.0
  0
ARC
  5
4E4
330
1F
100
AcDbEntity
  8
0
  6
Continuous
 62
     7
100
AcDbCircle
 10
1686.5333886771
 20
109.769097392
 30
0.0
 40
0.0208514492892391
100
AcDbArc
 50
0.0
 51
90.0
  0
ENDSEC
  0
SECTION
  2
OBJECTS
  0
DICTIONARY
  5
C
330
0
100
AcDbDictionary
281
     1
  3
ACAD_GROUP
350
D
  3
ACAD_LAYOUT
350
1A
  3
ACAD_MLINESTYLE
350
17
  3
ACAD_PLOTSETTINGS
350
19
  3
ACAD_PLOTSTYLENAME
350
E
  3
ACAD_SCALELIST
350
47
  3
DWGPROPS
350
4E5
  0
DICTIONARY
  5
D
102
{ACAD_REACTORS
330
C
102
}
330
C
100
AcDbDictionary
281
     1
  0
DICTIONARY
  5
1A
102
{ACAD_REACTORS
330
C
102
}
330
C
100
AcDbDictionary
281
     1
  3
Layout1
350
1E
  3
Layout2
350
26
  3
Model
350
22
  0
DICTIONARY
  5
17
102
{ACAD_REACTORS
330
C
102
}
330
C
100
AcDbDictionary
281
     1
  3
Standard
350
18
  0
DICTIONARY
  5
19
102
{ACAD_REACTORS
330
C
102
}
330
C
100
AcDbDictionary
281
     1
  0
ACDBDICTIONARYWDFLT
  5
E
102
{ACAD_REACTORS
330
C
102
}
330
C
100
AcDbDictionary
281
     1
  3
Normal
350
F
100
AcDbDictionaryWithDefault
340
F
  0
DICTIONARY
  5
47
102
{ACAD_REACTORS
330
C
102
}
330
C
100
AcDbDictionary
281
     1
  3
A0
350
48
  3
A1
350
49
  3
A2
350
4A
  3
A3
350
4B
  3
A4
350
4C
  3
A5
350
4D
  3
A6
350
4E
  3
A7
350
4F
  3
A8
350
50
  3
A9
350
51
  3
B0
350
52
  3
B1
350
53
  3
B2
350
54
  3
B3
350
55
  3
B4
350
56
  3
B5
350
57
  3
B6
350
58
  0
XRECORD
  5
4E5
102
{ACAD_REACTORS
330
C
102
}
330
C
100
AcDbXrecord
280
     1
  1
DWGPROPS COOKIE
  2

  3

  4

  6

  7

  8
moskovchenkovapa
  9

300
=
301
=
302
=
303
=
304
=
305
=
306
=
307
=
308
=
309
=
 40
0.0
 41
2460696.415459977
 42
2460696.41546096
  1

 90
        0
  0
LAYOUT
  5
1E
102
{ACAD_REACTORS
330
1A
102
}
330
1A
100
AcDbPlotSettings
  1

  2
none_device
  4

  6

 40
0.0
 41
0.0
 42
0.0
 43
0.0
 44
0.0
 45
0.0
 46
0.0
 47
0.0
 48
0.0
 49
0.0
140
0.0
141
0.0
142
1.0
143
1.0
 70
   688
 72
     1
 73
     0
 74
     5
  7

 75
    16
147
1.0
148
0.0
149
0.0
100
AcDbLayout
  1
Layout1
 70
     1
 71
     1
 10
0.0
 20
0.0
 11
420.0
 21
297.0
 12
0.0
 22
0.0
 32
0.0
 14
1.0000000000E+20
 24
1.0000000000E+20
 34
1.0000000000E+20
 15
-1.0000000000E+20
 25
-1.0000000000E+20
 35
-1.0000000000E+20
146
0.0
 13
0.0
 23
0.0
 33
0.0
 16
1.0
 26
0.0
 36
0.0
 17
0.0
 27
1.0
 37
0.0
 76
     0
330
1B
  0
LAYOUT
  5
26
102
{ACAD_REACTORS
330
1A
102
}
330
1A
100
AcDbPlotSettings
  1

  2
none_device
  4

  6

 40
0.0
 41
0.0
 42
0.0
 43
0.0
 44
0.0
 45
0.0
 46
0.0
 47
0.0
 48
0.0
 49
0.0
140
0.0
141
0.0
142
1.0
143
1.0
 70
   688
 72
     1
 73
     0
 74
     5
  7

 75
    16
147
1.0
148
0.0
149
0.0
100
AcDbLayout
  1
Layout2
 70
     1
 71
     2
 10
0.0
 20
0.0
 11
0.0
 21
0.0
 12
0.0
 22
0.0
 32
0.0
 14
0.0
 24
0.0
 34
0.0
 15
0.0
 25
0.0
 35
0.0
146
0.0
 13
0.0
 23
0.0
 33
0.0
 16
1.0
 26
0.0
 36
0.0
 17
0.0
 27
1.0
 37
0.0
 76
     0
330
23
  0
LAYOUT
  5
22
102
{ACAD_REACTORS
330
1A
102
}
330
1A
100
AcDbPlotSettings
  1

  2
none_device
  4
Letter_(8.50_x_11.00_Inches)
  6

 40
6.35
 41
6.35
 42
6.35000508
 43
6.35000508
 44
215.9
 45
279.4
 46
0.0
 47
0.0
 48
0.0
 49
0.0
140
0.0
141
0.0
142
1.0
143
1.0
 70
  1712
 72
     1
 73
     0
 74
     0
  7

 75
     0
147
1.0
148
0.0
149
0.0
100
AcDbLayout
  1
Model
 70
     1
 71
     0
 10
0.0
 20
0.0
 11
420.0
 21
297.0
 12
0.0
 22
0.0
 32
0.0
 14
0.0
 24
0.0
 34
0.0
 15
420.0
 25
297.0
 35
0.0
146
0.0
 13
0.0
 23
0.0
 33
0.0
 16
1.0
 26
0.0
 36
0.0
 17
0.0
 27
1.0
 37
0.0
 76
     0
330
1F
331
29
  0
MLINESTYLE
  5
18
102
{ACAD_REACTORS
330
17
102
}
330
17
100
AcDbMlineStyle
  2
Standard
 70
     0
  3

 62
   256
 51
90.0
 52
90.0
 71
     2
 49
0.5
 62
   256
  6
BYLAYER
 49
-0.5
 62
   256
  6
BYLAYER
  0
ACDBPLACEHOLDER
  5
F
102
{ACAD_REACTORS
330
E
102
}
330
E
  0
SCALE
  5
48
102
{ACAD_REACTORS
330
47
102
}
330
47
100
AcDbScale
 70
     0
300
1:1
140
1.0
141
1.0
290
     1
  0
SCALE
  5
49
102
{ACAD_REACTORS
330
47
102
}
330
47
100
AcDbScale
 70
     0
300
1:2
140
1.0
141
2.0
290
     0
  0
SCALE
  5
4A
102
{ACAD_REACTORS
330
47
102
}
330
47
100
AcDbScale
 70
     0
300
1:4
140
1.0
141
4.0
290
     0
  0
SCALE
  5
4B
102
{ACAD_REACTORS
330
47
102
}
330
47
100
AcDbScale
 70
     0
300
1:5
140
1.0
141
5.0
290
     0
  0
SCALE
  5
4C
102
{ACAD_REACTORS
330
47
102
}
330
47
100
AcDbScale
 70
     0
300
1:8
140
1.0
141
8.0
290
     0
  0
SCALE
  5
4D
102
{ACAD_REACTORS
330
47
102
}
330
47
100
AcDbScale
 70
     0
300
1:10
140
1.0
141
10.0
290
     0
  0
SCALE
  5
4E
102
{ACAD_REACTORS
330
47
102
}
330
47
100
AcDbScale
 70
     0
300
1:16
140
1.0
141
16.0
290
     0
  0
SCALE
  5
4F
102
{ACAD_REACTORS
330
47
102
}
330
47
100
AcDbScale
 70
     0
300
1:20
140
1.0
141
20.0
290
     0
  0
SCALE
  5
50
102
{ACAD_REACTORS
330
47
102
}
330
47
100
AcDbScale
 70
     0
300
1:30
140
1.0
141
30.0
290
     0
  0
SCALE
  5
51
102
{ACAD_REACTORS
330
47
102
}
330
47
100
AcDbScale
 70
     0
300
1:40
140
1.0
141
40.0
290
     0
  0
SCALE
  5
52
102
{ACAD_REACTORS
330
47
102
}
330
47
100
AcDbScale
 70
     0
300
1:50
140
1.0
141
50.0
290
     0
  0
SCALE
  5
53
102
{ACAD_REACTORS
330
47
102
}
330
47
100
AcDbScale
 70
     0
300
1:100
140
1.0
141
100.0
290
     0
  0
SCALE
  5
54
102
{ACAD_REACTORS
330
47
102
}
330
47
100
AcDbScale
 70
     0
300
2:1
140
2.0
141
1.0
290
     0
  0
SCALE
  5
55
102
{ACAD_REACTORS
330
47
102
}
330
47
100
AcDbScale
 70
     0
300
4:1
140
4.0
141
1.0
290
     0
  0
SCALE
  5
56
102
{ACAD_REACTORS
330
47
102
}
330
47
100
AcDbScale
 70
     0
300
8:1
140
8.0
141
1.0
290
     0
  0
SCALE
  5
57
102
{ACAD_REACTORS
330
47
102
}
330
47
100
AcDbScale
 70
     0
300
10:1
140
10.0
141
1.0
290
     0
  0
SCALE
  5
58
102
{ACAD_REACTORS
330
47
102
}
330
47
100
AcDbScale
 70
     0
300
100:1
140
100.0
141
1.0
290
     0
  0
ENDSEC
  0
EOF
