  0
SECTION
  2
HEADER
  9
$ACADVER
  1
AC1015
  9
$ACADMAINTVER
 70
     6
  9
$DWGCODEPAGE
  3
ANSI_1251
  9
$INSBASE
 10
0.0
 20
0.0
 30
0.0
  9
$EXTMIN
 10
0.0
 20
0.0
 30
0.0
  9
$EXTMAX
 10
431.8
 20
279.4
 30
0.0
  9
$LIMMIN
 10
0.0
 20
0.0
  9
$LIMMAX
 10
431.8
 20
279.4
  9
$ORTHOMODE
 70
     0
  9
$REGENMODE
 70
     1
  9
$FILLMODE
 70
     1
  9
$QTEXTMODE
 70
     0
  9
$MIRRTEXT
 70
     1
  9
$LTSCALE
 40
1.0
  9
$ATTMODE
 70
     1
  9
$TEXTSIZE
 40
3.5
  9
$TRACEWID
 40
1.0
  9
$TEXTSTYLE
  7
STANDARD
  9
$CLAYER
  8
0
  9
$CELTYPE
  6
ByLayer
  9
$CECOLOR
 62
   256
  9
$CELTSCALE
 40
1.0
  9
$DISPSILH
 70
     0
  9
$DIMSCALE
 40
1.0
  9
$DIMASZ
 40
5.0
  9
$DIMEXO
 40
0.0
  9
$DIMDLI
 40
3.75
  9
$DIMRND
 40
0.0
  9
$DIMDLE
 40
0.0
  9
$DIMEXE
 40
1.0
  9
$DIMTP
 40
0.0
  9
$DIMTM
 40
0.0
  9
$DIMTXT
 40
3.5
  9
$DIMCEN
 40
2.5
  9
$DIMTSZ
 40
0.0
  9
$DIMTOL
 70
     0
  9
$DIMLIM
 70
     0
  9
$DIMTIH
 70
     1
  9
$DIMTOH
 70
     1
  9
$DIMSE1
 70
     0
  9
$DIMSE2
 70
     0
  9
$DIMTAD
 70
     1
  9
$DIMZIN
 70
     0
  9
$DIMBLK
  1

  9
$DIMASO
 70
     1
  9
$DIMSHO
 70
     1
  9
$DIMPOST
  1

  9
$DIMAPOST
  1

  9
$DIMALT
 70
     0
  9
$DIMALTD
 70
     3
  9
$DIMALTF
 40
0.0393700787
  9
$DIMLFAC
 40
1.0
  9
$DIMTOFL
 70
     1
  9
$DIMTVP
 40
0.0
  9
$DIMTIX
 70
     0
  9
$DIMSOXD
 70
     0
  9
$DIMSAH
 70
     0
  9
$DIMBLK1
  1

  9
$DIMBLK2
  1

  9
$DIMSTYLE
  2
ISO-25
  9
$DIMCLRD
 70
     0
  9
$DIMCLRE
 70
     0
  9
$DIMCLRT
 70
     0
  9
$DIMTFAC
 40
1.0
  9
$DIMGAP
 40
1.5
  9
$DIMJUST
 70
     0
  9
$DIMSD1
 70
     0
  9
$DIMSD2
 70
     0
  9
$DIMTOLJ
 70
     0
  9
$DIMTZIN
 70
     0
  9
$DIMALTZ
 70
     0
  9
$DIMALTTZ
 70
     0
  9
$DIMUPT
 70
     0
  9
$DIMDEC
 70
     1
  9
$DIMTDEC
 70
     3
  9
$DIMALTU
 70
     2
  9
$DIMALTTD
 70
     3
  9
$DIMTXSTY
  7
STANDARD
  9
$DIMAUNIT
 70
     0
  9
$DIMADEC
 70
     2
  9
$DIMALTRND
 40
0.0
  9
$DIMAZIN
 70
     0
  9
$DIMDSEP
 70
    44
  9
$DIMATFIT
 70
     3
  9
$DIMFRAC
 70
     0
  9
$DIMLDRBLK
  1

  9
$DIMLUNIT
 70
     2
  9
$DIMLWD
 70
    -2
  9
$DIMLWE
 70
    -2
  9
$DIMTMOVE
 70
     0
  9
$LUNITS
 70
     2
  9
$LUPREC
 70
     1
  9
$SKETCHINC
 40
1.0
  9
$FILLETRAD
 40
0.0
  9
$AUNITS
 70
     0
  9
$AUPREC
 70
     2
  9
$MENU
  1
.
  9
$ELEVATION
 40
0.0
  9
$PELEVATION
 40
0.0
  9
$THICKNESS
 40
0.0
  9
$LIMCHECK
 70
     0
  9
$CHAMFERA
 40
0.0
  9
$CHAMFERB
 40
0.0
  9
$CHAMFERC
 40
0.0
  9
$CHAMFERD
 40
0.0
  9
$SKPOLY
 70
     0
  9
$TDCREATE
 40
2460879.566364792
  9
$TDUCREATE
 40
2460879.441364792
  9
$TDUPDATE
 40
2460879.566365729
  9
$TDUUPDATE
 40
2460879.441365729
  9
$TDINDWG
 40
0.0000000116
  9
$TDUSRTIMER
 40
0.0000000116
  9
$USRTIMER
 70
     1
  9
$ANGBASE
 50
0.0
  9
$ANGDIR
 70
     0
  9
$PDMODE
 70
     0
  9
$PDSIZE
 40
-1.0
  9
$PLINEWID
 40
0.0
  9
$SPLFRAME
 70
     0
  9
$SPLINETYPE
 70
     6
  9
$SPLINESEGS
 70
     8
  9
$HANDSEED
  5
32E
  9
$SURFTAB1
 70
     6
  9
$SURFTAB2
 70
     6
  9
$SURFTYPE
 70
     6
  9
$SURFU
 70
     6
  9
$SURFV
 70
     6
  9
$UCSBASE
  2

  9
$UCSNAME
  2

  9
$UCSORG
 10
0.0
 20
0.0
 30
0.0
  9
$UCSXDIR
 10
1.0
 20
0.0
 30
0.0
  9
$UCSYDIR
 10
0.0
 20
1.0
 30
0.0
  9
$UCSORTHOREF
  2

  9
$UCSORTHOVIEW
 70
     0
  9
$UCSORGTOP
 10
0.0
 20
0.0
 30
0.0
  9
$UCSORGBOTTOM
 10
0.0
 20
0.0
 30
0.0
  9
$UCSORGLEFT
 10
0.0
 20
0.0
 30
0.0
  9
$UCSORGRIGHT
 10
0.0
 20
0.0
 30
0.0
  9
$UCSORGFRONT
 10
0.0
 20
0.0
 30
0.0
  9
$UCSORGBACK
 10
0.0
 20
0.0
 30
0.0
  9
$PUCSBASE
  2

  9
$PUCSNAME
  2

  9
$PUCSORG
 10
0.0
 20
0.0
 30
0.0
  9
$PUCSXDIR
 10
1.0
 20
0.0
 30
0.0
  9
$PUCSYDIR
 10
0.0
 20
1.0
 30
0.0
  9
$PUCSORTHOREF
  2

  9
$PUCSORTHOVIEW
 70
     0
  9
$PUCSORGTOP
 10
0.0
 20
0.0
 30
0.0
  9
$PUCSORGBOTTOM
 10
0.0
 20
0.0
 30
0.0
  9
$PUCSORGLEFT
 10
0.0
 20
0.0
 30
0.0
  9
$PUCSORGRIGHT
 10
0.0
 20
0.0
 30
0.0
  9
$PUCSORGFRONT
 10
0.0
 20
0.0
 30
0.0
  9
$PUCSORGBACK
 10
0.0
 20
0.0
 30
0.0
  9
$USERI1
 70
     0
  9
$USERI2
 70
     0
  9
$USERI3
 70
     0
  9
$USERI4
 70
     0
  9
$USERI5
 70
     0
  9
$USERR1
 40
0.0
  9
$USERR2
 40
0.0
  9
$USERR3
 40
0.0
  9
$USERR4
 40
0.0
  9
$USERR5
 40
0.0
  9
$WORLDVIEW
 70
     1
  9
$SHADEDGE
 70
     3
  9
$SHADEDIF
 70
    70
  9
$TILEMODE
 70
     1
  9
$MAXACTVP
 70
    64
  9
$PINSBASE
 10
0.0
 20
0.0
 30
0.0
  9
$PLIMCHECK
 70
     0
  9
$PEXTMIN
 10
1.0000000000E+20
 20
1.0000000000E+20
 30
1.0000000000E+20
  9
$PEXTMAX
 10
-1.0000000000E+20
 20
-1.0000000000E+20
 30
-1.0000000000E+20
  9
$PLIMMIN
 10
0.0
 20
0.0
  9
$PLIMMAX
 10
420.0
 20
297.0
  9
$UNITMODE
 70
     0
  9
$VISRETAIN
 70
     1
  9
$PLINEGEN
 70
     0
  9
$PSLTSCALE
 70
     1
  9
$TREEDEPTH
 70
  3020
  9
$CMLSTYLE
  2
Standard
  9
$CMLJUST
 70
     0
  9
$CMLSCALE
 40
20.0
  9
$PROXYGRAPHICS
 70
     1
  9
$MEASUREMENT
 70
     1
  9
$CELWEIGHT
370
    -1
  9
$ENDCAPS
280
     0
  9
$JOINSTYLE
280
     0
  9
$LWDISPLAY
290
     1
  9
$INSUNITS
 70
     4
  9
$HYPERLINKBASE
  1

  9
$STYLESHEET
  1

  9
$XEDIT
290
     1
  9
$CEPSNTYPE
380
     0
  9
$PSTYLEMODE
290
     1
  9
$FINGERPRINTGUID
  2
{2ac76827-031a-4e0e-92d3-b392f717e178}
  9
$VERSIONGUID
  2
{FAEB1C32-E019-11D5-929B-00C0DF256EC4}
  9
$EXTNAMES
290
     1
  9
$PSVPSCALE
 40
0.0
  9
$OLESTARTUP
290
     0
  0
ENDSEC
  0
SECTION
  2
CLASSES
  0
CLASS
  1
ACDBDICTIONARYWDFLT
  2
AcDbDictionaryWithDefault
  3
ObjectDBX Classes
 90
        0
280
     0
281
     0
  0
CLASS
  1
VISUALSTYLE
  2
AcDbVisualStyle
  3
ObjectDBX Classes
 90
     4095
280
     0
281
     0
  0
CLASS
  1
MATERIAL
  2
AcDbMaterial
  3
ObjectDBX Classes
 90
     1153
280
     0
281
     0
  0
CLASS
  1
SCALE
  2
AcDbScale
  3
ObjectDBX Classes
 90
     1153
280
     0
281
     0
  0
CLASS
  1
TABLESTYLE
  2
AcDbTableStyle
  3
ObjectDBX Classes
 90
     4095
280
     0
281
     0
  0
CLASS
  1
MLEADERSTYLE
  2
AcDbMLeaderStyle
  3
ACDB_MLEADERSTYLE_CLASS
 90
     4095
280
     0
281
     0
  0
CLASS
  1
SUN
  2
AcDbSun
  3
SCENEOE
 90
     1153
280
     0
281
     0
  0
CLASS
  1
ACDBPLACEHOLDER
  2
AcDbPlaceHolder
  3
ObjectDBX Classes
 90
        0
280
     0
281
     0
  0
CLASS
  1
LAYOUT
  2
AcDbLayout
  3
ObjectDBX Classes
 90
        0
280
     0
281
     0
  0
ENDSEC
  0
SECTION
  2
TABLES
  0
TABLE
  2
VPORT
  5
8
330
0
100
AcDbSymbolTable
 70
     1
  0
VPORT
  5
29
330
8
100
AcDbSymbolTableRecord
100
AcDbViewportTableRecord
  2
*Active
 70
     0
 10
0.0
 20
0.0
 11
1.0
 21
1.0
 12
215.9
 22
139.7
 13
0.0
 23
0.0
 14
10.0
 24
10.0
 15
10.0
 25
10.0
 16
0.0
 26
0.0
 36
1.0
 17
0.0
 27
0.0
 37
0.0
 40
279.4
 41
1.5454545455
 42
50.0
 43
0.0
 44
0.0
 50
0.0
 51
0.0
 71
     0
 72
  2000
 73
     1
 74
     3
 75
     0
 76
     0
 77
     0
 78
     0
281
     0
 65
     1
110
0.0
120
0.0
130
0.0
111
1.0
121
0.0
131
0.0
112
0.0
122
1.0
132
0.0
 79
     0
146
0.0
  0
ENDTAB
  0
TABLE
  2
LTYPE
  5
5
330
0
100
AcDbSymbolTable
 70
     8
  0
LTYPE
  5
14
330
5
100
AcDbSymbolTableRecord
100
AcDbLinetypeTableRecord
  2
ByBlock
 70
     0
  3

 72
    65
 73
     0
 40
0.0
  0
LTYPE
  5
15
330
5
100
AcDbSymbolTableRecord
100
AcDbLinetypeTableRecord
  2
ByLayer
 70
     0
  3

 72
    65
 73
     0
 40
0.0
  0
LTYPE
  5
16
330
5
100
AcDbSymbolTableRecord
100
AcDbLinetypeTableRecord
  2
Continuous
 70
     0
  3
Solid line
 72
    65
 73
     0
 40
0.0
  0
LTYPE
  5
5E
330
5
100
AcDbSymbolTableRecord
100
AcDbLinetypeTableRecord
  2
SLD-Сплошная
 70
     0
  3
SolidWorks Line Style
 72
    65
 73
     0
 40
0.0
  0
LTYPE
  5
5F
330
5
100
AcDbSymbolTableRecord
100
AcDbLinetypeTableRecord
  2
SLD-Штриховая
 70
     0
  3
SolidWorks Line Style
 72
    65
 73
     2
 40
1.905
 49
1.27
 74
     0
 49
-0.635
 74
     0
  0
LTYPE
  5
60
330
5
100
AcDbSymbolTableRecord
100
AcDbLinetypeTableRecord
  2
SLD-Штрихпункт.-с-двумя-точками
 70
     0
  3
SolidWorks Line Style
 72
    65
 73
     6
 40
12.7
 49
6.35
 74
     0
 49
-1.27
 74
     0
 49
1.27
 74
     0
 49
-1.27
 74
     0
 49
1.27
 74
     0
 49
-1.27
 74
     0
  0
LTYPE
  5
61
330
5
100
AcDbSymbolTableRecord
100
AcDbLinetypeTableRecord
  2
SLD-Штрихпункт.-утолщ.
 70
     0
  3
SolidWorks Line Style
 72
    65
 73
     4
 40
10.16
 49
6.35
 74
     0
 49
-1.27
 74
     0
 49
1.27
 74
     0
 49
-1.27
 74
     0
  0
LTYPE
  5
62
330
5
100
AcDbSymbolTableRecord
100
AcDbLinetypeTableRecord
  2
SLD-Осевая
 70
     0
  3
SolidWorks Line Style
 72
    65
 73
     4
 40
19.05
 49
15.24
 74
     0
 49
-1.27
 74
     0
 49
1.27
 74
     0
 49
-1.27
 74
     0
  0
LTYPE
  5
63
330
5
100
AcDbSymbolTableRecord
100
AcDbLinetypeTableRecord
  2
SLD-Сшитая
 70
     0
  3
SolidWorks Line Style
 72
    65
 73
     2
 40
0.635
 49
0.0
 74
     0
 49
-0.635
 74
     0
  0
LTYPE
  5
64
330
5
100
AcDbSymbolTableRecord
100
AcDbLinetypeTableRecord
  2
SLD-Тонкая-Толстая
 70
     0
  3
SolidWorks Line Style
 72
    65
 73
     2
 40
5.080508
 49
0.000508
 74
     0
 49
-5.08
 74
     0
  0
ENDTAB
  0
TABLE
  2
LAYER
  5
2
330
0
100
AcDbSymbolTable
 70
     3
  0
LAYER
  5
10
330
2
100
AcDbSymbolTableRecord
100
AcDbLayerTableRecord
  2
0
 70
     0
 62
     7
  6
Continuous
370
    -3
390
F
  0
LAYER
  5
65
330
2
100
AcDbSymbolTableRecord
100
AcDbLayerTableRecord
  2
ВОДЯНОЙ_ЗНАК
 70
     0
 62
    11
  6
SLD-Сплошная
370
    -3
390
F
  0
LAYER
  5
66
330
2
100
AcDbSymbolTableRecord
100
AcDbLayerTableRecord
  2
ОСНОВНОЙ
 70
     0
 62
     7
  6
SLD-Сплошная
370
    -3
390
F
  0
ENDTAB
  0
TABLE
  2
STYLE
  5
3
330
0
100
AcDbSymbolTable
 70
     1
  0
STYLE
  5
11
330
3
100
AcDbSymbolTableRecord
100
AcDbTextStyleTableRecord
  2
STANDARD
 70
     0
 40
0.0
 41
1.0
 50
0.0
 71
     0
 42
3.5
  3
GOST-TYPE-A.TTF
  4

1001
ACAD
1000
GOST TYPE A
1071
 16777250
  0
ENDTAB
  0
TABLE
  2
VIEW
  5
6
330
0
100
AcDbSymbolTable
 70
     0
  0
ENDTAB
  0
TABLE
  2
UCS
  5
7
330
0
100
AcDbSymbolTable
 70
     0
  0
ENDTAB
  0
TABLE
  2
APPID
  5
9
330
0
100
AcDbSymbolTable
 70
     1
  0
APPID
  5
12
330
9
100
AcDbSymbolTableRecord
100
AcDbRegAppTableRecord
  2
ACAD
 70
     0
  0
ENDTAB
  0
TABLE
  2
DIMSTYLE
  5
A
330
0
100
AcDbSymbolTable
 70
     1
100
AcDbDimStyleTable
  0
DIMSTYLE
105
27
330
A
100
AcDbSymbolTableRecord
100
AcDbDimStyleTableRecord
  2
ISO-25
 70
     0
 41
2.5
 42
0.625
 43
3.75
 44
1.25
 73
     0
 74
     0
 77
     1
 78
     8
140
2.5
141
2.5
143
0.0393700787
147
0.625
171
     3
172
     1
178
     0
271
     2
272
     2
274
     3
278
    44
283
     0
284
     8
340
11
  0
ENDTAB
  0
TABLE
  2
BLOCK_RECORD
  5
1
330
0
100
AcDbSymbolTable
 70
     1
  0
BLOCK_RECORD
  5
1F
330
1
100
AcDbSymbolTableRecord
100
AcDbBlockTableRecord
  2
*Model_Space
340
22
  0
BLOCK_RECORD
  5
1B
330
1
100
AcDbSymbolTableRecord
100
AcDbBlockTableRecord
  2
*Paper_Space
340
1E
  0
BLOCK_RECORD
  5
23
330
1
100
AcDbSymbolTableRecord
100
AcDbBlockTableRecord
  2
*Paper_Space0
340
26
  0
ENDTAB
  0
ENDSEC
  0
SECTION
  2
BLOCKS
  0
BLOCK
  5
20
330
1F
100
AcDbEntity
  8
0
100
AcDbBlockBegin
  2
*Model_Space
 70
     0
 10
0.0
 20
0.0
 30
0.0
  3
*Model_Space
  1

  0
ENDBLK
  5
21
330
1F
100
AcDbEntity
  8
0
100
AcDbBlockEnd
  0
BLOCK
  5
1C
330
1B
100
AcDbEntity
 67
     1
  8
0
100
AcDbBlockBegin
  2
*Paper_Space
 70
     0
 10
0.0
 20
0.0
 30
0.0
  3
*Paper_Space
  1

  0
ENDBLK
  5
1D
330
1B
100
AcDbEntity
 67
     1
  8
0
100
AcDbBlockEnd
  0
BLOCK
  5
24
330
23
100
AcDbEntity
  8
0
100
AcDbBlockBegin
  2
*Paper_Space0
 70
     0
 10
0.0
 20
0.0
 30
0.0
  3
*Paper_Space0
  1

  0
ENDBLK
  5
25
330
23
100
AcDbEntity
  8
0
100
AcDbBlockEnd
  0
ENDSEC
  0
SECTION
  2
ENTITIES
  0
CIRCLE
  5
67
330
1F
100
AcDbEntity
  8
0
  6
SLD-Сплошная
 62
     7
370
    25
100
AcDbCircle
 10
221.3272431118
 20
142.0759168871
 30
0.0
 40
3.5
  0
CIRCLE
  5
68
330
1F
100
AcDbEntity
  8
0
  6
SLD-Сплошная
 62
     7
370
    25
100
AcDbCircle
 10
221.3272431118
 20
150.8259168871
 30
0.0
 40
19.40043485184952
  0
CIRCLE
  5
69
330
1F
100
AcDbEntity
  8
0
  6
SLD-Сплошная
 62
     7
370
    25
100
AcDbCircle
 10
221.3272431118
 20
150.8259168871
 30
0.0
 40
19.38909370199696
  0
ARC
  5
6A
330
1F
100
AcDbEntity
  8
0
  6
SLD-Сплошная
 62
     7
370
    25
100
AcDbCircle
 10
221.3272431118
 20
150.8259168871
 30
0.0
 40
21.62500000000002
100
AcDbArc
 50
277.9901177638
 51
262.0098822362
  0
LINE
  5
6B
330
1F
100
AcDbEntity
  8
0
  6
SLD-Сплошная
 62
     7
370
    25
100
AcDbLine
 10
218.3213183771
 20
129.4108511275
 30
0.0
 11
218.3213183771
 21
128.7068416218
 31
0.0
  0
LINE
  5
6C
330
1F
100
AcDbEntity
  8
0
  6
SLD-Сплошная
 62
     7
370
    25
100
AcDbLine
 10
224.3331678465
 20
128.7068416218
 30
0.0
 11
224.3331678465
 21
129.4108511275
 31
0.0
  0
ARC
  5
6D
330
1F
100
AcDbEntity
  8
0
  6
SLD-Сплошная
 62
     7
370
    25
100
AcDbCircle
 10
221.3272431118
 20
128.7068416218
 30
0.0
 40
3.005924734709453
100
AcDbArc
 50
180.0
 51
0.0
  0
CIRCLE
  5
6E
330
1F
100
AcDbEntity
  8
0
  6
SLD-Сплошная
 62
     7
370
    25
100
AcDbCircle
 10
213.7495208287
 20
155.2009168871
 30
0.0
 40
2.5
  0
CIRCLE
  5
6F
330
1F
100
AcDbEntity
  8
0
  6
SLD-Сплошная
 62
     7
370
    25
100
AcDbCircle
 10
228.9049653949
 20
155.2009168871
 30
0.0
 40
2.5
  0
CIRCLE
  5
70
330
1F
100
AcDbEntity
  8
0
  6
SLD-Сплошная
 62
     7
370
    25
100
AcDbCircle
 10
213.7495208287
 20
155.2009168871
 30
0.0
 40
4.76387856302
  0
CIRCLE
  5
71
330
1F
100
AcDbEntity
  8
0
  6
SLD-Сплошная
 62
     7
370
    25
100
AcDbCircle
 10
213.7495208287
 20
155.2009168871
 30
0.0
 40
5.250000000000028
  0
CIRCLE
  5
72
330
1F
100
AcDbEntity
  8
0
  6
SLD-Сплошная
 62
     7
370
    25
100
AcDbCircle
 10
228.9049653949
 20
155.2009168871
 30
0.0
 40
4.76387856302
  0
CIRCLE
  5
73
330
1F
100
AcDbEntity
  8
0
  6
SLD-Сплошная
 62
     7
370
    25
100
AcDbCircle
 10
228.9049653949
 20
155.2009168871
 30
0.0
 40
5.25
  0
ARC
  5
74
330
1F
100
AcDbEntity
  8
0
  6
SLD-Сплошная
 62
     7
370
    25
100
AcDbCircle
 10
221.3272431118
 20
128.7068416218
 30
0.0
 40
7.500000000000014
100
AcDbArc
 50
203.1609353223
 51
336.8390646777
  0
ARC
  5
75
330
1F
100
AcDbEntity
  8
0
  6
SLD-Сплошная
 62
     7
370
    25
100
AcDbCircle
 10
221.3272431118
 20
150.8259168871
 30
0.0
 40
26.00000000000002
100
AcDbArc
 50
285.3795865555
 51
254.6204134445
  0
SPLINE
  5
76
330
1F
100
AcDbEntity
  8
0
  6
SLD-Сплошная
 62
     7
370
    25
100
AcDbSpline
210
0.0
220
0.0
230
1.0
 70
    24
 71
     3
 72
    10
 73
     6
 74
     0
 42
0.00000001
 43
0.00000001
 40
0.0
 40
0.0
 40
0.0
 40
0.0
 40
0.4555258870876067
 40
0.8496199282739227
 40
0.9999999999999999
 40
0.9999999999999999
 40
0.9999999999999999
 40
0.9999999999999999
 10
218.5772431118315
 20
180.6991639523096
 30
0.0
 10
218.5772431118315
 20
180.0285569548754
 30
0.0
 10
218.5772431118315
 20
178.7777804672803
 30
0.0
 10
218.5772431118315
 20
177.4211486769176
 30
0.0
 10
218.5772431118315
 20
176.7687538683981
 30
0.0
 10
218.5772431118315
 20
176.5885668296166
 30
0.0
  0
ARC
  5
77
330
1F
100
AcDbEntity
  8
0
  6
SLD-Сплошная
 62
     7
370
    25
100
AcDbCircle
 10
221.3272431118
 20
150.9308840073
 30
0.0
 40
29.89503287981481
100
AcDbArc
 50
84.721984126
 51
95.278015874
  0
SPLINE
  5
78
330
1F
100
AcDbEntity
  8
0
  6
SLD-Сплошная
 62
     7
370
    25
100
AcDbSpline
210
0.0
220
0.0
230
1.0
 70
    24
 71
     3
 72
     9
 73
     5
 74
     0
 42
0.00000001
 43
0.00000001
 40
0.0
 40
0.0
 40
0.0
 40
0.0
 40
0.3685569293907778
 40
1.0
 40
1.0
 40
1.0
 40
1.0
 10
224.0772431118315
 20
176.6047199096693
 30
0.0
 10
224.0772431118315
 20
177.053216803852
 30
0.0
 10
224.0772431118315
 20
178.2701167137902
 30
0.0
 10
224.0772431118315
 20
179.7590115960446
 30
0.0
 10
224.0772431118315
 20
180.6991639523096
 30
0.0
  0
LINE
  5
79
330
1F
100
AcDbEntity
  8
0
  6
SLD-Сплошная
 62
     7
370
    25
100
AcDbLine
 10
66.6375266378
 20
176.8259168871
 30
0.0
 11
63.3375266378
 21
176.8259168871
 31
0.0
  0
SPLINE
  5
7A
330
1F
100
AcDbEntity
  8
0
  6
SLD-Сплошная
 62
     7
370
    25
100
AcDbSpline
210
0.0
220
0.0
230
1.0
 70
     8
 71
     3
 72
    10
 73
     6
 74
     0
 42
0.00000001
 43
0.00000001
 40
0.0
 40
0.0
 40
0.0
 40
0.0
 40
0.4126828764170322
 40
0.8236051942328632
 40
0.9999999999999999
 40
0.9999999999999999
 40
0.9999999999999999
 40
0.9999999999999999
 10
131.5030246715336
 20
138.7027611435403
 30
0.0
 10
131.4831963104235
 20
139.0894147968725
 30
0.0
 10
131.4436241785601
 20
139.8610725889728
 30
0.0
 10
131.3022203651904
 20
140.9635840674863
 30
0.0
 10
131.1628212256552
 20
141.5966751966772
 30
0.0
 10
131.1209540926276
 20
141.7868177657976
 30
0.0
  0
ARC
  5
7B
330
1F
100
AcDbEntity
  8
0
  6
SLD-Сплошная
 62
     7
370
    25
100
AcDbCircle
 10
90.8812268441
 20
-7.5224942465
 30
0.0
 40
180.0
100
AcDbArc
 50
76.9460555375
 51
85.7127270637
  0
ARC
  5
7C
330
1F
100
AcDbEntity
  8
0
  6
SLD-Сплошная
 62
     7
370
    25
100
AcDbCircle
 10
90.8812268441
 20
309.1743280207
 30
0.0
 40
180.0
100
AcDbArc
 50
275.8109444722
 51
281.4932943591
  0
ARC
  5
7D
330
1F
100
AcDbEntity
  8
0
  6
SLD-Сплошная
 62
     7
370
    25
100
AcDbCircle
 10
90.8812268441
 20
309.1743280207
 30
0.0
 40
180.0
100
AcDbArc
 50
270.2407384096
 51
273.8813545568
  0
LINE
  5
7E
330
1F
100
AcDbEntity
  8
0
  6
SLD-Сплошная
 62
     7
370
    25
100
AcDbLine
 10
63.3375266378
 20
172.4509168871
 30
0.0
 11
58.5125266378
 21
172.4509168871
 31
0.0
  0
LINE
  5
7F
330
1F
100
AcDbEntity
  8
0
  6
SLD-Сплошная
 62
     7
370
    25
100
AcDbLine
 10
58.5125266378
 20
129.2009168871
 30
0.0
 11
63.3375266378
 21
129.2009168871
 31
0.0
  0
LINE
  5
80
330
1F
100
AcDbEntity
  8
0
  6
SLD-Сплошная
 62
     7
370
    25
100
AcDbLine
 10
39.6625266378
 20
172.4509168871
 30
0.0
 11
26.5375266378
 21
172.4509168871
 31
0.0
  0
LINE
  5
81
330
1F
100
AcDbEntity
  8
0
  6
SLD-Сплошная
 62
     7
370
    25
100
AcDbLine
 10
38.8375266378
 20
129.2009168871
 30
0.0
 11
39.6625266378
 21
129.2009168871
 31
0.0
  0
LINE
  5
82
330
1F
100
AcDbEntity
  8
0
  6
SLD-Сплошная
 62
     7
370
    25
100
AcDbLine
 10
84.6686155511
 20
129.1759168871
 30
0.0
 11
91.6375266378
 21
129.1759168871
 31
0.0
  0
LINE
  5
83
330
1F
100
AcDbEntity
  8
0
  6
SLD-Сплошная
 62
     7
370
    25
100
AcDbLine
 10
66.6375266378
 20
129.1759168871
 30
0.0
 11
78.6064377246
 21
129.1759168871
 31
0.0
  0
LINE
  5
84
330
1F
100
AcDbEntity
  8
0
  6
SLD-Сплошная
 62
     7
370
    25
100
AcDbLine
 10
91.6375266378
 20
172.4759168871
 30
0.0
 11
66.6375266378
 21
172.4759168871
 31
0.0
  0
LINE
  5
85
330
1F
100
AcDbEntity
  8
0
  6
SLD-Сплошная
 62
     7
370
    25
100
AcDbLine
 10
58.5125266378
 20
171.6259168871
 30
0.0
 11
39.6625266378
 21
171.6259168871
 31
0.0
  0
LINE
  5
86
330
1F
100
AcDbEntity
  8
0
  6
SLD-Сплошная
 62
     7
370
    25
100
AcDbLine
 10
39.6625266378
 20
130.0259168871
 30
0.0
 11
58.5125266378
 21
130.0259168871
 31
0.0
  0
LINE
  5
87
330
1F
100
AcDbEntity
  8
0
  6
SLD-Сплошная
 62
     7
370
    25
100
AcDbLine
 10
140.2009488241
 20
170.4801397355
 30
0.0
 11
138.2009488241
 21
170.4801397355
 31
0.0
  0
LINE
  5
88
330
1F
100
AcDbEntity
  8
0
  6
SLD-Сплошная
 62
     7
370
    25
100
AcDbLine
 10
138.2009488241
 20
131.1716940387
 30
0.0
 11
140.2009488241
 21
131.1716940387
 31
0.0
  0
ARC
  5
89
330
1F
100
AcDbEntity
  8
0
  6
SLD-Сплошная
 62
     7
370
    25
100
AcDbCircle
 10
161.2105677673
 20
150.8259168871
 30
0.0
 40
15.00000000000006
100
AcDbArc
 50
309.5869195216
 51
330.0
  0
ARC
  5
8A
330
1F
100
AcDbEntity
  8
0
  6
SLD-Сплошная
 62
     7
370
    25
100
AcDbCircle
 10
161.2105677673
 20
150.8259168871
 30
0.0
 40
15.00000000000002
100
AcDbArc
 50
30.0
 51
50.4130804784
  0
ARC
  5
8B
330
1F
100
AcDbEntity
  8
0
  6
SLD-Сплошная
 62
     7
370
    25
100
AcDbCircle
 10
129.0287983647
 20
133.8259168871
 30
0.0
 40
2.508728273149246
100
AcDbArc
 50
204.5472388216
 51
360.0
  0
LINE
  5
8C
330
1F
100
AcDbEntity
  8
0
  6
SLD-Сплошная
 62
     7
370
    25
100
AcDbLine
 10
131.5375266378
 20
139.8259168871
 30
0.0
 11
138.2009488241
 21
139.8259168871
 31
0.0
  0
LINE
  5
8D
330
1F
100
AcDbEntity
  8
0
  6
SLD-Сплошная
 62
     7
370
    25
100
AcDbLine
 10
138.2009488241
 20
161.8259168871
 30
0.0
 11
131.5375266378
 21
161.8259168871
 31
0.0
  0
LINE
  5
8E
330
1F
100
AcDbEntity
  8
0
  6
SLD-Сплошная
 62
     7
370
    25
100
AcDbLine
 10
63.3375266378
 20
121.2068416218
 30
0.0
 11
66.6375266378
 21
121.2068416218
 31
0.0
  0
LINE
  5
8F
330
1F
100
AcDbEntity
  8
0
  6
SLD-Сплошная
 62
     7
370
    25
100
AcDbLine
 10
26.5375266378
 20
145.5759168871
 30
0.0
 11
25.1375266378
 21
145.5759168871
 31
0.0
  0
LINE
  5
90
330
1F
100
AcDbEntity
  8
0
  6
SLD-Сплошная
 62
     7
370
    25
100
AcDbLine
 10
25.1375266378
 20
138.5759168871
 30
0.0
 11
26.5375266378
 21
138.5759168871
 31
0.0
  0
LINE
  5
91
330
1F
100
AcDbEntity
  8
0
  6
SLD-Сплошная
 62
     7
370
    25
100
AcDbLine
 10
170.69906672
 20
137.457357218
 30
0.0
 11
170.7692887717
 21
139.2660357129
 31
0.0
  0
LINE
  5
92
330
1F
100
AcDbEntity
  8
0
  6
SLD-Сплошная
 62
     7
370
    25
100
AcDbLine
 10
170.7692887717
 20
162.3857980613
 30
0.0
 11
170.69906672
 21
164.1944765562
 31
0.0
  0
LINE
  5
93
330
1F
100
AcDbEntity
  8
0
  6
SLD-Сплошная
 62
     7
370
    25
100
AcDbLine
 10
26.5375266378
 20
125.7009168871
 30
0.0
 11
38.8375266378
 21
125.7009168871
 31
0.0
  0
LINE
  5
94
330
1F
100
AcDbEntity
  8
0
  6
SLD-Сплошная
 62
     7
370
    25
100
AcDbLine
 10
104.3375266378
 20
180.8259168871
 30
0.0
 11
101.0375266378
 21
180.8259168871
 31
0.0
  0
ARC
  5
95
330
1F
100
AcDbEntity
  8
0
  6
SLD-Сплошная
 62
     7
370
    25
100
AcDbCircle
 10
84.4300116886
 20
190.0557840156
 30
0.0
 40
19.0
100
AcDbArc
 50
292.2932174125
 51
330.9362488755
  0
ARC
  5
96
330
1F
100
AcDbEntity
  8
0
  6
SLD-Сплошная
 62
     7
370
    25
100
AcDbCircle
 10
161.2105677673
 20
150.8259168871
 30
0.0
 40
17.50000000000004
100
AcDbArc
 50
270.0
 51
297.7766046258
  0
ARC
  5
97
330
1F
100
AcDbEntity
  8
0
  6
SLD-Сплошная
 62
     7
370
    25
100
AcDbCircle
 10
168.2009488241
 20
137.5543467961
 30
0.0
 40
2.500000000000023
100
AcDbArc
 50
297.7766046258
 51
357.7766046258
  0
LINE
  5
98
330
1F
100
AcDbEntity
  8
0
  6
SLD-Сплошная
 62
     7
370
    25
100
AcDbLine
 10
149.2009488241
 20
133.3259168871
 30
0.0
 11
161.2105677673
 21
133.3259168871
 31
0.0
  0
ARC
  5
99
330
1F
100
AcDbEntity
  8
0
  6
SLD-Сплошная
 62
     7
370
    25
100
AcDbCircle
 10
168.2009488241
 20
164.0974869781
 30
0.0
 40
2.500000000000021
100
AcDbArc
 50
2.2233953742
 51
62.2233953742
  0
ARC
  5
9A
330
1F
100
AcDbEntity
  8
0
  6
SLD-Сплошная
 62
     7
370
    25
100
AcDbCircle
 10
161.2105677673
 20
150.8259168871
 30
0.0
 40
17.49999999999998
100
AcDbArc
 50
62.2233953742
 51
90.0
  0
LINE
  5
9B
330
1F
100
AcDbEntity
  8
0
  6
SLD-Сплошная
 62
     7
370
    25
100
AcDbLine
 10
161.2105677673
 20
168.3259168871
 30
0.0
 11
149.2009488241
 21
168.3259168871
 31
0.0
  0
LINE
  5
9C
330
1F
100
AcDbEntity
  8
0
  6
SLD-Сплошная
 62
     7
370
    25
100
AcDbLine
 10
63.3375266378
 20
176.8259168871
 30
0.0
 11
63.3375266378
 21
125.7569780348
 31
0.0
  0
LINE
  5
9D
330
1F
100
AcDbEntity
  8
0
  6
SLD-Сплошная
 62
     7
370
    25
100
AcDbLine
 10
66.6375266378
 20
125.7569780348
 30
0.0
 11
63.3375266378
 21
125.7569780348
 31
0.0
  0
LINE
  5
9E
330
1F
100
AcDbEntity
  8
0
  6
SLD-Сплошная
 62
     7
370
    25
100
AcDbLine
 10
66.6375266378
 20
125.7569780348
 30
0.0
 11
66.6375266378
 21
176.8259168871
 31
0.0
  0
LINE
  5
9F
330
1F
100
AcDbEntity
  8
0
  6
SLD-Сплошная
 62
     7
370
    25
100
AcDbLine
 10
91.6375266378
 20
153.3102049191
 30
0.0
 11
91.5428476828
 21
153.3058666419
 31
0.0
  0
SPLINE
  5
A0
330
1F
100
AcDbEntity
  8
0
  6
SLD-Сплошная
 62
     7
370
    25
100
AcDbSpline
210
0.0
220
0.0
230
1.0
 70
     8
 71
     3
 72
     8
 73
     4
 74
     0
 42
0.00000001
 43
0.00000001
 40
0.0
 40
0.0
 40
0.0
 40
0.0
 40
1.0
 40
1.0
 40
1.0
 40
1.0
 10
114.5567355526449
 20
154.3667741436661
 30
0.0
 10
106.9652446053169
 20
154.0172367690587
 30
0.0
 10
99.30570087595714
 20
153.6640162424809
 30
0.0
 10
91.63752663781902
 20
153.3102049191093
 30
0.0
  0
SPLINE
  5
A1
330
1F
100
AcDbEntity
  8
0
  6
SLD-Сплошная
 62
     7
370
    25
100
AcDbSpline
210
0.0
220
0.0
230
1.0
 70
     8
 71
     3
 72
     8
 73
     4
 74
     0
 42
0.00000001
 43
0.00000001
 40
0.0
 40
0.0
 40
0.0
 40
0.0
 40
1.0
 40
1.0
 40
1.0
 40
1.0
 10
91.77181477344593
 20
148.3091261634222
 30
0.0
 10
99.47661517100295
 20
148.6655480215009
 30
0.0
 10
107.1771615139848
 20
149.0224754619958
 30
0.0
 10
114.8165562973656
 20
149.3785070923584
 30
0.0
  0
SPLINE
  5
A2
330
1F
100
AcDbEntity
  8
0
  6
SLD-Сплошная
 62
     7
370
    25
100
AcDbSpline
210
0.0
220
0.0
230
1.0
 70
     8
 71
     3
 72
    14
 73
    10
 74
     0
 42
0.00000001
 43
0.00000001
 40
0.0
 40
0.0
 40
0.0
 40
0.0
 40
0.0050149731967852
 40
0.0050149731967852
 40
0.0050149731967852
 40
0.0095729506542099
 40
0.0095729506542099
 40
0.0095729506542099
 40
0.0145733584065001
 40
0.0145733584065001
 40
0.0145733584065001
 40
0.0145733584065001
 10
81.15375230825182
 20
152.9982997380777
 30
0.0
 10
79.48863093941269
 20
153.1452378434522
 30
0.0
 10
77.82351358656567
 20
153.2920771086912
 30
0.0
 10
76.15840281698448
 20
153.4387996574585
 30
0.0
 10
74.64502725365382
 20
153.5721519388504
 30
0.0
 10
73.13165577335324
 20
153.7054048042613
 30
0.0
 10
71.61829045840996
 20
153.8385463537093
 30
0.0
 10
69.9580270667453
 20
153.9846115755531
 30
0.0
 10
68.29777044891117
 20
154.1305503239667
 30
0.0
 10
66.63752663781905
 20
154.2763826504886
 30
0.0
  0
SPLINE
  5
A3
330
1F
100
AcDbEntity
  8
0
  6
SLD-Сплошная
 62
     7
370
    25
100
AcDbSpline
210
0.0
220
0.0
230
1.0
 70
     8
 71
     3
 72
    14
 73
    10
 74
     0
 42
0.00000001
 43
0.00000001
 40
0.0
 40
0.0
 40
0.0
 40
0.0
 40
0.0050149732590376
 40
0.0050149732590376
 40
0.0050149732590376
 40
0.0095720313907636
 40
0.0095720313907636
 40
0.0095720313907636
 40
0.0141355433108355
 40
0.0141355433108355
 40
0.0141355433108355
 40
0.0141355433108355
 10
66.63752663781902
 20
149.2625747363601
 30
0.0
 10
68.30256073355034
 20
149.1142984318842
 30
0.0
 10
69.96761096306892
 20
148.9663050595601
 30
0.0
 10
71.63266702543991
 20
148.8185262464677
 30
0.0
 10
73.14568762329439
 20
148.6842410453934
 30
0.0
 10
74.6587138825206
 20
148.5501300810406
 30
0.0
 10
76.17174540884662
 20
148.416223778945
 30
0.0
 10
77.68691971761925
 20
148.2821278363372
 30
0.0
 10
79.20210071759027
 20
148.1482411117329
 30
0.0
 10
80.71728599173557
 20
148.014571389637
 30
0.0
  0
SPLINE
  5
A4
330
1F
100
AcDbEntity
  8
0
  6
SLD-Сплошная
 62
     7
370
    25
100
AcDbSpline
210
0.0
220
0.0
230
1.0
 70
     8
 71
     3
 72
     8
 73
     4
 74
     0
 42
0.00000001
 43
0.00000001
 40
0.0
 40
0.0
 40
0.0
 40
0.0
 40
0.0001344299261662
 40
0.0001344299261662
 40
0.0001344299261662
 40
0.0001344299261662
 10
91.63752663781902
 20
148.302954396219
 30
0.0
 10
91.68228927260294
 20
148.3050129636567
 30
0.0
 10
91.7270519910894
 20
148.3070702211894
 30
0.0
 10
91.77181477344587
 20
148.3091261634222
 30
0.0
  0
SPLINE
  5
A5
330
1F
100
AcDbEntity
  8
0
  6
SLD-Сплошная
 62
     7
370
    25
100
AcDbSpline
210
0.0
220
0.0
230
1.0
 70
     8
 71
     3
 72
    14
 73
    10
 74
     0
 42
0.00000001
 43
0.00000001
 40
0.0
 40
0.0
 40
0.0
 40
0.0
 40
0.002508684302751
 40
0.002508684302751
 40
0.002508684302751
 40
0.0050832577561484
 40
0.0050832577561484
 40
0.0050832577561484
 40
0.0076578313811252
 40
0.0076578313811252
 40
0.0076578313811252
 40
0.0076578313811252
 10
83.98800486344327
 20
147.9490938954559
 30
0.0
 10
84.82332604336312
 20
147.9876840000954
 30
0.0
 10
85.65864709770388
 20
148.026290872094
 30
0.0
 10
86.49396798770942
 20
148.0649144986329
 30
0.0
 10
87.35122810019222
 20
148.1045525524964
 30
0.0
 10
88.20848805365628
 20
148.1442082537198
 30
0.0
 10
89.06574780666313
 20
148.1838815787683
 30
0.0
 10
89.92300761679523
 20
148.2235549064606
 30
0.0
 10
90.78026724073304
 20
148.263245859112
 30
0.0
 10
91.63752663781902
 20
148.3029543962199
 30
0.0
  0
SPLINE
  5
A6
330
1F
100
AcDbEntity
  8
0
  6
SLD-Сплошная
 62
     7
370
    25
100
AcDbSpline
210
0.0
220
0.0
230
1.0
 70
     8
 71
     3
 72
    14
 73
    10
 74
     0
 42
0.00000001
 43
0.00000001
 40
0.0
 40
0.0
 40
0.0
 40
0.0
 40
0.0025086844972278
 40
0.0025086844972278
 40
0.0025086844972278
 40
0.0051502767466552
 40
0.0051502767466552
 40
0.0051502767466552
 40
0.0077918691788335
 40
0.0077918691788335
 40
0.0077918691788335
 40
0.0077918691788335
 10
91.54284768279153
 20
153.3058666418769
 30
0.0
 10
90.70752160037965
 20
153.2672907922264
 30
0.0
 10
89.87219532708434
 20
153.2287069151766
 30
0.0
 10
89.03686890086847
 20
153.1901150445422
 30
0.0
 10
88.15728766464228
 20
153.1494786128245
 30
0.0
 10
87.27770624400961
 20
153.1088333176326
 30
0.0
 10
86.39812468353087
 20
153.0681791908294
 30
0.0
 10
85.5185430621962
 20
153.0275250612135
 30
0.0
 10
84.638961285795
 20
152.9868620994549
 30
0.0
 10
83.75937939926182
 20
152.9461903271012
 30
0.0
  0
SPLINE
  5
A7
330
1F
100
AcDbEntity
  8
0
  6
SLD-Сплошная
 62
     7
370
    25
100
AcDbSpline
210
0.0
220
0.0
230
1.0
 70
     8
 71
     3
 72
     8
 73
     4
 74
     0
 42
0.00000001
 43
0.00000001
 40
0.0
 40
0.0
 40
0.0
 40
0.0
 40
1.0
 40
1.0
 40
1.0
 40
1.0
 10
80.71728599173557
 20
148.014571389637
 30
0.0
 10
81.80448359716391
 20
147.9186587614846
 30
0.0
 10
82.8977068917528
 20
147.898724392291
 30
0.0
 10
83.98800486344327
 20
147.949093895456
 30
0.0
  0
SPLINE
  5
A8
330
1F
100
AcDbEntity
  8
0
  6
SLD-Сплошная
 62
     7
370
    25
100
AcDbSpline
210
0.0
220
0.0
230
1.0
 70
     8
 71
     3
 72
     8
 73
     4
 74
     0
 42
0.00000001
 43
0.00000001
 40
0.0
 40
0.0
 40
0.0
 40
0.0
 40
1.0
 40
1.0
 40
1.0
 40
1.0
 10
83.75937939926182
 20
152.9461903271012
 30
0.0
 10
82.89075765318695
 20
152.9060253504701
 30
0.0
 10
82.01994013018405
 20
152.9218632693403
 30
0.0
 10
81.15375230825182
 20
152.9982997380777
 30
0.0
  0
SPLINE
  5
A9
330
1F
100
AcDbEntity
  8
0
  6
SLD-Сплошная
 62
     7
370
    25
100
AcDbSpline
210
0.0
220
0.0
230
1.0
 70
     8
 71
     3
 72
    34
 73
    30
 74
     0
 42
0.00000001
 43
0.00000001
 40
0.0
 40
0.0
 40
0.0
 40
0.0
 40
0.0624999999999998
 40
0.0624999999999998
 40
0.1249999999999996
 40
0.1249999999999996
 40
0.1874999999999994
 40
0.1874999999999994
 40
0.2499999999999992
 40
0.2499999999999992
 40
0.3749999999999987
 40
0.3749999999999987
 40
0.4374999999999988
 40
0.4374999999999988
 40
0.4999999999999989
 40
0.4999999999999989
 40
0.5624999999999989
 40
0.5624999999999989
 40
0.6249999999999989
 40
0.6249999999999989
 40
0.687499999999999
 40
0.687499999999999
 40
0.7499999999999991
 40
0.7499999999999991
 40
0.8124999999999992
 40
0.8124999999999992
 40
0.8749999999999993
 40
0.8749999999999993
 40
1.0
 40
1.0
 40
1.0
 40
1.0
 10
114.8165562973656
 20
149.3785070923585
 30
0.0
 10
115.230270972649
 20
149.3977881368031
 30
0.0
 10
115.6403670880103
 20
149.3916011137368
 30
0.0
 10
116.4545773830958
 20
149.3377573673211
 30
0.0
 10
116.858701601526
 20
149.2901788292015
 30
0.0
 10
117.6607728020072
 20
149.1531195434228
 30
0.0
 10
118.0585840898299
 20
149.0626226195087
 30
0.0
 10
118.847385234217
 20
148.8370761912874
 30
0.0
 10
119.2344817070439
 20
148.7030614540156
 30
0.0
 10
120.3591456686137
 20
148.2429199549891
 30
0.0
 10
121.0684686865329
 20
147.8614845149017
 30
0.0
 10
122.0697868354893
 20
147.1826218217478
 30
0.0
 10
122.3917068210648
 20
146.9387052920603
 30
0.0
 10
122.9981929357622
 20
146.4265647843087
 30
0.0
 10
123.2843246031613
 20
146.1567179556727
 30
0.0
 10
123.8230921979376
 20
145.5918572363721
 30
0.0
 10
124.0761494459429
 20
145.2972531761811
 30
0.0
 10
124.5519642721494
 20
144.6876978721684
 30
0.0
 10
124.7747057379665
 20
144.3709279025108
 30
0.0
 10
125.174522335401
 20
143.7304723450319
 30
0.0
 10
125.3530365749895
 20
143.4051919268283
 30
0.0
 10
125.6678271426352
 20
142.7462760592274
 30
0.0
 10
125.8034569823954
 20
142.4123613483465
 30
0.0
 10
126.0473507862268
 20
141.7446814627759
 30
0.0
 10
126.1561955190536
 20
141.4099648281091
 30
0.0
 10
126.3544190329992
 20
140.7541914703611
 30
0.0
 10
126.4458841135713
 20
140.4328786356229
 30
0.0
 10
126.6734620993471
 20
139.4830951728923
 30
0.0
 10
126.7468113153938
 20
138.8648218589953
 30
0.0
 10
126.7468113153938
 20
138.2658589192755
 30
0.0
  0
SPLINE
  5
AA
330
1F
100
AcDbEntity
  8
0
  6
SLD-Сплошная
 62
     7
370
    25
100
AcDbSpline
210
0.0
220
0.0
230
1.0
 70
     8
 71
     3
 72
    17
 73
    13
 74
     0
 42
0.00000001
 43
0.00000001
 40
0.0
 40
0.0
 40
0.0
 40
0.0
 40
0.0393138189555903
 40
0.1352403123216235
 40
0.2336354814308172
 40
0.3363069902619339
 40
0.4417695394276582
 40
0.5478710283397714
 40
0.6565191619554602
 40
0.7734058377171776
 40
0.8938544974334856
 40
1.0
 40
1.0
 40
1.0
 40
1.0
 10
131.1083884676079
 20
141.7844210344876
 30
0.0
 10
131.058658049179
 20
142.0300402678652
 30
0.0
 10
130.8875844292946
 20
142.8749752733324
 30
0.0
 10
130.330072607155
 20
144.4227114800257
 30
0.0
 10
129.3746016130814
 20
146.3516215914322
 30
0.0
 10
128.0891115146859
 20
148.2720045753193
 30
0.0
 10
126.4588502167144
 20
150.0510763322627
 30
0.0
 10
124.5157860269734
 20
151.593972864897
 30
0.0
 10
122.2826058043095
 20
152.8858274100939
 30
0.0
 10
119.7629195718825
 20
153.8419815116867
 30
0.0
 10
117.1329711609486
 20
154.3574074516036
 30
0.0
 10
115.3785667085336
 20
154.36378612528
 30
0.0
 10
114.5567355526449
 20
154.3667741436661
 30
0.0
  0
LINE
  5
AB
330
1F
100
AcDbEntity
  8
0
  6
SLD-Сплошная
 62
     7
370
    25
100
AcDbLine
 10
131.5030356686
 20
138.70280683
 30
0.0
 11
131.5375266378
 21
138.9914079183
 31
0.0
  0
SPLINE
  5
AC
330
1F
100
AcDbEntity
  8
0
  6
SLD-Сплошная
 62
     7
370
    25
100
AcDbSpline
210
0.0
220
0.0
230
1.0
 70
     8
 71
     3
 72
    26
 73
    22
 74
     0
 42
0.00000001
 43
0.00000001
 40
0.0
 40
0.0
 40
0.0
 40
0.0
 40
0.1249999999999999
 40
0.1249999999999999
 40
0.2499999999999998
 40
0.2499999999999998
 40
0.3124999999999998
 40
0.3124999999999998
 40
0.3749999999999997
 40
0.3749999999999997
 40
0.4999999999999998
 40
0.4999999999999998
 40
0.6249999999999999
 40
0.6249999999999999
 40
0.75
 40
0.75
 40
0.8125
 40
0.8125
 40
0.875
 40
0.875
 40
1.0
 40
1.0
 40
1.0
 40
1.0
 10
82.64753308254393
 20
141.7624032186697
 30
0.0
 10
82.35115414928148
 20
140.8451092969197
 30
0.0
 10
82.06709342436983
 20
139.9644105603981
 30
0.0
 10
81.52129657232162
 20
138.2753234253944
 30
0.0
 10
81.25966717607304
 20
137.4668836196643
 30
0.0
 10
80.88746997495046
 20
136.310098629513
 30
0.0
 10
80.76649108999086
 20
135.9327854398923
 30
0.0
 10
80.53419730859207
 20
135.2077611231354
 30
0.0
 10
80.4225360793459
 20
134.8589790206255
 30
0.0
 10
80.1004530399051
 20
133.8535027489975
 30
0.0
 10
79.90265764016165
 20
133.2374850209276
 30
0.0
 10
79.5443102848612
 20
132.116704176064
 30
0.0
 10
79.38323064488594
 20
131.6095435737757
 30
0.0
 10
79.10611519749772
 20
130.7415564299074
 30
0.0
 10
78.98867988704811
 20
130.3766474564964
 30
0.0
 10
78.84701536313108
 20
129.9328714696233
 30
0.0
 10
78.80567136649384
 20
129.8022749281664
 30
0.0
 10
78.73465273754103
 20
129.5765872619423
 30
0.0
 10
78.70496643843003
 20
129.4812787964778
 30
0.0
 10
78.63354212609164
 20
129.2524626771946
 30
0.0
 10
78.60913611353665
 20
129.1759168871023
 30
0.0
 10
78.60643772457347
 20
129.1759168871023
 30
0.0
  0
SPLINE
  5
AD
330
1F
100
AcDbEntity
  8
0
  6
SLD-Сплошная
 62
     7
370
    25
100
AcDbSpline
210
0.0
220
0.0
230
1.0
 70
     8
 71
     3
 72
    26
 73
    22
 74
     0
 42
0.00000001
 43
0.00000001
 40
0.0
 40
0.0
 40
0.0
 40
0.0
 40
0.2499999999999999
 40
0.2499999999999999
 40
0.3124999999999999
 40
0.3124999999999999
 40
0.3749999999999999
 40
0.3749999999999999
 40
0.4999999999999998
 40
0.4999999999999998
 40
0.5624999999999999
 40
0.5624999999999999
 40
0.6249999999999999
 40
0.6249999999999999
 40
0.7499999999999998
 40
0.7499999999999998
 40
0.8749999999999998
 40
0.8749999999999998
 40
0.9374999999999999
 40
0.9374999999999999
 40
1.0
 40
1.0
 40
1.0
 40
1.0
 10
84.66861555106458
 20
129.1759168871023
 30
0.0
 10
84.66986936220488
 20
129.1759168871023
 30
0.0
 10
84.75971847224862
 20
129.4341869871193
 30
0.0
 10
84.98272078475851
 20
130.0683200876865
 30
0.0
 10
85.03303553305211
 20
130.2115486546966
 30
0.0
 10
85.14405286745394
 20
130.5275955696283
 30
0.0
 10
85.20454858857958
 20
130.6998247586361
 30
0.0
 10
85.4005145011841
 20
131.2577985053263
 30
0.0
 10
85.55045783101538
 20
131.6846478484435
 30
0.0
 10
85.80265985314335
 20
132.4054269065822
 30
0.0
 10
85.89130678100521
 20
132.6591486200638
 30
0.0
 10
86.07796428656611
 20
133.1937240574013
 30
0.0
 10
86.1763138073713
 20
133.4755469453223
 30
0.0
 10
86.48164468558633
 20
134.3507397691891
 30
0.0
 10
86.69965872010201
 20
134.9757619998944
 30
0.0
 10
87.16208988328131
 20
136.3052610408562
 30
0.0
 10
87.40666450430473
 20
137.0097310115464
 30
0.0
 10
87.79375415070989
 20
138.1262018605656
 30
0.0
 10
87.92637603576951
 20
138.5089978303616
 30
0.0
 10
88.19606151494527
 20
139.2884063407861
 30
0.0
 10
88.33334009659796
 20
139.6856330826439
 30
0.0
 10
88.47289249994378
 20
140.0903769862923
 30
0.0
  0
ARC
  5
AE
330
1F
100
AcDbEntity
  8
0
  6
SLD-Сплошная
 62
     7
370
    25
100
AcDbCircle
 10
81.6375266378
 20
130.9259168871
 30
0.0
 40
3.500000000000016
100
AcDbArc
 50
210.0
 51
330.0
  0
LINE
  5
AF
330
1F
100
AcDbEntity
  8
0
  6
SLD-Сплошная
 62
     7
370
    25
100
AcDbLine
 10
131.5375266378
 20
167.8259168871
 30
0.0
 11
131.5375266378
 21
138.9914079183
 31
0.0
  0
SPLINE
  5
B0
330
1F
100
AcDbEntity
  8
0
  6
SLD-Сплошная
 62
     7
370
    25
100
AcDbSpline
210
0.0
220
0.0
230
1.0
 70
     8
 71
     3
 72
     8
 73
     4
 74
     0
 42
0.00000001
 43
0.00000001
 40
0.0
 40
0.0
 40
0.0
 40
0.0
 40
1.0
 40
1.0
 40
1.0
 40
1.0
 10
91.63958898525475
 20
172.3005443408659
 30
0.0
 10
91.63821688573306
 20
172.4172445635914
 30
0.0
 10
91.63752663781912
 20
172.4759168871023
 30
0.0
 10
91.63752663781912
 20
172.4759168871023
 30
0.0
  0
SPLINE
  5
B1
330
1F
100
AcDbEntity
  8
0
  6
SLD-Сплошная
 62
     7
370
    25
100
AcDbSpline
210
0.0
220
0.0
230
1.0
 70
     8
 71
     3
 72
    15
 73
    11
 74
     0
 42
0.00000001
 43
0.00000001
 40
0.0
 40
0.0
 40
0.0
 40
0.0
 40
0.5000000000000001
 40
0.5000000000000001
 40
0.5624999999999999
 40
0.5624999999999999
 40
0.6249999999999997
 40
0.6249999999999997
 40
0.7499999999999992
 40
1.0
 40
1.0
 40
1.0
 40
1.0
 10
91.63958898525462
 20
172.300544340866
 30
0.0
 10
93.74742041886813
 20
172.2915911888483
 30
0.0
 10
95.85671228374551
 20
172.2453171764024
 30
0.0
 10
98.23131980410274
 20
172.1509870590928
 30
0.0
 10
98.4951880668837
 20
172.1399186182422
 30
0.0
 10
99.02297061080539
 20
172.1166057518665
 30
0.0
 10
99.28940507989707
 20
172.1042459464686
 30
0.0
 10
100.0881278980528
 20
172.0653888590238
 30
0.0
 10
101.6844085617918
 20
171.980556435265
 30
0.0
 10
103.2772043486462
 20
171.8744306166851
 30
0.0
 10
104.337526637819
 20
171.7942607334395
 30
0.0
  0
SPLINE
  5
B2
330
1F
100
AcDbEntity
  8
0
  6
SLD-Сплошная
 62
     7
370
    25
100
AcDbSpline
210
0.0
220
0.0
230
1.0
 70
     8
 71
     3
 72
    22
 73
    18
 74
     0
 42
0.00000001
 43
0.00000001
 40
0.0
 40
0.0
 40
0.0
 40
0.0
 40
0.2499999999999998
 40
0.2499999999999998
 40
0.3749999999999998
 40
0.3749999999999998
 40
0.4999999999999999
 40
0.4999999999999999
 40
0.5625000000000001
 40
0.5625000000000001
 40
0.6250000000000003
 40
0.6250000000000003
 40
0.7500000000000002
 40
0.7500000000000002
 40
0.8750000000000001
 40
0.8750000000000001
 40
1.0
 40
1.0
 40
1.0
 40
1.0
 10
109.1056190673121
 20
130.0992836172696
 30
0.0
 10
109.1064954948935
 20
130.0993728109373
 30
0.0
 10
109.1867526834524
 20
130.3258017802873
 30
0.0
 10
109.4252187410102
 20
130.992935054235
 30
0.0
 10
109.5251902702148
 20
131.2727405807367
 30
0.0
 10
109.7586183326703
 20
131.9268835661702
 30
0.0
 10
109.8924871454298
 20
132.302307863381
 30
0.0
 10
110.117898560162
 20
132.9361448524265
 30
0.0
 10
110.1971281226449
 20
133.1592454823108
 30
0.0
 10
110.3639022476535
 20
133.6292380295154
 30
0.0
 10
110.4517438470487
 20
133.8769642047322
 30
0.0
 10
110.7258172767736
 20
134.6502435123821
 30
0.0
 10
110.9215020723168
 20
135.2026516146753
 30
0.0
 10
111.3367164439109
 20
136.3775850939608
 30
0.0
 10
111.5564431404608
 20
137.0001097049899
 30
0.0
 10
112.0195454810804
 20
138.3151684987301
 30
0.0
 10
112.263446451715
 20
139.0092511525713
 30
0.0
 10
112.5147134319585
 20
139.7278678323002
 30
0.0
  0
SPLINE
  5
B3
330
1F
100
AcDbEntity
  8
0
  6
SLD-Сплошная
 62
     7
370
    25
100
AcDbSpline
210
0.0
220
0.0
230
1.0
 70
     8
 71
     3
 72
    28
 73
    24
 74
     0
 42
0.00000001
 43
0.00000001
 40
0.0
 40
0.0
 40
0.0
 40
0.0
 40
0.1250000000000045
 40
0.1250000000000045
 40
0.1875000000000056
 40
0.1875000000000056
 40
0.2500000000000067
 40
0.2500000000000067
 40
0.3750000000000088
 40
0.3750000000000088
 40
0.4375000000000085
 40
0.4375000000000085
 40
0.5000000000000081
 40
0.5000000000000081
 40
0.625000000000007
 40
0.625000000000007
 40
0.7500000000000059
 40
0.7500000000000059
 40
0.8125000000000043
 40
0.8125000000000043
 40
0.8750000000000027
 40
0.8750000000000027
 40
1.0
 40
1.0
 40
1.0
 40
1.0
 10
106.7557309801092
 20
141.0257193628773
 30
0.0
 10
106.982137691824
 20
141.220988725976
 30
0.0
 10
107.2344491301599
 20
141.3911463095578
 30
0.0
 10
107.6417283953053
 20
141.6009834387783
 30
0.0
 10
107.7830347705875
 20
141.6636165200481
 30
0.0
 10
108.0691786969683
 20
141.7710169736085
 30
0.0
 10
108.2148591161008
 20
141.8162691186121
 30
0.0
 10
108.6597141223903
 20
141.9266617488046
 30
0.0
 10
108.969824990854
 20
141.9660273467955
 30
0.0
 10
109.4251806327875
 20
141.9696738995829
 30
0.0
 10
109.5762630184195
 20
141.9619534317062
 30
0.0
 10
109.8769895160959
 20
141.9284401812901
 30
0.0
 10
110.0274702943961
 20
141.9023494506486
 30
0.0
 10
110.4642733447906
 20
141.7988403675226
 30
0.0
 10
110.7396276308454
 20
141.6966127878016
 30
0.0
 10
111.2576060998712
 20
141.4260168930734
 30
0.0
 10
111.4901824860057
 20
141.2626639406498
 30
0.0
 10
111.7970434533917
 20
140.9806625904916
 30
0.0
 10
111.8930503276313
 20
140.8794864525603
 30
0.0
 10
112.0663664857097
 20
140.6692083824605
 30
0.0
 10
112.1439663180031
 20
140.5600690888641
 30
0.0
 10
112.3501238458398
 20
140.2213276488949
 30
0.0
 10
112.4543555956426
 20
139.9783827568649
 30
0.0
 10
112.5147134319566
 20
139.7278678323005
 30
0.0
  0
SPLINE
  5
B4
330
1F
100
AcDbEntity
  8
0
  6
SLD-Сплошная
 62
     7
370
    25
100
AcDbSpline
210
0.0
220
0.0
230
1.0
 70
     8
 71
     3
 72
    28
 73
    24
 74
     0
 42
0.00000001
 43
0.00000001
 40
0.0
 40
0.0
 40
0.0
 40
0.0
 40
0.1249999999999998
 40
0.1249999999999998
 40
0.2499999999999996
 40
0.2499999999999996
 40
0.3124999999999996
 40
0.3124999999999996
 40
0.3749999999999997
 40
0.3749999999999997
 40
0.4999999999999999
 40
0.4999999999999999
 40
0.5625
 40
0.5625
 40
0.6250000000000001
 40
0.6250000000000001
 40
0.75
 40
0.75
 40
0.875
 40
0.875
 40
0.9375
 40
0.9375
 40
1.0
 40
1.0
 40
1.0
 40
1.0
 10
106.7557309801074
 20
141.0257193628778
 30
0.0
 10
106.484853047912
 20
140.183432749859
 30
0.0
 10
106.22447268359
 20
139.3770227303185
 30
0.0
 10
105.7245695863413
 20
137.8341325534721
 30
0.0
 10
105.4851338908251
 20
137.0976236859486
 30
0.0
 10
105.145307338643
 20
136.046554129509
 30
0.0
 10
105.0351230694213
 20
135.7043684662711
 30
0.0
 10
104.8220429036716
 20
135.042317210978
 30
0.0
 10
104.7198118128613
 20
134.7245259591956
 30
0.0
 10
104.4253153025292
 20
133.8101874960765
 30
0.0
 10
104.2449351205237
 20
133.2524939589083
 30
0.0
 10
104.0008753647117
 20
132.4942681538275
 30
0.0
 10
103.9238563671631
 20
132.2546305976547
 30
0.0
 10
103.7783539350303
 20
131.8022610748644
 30
0.0
 10
103.7096264824782
 20
131.5887741151177
 30
0.0
 10
103.5184809192489
 20
130.9961861915673
 30
0.0
 10
103.4114297823925
 20
130.6662622141199
 30
0.0
 10
103.2402312217636
 20
130.1336526798863
 30
0.0
 10
103.1753589232542
 20
129.9309317587598
 30
0.0
 10
103.1110526265912
 20
129.7256477662253
 30
0.0
 10
103.0949386688582
 20
129.6737049868187
 30
0.0
 10
103.0728566240931
 20
129.6046135588341
 30
0.0
 10
103.066822606346
 20
129.5872704167212
 30
0.0
 10
103.0651121649097
 20
129.5871543737885
 30
0.0
  0
LINE
  5
B5
330
1F
100
AcDbEntity
  8
0
  6
SLD-Сплошная
 62
     7
370
    25
100
AcDbLine
 10
126.7468113154
 20
132.7836824339
 30
0.0
 11
126.7468113154
 21
138.2658589193
 31
0.0
  0
LINE
  5
B6
330
1F
100
AcDbEntity
  8
0
  6
SLD-Сплошная
 62
     7
370
    25
100
AcDbLine
 10
58.5125266378
 20
172.4509168871
 30
0.0
 11
58.5125266378
 21
129.2009168871
 31
0.0
  0
LINE
  5
B7
330
1F
100
AcDbEntity
  8
0
  6
SLD-Сплошная
 62
     7
370
    25
100
AcDbLine
 10
39.6625266378
 20
172.4509168871
 30
0.0
 11
39.6625266378
 21
129.2009168871
 31
0.0
  0
LINE
  5
B8
330
1F
100
AcDbEntity
  8
0
  6
SLD-Сплошная
 62
     7
370
    25
100
AcDbLine
 10
38.8375266378
 20
129.4108511275
 30
0.0
 11
26.5375266378
 21
129.4108511275
 31
0.0
  0
LINE
  5
B9
330
1F
100
AcDbEntity
  8
0
  6
SLD-Сплошная
 62
     7
370
    25
100
AcDbLine
 10
26.5375266378
 20
172.4509168871
 30
0.0
 11
26.5375266378
 21
129.4108511275
 31
0.0
  0
SPLINE
  5
BA
330
1F
100
AcDbEntity
  8
0
  6
SLD-Сплошная
 62
     7
370
    25
100
AcDbSpline
210
0.0
220
0.0
230
1.0
 70
     8
 71
     3
 72
    28
 73
    24
 74
     0
 42
0.00000001
 43
0.00000001
 40
0.0
 40
0.0
 40
0.0
 40
0.0
 40
0.1249999999999984
 40
0.1249999999999984
 40
0.1874999999999979
 40
0.1874999999999979
 40
0.2499999999999973
 40
0.2499999999999973
 40
0.3749999999999972
 40
0.3749999999999972
 40
0.4374999999999971
 40
0.4374999999999971
 40
0.4999999999999971
 40
0.4999999999999971
 40
0.6249999999999968
 40
0.6249999999999968
 40
0.7499999999999966
 40
0.7499999999999966
 40
0.8124999999999972
 40
0.8124999999999972
 40
0.8749999999999978
 40
0.8749999999999978
 40
1.0
 40
1.0
 40
1.0
 40
1.0
 10
88.47289249994378
 20
140.0903769862923
 30
0.0
 10
88.41238804350868
 20
140.3571080770765
 30
0.0
 10
88.31120652145725
 20
140.6182059626801
 30
0.0
 10
88.10312783815696
 20
140.9898711124521
 30
0.0
 10
88.02396653206739
 20
141.1109008862821
 30
0.0
 10
87.85049963996228
 20
141.3407958671131
 30
0.0
 10
87.75577694936452
 20
141.4504935936431
 30
0.0
 10
87.44775674432745
 20
141.7634981279726
 30
0.0
 10
87.20804968608046
 20
141.9516249233307
 30
0.0
 10
86.82026116822217
 20
142.1831781438933
 30
0.0
 10
86.68560844962069
 20
142.2526725929997
 30
0.0
 10
86.40530876081617
 20
142.375746445341
 30
0.0
 10
86.25913868008156
 20
142.4293268671486
 30
0.0
 10
85.81681155493638
 20
142.5609167944347
 30
0.0
 10
85.51222044979444
 20
142.6123171930809
 30
0.0
 10
84.88757780056
 20
142.638955214552
 30
0.0
 10
84.58005929797152
 20
142.6138401464312
 30
0.0
 10
84.12581762201934
 20
142.5201209496515
 30
0.0
 10
83.9748504430994
 20
142.4790507240938
 30
0.0
 10
83.68387181272962
 20
142.3801701395523
 30
0.0
 10
83.54288931079844
 20
142.3222575743145
 30
0.0
 10
83.13327612040408
 20
142.1237410394639
 30
0.0
 10
82.87609370906803
 20
141.9566797252617
 30
0.0
 10
82.64753308254393
 20
141.7624032186697
 30
0.0
  0
LINE
  5
BB
330
1F
100
AcDbEntity
  8
0
  6
SLD-Сплошная
 62
     7
370
    25
100
AcDbLine
 10
40.7256790393
 20
163.7141885055
 30
0.0
 11
40.7256790393
 21
137.9376452687
 31
0.0
  0
LINE
  5
BC
330
1F
100
AcDbEntity
  8
0
  6
SLD-Сплошная
 62
     7
370
    25
100
AcDbLine
 10
40.7256790393
 20
137.9376452687
 30
0.0
 11
57.4625266378
 21
137.9376452687
 31
0.0
  0
LINE
  5
BD
330
1F
100
AcDbEntity
  8
0
  6
SLD-Сплошная
 62
     7
370
    25
100
AcDbLine
 10
57.4625266378
 20
163.7141885055
 30
0.0
 11
57.4625266378
 21
137.9376452687
 31
0.0
  0
LINE
  5
BE
330
1F
100
AcDbEntity
  8
0
  6
SLD-Сплошная
 62
     7
370
    25
100
AcDbLine
 10
57.4625266378
 20
163.7141885055
 30
0.0
 11
40.7256790393
 21
163.7141885055
 31
0.0
  0
LINE
  5
BF
330
1F
100
AcDbEntity
  8
0
  6
SLD-Сплошная
 62
     7
370
    25
100
AcDbLine
 10
50.2681378386
 20
151.6357770107
 30
0.0
 11
47.9200678386
 21
151.6357770107
 31
0.0
  0
LINE
  5
C0
330
1F
100
AcDbEntity
  8
0
  6
SLD-Сплошная
 62
     7
370
    25
100
AcDbLine
 10
50.2681378386
 20
151.6357770107
 30
0.0
 11
50.2681378386
 21
146.1325473567
 31
0.0
  0
LINE
  5
C1
330
1F
100
AcDbEntity
  8
0
  6
SLD-Сплошная
 62
     7
370
    25
100
AcDbLine
 10
51.0508373146
 20
146.1325473567
 30
0.0
 11
50.2681378386
 21
146.1325473567
 31
0.0
  0
LINE
  5
C2
330
1F
100
AcDbEntity
  8
0
  6
SLD-Сплошная
 62
     7
370
    25
100
AcDbLine
 10
51.0508373146
 20
151.6357770107
 30
0.0
 11
51.0508373146
 21
146.1325473567
 31
0.0
  0
LINE
  5
C3
330
1F
100
AcDbEntity
  8
0
  6
SLD-Сплошная
 62
     7
370
    25
100
AcDbLine
 10
53.3989073146
 20
151.6357770107
 30
0.0
 11
51.0508373146
 21
151.6357770107
 31
0.0
  0
LINE
  5
C4
330
1F
100
AcDbEntity
  8
0
  6
SLD-Сплошная
 62
     7
370
    25
100
AcDbLine
 10
53.3989073146
 20
151.6357770107
 30
0.0
 11
53.3989073146
 21
143.516983165
 31
0.0
  0
LINE
  5
C5
330
1F
100
AcDbEntity
  8
0
  6
SLD-Сплошная
 62
     7
370
    25
100
AcDbLine
 10
47.9200678386
 20
143.516983165
 30
0.0
 11
53.3989073146
 21
143.516983165
 31
0.0
  0
LINE
  5
C6
330
1F
100
AcDbEntity
  8
0
  6
SLD-Сплошная
 62
     7
370
    25
100
AcDbLine
 10
47.9200678386
 20
151.6357770107
 30
0.0
 11
47.9200678386
 21
143.516983165
 31
0.0
  0
LINE
  5
C7
330
1F
100
AcDbEntity
  8
0
  6
SLD-Сплошная
 62
     7
370
    25
100
AcDbLine
 10
44.7892983626
 20
151.6357770107
 30
0.0
 11
44.7892983626
 21
143.516983165
 31
0.0
  0
LINE
  5
C8
330
1F
100
AcDbEntity
  8
0
  6
SLD-Сплошная
 62
     7
370
    25
100
AcDbLine
 10
47.1373683626
 20
151.6357770107
 30
0.0
 11
44.7892983626
 21
151.6357770107
 31
0.0
  0
LINE
  5
C9
330
1F
100
AcDbEntity
  8
0
  6
SLD-Сплошная
 62
     7
370
    25
100
AcDbLine
 10
44.7892983626
 20
143.516983165
 30
0.0
 11
47.1373683626
 21
143.516983165
 31
0.0
  0
LINE
  5
CA
330
1F
100
AcDbEntity
  8
0
  6
SLD-Сплошная
 62
     7
370
    25
100
AcDbLine
 10
47.1373683626
 20
151.6357770107
 30
0.0
 11
47.1373683626
 21
143.516983165
 31
0.0
  0
LINE
  5
CB
330
1F
100
AcDbEntity
  8
0
  6
SLD-Сплошная
 62
     7
370
    25
100
AcDbLine
 10
44.7892983626
 20
155.1255033603
 30
0.0
 11
44.7892983626
 21
152.4170715909
 31
0.0
  0
LINE
  5
CC
330
1F
100
AcDbEntity
  8
0
  6
SLD-Сплошная
 62
     7
370
    25
100
AcDbLine
 10
48.9841834687
 20
155.1255033603
 30
0.0
 11
44.7892983626
 21
155.1255033603
 31
0.0
  0
LINE
  5
CD
330
1F
100
AcDbEntity
  8
0
  6
SLD-Сплошная
 62
     7
370
    25
100
AcDbLine
 10
48.9841834687
 20
155.2153927331
 30
0.0
 11
48.9841834687
 21
155.1255033603
 31
0.0
  0
SPLINE
  5
CE
330
1F
100
AcDbEntity
  8
0
  6
SLD-Сплошная
 62
     7
370
    25
100
AcDbSpline
210
0.0
220
0.0
230
1.0
 70
     8
 71
     3
 72
     8
 73
     4
 74
     0
 42
0.00000001
 43
0.00000001
 40
0.0
 40
0.0
 40
0.0
 40
0.0
 40
1.0
 40
1.0
 40
1.0
 40
1.0
 10
44.78929836256812
 20
158.5624216526926
 30
0.0
 10
46.18853236036624
 20
157.478780105567
 30
0.0
 10
47.58625104588415
 20
156.3580238707231
 30
0.0
 10
48.9841834687094
 20
155.2153927331187
 30
0.0
  0
LINE
  5
CF
330
1F
100
AcDbEntity
  8
0
  6
SLD-Сплошная
 62
     7
370
    25
100
AcDbLine
 10
44.7892983626
 20
161.2980604764
 30
0.0
 11
44.7892983626
 21
158.5624216527
 31
0.0
  0
SPLINE
  5
D0
330
1F
100
AcDbEntity
  8
0
  6
SLD-Сплошная
 62
     7
370
    25
100
AcDbSpline
210
0.0
220
0.0
230
1.0
 70
     8
 71
     3
 72
     8
 73
     4
 74
     0
 42
0.00000001
 43
0.00000001
 40
0.0
 40
0.0
 40
0.0
 40
0.0
 40
1.0
 40
1.0
 40
1.0
 40
1.0
 10
49.09410283856978
 20
158.0591396723156
 30
0.0
 10
47.66000788671025
 20
159.1814600536665
 30
0.0
 10
46.22576606016595
 20
160.2662725762889
 30
0.0
 10
44.78929836256812
 20
161.298060476403
 30
0.0
  0
SPLINE
  5
D1
330
1F
100
AcDbEntity
  8
0
  6
SLD-Сплошная
 62
     7
370
    25
100
AcDbSpline
210
0.0
220
0.0
230
1.0
 70
     8
 71
     3
 72
     8
 73
     4
 74
     0
 42
0.00000001
 43
0.00000001
 40
0.0
 40
0.0
 40
0.0
 40
0.0
 40
1.0
 40
1.0
 40
1.0
 40
1.0
 10
53.3989073145679
 20
161.2980604764037
 30
0.0
 10
51.96243861604976
 20
160.2662718573463
 30
0.0
 10
50.5281986250834
 20
159.1814607068666
 30
0.0
 10
49.09410283856978
 20
158.0591396723156
 30
0.0
  0
LINE
  5
D2
330
1F
100
AcDbEntity
  8
0
  6
SLD-Сплошная
 62
     7
370
    25
100
AcDbLine
 10
53.3989073146
 20
161.2980604764
 30
0.0
 11
53.3989073146
 21
158.5624216527
 31
0.0
  0
SPLINE
  5
D3
330
1F
100
AcDbEntity
  8
0
  6
SLD-Сплошная
 62
     7
370
    25
100
AcDbSpline
210
0.0
220
0.0
230
1.0
 70
     8
 71
     3
 72
     8
 73
     4
 74
     0
 42
0.00000001
 43
0.00000001
 40
0.0
 40
0.0
 40
0.0
 40
0.0
 40
1.0
 40
1.0
 40
1.0
 40
1.0
 10
49.2040222084266
 20
155.2153927331205
 30
0.0
 10
50.6019541972275
 20
156.3580235159649
 30
0.0
 10
51.9996738594623
 20
157.4787805258577
 30
0.0
 10
53.3989073145688
 20
158.5624216526935
 30
0.0
  0
LINE
  5
D4
330
1F
100
AcDbEntity
  8
0
  6
SLD-Сплошная
 62
     7
370
    25
100
AcDbLine
 10
49.2040222084
 20
155.2153927331
 30
0.0
 11
49.2040222084
 21
155.1255033603
 31
0.0
  0
LINE
  5
D5
330
1F
100
AcDbEntity
  8
0
  6
SLD-Сплошная
 62
     7
370
    25
100
AcDbLine
 10
53.3989073146
 20
155.1255033603
 30
0.0
 11
49.2040222084
 21
155.1255033603
 31
0.0
  0
LINE
  5
D6
330
1F
100
AcDbEntity
  8
0
  6
SLD-Сплошная
 62
     7
370
    25
100
AcDbLine
 10
53.3989073146
 20
155.1255033603
 30
0.0
 11
53.3989073146
 21
152.4170715909
 31
0.0
  0
LINE
  5
D7
330
1F
100
AcDbEntity
  8
0
  6
SLD-Сплошная
 62
     7
370
    25
100
AcDbLine
 10
44.7892983626
 20
152.4170715909
 30
0.0
 11
53.3989073146
 21
152.4170715909
 31
0.0
  0
ARC
  5
D8
330
1F
100
AcDbEntity
  8
0
  6
SLD-Сплошная
 62
     7
370
    25
100
AcDbCircle
 10
105.9375266378
 20
131.5869631386
 30
0.0
 40
3.500000000000016
100
AcDbArc
 50
214.8460899405
 51
334.8460899405
  0
LINE
  5
D9
330
1F
100
AcDbEntity
  8
0
  6
SLD-Сплошная
 62
     7
370
    25
100
AcDbLine
 10
57.4625266378
 20
163.4663371282
 30
0.0
 11
40.7256790393
 21
163.4663371282
 31
0.0
  0
LINE
  5
DA
330
1F
100
AcDbEntity
  8
0
  6
SLD-Сплошная
 62
     7
370
    25
100
AcDbLine
 10
40.7256790393
 20
138.185496646
 30
0.0
 11
57.4625266378
 21
138.185496646
 31
0.0
  0
LINE
  5
DB
330
1F
100
AcDbEntity
  8
0
  6
SLD-Сплошная
 62
     7
370
    25
100
AcDbLine
 10
140.2009488241
 20
131.1716940387
 30
0.0
 11
140.2009488241
 21
131.2913071963
 31
0.0
  0
LINE
  5
DC
330
1F
100
AcDbEntity
  8
0
  6
SLD-Сплошная
 62
     7
370
    25
100
AcDbLine
 10
140.2009488241
 20
170.3605265779
 30
0.0
 11
140.2009488241
 21
170.4801397355
 31
0.0
  0
LINE
  5
DD
330
1F
100
AcDbEntity
  8
0
  6
SLD-Сплошная
 62
     7
370
    25
100
AcDbLine
 10
140.2009488241
 20
162.4682217325
 30
0.0
 11
140.2009488241
 21
170.3605265779
 31
0.0
  0
LINE
  5
DE
330
1F
100
AcDbEntity
  8
0
  6
SLD-Сплошная
 62
     7
370
    25
100
AcDbLine
 10
140.2009488241
 20
158.7182217325
 30
0.0
 11
140.2009488241
 21
162.4682217325
 31
0.0
  0
LINE
  5
DF
330
1F
100
AcDbEntity
  8
0
  6
SLD-Сплошная
 62
     7
370
    25
100
AcDbLine
 10
140.2009488241
 20
139.1836120417
 30
0.0
 11
140.2009488241
 21
142.9336120417
 31
0.0
  0
LINE
  5
E0
330
1F
100
AcDbEntity
  8
0
  6
SLD-Сплошная
 62
     7
370
    25
100
AcDbLine
 10
140.2009488241
 20
131.2913071963
 30
0.0
 11
140.2009488241
 21
139.1836120417
 31
0.0
  0
LINE
  5
E1
330
1F
100
AcDbEntity
  8
0
  6
SLD-Сплошная
 62
     7
370
    25
100
AcDbLine
 10
138.2009488241
 20
150.8259168871
 30
0.0
 11
138.2009488241
 21
170.4801397355
 31
0.0
  0
LINE
  5
E2
330
1F
100
AcDbEntity
  8
0
  6
SLD-Сплошная
 62
     7
370
    25
100
AcDbLine
 10
138.2009488241
 20
131.1716940387
 30
0.0
 11
138.2009488241
 21
150.8259168871
 31
0.0
  0
LINE
  5
E3
330
1F
100
AcDbEntity
  8
0
  6
SLD-Сплошная
 62
     7
370
    25
100
AcDbLine
 10
140.2009488241
 20
142.9336120417
 30
0.0
 11
140.2009488241
 21
158.7182217325
 31
0.0
  0
LINE
  5
E4
330
1F
100
AcDbEntity
  8
0
  6
SLD-Сплошная
 62
     7
370
    25
100
AcDbLine
 10
47.9200678386
 20
142.7918111212
 30
0.0
 11
47.9200678386
 21
140.3537732978
 31
0.0
  0
LINE
  5
E5
330
1F
100
AcDbEntity
  8
0
  6
SLD-Сплошная
 62
     7
370
    25
100
AcDbLine
 10
47.9200678386
 20
140.3537732978
 30
0.0
 11
53.3989073146
 21
140.3537732978
 31
0.0
  0
LINE
  5
E6
330
1F
100
AcDbEntity
  8
0
  6
SLD-Сплошная
 62
     7
370
    25
100
AcDbLine
 10
53.3989073146
 20
142.7918111212
 30
0.0
 11
47.9200678386
 21
142.7918111212
 31
0.0
  0
LINE
  5
E7
330
1F
100
AcDbEntity
  8
0
  6
SLD-Сплошная
 62
     7
370
    25
100
AcDbLine
 10
53.3989073146
 20
142.7918111212
 30
0.0
 11
53.3989073146
 21
140.3537732978
 31
0.0
  0
LINE
  5
E8
330
1F
100
AcDbEntity
  8
0
  6
SLD-Сплошная
 62
     7
370
    25
100
AcDbLine
 10
44.7892983626
 20
142.7918111212
 30
0.0
 11
44.7892983626
 21
140.3537732978
 31
0.0
  0
LINE
  5
E9
330
1F
100
AcDbEntity
  8
0
  6
SLD-Сплошная
 62
     7
370
    25
100
AcDbLine
 10
47.1373683626
 20
142.7918111212
 30
0.0
 11
44.7892983626
 21
142.7918111212
 31
0.0
  0
LINE
  5
EA
330
1F
100
AcDbEntity
  8
0
  6
SLD-Сплошная
 62
     7
370
    25
100
AcDbLine
 10
47.1373683626
 20
142.7918111212
 30
0.0
 11
47.1373683626
 21
140.3537732978
 31
0.0
  0
LINE
  5
EB
330
1F
100
AcDbEntity
  8
0
  6
SLD-Сплошная
 62
     7
370
    25
100
AcDbLine
 10
44.7892983626
 20
140.3537732978
 30
0.0
 11
47.1373683626
 21
140.3537732978
 31
0.0
  0
LINE
  5
EC
330
1F
100
AcDbEntity
  8
0
  6
SLD-Сплошная
 62
     7
370
    25
100
AcDbLine
 10
140.2009488241
 20
162.4682217325
 30
0.0
 11
149.2009488241
 21
162.4682217325
 31
0.0
  0
LINE
  5
ED
330
1F
100
AcDbEntity
  8
0
  6
SLD-Сплошная
 62
     7
370
    25
100
AcDbLine
 10
149.2009488241
 20
162.4682217325
 30
0.0
 11
149.2009488241
 21
158.7182217325
 31
0.0
  0
LINE
  5
EE
330
1F
100
AcDbEntity
  8
0
  6
SLD-Сплошная
 62
     7
370
    25
100
AcDbLine
 10
149.2009488241
 20
158.7182217325
 30
0.0
 11
140.2009488241
 21
158.7182217325
 31
0.0
  0
LINE
  5
EF
330
1F
100
AcDbEntity
  8
0
  6
SLD-Сплошная
 62
     7
370
    25
100
AcDbLine
 10
140.2009488241
 20
142.9336120417
 30
0.0
 11
149.2009488241
 21
142.9336120417
 31
0.0
  0
LINE
  5
F0
330
1F
100
AcDbEntity
  8
0
  6
SLD-Сплошная
 62
     7
370
    25
100
AcDbLine
 10
149.2009488241
 20
142.9336120417
 30
0.0
 11
149.2009488241
 21
139.1836120417
 31
0.0
  0
LINE
  5
F1
330
1F
100
AcDbEntity
  8
0
  6
SLD-Сплошная
 62
     7
370
    25
100
AcDbLine
 10
149.2009488241
 20
139.1836120417
 30
0.0
 11
140.2009488241
 21
139.1836120417
 31
0.0
  0
LINE
  5
F2
330
1F
100
AcDbEntity
  8
0
  6
SLD-Сплошная
 62
     7
370
    25
100
AcDbLine
 10
149.2009488241
 20
158.7182217325
 30
0.0
 11
149.2009488241
 21
142.9336120417
 31
0.0
  0
LINE
  5
F3
330
1F
100
AcDbEntity
  8
0
  6
SLD-Сплошная
 62
     7
370
    25
100
AcDbLine
 10
161.2105677673
 20
147.755832793
 30
0.0
 11
168.0529663557
 21
147.755832793
 31
0.0
  0
LINE
  5
F4
330
1F
100
AcDbEntity
  8
0
  6
SLD-Сплошная
 62
     7
370
    25
100
AcDbLine
 10
161.2105677673
 20
153.8960009812
 30
0.0
 11
168.0529663557
 21
153.8960009812
 31
0.0
  0
LINE
  5
F5
330
1F
100
AcDbEntity
  8
0
  6
SLD-Сплошная
 62
     7
370
    25
100
AcDbLine
 10
161.2105677673
 20
153.8960009812
 30
0.0
 11
149.2009488241
 21
153.8960009812
 31
0.0
  0
LINE
  5
F6
330
1F
100
AcDbEntity
  8
0
  6
SLD-Сплошная
 62
     7
370
    25
100
AcDbLine
 10
161.2105677673
 20
147.755832793
 30
0.0
 11
149.2009488241
 21
147.755832793
 31
0.0
  0
LINE
  5
F7
330
1F
100
AcDbEntity
  8
0
  6
SLD-Сплошная
 62
     7
370
    25
100
AcDbLine
 10
140.2009488241
 20
131.2913071963
 30
0.0
 11
149.2009488241
 21
131.2913071963
 31
0.0
  0
LINE
  5
F8
330
1F
100
AcDbEntity
  8
0
  6
SLD-Сплошная
 62
     7
370
    25
100
AcDbLine
 10
149.2009488241
 20
139.1836120417
 30
0.0
 11
149.2009488241
 21
131.2913071963
 31
0.0
  0
LINE
  5
F9
330
1F
100
AcDbEntity
  8
0
  6
SLD-Сплошная
 62
     7
370
    25
100
AcDbLine
 10
149.2009488241
 20
170.3605265779
 30
0.0
 11
140.2009488241
 21
170.3605265779
 31
0.0
  0
LINE
  5
FA
330
1F
100
AcDbEntity
  8
0
  6
SLD-Сплошная
 62
     7
370
    25
100
AcDbLine
 10
149.2009488241
 20
170.3605265779
 30
0.0
 11
149.2009488241
 21
162.4682217325
 31
0.0
  0
ARC
  5
FB
330
1F
100
AcDbEntity
  8
0
  6
SLD-Сплошная
 62
     7
370
    25
100
AcDbCircle
 10
161.2105677673
 20
150.8259168871
 30
0.0
 40
14.68245836551858
100
AcDbArc
 50
270.0
 51
297.7766046258
  0
ARC
  5
FC
330
1F
100
AcDbEntity
  8
0
  6
SLD-Сплошная
 62
     7
370
    25
100
AcDbCircle
 10
167.7497428647
 20
150.8259168871
 30
0.0
 40
3.085022014554603
100
AcDbArc
 50
275.6406475517
 51
84.3593524483
  0
ARC
  5
FD
330
1F
100
AcDbEntity
  8
0
  6
SLD-Сплошная
 62
     7
370
    25
100
AcDbCircle
 10
161.2105677673
 20
150.8259168871
 30
0.0
 40
14.68245836551858
100
AcDbArc
 50
62.2233953742
 51
90.0
  0
LINE
  5
FE
330
1F
100
AcDbEntity
  8
0
  6
SLD-Сплошная
 62
     7
370
    25
100
AcDbLine
 10
168.0529663557
 20
163.8165352409
 30
0.0
 11
170.7692887717
 21
162.3857980613
 31
0.0
  0
LINE
  5
FF
330
1F
100
AcDbEntity
  8
0
  6
SLD-Сплошная
 62
     7
370
    25
100
AcDbLine
 10
170.7692887717
 20
139.2660357129
 30
0.0
 11
168.0529663557
 21
137.8352985333
 31
0.0
  0
LINE
  5
100
330
1F
100
AcDbEntity
  8
0
  6
SLD-Сплошная
 62
     7
370
    25
100
AcDbLine
 10
174.2009488241
 20
150.8259168871
 30
0.0
 11
174.2009488241
 21
158.3259168871
 31
0.0
  0
LINE
  5
101
330
1F
100
AcDbEntity
  8
0
  6
SLD-Сплошная
 62
     7
370
    25
100
AcDbLine
 10
174.2009488241
 20
143.3259168871
 30
0.0
 11
174.2009488241
 21
150.8259168871
 31
0.0
  0
LINE
  5
102
330
1F
100
AcDbEntity
  8
0
  6
SLD-Сплошная
 62
     7
370
    25
100
AcDbLine
 10
161.2105677673
 20
136.1434585216
 30
0.0
 11
149.2009488241
 21
136.1434585216
 31
0.0
  0
LINE
  5
103
330
1F
100
AcDbEntity
  8
0
  6
SLD-Сплошная
 62
     7
370
    25
100
AcDbLine
 10
161.2105677673
 20
165.5083752526
 30
0.0
 11
149.2009488241
 21
165.5083752526
 31
0.0
  0
LINE
  5
104
330
1F
100
AcDbEntity
  8
0
  6
SLD-Сплошная
 62
     7
370
    25
100
AcDbLine
 10
131.5375266378
 20
138.9914079183
 30
0.0
 11
131.5375266378
 21
133.8259168871
 31
0.0
  0
LINE
  5
105
330
1F
100
AcDbEntity
  8
0
  6
SLD-Сплошная
 62
     7
370
    25
100
AcDbLine
 10
63.3375266378
 20
121.2068416218
 30
0.0
 11
63.3375266378
 21
125.7569780348
 31
0.0
  0
LINE
  5
106
330
1F
100
AcDbEntity
  8
0
  6
SLD-Сплошная
 62
     7
370
    25
100
AcDbLine
 10
66.6375266378
 20
121.2068416218
 30
0.0
 11
66.6375266378
 21
125.7569780348
 31
0.0
  0
LINE
  5
107
330
1F
100
AcDbEntity
  8
0
  6
SLD-Сплошная
 62
     7
370
    25
100
AcDbLine
 10
25.1375266378
 20
138.5759168871
 30
0.0
 11
25.1375266378
 21
145.5759168871
 31
0.0
  0
LINE
  5
108
330
1F
100
AcDbEntity
  8
0
  6
SLD-Сплошная
 62
     7
370
    25
100
AcDbLine
 10
38.8375266378
 20
125.7009168871
 30
0.0
 11
38.8375266378
 21
128.7068416218
 31
0.0
  0
LINE
  5
109
330
1F
100
AcDbEntity
  8
0
  6
SLD-Сплошная
 62
     7
370
    25
100
AcDbLine
 10
26.5375266378
 20
125.7009168871
 30
0.0
 11
26.5375266378
 21
128.7068416218
 31
0.0
  0
LINE
  5
10A
330
1F
100
AcDbEntity
  8
0
  6
SLD-Сплошная
 62
     7
370
    25
100
AcDbLine
 10
38.8375266378
 20
128.7068416218
 30
0.0
 11
38.8375266378
 21
129.4108511275
 31
0.0
  0
LINE
  5
10B
330
1F
100
AcDbEntity
  8
0
  6
SLD-Сплошная
 62
     7
370
    25
100
AcDbLine
 10
26.5375266378
 20
128.7068416218
 30
0.0
 11
26.5375266378
 21
129.4108511275
 31
0.0
  0
SPLINE
  5
10C
330
1F
100
AcDbEntity
  8
0
  6
SLD-Сплошная
 62
     7
370
    25
100
AcDbSpline
210
0.0
220
0.0
230
1.0
 70
     8
 71
     3
 72
    16
 73
    12
 74
     0
 42
0.00000001
 43
0.00000001
 40
0.0
 40
0.0
 40
0.0
 40
0.0
 40
0.125
 40
0.125
 40
0.25
 40
0.25
 40
0.5
 40
0.5
 40
0.75
 40
0.75
 40
1.0
 40
1.0
 40
1.0
 40
1.0
 10
91.63958898525462
 20
172.3005443408659
 30
0.0
 10
92.13127121928277
 20
172.503857838159
 30
0.0
 10
92.61519255591956
 20
172.7281674197177
 30
0.0
 10
93.56723022436341
 20
173.2195449387944
 30
0.0
 10
94.03678024622607
 20
173.487647202391
 30
0.0
 10
95.40167111495573
 20
174.3458853761786
 30
0.0
 10
96.25906217968267
 20
174.9919100757403
 30
0.0
 10
97.8652242623223
 20
176.4302538689245
 30
0.0
 10
98.59650042417539
 20
177.2067477379447
 30
0.0
 10
99.92159335626135
 20
178.8694695708677
 30
0.0
 10
100.5154063562948
 20
179.7557005445279
 30
0.0
 10
101.037526637819
 20
180.6991639523096
 30
0.0
  0
LINE
  5
10D
330
1F
100
AcDbEntity
  8
0
  6
SLD-Сплошная
 62
     7
370
    25
100
AcDbLine
 10
101.0375266378
 20
180.6991639523
 30
0.0
 11
104.3375266378
 21
180.6991639523
 31
0.0
  0
LINE
  5
10E
330
1F
100
AcDbEntity
  8
0
  6
SLD-Сплошная
 62
     7
370
    25
100
AcDbLine
 10
104.3375266378
 20
171.7942607334
 30
0.0
 11
104.3375266378
 21
180.6991639523
 31
0.0
  0
LINE
  5
10F
330
1F
100
AcDbEntity
  8
0
  6
SLD-Сплошная
 62
     7
370
    25
100
AcDbLine
 10
101.0375266378
 20
180.6991639523
 30
0.0
 11
101.0375266378
 21
180.8259168871
 31
0.0
  0
LINE
  5
110
330
1F
100
AcDbEntity
  8
0
  6
SLD-Сплошная
 62
     7
370
    25
100
AcDbLine
 10
104.3375266378
 20
180.6991639523
 30
0.0
 11
104.3375266378
 21
180.8259168871
 31
0.0
  0
LINE
  5
111
330
1F
100
AcDbEntity
  8
0
  6
SLD-Сплошная
 62
     7
370
    25
100
AcDbLine
 10
-1.5718974391
 20
154.2410484755
 30
0.0
 11
-2.3952387058
 21
154.3347659375
 31
0.0
  0
SPLINE
  5
112
330
1F
100
AcDbEntity
  8
0
  6
SLD-Сплошная
 62
     7
370
    25
100
AcDbSpline
210
0.0
220
0.0
230
1.0
 70
     8
 71
     3
 72
    22
 73
    18
 74
     0
 42
0.00000001
 43
0.00000001
 40
0.0
 40
0.0
 40
0.0
 40
0.0
 40
0.0140997788106541
 40
0.1261598242627409
 40
0.187274309876194
 40
0.2556318339475532
 40
0.3484002377759378
 40
0.4444439036711231
 40
0.515813437798986
 40
0.5771451454639506
 40
0.659499047504612
 40
0.7545390895711561
 40
0.8375331832333338
 40
0.8739945006633459
 40
0.9137565188559245
 40
0.9749191777145072
 40
1.0
 40
1.0
 40
1.0
 40
1.0
 10
-5.493093182103483
 20
140.3512679637648
 30
0.0
 10
-5.455180677867599
 20
140.4007641268369
 30
0.0
 10
-5.115953025009303
 20
140.8436382540634
 30
0.0
 10
-4.699819585747194
 20
141.524696046697
 30
0.0
 10
-4.18554264236233
 20
142.4100087733146
 30
0.0
 10
-3.750176646745877
 20
143.2277523190249
 30
0.0
 10
-3.28276012846089
 20
144.161439625889
 30
0.0
 10
-2.855105805171295
 20
145.0851531448793
 30
0.0
 10
-2.517758576519185
 20
145.8675576632628
 30
0.0
 10
-2.23133482572432
 20
146.5706066000613
 30
0.0
 10
-1.942244086536725
 20
147.3158917853915
 30
0.0
 10
-1.659720698393687
 20
148.0708830972125
 30
0.0
 10
-1.459089399206793
 20
148.6101950386346
 30
0.0
 10
-1.315255976129484
 20
148.9894155799707
 30
0.0
 10
-1.225868398783157
 20
149.2179836539982
 30
0.0
 10
-1.215816314735097
 20
149.2521626714446
 30
0.0
 10
-1.252357279461599
 20
149.2653757774808
 30
0.0
 10
-1.262983908051813
 20
149.2692183353175
 30
0.0
  0
SPLINE
  5
113
330
1F
100
AcDbEntity
  8
0
  6
SLD-Сплошная
 62
     7
370
    25
100
AcDbSpline
210
0.0
220
0.0
230
1.0
 70
     8
 71
     3
 72
    21
 73
    17
 74
     0
 42
0.00000001
 43
0.00000001
 40
0.0
 40
0.0
 40
0.0
 40
0.0
 40
0.0297215703249383
 40
0.0802797449462847
 40
0.1280151162575281
 40
0.2133126553049847
 40
0.2841823120430382
 40
0.3462675065954304
 40
0.4027969290441752
 40
0.4738299103921262
 40
0.5971373733787984
 40
0.7062180477365483
 40
0.799607544567951
 40
0.8560417623079113
 40
0.9189864460327108
 40
0.9999999999999999
 40
0.9999999999999999
 40
0.9999999999999999
 40
0.9999999999999999
 10
-42.99628253257951
 20
149.6010617332721
 30
0.0
 10
-43.00452037848951
 20
149.6013044660663
 30
0.0
 10
-43.02677129461983
 20
149.6019601019089
 30
0.0
 10
-42.94643248409463
 20
149.4161235585209
 30
0.0
 10
-42.81095431541546
 20
149.0655333305287
 30
0.0
 10
-42.64133888361568
 20
148.6180748089993
 30
0.0
 10
-42.42667036913575
 20
148.0406211959807
 30
0.0
 10
-42.21553648485245
 20
147.4773895902287
 30
0.0
 10
-41.97634250483724
 20
146.8516589169277
 30
0.0
 10
-41.63023071885813
 20
145.9801988610856
 30
0.0
 10
-41.15092366734664
 20
144.8690581182144
 30
0.0
 10
-40.54749124227167
 20
143.613559268642
 30
0.0
 10
-40.01392814572647
 20
142.5925962003421
 30
0.0
 10
-39.53642385414264
 20
141.7566625425392
 30
0.0
 10
-39.05271702552008
 20
140.9732845588802
 30
0.0
 10
-38.65911612797122
 20
140.4230402744635
 30
0.0
 10
-38.43761433643533
 20
140.1133862682362
 30
0.0
  0
LINE
  5
114
330
1F
100
AcDbEntity
  8
0
  6
SLD-Сплошная
 62
     7
370
    25
100
AcDbLine
 10
-41.7023887821
 20
154.3347659375
 30
0.0
 11
-42.5257300487
 21
154.2410484755
 31
0.0
  0
SPLINE
  5
115
330
1F
100
AcDbEntity
  8
0
  6
SLD-Сплошная
 62
     7
370
    25
100
AcDbSpline
210
0.0
220
0.0
230
1.0
 70
     8
 71
     3
 72
    12
 73
     8
 74
     0
 42
0.00000001
 43
0.00000001
 40
0.0
 40
0.0
 40
0.0
 40
0.0
 40
0.1518107462493311
 40
0.3284396668134226
 40
0.5296808697388153
 40
0.7541373005552015
 40
1.0
 40
1.0
 40
1.0
 40
1.0
 10
1.752885333102115
 20
151.0836076729298
 30
0.0
 10
1.695513159289255
 20
151.360058756081
 30
0.0
 10
1.571389550671255
 20
151.9581554250167
 30
0.0
 10
1.095322245179622
 20
152.6719597231935
 30
0.0
 10
0.4353218693070905
 20
153.2887790846371
 30
0.0
 10
-0.4105299356801061
 20
153.7963184790934
 30
0.0
 10
-1.080480556117837
 20
154.0541771521315
 30
0.0
 10
-1.430702049222032
 20
154.1889746233574
 30
0.0
  0
SPLINE
  5
116
330
1F
100
AcDbEntity
  8
0
  6
SLD-Сплошная
 62
     7
370
    25
100
AcDbSpline
210
0.0
220
0.0
230
1.0
 70
     8
 71
     3
 72
    12
 73
     8
 74
     0
 42
0.00000001
 43
0.00000001
 40
0.0
 40
0.0
 40
0.0
 40
0.0
 40
0.2365283871674346
 40
0.4561955815788806
 40
0.6574334502986544
 40
0.8388374574812869
 40
1.0
 40
1.0
 40
1.0
 40
1.0
 10
-42.66692543862169
 20
154.1889746233574
 30
0.0
 10
-43.00035985517454
 20
154.0615720121374
 30
0.0
 10
-43.64345943996164
 20
153.8158488284799
 30
0.0
 10
-44.48165899778974
 20
153.3257298392798
 30
0.0
 10
-45.15834088858868
 20
152.7143452972243
 30
0.0
 10
-45.66102523249684
 20
151.9824394879351
 30
0.0
 10
-45.78988836625024
 20
151.3711789544777
 30
0.0
 10
-45.85051282094593
 20
151.083607672929
 30
0.0
  0
SPLINE
  5
117
330
1F
100
AcDbEntity
  8
0
  6
SLD-Сплошная
 62
     7
370
    25
100
AcDbSpline
210
0.0
220
0.0
230
1.0
 70
     8
 71
     3
 72
    13
 73
     9
 74
     0
 42
0.00000001
 43
0.00000001
 40
0.0
 40
0.0
 40
0.0
 40
0.0
 40
0.0930908468453897
 40
0.2725626224965397
 40
0.4583187862039881
 40
0.6561406788646211
 40
0.8657353520380555
 40
1.0
 40
1.0
 40
1.0
 40
1.0
 10
-40.75399669854941
 20
141.9804118081435
 30
0.0
 10
-40.82865310064839
 20
141.9363602875845
 30
0.0
 10
-41.04724112978138
 20
141.8073809262897
 30
0.0
 10
-41.35195205886438
 20
141.4927080227292
 30
0.0
 10
-41.59535675593054
 20
141.0178971353873
 30
0.0
 10
-41.67773268678992
 20
140.4721390553445
 30
0.0
 10
-41.61762365205323
 20
139.9685805711138
 30
0.0
 10
-41.4649349400613
 20
139.6957570435326
 30
0.0
 10
-41.40531551169836
 20
139.5892293078135
 30
0.0
  0
SPLINE
  5
118
330
1F
100
AcDbEntity
  8
0
  6
SLD-Сплошная
 62
     7
370
    25
100
AcDbSpline
210
0.0
220
0.0
230
1.0
 70
     8
 71
     3
 72
    13
 73
     9
 74
     0
 42
0.00000001
 43
0.00000001
 40
0.0
 40
0.0
 40
0.0
 40
0.0
 40
0.1169409300128008
 40
0.3125173097078168
 40
0.4983359086659959
 40
0.6779381874934458
 40
0.8568775947001114
 40
0.9999999999999999
 40
0.9999999999999999
 40
0.9999999999999999
 40
0.9999999999999999
 10
-2.675671549784715
 20
139.5758417457882
 30
0.0
 10
-2.629660793486789
 20
139.671034043171
 30
0.0
 10
-2.506699929619233
 20
139.9254294946159
 30
0.0
 10
-2.423616163964522
 20
140.3777631093034
 30
0.0
 10
-2.47145090247915
 20
140.8955983758266
 30
0.0
 10
-2.665815616109152
 20
141.3681013729611
 30
0.0
 10
-2.965126186152675
 20
141.7422475657027
 30
0.0
 10
-3.219020075340879
 20
141.9027703136303
 30
0.0
 10
-3.331849050091866
 20
141.9741056936616
 30
0.0
  0
SPLINE
  5
119
330
1F
100
AcDbEntity
  8
0
  6
SLD-Сплошная
 62
     7
370
    25
100
AcDbSpline
210
0.0
220
0.0
230
1.0
 70
     8
 71
     3
 72
    21
 73
    17
 74
     0
 42
0.00000001
 43
0.00000001
 40
0.0
 40
0.0
 40
0.0
 40
0.0
 40
0.1070324325734864
 40
0.198366347537507
 40
0.274938121633231
 40
0.3364661589269599
 40
0.3828121097483209
 40
0.4165264637166297
 40
0.4506093555179678
 40
0.4868840905902551
 40
0.53871468896809
 40
0.5972734437413669
 40
0.6721920552104936
 40
0.7639735583033161
 40
0.8730305177227564
 40
1.0
 40
1.0
 40
1.0
 40
1.0
 10
-22.04881374392187
 20
128.0869633446911
 30
0.0
 10
-21.19331091108337
 20
128.1166725339328
 30
0.0
 10
-19.60778241119013
 20
128.1717334459991
 30
0.0
 10
-17.43937214611367
 20
128.5428181149602
 30
0.0
 10
-15.66999928332223
 20
129.0047367430065
 30
0.0
 10
-14.2834471482662
 20
129.4831659621435
 30
0.0
 10
-13.24454676051108
 20
129.9100707914635
 30
0.0
 10
-12.42344770171854
 20
130.2892860807668
 30
0.0
 10
-11.68848996448498
 20
130.6615714275552
 30
0.0
 10
-10.84364109412881
 20
131.1302693828611
 30
0.0
 10
-9.858796142364328
 20
131.7397300679267
 30
0.0
 10
-8.665125530253128
 20
132.5804894797433
 30
0.0
 10
-7.293108044578695
 20
133.6984770557292
 30
0.0
 10
-5.751617269173989
 20
135.2070322124444
 30
0.0
 10
-4.116292919029163
 20
137.1715399067338
 30
0.0
 10
-3.179514055209193
 20
138.7349720000052
 30
0.0
 10
-2.675577604307911
 20
139.5760140545789
 30
0.0
  0
SPLINE
  5
11A
330
1F
100
AcDbEntity
  8
0
  6
SLD-Сплошная
 62
     7
370
    25
100
AcDbSpline
210
0.0
220
0.0
230
1.0
 70
     8
 71
     3
 72
    21
 73
    17
 74
     0
 42
0.00000001
 43
0.00000001
 40
0.0
 40
0.0
 40
0.0
 40
0.0
 40
0.1269694822772434
 40
0.2360264416966842
 40
0.3278079447895065
 40
0.4027265562586331
 40
0.4612853110319101
 40
0.513115909409745
 40
0.5493906444820321
 40
0.5834735362833702
 40
0.6171878902516791
 40
0.6635338410730399
 40
0.725061878366769
 40
0.801633652462493
 40
0.8929675674265136
 40
1.0
 40
1.0
 40
1.0
 40
1.0
 10
-41.42204988353582
 20
139.5760140545789
 30
0.0
 10
-40.91811343263453
 20
138.7349720000052
 30
0.0
 10
-39.98133456881457
 20
137.1715399067338
 30
0.0
 10
-38.34601021866973
 20
135.2070322124444
 30
0.0
 10
-36.80451944326504
 20
133.6984770557292
 30
0.0
 10
-35.4325019575906
 20
132.5804894797432
 30
0.0
 10
-34.23883134547938
 20
131.7397300679267
 30
0.0
 10
-33.25398639371492
 20
131.1302693828611
 30
0.0
 10
-32.40913752335875
 20
130.6615714275552
 30
0.0
 10
-31.67417978612519
 20
130.2892860807668
 30
0.0
 10
-30.85308072733266
 20
129.9100707914635
 30
0.0
 10
-29.81418033957753
 20
129.4831659621435
 30
0.0
 10
-28.4276282045215
 20
129.0047367430065
 30
0.0
 10
-26.65825534173006
 20
128.5428181149602
 30
0.0
 10
-24.4898450766536
 20
128.1717334459991
 30
0.0
 10
-22.90431657676037
 20
128.1166725339328
 30
0.0
 10
-22.04881374392187
 20
128.0869633446911
 30
0.0
  0
LINE
  5
11B
330
1F
100
AcDbEntity
  8
0
  6
SLD-Сплошная
 62
     7
370
    25
100
AcDbLine
 10
1.7722210084
 20
150.4492705771
 30
0.0
 11
1.7677347842
 21
150.84963032
 31
0.0
  0
LINE
  5
11C
330
1F
100
AcDbEntity
  8
0
  6
SLD-Сплошная
 62
     7
370
    25
100
AcDbLine
 10
-45.8653622721
 20
150.84963032
 30
0.0
 11
-45.8698484962
 21
150.4492705771
 31
0.0
  0
SPLINE
  5
11D
330
1F
100
AcDbEntity
  8
0
  6
SLD-Сплошная
 62
     7
370
    25
100
AcDbSpline
210
0.0
220
0.0
230
1.0
 70
     8
 71
     3
 72
    19
 73
    15
 74
     0
 42
0.00000001
 43
0.00000001
 40
0.0
 40
0.0
 40
0.0
 40
0.0
 40
0.1227951782038773
 40
0.2322217196524928
 40
0.3266989631443343
 40
0.4048829129590915
 40
0.4679160997857865
 40
0.528537171685003
 40
0.5890776596557868
 40
0.6494180179856754
 40
0.7125980118967054
 40
0.791850142839331
 40
0.8880022371431474
 40
1.0
 40
1.0
 40
1.0
 40
1.0
 10
-22.04881374392187
 20
127.4259171454215
 30
0.0
 10
-20.98375067410742
 20
127.4692791107738
 30
0.0
 10
-18.96957730648518
 20
127.5512822505462
 30
0.0
 10
-16.18927435780995
 20
128.1212149505656
 30
0.0
 10
-13.86864641479682
 20
128.8639965883047
 30
0.0
 10
-12.0045553516984
 20
129.6655671603949
 30
0.0
 10
-10.46994282907846
 20
130.4689285794954
 30
0.0
 10
-9.126256992827605
 20
131.2938871466826
 30
0.0
 10
-7.86244549314346
 20
132.1903728272669
 30
0.0
 10
-6.646022816249946
 20
133.1783915584266
 30
0.0
 10
-5.383648613308464
 20
134.3500971517367
 30
0.0
 10
-4.018559350518723
 20
135.8369369000653
 30
0.0
 10
-2.543602204238028
 20
137.7618808412571
 30
0.0
 10
-1.682965993366176
 20
139.2771390754004
 30
0.0
 10
-1.219889383244636
 20
140.0924436578267
 30
0.0
  0
SPLINE
  5
11E
330
1F
100
AcDbEntity
  8
0
  6
SLD-Сплошная
 62
     7
370
    25
100
AcDbSpline
210
0.0
220
0.0
230
1.0
 70
     8
 71
     3
 72
    19
 73
    15
 74
     0
 42
0.00000001
 43
0.00000001
 40
0.0
 40
0.0
 40
0.0
 40
0.0
 40
0.1119977628568524
 40
0.2081498571606689
 40
0.2874019881032945
 40
0.3505819820143244
 40
0.4109223403442129
 40
0.4714628283149969
 40
0.5320839002142136
 40
0.5951170870409086
 40
0.6733010368556657
 40
0.7677782803475073
 40
0.8772048217961228
 40
1.0
 40
1.0
 40
1.0
 40
1.0
 10
-42.87773810459908
 20
140.0924436578267
 30
0.0
 10
-42.41466149447755
 20
139.2771390754004
 30
0.0
 10
-41.55402528360569
 20
137.7618808412571
 30
0.0
 10
-40.079068137325
 20
135.8369369000653
 30
0.0
 10
-38.71397887453526
 20
134.3500971517367
 30
0.0
 10
-37.45160467159378
 20
133.1783915584266
 30
0.0
 10
-36.23518199470028
 20
132.1903728272669
 30
0.0
 10
-34.97137049501612
 20
131.2938871466826
 30
0.0
 10
-33.62768465876528
 20
130.4689285794954
 30
0.0
 10
-32.09307213614533
 20
129.6655671603949
 30
0.0
 10
-30.2289810730469
 20
128.8639965883047
 30
0.0
 10
-27.90835313003378
 20
128.1212149505656
 30
0.0
 10
-25.12805018135854
 20
127.5512822505461
 30
0.0
 10
-23.11387681373632
 20
127.4692791107738
 30
0.0
 10
-22.04881374392187
 20
127.4259171454215
 30
0.0
  0
SPLINE
  5
11F
330
1F
100
AcDbEntity
  8
0
  6
SLD-Сплошная
 62
     7
370
    25
100
AcDbSpline
210
0.0
220
0.0
230
1.0
 70
     8
 71
     3
 72
    13
 73
     9
 74
     0
 42
0.00000001
 43
0.00000001
 40
0.0
 40
0.0
 40
0.0
 40
0.0
 40
0.113438645500226
 40
0.3029725475053767
 40
0.4853423757999731
 40
0.660356601550467
 40
0.8298258740267263
 40
1.0
 40
1.0
 40
1.0
 40
1.0
 10
-1.219471416438116
 20
140.0932435744462
 30
0.0
 10
-1.173088141850565
 20
140.1945539637714
 30
0.0
 10
-1.049207441393828
 20
140.4651342991348
 30
0.0
 10
-0.9739203347549907
 20
140.9441409887764
 30
0.0
 10
-1.036869619392401
 20
141.4862919521004
 30
0.0
 10
-1.24707578825926
 20
141.9718681645654
 30
0.0
 10
-1.578497923693287
 20
142.3827782300957
 30
0.0
 10
-1.879967164813996
 20
142.5531719918859
 30
0.0
 10
-2.031014601183254
 20
142.6385456797489
 30
0.0
  0
SPLINE
  5
120
330
1F
100
AcDbEntity
  8
0
  6
SLD-Сплошная
 62
     7
370
    25
100
AcDbSpline
210
0.0
220
0.0
230
1.0
 70
     8
 71
     3
 72
    13
 73
     9
 74
     0
 42
0.00000001
 43
0.00000001
 40
0.0
 40
0.0
 40
0.0
 40
0.0
 40
0.0873499078089005
 40
0.2618953550327451
 40
0.4464101412227032
 40
0.6402471573101285
 40
0.8385514723011562
 40
1.0
 40
1.0
 40
1.0
 40
1.0
 10
-42.06661288666047
 20
142.6385456797489
 30
0.0
 10
-42.14537714600006
 20
142.5982481405206
 30
0.0
 10
-42.38153072854027
 20
142.4774267383248
 30
0.0
 10
-42.71868971894335
 20
142.1652405736287
 30
0.0
 10
-43.00079417466863
 20
141.6820183757986
 30
0.0
 10
-43.12325266507121
 20
141.1177671140759
 30
0.0
 10
-43.08230559914384
 20
140.5640554967769
 30
0.0
 10
-42.94139389570213
 20
140.2390833515494
 30
0.0
 10
-42.87815607140561
 20
140.0932435744462
 30
0.0
  0
SPLINE
  5
121
330
1F
100
AcDbEntity
  8
0
  6
SLD-Сплошная
 62
     7
370
    25
100
AcDbSpline
210
0.0
220
0.0
230
1.0
 70
     8
 71
     3
 72
    16
 73
    12
 74
     0
 42
0.00000001
 43
0.00000001
 40
0.0
 40
0.0
 40
0.0
 40
0.0
 40
0.125036958242611
 40
0.2257976910720113
 40
0.3684220432399845
 40
0.4545752120728587
 40
0.505201226744014
 40
0.5144343327566705
 40
0.5255950380485411
 40
0.6509144733635671
 40
1.0
 40
1.0
 40
1.0
 40
1.0
 10
-0.6561678957048324
 20
147.9195444580663
 30
0.0
 10
-0.455311309167105
 20
147.9398209596306
 30
0.0
 10
-0.0925949242337326
 20
147.9764372313361
 30
0.0
 10
0.4620235910811413
 20
148.197968704362
 30
0.0
 10
0.9039601337253144
 20
148.5003888747528
 30
0.0
 10
1.209639444724082
 20
148.8309786679785
 30
0.0
 10
1.345109221130101
 20
149.0223027498211
 30
0.0
 10
1.405214339495947
 20
149.1184561693811
 30
0.0
 10
1.511180171231467
 20
149.295893422321
 30
0.0
 10
1.702121757530855
 20
149.7142664598563
 30
0.0
 10
1.744482247396709
 20
150.1749382747828
 30
0.0
 10
1.775652734848129
 20
150.5139184204767
 30
0.0
  0
SPLINE
  5
122
330
1F
100
AcDbEntity
  8
0
  6
SLD-Сплошная
 62
     7
370
    25
100
AcDbSpline
210
0.0
220
0.0
230
1.0
 70
     8
 71
     3
 72
    16
 73
    12
 74
     0
 42
0.00000001
 43
0.00000001
 40
0.0
 40
0.0
 40
0.0
 40
0.0
 40
0.2521530602430194
 40
0.3293927965368086
 40
0.3598669383501843
 40
0.3932382493412616
 40
0.4810926048402466
 40
0.5885166304419756
 40
0.7469802565896224
 40
0.8594895322202292
 40
1.0
 40
1.0
 40
1.0
 40
1.0
 10
-45.87328022269187
 20
150.5139184204771
 30
0.0
 10
-45.87523192081437
 20
150.4094622120095
 30
0.0
 10
-45.87778146473801
 20
150.2730088904056
 30
0.0
 10
-45.82335628281754
 20
149.9246950368462
 30
0.0
 10
-45.77310394014162
 20
149.7284924891437
 30
0.0
 10
-45.69943410882884
 20
149.49930873747
 30
0.0
 10
-45.54552660037577
 20
149.161122383871
 30
0.0
 10
-45.20902193947182
 20
148.6856685694211
 30
0.0
 10
-44.7184842120549
 20
148.2826043418247
 30
0.0
 10
-44.09336281501557
 20
147.9926967833023
 30
0.0
 10
-43.6742224758741
 20
147.9456635898275
 30
0.0
 10
-43.4414595921389
 20
147.9195444580663
 30
0.0
  0
LINE
  5
123
330
1F
100
AcDbEntity
  8
0
  6
SLD-Сплошная
 62
     7
370
    25
100
AcDbLine
 10
1.7756583387
 20
150.5098196091
 30
0.0
 11
1.7695805492
 21
150.6849105097
 31
0.0
  0
LINE
  5
124
330
1F
100
AcDbEntity
  8
0
  6
SLD-Сплошная
 62
     7
370
    25
100
AcDbLine
 10
1.7597687019
 20
150.9675733402
 30
0.0
 11
1.7268491409
 21
151.9159305649
 31
0.0
  0
LINE
  5
125
330
1F
100
AcDbEntity
  8
0
  6
SLD-Сплошная
 62
     7
370
    25
100
AcDbLine
 10
-45.8244766288
 20
151.9159305649
 30
0.0
 11
-45.8573961897
 21
150.9675733402
 31
0.0
  0
LINE
  5
126
330
1F
100
AcDbEntity
  8
0
  6
SLD-Сплошная
 62
     7
370
    25
100
AcDbLine
 10
-45.867208037
 20
150.6849105097
 30
0.0
 11
-45.8732858265
 21
150.5098196091
 31
0.0
  0
LINE
  5
127
330
1F
100
AcDbEntity
  8
0
  6
SLD-Сплошная
 62
     7
370
    25
100
AcDbLine
 10
-25.118897838
 20
136.1434585216
 30
0.0
 11
-25.118897838
 21
137.8352985333
 31
0.0
  0
ARC
  5
128
330
1F
100
AcDbEntity
  8
0
  6
SLD-Сплошная
 62
     7
370
    25
100
AcDbCircle
 10
-22.0488137439
 20
150.8259168871
 30
0.0
 40
15.00000000000002
100
AcDbArc
 50
191.8103148958
 51
258.1896851042
  0
LINE
  5
129
330
1F
100
AcDbEntity
  8
0
  6
SLD-Сплошная
 62
     7
370
    25
100
AcDbLine
 10
-36.7312721094
 20
147.755832793
 30
0.0
 11
-35.0394320977
 21
147.755832793
 31
0.0
  0
LWPOLYLINE
  5
12A
330
1F
100
AcDbEntity
  8
0
  6
SLD-Сплошная
 62
     7
370
    25
100
AcDbPolyline
 90
       13
 70
   128
 43
0.0
 10
-35.0394320977
 20
147.755832793
 10
-34.6691300671
 20
147.8604433717
 10
-34.3240635079
 20
148.1671460699
 10
-34.0277481359
 20
148.6550396054
 10
-33.800377354
 20
149.2908748401
 10
-33.6574461053
 20
150.0313206535
 10
-33.6086949181
 20
150.8259168871
 10
-33.6574461053
 20
151.6205131207
 10
-33.800377354
 20
152.3609589341
 10
-34.0277481359
 20
152.9967941688
 10
-34.3240635079
 20
153.4846877043
 10
-34.6691300671
 20
153.7913904025
 10
-35.0394320977
 20
153.8960009812
  0
LINE
  5
12B
330
1F
100
AcDbEntity
  8
0
  6
SLD-Сплошная
 62
     7
370
    25
100
AcDbLine
 10
-36.7312721094
 20
153.8960009812
 30
0.0
 11
-35.0394320977
 21
153.8960009812
 31
0.0
  0
ARC
  5
12C
330
1F
100
AcDbEntity
  8
0
  6
SLD-Сплошная
 62
     7
370
    25
100
AcDbCircle
 10
-22.0488137439
 20
150.8259168871
 30
0.0
 40
15.0
100
AcDbArc
 50
101.8103148958
 51
168.1896851042
  0
LINE
  5
12D
330
1F
100
AcDbEntity
  8
0
  6
SLD-Сплошная
 62
     7
370
    25
100
AcDbLine
 10
-25.118897838
 20
165.5083752526
 30
0.0
 11
-25.118897838
 21
163.8165352409
 31
0.0
  0
LWPOLYLINE
  5
12E
330
1F
100
AcDbEntity
  8
0
  6
SLD-Сплошная
 62
     7
370
    25
100
AcDbPolyline
 90
       13
 70
   128
 43
0.0
 10
-25.118897838
 20
163.8165352409
 10
-25.0142872593
 20
163.4462332103
 10
-24.7075845612
 20
163.1011666511
 10
-24.2196910257
 20
162.8048512791
 10
-23.583855791
 20
162.5774804972
 10
-22.8434099775
 20
162.4345492485
 10
-22.0488137439
 20
162.3857980613
 10
-21.2542175103
 20
162.4345492485
 10
-20.5137716969
 20
162.5774804972
 10
-19.8779364622
 20
162.8048512791
 10
-19.3900429267
 20
163.1011666511
 10
-19.0833402286
 20
163.4462332103
 10
-18.9787296498
 20
163.8165352409
  0
LINE
  5
12F
330
1F
100
AcDbEntity
  8
0
  6
SLD-Сплошная
 62
     7
370
    25
100
AcDbLine
 10
-18.9787296498
 20
165.5083752526
 30
0.0
 11
-18.9787296498
 21
163.8165352409
 31
0.0
  0
ARC
  5
130
330
1F
100
AcDbEntity
  8
0
  6
SLD-Сплошная
 62
     7
370
    25
100
AcDbCircle
 10
-22.0488137439
 20
150.8259168871
 30
0.0
 40
14.99999999999999
100
AcDbArc
 50
11.8103148958
 51
78.1896851042
  0
LINE
  5
131
330
1F
100
AcDbEntity
  8
0
  6
SLD-Сплошная
 62
     7
370
    25
100
AcDbLine
 10
-7.3663553784
 20
153.8960009812
 30
0.0
 11
-9.0581953901
 21
153.8960009812
 31
0.0
  0
LWPOLYLINE
  5
132
330
1F
100
AcDbEntity
  8
0
  6
SLD-Сплошная
 62
     7
370
    25
100
AcDbPolyline
 90
       13
 70
   128
 43
0.0
 10
-9.0581953901
 20
153.8960009812
 10
-9.4284974208
 20
153.7913904025
 10
-9.7735639799
 20
153.4846877043
 10
-10.0698793519
 20
152.9967941688
 10
-10.2972501338
 20
152.3609589341
 10
-10.4401813826
 20
151.6205131207
 10
-10.4889325697
 20
150.8259168871
 10
-10.4401813826
 20
150.0313206535
 10
-10.2972501338
 20
149.2908748401
 10
-10.0698793519
 20
148.6550396054
 10
-9.7735639799
 20
148.1671460699
 10
-9.4284974208
 20
147.8604433717
 10
-9.0581953901
 20
147.755832793
  0
LINE
  5
133
330
1F
100
AcDbEntity
  8
0
  6
SLD-Сплошная
 62
     7
370
    25
100
AcDbLine
 10
-7.3663553784
 20
147.755832793
 30
0.0
 11
-9.0581953901
 21
147.755832793
 31
0.0
  0
ARC
  5
134
330
1F
100
AcDbEntity
  8
0
  6
SLD-Сплошная
 62
     7
370
    25
100
AcDbCircle
 10
-22.0488137439
 20
150.8259168871
 30
0.0
 40
15.00000000000001
100
AcDbArc
 50
281.8103148958
 51
348.1896851042
  0
LINE
  5
135
330
1F
100
AcDbEntity
  8
0
  6
SLD-Сплошная
 62
     7
370
    25
100
AcDbLine
 10
-18.9787296498
 20
136.1434585216
 30
0.0
 11
-18.9787296498
 21
137.8352985333
 31
0.0
  0
LWPOLYLINE
  5
136
330
1F
100
AcDbEntity
  8
0
  6
SLD-Сплошная
 62
     7
370
    25
100
AcDbPolyline
 90
       13
 70
   128
 43
0.0
 10
-18.9787296498
 20
137.8352985333
 10
-19.0833402286
 20
138.2056005639
 10
-19.3900429267
 20
138.5506671231
 10
-19.8779364622
 20
138.8469824951
 10
-20.5137716969
 20
139.074353277
 10
-21.2542175103
 20
139.2172845257
 10
-22.0488137439
 20
139.2660357129
 10
-22.8434099775
 20
139.2172845257
 10
-23.583855791
 20
139.074353277
 10
-24.2196910257
 20
138.8469824951
 10
-24.7075845612
 20
138.5506671231
 10
-25.0142872593
 20
138.2056005639
 10
-25.118897838
 20
137.8352985333
  0
CIRCLE
  5
137
330
1F
100
AcDbEntity
  8
0
  6
SLD-Сплошная
 62
     7
370
    25
100
AcDbCircle
 10
-22.0488137439
 20
150.8259168871
 30
0.0
 40
7.5
  0
ARC
  5
138
330
1F
100
AcDbEntity
  8
0
  6
SLD-Сплошная
 62
     7
370
    25
100
AcDbCircle
 10
-7.0488137439
 20
150.8259168871
 30
0.0
 40
2.500000000000009
100
AcDbArc
 50
300.0
 51
60.0
  0
ARC
  5
139
330
1F
100
AcDbEntity
  8
0
  6
SLD-Сплошная
 62
     7
370
    25
100
AcDbCircle
 10
-22.0488137439
 20
135.8259168871
 30
0.0
 40
2.500000000000005
100
AcDbArc
 50
210.0
 51
330.0
  0
ARC
  5
13A
330
1F
100
AcDbEntity
  8
0
  6
SLD-Сплошная
 62
     7
370
    25
100
AcDbCircle
 10
-22.0488137439
 20
165.8259168871
 30
0.0
 40
2.499999999999999
100
AcDbArc
 50
30.0
 51
150.0
  0
ARC
  5
13B
330
1F
100
AcDbEntity
  8
0
  6
SLD-Сплошная
 62
     7
370
    25
100
AcDbCircle
 10
-37.0488137439
 20
150.8259168871
 30
0.0
 40
2.500000000000033
100
AcDbArc
 50
120.0
 51
240.0
  0
LINE
  5
13C
330
1F
100
AcDbEntity
  8
0
  6
SLD-Сплошная
 62
     7
370
    25
100
AcDbLine
 10
-5.7988137439
 20
148.6608533776
 30
0.0
 11
-7.3663553784
 21
147.755832793
 31
0.0
  0
LINE
  5
13D
330
1F
100
AcDbEntity
  8
0
  6
SLD-Сплошная
 62
     7
370
    25
100
AcDbLine
 10
-7.3663553784
 20
153.8960009812
 30
0.0
 11
-5.7988137439
 21
152.9909803966
 31
0.0
  0
LINE
  5
13E
330
1F
100
AcDbEntity
  8
0
  6
SLD-Сплошная
 62
     7
370
    25
100
AcDbLine
 10
-18.9787296498
 20
136.1434585216
 30
0.0
 11
-19.8837502345
 21
134.5759168871
 31
0.0
  0
LINE
  5
13F
330
1F
100
AcDbEntity
  8
0
  6
SLD-Сплошная
 62
     7
370
    25
100
AcDbLine
 10
-19.8837502345
 20
167.0759168871
 30
0.0
 11
-18.9787296498
 21
165.5083752526
 31
0.0
  0
LINE
  5
140
330
1F
100
AcDbEntity
  8
0
  6
SLD-Сплошная
 62
     7
370
    25
100
AcDbLine
 10
-25.118897838
 20
165.5083752526
 30
0.0
 11
-24.2138772534
 21
167.0759168871
 31
0.0
  0
LINE
  5
141
330
1F
100
AcDbEntity
  8
0
  6
SLD-Сплошная
 62
     7
370
    25
100
AcDbLine
 10
-24.2138772534
 20
134.5759168871
 30
0.0
 11
-25.118897838
 21
136.1434585216
 31
0.0
  0
LINE
  5
142
330
1F
100
AcDbEntity
  8
0
  6
SLD-Сплошная
 62
     7
370
    25
100
AcDbLine
 10
-36.7312721094
 20
147.755832793
 30
0.0
 11
-38.2988137439
 21
148.6608533776
 31
0.0
  0
LINE
  5
143
330
1F
100
AcDbEntity
  8
0
  6
SLD-Сплошная
 62
     7
370
    25
100
AcDbLine
 10
-38.2988137439
 20
152.9909803966
 30
0.0
 11
-36.7312721094
 21
153.8960009812
 31
0.0
  0
CIRCLE
  5
144
330
1F
100
AcDbEntity
  8
0
  6
SLD-Сплошная
 62
     7
370
    25
100
AcDbCircle
 10
-22.0488137439
 20
150.8259168871
 30
0.0
 40
4.00000000000001
  0
LINE
  5
145
330
1F
100
AcDbEntity
  8
0
  6
SLD-Сплошная
 62
     7
370
    25
100
AcDbLine
 10
-37.8837502345
 20
162.4682217325
 30
0.0
 11
-40.0488137439
 21
158.7182217325
 31
0.0
  0
LINE
  5
146
330
1F
100
AcDbEntity
  8
0
  6
SLD-Сплошная
 62
     7
370
    25
100
AcDbLine
 10
-24.2138772534
 20
170.3605265779
 30
0.0
 11
-37.8837502345
 21
162.4682217325
 31
0.0
  0
LINE
  5
147
330
1F
100
AcDbEntity
  8
0
  6
SLD-Сплошная
 62
     7
370
    25
100
AcDbLine
 10
-19.8837502345
 20
170.3605265779
 30
0.0
 11
-24.2138772534
 21
170.3605265779
 31
0.0
  0
LINE
  5
148
330
1F
100
AcDbEntity
  8
0
  6
SLD-Сплошная
 62
     7
370
    25
100
AcDbLine
 10
-19.8837502345
 20
170.3605265779
 30
0.0
 11
-6.2138772534
 21
162.4682217325
 31
0.0
  0
LINE
  5
149
330
1F
100
AcDbEntity
  8
0
  6
SLD-Сплошная
 62
     7
370
    25
100
AcDbLine
 10
-6.2138772534
 20
162.4682217325
 30
0.0
 11
-4.0488137439
 21
158.7182217325
 31
0.0
  0
LINE
  5
14A
330
1F
100
AcDbEntity
  8
0
  6
SLD-Сплошная
 62
     7
370
    25
100
AcDbLine
 10
-6.2138772534
 20
139.1836120417
 30
0.0
 11
-19.8837502345
 21
131.2913071963
 31
0.0
  0
LINE
  5
14B
330
1F
100
AcDbEntity
  8
0
  6
SLD-Сплошная
 62
     7
370
    25
100
AcDbLine
 10
-24.2138772534
 20
131.2913071963
 30
0.0
 11
-19.8837502345
 21
131.2913071963
 31
0.0
  0
LINE
  5
14C
330
1F
100
AcDbEntity
  8
0
  6
SLD-Сплошная
 62
     7
370
    25
100
AcDbLine
 10
-37.8837502345
 20
139.1836120417
 30
0.0
 11
-24.2138772534
 21
131.2913071963
 31
0.0
  0
LINE
  5
14D
330
1F
100
AcDbEntity
  8
0
  6
SLD-Сплошная
 62
     7
370
    25
100
AcDbLine
 10
-40.0488137439
 20
142.9336120417
 30
0.0
 11
-37.8837502345
 21
139.1836120417
 31
0.0
  0
LINE
  5
14E
330
1F
100
AcDbEntity
  8
0
  6
SLD-Сплошная
 62
     7
370
    25
100
AcDbLine
 10
-40.0488137439
 20
158.7182217325
 30
0.0
 11
-40.0488137439
 21
142.9336120417
 31
0.0
  0
LINE
  5
14F
330
1F
100
AcDbEntity
  8
0
  6
SLD-Сплошная
 62
     7
370
    25
100
AcDbLine
 10
-4.0488137439
 20
142.9336120417
 30
0.0
 11
-6.2138772534
 21
139.1836120417
 31
0.0
  0
LINE
  5
150
330
1F
100
AcDbEntity
  8
0
  6
SLD-Сплошная
 62
     7
370
    25
100
AcDbLine
 10
-4.0488137439
 20
158.7182217325
 30
0.0
 11
-4.0488137439
 21
142.9336120417
 31
0.0
  0
ARC
  5
151
330
1F
100
AcDbEntity
  8
0
  6
SLD-Сплошная
 62
     7
370
    25
100
AcDbCircle
 10
-22.0488137439
 20
150.8259168871
 30
0.0
 40
19.65422284835844
100
AcDbArc
 50
336.3244049672
 51
23.6755950328
  0
ARC
  5
152
330
1F
100
AcDbEntity
  8
0
  6
SLD-Сплошная
 62
     7
370
    25
100
AcDbCircle
 10
-22.0488137439
 20
150.8259168871
 30
0.0
 40
19.65422284835844
100
AcDbArc
 50
323.6755950328
 51
336.3244049672
  0
ARC
  5
153
330
1F
100
AcDbEntity
  8
0
  6
SLD-Сплошная
 62
     7
370
    25
100
AcDbCircle
 10
-22.0488137439
 20
150.8259168871
 30
0.0
 40
19.65422284835841
100
AcDbArc
 50
23.6755950328
 51
36.3244049672
  0
ARC
  5
154
330
1F
100
AcDbEntity
  8
0
  6
SLD-Сплошная
 62
     7
370
    25
100
AcDbCircle
 10
-22.0488137439
 20
150.8259168871
 30
0.0
 40
19.65422284835841
100
AcDbArc
 50
36.3244049672
 51
83.6755950328
  0
ARC
  5
155
330
1F
100
AcDbEntity
  8
0
  6
SLD-Сплошная
 62
     7
370
    25
100
AcDbCircle
 10
-22.0488137439
 20
150.8259168871
 30
0.0
 40
19.65422284835843
100
AcDbArc
 50
276.3244049672
 51
323.6755950328
  0
ARC
  5
156
330
1F
100
AcDbEntity
  8
0
  6
SLD-Сплошная
 62
     7
370
    25
100
AcDbCircle
 10
-22.0488137439
 20
150.8259168871
 30
0.0
 40
19.65422284835841
100
AcDbArc
 50
83.6755950328
 51
96.3244049672
  0
ARC
  5
157
330
1F
100
AcDbEntity
  8
0
  6
SLD-Сплошная
 62
     7
370
    25
100
AcDbCircle
 10
-22.0488137439
 20
150.8259168871
 30
0.0
 40
19.65422284835843
100
AcDbArc
 50
263.6755950328
 51
276.3244049672
  0
ARC
  5
158
330
1F
100
AcDbEntity
  8
0
  6
SLD-Сплошная
 62
     7
370
    25
100
AcDbCircle
 10
-22.0488137439
 20
150.8259168871
 30
0.0
 40
19.6542228483584
100
AcDbArc
 50
96.3244049672
 51
143.6755950328
  0
ARC
  5
159
330
1F
100
AcDbEntity
  8
0
  6
SLD-Сплошная
 62
     7
370
    25
100
AcDbCircle
 10
-22.0488137439
 20
150.8259168871
 30
0.0
 40
19.65422284835844
100
AcDbArc
 50
216.3244049672
 51
263.6755950328
  0
ARC
  5
15A
330
1F
100
AcDbEntity
  8
0
  6
SLD-Сплошная
 62
     7
370
    25
100
AcDbCircle
 10
-22.0488137439
 20
150.8259168871
 30
0.0
 40
19.65422284835844
100
AcDbArc
 50
203.6755950328
 51
216.3244049672
  0
ARC
  5
15B
330
1F
100
AcDbEntity
  8
0
  6
SLD-Сплошная
 62
     7
370
    25
100
AcDbCircle
 10
-22.0488137439
 20
150.8259168871
 30
0.0
 40
19.65422284835843
100
AcDbArc
 50
143.6755950328
 51
156.3244049672
  0
ARC
  5
15C
330
1F
100
AcDbEntity
  8
0
  6
SLD-Сплошная
 62
     7
370
    25
100
AcDbCircle
 10
-22.0488137439
 20
150.8259168871
 30
0.0
 40
19.65422284835843
100
AcDbArc
 50
156.3244049672
 51
203.6755950328
  0
ARC
  5
15D
330
1F
100
AcDbEntity
  8
0
  6
SLD-Сплошная
 62
     7
370
    25
100
AcDbCircle
 10
-22.0488137439
 20
150.8259168871
 30
0.0
 40
21.1479063658374
100
AcDbArc
 50
82.5282977356
 51
97.4717022644
  0
ARC
  5
15E
330
1F
100
AcDbEntity
  8
0
  6
SLD-Сплошная
 62
     7
370
    25
100
AcDbCircle
 10
-22.0488137439
 20
150.8259168871
 30
0.0
 40
21.65000000000001
100
AcDbArc
 50
8.0933143082
 51
82.7025314062
  0
SPLINE
  5
15F
330
1F
100
AcDbEntity
  8
0
  6
SLD-Сплошная
 62
     7
370
    25
100
AcDbSpline
210
0.0
220
0.0
230
1.0
 70
     8
 71
     3
 72
     9
 73
     5
 74
     0
 42
0.00000001
 43
0.00000001
 40
0.0
 40
0.0
 40
0.0
 40
0.0
 40
0.4014076672831083
 40
1.0
 40
1.0
 40
1.0
 40
1.0
 10
-2.740349189979167
 20
154.0839841587995
 30
0.0
 10
-2.697930377090405
 20
154.1619025548038
 30
0.0
 10
-2.592255233474273
 20
154.356015428959
 30
0.0
 10
-2.4687265939623
 20
154.3444336241133
 30
0.0
 10
-2.394783297479487
 20
154.3375008445337
 30
0.0
  0
SPLINE
  5
160
330
1F
100
AcDbEntity
  8
0
  6
SLD-Сплошная
 62
     7
370
    25
100
AcDbSpline
210
0.0
220
0.0
230
1.0
 70
     8
 71
     3
 72
     9
 73
     5
 74
     0
 42
0.00000001
 43
0.00000001
 40
0.0
 40
0.0
 40
0.0
 40
0.0
 40
0.2844280861015249
 40
1.0
 40
1.0
 40
1.0
 40
1.0
 10
-41.41027624130312
 20
154.165685277397
 30
0.0
 10
-41.43558523303047
 20
154.209962306193
 30
0.0
 10
-41.52456727441123
 20
154.365632688126
 30
0.0
 10
-41.62848417495546
 20
154.3492347491271
 30
0.0
 10
-41.70284419036428
 20
154.3375008445337
 30
0.0
  0
ARC
  5
161
330
1F
100
AcDbEntity
  8
0
  6
SLD-Сплошная
 62
     7
370
    25
100
AcDbCircle
 10
-22.0488137439
 20
150.8259168871
 30
0.0
 40
21.65
100
AcDbArc
 50
97.2974685938
 51
171.9065611353
  0
LWPOLYLINE
  5
162
330
1F
100
AcDbEntity
  8
0
  6
SLD-Сплошная
 62
     7
370
    25
100
AcDbPolyline
 90
        3
 70
   128
 43
0.0
 10
-1.431013142
 20
154.1891002817
 10
-1.5513695273
 20
154.2340832453
 10
-1.5802919248
 20
154.2438387527
  0
SPLINE
  5
163
330
1F
100
AcDbEntity
  8
0
  6
SLD-Сплошная
 62
     7
370
    25
100
AcDbSpline
210
0.0
220
0.0
230
1.0
 70
     8
 71
     3
 72
     9
 73
     5
 74
     0
 42
0.00000001
 43
0.00000001
 40
0.0
 40
0.0
 40
0.0
 40
0.0
 40
0.7002202668265918
 40
1.0
 40
1.0
 40
1.0
 40
1.0
 10
-2.048015817273066
 20
149.3785070923584
 30
0.0
 10
-2.133128118217819
 20
149.3893861573386
 30
0.0
 10
-2.254678871569316
 20
149.4049227898749
 30
0.0
 10
-2.406502395774366
 20
149.1990045068851
 30
0.0
 10
-2.452016011350002
 20
149.1372743789549
 30
0.0
  0
SPLINE
  5
164
330
1F
100
AcDbEntity
  8
0
  6
SLD-Сплошная
 62
     7
370
    25
100
AcDbSpline
210
0.0
220
0.0
230
1.0
 70
     8
 71
     3
 72
     9
 73
     5
 74
     0
 42
0.00000001
 43
0.00000001
 40
0.0
 40
0.0
 40
0.0
 40
0.0
 40
0.7120386229566762
 40
1.0
 40
1.0
 40
1.0
 40
1.0
 10
-42.04961167057067
 20
149.3785070923584
 30
0.0
 10
-41.96458287658482
 20
149.3899970372154
 30
0.0
 10
-41.84516689092835
 20
149.4061337248705
 30
0.0
 10
-41.6959805992783
 20
149.204491186736
 30
0.0
 10
-41.65302070929877
 20
149.1464259237844
 30
0.0
  0
LWPOLYLINE
  5
165
330
1F
100
AcDbEntity
  8
0
  6
SLD-Сплошная
 62
     7
370
    25
100
AcDbPolyline
 90
        3
 70
   128
 43
0.0
 10
-42.6666119816
 20
154.1891012365
 10
-42.5462579605
 20
154.2340832453
 10
-42.5173355631
 20
154.2438387527
  0
SPLINE
  5
166
330
1F
100
AcDbEntity
  8
0
  6
SLD-Сплошная
 62
     7
370
    25
100
AcDbSpline
210
0.0
220
0.0
230
1.0
 70
     8
 71
     3
 72
    22
 73
    18
 74
     0
 42
0.00000001
 43
0.00000001
 40
0.0
 40
0.0
 40
0.0
 40
0.0
 40
0.2499999999999998
 40
0.2499999999999998
 40
0.3749999999999998
 40
0.3749999999999998
 40
0.4999999999999999
 40
0.4999999999999999
 40
0.5625000000000001
 40
0.5625000000000001
 40
0.6250000000000003
 40
0.6250000000000003
 40
0.7500000000000002
 40
0.7500000000000002
 40
0.8750000000000001
 40
0.8750000000000001
 40
1.0
 40
1.0
 40
1.0
 40
1.0
 10
-22.04881374392187
 20
130.0992836172696
 30
0.0
 10
-23.80053239928753
 20
130.0993728109373
 30
0.0
 10
-25.51138669686982
 20
130.3258017802873
 30
0.0
 10
-28.01835674013131
 20
130.992935054235
 30
0.0
 10
-28.84720049651856
 20
131.2727405807367
 30
0.0
 10
-30.43689844525607
 20
131.9268835661702
 30
0.0
 10
-31.20368857833058
 20
132.302307863381
 30
0.0
 10
-32.3129338042059
 20
132.9361448524265
 30
0.0
 10
-32.67584083594417
 20
133.1592454823108
 30
0.0
 10
-33.38787201594943
 20
133.6292380295154
 30
0.0
 10
-33.73807441014073
 20
133.8769642047322
 30
0.0
 10
-34.75948475272424
 20
134.6502435123821
 30
0.0
 10
-35.39819514391986
 20
135.2026516146753
 30
0.0
 10
-36.59563617608138
 20
136.3775850939608
 30
0.0
 10
-37.15429671255416
 20
137.0001097049899
 30
0.0
 10
-38.19181813808042
 20
138.3151684987301
 30
0.0
 10
-38.6711061737329
 20
139.0092511525713
 30
0.0
 10
-39.10246865991031
 20
139.7278678323002
 30
0.0
  0
LWPOLYLINE
  5
167
330
1F
100
AcDbEntity
  8
0
  6
SLD-Сплошная
 62
     7
370
    25
100
AcDbPolyline
 90
        8
 70
   128
 43
0.0
 10
-40.7670923334
 20
141.9282753215
 10
-40.6629448811
 20
141.9126050044
 10
-40.3517901082
 20
141.5467602392
 10
-39.8899072247
 20
140.887659447
 10
-39.3055804107
 20
140.0250421003
 10
-39.1024759283
 20
139.7278784342
 10
-39.1024686599
 20
139.7278678323
 10
-39.1024686599
 20
139.7278678323
  0
SPLINE
  5
168
330
1F
100
AcDbEntity
  8
0
  6
SLD-Сплошная
 62
     7
370
    25
100
AcDbSpline
210
0.0
220
0.0
230
1.0
 70
     8
 71
     3
 72
    19
 73
    15
 74
     0
 42
0.00000001
 43
0.00000001
 40
0.0
 40
0.0
 40
0.0
 40
0.0
 40
0.0000027604012185
 40
0.0000449097089994
 40
0.0002135069411835
 40
0.0008878959370942
 40
0.0035854562213803
 40
0.0143759726026653
 40
0.0575556740531432
 40
0.2314286692830228
 40
0.4782122518203886
 40
0.7251327665856218
 40
0.972615890832903
 40
1.0
 40
1.0
 40
1.0
 40
1.0
 10
-4.995158827932514
 20
139.7278678323009
 30
0.0
 10
-4.995156406708713
 20
139.7278713591171
 30
0.0
 10
-4.995117015168263
 20
139.7279287378377
 30
0.0
 10
-4.994929743936096
 20
139.7282015226397
 30
0.0
 10
-4.994153403266082
 20
139.7293323779584
 30
0.0
 10
-4.991048511411664
 20
139.7338553469226
 30
0.0
 10
-4.97863630073455
 20
139.7519402401658
 30
0.0
 10
-4.929095079484476
 20
139.8241821171019
 30
0.0
 10
-4.731957213361771
 20
140.1125807140012
 30
0.0
 10
-4.350305495819343
 20
140.6772532641225
 30
0.0
 10
-3.879883206769373
 20
141.3742523672311
 30
0.0
 10
-3.520250529734977
 20
141.8439768260157
 30
0.0
 10
-3.332803427246425
 20
142.0322666283825
 30
0.0
 10
-3.323032043055653
 20
141.9543316682562
 30
0.0
 10
-3.322058552515984
 20
141.9465672671324
 30
0.0
  0
SPLINE
  5
169
330
1F
100
AcDbEntity
  8
0
  6
SLD-Сплошная
 62
     7
370
    25
100
AcDbSpline
210
0.0
220
0.0
230
1.0
 70
     8
 71
     3
 72
    28
 73
    24
 74
     0
 42
0.00000001
 43
0.00000001
 40
0.0
 40
0.0
 40
0.0
 40
0.0
 40
0.1250000000000016
 40
0.1250000000000016
 40
0.1875000000000021
 40
0.1875000000000021
 40
0.2500000000000025
 40
0.2500000000000025
 40
0.375000000000004
 40
0.375000000000004
 40
0.4375000000000046
 40
0.4375000000000046
 40
0.5000000000000051
 40
0.5000000000000051
 40
0.6250000000000038
 40
0.6250000000000038
 40
0.7500000000000026
 40
0.7500000000000026
 40
0.8125000000000019
 40
0.8125000000000019
 40
0.8750000000000012
 40
0.8750000000000012
 40
1.0
 40
1.0
 40
1.0
 40
1.0
 10
-4.995158827933017
 20
139.7278678323005
 30
0.0
 10
-4.823422113115507
 20
139.9780237440425
 30
0.0
 10
-4.659017600373621
 20
140.220651568912
 30
0.0
 10
-4.427879738231995
 20
140.5625657047424
 30
0.0
 10
-4.35303828551754
 20
140.6733875316277
 30
0.0
 10
-4.211196212527114
 20
140.8826974667178
 30
0.0
 10
-4.143688102453909
 20
140.9819381689036
 30
0.0
 10
-3.950572827762032
 20
141.2630987024677
 30
0.0
 10
-3.833561674417986
 20
141.4294586367281
 30
0.0
 10
-3.683962252378291
 20
141.6295747953068
 30
0.0
 10
-3.637989138762881
 20
141.6886870671265
 30
0.0
 10
-3.553506123161236
 20
141.7912530202719
 30
0.0
 10
-3.514853201230995
 20
141.8348023653469
 30
0.0
 10
-3.412958978283153
 20
141.9376599673992
 30
0.0
 10
-3.362326622909393
 20
141.9711761501598
 30
0.0
 10
-3.295071693082501
 20
141.9656797962406
 30
0.0
 10
-3.279862866118689
 20
141.9265982880729
 30
0.0
 10
-3.284640403901272
 20
141.8157197277139
 30
0.0
 10
-3.290997527987872
 20
141.7694875444286
 30
0.0
 10
-3.313215586115154
 20
141.661347568804
 30
0.0
 10
-3.328999604502211
 20
141.599509635557
 30
0.0
 10
-3.390644456121694
 20
141.391479463729
 30
0.0
 10
-3.451447647753763
 20
141.2209955165556
 30
0.0
 10
-3.532119588347767
 20
141.0257193628773
 30
0.0
  0
SPLINE
  5
16A
330
1F
100
AcDbEntity
  8
0
  6
SLD-Сплошная
 62
     7
370
    25
100
AcDbSpline
210
0.0
220
0.0
230
1.0
 70
     8
 71
     3
 72
    22
 73
    18
 74
     0
 42
0.00000001
 43
0.00000001
 40
0.0
 40
0.0
 40
0.0
 40
0.0
 40
0.2500000000000004
 40
0.2500000000000004
 40
0.3750000000000007
 40
0.3750000000000007
 40
0.5000000000000011
 40
0.5000000000000011
 40
0.5625000000000011
 40
0.5625000000000011
 40
0.6250000000000011
 40
0.6250000000000011
 40
0.7500000000000008
 40
0.7500000000000008
 40
0.8750000000000004
 40
0.8750000000000004
 40
1.0
 40
1.0
 40
1.0
 40
1.0
 10
-22.04881374392187
 20
130.0992836172696
 30
0.0
 10
-20.29709508855622
 20
130.0993728109373
 30
0.0
 10
-18.58624079097393
 20
130.3258017802872
 30
0.0
 10
-16.07927074771246
 20
130.992935054235
 30
0.0
 10
-15.25042699132527
 20
131.2727405807368
 30
0.0
 10
-13.66072904258777
 20
131.9268835661703
 30
0.0
 10
-12.89393890951318
 20
132.3023078633809
 30
0.0
 10
-11.78469368363788
 20
132.9361448524264
 30
0.0
 10
-11.42178665189964
 20
133.1592454823108
 30
0.0
 10
-10.70975547189438
 20
133.6292380295153
 30
0.0
 10
-10.35955307770312
 20
133.8769642047321
 30
0.0
 10
-9.338142735119614
 20
134.6502435123821
 30
0.0
 10
-8.699432343923966
 20
135.2026516146752
 30
0.0
 10
-7.501991311762504
 20
136.3775850939607
 30
0.0
 10
-6.943330775289676
 20
137.0001097049898
 30
0.0
 10
-5.905809349763411
 20
138.31516849873
 30
0.0
 10
-5.426521314110825
 20
139.0092511525713
 30
0.0
 10
-4.995158827933416
 20
139.7278678323002
 30
0.0
  0
SPLINE
  5
16B
330
1F
100
AcDbEntity
  8
0
  6
SLD-Сплошная
 62
     7
370
    25
100
AcDbSpline
210
0.0
220
0.0
230
1.0
 70
     8
 71
     3
 72
    10
 73
     6
 74
     0
 42
0.00000001
 43
0.00000001
 40
0.0
 40
0.0
 40
0.0
 40
0.0
 40
0.3152171156555155
 40
0.8830877846565004
 40
1.0
 40
1.0
 40
1.0
 40
1.0
 10
-0.5462170584064653
 20
148.3091261634222
 30
0.0
 10
-0.5628690494402997
 20
148.3863855654237
 30
0.0
 10
-0.6095199739676905
 20
148.6028295044385
 30
0.0
 10
-0.833293730611407
 20
148.8482735515604
 30
0.0
 10
-1.226320095009035
 20
149.0161101457063
 30
0.0
 10
-1.293421046274935
 20
149.0447646995597
 30
0.0
  0
SPLINE
  5
16C
330
1F
100
AcDbEntity
  8
0
  6
SLD-Сплошная
 62
     7
370
    25
100
AcDbSpline
210
0.0
220
0.0
230
1.0
 70
     8
 71
     3
 72
     8
 73
     4
 74
     0
 42
0.00000001
 43
0.00000001
 40
0.0
 40
0.0
 40
0.0
 40
0.0
 40
0.0001344299261662
 40
0.0001344299261662
 40
0.0001344299261662
 40
0.0001344299261662
 10
-0.5463217890437146
 20
148.3029543962199
 30
0.0
 10
-0.5462696196470752
 20
148.3050129636575
 30
0.0
 10
-0.5462347100795191
 20
148.3070702211893
 30
0.0
 10
-0.5462170584064653
 20
148.3091261634222
 30
0.0
  0
ARC
  5
16D
330
1F
100
AcDbEntity
  8
0
  6
SLD-Сплошная
 62
     7
370
    25
100
AcDbCircle
 10
-22.0488137439
 20
150.8259168871
 30
0.0
 40
21.65
100
AcDbArc
 50
186.6921154391
 51
206.2091718909
  0
ARC
  5
16E
330
1F
100
AcDbEntity
  8
0
  6
SLD-Сплошная
 62
     7
370
    25
100
AcDbCircle
 10
-22.0488137439
 20
150.8259168871
 30
0.0
 40
21.65
100
AcDbArc
 50
333.7660665534
 51
353.3078845609
  0
SPLINE
  5
16F
330
1F
100
AcDbEntity
  8
0
  6
SLD-Сплошная
 62
     7
370
    25
100
AcDbSpline
210
0.0
220
0.0
230
1.0
 70
     8
 71
     3
 72
     8
 73
     4
 74
     0
 42
0.00000001
 43
0.00000001
 40
0.0
 40
0.0
 40
0.0
 40
0.0
 40
0.0001344299261662
 40
0.0001344299261662
 40
0.0001344299261662
 40
0.0001344299261662
 10
-43.55130569879787
 20
148.302954396219
 30
0.0
 10
-43.5513578681945
 20
148.3050129636567
 30
0.0
 10
-43.55139277776421
 20
148.3070702211894
 30
0.0
 10
-43.55141042943726
 20
148.3091261634222
 30
0.0
  0
SPLINE
  5
170
330
1F
100
AcDbEntity
  8
0
  6
SLD-Сплошная
 62
     7
370
    25
100
AcDbSpline
210
0.0
220
0.0
230
1.0
 70
     8
 71
     3
 72
    10
 73
     6
 74
     0
 42
0.00000001
 43
0.00000001
 40
0.0
 40
0.0
 40
0.0
 40
0.0
 40
0.3151626874626199
 40
0.8829353028593434
 40
1.0
 40
1.0
 40
1.0
 40
1.0
 10
-43.55141042943726
 20
148.3091261634222
 30
0.0
 10
-43.5347600225235
 20
148.3863855670045
 30
0.0
 10
-43.48811353594387
 20
148.6028295104479
 30
0.0
 10
-43.26426391586462
 20
148.8483159083026
 30
0.0
 10
-42.87112224586768
 20
149.0161948138216
 30
0.0
 10
-42.80391940850905
 20
149.0448916924395
 30
0.0
  0
LINE
  5
171
330
1F
100
AcDbEntity
  8
0
  6
SLD-Сплошная
 62
     7
370
    25
100
AcDbLine
 10
1.7677131636
 20
150.850917512
 30
0.0
 11
1.7530655919
 21
151.0819739967
 31
0.0
  0
LINE
  5
172
330
1F
100
AcDbEntity
  8
0
  6
SLD-Сплошная
 62
     7
370
    25
100
AcDbLine
 10
-45.8653406515
 20
150.850917512
 30
0.0
 11
-45.8506930797
 21
151.0819739967
 31
0.0
  0
LINE
  5
173
330
1F
100
AcDbEntity
  8
0
  6
SLD-Сплошная
 62
     7
370
    25
100
AcDbLine
 10
-24.7988137439
 20
171.7942607334
 30
0.0
 11
-24.7988137439
 21
180.6991639523
 31
0.0
  0
ARC
  5
174
330
1F
100
AcDbEntity
  8
0
  6
SLD-Сплошная
 62
     7
370
    25
100
AcDbCircle
 10
-22.0488137439
 20
150.9308840073
 30
0.0
 40
29.89503287981481
100
AcDbArc
 50
84.721984126
 51
95.278015874
  0
LINE
  5
175
330
1F
100
AcDbEntity
  8
0
  6
SLD-Сплошная
 62
     7
370
    25
100
AcDbLine
 10
-19.2988137439
 20
171.7942607334
 30
0.0
 11
-19.2988137439
 21
180.6991639523
 31
0.0
  0
ARC
  5
176
330
1F
100
AcDbEntity
  8
0
  6
SLD-Сплошная
 62
     7
370
    25
100
AcDbCircle
 10
-22.0488137439
 20
148.2759168871
 30
0.0
 40
2.85
100
AcDbArc
 50
354.5717457393
 51
185.4282542608
  0
ARC
  5
177
330
1F
100
AcDbEntity
  8
0
  6
SLD-Сплошная
 62
     7
370
    25
100
AcDbCircle
 10
-22.0488137439
 20
148.2759168871
 30
0.0
 40
2.500000000000005
100
AcDbArc
 50
345.2438419965
 51
194.7561580035
  0
LINE
  5
178
330
1F
100
AcDbEntity
  8
0
  6
SLD-Сплошная
 62
     7
370
    25
100
AcDbLine
 10
-21.8738137439
 20
149.0009168871
 30
0.0
 11
-21.8738137439
 21
148.4509168871
 31
0.0
  0
ARC
  5
179
330
1F
100
AcDbEntity
  8
0
  6
SLD-Сплошная
 62
     7
370
    25
100
AcDbCircle
 10
-23.7513263705
 20
148.2759168871
 30
0.0
 40
0.1750000000000114
100
AcDbArc
 50
90.0
 51
270.0
  0
LINE
  5
17A
330
1F
100
AcDbEntity
  8
0
  6
SLD-Сплошная
 62
     7
370
    25
100
AcDbLine
 10
-23.7513263705
 20
148.4509168871
 30
0.0
 11
-22.2238137439
 21
148.4509168871
 31
0.0
  0
LINE
  5
17B
330
1F
100
AcDbEntity
  8
0
  6
SLD-Сплошная
 62
     7
370
    25
100
AcDbLine
 10
-22.2238137439
 20
149.0009168871
 30
0.0
 11
-22.2238137439
 21
148.4509168871
 31
0.0
  0
ARC
  5
17C
330
1F
100
AcDbEntity
  8
0
  6
SLD-Сплошная
 62
     7
370
    25
100
AcDbCircle
 10
-22.0488137439
 20
149.0009168871
 30
0.0
 40
0.1750000000000007
100
AcDbArc
 50
0.0
 51
180.0
  0
LINE
  5
17D
330
1F
100
AcDbEntity
  8
0
  6
SLD-Сплошная
 62
     7
370
    25
100
AcDbLine
 10
-21.8738137439
 20
148.4509168871
 30
0.0
 11
-20.3463011173
 21
148.4509168871
 31
0.0
  0
ARC
  5
17E
330
1F
100
AcDbEntity
  8
0
  6
SLD-Сплошная
 62
     7
370
    25
100
AcDbCircle
 10
-20.3463011173
 20
148.2759168871
 30
0.0
 40
0.1750000000000114
100
AcDbArc
 50
270.0
 51
90.0
  0
LINE
  5
17F
330
1F
100
AcDbEntity
  8
0
  6
SLD-Сплошная
 62
     7
370
    25
100
AcDbLine
 10
-23.7513263705
 20
148.1009168871
 30
0.0
 11
-20.3463011173
 21
148.1009168871
 31
0.0
  0
ARC
  5
180
330
1F
100
AcDbEntity
  8
0
  6
SLD-Сплошная
 62
     7
370
    25
100
AcDbCircle
 10
-23.0513263705
 20
147.5759168871
 30
0.0
 40
0.1750000000000114
100
AcDbArc
 50
90.0
 51
270.0
  0
LINE
  5
181
330
1F
100
AcDbEntity
  8
0
  6
SLD-Сплошная
 62
     7
370
    25
100
AcDbLine
 10
-23.0513263705
 20
147.4009168871
 30
0.0
 11
-21.0463011173
 21
147.4009168871
 31
0.0
  0
LINE
  5
182
330
1F
100
AcDbEntity
  8
0
  6
SLD-Сплошная
 62
     7
370
    25
100
AcDbLine
 10
-23.0513263705
 20
147.7509168871
 30
0.0
 11
-21.0463011173
 21
147.7509168871
 31
0.0
  0
ARC
  5
183
330
1F
100
AcDbEntity
  8
0
  6
SLD-Сплошная
 62
     7
370
    25
100
AcDbCircle
 10
-21.0463011173
 20
147.5759168871
 30
0.0
 40
0.1750000000000114
100
AcDbArc
 50
270.0
 51
90.0
  0
ARC
  5
184
330
1F
100
AcDbEntity
  8
0
  6
SLD-Сплошная
 62
     7
370
    25
100
AcDbCircle
 10
-22.3263263705
 20
146.8509168871
 30
0.0
 40
0.1750000000000114
100
AcDbArc
 50
90.0
 51
179.777943128
  0
LINE
  5
185
330
1F
100
AcDbEntity
  8
0
  6
SLD-Сплошная
 62
     7
370
    25
100
AcDbLine
 10
-22.3263263705
 20
147.0259168871
 30
0.0
 11
-21.7713011173
 21
147.0259168871
 31
0.0
  0
ARC
  5
186
330
1F
100
AcDbEntity
  8
0
  6
SLD-Сплошная
 62
     7
370
    25
100
AcDbCircle
 10
-21.7713011173
 20
146.8509168871
 30
0.0
 40
0.1750000000000114
100
AcDbArc
 50
0.222056872
 51
90.0
  0
LINE
  5
187
330
1F
100
AcDbEntity
  8
0
  6
SLD-Сплошная
 62
     7
370
    25
100
AcDbLine
 10
-18.3407145004
 20
152.3259168871
 30
0.0
 11
-25.7569129875
 21
152.3259168871
 31
0.0
  0
LINE
  5
188
330
1F
100
AcDbEntity
  8
0
  6
SLD-Сплошная
 62
     7
370
    25
100
AcDbLine
 10
1.7722218284
 20
150.450677214
 30
0.0
 11
1.7715130444
 21
150.5110063296
 31
0.0
  0
LINE
  5
189
330
1F
100
AcDbEntity
  8
0
  6
SLD-Сплошная
 62
     7
370
    25
100
AcDbLine
 10
-45.8698493163
 20
150.450677214
 30
0.0
 11
-45.8691405322
 21
150.5110063296
 31
0.0
  0
LINE
  5
18A
330
1F
100
AcDbEntity
  8
0
  6
SLD-Сплошная
 62
     7
370
    25
100
AcDbLine
 10
-25.3988137439
 20
152.3259168871
 30
0.0
 11
-25.3988137439
 21
153.0116661865
 31
0.0
  0
LINE
  5
18B
330
1F
100
AcDbEntity
  8
0
  6
SLD-Сплошная
 62
     7
370
    25
100
AcDbLine
 10
-18.6988137439
 20
152.3259168871
 30
0.0
 11
-18.6988137439
 21
153.0116661865
 31
0.0
  0
SPLINE
  5
18C
330
1F
100
AcDbEntity
  8
0
  6
SLD-Сплошная
 62
     7
370
    25
100
AcDbSpline
210
0.0
220
0.0
230
1.0
 70
     8
 71
     3
 72
    12
 73
     8
 74
     0
 42
0.00000001
 43
0.00000001
 40
0.0
 40
0.0
 40
0.0
 40
0.0
 40
0.2031859024085805
 40
0.4164429234542745
 40
0.6412860309519415
 40
0.8548258843945976
 40
1.0
 40
1.0
 40
1.0
 40
1.0
 10
-0.6755410414156158
 20
154.2763826504886
 30
0.0
 10
-0.4268392414868531
 20
154.2443264809699
 30
0.0
 10
0.0828915193727547
 20
154.1786252448561
 30
0.0
 10
0.7858695246286753
 20
153.783604266793
 30
0.0
 10
1.334480574476812
 20
153.1922239882465
 30
0.0
 10
1.657528977116875
 20
152.5320833044211
 30
0.0
 10
1.693492655487086
 20
152.0916577496027
 30
0.0
 10
1.708047414018421
 20
151.9134143692837
 30
0.0
  0
SPLINE
  5
18D
330
1F
100
AcDbEntity
  8
0
  6
SLD-Сплошная
 62
     7
370
    25
100
AcDbSpline
210
0.0
220
0.0
230
1.0
 70
     8
 71
     3
 72
    12
 73
     8
 74
     0
 42
0.00000001
 43
0.00000001
 40
0.0
 40
0.0
 40
0.0
 40
0.0
 40
0.203185902408603
 40
0.4164429234543219
 40
0.6412860309520152
 40
0.8548258843946962
 40
1.0
 40
1.0
 40
1.0
 40
1.0
 10
-43.42208644642812
 20
154.2763826504886
 30
0.0
 10
-43.67078824635688
 20
154.2443264809699
 30
0.0
 10
-44.1805190072165
 20
154.1786252448561
 30
0.0
 10
-44.8834970124724
 20
153.783604266793
 30
0.0
 10
-45.43210806232054
 20
153.1922239882465
 30
0.0
 10
-45.75515646496056
 20
152.5320833044213
 30
0.0
 10
-45.79112014333077
 20
152.091657749603
 30
0.0
 10
-45.8056749018621
 20
151.9134143692841
 30
0.0
  0
ARC
  5
18E
330
1F
100
AcDbEntity
  8
0
  6
SLD-Сплошная
 62
     7
370
    25
100
AcDbCircle
 10
-22.0488137439
 20
128.7068416218
 30
0.0
 40
7.500000000000004
100
AcDbArc
 50
203.1609353223
 51
336.8390646777
  0
ARC
  5
18F
330
1F
100
AcDbEntity
  8
0
  6
SLD-Сплошная
 62
     7
370
    25
100
AcDbCircle
 10
-22.0488137439
 20
150.8259168871
 30
0.0
 40
26.00000000000002
100
AcDbArc
 50
96.0714870347
 51
254.6204134445
  0
ARC
  5
190
330
1F
100
AcDbEntity
  8
0
  6
SLD-Сплошная
 62
     7
370
    25
100
AcDbCircle
 10
-22.0488137439
 20
150.8259168871
 30
0.0
 40
26.00000000000001
100
AcDbArc
 50
285.3795865555
 51
83.9285129653
  0
LINE
  5
191
330
1F
100
AcDbEntity
  8
0
  6
SLD-Сплошная
 62
     7
370
    25
100
AcDbLine
 10
66.6375266378
 20
249.8384344895
 30
0.0
 11
63.3375266378
 21
249.8384344895
 31
0.0
  0
LINE
  5
192
330
1F
100
AcDbEntity
  8
0
  6
SLD-Сплошная
 62
     7
370
    25
100
AcDbLine
 10
63.3375266378
 20
197.8384344895
 30
0.0
 11
66.6375266378
 21
197.8384344895
 31
0.0
  0
LINE
  5
193
330
1F
100
AcDbEntity
  8
0
  6
SLD-Сплошная
 62
     7
370
    25
100
AcDbLine
 10
82.1571061405
 20
204.9719392353
 30
0.0
 11
83.1058630669
 21
203.6508700003
 31
0.0
  0
LINE
  5
194
330
1F
100
AcDbEntity
  8
0
  6
SLD-Сплошная
 62
     7
370
    25
100
AcDbLine
 10
83.1058630669
 20
244.0259989786
 30
0.0
 11
82.1571061405
 21
242.7049297437
 31
0.0
  0
LINE
  5
195
330
1F
100
AcDbEntity
  8
0
  6
SLD-Сплошная
 62
     7
370
    25
100
AcDbLine
 10
63.3375266378
 20
245.4634344895
 30
0.0
 11
58.5125266378
 21
245.4634344895
 31
0.0
  0
LINE
  5
196
330
1F
100
AcDbEntity
  8
0
  6
SLD-Сплошная
 62
     7
370
    25
100
AcDbLine
 10
58.5125266378
 20
202.2134344895
 30
0.0
 11
63.3375266378
 21
202.2134344895
 31
0.0
  0
LINE
  5
197
330
1F
100
AcDbEntity
  8
0
  6
SLD-Сплошная
 62
     7
370
    25
100
AcDbLine
 10
39.6625266378
 20
245.4634344895
 30
0.0
 11
26.5375266378
 21
245.4634344895
 31
0.0
  0
LINE
  5
198
330
1F
100
AcDbEntity
  8
0
  6
SLD-Сплошная
 62
     7
370
    25
100
AcDbLine
 10
26.5375266378
 20
202.2134344895
 30
0.0
 11
39.6625266378
 21
202.2134344895
 31
0.0
  0
LINE
  5
199
330
1F
100
AcDbEntity
  8
0
  6
SLD-Сплошная
 62
     7
370
    25
100
AcDbLine
 10
40.7256790393
 20
244.6384344895
 30
0.0
 11
39.6625266378
 21
244.6384344895
 31
0.0
  0
LINE
  5
19A
330
1F
100
AcDbEntity
  8
0
  6
SLD-Сплошная
 62
     7
370
    25
100
AcDbLine
 10
58.5125266378
 20
244.6384344895
 30
0.0
 11
57.4625266378
 21
244.6384344895
 31
0.0
  0
LINE
  5
19B
330
1F
100
AcDbEntity
  8
0
  6
SLD-Сплошная
 62
     7
370
    25
100
AcDbLine
 10
39.6625266378
 20
203.0384344895
 30
0.0
 11
58.5125266378
 21
203.0384344895
 31
0.0
  0
LINE
  5
19C
330
1F
100
AcDbEntity
  8
0
  6
SLD-Сплошная
 62
     7
370
    25
100
AcDbLine
 10
140.2009488241
 20
243.4926573378
 30
0.0
 11
138.2009488241
 21
243.4926573378
 31
0.0
  0
LINE
  5
19D
330
1F
100
AcDbEntity
  8
0
  6
SLD-Сплошная
 62
     7
370
    25
100
AcDbLine
 10
138.2009488241
 20
204.1842116411
 30
0.0
 11
140.2009488241
 21
204.1842116411
 31
0.0
  0
ARC
  5
19E
330
1F
100
AcDbEntity
  8
0
  6
SLD-Сплошная
 62
     7
370
    25
100
AcDbCircle
 10
161.2105677673
 20
223.8384344895
 30
0.0
 40
15.00000000000004
100
AcDbArc
 50
30.0
 51
50.4130804784
  0
ARC
  5
19F
330
1F
100
AcDbEntity
  8
0
  6
SLD-Сплошная
 62
     7
370
    25
100
AcDbCircle
 10
161.2105677673
 20
223.8384344895
 30
0.0
 40
15.00000000000001
100
AcDbArc
 50
309.5869195216
 51
330.0
  0
SPLINE
  5
1A0
330
1F
100
AcDbEntity
  8
0
  6
SLD-Сплошная
 62
     7
370
    25
100
AcDbSpline
210
0.0
220
0.0
230
1.0
 70
     8
 71
     3
 72
    27
 73
    23
 74
     0
 42
0.00000001
 43
0.00000001
 40
0.0
 40
0.0
 40
0.0
 40
0.0
 40
0.0607238244784185
 40
0.1154334675824134
 40
0.1797879460454897
 40
0.2223245853795231
 40
0.2463937105167913
 40
0.2760023317312533
 40
0.3333701738911069
 40
0.3999432532780728
 40
0.46124977288872
 40
0.5159602926323675
 40
0.5755283378780266
 40
0.6233774690758205
 40
0.6620685020925384
 40
0.6879391065360629
 40
0.7265871481828677
 40
0.7777605058544317
 40
0.824083150010393
 40
0.8773916444826781
 40
0.9370574918811196
 40
1.0
 40
1.0
 40
1.0
 40
1.0
 10
115.0000145612733
 20
201.671673884507
 30
0.0
 10
115.5149958440813
 20
201.7430405487146
 30
0.0
 10
116.4939538679733
 20
201.8787056124688
 30
0.0
 10
118.0149888903299
 20
202.1011406125437
 30
0.0
 10
119.3536700846145
 20
202.3065928190626
 30
0.0
 10
120.3919145099884
 20
202.481156182334
 30
0.0
 10
121.1447430358655
 20
202.6171852449
 30
0.0
 10
122.007738878757
 20
202.7828438975219
 30
0.0
 10
123.1543399612325
 20
203.0281551273563
 30
0.0
 10
124.4574499711613
 20
203.35900935282
 30
0.0
 10
125.6850924995135
 20
203.7500586120922
 30
0.0
 10
126.7956580064996
 20
204.2030649838415
 30
0.0
 10
127.739817652785
 20
204.70336046801
 30
0.0
 10
128.5132944103611
 20
205.2346113277276
 30
0.0
 10
129.0575326269174
 20
205.6937770292527
 30
0.0
 10
129.5232490846578
 20
206.1549783884572
 30
0.0
 10
129.9977663461412
 20
206.7086222797502
 30
0.0
 10
130.4661400662062
 20
207.4188774933907
 30
0.0
 10
130.8619680364209
 20
208.2507361257399
 30
0.0
 10
131.1455724652971
 20
209.1353246862463
 30
0.0
 10
131.377525233466
 20
210.081746191376
 30
0.0
 10
131.4604527899228
 20
210.9108569231927
 30
0.0
 10
131.5030246715335
 20
211.336491120378
 30
0.0
  0
SPLINE
  5
1A1
330
1F
100
AcDbEntity
  8
0
  6
SLD-Сплошная
 62
     7
370
    25
100
AcDbSpline
210
0.0
220
0.0
230
1.0
 70
     8
 71
     3
 72
    24
 73
    20
 74
     0
 42
0.00000001
 43
0.00000001
 40
0.0
 40
0.0
 40
0.0
 40
0.0
 40
0.0692220478793609
 40
0.1330123370759299
 40
0.1875850126685219
 40
0.2517723873428812
 40
0.2992718535641769
 40
0.4014395795216195
 40
0.5090185454371001
 40
0.5760674822417534
 40
0.638904585566852
 40
0.6885739328621073
 40
0.7060366351692585
 40
0.727580615381343
 40
0.7677526387489225
 40
0.8102529145346627
 40
0.8638692550952422
 40
0.9285371532535212
 40
1.0
 40
1.0
 40
1.0
 40
1.0
 10
131.5030246715335
 20
236.3403778585519
 30
0.0
 10
131.4569479644226
 20
236.7981844983877
 30
0.0
 10
131.3684101258965
 20
237.6778743220629
 30
0.0
 10
131.120943232428
 20
238.6548226855151
 30
0.0
 10
130.7732562683966
 20
239.6658685062152
 30
0.0
 10
130.2852026346349
 20
240.5748995739567
 30
0.0
 10
129.4282115172185
 20
241.684002262841
 30
0.0
 10
128.1885904928186
 20
242.7554853168525
 30
0.0
 10
126.5609962564111
 20
243.6064958939826
 30
0.0
 10
124.9958416026596
 20
244.159161224865
 30
0.0
 10
123.760645633517
 20
244.5001565249678
 30
0.0
 10
122.8201027361353
 20
244.7190652083908
 30
0.0
 10
122.1509384393002
 20
244.8615333783282
 30
0.0
 10
121.5593815207812
 20
244.9812844706584
 30
0.0
 10
120.7684766369979
 20
245.1286674263525
 30
0.0
 10
119.6889623763895
 20
245.3126391388596
 30
0.0
 10
118.3673402240304
 20
245.5202006901012
 30
0.0
 10
116.7613595178003
 20
245.7596998083857
 30
0.0
 10
115.6063469807607
 20
245.9206848170897
 30
0.0
 10
115.0000145612733
 20
246.005195094423
 30
0.0
  0
ARC
  5
1A2
330
1F
100
AcDbEntity
  8
0
  6
SLD-Сплошная
 62
     7
370
    25
100
AcDbCircle
 10
90.8812268441
 20
382.1868456231
 30
0.0
 40
180.0
100
AcDbArc
 50
282.4904229733
 51
283.0539444625
  0
ARC
  5
1A3
330
1F
100
AcDbEntity
  8
0
  6
SLD-Сплошная
 62
     7
370
    25
100
AcDbCircle
 10
90.8812268441
 20
65.4900233559
 30
0.0
 40
180.0
100
AcDbArc
 50
76.9460555375
 51
77.5005532959
  0
LINE
  5
1A4
330
1F
100
AcDbEntity
  8
0
  6
SLD-Сплошная
 62
     7
370
    25
100
AcDbLine
 10
44.7892983626
 20
244.2384344895
 30
0.0
 11
40.7256790393
 21
244.2384344895
 31
0.0
  0
LINE
  5
1A5
330
1F
100
AcDbEntity
  8
0
  6
SLD-Сплошная
 62
     7
370
    25
100
AcDbLine
 10
47.9200678386
 20
244.2384344895
 30
0.0
 11
47.1373683626
 21
244.2384344895
 31
0.0
  0
LINE
  5
1A6
330
1F
100
AcDbEntity
  8
0
  6
SLD-Сплошная
 62
     7
370
    25
100
AcDbLine
 10
51.0508373146
 20
244.2384344895
 30
0.0
 11
50.2681378386
 21
244.2384344895
 31
0.0
  0
LINE
  5
1A7
330
1F
100
AcDbEntity
  8
0
  6
SLD-Сплошная
 62
     7
370
    25
100
AcDbLine
 10
57.4625266378
 20
244.2384344895
 30
0.0
 11
53.3989073146
 21
244.2384344895
 31
0.0
  0
LINE
  5
1A8
330
1F
100
AcDbEntity
  8
0
  6
SLD-Сплошная
 62
     7
370
    25
100
AcDbLine
 10
26.5375266378
 20
227.3384344895
 30
0.0
 11
25.1375266378
 21
227.3384344895
 31
0.0
  0
LINE
  5
1A9
330
1F
100
AcDbEntity
  8
0
  6
SLD-Сплошная
 62
     7
370
    25
100
AcDbLine
 10
25.1375266378
 20
220.3384344895
 30
0.0
 11
26.5375266378
 21
220.3384344895
 31
0.0
  0
SPLINE
  5
1AA
330
1F
100
AcDbEntity
  8
0
  6
SLD-Сплошная
 62
     7
370
    25
100
AcDbSpline
210
0.0
220
0.0
230
1.0
 70
     8
 71
     3
 72
    19
 73
    15
 74
     0
 42
0.00000001
 43
0.00000001
 40
0.0
 40
0.0
 40
0.0
 40
0.0
 40
0.0710685815162901
 40
0.1533044453697668
 40
0.2422163790322945
 40
0.3357945224883963
 40
0.4318567812258456
 40
0.5289378268883005
 40
0.628614414125368
 40
0.7200155164684018
 40
0.8043733529119669
 40
0.8819798502722958
 40
0.9520579331919411
 40
1.0
 40
1.0
 40
1.0
 40
1.0
 10
106.7557309801092
 20
205.3217403338909
 30
0.0
 10
106.8697636912529
 20
205.2045868061452
 30
0.0
 10
107.1157475164947
 20
204.951870961661
 30
0.0
 10
107.608616069087
 20
204.6254385804491
 30
0.0
 10
108.2028114187355
 20
204.3698270901273
 30
0.0
 10
108.874610894085
 20
204.2295270818387
 30
0.0
 10
109.58191773539
 20
204.2285332175568
 30
0.0
 10
110.2895856829655
 20
204.376908496183
 30
0.0
 10
110.9398878535748
 20
204.6662332131793
 30
0.0
 10
111.4900766724192
 20
205.0630210854073
 30
0.0
 10
111.9168145515857
 20
205.5156361170865
 30
0.0
 10
112.2248021954155
 20
205.9882965853359
 30
0.0
 10
112.4178605849967
 20
206.4193645554521
 30
0.0
 10
112.4867352224796
 20
206.6792209013129
 30
0.0
 10
112.5147134319566
 20
206.7847795734761
 30
0.0
  0
SPLINE
  5
1AB
330
1F
100
AcDbEntity
  8
0
  6
SLD-Сплошная
 62
     7
370
    25
100
AcDbSpline
210
0.0
220
0.0
230
1.0
 70
     8
 71
     3
 72
    19
 73
    15
 74
     0
 42
0.00000001
 43
0.00000001
 40
0.0
 40
0.0
 40
0.0
 40
0.0
 40
0.0710685815162883
 40
0.1533044453697701
 40
0.2422163790322936
 40
0.3357945224883904
 40
0.4318567812258383
 40
0.5289378268882927
 40
0.6286144141253578
 40
0.7200155164683952
 40
0.8043733529119581
 40
0.8819798502722906
 40
0.9520579331919327
 40
1.0
 40
1.0
 40
1.0
 40
1.0
 10
112.5147134319566
 20
240.8920894054538
 30
0.0
 10
112.4704231620996
 20
241.049464054842
 30
0.0
 10
112.3748831202015
 20
241.3889422437261
 30
0.0
 10
112.0975774968125
 20
241.9110333285714
 30
0.0
 10
111.6974293310063
 20
242.4192525656438
 30
0.0
 10
111.1740501336367
 20
242.863181437386
 30
0.0
 10
110.5529800299027
 20
243.2016424865052
 30
0.0
 10
109.8603007956089
 20
243.4090180533187
 30
0.0
 10
109.1507584206314
 20
243.4651546997775
 30
0.0
 10
108.4778997861913
 20
243.3790756083092
 30
0.0
 10
107.8868778914221
 20
243.1850171008406
 30
0.0
 10
107.3906401192596
 20
242.916665874876
 30
0.0
 10
107.0152477170466
 20
242.6300098423064
 30
0.0
 10
106.8306984576458
 20
242.4345345061968
 30
0.0
 10
106.7557309801092
 20
242.355128645039
 30
0.0
  0
LINE
  5
1AC
330
1F
100
AcDbEntity
  8
0
  6
SLD-Сплошная
 62
     7
370
    25
100
AcDbLine
 10
131.5375266378
 20
212.8384344895
 30
0.0
 11
138.2009488241
 21
212.8384344895
 31
0.0
  0
LINE
  5
1AD
330
1F
100
AcDbEntity
  8
0
  6
SLD-Сплошная
 62
     7
370
    25
100
AcDbLine
 10
138.2009488241
 20
234.8384344895
 30
0.0
 11
131.5375266378
 21
234.8384344895
 31
0.0
  0
SPLINE
  5
1AE
330
1F
100
AcDbEntity
  8
0
  6
SLD-Сплошная
 62
     7
370
    25
100
AcDbSpline
210
0.0
220
0.0
230
1.0
 70
     8
 71
     3
 72
    19
 73
    15
 74
     0
 42
0.00000001
 43
0.00000001
 40
0.0
 40
0.0
 40
0.0
 40
0.0
 40
0.0712325122129155
 40
0.1498626570438507
 40
0.236076935144573
 40
0.3273130583146981
 40
0.4213424962142526
 40
0.5165776128081428
 40
0.6154504259012327
 40
0.7060252051375141
 40
0.7894510397647134
 40
0.8659666462144882
 40
0.9346227955736308
 40
1.0
 40
1.0
 40
1.0
 40
1.0
 10
82.64753308254394
 20
204.1769182716822
 30
0.0
 10
82.7402220214933
 20
204.0496602877055
 30
0.0
 10
82.93522582295977
 20
203.7819283347486
 30
0.0
 10
83.37049976528343
 20
203.4012947774558
 30
0.0
 10
83.91085559536798
 20
203.0792208087205
 30
0.0
 10
84.54839627297886
 20
202.8559987690886
 30
0.0
 10
85.24192937020078
 20
202.7646039909238
 30
0.0
 10
85.95944726850787
 20
202.8208056373196
 30
0.0
 10
86.64066506677158
 20
203.0260946408162
 30
0.0
 10
87.23617154261605
 20
203.353349737141
 30
0.0
 10
87.71298609190043
 20
203.751830943912
 30
0.0
 10
88.07012089691416
 20
204.1820970236226
 30
0.0
 10
88.3301029817277
 20
204.6228823226844
 30
0.0
 10
88.42607863208211
 20
204.9016462814007
 30
0.0
 10
88.47289249994381
 20
205.037618468927
 30
0.0
  0
SPLINE
  5
1AF
330
1F
100
AcDbEntity
  8
0
  6
SLD-Сплошная
 62
     7
370
    25
100
AcDbSpline
210
0.0
220
0.0
230
1.0
 70
     8
 71
     3
 72
    19
 73
    15
 74
     0
 42
0.00000001
 43
0.00000001
 40
0.0
 40
0.0
 40
0.0
 40
0.0
 40
0.0712325122129154
 40
0.1498626570438498
 40
0.2360769351445734
 40
0.3273130583146995
 40
0.4213424962142499
 40
0.5165776128081423
 40
0.6154504259012337
 40
0.7060252051375187
 40
0.789451039764717
 40
0.8659666462144896
 40
0.9346227955736329
 40
1.0
 40
1.0
 40
1.0
 40
1.0
 10
88.47289249994381
 20
242.639250510003
 30
0.0
 10
88.42096544210739
 20
242.7878755905036
 30
0.0
 10
88.31171860217319
 20
243.1005607503448
 30
0.0
 10
88.0051176148405
 20
243.5908067542754
 30
0.0
 10
87.58098991159513
 20
244.0553837186023
 30
0.0
 10
87.03524304465441
 20
244.4534371720608
 30
0.0
 10
86.39777331002674
 20
244.7414883825282
 30
0.0
 10
85.69466045966387
 20
244.8951857445851
 30
0.0
 10
84.98318239906291
 20
244.8956683535397
 30
0.0
 10
84.31848226930266
 20
244.7546095064581
 30
0.0
 10
83.74680488821043
 20
244.5110435841568
 30
0.0
 10
83.28050180301996
 20
244.2024409253161
 30
0.0
 10
82.90415829182662
 20
243.855673098268
 30
0.0
 10
82.7316682402742
 20
243.6165751010878
 30
0.0
 10
82.64753308254394
 20
243.4999507072478
 30
0.0
  0
LINE
  5
1B0
330
1F
100
AcDbEntity
  8
0
  6
SLD-Сплошная
 62
     7
370
    25
100
AcDbLine
 10
47.1373683626
 20
244.6384344895
 30
0.0
 11
44.7892983626
 21
244.6384344895
 31
0.0
  0
LINE
  5
1B1
330
1F
100
AcDbEntity
  8
0
  6
SLD-Сплошная
 62
     7
370
    25
100
AcDbLine
 10
50.2681378386
 20
244.6384344895
 30
0.0
 11
47.9200678386
 21
244.6384344895
 31
0.0
  0
LINE
  5
1B2
330
1F
100
AcDbEntity
  8
0
  6
SLD-Сплошная
 62
     7
370
    25
100
AcDbLine
 10
53.3989073146
 20
244.6384344895
 30
0.0
 11
51.0508373146
 21
244.6384344895
 31
0.0
  0
LINE
  5
1B3
330
1F
100
AcDbEntity
  8
0
  6
SLD-Сплошная
 62
     7
370
    25
100
AcDbLine
 10
170.69906672
 20
210.4698748204
 30
0.0
 11
170.7692887717
 21
212.2785533153
 31
0.0
  0
LINE
  5
1B4
330
1F
100
AcDbEntity
  8
0
  6
SLD-Сплошная
 62
     7
370
    25
100
AcDbLine
 10
170.7692887717
 20
235.3983156636
 30
0.0
 11
170.69906672
 21
237.2069941585
 31
0.0
  0
LINE
  5
1B5
330
1F
100
AcDbEntity
  8
0
  6
SLD-Сплошная
 62
     7
370
    25
100
AcDbLine
 10
80.9432906233
 20
200.0139854105
 30
0.0
 11
83.8840566845
 21
200.0174168471
 31
0.0
  0
LINE
  5
1B6
330
1F
100
AcDbEntity
  8
0
  6
SLD-Сплошная
 62
     7
370
    25
100
AcDbLine
 10
83.8840566845
 20
247.6594521318
 30
0.0
 11
80.9432906233
 21
247.6628835684
 31
0.0
  0
LINE
  5
1B7
330
1F
100
AcDbEntity
  8
0
  6
SLD-Сплошная
 62
     7
370
    25
100
AcDbLine
 10
83.8841292157
 20
200.0174233591
 30
0.0
 11
91.6696273293
 21
200.0215685741
 31
0.0
  0
LINE
  5
1B8
330
1F
100
AcDbEntity
  8
0
  6
SLD-Сплошная
 62
     7
370
    25
100
AcDbLine
 10
91.6696273293
 20
247.6553004048
 30
0.0
 11
83.8841292157
 21
247.6594456198
 31
0.0
  0
LINE
  5
1B9
330
1F
100
AcDbEntity
  8
0
  6
SLD-Сплошная
 62
     7
370
    25
100
AcDbLine
 10
66.6375266378
 20
200.0579921035
 30
0.0
 11
80.9429222759
 21
200.0140071982
 31
0.0
  0
LINE
  5
1BA
330
1F
100
AcDbEntity
  8
0
  6
SLD-Сплошная
 62
     7
370
    25
100
AcDbLine
 10
80.9429222759
 20
247.6628617808
 30
0.0
 11
66.6375266378
 21
247.6188768754
 31
0.0
  0
SPLINE
  5
1BB
330
1F
100
AcDbEntity
  8
0
  6
SLD-Сплошная
 62
     7
370
    25
100
AcDbSpline
210
0.0
220
0.0
230
1.0
 70
     8
 71
     3
 72
    10
 73
     6
 74
     0
 42
0.00000001
 43
0.00000001
 40
0.0
 40
0.0
 40
0.0
 40
0.0
 40
0.3330157648459376
 40
0.6671645690770158
 40
1.0
 40
1.0
 40
1.0
 40
1.0
 10
91.6698817678222
 20
200.0215995482834
 30
0.0
 10
94.26766784446657
 20
200.0686581504494
 30
0.0
 10
99.47207860015713
 20
200.1629354650683
 30
0.0
 10
107.2589502423065
 20
200.7134125015106
 30
0.0
 10
112.4234678392083
 20
201.352768817963
 30
0.0
 10
115.0006418551385
 20
201.6718174909059
 30
0.0
  0
SPLINE
  5
1BC
330
1F
100
AcDbEntity
  8
0
  6
SLD-Сплошная
 62
     7
370
    25
100
AcDbSpline
210
0.0
220
0.0
230
1.0
 70
     8
 71
     3
 72
    10
 73
     6
 74
     0
 42
0.00000001
 43
0.00000001
 40
0.0
 40
0.0
 40
0.0
 40
0.0
 40
0.3328354309229842
 40
0.666984235154061
 40
1.0
 40
1.0
 40
1.0
 40
1.0
 10
115.0006418551384
 20
246.005051488024
 30
0.0
 10
112.4234678392083
 20
246.324100160967
 30
0.0
 10
107.2589502423065
 20
246.9634564774194
 30
0.0
 10
99.47207860015713
 20
247.5139335138617
 30
0.0
 10
94.26766784446657
 20
247.6082108284806
 30
0.0
 10
91.6698817678222
 20
247.6552694306466
 30
0.0
  0
LINE
  5
1BD
330
1F
100
AcDbEntity
  8
0
  6
SLD-Сплошная
 62
     7
370
    25
100
AcDbLine
 10
149.2009488241
 20
206.3384344895
 30
0.0
 11
161.2105677673
 21
206.3384344895
 31
0.0
  0
ARC
  5
1BE
330
1F
100
AcDbEntity
  8
0
  6
SLD-Сплошная
 62
     7
370
    25
100
AcDbCircle
 10
161.2105677673
 20
223.8384344895
 30
0.0
 40
17.49999999999998
100
AcDbArc
 50
270.0
 51
297.7766046258
  0
ARC
  5
1BF
330
1F
100
AcDbEntity
  8
0
  6
SLD-Сплошная
 62
     7
370
    25
100
AcDbCircle
 10
168.2009488241
 20
210.5668643984
 30
0.0
 40
2.500000000000021
100
AcDbArc
 50
297.7766046258
 51
357.7766046258
  0
ARC
  5
1C0
330
1F
100
AcDbEntity
  8
0
  6
SLD-Сплошная
 62
     7
370
    25
100
AcDbCircle
 10
168.2009488241
 20
237.1100045805
 30
0.0
 40
2.500000000000023
100
AcDbArc
 50
2.2233953742
 51
62.2233953742
  0
ARC
  5
1C1
330
1F
100
AcDbEntity
  8
0
  6
SLD-Сплошная
 62
     7
370
    25
100
AcDbCircle
 10
161.2105677673
 20
223.8384344895
 30
0.0
 40
17.50000000000003
100
AcDbArc
 50
62.2233953742
 51
90.0
  0
LINE
  5
1C2
330
1F
100
AcDbEntity
  8
0
  6
SLD-Сплошная
 62
     7
370
    25
100
AcDbLine
 10
161.2105677673
 20
241.3384344895
 30
0.0
 11
149.2009488241
 21
241.3384344895
 31
0.0
  0
LINE
  5
1C3
330
1F
100
AcDbEntity
  8
0
  6
SLD-Сплошная
 62
     7
370
    25
100
AcDbLine
 10
66.6375266378
 20
230.7339623748
 30
0.0
 11
63.3375266378
 21
230.7339623748
 31
0.0
  0
LINE
  5
1C4
330
1F
100
AcDbEntity
  8
0
  6
SLD-Сплошная
 62
     7
370
    25
100
AcDbLine
 10
63.3375266378
 20
216.9429066041
 30
0.0
 11
66.6375266378
 21
216.9429066041
 31
0.0
  0
LINE
  5
1C5
330
1F
100
AcDbEntity
  8
0
  6
SLD-Сплошная
 62
     7
370
    25
100
AcDbLine
 10
66.6375266378
 20
216.9429066041
 30
0.0
 11
66.6375266378
 21
230.7339623748
 31
0.0
  0
LINE
  5
1C6
330
1F
100
AcDbEntity
  8
0
  6
SLD-Сплошная
 62
     7
370
    25
100
AcDbLine
 10
63.3375266378
 20
216.9429066041
 30
0.0
 11
63.3375266378
 21
230.7339623748
 31
0.0
  0
LINE
  5
1C7
330
1F
100
AcDbEntity
  8
0
  6
SLD-Сплошная
 62
     7
370
    25
100
AcDbLine
 10
38.8375266378
 20
226.8443592242
 30
0.0
 11
26.5375266378
 21
226.8443592242
 31
0.0
  0
LINE
  5
1C8
330
1F
100
AcDbEntity
  8
0
  6
SLD-Сплошная
 62
     7
370
    25
100
AcDbLine
 10
38.8375266378
 20
220.8325097548
 30
0.0
 11
26.5375266378
 21
220.8325097548
 31
0.0
  0
LINE
  5
1C9
330
1F
100
AcDbEntity
  8
0
  6
SLD-Сплошная
 62
     7
370
    25
100
AcDbLine
 10
38.8375266378
 20
220.8325097548
 30
0.0
 11
38.8375266378
 21
226.8443592242
 31
0.0
  0
LINE
  5
1CA
330
1F
100
AcDbEntity
  8
0
  6
SLD-Сплошная
 62
     7
370
    25
100
AcDbLine
 10
26.5375266378
 20
220.8325097548
 30
0.0
 11
26.5375266378
 21
226.8443592242
 31
0.0
  0
LINE
  5
1CB
330
1F
100
AcDbEntity
  8
0
  6
SLD-Сплошная
 62
     7
370
    25
100
AcDbLine
 10
66.6375266378
 20
230.7339623748
 30
0.0
 11
66.6375266378
 21
249.8384344895
 31
0.0
  0
LINE
  5
1CC
330
1F
100
AcDbEntity
  8
0
  6
SLD-Сплошная
 62
     7
370
    25
100
AcDbLine
 10
66.6375266378
 20
197.8384344895
 30
0.0
 11
66.6375266378
 21
216.9429066041
 31
0.0
  0
LINE
  5
1CD
330
1F
100
AcDbEntity
  8
0
  6
SLD-Сплошная
 62
     7
370
    25
100
AcDbLine
 10
63.3375266378
 20
216.9429066041
 30
0.0
 11
63.3375266378
 21
197.8384344895
 31
0.0
  0
LINE
  5
1CE
330
1F
100
AcDbEntity
  8
0
  6
SLD-Сплошная
 62
     7
370
    25
100
AcDbLine
 10
63.3375266378
 20
249.8384344895
 30
0.0
 11
63.3375266378
 21
230.7339623748
 31
0.0
  0
LINE
  5
1CF
330
1F
100
AcDbEntity
  8
0
  6
SLD-Сплошная
 62
     7
370
    25
100
AcDbLine
 10
82.6475330825
 20
204.1769182717
 30
0.0
 11
83.1049386071
 21
203.6516736704
 31
0.0
  0
SPLINE
  5
1D0
330
1F
100
AcDbEntity
  8
0
  6
SLD-Сплошная
 62
     7
370
    25
100
AcDbSpline
210
0.0
220
0.0
230
1.0
 70
     8
 71
     3
 72
    14
 73
    10
 74
     0
 42
0.00000001
 43
0.00000001
 40
0.0
 40
0.0
 40
0.0
 40
0.0
 40
0.0757304540270768
 40
0.2292844507341768
 40
0.3792458728373134
 40
0.5332088011870567
 40
0.6886423092595203
 40
0.8489515027009591
 40
1.0
 40
1.0
 40
1.0
 40
1.0
 10
82.17819146080042
 20
204.9893131966672
 30
0.0
 10
82.01647659812323
 20
205.2545629567632
 30
0.0
 10
81.52686242716854
 20
206.0576433863249
 30
0.0
 10
80.80892418833965
 20
207.8940084240703
 30
0.0
 10
80.04974416234693
 20
210.4408919310834
 30
0.0
 10
79.42754634935254
 20
213.3937312876567
 30
0.0
 10
78.95670088582926
 20
216.715722943539
 30
0.0
 10
78.6629835373279
 20
220.2405407134809
 30
0.0
 10
78.62490884426441
 20
222.6631551304061
 30
0.0
 10
78.60643772457347
 20
223.838434489465
 30
0.0
  0
SPLINE
  5
1D1
330
1F
100
AcDbEntity
  8
0
  6
SLD-Сплошная
 62
     7
370
    25
100
AcDbSpline
210
0.0
220
0.0
230
1.0
 70
     8
 71
     3
 72
    26
 73
    22
 74
     0
 42
0.00000001
 43
0.00000001
 40
0.0
 40
0.0
 40
0.0
 40
0.0
 40
0.25
 40
0.25
 40
0.3125
 40
0.3125
 40
0.375
 40
0.375
 40
0.4999999999999996
 40
0.4999999999999996
 40
0.5624999999999996
 40
0.5624999999999996
 40
0.6249999999999994
 40
0.6249999999999994
 40
0.7499999999999996
 40
0.7499999999999996
 40
0.8749999999999997
 40
0.8749999999999997
 40
0.9374999999999999
 40
0.9374999999999999
 40
1.0
 40
1.0
 40
1.0
 40
1.0
 10
84.66861555106458
 20
223.838434489465
 30
0.0
 10
84.66986936220486
 20
221.8902943265894
 30
0.0
 10
84.75971847224861
 20
219.9886457419022
 30
0.0
 10
84.98272078475851
 20
217.6678425237334
 30
0.0
 10
85.03303553305211
 20
217.2049435133387
 30
0.0
 10
85.14405286745394
 20
216.2930032993907
 30
0.0
 10
85.20454858857957
 20
215.8452549887428
 30
0.0
 10
85.40051450118412
 20
214.525902364748
 30
0.0
 10
85.5504578310154
 20
213.6780958580939
 30
0.0
 10
85.80265985314335
 20
212.4528036656515
 30
0.0
 10
85.89130678100521
 20
212.0521378731161
 30
0.0
 10
86.0779642865661
 20
211.2664802574025
 30
0.0
 10
86.17631380737129
 20
210.8803629122478
 30
0.0
 10
86.48164468558633
 20
209.7604778408241
 30
0.0
 10
86.69965872010198
 20
209.0612594721371
 30
0.0
 10
87.16208988328131
 20
207.7529483222365
 30
0.0
 10
87.40666450430473
 20
207.1439042760292
 30
0.0
 10
87.79375415070989
 20
206.2982607148535
 30
0.0
 10
87.92637603576952
 20
206.0273690451516
 30
0.0
 10
88.19606151494528
 20
205.5128677122666
 30
0.0
 10
88.33334009659796
 20
205.2687331355713
 30
0.0
 10
88.47289249994378
 20
205.037618468927
 30
0.0
  0
SPLINE
  5
1D2
330
1F
100
AcDbEntity
  8
0
  6
SLD-Сплошная
 62
     7
370
    25
100
AcDbSpline
210
0.0
220
0.0
230
1.0
 70
     8
 71
     3
 72
    14
 73
    10
 74
     0
 42
0.00000001
 43
0.00000001
 40
0.0
 40
0.0
 40
0.0
 40
0.0
 40
0.0757304540270746
 40
0.2292844507341749
 40
0.3792458728373119
 40
0.5332088011870555
 40
0.6886423092595195
 40
0.8489515027009586
 40
1.0
 40
1.0
 40
1.0
 40
1.0
 10
82.1781914608004
 20
242.6875557822627
 30
0.0
 10
82.01647659812322
 20
242.4223060221668
 30
0.0
 10
81.52686242716852
 20
241.6192255926051
 30
0.0
 10
80.80892418833963
 20
239.7828605548596
 30
0.0
 10
80.04974416234694
 20
237.2359770478466
 30
0.0
 10
79.42754634935253
 20
234.2831376912733
 30
0.0
 10
78.95670088582926
 20
230.961146035391
 30
0.0
 10
78.6629835373279
 20
227.436328265449
 30
0.0
 10
78.62490884426441
 20
225.0137138485239
 30
0.0
 10
78.60643772457347
 20
223.838434489465
 30
0.0
  0
LINE
  5
1D3
330
1F
100
AcDbEntity
  8
0
  6
SLD-Сплошная
 62
     7
370
    25
100
AcDbLine
 10
82.6475330825
 20
243.4999507072
 30
0.0
 11
83.1049386071
 21
244.0251953086
 31
0.0
  0
SPLINE
  5
1D4
330
1F
100
AcDbEntity
  8
0
  6
SLD-Сплошная
 62
     7
370
    25
100
AcDbSpline
210
0.0
220
0.0
230
1.0
 70
     8
 71
     3
 72
    26
 73
    22
 74
     0
 42
0.00000001
 43
0.00000001
 40
0.0
 40
0.0
 40
0.0
 40
0.0
 40
0.2499999999999999
 40
0.2499999999999999
 40
0.3124999999999999
 40
0.3124999999999999
 40
0.3749999999999999
 40
0.3749999999999999
 40
0.4999999999999998
 40
0.4999999999999998
 40
0.5624999999999999
 40
0.5624999999999999
 40
0.6249999999999999
 40
0.6249999999999999
 40
0.7499999999999998
 40
0.7499999999999998
 40
0.8749999999999998
 40
0.8749999999999998
 40
0.9374999999999999
 40
0.9374999999999999
 40
1.0
 40
1.0
 40
1.0
 40
1.0
 10
84.66861555106458
 20
223.838434489465
 30
0.0
 10
84.66986936220488
 20
225.7865746523406
 30
0.0
 10
84.75971847224862
 20
227.6882232370277
 30
0.0
 10
84.98272078475851
 20
230.0090264551965
 30
0.0
 10
85.03303553305211
 20
230.4719254655913
 30
0.0
 10
85.14405286745394
 20
231.3838656795392
 30
0.0
 10
85.20454858857958
 20
231.8316139901872
 30
0.0
 10
85.4005145011841
 20
233.150966614182
 30
0.0
 10
85.55045783101538
 20
233.9987731208361
 30
0.0
 10
85.80265985314335
 20
235.2240653132785
 30
0.0
 10
85.89130678100521
 20
235.6247311058139
 30
0.0
 10
86.07796428656611
 20
236.4103887215275
 30
0.0
 10
86.1763138073713
 20
236.7965060666822
 30
0.0
 10
86.48164468558633
 20
237.9163911381058
 30
0.0
 10
86.69965872010201
 20
238.6156095067929
 30
0.0
 10
87.16208988328131
 20
239.9239206566935
 30
0.0
 10
87.40666450430473
 20
240.5329647029008
 30
0.0
 10
87.79375415070989
 20
241.3786082640764
 30
0.0
 10
87.92637603576951
 20
241.6494999337784
 30
0.0
 10
88.19606151494527
 20
242.1640012666634
 30
0.0
 10
88.33334009659796
 20
242.4081358433587
 30
0.0
 10
88.47289249994378
 20
242.639250510003
 30
0.0
  0
SPLINE
  5
1D5
330
1F
100
AcDbEntity
  8
0
  6
SLD-Сплошная
 62
     7
370
    25
100
AcDbSpline
210
0.0
220
0.0
230
1.0
 70
     8
 71
     3
 72
    28
 73
    24
 74
     0
 42
0.00000001
 43
0.00000001
 40
0.0
 40
0.0
 40
0.0
 40
0.0
 40
0.1250000000000002
 40
0.1250000000000002
 40
0.2500000000000003
 40
0.2500000000000003
 40
0.3125000000000003
 40
0.3125000000000003
 40
0.3750000000000004
 40
0.3750000000000004
 40
0.5000000000000002
 40
0.5000000000000002
 40
0.5625000000000002
 40
0.5625000000000002
 40
0.6250000000000001
 40
0.6250000000000001
 40
0.7500000000000001
 40
0.7500000000000001
 40
0.875
 40
0.875
 40
0.9375
 40
0.9375
 40
1.0
 40
1.0
 40
1.0
 40
1.0
 10
106.7557309801074
 20
205.3217403338903
 30
0.0
 10
106.484853047912
 20
205.7403967995953
 30
0.0
 10
106.2244726835899
 20
206.2130962951147
 30
0.0
 10
105.7245695863412
 20
207.2640109455535
 30
0.0
 10
105.485133890825
 20
207.8422253127529
 30
0.0
 10
105.1453073386429
 20
208.7920377081902
 30
0.0
 10
105.0351230694212
 20
209.1233076329846
 30
0.0
 10
104.8220429036716
 20
209.8106712130296
 30
0.0
 10
104.7198118128613
 20
210.1644877838625
 30
0.0
 10
104.4253153025292
 20
211.2557159425834
 30
0.0
 10
104.2449351205236
 20
212.0227105503189
 30
0.0
 10
104.0008753647117
 20
213.2334010187441
 30
0.0
 10
103.9238563671631
 20
213.6470148269497
 30
0.0
 10
103.7783539350303
 20
214.494796379985
 30
0.0
 10
103.7096264824782
 20
214.9307079392654
 30
0.0
 10
103.5184809192489
 20
216.2570977002553
 30
0.0
 10
103.4114297823925
 20
217.1611407092696
 30
0.0
 10
103.2402312217636
 20
219.0081466401961
 30
0.0
 10
103.1753589232542
 20
219.9510355673952
 30
0.0
 10
103.1110526265912
 20
221.3955616759063
 30
0.0
 10
103.0949386688582
 20
221.8833624136611
 30
0.0
 10
103.0728566240932
 20
222.8594596263744
 30
0.0
 10
103.066822606346
 20
223.3484709510142
 30
0.0
 10
103.0651121649097
 20
223.838434489465
 30
0.0
  0
SPLINE
  5
1D6
330
1F
100
AcDbEntity
  8
0
  6
SLD-Сплошная
 62
     7
370
    25
100
AcDbSpline
210
0.0
220
0.0
230
1.0
 70
     8
 71
     3
 72
    22
 73
    18
 74
     0
 42
0.00000001
 43
0.00000001
 40
0.0
 40
0.0
 40
0.0
 40
0.0
 40
0.2500000000000004
 40
0.2500000000000004
 40
0.3750000000000007
 40
0.3750000000000007
 40
0.5000000000000011
 40
0.5000000000000011
 40
0.5625000000000011
 40
0.5625000000000011
 40
0.6250000000000011
 40
0.6250000000000011
 40
0.7500000000000008
 40
0.7500000000000008
 40
0.8750000000000004
 40
0.8750000000000004
 40
1.0
 40
1.0
 40
1.0
 40
1.0
 10
109.1056190673121
 20
223.838434489465
 30
0.0
 10
109.1064954948935
 20
222.0867158340993
 30
0.0
 10
109.1867526834524
 20
220.375861536517
 30
0.0
 10
109.4252187410102
 20
217.8688914932556
 30
0.0
 10
109.5251902702148
 20
217.0400477368684
 30
0.0
 10
109.7586183326704
 20
215.4503497881309
 30
0.0
 10
109.8924871454298
 20
214.6835596550563
 30
0.0
 10
110.117898560162
 20
213.574314429181
 30
0.0
 10
110.1971281226449
 20
213.2114073974428
 30
0.0
 10
110.3639022476535
 20
212.4993762174375
 30
0.0
 10
110.4517438470487
 20
212.1491738232463
 30
0.0
 10
110.7258172767736
 20
211.1277634806627
 30
0.0
 10
110.9215020723167
 20
210.4890530894671
 30
0.0
 10
111.3367164439109
 20
209.2916120573056
 30
0.0
 10
111.5564431404608
 20
208.7329515208328
 30
0.0
 10
112.0195454810803
 20
207.6954300953065
 30
0.0
 10
112.263446451715
 20
207.2161420596539
 30
0.0
 10
112.5147134319585
 20
206.7847795734766
 30
0.0
  0
SPLINE
  5
1D7
330
1F
100
AcDbEntity
  8
0
  6
SLD-Сплошная
 62
     7
370
    25
100
AcDbSpline
210
0.0
220
0.0
230
1.0
 70
     8
 71
     3
 72
    28
 73
    24
 74
     0
 42
0.00000001
 43
0.00000001
 40
0.0
 40
0.0
 40
0.0
 40
0.0
 40
0.1249999999999998
 40
0.1249999999999998
 40
0.2499999999999996
 40
0.2499999999999996
 40
0.3124999999999996
 40
0.3124999999999996
 40
0.3749999999999997
 40
0.3749999999999997
 40
0.4999999999999999
 40
0.4999999999999999
 40
0.5625
 40
0.5625
 40
0.6250000000000001
 40
0.6250000000000001
 40
0.75
 40
0.75
 40
0.875
 40
0.875
 40
0.9375
 40
0.9375
 40
1.0
 40
1.0
 40
1.0
 40
1.0
 10
106.7557309801074
 20
242.3551286450396
 30
0.0
 10
106.484853047912
 20
241.9364721793346
 30
0.0
 10
106.22447268359
 20
241.4637726838153
 30
0.0
 10
105.7245695863413
 20
240.4128580333765
 30
0.0
 10
105.4851338908251
 20
239.8346436661772
 30
0.0
 10
105.145307338643
 20
238.8848312707398
 30
0.0
 10
105.0351230694213
 20
238.5535613459454
 30
0.0
 10
104.8220429036716
 20
237.8661977659005
 30
0.0
 10
104.7198118128613
 20
237.5123811950675
 30
0.0
 10
104.4253153025292
 20
236.4211530363467
 30
0.0
 10
104.2449351205237
 20
235.6541584286112
 30
0.0
 10
104.0008753647117
 20
234.4434679601859
 30
0.0
 10
103.9238563671631
 20
234.0298541519803
 30
0.0
 10
103.7783539350303
 20
233.182072598945
 30
0.0
 10
103.7096264824782
 20
232.7461610396646
 30
0.0
 10
103.5184809192489
 20
231.4197712786748
 30
0.0
 10
103.4114297823925
 20
230.5157282696604
 30
0.0
 10
103.2402312217636
 20
228.6687223387339
 30
0.0
 10
103.1753589232542
 20
227.7258334115348
 30
0.0
 10
103.1110526265912
 20
226.2813073030237
 30
0.0
 10
103.0949386688582
 20
225.7935065652688
 30
0.0
 10
103.0728566240931
 20
224.8174093525556
 30
0.0
 10
103.066822606346
 20
224.3283980279158
 30
0.0
 10
103.0651121649097
 20
223.838434489465
 30
0.0
  0
SPLINE
  5
1D8
330
1F
100
AcDbEntity
  8
0
  6
SLD-Сплошная
 62
     7
370
    25
100
AcDbSpline
210
0.0
220
0.0
230
1.0
 70
     8
 71
     3
 72
    22
 73
    18
 74
     0
 42
0.00000001
 43
0.00000001
 40
0.0
 40
0.0
 40
0.0
 40
0.0
 40
0.2499999999999998
 40
0.2499999999999998
 40
0.3749999999999998
 40
0.3749999999999998
 40
0.4999999999999999
 40
0.4999999999999999
 40
0.5625000000000001
 40
0.5625000000000001
 40
0.6250000000000003
 40
0.6250000000000003
 40
0.7500000000000002
 40
0.7500000000000002
 40
0.8750000000000001
 40
0.8750000000000001
 40
1.0
 40
1.0
 40
1.0
 40
1.0
 10
109.1056190673121
 20
223.838434489465
 30
0.0
 10
109.1064954948935
 20
225.5901531448306
 30
0.0
 10
109.1867526834524
 20
227.301007442413
 30
0.0
 10
109.4252187410102
 20
229.8079774856744
 30
0.0
 10
109.5251902702148
 20
230.6368212420617
 30
0.0
 10
109.7586183326703
 20
232.2265191907992
 30
0.0
 10
109.8924871454298
 20
232.9933093238737
 30
0.0
 10
110.117898560162
 20
234.102554549749
 30
0.0
 10
110.1971281226449
 20
234.4654615814873
 30
0.0
 10
110.3639022476535
 20
235.1774927614925
 30
0.0
 10
110.4517438470487
 20
235.5276951556839
 30
0.0
 10
110.7258172767736
 20
236.5491054982674
 30
0.0
 10
110.9215020723168
 20
237.187815889463
 30
0.0
 10
111.3367164439109
 20
238.3852569216245
 30
0.0
 10
111.5564431404608
 20
238.9439174580973
 30
0.0
 10
112.0195454810804
 20
239.9814388836236
 30
0.0
 10
112.263446451715
 20
240.460726919276
 30
0.0
 10
112.5147134319585
 20
240.8920894054534
 30
0.0
  0
SPLINE
  5
1D9
330
1F
100
AcDbEntity
  8
0
  6
SLD-Сплошная
 62
     7
370
    25
100
AcDbSpline
210
0.0
220
0.0
230
1.0
 70
     8
 71
     3
 72
     8
 73
     4
 74
     0
 42
0.00000001
 43
0.00000001
 40
0.0
 40
0.0
 40
0.0
 40
0.0
 40
1.0
 40
1.0
 40
1.0
 40
1.0
 10
91.77181477344593
 20
202.3358378039496
 30
0.0
 10
99.47661517100295
 20
202.3325019175733
 30
0.0
 10
107.1771615139848
 20
202.8357781010854
 30
0.0
 10
114.8165562973656
 20
203.8376365628162
 30
0.0
  0
SPLINE
  5
1DA
330
1F
100
AcDbEntity
  8
0
  6
SLD-Сплошная
 62
     7
370
    25
100
AcDbSpline
210
0.0
220
0.0
230
1.0
 70
     8
 71
     3
 72
     8
 73
     4
 74
     0
 42
0.00000001
 43
0.00000001
 40
0.0
 40
0.0
 40
0.0
 40
0.0
 40
0.0001344299261662
 40
0.0001344299261662
 40
0.0001344299261662
 40
0.0001344299261662
 10
91.63752663781902
 20
202.3359425345868
 30
0.0
 10
91.68228927260294
 20
202.3358903651902
 30
0.0
 10
91.72705199108945
 20
202.3358554556226
 30
0.0
 10
91.77181477344593
 20
202.3358378039496
 30
0.0
  0
SPLINE
  5
1DB
330
1F
100
AcDbEntity
  8
0
  6
SLD-Сплошная
 62
     7
370
    25
100
AcDbSpline
210
0.0
220
0.0
230
1.0
 70
     8
 71
     3
 72
     8
 73
     4
 74
     0
 42
0.00000001
 43
0.00000001
 40
0.0
 40
0.0
 40
0.0
 40
0.0
 40
0.0001344299261662
 40
0.0001344299261662
 40
0.0001344299261662
 40
0.0001344299261662
 10
91.63752663781902
 20
245.340926444341
 30
0.0
 10
91.68228927260294
 20
245.3409786137376
 30
0.0
 10
91.7270519910894
 20
245.3410135233073
 30
0.0
 10
91.77181477344587
 20
245.3410311749804
 30
0.0
  0
SPLINE
  5
1DC
330
1F
100
AcDbEntity
  8
0
  6
SLD-Сплошная
 62
     7
370
    25
100
AcDbSpline
210
0.0
220
0.0
230
1.0
 70
     8
 71
     3
 72
     8
 73
     4
 74
     0
 42
0.00000001
 43
0.00000001
 40
0.0
 40
0.0
 40
0.0
 40
0.0
 40
1.0
 40
1.0
 40
1.0
 40
1.0
 10
91.77181477344593
 20
245.3410311749804
 30
0.0
 10
99.47661517100295
 20
245.3443670613567
 30
0.0
 10
107.1771615139848
 20
244.8410908778446
 30
0.0
 10
114.8165562973656
 20
243.8392324161137
 30
0.0
  0
SPLINE
  5
1DD
330
1F
100
AcDbEntity
  8
0
  6
SLD-Сплошная
 62
     7
370
    25
100
AcDbSpline
210
0.0
220
0.0
230
1.0
 70
     8
 71
     3
 72
    34
 73
    30
 74
     0
 42
0.00000001
 43
0.00000001
 40
0.0
 40
0.0
 40
0.0
 40
0.0
 40
0.0624999999999998
 40
0.0624999999999998
 40
0.1249999999999996
 40
0.1249999999999996
 40
0.1874999999999994
 40
0.1874999999999994
 40
0.2499999999999992
 40
0.2499999999999992
 40
0.3749999999999987
 40
0.3749999999999987
 40
0.4374999999999988
 40
0.4374999999999988
 40
0.4999999999999989
 40
0.4999999999999989
 40
0.5624999999999989
 40
0.5624999999999989
 40
0.6249999999999989
 40
0.6249999999999989
 40
0.687499999999999
 40
0.687499999999999
 40
0.7499999999999991
 40
0.7499999999999991
 40
0.8124999999999992
 40
0.8124999999999992
 40
0.8749999999999993
 40
0.8749999999999993
 40
1.0
 40
1.0
 40
1.0
 40
1.0
 10
114.8165562973656
 20
243.8392324161138
 30
0.0
 10
115.230270972649
 20
243.7849763447983
 30
0.0
 10
115.6403670880103
 20
243.7279205632383
 30
0.0
 10
116.4545773830958
 20
243.6086752220926
 30
0.0
 10
116.858701601526
 20
243.5464874080004
 30
0.0
 10
117.6607728020072
 20
243.4160736657941
 30
0.0
 10
118.0585840898299
 20
243.3477916321477
 30
0.0
 10
118.847385234217
 20
243.2031849848541
 30
0.0
 10
119.2344817070439
 20
243.1275372577265
 30
0.0
 10
120.3591456686137
 20
242.8899137302
 30
0.0
 10
121.0684686865329
 20
242.7166886802649
 30
0.0
 10
122.0697868354893
 20
242.4153797555037
 30
0.0
 10
122.3917068210648
 20
242.3081190784584
 30
0.0
 10
122.9981929357622
 20
242.0808736035191
 30
0.0
 10
123.2843246031613
 20
241.9603131700117
 30
0.0
 10
123.8230921979376
 20
241.7017184309822
 30
0.0
 10
124.0761494459429
 20
241.5637022634888
 30
0.0
 10
124.5519642721494
 20
241.2666344781776
 30
0.0
 10
124.7747057379665
 20
241.1068145580928
 30
0.0
 10
125.174522335401
 20
240.7701016018619
 30
0.0
 10
125.3530365749895
 20
240.5924632654185
 30
0.0
 10
125.6678271426352
 20
240.2160614924269
 30
0.0
 10
125.8034569823954
 20
240.0172363221008
 30
0.0
 10
126.0473507862268
 20
239.596285933558
 30
0.0
 10
126.1561955190536
 20
239.373383787268
 30
0.0
 10
126.3544190329992
 20
238.9087239043869
 30
0.0
 10
126.4458841135713
 20
238.6665462717623
 30
0.0
 10
126.6734620993471
 20
237.91167631482
 30
0.0
 10
126.7468113153938
 20
237.3717464604097
 30
0.0
 10
126.7468113153938
 20
236.7909310792747
 30
0.0
  0
LINE
  5
1DE
330
1F
100
AcDbEntity
  8
0
  6
SLD-Сплошная
 62
     7
370
    25
100
AcDbLine
 10
126.7468113154
 20
210.8859378997
 30
0.0
 11
126.7468113154
 21
236.7909310793
 31
0.0
  0
SPLINE
  5
1DF
330
1F
100
AcDbEntity
  8
0
  6
SLD-Сплошная
 62
     7
370
    25
100
AcDbSpline
210
0.0
220
0.0
230
1.0
 70
     8
 71
     3
 72
    34
 73
    30
 74
     0
 42
0.00000001
 43
0.00000001
 40
0.0
 40
0.0
 40
0.0
 40
0.0
 40
0.0625000000000002
 40
0.0625000000000002
 40
0.1250000000000004
 40
0.1250000000000004
 40
0.1875000000000006
 40
0.1875000000000006
 40
0.2500000000000007
 40
0.2500000000000007
 40
0.375
 40
0.375
 40
0.4375000000000002
 40
0.4375000000000002
 40
0.5000000000000002
 40
0.5000000000000002
 40
0.5625000000000003
 40
0.5625000000000003
 40
0.6250000000000003
 40
0.6250000000000003
 40
0.6875000000000004
 40
0.6875000000000004
 40
0.7500000000000003
 40
0.7500000000000003
 40
0.8125000000000003
 40
0.8125000000000003
 40
0.8750000000000003
 40
0.8750000000000003
 40
1.0
 40
1.0
 40
1.0
 40
1.0
 10
114.8165562973656
 20
203.8376365628162
 30
0.0
 10
115.230270972649
 20
203.8918926341317
 30
0.0
 10
115.6403670880103
 20
203.9489484156917
 30
0.0
 10
116.4545773830958
 20
204.0681937568374
 30
0.0
 10
116.858701601526
 20
204.1303815709296
 30
0.0
 10
117.6607728020072
 20
204.2607953131359
 30
0.0
 10
118.0585840898299
 20
204.3290773467823
 30
0.0
 10
118.847385234217
 20
204.4736839940759
 30
0.0
 10
119.2344817070439
 20
204.5493317212034
 30
0.0
 10
120.3591456686136
 20
204.78695524873
 30
0.0
 10
121.0684686865329
 20
204.9601802986651
 30
0.0
 10
122.0697868354893
 20
205.2614892234262
 30
0.0
 10
122.3917068210647
 20
205.3687499004715
 30
0.0
 10
122.9981929357622
 20
205.5959953754108
 30
0.0
 10
123.2843246031613
 20
205.7165558089183
 30
0.0
 10
123.8230921979376
 20
205.9751505479478
 30
0.0
 10
124.0761494459429
 20
206.1131667154412
 30
0.0
 10
124.5519642721494
 20
206.4102345007524
 30
0.0
 10
124.7747057379666
 20
206.5700544208372
 30
0.0
 10
125.1745223354011
 20
206.906767377068
 30
0.0
 10
125.3530365749895
 20
207.0844057135114
 30
0.0
 10
125.6678271426353
 20
207.4608074865031
 30
0.0
 10
125.8034569823954
 20
207.6596326568292
 30
0.0
 10
126.0473507862269
 20
208.080583045372
 30
0.0
 10
126.1561955190536
 20
208.303485191662
 30
0.0
 10
126.3544190329992
 20
208.7681450745431
 30
0.0
 10
126.4458841135713
 20
209.0103227071677
 30
0.0
 10
126.6734620993471
 20
209.76519266411
 30
0.0
 10
126.7468113153938
 20
210.3051225185202
 30
0.0
 10
126.7468113153938
 20
210.8859378996553
 30
0.0
  0
SPLINE
  5
1E0
330
1F
100
AcDbEntity
  8
0
  6
SLD-Сплошная
 62
     7
370
    25
100
AcDbSpline
210
0.0
220
0.0
230
1.0
 70
     8
 71
     3
 72
    14
 73
    10
 74
     0
 42
0.00000001
 43
0.00000001
 40
0.0
 40
0.0
 40
0.0
 40
0.0
 40
0.0050149732590376
 40
0.0050149732590376
 40
0.0050149732590376
 40
0.0095720313907636
 40
0.0095720313907636
 40
0.0095720313907636
 40
0.0141355433108355
 40
0.0141355433108355
 40
0.0141355433108355
 40
0.0141355433108355
 10
66.63752663781902
 20
202.244952572004
 30
0.0
 10
68.30256073355034
 20
202.2556875983249
 30
0.0
 10
69.96761096306892
 20
202.2679367714433
 30
0.0
 10
71.63266702543991
 20
202.2816981220128
 30
0.0
 10
73.14568762329439
 20
202.2942029303111
 30
0.0
 10
74.6587138825206
 20
202.307957248385
 30
0.0
 10
76.17174540884662
 20
202.3229545012222
 30
0.0
 10
77.68691971761925
 20
202.3379729934386
 30
0.0
 10
79.20210071759027
 20
202.3542373555275
 30
0.0
 10
80.71728599173557
 20
202.3717431632764
 30
0.0
  0
SPLINE
  5
1E1
330
1F
100
AcDbEntity
  8
0
  6
SLD-Сплошная
 62
     7
370
    25
100
AcDbSpline
210
0.0
220
0.0
230
1.0
 70
     8
 71
     3
 72
    14
 73
    10
 74
     0
 42
0.00000001
 43
0.00000001
 40
0.0
 40
0.0
 40
0.0
 40
0.0
 40
0.0050149732590376
 40
0.0050149732590376
 40
0.0050149732590376
 40
0.0095720313907636
 40
0.0095720313907636
 40
0.0095720313907636
 40
0.0141355433108355
 40
0.0141355433108355
 40
0.0141355433108355
 40
0.0141355433108355
 10
66.63752663781902
 20
245.431916406926
 30
0.0
 10
68.30256073355034
 20
245.4211813806051
 30
0.0
 10
69.96761096306892
 20
245.4089322074867
 30
0.0
 10
71.63266702543991
 20
245.3951708569172
 30
0.0
 10
73.14568762329439
 20
245.3826660486189
 30
0.0
 10
74.6587138825206
 20
245.368911730545
 30
0.0
 10
76.17174540884662
 20
245.3539144777077
 30
0.0
 10
77.68691971761925
 20
245.3388959854914
 30
0.0
 10
79.20210071759027
 20
245.3226316234025
 30
0.0
 10
80.71728599173557
 20
245.3051258156535
 30
0.0
  0
SPLINE
  5
1E2
330
1F
100
AcDbEntity
  8
0
  6
SLD-Сплошная
 62
     7
370
    25
100
AcDbSpline
210
0.0
220
0.0
230
1.0
 70
     8
 71
     3
 72
     8
 73
     4
 74
     0
 42
0.00000001
 43
0.00000001
 40
0.0
 40
0.0
 40
0.0
 40
0.0
 40
1.0
 40
1.0
 40
1.0
 40
1.0
 10
80.71728599173557
 20
245.305125815654
 30
0.0
 10
81.80448359716391
 20
245.2925647958299
 30
0.0
 10
82.8977068917528
 20
245.2896961490271
 30
0.0
 10
83.98800486344327
 20
245.2964490638543
 30
0.0
  0
SPLINE
  5
1E3
330
1F
100
AcDbEntity
  8
0
  6
SLD-Сплошная
 62
     7
370
    25
100
AcDbSpline
210
0.0
220
0.0
230
1.0
 70
     8
 71
     3
 72
    14
 73
    10
 74
     0
 42
0.00000001
 43
0.00000001
 40
0.0
 40
0.0
 40
0.0
 40
0.0
 40
0.002508684302751
 40
0.002508684302751
 40
0.002508684302751
 40
0.0050832577561484
 40
0.0050832577561484
 40
0.0050832577561484
 40
0.0076578313811252
 40
0.0076578313811252
 40
0.0076578313811252
 40
0.0076578313811252
 10
83.98800486344327
 20
245.296449063855
 30
0.0
 10
84.82332604336312
 20
245.3016227438286
 30
0.0
 10
85.65864709770388
 20
245.306692700684
 30
0.0
 10
86.49396798770942
 20
245.3116588819699
 30
0.0
 10
87.35122810019222
 20
245.3167554971494
 30
0.0
 10
88.20848805365628
 20
245.3217428141335
 30
0.0
 10
89.06574780666313
 20
245.3266207654055
 30
0.0
 10
89.92300761679523
 20
245.3314987170025
 30
0.0
 10
90.78026724073304
 20
245.3362673029794
 30
0.0
 10
91.63752663781902
 20
245.3409264443432
 30
0.0
  0
SPLINE
  5
1E4
330
1F
100
AcDbEntity
  8
0
  6
SLD-Сплошная
 62
     7
370
    25
100
AcDbSpline
210
0.0
220
0.0
230
1.0
 70
     8
 71
     3
 72
    14
 73
    10
 74
     0
 42
0.00000001
 43
0.00000001
 40
0.0
 40
0.0
 40
0.0
 40
0.0
 40
0.002508684302751
 40
0.002508684302751
 40
0.002508684302751
 40
0.0050832577561484
 40
0.0050832577561484
 40
0.0050832577561484
 40
0.0076578313811252
 40
0.0076578313811252
 40
0.0076578313811252
 40
0.0076578313811252
 10
83.98800486344327
 20
202.3804199150749
 30
0.0
 10
84.82332604336312
 20
202.3752462351013
 30
0.0
 10
85.65864709770388
 20
202.370176278246
 30
0.0
 10
86.49396798770942
 20
202.3652100969601
 30
0.0
 10
87.35122810019222
 20
202.3601134817806
 30
0.0
 10
88.20848805365628
 20
202.3551261647965
 30
0.0
 10
89.06574780666313
 20
202.3502482135245
 30
0.0
 10
89.92300761679523
 20
202.3453702619275
 30
0.0
 10
90.78026724073304
 20
202.3406016759506
 30
0.0
 10
91.63752663781902
 20
202.3359425345868
 30
0.0
  0
SPLINE
  5
1E5
330
1F
100
AcDbEntity
  8
0
  6
SLD-Сплошная
 62
     7
370
    25
100
AcDbSpline
210
0.0
220
0.0
230
1.0
 70
     8
 71
     3
 72
     8
 73
     4
 74
     0
 42
0.00000001
 43
0.00000001
 40
0.0
 40
0.0
 40
0.0
 40
0.0
 40
1.0
 40
1.0
 40
1.0
 40
1.0
 10
80.71728599173557
 20
202.3717431632759
 30
0.0
 10
81.80448359716391
 20
202.3843041831001
 30
0.0
 10
82.8977068917528
 20
202.3871728299029
 30
0.0
 10
83.98800486344327
 20
202.3804199150756
 30
0.0
  0
LINE
  5
1E6
330
1F
100
AcDbEntity
  8
0
  6
SLD-Сплошная
 62
     7
370
    25
100
AcDbLine
 10
58.5125266378
 20
245.4634344895
 30
0.0
 11
58.5125266378
 21
202.2134344895
 31
0.0
  0
LINE
  5
1E7
330
1F
100
AcDbEntity
  8
0
  6
SLD-Сплошная
 62
     7
370
    25
100
AcDbLine
 10
39.6625266378
 20
245.4634344895
 30
0.0
 11
39.6625266378
 21
202.2134344895
 31
0.0
  0
LINE
  5
1E8
330
1F
100
AcDbEntity
  8
0
  6
SLD-Сплошная
 62
     7
370
    25
100
AcDbLine
 10
26.5375266378
 20
220.8325097548
 30
0.0
 11
26.5375266378
 21
202.2134344895
 31
0.0
  0
LINE
  5
1E9
330
1F
100
AcDbEntity
  8
0
  6
SLD-Сплошная
 62
     7
370
    25
100
AcDbLine
 10
26.5375266378
 20
245.4634344895
 30
0.0
 11
26.5375266378
 21
226.8443592242
 31
0.0
  0
LINE
  5
1EA
330
1F
100
AcDbEntity
  8
0
  6
SLD-Сплошная
 62
     7
370
    25
100
AcDbLine
 10
40.7256790393
 20
244.6384344895
 30
0.0
 11
40.7256790393
 21
240.1642562051
 31
0.0
  0
LINE
  5
1EB
330
1F
100
AcDbEntity
  8
0
  6
SLD-Сплошная
 62
     7
370
    25
100
AcDbLine
 10
40.7256790393
 20
240.1642562051
 30
0.0
 11
57.4625266378
 21
240.1642562051
 31
0.0
  0
LINE
  5
1EC
330
1F
100
AcDbEntity
  8
0
  6
SLD-Сплошная
 62
     7
370
    25
100
AcDbLine
 10
57.4625266378
 20
244.6384344895
 30
0.0
 11
57.4625266378
 21
240.1642562051
 31
0.0
  0
LINE
  5
1ED
330
1F
100
AcDbEntity
  8
0
  6
SLD-Сплошная
 62
     7
370
    25
100
AcDbLine
 10
140.2009488241
 20
221.67337098
 30
0.0
 11
140.2009488241
 21
226.0034979989
 31
0.0
  0
LINE
  5
1EE
330
1F
100
AcDbEntity
  8
0
  6
SLD-Сплошная
 62
     7
370
    25
100
AcDbLine
 10
140.2009488241
 20
208.0034979989
 30
0.0
 11
140.2009488241
 21
221.67337098
 31
0.0
  0
LINE
  5
1EF
330
1F
100
AcDbEntity
  8
0
  6
SLD-Сплошная
 62
     7
370
    25
100
AcDbLine
 10
140.2009488241
 20
205.8384344895
 30
0.0
 11
140.2009488241
 21
208.0034979989
 31
0.0
  0
LINE
  5
1F0
330
1F
100
AcDbEntity
  8
0
  6
SLD-Сплошная
 62
     7
370
    25
100
AcDbLine
 10
140.2009488241
 20
204.1842116411
 30
0.0
 11
140.2009488241
 21
205.8384344895
 31
0.0
  0
LINE
  5
1F1
330
1F
100
AcDbEntity
  8
0
  6
SLD-Сплошная
 62
     7
370
    25
100
AcDbLine
 10
140.2009488241
 20
241.8384344895
 30
0.0
 11
140.2009488241
 21
243.4926573378
 31
0.0
  0
LINE
  5
1F2
330
1F
100
AcDbEntity
  8
0
  6
SLD-Сплошная
 62
     7
370
    25
100
AcDbLine
 10
140.2009488241
 20
239.67337098
 30
0.0
 11
140.2009488241
 21
241.8384344895
 31
0.0
  0
LINE
  5
1F3
330
1F
100
AcDbEntity
  8
0
  6
SLD-Сплошная
 62
     7
370
    25
100
AcDbLine
 10
140.2009488241
 20
226.0034979989
 30
0.0
 11
140.2009488241
 21
239.67337098
 31
0.0
  0
LINE
  5
1F4
330
1F
100
AcDbEntity
  8
0
  6
SLD-Сплошная
 62
     7
370
    25
100
AcDbLine
 10
138.2009488241
 20
204.1842116411
 30
0.0
 11
138.2009488241
 21
243.4926573378
 31
0.0
  0
LINE
  5
1F5
330
1F
100
AcDbEntity
  8
0
  6
SLD-Сплошная
 62
     7
370
    25
100
AcDbLine
 10
149.2009488241
 20
221.67337098
 30
0.0
 11
140.2009488241
 21
221.67337098
 31
0.0
  0
LINE
  5
1F6
330
1F
100
AcDbEntity
  8
0
  6
SLD-Сплошная
 62
     7
370
    25
100
AcDbLine
 10
140.2009488241
 20
208.0034979989
 30
0.0
 11
149.2009488241
 21
208.0034979989
 31
0.0
  0
LINE
  5
1F7
330
1F
100
AcDbEntity
  8
0
  6
SLD-Сплошная
 62
     7
370
    25
100
AcDbLine
 10
149.2009488241
 20
208.0034979989
 30
0.0
 11
149.2009488241
 21
221.67337098
 31
0.0
  0
LINE
  5
1F8
330
1F
100
AcDbEntity
  8
0
  6
SLD-Сплошная
 62
     7
370
    25
100
AcDbLine
 10
140.2009488241
 20
226.0034979989
 30
0.0
 11
149.2009488241
 21
226.0034979989
 31
0.0
  0
LINE
  5
1F9
330
1F
100
AcDbEntity
  8
0
  6
SLD-Сплошная
 62
     7
370
    25
100
AcDbLine
 10
149.2009488241
 20
226.0034979989
 30
0.0
 11
149.2009488241
 21
221.67337098
 31
0.0
  0
LINE
  5
1FA
330
1F
100
AcDbEntity
  8
0
  6
SLD-Сплошная
 62
     7
370
    25
100
AcDbLine
 10
149.2009488241
 20
239.67337098
 30
0.0
 11
140.2009488241
 21
239.67337098
 31
0.0
  0
LINE
  5
1FB
330
1F
100
AcDbEntity
  8
0
  6
SLD-Сплошная
 62
     7
370
    25
100
AcDbLine
 10
149.2009488241
 20
239.67337098
 30
0.0
 11
149.2009488241
 21
226.0034979989
 31
0.0
  0
LINE
  5
1FC
330
1F
100
AcDbEntity
  8
0
  6
SLD-Сплошная
 62
     7
370
    25
100
AcDbLine
 10
131.5029629956
 20
211.3362270287
 30
0.0
 11
131.5375266378
 21
211.6341566547
 31
0.0
  0
LINE
  5
1FD
330
1F
100
AcDbEntity
  8
0
  6
SLD-Сплошная
 62
     7
370
    25
100
AcDbLine
 10
131.5029724056
 20
236.3406016732
 30
0.0
 11
131.5375266378
 21
236.0427123242
 31
0.0
  0
LINE
  5
1FE
330
1F
100
AcDbEntity
  8
0
  6
SLD-Сплошная
 62
     7
370
    25
100
AcDbLine
 10
131.5375266378
 20
236.0427123242
 30
0.0
 11
131.5375266378
 21
211.6341566547
 31
0.0
  0
LINE
  5
1FF
330
1F
100
AcDbEntity
  8
0
  6
SLD-Сплошная
 62
     7
370
    25
100
AcDbLine
 10
161.2105677673
 20
220.7683503954
 30
0.0
 11
168.0529663557
 21
220.7683503954
 31
0.0
  0
LINE
  5
200
330
1F
100
AcDbEntity
  8
0
  6
SLD-Сплошная
 62
     7
370
    25
100
AcDbLine
 10
161.2105677673
 20
220.7683503954
 30
0.0
 11
149.2009488241
 21
220.7683503954
 31
0.0
  0
LINE
  5
201
330
1F
100
AcDbEntity
  8
0
  6
SLD-Сплошная
 62
     7
370
    25
100
AcDbLine
 10
161.2105677673
 20
226.9085185836
 30
0.0
 11
149.2009488241
 21
226.9085185836
 31
0.0
  0
LINE
  5
202
330
1F
100
AcDbEntity
  8
0
  6
SLD-Сплошная
 62
     7
370
    25
100
AcDbLine
 10
161.2105677673
 20
226.9085185836
 30
0.0
 11
168.0529663557
 21
226.9085185836
 31
0.0
  0
ARC
  5
203
330
1F
100
AcDbEntity
  8
0
  6
SLD-Сплошная
 62
     7
370
    25
100
AcDbCircle
 10
161.2105677673
 20
223.8384344895
 30
0.0
 40
14.68245836551858
100
AcDbArc
 50
62.2233953742
 51
90.0
  0
LINE
  5
204
330
1F
100
AcDbEntity
  8
0
  6
SLD-Сплошная
 62
     7
370
    25
100
AcDbLine
 10
168.0529663557
 20
236.8290528432
 30
0.0
 11
170.7692887717
 21
235.3983156636
 31
0.0
  0
LINE
  5
205
330
1F
100
AcDbEntity
  8
0
  6
SLD-Сплошная
 62
     7
370
    25
100
AcDbLine
 10
170.7692887717
 20
212.2785533153
 30
0.0
 11
168.0529663557
 21
210.8478161357
 31
0.0
  0
ARC
  5
206
330
1F
100
AcDbEntity
  8
0
  6
SLD-Сплошная
 62
     7
370
    25
100
AcDbCircle
 10
161.2105677673
 20
223.8384344895
 30
0.0
 40
14.68245836551855
100
AcDbArc
 50
270.0
 51
297.7766046258
  0
ARC
  5
207
330
1F
100
AcDbEntity
  8
0
  6
SLD-Сплошная
 62
     7
370
    25
100
AcDbCircle
 10
167.7497428647
 20
223.8384344895
 30
0.0
 40
3.085022014554634
100
AcDbArc
 50
275.6406475517
 51
84.3593524483
  0
LINE
  5
208
330
1F
100
AcDbEntity
  8
0
  6
SLD-Сплошная
 62
     7
370
    25
100
AcDbLine
 10
174.2009488241
 20
216.3384344895
 30
0.0
 11
174.2009488241
 21
231.3384344895
 31
0.0
  0
LINE
  5
209
330
1F
100
AcDbEntity
  8
0
  6
SLD-Сплошная
 62
     7
370
    25
100
AcDbLine
 10
161.2105677673
 20
209.1559761239
 30
0.0
 11
149.2009488241
 21
209.1559761239
 31
0.0
  0
LINE
  5
20A
330
1F
100
AcDbEntity
  8
0
  6
SLD-Сплошная
 62
     7
370
    25
100
AcDbLine
 10
161.2105677673
 20
238.520892855
 30
0.0
 11
149.2009488241
 21
238.520892855
 31
0.0
  0
LINE
  5
20B
330
1F
100
AcDbEntity
  8
0
  6
SLD-Сплошная
 62
     7
370
    25
100
AcDbLine
 10
131.5375266378
 20
211.6341566547
 30
0.0
 11
131.5375266378
 21
206.8384344895
 31
0.0
  0
LINE
  5
20C
330
1F
100
AcDbEntity
  8
0
  6
SLD-Сплошная
 62
     7
370
    25
100
AcDbLine
 10
131.5375266378
 20
240.8384344895
 30
0.0
 11
131.5375266378
 21
236.0427123242
 31
0.0
  0
LINE
  5
20D
330
1F
100
AcDbEntity
  8
0
  6
SLD-Сплошная
 62
     7
370
    25
100
AcDbLine
 10
44.7892983626
 20
241.3454104889
 30
0.0
 11
47.1373683626
 21
241.3454104889
 31
0.0
  0
LINE
  5
20E
330
1F
100
AcDbEntity
  8
0
  6
SLD-Сплошная
 62
     7
370
    25
100
AcDbLine
 10
47.9200678386
 20
241.3454104889
 30
0.0
 11
53.3989073146
 21
241.3454104889
 31
0.0
  0
LINE
  5
20F
330
1F
100
AcDbEntity
  8
0
  6
SLD-Сплошная
 62
     7
370
    25
100
AcDbLine
 10
25.1375266378
 20
220.3384344895
 30
0.0
 11
25.1375266378
 21
227.3384344895
 31
0.0
  0
LINE
  5
210
330
1F
100
AcDbEntity
  8
0
  6
SLD-Сплошная
 62
     7
370
    25
100
AcDbLine
 10
149.2009488241
 20
205.8384344895
 30
0.0
 11
140.2009488241
 21
205.8384344895
 31
0.0
  0
LINE
  5
211
330
1F
100
AcDbEntity
  8
0
  6
SLD-Сплошная
 62
     7
370
    25
100
AcDbLine
 10
149.2009488241
 20
205.8384344895
 30
0.0
 11
149.2009488241
 21
208.0034979989
 31
0.0
  0
LINE
  5
212
330
1F
100
AcDbEntity
  8
0
  6
SLD-Сплошная
 62
     7
370
    25
100
AcDbLine
 10
140.2009488241
 20
241.8384344895
 30
0.0
 11
149.2009488241
 21
241.8384344895
 31
0.0
  0
LINE
  5
213
330
1F
100
AcDbEntity
  8
0
  6
SLD-Сплошная
 62
     7
370
    25
100
AcDbLine
 10
149.2009488241
 20
241.8384344895
 30
0.0
 11
149.2009488241
 21
239.67337098
 31
0.0
  0
LINE
  5
214
330
1F
100
AcDbEntity
  8
0
  6
SLD-Сплошная
 62
     7
370
    25
100
AcDbLine
 10
47.9200678386
 20
241.8099176961
 30
0.0
 11
53.3989073146
 21
241.8099176961
 31
0.0
  0
LINE
  5
215
330
1F
100
AcDbEntity
  8
0
  6
SLD-Сплошная
 62
     7
370
    25
100
AcDbLine
 10
53.3989073146
 20
241.3454104889
 30
0.0
 11
53.3989073146
 21
241.8099176961
 31
0.0
  0
LINE
  5
216
330
1F
100
AcDbEntity
  8
0
  6
SLD-Сплошная
 62
     7
370
    25
100
AcDbLine
 10
47.9200678386
 20
241.3454104889
 30
0.0
 11
47.9200678386
 21
241.8099176961
 31
0.0
  0
LINE
  5
217
330
1F
100
AcDbEntity
  8
0
  6
SLD-Сплошная
 62
     7
370
    25
100
AcDbLine
 10
44.7892983626
 20
241.8099176961
 30
0.0
 11
47.1373683626
 21
241.8099176961
 31
0.0
  0
LINE
  5
218
330
1F
100
AcDbEntity
  8
0
  6
SLD-Сплошная
 62
     7
370
    25
100
AcDbLine
 10
44.7892983626
 20
241.3454104889
 30
0.0
 11
44.7892983626
 21
241.8099176961
 31
0.0
  0
LINE
  5
219
330
1F
100
AcDbEntity
  8
0
  6
SLD-Сплошная
 62
     7
370
    25
100
AcDbLine
 10
47.1373683626
 20
241.3454104889
 30
0.0
 11
47.1373683626
 21
241.8099176961
 31
0.0
  0
LINE
  5
21A
330
1F
100
AcDbEntity
  8
0
  6
SLD-Сплошная
 62
     7
370
    25
100
AcDbLine
 10
47.1373683626
 20
243.0241881766
 30
0.0
 11
44.7892983626
 21
243.0241881766
 31
0.0
  0
LINE
  5
21B
330
1F
100
AcDbEntity
  8
0
  6
SLD-Сплошная
 62
     7
370
    25
100
AcDbLine
 10
44.7892983626
 20
243.0241881766
 30
0.0
 11
44.7892983626
 21
241.8099176961
 31
0.0
  0
LINE
  5
21C
330
1F
100
AcDbEntity
  8
0
  6
SLD-Сплошная
 62
     7
370
    25
100
AcDbLine
 10
47.1373683626
 20
243.0241881766
 30
0.0
 11
47.1373683626
 21
241.8099176961
 31
0.0
  0
LINE
  5
21D
330
1F
100
AcDbEntity
  8
0
  6
SLD-Сплошная
 62
     7
370
    25
100
AcDbLine
 10
53.3989073146
 20
243.0241881766
 30
0.0
 11
47.9200678386
 21
243.0241881766
 31
0.0
  0
LINE
  5
21E
330
1F
100
AcDbEntity
  8
0
  6
SLD-Сплошная
 62
     7
370
    25
100
AcDbLine
 10
53.3989073146
 20
243.0241881766
 30
0.0
 11
53.3989073146
 21
241.8099176961
 31
0.0
  0
LINE
  5
21F
330
1F
100
AcDbEntity
  8
0
  6
SLD-Сплошная
 62
     7
370
    25
100
AcDbLine
 10
47.9200678386
 20
243.0241881766
 30
0.0
 11
47.9200678386
 21
241.8099176961
 31
0.0
  0
LINE
  5
220
330
1F
100
AcDbEntity
  8
0
  6
SLD-Сплошная
 62
     7
370
    25
100
AcDbLine
 10
44.7892983626
 20
243.3119931741
 30
0.0
 11
47.1373683626
 21
243.3119931741
 31
0.0
  0
LINE
  5
221
330
1F
100
AcDbEntity
  8
0
  6
SLD-Сплошная
 62
     7
370
    25
100
AcDbLine
 10
47.1373683626
 20
243.0241881766
 30
0.0
 11
47.1373683626
 21
243.3119931741
 31
0.0
  0
LINE
  5
222
330
1F
100
AcDbEntity
  8
0
  6
SLD-Сплошная
 62
     7
370
    25
100
AcDbLine
 10
44.7892983626
 20
243.0241881766
 30
0.0
 11
44.7892983626
 21
243.3119931741
 31
0.0
  0
LINE
  5
223
330
1F
100
AcDbEntity
  8
0
  6
SLD-Сплошная
 62
     7
370
    25
100
AcDbLine
 10
47.1373683626
 20
244.6384344895
 30
0.0
 11
47.1373683626
 21
243.3119931741
 31
0.0
  0
LINE
  5
224
330
1F
100
AcDbEntity
  8
0
  6
SLD-Сплошная
 62
     7
370
    25
100
AcDbLine
 10
44.7892983626
 20
244.6384344895
 30
0.0
 11
44.7892983626
 21
243.3119931741
 31
0.0
  0
LINE
  5
225
330
1F
100
AcDbEntity
  8
0
  6
SLD-Сплошная
 62
     7
370
    25
100
AcDbLine
 10
47.9200678386
 20
243.0241881766
 30
0.0
 11
47.9200678386
 21
243.3119931741
 31
0.0
  0
LINE
  5
226
330
1F
100
AcDbEntity
  8
0
  6
SLD-Сплошная
 62
     7
370
    25
100
AcDbLine
 10
47.9200678386
 20
243.3119931741
 30
0.0
 11
53.3989073146
 21
243.3119931741
 31
0.0
  0
LINE
  5
227
330
1F
100
AcDbEntity
  8
0
  6
SLD-Сплошная
 62
     7
370
    25
100
AcDbLine
 10
53.3989073146
 20
243.0241881766
 30
0.0
 11
53.3989073146
 21
243.3119931741
 31
0.0
  0
LINE
  5
228
330
1F
100
AcDbEntity
  8
0
  6
SLD-Сплошная
 62
     7
370
    25
100
AcDbLine
 10
50.2681378386
 20
244.6384344895
 30
0.0
 11
50.2681378386
 21
244.1020048178
 31
0.0
  0
LINE
  5
229
330
1F
100
AcDbEntity
  8
0
  6
SLD-Сплошная
 62
     7
370
    25
100
AcDbLine
 10
51.0508373146
 20
244.1020048178
 30
0.0
 11
50.2681378386
 21
244.1020048178
 31
0.0
  0
LINE
  5
22A
330
1F
100
AcDbEntity
  8
0
  6
SLD-Сплошная
 62
     7
370
    25
100
AcDbLine
 10
51.0508373146
 20
244.6384344895
 30
0.0
 11
51.0508373146
 21
244.1020048178
 31
0.0
  0
LINE
  5
22B
330
1F
100
AcDbEntity
  8
0
  6
SLD-Сплошная
 62
     7
370
    25
100
AcDbLine
 10
53.3989073146
 20
244.6384344895
 30
0.0
 11
53.3989073146
 21
243.3119931741
 31
0.0
  0
LINE
  5
22C
330
1F
100
AcDbEntity
  8
0
  6
SLD-Сплошная
 62
     7
370
    25
100
AcDbLine
 10
47.9200678386
 20
244.6384344895
 30
0.0
 11
47.9200678386
 21
243.3119931741
 31
0.0
  0
LINE
  5
22D
330
1F
100
AcDbEntity
  8
0
  6
SLD-Сплошная
 62
     7
370
    25
100
AcDbLine
 10
47.1373683626
 20
244.5774852563
 30
0.0
 11
47.9200678386
 21
244.5774852563
 31
0.0
  0
LINE
  5
22E
330
1F
100
AcDbEntity
  8
0
  6
SLD-Сплошная
 62
     7
370
    25
100
AcDbLine
 10
50.2681378386
 20
244.5774852563
 30
0.0
 11
51.0508373146
 21
244.5774852563
 31
0.0
  0
LINE
  5
22F
330
1F
100
AcDbEntity
  8
0
  6
SLD-Сплошная
 62
     7
370
    25
100
AcDbLine
 10
66.6375266378
 20
97.1920256726
 30
0.0
 11
63.3375266378
 21
97.1920256726
 31
0.0
  0
LINE
  5
230
330
1F
100
AcDbEntity
  8
0
  6
SLD-Сплошная
 62
     7
370
    25
100
AcDbLine
 10
63.3375266378
 20
45.1920256726
 30
0.0
 11
66.6375266378
 21
45.1920256726
 31
0.0
  0
ARC
  5
231
330
1F
100
AcDbEntity
  8
0
  6
SLD-Сплошная
 62
     7
370
    25
100
AcDbCircle
 10
90.8812268441
 20
229.5404368062
 30
0.0
 40
180.0
100
AcDbArc
 50
281.0525272359
 51
283.0539444625
  0
ARC
  5
232
330
1F
100
AcDbEntity
  8
0
  6
SLD-Сплошная
 62
     7
370
    25
100
AcDbCircle
 10
90.8812268441
 20
-87.156385461
 30
0.0
 40
180.0
100
AcDbArc
 50
76.9460555375
 51
78.9483432274
  0
LINE
  5
233
330
1F
100
AcDbEntity
  8
0
  6
SLD-Сплошная
 62
     7
370
    25
100
AcDbLine
 10
39.6625266378
 20
92.8170256726
 30
0.0
 11
26.5375266378
 21
92.8170256726
 31
0.0
  0
LINE
  5
234
330
1F
100
AcDbEntity
  8
0
  6
SLD-Сплошная
 62
     7
370
    25
100
AcDbLine
 10
26.5375266378
 20
49.5670256726
 30
0.0
 11
39.6625266378
 21
49.5670256726
 31
0.0
  0
LINE
  5
235
330
1F
100
AcDbEntity
  8
0
  6
SLD-Сплошная
 62
     7
370
    25
100
AcDbLine
 10
63.3375266378
 20
92.8170256726
 30
0.0
 11
58.5125266378
 21
92.8170256726
 31
0.0
  0
LINE
  5
236
330
1F
100
AcDbEntity
  8
0
  6
SLD-Сплошная
 62
     7
370
    25
100
AcDbLine
 10
58.5125266378
 20
49.5670256726
 30
0.0
 11
63.3375266378
 21
49.5670256726
 31
0.0
  0
LINE
  5
237
330
1F
100
AcDbEntity
  8
0
  6
SLD-Сплошная
 62
     7
370
    25
100
AcDbLine
 10
58.5125266378
 20
91.9920256726
 30
0.0
 11
39.6625266378
 21
91.9920256726
 31
0.0
  0
LINE
  5
238
330
1F
100
AcDbEntity
  8
0
  6
SLD-Сплошная
 62
     7
370
    25
100
AcDbLine
 10
57.4625266378
 20
50.3920256726
 30
0.0
 11
58.5125266378
 21
50.3920256726
 31
0.0
  0
LINE
  5
239
330
1F
100
AcDbEntity
  8
0
  6
SLD-Сплошная
 62
     7
370
    25
100
AcDbLine
 10
39.6625266378
 20
50.3920256726
 30
0.0
 11
40.7256790393
 21
50.3920256726
 31
0.0
  0
LINE
  5
23A
330
1F
100
AcDbEntity
  8
0
  6
SLD-Сплошная
 62
     7
370
    25
100
AcDbLine
 10
140.2009488241
 20
90.846248521
 30
0.0
 11
138.2009488241
 21
90.846248521
 31
0.0
  0
LINE
  5
23B
330
1F
100
AcDbEntity
  8
0
  6
SLD-Сплошная
 62
     7
370
    25
100
AcDbLine
 10
138.2009488241
 20
51.5378028243
 30
0.0
 11
140.2009488241
 21
51.5378028243
 31
0.0
  0
ARC
  5
23C
330
1F
100
AcDbEntity
  8
0
  6
SLD-Сплошная
 62
     7
370
    25
100
AcDbCircle
 10
161.2105677673
 20
71.1920256726
 30
0.0
 40
15.00000000000002
100
AcDbArc
 50
30.0
 51
50.4130804784
  0
ARC
  5
23D
330
1F
100
AcDbEntity
  8
0
  6
SLD-Сплошная
 62
     7
370
    25
100
AcDbCircle
 10
161.2105677673
 20
71.1920256726
 30
0.0
 40
15.00000000000002
100
AcDbArc
 50
309.5869195216
 51
330.0
  0
LINE
  5
23E
330
1F
100
AcDbEntity
  8
0
  6
SLD-Сплошная
 62
     7
370
    25
100
AcDbLine
 10
53.3989073146
 20
50.7920256726
 30
0.0
 11
57.4625266378
 21
50.7920256726
 31
0.0
  0
LINE
  5
23F
330
1F
100
AcDbEntity
  8
0
  6
SLD-Сплошная
 62
     7
370
    25
100
AcDbLine
 10
40.7256790393
 20
50.7920256726
 30
0.0
 11
44.7892983626
 21
50.7920256726
 31
0.0
  0
LINE
  5
240
330
1F
100
AcDbEntity
  8
0
  6
SLD-Сплошная
 62
     7
370
    25
100
AcDbLine
 10
131.5375266378
 20
60.1920256726
 30
0.0
 11
138.2009488241
 21
60.1920256726
 31
0.0
  0
LINE
  5
241
330
1F
100
AcDbEntity
  8
0
  6
SLD-Сплошная
 62
     7
370
    25
100
AcDbLine
 10
138.2009488241
 20
82.1920256726
 30
0.0
 11
131.5375266378
 21
82.1920256726
 31
0.0
  0
SPLINE
  5
242
330
1F
100
AcDbEntity
  8
0
  6
SLD-Сплошная
 62
     7
370
    25
100
AcDbSpline
210
0.0
220
0.0
230
1.0
 70
     8
 71
     3
 72
    20
 73
    16
 74
     0
 42
0.00000001
 43
0.00000001
 40
0.0
 40
0.0
 40
0.0
 40
0.0
 40
0.0220096365609587
 40
0.1646028118873488
 40
0.3147483319570401
 40
0.4083270106604933
 40
0.49602732900927
 40
0.5653497092506559
 40
0.5897220063574098
 40
0.6197904503677012
 40
0.6758576312468675
 40
0.7351743011613983
 40
0.8100054102838509
 40
0.9002609274117719
 40
1.0
 40
1.0
 40
1.0
 40
1.0
 10
129.8215128279894
 20
88.49654270834432
 30
0.0
 10
129.7601270429541
 20
88.57803956137259
 30
0.0
 10
129.3010430049813
 20
89.1875276431621
 30
0.0
 10
128.1770666862155
 20
90.10111619442684
 30
0.0
 10
126.5628699757031
 20
90.96138138712647
 30
0.0
 10
124.9954663228284
 20
91.51249317577542
 30
0.0
 10
123.7607235950579
 20
91.8538015616444
 30
0.0
 10
122.8200969671488
 20
92.07265240648968
 30
0.0
 10
122.1509395294591
 20
92.21512531452227
 30
0.0
 10
121.5593808916201
 20
92.33487521919689
 30
0.0
 10
120.7684768580965
 20
92.48225876222536
 30
0.0
 10
119.6889622983534
 20
92.66623026809908
 30
0.0
 10
118.3673402520081
 20
92.87379189257192
 30
0.0
 10
116.7613595093463
 20
93.11329098569048
 30
0.0
 10
115.6063469778505
 20
93.27427599822386
 30
0.0
 10
115.0000145612733
 20
93.35878627756746
 30
0.0
  0
SPLINE
  5
243
330
1F
100
AcDbEntity
  8
0
  6
SLD-Сплошная
 62
     7
370
    25
100
AcDbSpline
210
0.0
220
0.0
230
1.0
 70
     8
 71
     3
 72
    22
 73
    18
 74
     0
 42
0.00000001
 43
0.00000001
 40
0.0
 40
0.0
 40
0.0
 40
0.0
 40
0.0848715699744332
 40
0.1613373285602944
 40
0.2512833368850567
 40
0.3107353129871021
 40
0.3443758890848274
 40
0.3857588254995605
 40
0.4659398561242472
 40
0.5589867255224749
 40
0.6446727081448822
 40
0.7211396919793891
 40
0.8043958696614116
 40
0.8712729302146821
 40
0.9253500365937206
 40
0.9615084774391243
 40
1.0
 40
1.0
 40
1.0
 40
1.0
 10
115.0000145612733
 20
49.02526506765151
 30
0.0
 10
115.514995843983
 20
49.09663173192706
 30
0.0
 10
116.4939538676881
 20
49.2322967958106
 30
0.0
 10
118.0149888914133
 20
49.45473179493853
 30
0.0
 10
119.3536700804357
 20
49.66018400509873
 30
0.0
 10
120.3919145180711
 20
49.8347473598855
 30
0.0
 10
121.1447430182052
 20
49.97077644026496
 30
0.0
 10
122.007738997844
 20
50.13643499826174
 30
0.0
 10
123.1543389759993
 20
50.38174699225316
 30
0.0
 10
124.4574540651352
 20
50.71259770305531
 30
0.0
 10
125.6850792702506
 20
51.10365894949628
 30
0.0
 10
126.7957032124635
 20
51.55662488579269
 30
0.0
 10
127.7396470035707
 20
52.05706973537592
 30
0.0
 10
128.5137530341776
 20
52.58788515672229
 30
0.0
 10
129.0563591513938
 20
53.04818022283733
 30
0.0
 10
129.4760151714782
 20
53.45693209208073
 30
0.0
 10
129.6892116508736
 20
53.71628905919101
 30
0.0
 10
129.7991414716276
 20
53.85002046501253
 30
0.0
  0
SPLINE
  5
244
330
1F
100
AcDbEntity
  8
0
  6
SLD-Сплошная
 62
     7
370
    25
100
AcDbSpline
210
0.0
220
0.0
230
1.0
 70
     8
 71
     3
 72
    10
 73
     6
 74
     0
 42
0.00000001
 43
0.00000001
 40
0.0
 40
0.0
 40
0.0
 40
0.0
 40
0.3328354309229843
 40
0.6669842351540622
 40
1.0
 40
1.0
 40
1.0
 40
1.0
 10
115.0006418551384
 20
93.35864267116852
 30
0.0
 10
112.4234678392083
 20
93.67769134411147
 30
0.0
 10
107.2589502423065
 20
94.3170476605639
 30
0.0
 10
99.47207860015712
 20
94.86752469700619
 30
0.0
 10
94.26766784446657
 20
94.96180201162508
 30
0.0
 10
91.6698817678222
 20
95.00886061379107
 30
0.0
  0
SPLINE
  5
245
330
1F
100
AcDbEntity
  8
0
  6
SLD-Сплошная
 62
     7
370
    25
100
AcDbSpline
210
0.0
220
0.0
230
1.0
 70
     8
 71
     3
 72
    10
 73
     6
 74
     0
 42
0.00000001
 43
0.00000001
 40
0.0
 40
0.0
 40
0.0
 40
0.0
 40
0.3330157648459383
 40
0.6671645690770159
 40
1.0
 40
1.0
 40
1.0
 40
1.0
 10
91.6698817678222
 20
47.37519073142789
 30
0.0
 10
94.26766784446657
 20
47.42224933359387
 30
0.0
 10
99.4720786001571
 20
47.51652664821277
 30
0.0
 10
107.2589502423065
 20
48.06700368465508
 30
0.0
 10
112.4234678392083
 20
48.70636000110748
 30
0.0
 10
115.0006418551385
 20
49.02540867405043
 30
0.0
  0
LINE
  5
246
330
1F
100
AcDbEntity
  8
0
  6
SLD-Сплошная
 62
     7
370
    25
100
AcDbLine
 10
80.9429222759
 20
95.0164529639
 30
0.0
 11
66.6375266378
 21
94.9724680585
 31
0.0
  0
LINE
  5
247
330
1F
100
AcDbEntity
  8
0
  6
SLD-Сплошная
 62
     7
370
    25
100
AcDbLine
 10
66.6375266378
 20
47.4115832867
 30
0.0
 11
80.9429222759
 21
47.3675983813
 31
0.0
  0
LINE
  5
248
330
1F
100
AcDbEntity
  8
0
  6
SLD-Сплошная
 62
     7
370
    25
100
AcDbLine
 10
170.69906672
 20
57.8234660035
 30
0.0
 11
170.7692887717
 21
59.6321444984
 31
0.0
  0
LINE
  5
249
330
1F
100
AcDbEntity
  8
0
  6
SLD-Сплошная
 62
     7
370
    25
100
AcDbLine
 10
170.7692887717
 20
82.7519068468
 30
0.0
 11
170.69906672
 21
84.5605853417
 31
0.0
  0
LINE
  5
24A
330
1F
100
AcDbEntity
  8
0
  6
SLD-Сплошная
 62
     7
370
    25
100
AcDbLine
 10
91.6696273293
 20
95.008891588
 30
0.0
 11
83.8841292157
 21
95.013036803
 31
0.0
  0
LINE
  5
24B
330
1F
100
AcDbEntity
  8
0
  6
SLD-Сплошная
 62
     7
370
    25
100
AcDbLine
 10
83.8841292157
 20
47.3710145423
 30
0.0
 11
91.6696273293
 21
47.3751597573
 31
0.0
  0
LINE
  5
24C
330
1F
100
AcDbEntity
  8
0
  6
SLD-Сплошная
 62
     7
370
    25
100
AcDbLine
 10
83.8840566845
 20
95.013043315
 30
0.0
 11
80.9432906233
 21
95.0164747516
 31
0.0
  0
LINE
  5
24D
330
1F
100
AcDbEntity
  8
0
  6
SLD-Сплошная
 62
     7
370
    25
100
AcDbLine
 10
80.9432906233
 20
47.3675765937
 30
0.0
 11
83.8840566845
 21
47.3710080302
 31
0.0
  0
ARC
  5
24E
330
1F
100
AcDbEntity
  8
0
  6
SLD-Сплошная
 62
     7
370
    25
100
AcDbCircle
 10
161.2105677673
 20
71.1920256726
 30
0.0
 40
17.5
100
AcDbArc
 50
270.0
 51
297.7766046258
  0
LINE
  5
24F
330
1F
100
AcDbEntity
  8
0
  6
SLD-Сплошная
 62
     7
370
    25
100
AcDbLine
 10
149.2009488241
 20
53.6920256726
 30
0.0
 11
161.2105677673
 21
53.6920256726
 31
0.0
  0
ARC
  5
250
330
1F
100
AcDbEntity
  8
0
  6
SLD-Сплошная
 62
     7
370
    25
100
AcDbCircle
 10
168.2009488241
 20
57.9204555816
 30
0.0
 40
2.500000000000022
100
AcDbArc
 50
297.7766046258
 51
357.7766046258
  0
ARC
  5
251
330
1F
100
AcDbEntity
  8
0
  6
SLD-Сплошная
 62
     7
370
    25
100
AcDbCircle
 10
161.2105677673
 20
71.1920256726
 30
0.0
 40
17.5
100
AcDbArc
 50
62.2233953742
 51
90.0
  0
ARC
  5
252
330
1F
100
AcDbEntity
  8
0
  6
SLD-Сплошная
 62
     7
370
    25
100
AcDbCircle
 10
168.2009488241
 20
84.4635957636
 30
0.0
 40
2.500000000000022
100
AcDbArc
 50
2.2233953742
 51
62.2233953742
  0
LINE
  5
253
330
1F
100
AcDbEntity
  8
0
  6
SLD-Сплошная
 62
     7
370
    25
100
AcDbLine
 10
161.2105677673
 20
88.6920256726
 30
0.0
 11
149.2009488241
 21
88.6920256726
 31
0.0
  0
LINE
  5
254
330
1F
100
AcDbEntity
  8
0
  6
SLD-Сплошная
 62
     7
370
    25
100
AcDbLine
 10
51.0508373146
 20
50.3920256726
 30
0.0
 11
53.3989073146
 21
50.3920256726
 31
0.0
  0
LINE
  5
255
330
1F
100
AcDbEntity
  8
0
  6
SLD-Сплошная
 62
     7
370
    25
100
AcDbLine
 10
47.9200678386
 20
50.3920256726
 30
0.0
 11
50.2681378386
 21
50.3920256726
 31
0.0
  0
LINE
  5
256
330
1F
100
AcDbEntity
  8
0
  6
SLD-Сплошная
 62
     7
370
    25
100
AcDbLine
 10
44.7892983626
 20
50.3920256726
 30
0.0
 11
47.1373683626
 21
50.3920256726
 31
0.0
  0
LINE
  5
257
330
1F
100
AcDbEntity
  8
0
  6
SLD-Сплошная
 62
     7
370
    25
100
AcDbLine
 10
26.5375266378
 20
74.6920256726
 30
0.0
 11
25.1375266378
 21
74.6920256726
 31
0.0
  0
LINE
  5
258
330
1F
100
AcDbEntity
  8
0
  6
SLD-Сплошная
 62
     7
370
    25
100
AcDbLine
 10
25.1375266378
 20
67.6920256726
 30
0.0
 11
26.5375266378
 21
67.6920256726
 31
0.0
  0
LINE
  5
259
330
1F
100
AcDbEntity
  8
0
  6
SLD-Сплошная
 62
     7
370
    25
100
AcDbLine
 10
104.3375266378
 20
68.4420256726
 30
0.0
 11
104.3375266378
 21
73.9420256726
 31
0.0
  0
LINE
  5
25A
330
1F
100
AcDbEntity
  8
0
  6
SLD-Сплошная
 62
     7
370
    25
100
AcDbLine
 10
101.0375266378
 20
68.4420256726
 30
0.0
 11
104.3375266378
 21
68.4420256726
 31
0.0
  0
LINE
  5
25B
330
1F
100
AcDbEntity
  8
0
  6
SLD-Сплошная
 62
     7
370
    25
100
AcDbLine
 10
101.0375266378
 20
68.4420256726
 30
0.0
 11
101.0375266378
 21
73.9420256726
 31
0.0
  0
LINE
  5
25C
330
1F
100
AcDbEntity
  8
0
  6
SLD-Сплошная
 62
     7
370
    25
100
AcDbLine
 10
104.3375266378
 20
73.9420256726
 30
0.0
 11
101.0375266378
 21
73.9420256726
 31
0.0
  0
SPLINE
  5
25D
330
1F
100
AcDbEntity
  8
0
  6
SLD-Сплошная
 62
     7
370
    25
100
AcDbSpline
210
0.0
220
0.0
230
1.0
 70
     8
 71
     3
 72
     8
 73
     4
 74
     0
 42
0.00000001
 43
0.00000001
 40
0.0
 40
0.0
 40
0.0
 40
0.0
 40
1.0
 40
1.0
 40
1.0
 40
1.0
 10
91.63958898525475
 20
68.44202567260947
 30
0.0
 10
91.63821688573306
 20
69.3532870002092
 30
0.0
 10
91.63752663781912
 20
70.26993373085192
 30
0.0
 10
91.63752663781912
 20
71.19202567260851
 30
0.0
  0
SPLINE
  5
25E
330
1F
100
AcDbEntity
  8
0
  6
SLD-Сплошная
 62
     7
370
    25
100
AcDbSpline
210
0.0
220
0.0
230
1.0
 70
     8
 71
     3
 72
     8
 73
     4
 74
     0
 42
0.00000001
 43
0.00000001
 40
0.0
 40
0.0
 40
0.0
 40
0.0
 40
1.0
 40
1.0
 40
1.0
 40
1.0
 10
91.63752663781912
 20
71.19202567260851
 30
0.0
 10
91.63752663781912
 20
72.10573312198899
 30
0.0
 10
91.63821534901193
 20
73.02974375243407
 30
0.0
 10
91.6395889852548
 20
73.94202567260949
 30
0.0
  0
SPLINE
  5
25F
330
1F
100
AcDbEntity
  8
0
  6
SLD-Сплошная
 62
     7
370
    25
100
AcDbSpline
210
0.0
220
0.0
230
1.0
 70
    24
 71
     3
 72
    16
 73
    12
 74
     0
 42
0.00000001
 43
0.00000001
 40
0.0
 40
0.0
 40
0.0
 40
0.0
 40
0.125
 40
0.125
 40
0.25
 40
0.25
 40
0.5
 40
0.5
 40
0.75
 40
0.75
 40
1.0
 40
1.0
 40
1.0
 40
1.0
 10
101.037526637819
 20
73.94202567260947
 30
0.0
 10
100.7798840675581
 20
73.94202567260947
 30
0.0
 10
100.5023788462727
 20
73.94202567260947
 30
0.0
 10
99.90675570662441
 20
73.94202567260947
 30
0.0
 10
99.5876674807164
 20
73.94202567260947
 30
0.0
 10
98.5827459108382
 20
73.94202567260947
 30
0.0
 10
97.84606619717776
 20
73.94202567260947
 30
0.0
 10
96.23747554702491
 20
73.94202567260947
 30
0.0
 10
95.3840193930923
 20
73.94202567260947
 30
0.0
 10
93.58341133991713
 20
73.94202567260947
 30
0.0
 10
92.63612370960922
 20
73.94202567260947
 30
0.0
 10
91.63958898525466
 20
73.94202567260947
 30
0.0
  0
SPLINE
  5
260
330
1F
100
AcDbEntity
  8
0
  6
SLD-Сплошная
 62
     7
370
    25
100
AcDbSpline
210
0.0
220
0.0
230
1.0
 70
    24
 71
     3
 72
    16
 73
    12
 74
     0
 42
0.00000001
 43
0.00000001
 40
0.0
 40
0.0
 40
0.0
 40
0.0
 40
0.125
 40
0.125
 40
0.25
 40
0.25
 40
0.5
 40
0.5
 40
0.75
 40
0.75
 40
1.0
 40
1.0
 40
1.0
 40
1.0
 10
91.63958898525462
 20
68.44202567260947
 30
0.0
 10
92.13127121928277
 20
68.44202567260947
 30
0.0
 10
92.61519255591956
 20
68.44202567260947
 30
0.0
 10
93.56723022436341
 20
68.44202567260947
 30
0.0
 10
94.03678024622607
 20
68.44202567260947
 30
0.0
 10
95.40167111495573
 20
68.44202567260947
 30
0.0
 10
96.25906217968267
 20
68.44202567260947
 30
0.0
 10
97.8652242623223
 20
68.44202567260947
 30
0.0
 10
98.59650042417539
 20
68.44202567260947
 30
0.0
 10
99.92159335626135
 20
68.44202567260947
 30
0.0
 10
100.5154063562948
 20
68.44202567260947
 30
0.0
 10
101.037526637819
 20
68.44202567260947
 30
0.0
  0
LINE
  5
261
330
1F
100
AcDbEntity
  8
0
  6
SLD-Сплошная
 62
     7
370
    25
100
AcDbLine
 10
66.6375266378
 20
45.1920256726
 30
0.0
 11
66.6375266378
 21
97.1920256726
 31
0.0
  0
LINE
  5
262
330
1F
100
AcDbEntity
  8
0
  6
SLD-Сплошная
 62
     7
370
    25
100
AcDbLine
 10
63.3375266378
 20
97.1920256726
 30
0.0
 11
63.3375266378
 21
45.1920256726
 31
0.0
  0
SPLINE
  5
263
330
1F
100
AcDbEntity
  8
0
  6
SLD-Сплошная
 62
     7
370
    25
100
AcDbSpline
210
0.0
220
0.0
230
1.0
 70
     8
 71
     3
 72
     8
 73
     4
 74
     0
 42
0.00000001
 43
0.00000001
 40
0.0
 40
0.0
 40
0.0
 40
0.0
 40
1.0
 40
1.0
 40
1.0
 40
1.0
 10
114.5567355526449
 20
90.96525967174448
 30
0.0
 10
106.9652446053169
 20
92.05113950776041
 30
0.0
 10
99.30570087595714
 20
92.62571756848928
 30
0.0
 10
91.63752663781902
 20
92.69902018541917
 30
0.0
  0
SPLINE
  5
264
330
1F
100
AcDbEntity
  8
0
  6
SLD-Сплошная
 62
     7
370
    25
100
AcDbSpline
210
0.0
220
0.0
230
1.0
 70
     8
 71
     3
 72
    12
 73
     8
 74
     0
 42
0.00000001
 43
0.00000001
 40
0.0
 40
0.0
 40
0.0
 40
0.0
 40
0.0977673285244295
 40
0.3145769160254797
 40
0.5478266839957389
 40
0.7881844642822672
 40
1.0
 40
1.0
 40
1.0
 40
1.0
 10
125.3827147131522
 20
89.48752344893394
 30
0.0
 10
125.0919525828243
 20
89.54795991393524
 30
0.0
 10
124.1563940927231
 20
89.74242075338466
 30
0.0
 10
122.2731121406228
 20
89.9830663896834
 30
0.0
 10
119.7656287956924
 20
90.28617349216205
 30
0.0
 10
117.1323794602088
 20
90.6087051074468
 30
0.0
 10
115.3783779532423
 20
90.85151710535432
 30
0.0
 10
114.5567355526449
 20
90.96525967174448
 30
0.0
  0
LINE
  5
265
330
1F
100
AcDbEntity
  8
0
  6
SLD-Сплошная
 62
     7
370
    25
100
AcDbLine
 10
131.5375266378
 20
88.1920256726
 30
0.0
 11
131.5375266378
 21
54.1920256726
 31
0.0
  0
SPLINE
  5
266
330
1F
100
AcDbEntity
  8
0
  6
SLD-Сплошная
 62
     7
370
    25
100
AcDbSpline
210
0.0
220
0.0
230
1.0
 70
     8
 71
     3
 72
    12
 73
     8
 74
     0
 42
0.00000001
 43
0.00000001
 40
0.0
 40
0.0
 40
0.0
 40
0.0
 40
0.098020519585622
 40
0.3147692644112819
 40
0.5479535761437916
 40
0.7882439054907182
 40
1.0
 40
1.0
 40
1.0
 40
1.0
 10
125.3852596447083
 20
52.89703285851975
 30
0.0
 10
125.0936715894139
 20
52.83641943676603
 30
0.0
 10
124.1573068561503
 20
52.64177404762173
 30
0.0
 10
122.2731318313177
 20
52.40097735916326
 30
0.0
 10
119.7656231765237
 20
52.09788002084751
 30
0.0
 10
117.1323806874482
 20
51.77534576432151
 30
0.0
 10
115.3783783447373
 20
51.53253408883167
 30
0.0
 10
114.5567355526449
 20
51.41879167347447
 30
0.0
  0
SPLINE
  5
267
330
1F
100
AcDbEntity
  8
0
  6
SLD-Сплошная
 62
     7
370
    25
100
AcDbSpline
210
0.0
220
0.0
230
1.0
 70
     8
 71
     3
 72
     8
 73
     4
 74
     0
 42
0.00000001
 43
0.00000001
 40
0.0
 40
0.0
 40
0.0
 40
0.0
 40
1.0
 40
1.0
 40
1.0
 40
1.0
 10
114.5567355526449
 20
51.41879167347447
 30
0.0
 10
106.9652446053169
 20
50.33291183745855
 30
0.0
 10
99.30570087595714
 20
49.75833377672963
 30
0.0
 10
91.63752663781902
 20
49.68503115979973
 30
0.0
  0
LINE
  5
268
330
1F
100
AcDbEntity
  8
0
  6
SLD-Сплошная
 62
     7
370
    25
100
AcDbLine
 10
91.6375266378
 20
49.6850311598
 30
0.0
 11
91.5428476828
 21
49.6845304857
 31
0.0
  0
SPLINE
  5
269
330
1F
100
AcDbEntity
  8
0
  6
SLD-Сплошная
 62
     7
370
    25
100
AcDbSpline
210
0.0
220
0.0
230
1.0
 70
     8
 71
     3
 72
    14
 73
    10
 74
     0
 42
0.00000001
 43
0.00000001
 40
0.0
 40
0.0
 40
0.0
 40
0.0
 40
0.0025086844972278
 40
0.0025086844972278
 40
0.0025086844972278
 40
0.0051502767466552
 40
0.0051502767466552
 40
0.0051502767466552
 40
0.0077918691788335
 40
0.0077918691788335
 40
0.0077918691788335
 40
0.0077918691788335
 10
91.54284768279153
 20
49.68453048572653
 30
0.0
 10
90.70752160037965
 20
49.68008244712186
 30
0.0
 10
89.87219532708434
 20
49.67573864654867
 30
0.0
 10
89.03686890086847
 20
49.67149902774418
 30
0.0
 10
88.15728766464228
 20
49.6670347979148
 30
0.0
 10
87.27770624400961
 20
49.6626860810258
 30
0.0
 10
86.39812468353087
 20
49.65845282086738
 30
0.0
 10
85.5185430621962
 20
49.65421956041607
 30
0.0
 10
84.638961285795
 20
49.65010175663966
 30
0.0
 10
83.75937939926182
 20
49.64609936298807
 30
0.0
  0
SPLINE
  5
26A
330
1F
100
AcDbEntity
  8
0
  6
SLD-Сплошная
 62
     7
370
    25
100
AcDbSpline
210
0.0
220
0.0
230
1.0
 70
     8
 71
     3
 72
     8
 73
     4
 74
     0
 42
0.00000001
 43
0.00000001
 40
0.0
 40
0.0
 40
0.0
 40
0.0
 40
1.0
 40
1.0
 40
1.0
 40
1.0
 10
83.75937939926182
 20
49.64609936298807
 30
0.0
 10
82.89075765318695
 20
49.64214684166476
 30
0.0
 10
82.01994013018405
 20
49.64358232467106
 30
0.0
 10
81.15375230825182
 20
49.65129094166802
 30
0.0
  0
SPLINE
  5
26B
330
1F
100
AcDbEntity
  8
0
  6
SLD-Сплошная
 62
     7
370
    25
100
AcDbSpline
210
0.0
220
0.0
230
1.0
 70
     8
 71
     3
 72
    14
 73
    10
 74
     0
 42
0.00000001
 43
0.00000001
 40
0.0
 40
0.0
 40
0.0
 40
0.0
 40
0.0050149731967852
 40
0.0050149731967852
 40
0.0050149731967852
 40
0.0095729506542099
 40
0.0095729506542099
 40
0.0095729506542099
 40
0.0145733584065001
 40
0.0145733584065001
 40
0.0145733584065001
 40
0.0145733584065001
 10
81.15375230825182
 20
49.65129094166802
 30
0.0
 10
79.48863093941269
 20
49.66610964791261
 30
0.0
 10
77.82351358656567
 20
49.68243712563098
 30
0.0
 10
76.15840281698448
 20
49.70027507782598
 30
0.0
 10
74.64502725365382
 20
49.71648752533694
 30
0.0
 10
73.13165577335324
 20
49.73394733300614
 30
0.0
 10
71.61829045840996
 20
49.75265619268003
 30
0.0
 10
69.9580270667453
 20
49.77318106827327
 30
0.0
 10
68.29777044891117
 20
49.79521004072302
 30
0.0
 10
66.63752663781905
 20
49.81875297010323
 30
0.0
  0
SPLINE
  5
26C
330
1F
100
AcDbEntity
  8
0
  6
SLD-Сплошная
 62
     7
370
    25
100
AcDbSpline
210
0.0
220
0.0
230
1.0
 70
     8
 71
     3
 72
    14
 73
    10
 74
     0
 42
0.00000001
 43
0.00000001
 40
0.0
 40
0.0
 40
0.0
 40
0.0
 40
0.0050149731967852
 40
0.0050149731967852
 40
0.0050149731967852
 40
0.0095729506542099
 40
0.0095729506542099
 40
0.0095729506542099
 40
0.0145733584065001
 40
0.0145733584065001
 40
0.0145733584065001
 40
0.0145733584065001
 10
81.15375230825182
 20
92.73276040355093
 30
0.0
 10
79.48863093941269
 20
92.71794169730634
 30
0.0
 10
77.82351358656567
 20
92.70161421958798
 30
0.0
 10
76.15840281698448
 20
92.68377626739297
 30
0.0
 10
74.64502725365382
 20
92.66756381988202
 30
0.0
 10
73.13165577335324
 20
92.65010401221282
 30
0.0
 10
71.61829045840996
 20
92.63139515253893
 30
0.0
 10
69.9580270667453
 20
92.61087027694568
 30
0.0
 10
68.29777044891117
 20
92.58884130449593
 30
0.0
 10
66.63752663781905
 20
92.56529837511573
 30
0.0
  0
SPLINE
  5
26D
330
1F
100
AcDbEntity
  8
0
  6
SLD-Сплошная
 62
     7
370
    25
100
AcDbSpline
210
0.0
220
0.0
230
1.0
 70
     8
 71
     3
 72
     8
 73
     4
 74
     0
 42
0.00000001
 43
0.00000001
 40
0.0
 40
0.0
 40
0.0
 40
0.0
 40
1.0
 40
1.0
 40
1.0
 40
1.0
 10
83.75937939926182
 20
92.73795198223088
 30
0.0
 10
82.89075765318695
 20
92.74190450355418
 30
0.0
 10
82.01994013018405
 20
92.7404690205479
 30
0.0
 10
81.15375230825182
 20
92.73276040355093
 30
0.0
  0
SPLINE
  5
26E
330
1F
100
AcDbEntity
  8
0
  6
SLD-Сплошная
 62
     7
370
    25
100
AcDbSpline
210
0.0
220
0.0
230
1.0
 70
     8
 71
     3
 72
    14
 73
    10
 74
     0
 42
0.00000001
 43
0.00000001
 40
0.0
 40
0.0
 40
0.0
 40
0.0
 40
0.0025086844972278
 40
0.0025086844972278
 40
0.0025086844972278
 40
0.0051502767466552
 40
0.0051502767466552
 40
0.0051502767466552
 40
0.0077918691788335
 40
0.0077918691788335
 40
0.0077918691788335
 40
0.0077918691788335
 10
91.54284768279153
 20
92.69952085949242
 30
0.0
 10
90.70752160037965
 20
92.70396889809709
 30
0.0
 10
89.87219532708434
 20
92.70831269867028
 30
0.0
 10
89.03686890086847
 20
92.71255231747477
 30
0.0
 10
88.15728766464228
 20
92.71701654730415
 30
0.0
 10
87.27770624400961
 20
92.72136526419317
 30
0.0
 10
86.39812468353087
 20
92.72559852435158
 30
0.0
 10
85.5185430621962
 20
92.72983178480288
 30
0.0
 10
84.638961285795
 20
92.73394958857929
 30
0.0
 10
83.75937939926182
 20
92.73795198223088
 30
0.0
  0
LINE
  5
26F
330
1F
100
AcDbEntity
  8
0
  6
SLD-Сплошная
 62
     7
370
    25
100
AcDbLine
 10
91.6375266378
 20
92.6990201854
 30
0.0
 11
91.5428476828
 21
92.6995208595
 31
0.0
  0
LINE
  5
270
330
1F
100
AcDbEntity
  8
0
  6
SLD-Сплошная
 62
     7
370
    25
100
AcDbLine
 10
39.6625266378
 20
92.8170256726
 30
0.0
 11
39.6625266378
 21
49.5670256726
 31
0.0
  0
LINE
  5
271
330
1F
100
AcDbEntity
  8
0
  6
SLD-Сплошная
 62
     7
370
    25
100
AcDbLine
 10
26.5375266378
 20
92.8170256726
 30
0.0
 11
26.5375266378
 21
49.5670256726
 31
0.0
  0
LINE
  5
272
330
1F
100
AcDbEntity
  8
0
  6
SLD-Сплошная
 62
     7
370
    25
100
AcDbLine
 10
58.5125266378
 20
92.8170256726
 30
0.0
 11
58.5125266378
 21
49.5670256726
 31
0.0
  0
LINE
  5
273
330
1F
100
AcDbEntity
  8
0
  6
SLD-Сплошная
 62
     7
370
    25
100
AcDbLine
 10
40.7256790393
 20
54.866203957
 30
0.0
 11
40.7256790393
 21
50.3920256726
 31
0.0
  0
LINE
  5
274
330
1F
100
AcDbEntity
  8
0
  6
SLD-Сплошная
 62
     7
370
    25
100
AcDbLine
 10
57.4625266378
 20
54.866203957
 30
0.0
 11
57.4625266378
 21
50.3920256726
 31
0.0
  0
LINE
  5
275
330
1F
100
AcDbEntity
  8
0
  6
SLD-Сплошная
 62
     7
370
    25
100
AcDbLine
 10
57.4625266378
 20
54.866203957
 30
0.0
 11
40.7256790393
 21
54.866203957
 31
0.0
  0
LINE
  5
276
330
1F
100
AcDbEntity
  8
0
  6
SLD-Сплошная
 62
     7
370
    25
100
AcDbLine
 10
140.2009488241
 20
89.1920256726
 30
0.0
 11
140.2009488241
 21
90.846248521
 31
0.0
  0
LINE
  5
277
330
1F
100
AcDbEntity
  8
0
  6
SLD-Сплошная
 62
     7
370
    25
100
AcDbLine
 10
140.2009488241
 20
87.0269621631
 30
0.0
 11
140.2009488241
 21
89.1920256726
 31
0.0
  0
LINE
  5
278
330
1F
100
AcDbEntity
  8
0
  6
SLD-Сплошная
 62
     7
370
    25
100
AcDbLine
 10
140.2009488241
 20
73.3570891821
 30
0.0
 11
140.2009488241
 21
87.0269621631
 31
0.0
  0
LINE
  5
279
330
1F
100
AcDbEntity
  8
0
  6
SLD-Сплошная
 62
     7
370
    25
100
AcDbLine
 10
140.2009488241
 20
69.0269621631
 30
0.0
 11
140.2009488241
 21
73.3570891821
 31
0.0
  0
LINE
  5
27A
330
1F
100
AcDbEntity
  8
0
  6
SLD-Сплошная
 62
     7
370
    25
100
AcDbLine
 10
140.2009488241
 20
55.3570891821
 30
0.0
 11
140.2009488241
 21
69.0269621631
 31
0.0
  0
LINE
  5
27B
330
1F
100
AcDbEntity
  8
0
  6
SLD-Сплошная
 62
     7
370
    25
100
AcDbLine
 10
140.2009488241
 20
53.1920256726
 30
0.0
 11
140.2009488241
 21
55.3570891821
 31
0.0
  0
LINE
  5
27C
330
1F
100
AcDbEntity
  8
0
  6
SLD-Сплошная
 62
     7
370
    25
100
AcDbLine
 10
140.2009488241
 20
51.5378028243
 30
0.0
 11
140.2009488241
 21
53.1920256726
 31
0.0
  0
LINE
  5
27D
330
1F
100
AcDbEntity
  8
0
  6
SLD-Сплошная
 62
     7
370
    25
100
AcDbLine
 10
138.2009488241
 20
51.5378028243
 30
0.0
 11
138.2009488241
 21
90.846248521
 31
0.0
  0
LINE
  5
27E
330
1F
100
AcDbEntity
  8
0
  6
SLD-Сплошная
 62
     7
370
    25
100
AcDbLine
 10
140.2009488241
 20
73.3570891821
 30
0.0
 11
149.2009488241
 21
73.3570891821
 31
0.0
  0
LINE
  5
27F
330
1F
100
AcDbEntity
  8
0
  6
SLD-Сплошная
 62
     7
370
    25
100
AcDbLine
 10
149.2009488241
 20
87.0269621631
 30
0.0
 11
140.2009488241
 21
87.0269621631
 31
0.0
  0
LINE
  5
280
330
1F
100
AcDbEntity
  8
0
  6
SLD-Сплошная
 62
     7
370
    25
100
AcDbLine
 10
149.2009488241
 20
73.3570891821
 30
0.0
 11
149.2009488241
 21
87.0269621631
 31
0.0
  0
LINE
  5
281
330
1F
100
AcDbEntity
  8
0
  6
SLD-Сплошная
 62
     7
370
    25
100
AcDbLine
 10
149.2009488241
 20
69.0269621631
 30
0.0
 11
140.2009488241
 21
69.0269621631
 31
0.0
  0
LINE
  5
282
330
1F
100
AcDbEntity
  8
0
  6
SLD-Сплошная
 62
     7
370
    25
100
AcDbLine
 10
149.2009488241
 20
73.3570891821
 30
0.0
 11
149.2009488241
 21
69.0269621631
 31
0.0
  0
LINE
  5
283
330
1F
100
AcDbEntity
  8
0
  6
SLD-Сплошная
 62
     7
370
    25
100
AcDbLine
 10
140.2009488241
 20
55.3570891821
 30
0.0
 11
149.2009488241
 21
55.3570891821
 31
0.0
  0
LINE
  5
284
330
1F
100
AcDbEntity
  8
0
  6
SLD-Сплошная
 62
     7
370
    25
100
AcDbLine
 10
149.2009488241
 20
69.0269621631
 30
0.0
 11
149.2009488241
 21
55.3570891821
 31
0.0
  0
LINE
  5
285
330
1F
100
AcDbEntity
  8
0
  6
SLD-Сплошная
 62
     7
370
    25
100
AcDbLine
 10
161.2105677673
 20
74.2621097667
 30
0.0
 11
168.0529663557
 21
74.2621097667
 31
0.0
  0
LINE
  5
286
330
1F
100
AcDbEntity
  8
0
  6
SLD-Сплошная
 62
     7
370
    25
100
AcDbLine
 10
161.2105677673
 20
74.2621097667
 30
0.0
 11
149.2009488241
 21
74.2621097667
 31
0.0
  0
LINE
  5
287
330
1F
100
AcDbEntity
  8
0
  6
SLD-Сплошная
 62
     7
370
    25
100
AcDbLine
 10
161.2105677673
 20
68.1219415785
 30
0.0
 11
149.2009488241
 21
68.1219415785
 31
0.0
  0
LINE
  5
288
330
1F
100
AcDbEntity
  8
0
  6
SLD-Сплошная
 62
     7
370
    25
100
AcDbLine
 10
161.2105677673
 20
68.1219415785
 30
0.0
 11
168.0529663557
 21
68.1219415785
 31
0.0
  0
LINE
  5
289
330
1F
100
AcDbEntity
  8
0
  6
SLD-Сплошная
 62
     7
370
    25
100
AcDbLine
 10
170.7692887717
 20
59.6321444984
 30
0.0
 11
168.0529663557
 21
58.2014073188
 31
0.0
  0
ARC
  5
28A
330
1F
100
AcDbEntity
  8
0
  6
SLD-Сплошная
 62
     7
370
    25
100
AcDbCircle
 10
161.2105677673
 20
71.1920256726
 30
0.0
 40
14.68245836551856
100
AcDbArc
 50
270.0
 51
297.7766046258
  0
ARC
  5
28B
330
1F
100
AcDbEntity
  8
0
  6
SLD-Сплошная
 62
     7
370
    25
100
AcDbCircle
 10
167.7497428647
 20
71.1920256726
 30
0.0
 40
3.085022014554623
100
AcDbArc
 50
275.6406475517
 51
84.3593524483
  0
ARC
  5
28C
330
1F
100
AcDbEntity
  8
0
  6
SLD-Сплошная
 62
     7
370
    25
100
AcDbCircle
 10
161.2105677673
 20
71.1920256726
 30
0.0
 40
14.68245836551859
100
AcDbArc
 50
62.2233953742
 51
90.0
  0
LINE
  5
28D
330
1F
100
AcDbEntity
  8
0
  6
SLD-Сплошная
 62
     7
370
    25
100
AcDbLine
 10
168.0529663557
 20
84.1826440264
 30
0.0
 11
170.7692887717
 21
82.7519068468
 31
0.0
  0
LINE
  5
28E
330
1F
100
AcDbEntity
  8
0
  6
SLD-Сплошная
 62
     7
370
    25
100
AcDbLine
 10
174.2009488241
 20
63.6920256726
 30
0.0
 11
174.2009488241
 21
78.6920256726
 31
0.0
  0
LINE
  5
28F
330
1F
100
AcDbEntity
  8
0
  6
SLD-Сплошная
 62
     7
370
    25
100
AcDbLine
 10
161.2105677673
 20
85.8744840381
 30
0.0
 11
149.2009488241
 21
85.8744840381
 31
0.0
  0
LINE
  5
290
330
1F
100
AcDbEntity
  8
0
  6
SLD-Сплошная
 62
     7
370
    25
100
AcDbLine
 10
161.2105677673
 20
56.5095673071
 30
0.0
 11
149.2009488241
 21
56.5095673071
 31
0.0
  0
SPLINE
  5
291
330
1F
100
AcDbEntity
  8
0
  6
SLD-Сплошная
 62
     7
370
    25
100
AcDbSpline
210
0.0
220
0.0
230
1.0
 70
     8
 71
     3
 72
     8
 73
     4
 74
     0
 42
0.00000001
 43
0.00000001
 40
0.0
 40
0.0
 40
0.0
 40
0.0
 40
1.0
 40
1.0
 40
1.0
 40
1.0
 10
53.3989073145679
 20
53.68504967316708
 30
0.0
 10
51.9639724892352
 20
53.06852396003693
 30
0.0
 10
50.52903766390248
 20
52.54326342391478
 30
0.0
 10
49.09410283856978
 20
52.11742244896493
 30
0.0
  0
SPLINE
  5
292
330
1F
100
AcDbEntity
  8
0
  6
SLD-Сплошная
 62
     7
370
    25
100
AcDbSpline
210
0.0
220
0.0
230
1.0
 70
     8
 71
     3
 72
     8
 73
     4
 74
     0
 42
0.00000001
 43
0.00000001
 40
0.0
 40
0.0
 40
0.0
 40
0.0
 40
1.0
 40
1.0
 40
1.0
 40
1.0
 10
49.09410283856978
 20
52.11742244896493
 30
0.0
 10
47.65916801323587
 20
52.54326342391468
 30
0.0
 10
46.22423318790197
 20
53.06852396003668
 30
0.0
 10
44.78929836256812
 20
53.68504967316663
 30
0.0
  0
LINE
  5
293
330
1F
100
AcDbEntity
  8
0
  6
SLD-Сплошная
 62
     7
370
    25
100
AcDbLine
 10
47.1323443842
 20
51.2502715833
 30
0.0
 11
44.7892983626
 21
51.2502715833
 31
0.0
  0
LINE
  5
294
330
1F
100
AcDbEntity
  8
0
  6
SLD-Сплошная
 62
     7
370
    25
100
AcDbLine
 10
53.3989073146
 20
51.2502715833
 30
0.0
 11
51.0732320556
 21
51.2502715833
 31
0.0
  0
LINE
  5
295
330
1F
100
AcDbEntity
  8
0
  6
SLD-Сплошная
 62
     7
370
    25
100
AcDbLine
 10
140.2009488241
 20
89.1920256726
 30
0.0
 11
149.2009488241
 21
89.1920256726
 31
0.0
  0
LINE
  5
296
330
1F
100
AcDbEntity
  8
0
  6
SLD-Сплошная
 62
     7
370
    25
100
AcDbLine
 10
149.2009488241
 20
87.0269621631
 30
0.0
 11
149.2009488241
 21
89.1920256726
 31
0.0
  0
LINE
  5
297
330
1F
100
AcDbEntity
  8
0
  6
SLD-Сплошная
 62
     7
370
    25
100
AcDbLine
 10
149.2009488241
 20
53.1920256726
 30
0.0
 11
140.2009488241
 21
53.1920256726
 31
0.0
  0
LINE
  5
298
330
1F
100
AcDbEntity
  8
0
  6
SLD-Сплошная
 62
     7
370
    25
100
AcDbLine
 10
149.2009488241
 20
55.3570891821
 30
0.0
 11
149.2009488241
 21
53.1920256726
 31
0.0
  0
SPLINE
  5
299
330
1F
100
AcDbEntity
  8
0
  6
SLD-Сплошная
 62
     7
370
    25
100
AcDbSpline
210
0.0
220
0.0
230
1.0
 70
     8
 71
     3
 72
     8
 73
     4
 74
     0
 42
0.00000001
 43
0.00000001
 40
0.0
 40
0.0
 40
0.0
 40
0.0
 40
1.0
 40
1.0
 40
1.0
 40
1.0
 10
53.3989073145679
 20
53.22054246601098
 30
0.0
 10
51.96243861604976
 20
52.6193100330302
 30
0.0
 10
50.5281986250834
 20
52.10648738122707
 30
0.0
 10
49.09410283856978
 20
51.69021836817048
 30
0.0
  0
LINE
  5
29A
330
1F
100
AcDbEntity
  8
0
  6
SLD-Сплошная
 62
     7
370
    25
100
AcDbLine
 10
49.0941028386
 20
52.117422449
 30
0.0
 11
49.0941028386
 21
51.6902183682
 31
0.0
  0
LINE
  5
29B
330
1F
100
AcDbEntity
  8
0
  6
SLD-Сплошная
 62
     7
370
    25
100
AcDbLine
 10
53.3989073146
 20
53.6850496732
 30
0.0
 11
53.3989073146
 21
53.220542466
 31
0.0
  0
LINE
  5
29C
330
1F
100
AcDbEntity
  8
0
  6
SLD-Сплошная
 62
     7
370
    25
100
AcDbLine
 10
44.7892983626
 20
50.8412626363
 30
0.0
 11
44.7892983626
 21
50.4529749058
 31
0.0
  0
LINE
  5
29D
330
1F
100
AcDbEntity
  8
0
  6
SLD-Сплошная
 62
     7
370
    25
100
AcDbLine
 10
48.9841834687
 20
50.8412626363
 30
0.0
 11
44.7892983626
 21
50.8412626363
 31
0.0
  0
LINE
  5
29E
330
1F
100
AcDbEntity
  8
0
  6
SLD-Сплошная
 62
     7
370
    25
100
AcDbLine
 10
48.9841834687
 20
50.8604614977
 30
0.0
 11
48.9841834687
 21
50.8412626363
 31
0.0
  0
SPLINE
  5
29F
330
1F
100
AcDbEntity
  8
0
  6
SLD-Сплошная
 62
     7
370
    25
100
AcDbSpline
210
0.0
220
0.0
230
1.0
 70
     8
 71
     3
 72
     8
 73
     4
 74
     0
 42
0.00000001
 43
0.00000001
 40
0.0
 40
0.0
 40
0.0
 40
0.0
 40
1.0
 40
1.0
 40
1.0
 40
1.0
 10
44.78929836256812
 20
51.88434600849664
 30
0.0
 10
46.18853236036624
 20
51.45013546951033
 30
0.0
 10
47.58625104588415
 20
51.10714944245878
 30
0.0
 10
48.9841834687094
 20
50.86046149773008
 30
0.0
  0
LINE
  5
2A0
330
1F
100
AcDbEntity
  8
0
  6
SLD-Сплошная
 62
     7
370
    25
100
AcDbLine
 10
44.7892983626
 20
53.220542466
 30
0.0
 11
44.7892983626
 21
51.8843460085
 31
0.0
  0
SPLINE
  5
2A1
330
1F
100
AcDbEntity
  8
0
  6
SLD-Сплошная
 62
     7
370
    25
100
AcDbSpline
210
0.0
220
0.0
230
1.0
 70
     8
 71
     3
 72
     8
 73
     4
 74
     0
 42
0.00000001
 43
0.00000001
 40
0.0
 40
0.0
 40
0.0
 40
0.0
 40
1.0
 40
1.0
 40
1.0
 40
1.0
 10
49.09410283856978
 20
51.69021836817048
 30
0.0
 10
47.66000788671025
 20
52.10648713895505
 30
0.0
 10
46.22576606016595
 20
52.61931045196454
 30
0.0
 10
44.78929836256812
 20
53.22054246601053
 30
0.0
  0
SPLINE
  5
2A2
330
1F
100
AcDbEntity
  8
0
  6
SLD-Сплошная
 62
     7
370
    25
100
AcDbSpline
210
0.0
220
0.0
230
1.0
 70
     8
 71
     3
 72
     8
 73
     4
 74
     0
 42
0.00000001
 43
0.00000001
 40
0.0
 40
0.0
 40
0.0
 40
0.0
 40
1.0
 40
1.0
 40
1.0
 40
1.0
 10
49.2040222084266
 20
50.86046149773048
 30
0.0
 10
50.6019541972275
 20
51.10714936586851
 30
0.0
 10
51.9996738594623
 20
51.45013563791899
 30
0.0
 10
53.3989073145688
 20
51.88434600849698
 30
0.0
  0
LINE
  5
2A3
330
1F
100
AcDbEntity
  8
0
  6
SLD-Сплошная
 62
     7
370
    25
100
AcDbLine
 10
49.2040222084
 20
50.8604614977
 30
0.0
 11
49.2040222084
 21
50.8412626363
 31
0.0
  0
LINE
  5
2A4
330
1F
100
AcDbEntity
  8
0
  6
SLD-Сплошная
 62
     7
370
    25
100
AcDbLine
 10
53.3989073146
 20
50.8412626363
 30
0.0
 11
49.2040222084
 21
50.8412626363
 31
0.0
  0
LINE
  5
2A5
330
1F
100
AcDbEntity
  8
0
  6
SLD-Сплошная
 62
     7
370
    25
100
AcDbLine
 10
53.3989073146
 20
50.8412626363
 30
0.0
 11
53.3989073146
 21
50.4529749058
 31
0.0
  0
LINE
  5
2A6
330
1F
100
AcDbEntity
  8
0
  6
SLD-Сплошная
 62
     7
370
    25
100
AcDbLine
 10
44.7892983626
 20
50.4529749058
 30
0.0
 11
53.3989073146
 21
50.4529749058
 31
0.0
  0
LINE
  5
2A7
330
1F
100
AcDbEntity
  8
0
  6
SLD-Сплошная
 62
     7
370
    25
100
AcDbLine
 10
53.3989073146
 20
53.220542466
 30
0.0
 11
53.3989073146
 21
51.8843460085
 31
0.0
  0
LINE
  5
2A8
330
1F
100
AcDbEntity
  8
0
  6
SLD-Сплошная
 62
     7
370
    25
100
AcDbLine
 10
44.7892983626
 20
53.6850496732
 30
0.0
 11
44.7892983626
 21
53.220542466
 31
0.0
  0
LINE
  5
2A9
330
1F
100
AcDbEntity
  8
0
  6
SLD-Сплошная
 62
     7
370
    25
100
AcDbLine
 10
53.3989073146
 20
51.2502715833
 30
0.0
 11
53.3989073146
 21
50.8412626363
 31
0.0
  0
LINE
  5
2AA
330
1F
100
AcDbEntity
  8
0
  6
SLD-Сплошная
 62
     7
370
    25
100
AcDbLine
 10
44.7892983626
 20
51.2502715833
 30
0.0
 11
44.7892983626
 21
50.8412626363
 31
0.0
  0
LINE
  5
2AB
330
1F
100
AcDbEntity
  8
0
  6
SLD-Сплошная
 62
     7
370
    25
100
AcDbLine
 10
53.3989073146
 20
50.4077978404
 30
0.0
 11
51.0508373146
 21
50.4077978404
 31
0.0
  0
LINE
  5
2AC
330
1F
100
AcDbEntity
  8
0
  6
SLD-Сплошная
 62
     7
370
    25
100
AcDbLine
 10
51.0508373146
 20
50.4529749058
 30
0.0
 11
51.0508373146
 21
50.4077978404
 31
0.0
  0
LINE
  5
2AD
330
1F
100
AcDbEntity
  8
0
  6
SLD-Сплошная
 62
     7
370
    25
100
AcDbLine
 10
53.3989073146
 20
50.4529749058
 30
0.0
 11
53.3989073146
 21
50.4077978404
 31
0.0
  0
LINE
  5
2AE
330
1F
100
AcDbEntity
  8
0
  6
SLD-Сплошная
 62
     7
370
    25
100
AcDbLine
 10
50.2681378386
 20
50.4077978404
 30
0.0
 11
47.9200678386
 21
50.4077978404
 31
0.0
  0
LINE
  5
2AF
330
1F
100
AcDbEntity
  8
0
  6
SLD-Сплошная
 62
     7
370
    25
100
AcDbLine
 10
50.2681378386
 20
50.4077978404
 30
0.0
 11
50.2681378386
 21
50.3920256726
 31
0.0
  0
LINE
  5
2B0
330
1F
100
AcDbEntity
  8
0
  6
SLD-Сплошная
 62
     7
370
    25
100
AcDbLine
 10
51.0508373146
 20
50.4077978404
 30
0.0
 11
51.0508373146
 21
50.3920256726
 31
0.0
  0
LINE
  5
2B1
330
1F
100
AcDbEntity
  8
0
  6
SLD-Сплошная
 62
     7
370
    25
100
AcDbLine
 10
47.9200678386
 20
50.4077978404
 30
0.0
 11
47.9200678386
 21
50.3920256726
 31
0.0
  0
LINE
  5
2B2
330
1F
100
AcDbEntity
  8
0
  6
SLD-Сплошная
 62
     7
370
    25
100
AcDbLine
 10
53.3989073146
 20
50.4077978404
 30
0.0
 11
53.3989073146
 21
50.3920256726
 31
0.0
  0
LINE
  5
2B3
330
1F
100
AcDbEntity
  8
0
  6
SLD-Сплошная
 62
     7
370
    25
100
AcDbLine
 10
44.7892983626
 20
50.4077978404
 30
0.0
 11
44.7892983626
 21
50.3920256726
 31
0.0
  0
LINE
  5
2B4
330
1F
100
AcDbEntity
  8
0
  6
SLD-Сплошная
 62
     7
370
    25
100
AcDbLine
 10
47.1373683626
 20
50.4077978404
 30
0.0
 11
44.7892983626
 21
50.4077978404
 31
0.0
  0
LINE
  5
2B5
330
1F
100
AcDbEntity
  8
0
  6
SLD-Сплошная
 62
     7
370
    25
100
AcDbLine
 10
47.1373683626
 20
50.4077978404
 30
0.0
 11
47.1373683626
 21
50.3920256726
 31
0.0
  0
LINE
  5
2B6
330
1F
100
AcDbEntity
  8
0
  6
SLD-Сплошная
 62
     7
370
    25
100
AcDbLine
 10
50.2681378386
 20
50.4529749058
 30
0.0
 11
50.2681378386
 21
50.4077978404
 31
0.0
  0
LINE
  5
2B7
330
1F
100
AcDbEntity
  8
0
  6
SLD-Сплошная
 62
     7
370
    25
100
AcDbLine
 10
47.9200678386
 20
50.4529749058
 30
0.0
 11
47.9200678386
 21
50.4077978404
 31
0.0
  0
LINE
  5
2B8
330
1F
100
AcDbEntity
  8
0
  6
SLD-Сплошная
 62
     7
370
    25
100
AcDbLine
 10
44.7892983626
 20
50.4529749058
 30
0.0
 11
44.7892983626
 21
50.4077978404
 31
0.0
  0
LINE
  5
2B9
330
1F
100
AcDbEntity
  8
0
  6
SLD-Сплошная
 62
     7
370
    25
100
AcDbLine
 10
47.1373683626
 20
50.4529749058
 30
0.0
 11
47.1373683626
 21
50.4077978404
 31
0.0
  0
LINE
  5
2BA
330
1F
100
AcDbEntity
  8
0
  6
SLD-Сплошная
 62
     7
370
    25
100
AcDbLine
 10
25.1375266378
 20
67.6920256726
 30
0.0
 11
25.1375266378
 21
74.6920256726
 31
0.0
  0
LINE
  5
2BB
330
1F
100
AcDbEntity
  8
0
  6
SLD-Сплошная
 62
     7
370
    25
100
AcDbLine
 10
378.1067998452
 20
176.8259168871
 30
0.0
 11
374.8067998452
 21
176.8259168871
 31
0.0
  0
SPLINE
  5
2BC
330
1F
100
AcDbEntity
  8
0
  6
SLD-Сплошная
 62
     7
370
    25
100
AcDbSpline
210
0.0
220
0.0
230
1.0
 70
     8
 71
     3
 72
    11
 73
     7
 74
     0
 42
0.00000001
 43
0.00000001
 40
0.0
 40
0.0
 40
0.0
 40
0.0
 40
0.0860082094891726
 40
0.3869347549956986
 40
0.695698418744564
 40
1.0
 40
1.0
 40
1.0
 40
1.0
 10
310.346659608606
 20
141.8949872385749
 30
0.0
 10
310.3225535610077
 20
141.7995115059799
 30
0.0
 10
310.2141049875897
 20
141.3699841455211
 30
0.0
 10
310.1042488046917
 20
140.5860039969123
 30
0.0
 10
309.9763361970852
 20
139.5724749212657
 30
0.0
 10
309.9529231374465
 20
138.9912556369378
 30
0.0
 10
309.9413018114487
 20
138.7027611435403
 30
0.0
  0
ARC
  5
2BD
330
1F
100
AcDbEntity
  8
0
  6
SLD-Сплошная
 62
     7
370
    25
100
AcDbCircle
 10
350.5630996389
 20
-7.5224942465
 30
0.0
 40
180.0
100
AcDbArc
 50
94.2872729363
 51
103.0539444625
  0
ARC
  5
2BE
330
1F
100
AcDbEntity
  8
0
  6
SLD-Сплошная
 62
     7
370
    25
100
AcDbCircle
 10
350.5630996389
 20
309.1743280207
 30
0.0
 40
180.0
100
AcDbArc
 50
266.1188580229
 51
269.7592615904
  0
ARC
  5
2BF
330
1F
100
AcDbEntity
  8
0
  6
SLD-Сплошная
 62
     7
370
    25
100
AcDbCircle
 10
350.5630996389
 20
309.1743280207
 30
0.0
 40
180.0000000000001
100
AcDbArc
 50
258.5067056409
 51
264.1888808855
  0
LINE
  5
2C0
330
1F
100
AcDbEntity
  8
0
  6
SLD-Сплошная
 62
     7
370
    25
100
AcDbLine
 10
378.1067998452
 20
129.2009168871
 30
0.0
 11
382.9317998452
 21
129.2009168871
 31
0.0
  0
LINE
  5
2C1
330
1F
100
AcDbEntity
  8
0
  6
SLD-Сплошная
 62
     7
370
    25
100
AcDbLine
 10
382.9317998452
 20
172.4509168871
 30
0.0
 11
378.1067998452
 21
172.4509168871
 31
0.0
  0
LINE
  5
2C2
330
1F
100
AcDbEntity
  8
0
  6
SLD-Сплошная
 62
     7
370
    25
100
AcDbLine
 10
401.7817998452
 20
129.2009168871
 30
0.0
 11
402.6067998452
 21
129.2009168871
 31
0.0
  0
LINE
  5
2C3
330
1F
100
AcDbEntity
  8
0
  6
SLD-Сплошная
 62
     7
370
    25
100
AcDbLine
 10
414.9067998452
 20
172.4509168871
 30
0.0
 11
401.7817998452
 21
172.4509168871
 31
0.0
  0
LINE
  5
2C4
330
1F
100
AcDbEntity
  8
0
  6
SLD-Сплошная
 62
     7
370
    25
100
AcDbLine
 10
362.8378887584
 20
129.1759168871
 30
0.0
 11
374.8067998452
 21
129.1759168871
 31
0.0
  0
LINE
  5
2C5
330
1F
100
AcDbEntity
  8
0
  6
SLD-Сплошная
 62
     7
370
    25
100
AcDbLine
 10
349.8067998452
 20
129.1759168871
 30
0.0
 11
356.7757109319
 21
129.1759168871
 31
0.0
  0
LINE
  5
2C6
330
1F
100
AcDbEntity
  8
0
  6
SLD-Сплошная
 62
     7
370
    25
100
AcDbLine
 10
374.8067998452
 20
172.4759168871
 30
0.0
 11
349.8067998452
 21
172.4759168871
 31
0.0
  0
LINE
  5
2C7
330
1F
100
AcDbEntity
  8
0
  6
SLD-Сплошная
 62
     7
370
    25
100
AcDbLine
 10
382.9317998452
 20
130.0259168871
 30
0.0
 11
401.7817998452
 21
130.0259168871
 31
0.0
  0
LINE
  5
2C8
330
1F
100
AcDbEntity
  8
0
  6
SLD-Сплошная
 62
     7
370
    25
100
AcDbLine
 10
401.7817998452
 20
171.6259168871
 30
0.0
 11
382.9317998452
 21
171.6259168871
 31
0.0
  0
LINE
  5
2C9
330
1F
100
AcDbEntity
  8
0
  6
SLD-Сплошная
 62
     7
370
    25
100
AcDbLine
 10
301.2433776589
 20
131.1716940387
 30
0.0
 11
303.2433776589
 21
131.1716940387
 31
0.0
  0
LINE
  5
2CA
330
1F
100
AcDbEntity
  8
0
  6
SLD-Сплошная
 62
     7
370
    25
100
AcDbLine
 10
303.2433776589
 20
170.4801397355
 30
0.0
 11
301.2433776589
 21
170.4801397355
 31
0.0
  0
ARC
  5
2CB
330
1F
100
AcDbEntity
  8
0
  6
SLD-Сплошная
 62
     7
370
    25
100
AcDbCircle
 10
280.2337587157
 20
150.8259168871
 30
0.0
 40
15.00000000000006
100
AcDbArc
 50
210.0
 51
230.4130804784
  0
ARC
  5
2CC
330
1F
100
AcDbEntity
  8
0
  6
SLD-Сплошная
 62
     7
370
    25
100
AcDbCircle
 10
280.2337587157
 20
150.8259168871
 30
0.0
 40
15.00000000000004
100
AcDbArc
 50
129.5869195216
 51
150.0
  0
ARC
  5
2CD
330
1F
100
AcDbEntity
  8
0
  6
SLD-Сплошная
 62
     7
370
    25
100
AcDbCircle
 10
312.4155281183
 20
133.8259168871
 30
0.0
 40
2.508728273149245
100
AcDbArc
 50
180.0
 51
335.4527611784
  0
LINE
  5
2CE
330
1F
100
AcDbEntity
  8
0
  6
SLD-Сплошная
 62
     7
370
    25
100
AcDbLine
 10
309.9067998452
 20
161.8259168871
 30
0.0
 11
303.2433776589
 21
161.8259168871
 31
0.0
  0
LINE
  5
2CF
330
1F
100
AcDbEntity
  8
0
  6
SLD-Сплошная
 62
     7
370
    25
100
AcDbLine
 10
303.2433776589
 20
139.8259168871
 30
0.0
 11
309.9067998452
 21
139.8259168871
 31
0.0
  0
LINE
  5
2D0
330
1F
100
AcDbEntity
  8
0
  6
SLD-Сплошная
 62
     7
370
    25
100
AcDbLine
 10
374.8067998452
 20
121.2068416218
 30
0.0
 11
378.1067998452
 21
121.2068416218
 31
0.0
  0
LINE
  5
2D1
330
1F
100
AcDbEntity
  8
0
  6
SLD-Сплошная
 62
     7
370
    25
100
AcDbLine
 10
414.9067998452
 20
138.5759168871
 30
0.0
 11
416.3067998452
 21
138.5759168871
 31
0.0
  0
LINE
  5
2D2
330
1F
100
AcDbEntity
  8
0
  6
SLD-Сплошная
 62
     7
370
    25
100
AcDbLine
 10
416.3067998452
 20
145.5759168871
 30
0.0
 11
414.9067998452
 21
145.5759168871
 31
0.0
  0
LINE
  5
2D3
330
1F
100
AcDbEntity
  8
0
  6
SLD-Сплошная
 62
     7
370
    25
100
AcDbLine
 10
270.745259763
 20
164.1944765562
 30
0.0
 11
270.6750377113
 21
162.3857980613
 31
0.0
  0
LINE
  5
2D4
330
1F
100
AcDbEntity
  8
0
  6
SLD-Сплошная
 62
     7
370
    25
100
AcDbLine
 10
270.6750377113
 20
139.2660357129
 30
0.0
 11
270.745259763
 21
137.457357218
 31
0.0
  0
LINE
  5
2D5
330
1F
100
AcDbEntity
  8
0
  6
SLD-Сплошная
 62
     7
370
    25
100
AcDbLine
 10
402.6067998452
 20
125.7009168871
 30
0.0
 11
414.9067998452
 21
125.7009168871
 31
0.0
  0
LINE
  5
2D6
330
1F
100
AcDbEntity
  8
0
  6
SLD-Сплошная
 62
     7
370
    25
100
AcDbLine
 10
340.4067998452
 20
180.8259168871
 30
0.0
 11
337.1067998452
 21
180.8259168871
 31
0.0
  0
ARC
  5
2D7
330
1F
100
AcDbEntity
  8
0
  6
SLD-Сплошная
 62
     7
370
    25
100
AcDbCircle
 10
357.0143147944
 20
190.0557840156
 30
0.0
 40
19.0
100
AcDbArc
 50
209.0637511245
 51
247.705645852
  0
ARC
  5
2D8
330
1F
100
AcDbEntity
  8
0
  6
SLD-Сплошная
 62
     7
370
    25
100
AcDbCircle
 10
273.2433776589
 20
164.0974869781
 30
0.0
 40
2.500000000000021
100
AcDbArc
 50
117.7766046258
 51
177.7766046258
  0
ARC
  5
2D9
330
1F
100
AcDbEntity
  8
0
  6
SLD-Сплошная
 62
     7
370
    25
100
AcDbCircle
 10
280.2337587157
 20
150.8259168871
 30
0.0
 40
17.49999999999998
100
AcDbArc
 50
90.0
 51
117.7766046258
  0
LINE
  5
2DA
330
1F
100
AcDbEntity
  8
0
  6
SLD-Сплошная
 62
     7
370
    25
100
AcDbLine
 10
292.2433776589
 20
168.3259168871
 30
0.0
 11
280.2337587157
 21
168.3259168871
 31
0.0
  0
ARC
  5
2DB
330
1F
100
AcDbEntity
  8
0
  6
SLD-Сплошная
 62
     7
370
    25
100
AcDbCircle
 10
273.2433776589
 20
137.5543467961
 30
0.0
 40
2.500000000000023
100
AcDbArc
 50
182.2233953742
 51
242.2233953742
  0
ARC
  5
2DC
330
1F
100
AcDbEntity
  8
0
  6
SLD-Сплошная
 62
     7
370
    25
100
AcDbCircle
 10
280.2337587157
 20
150.8259168871
 30
0.0
 40
17.50000000000006
100
AcDbArc
 50
242.2233953742
 51
270.0
  0
LINE
  5
2DD
330
1F
100
AcDbEntity
  8
0
  6
SLD-Сплошная
 62
     7
370
    25
100
AcDbLine
 10
280.2337587157
 20
133.3259168871
 30
0.0
 11
292.2433776589
 21
133.3259168871
 31
0.0
  0
LINE
  5
2DE
330
1F
100
AcDbEntity
  8
0
  6
SLD-Сплошная
 62
     7
370
    25
100
AcDbLine
 10
378.1067998452
 20
125.7569780348
 30
0.0
 11
378.1067998452
 21
176.8259168871
 31
0.0
  0
LINE
  5
2DF
330
1F
100
AcDbEntity
  8
0
  6
SLD-Сплошная
 62
     7
370
    25
100
AcDbLine
 10
378.1067998452
 20
125.7569780348
 30
0.0
 11
374.8067998452
 21
125.7569780348
 31
0.0
  0
LINE
  5
2E0
330
1F
100
AcDbEntity
  8
0
  6
SLD-Сплошная
 62
     7
370
    25
100
AcDbLine
 10
374.8067998452
 20
176.8259168871
 30
0.0
 11
374.8067998452
 21
125.7569780348
 31
0.0
  0
SPLINE
  5
2E1
330
1F
100
AcDbEntity
  8
0
  6
SLD-Сплошная
 62
     7
370
    25
100
AcDbSpline
210
0.0
220
0.0
230
1.0
 70
     8
 71
     3
 72
     8
 73
     4
 74
     0
 42
0.00000001
 43
0.00000001
 40
0.0
 40
0.0
 40
0.0
 40
0.0
 40
1.0
 40
1.0
 40
1.0
 40
1.0
 10
349.6725117095364
 20
148.3091261634222
 30
0.0
 10
341.9677113119793
 20
148.6655480215009
 30
0.0
 10
334.2671649689975
 20
149.0224754619958
 30
0.0
 10
326.6277701856166
 20
149.3785070923584
 30
0.0
  0
SPLINE
  5
2E2
330
1F
100
AcDbEntity
  8
0
  6
SLD-Сплошная
 62
     7
370
    25
100
AcDbSpline
210
0.0
220
0.0
230
1.0
 70
     8
 71
     3
 72
     8
 73
     4
 74
     0
 42
0.00000001
 43
0.00000001
 40
0.0
 40
0.0
 40
0.0
 40
0.0
 40
1.0
 40
1.0
 40
1.0
 40
1.0
 10
326.8875909303374
 20
154.3667741436661
 30
0.0
 10
334.4790818776654
 20
154.0172367690587
 30
0.0
 10
342.1386256070251
 20
153.6640162424809
 30
0.0
 10
349.8067998451632
 20
153.3102049191093
 30
0.0
  0
LINE
  5
2E3
330
1F
100
AcDbEntity
  8
0
  6
SLD-Сплошная
 62
     7
370
    25
100
AcDbLine
 10
349.8067998452
 20
153.3102049191
 30
0.0
 11
349.9014788002
 21
153.3058666419
 31
0.0
  0
SPLINE
  5
2E4
330
1F
100
AcDbEntity
  8
0
  6
SLD-Сплошная
 62
     7
370
    25
100
AcDbSpline
210
0.0
220
0.0
230
1.0
 70
     8
 71
     3
 72
    14
 73
    10
 74
     0
 42
0.00000001
 43
0.00000001
 40
0.0
 40
0.0
 40
0.0
 40
0.0
 40
0.0050149731967852
 40
0.0050149731967852
 40
0.0050149731967852
 40
0.0095729506542099
 40
0.0095729506542099
 40
0.0095729506542099
 40
0.0145733584065001
 40
0.0145733584065001
 40
0.0145733584065001
 40
0.0145733584065001
 10
360.2905741747304
 20
152.9982997380777
 30
0.0
 10
361.9556955435696
 20
153.1452378434522
 30
0.0
 10
363.6208128964166
 20
153.2920771086912
 30
0.0
 10
365.2859236659978
 20
153.4387996574585
 30
0.0
 10
366.7992992293284
 20
153.5721519388504
 30
0.0
 10
368.312670709629
 20
153.7054048042613
 30
0.0
 10
369.8260360245723
 20
153.8385463537093
 30
0.0
 10
371.4862994162369
 20
153.9846115755531
 30
0.0
 10
373.1465560340711
 20
154.1305503239667
 30
0.0
 10
374.8067998451632
 20
154.2763826504886
 30
0.0
  0
SPLINE
  5
2E5
330
1F
100
AcDbEntity
  8
0
  6
SLD-Сплошная
 62
     7
370
    25
100
AcDbSpline
210
0.0
220
0.0
230
1.0
 70
     8
 71
     3
 72
    14
 73
    10
 74
     0
 42
0.00000001
 43
0.00000001
 40
0.0
 40
0.0
 40
0.0
 40
0.0
 40
0.0050149732590376
 40
0.0050149732590376
 40
0.0050149732590376
 40
0.0095720313907636
 40
0.0095720313907636
 40
0.0095720313907636
 40
0.0141355433108355
 40
0.0141355433108355
 40
0.0141355433108355
 40
0.0141355433108355
 10
374.8067998451633
 20
149.2625747363601
 30
0.0
 10
373.1417657494319
 20
149.1142984318842
 30
0.0
 10
371.4767155199133
 20
148.9663050595601
 30
0.0
 10
369.8116594575424
 20
148.8185262464677
 30
0.0
 10
368.2986388596879
 20
148.6842410453934
 30
0.0
 10
366.7856126004617
 20
148.5501300810406
 30
0.0
 10
365.2725810741356
 20
148.416223778945
 30
0.0
 10
363.757406765363
 20
148.2821278363372
 30
0.0
 10
362.242225765392
 20
148.1482411117329
 30
0.0
 10
360.7270404912467
 20
148.014571389637
 30
0.0
  0
SPLINE
  5
2E6
330
1F
100
AcDbEntity
  8
0
  6
SLD-Сплошная
 62
     7
370
    25
100
AcDbSpline
210
0.0
220
0.0
230
1.0
 70
     8
 71
     3
 72
    14
 73
    10
 74
     0
 42
0.00000001
 43
0.00000001
 40
0.0
 40
0.0
 40
0.0
 40
0.0
 40
0.002508684302751
 40
0.002508684302751
 40
0.002508684302751
 40
0.0050832577561484
 40
0.0050832577561484
 40
0.0050832577561484
 40
0.0076578313811252
 40
0.0076578313811252
 40
0.0076578313811252
 40
0.0076578313811252
 10
357.456321619539
 20
147.9490938954559
 30
0.0
 10
356.6210004396191
 20
147.9876840000954
 30
0.0
 10
355.7856793852784
 20
148.026290872094
 30
0.0
 10
354.9503584952728
 20
148.0649144986329
 30
0.0
 10
354.0930983827901
 20
148.1045525524964
 30
0.0
 10
353.235838429326
 20
148.1442082537198
 30
0.0
 10
352.3785786763192
 20
148.1838815787683
 30
0.0
 10
351.521318866187
 20
148.2235549064606
 30
0.0
 10
350.6640592422492
 20
148.263245859112
 30
0.0
 10
349.8067998451632
 20
148.3029543962199
 30
0.0
  0
SPLINE
  5
2E7
330
1F
100
AcDbEntity
  8
0
  6
SLD-Сплошная
 62
     7
370
    25
100
AcDbSpline
210
0.0
220
0.0
230
1.0
 70
     8
 71
     3
 72
     8
 73
     4
 74
     0
 42
0.00000001
 43
0.00000001
 40
0.0
 40
0.0
 40
0.0
 40
0.0
 40
0.0001344299261662
 40
0.0001344299261662
 40
0.0001344299261662
 40
0.0001344299261662
 10
349.8067998451632
 20
148.3029543962199
 30
0.0
 10
349.7620372103793
 20
148.3050129636575
 30
0.0
 10
349.7172744918929
 20
148.3070702211893
 30
0.0
 10
349.6725117095364
 20
148.3091261634222
 30
0.0
  0
SPLINE
  5
2E8
330
1F
100
AcDbEntity
  8
0
  6
SLD-Сплошная
 62
     7
370
    25
100
AcDbSpline
210
0.0
220
0.0
230
1.0
 70
     8
 71
     3
 72
    14
 73
    10
 74
     0
 42
0.00000001
 43
0.00000001
 40
0.0
 40
0.0
 40
0.0
 40
0.0
 40
0.0025086844972278
 40
0.0025086844972278
 40
0.0025086844972278
 40
0.0051502767466552
 40
0.0051502767466552
 40
0.0051502767466552
 40
0.0077918691788335
 40
0.0077918691788335
 40
0.0077918691788335
 40
0.0077918691788335
 10
349.9014788001907
 20
153.3058666418769
 30
0.0
 10
350.7368048826026
 20
153.2672907922264
 30
0.0
 10
351.5721311558979
 20
153.2287069151766
 30
0.0
 10
352.4074575821138
 20
153.1901150445422
 30
0.0
 10
353.28703881834
 20
153.1494786128245
 30
0.0
 10
354.1666202389727
 20
153.1088333176326
 30
0.0
 10
355.0462017994514
 20
153.0681791908294
 30
0.0
 10
355.925783420786
 20
153.0275250612135
 30
0.0
 10
356.8053651971873
 20
152.9868620994549
 30
0.0
 10
357.6849470837204
 20
152.9461903271012
 30
0.0
  0
SPLINE
  5
2E9
330
1F
100
AcDbEntity
  8
0
  6
SLD-Сплошная
 62
     7
370
    25
100
AcDbSpline
210
0.0
220
0.0
230
1.0
 70
     8
 71
     3
 72
     8
 73
     4
 74
     0
 42
0.00000001
 43
0.00000001
 40
0.0
 40
0.0
 40
0.0
 40
0.0
 40
1.0
 40
1.0
 40
1.0
 40
1.0
 10
360.7270404912467
 20
148.014571389637
 30
0.0
 10
359.6398428858183
 20
147.9186587614846
 30
0.0
 10
358.5466195912294
 20
147.898724392291
 30
0.0
 10
357.456321619539
 20
147.949093895456
 30
0.0
  0
SPLINE
  5
2EA
330
1F
100
AcDbEntity
  8
0
  6
SLD-Сплошная
 62
     7
370
    25
100
AcDbSpline
210
0.0
220
0.0
230
1.0
 70
     8
 71
     3
 72
     8
 73
     4
 74
     0
 42
0.00000001
 43
0.00000001
 40
0.0
 40
0.0
 40
0.0
 40
0.0
 40
1.0
 40
1.0
 40
1.0
 40
1.0
 10
357.6849470837204
 20
152.9461903271012
 30
0.0
 10
358.5535688297953
 20
152.9060253504701
 30
0.0
 10
359.4243863527982
 20
152.9218632693403
 30
0.0
 10
360.2905741747304
 20
152.9982997380777
 30
0.0
  0
SPLINE
  5
2EB
330
1F
100
AcDbEntity
  8
0
  6
SLD-Сплошная
 62
     7
370
    25
100
AcDbSpline
210
0.0
220
0.0
230
1.0
 70
     8
 71
     3
 72
    34
 73
    30
 74
     0
 42
0.00000001
 43
0.00000001
 40
0.0
 40
0.0
 40
0.0
 40
0.0
 40
0.0625000000000002
 40
0.0625000000000002
 40
0.1250000000000004
 40
0.1250000000000004
 40
0.1875000000000006
 40
0.1875000000000006
 40
0.2500000000000007
 40
0.2500000000000007
 40
0.375
 40
0.375
 40
0.4375000000000002
 40
0.4375000000000002
 40
0.5000000000000002
 40
0.5000000000000002
 40
0.5625000000000003
 40
0.5625000000000003
 40
0.6250000000000003
 40
0.6250000000000003
 40
0.6875000000000004
 40
0.6875000000000004
 40
0.7500000000000003
 40
0.7500000000000003
 40
0.8125000000000003
 40
0.8125000000000003
 40
0.8750000000000003
 40
0.8750000000000003
 40
1.0
 40
1.0
 40
1.0
 40
1.0
 10
326.6277701856166
 20
149.3785070923585
 30
0.0
 10
326.2140555103333
 20
149.3977881368031
 30
0.0
 10
325.8039593949719
 20
149.3916011137368
 30
0.0
 10
324.9897490998864
 20
149.3377573673211
 30
0.0
 10
324.5856248814563
 20
149.2901788292015
 30
0.0
 10
323.783553680975
 20
149.1531195434228
 30
0.0
 10
323.3857423931524
 20
149.0626226195087
 30
0.0
 10
322.5969412487653
 20
148.8370761912875
 30
0.0
 10
322.2098447759384
 20
148.7030614540156
 30
0.0
 10
321.0851808143686
 20
148.2429199549891
 30
0.0
 10
320.3758577964493
 20
147.8614845149017
 30
0.0
 10
319.374539647493
 20
147.1826218217478
 30
0.0
 10
319.0526196619175
 20
146.9387052920603
 30
0.0
 10
318.4461335472201
 20
146.4265647843087
 30
0.0
 10
318.160001879821
 20
146.1567179556727
 30
0.0
 10
317.6212342850447
 20
145.5918572363721
 30
0.0
 10
317.3681770370393
 20
145.2972531761811
 30
0.0
 10
316.8923622108329
 20
144.6876978721684
 30
0.0
 10
316.6696207450157
 20
144.3709279025108
 30
0.0
 10
316.2698041475812
 20
143.7304723450319
 30
0.0
 10
316.0912899079928
 20
143.4051919268283
 30
0.0
 10
315.776499340347
 20
142.7462760592274
 30
0.0
 10
315.6408695005869
 20
142.4123613483465
 30
0.0
 10
315.3969756967554
 20
141.7446814627759
 30
0.0
 10
315.2881309639287
 20
141.4099648281091
 30
0.0
 10
315.0899074499831
 20
140.7541914703611
 30
0.0
 10
314.998442369411
 20
140.432878635623
 30
0.0
 10
314.7708643836352
 20
139.4830951728923
 30
0.0
 10
314.6975151675884
 20
138.8648218589953
 30
0.0
 10
314.6975151675884
 20
138.2658589192755
 30
0.0
  0
LINE
  5
2EC
330
1F
100
AcDbEntity
  8
0
  6
SLD-Сплошная
 62
     7
370
    25
100
AcDbLine
 10
309.9413047469
 20
138.7027489496
 30
0.0
 11
309.9067998452
 21
138.9914079183
 31
0.0
  0
SPLINE
  5
2ED
330
1F
100
AcDbEntity
  8
0
  6
SLD-Сплошная
 62
     7
370
    25
100
AcDbSpline
210
0.0
220
0.0
230
1.0
 70
     8
 71
     3
 72
    17
 73
    13
 74
     0
 42
0.00000001
 43
0.00000001
 40
0.0
 40
0.0
 40
0.0
 40
0.0
 40
0.0338488144929757
 40
0.1303209998078163
 40
0.2292759042904216
 40
0.3325314750816494
 40
0.4385939634504256
 40
0.5452990262681913
 40
0.6545652207520257
 40
0.7721168235390758
 40
0.8932506731496856
 40
1.0
 40
1.0
 40
1.0
 40
1.0
 10
310.3592473870722
 20
141.8910598387887
 30
0.0
 10
310.4021972677726
 20
142.1014653415135
 30
0.0
 10
310.5675581963116
 20
142.9115455730043
 30
0.0
 10
311.1152699167743
 20
144.4230530222991
 30
0.0
 10
312.0694366295967
 20
146.3515246994229
 30
0.0
 10
313.3552959432476
 20
148.2720317950579
 30
0.0
 10
314.9854541971639
 20
150.0510689137311
 30
0.0
 10
316.9285465280479
 20
151.5939749060137
 30
0.0
 10
319.1617188980188
 20
152.8858268115269
 30
0.0
 10
321.6814074192484
 20
153.8419816825009
 30
0.0
 10
324.3113552110528
 20
154.3574074142973
 30
0.0
 10
326.0657597390452
 20
154.3637861133791
 30
0.0
 10
326.8875909303374
 20
154.3667741436661
 30
0.0
  0
SPLINE
  5
2EE
330
1F
100
AcDbEntity
  8
0
  6
SLD-Сплошная
 62
     7
370
    25
100
AcDbSpline
210
0.0
220
0.0
230
1.0
 70
     8
 71
     3
 72
    26
 73
    22
 74
     0
 42
0.00000001
 43
0.00000001
 40
0.0
 40
0.0
 40
0.0
 40
0.0
 40
0.1250000000000003
 40
0.1250000000000003
 40
0.2500000000000007
 40
0.2500000000000007
 40
0.3125000000000007
 40
0.3125000000000007
 40
0.3750000000000008
 40
0.3750000000000008
 40
0.5000000000000007
 40
0.5000000000000007
 40
0.6250000000000007
 40
0.6250000000000007
 40
0.7500000000000007
 40
0.7500000000000007
 40
0.8125000000000004
 40
0.8125000000000004
 40
0.8750000000000003
 40
0.8750000000000003
 40
1.0
 40
1.0
 40
1.0
 40
1.0
 10
358.7967934004383
 20
141.7624032186697
 30
0.0
 10
359.0931723337007
 20
140.8451092969197
 30
0.0
 10
359.3772330586125
 20
139.9644105603981
 30
0.0
 10
359.9230299106607
 20
138.2753234253944
 30
0.0
 10
360.1846593069092
 20
137.4668836196643
 30
0.0
 10
360.5568565080318
 20
136.310098629513
 30
0.0
 10
360.6778353929914
 20
135.9327854398923
 30
0.0
 10
360.9101291743902
 20
135.2077611231354
 30
0.0
 10
361.0217904036364
 20
134.8589790206255
 30
0.0
 10
361.3438734430771
 20
133.8535027489975
 30
0.0
 10
361.5416688428206
 20
133.2374850209276
 30
0.0
 10
361.9000161981211
 20
132.116704176064
 30
0.0
 10
362.0610958380963
 20
131.6095435737757
 30
0.0
 10
362.3382112854845
 20
130.7415564299074
 30
0.0
 10
362.4556465959342
 20
130.3766474564964
 30
0.0
 10
362.5973111198512
 20
129.9328714696233
 30
0.0
 10
362.6386551164884
 20
129.8022749281664
 30
0.0
 10
362.7096737454412
 20
129.5765872619423
 30
0.0
 10
362.7393600445523
 20
129.4812787964779
 30
0.0
 10
362.8107843568906
 20
129.2524626771946
 30
0.0
 10
362.8351903694456
 20
129.1759168871023
 30
0.0
 10
362.8378887584088
 20
129.1759168871023
 30
0.0
  0
ARC
  5
2EF
330
1F
100
AcDbEntity
  8
0
  6
SLD-Сплошная
 62
     7
370
    25
100
AcDbCircle
 10
359.8067998452
 20
130.9259168871
 30
0.0
 40
3.500000000000041
100
AcDbArc
 50
210.0
 51
330.0
  0
SPLINE
  5
2F0
330
1F
100
AcDbEntity
  8
0
  6
SLD-Сплошная
 62
     7
370
    25
100
AcDbSpline
210
0.0
220
0.0
230
1.0
 70
     8
 71
     3
 72
    26
 73
    22
 74
     0
 42
0.00000001
 43
0.00000001
 40
0.0
 40
0.0
 40
0.0
 40
0.0
 40
0.25
 40
0.25
 40
0.3125
 40
0.3125
 40
0.375
 40
0.375
 40
0.4999999999999996
 40
0.4999999999999996
 40
0.5624999999999996
 40
0.5624999999999996
 40
0.6249999999999994
 40
0.6249999999999994
 40
0.7499999999999996
 40
0.7499999999999996
 40
0.8749999999999997
 40
0.8749999999999997
 40
0.9374999999999999
 40
0.9374999999999999
 40
1.0
 40
1.0
 40
1.0
 40
1.0
 10
356.7757109319177
 20
129.1759168871023
 30
0.0
 10
356.7744571207774
 20
129.1759168871023
 30
0.0
 10
356.6846080107337
 20
129.4341869871193
 30
0.0
 10
356.4616056982237
 20
130.0683200876865
 30
0.0
 10
356.4112909499302
 20
130.2115486546966
 30
0.0
 10
356.3002736155283
 20
130.5275955696283
 30
0.0
 10
356.2397778944027
 20
130.6998247586361
 30
0.0
 10
356.0438119817981
 20
131.2577985053263
 30
0.0
 10
355.8938686519669
 20
131.6846478484435
 30
0.0
 10
355.6416666298389
 20
132.4054269065822
 30
0.0
 10
355.5530197019771
 20
132.6591486200638
 30
0.0
 10
355.3663621964162
 20
133.1937240574013
 30
0.0
 10
355.268012675611
 20
133.4755469453223
 30
0.0
 10
354.9626817973959
 20
134.3507397691891
 30
0.0
 10
354.7446677628803
 20
134.9757619998944
 30
0.0
 10
354.2822365997009
 20
136.3052610408562
 30
0.0
 10
354.0376619786775
 20
137.0097310115464
 30
0.0
 10
353.6505723322724
 20
138.1262018605656
 30
0.0
 10
353.5179504472127
 20
138.5089978303616
 30
0.0
 10
353.2482649680369
 20
139.2884063407861
 30
0.0
 10
353.1109863863843
 20
139.6856330826439
 30
0.0
 10
352.9714339830385
 20
140.0903769862923
 30
0.0
  0
SPLINE
  5
2F1
330
1F
100
AcDbEntity
  8
0
  6
SLD-Сплошная
 62
     7
370
    25
100
AcDbSpline
210
0.0
220
0.0
230
1.0
 70
     8
 71
     3
 72
    12
 73
     8
 74
     0
 42
0.00000001
 43
0.00000001
 40
0.0
 40
0.0
 40
0.0
 40
0.0
 40
0.2499999999999996
 40
0.2499999999999996
 40
0.4999999999999991
 40
0.4999999999999991
 40
1.0
 40
1.0
 40
1.0
 40
1.0
 10
337.1067998451632
 20
171.7942607334395
 30
0.0
 10
338.1643242262037
 20
171.8742190697144
 30
0.0
 10
339.2230138135489
 20
171.9447798455942
 30
0.0
 10
341.3427294342594
 20
172.0670576162211
 30
0.0
 10
342.4044274391314
 20
172.1187823173924
 30
0.0
 10
345.579416506329
 20
172.2451585107646
 30
0.0
 10
347.6934009302232
 20
172.2915763005626
 30
0.0
 10
349.8047374977276
 20
172.3005443408659
 30
0.0
  0
SPLINE
  5
2F2
330
1F
100
AcDbEntity
  8
0
  6
SLD-Сплошная
 62
     7
370
    25
100
AcDbSpline
210
0.0
220
0.0
230
1.0
 70
     8
 71
     3
 72
     8
 73
     4
 74
     0
 42
0.00000001
 43
0.00000001
 40
0.0
 40
0.0
 40
0.0
 40
0.0
 40
1.0
 40
1.0
 40
1.0
 40
1.0
 10
349.8067998451631
 20
172.4759168871023
 30
0.0
 10
349.8067998451631
 20
172.4759168871023
 30
0.0
 10
349.8061111339703
 20
172.4173752652654
 30
0.0
 10
349.8047374977274
 20
172.300544340866
 30
0.0
  0
LINE
  5
2F3
330
1F
100
AcDbEntity
  8
0
  6
SLD-Сплошная
 62
     7
370
    25
100
AcDbLine
 10
309.9067998452
 20
138.9914079183
 30
0.0
 11
309.9067998452
 21
167.8259168871
 31
0.0
  0
SPLINE
  5
2F4
330
1F
100
AcDbEntity
  8
0
  6
SLD-Сплошная
 62
     7
370
    25
100
AcDbSpline
210
0.0
220
0.0
230
1.0
 70
     8
 71
     3
 72
    28
 73
    24
 74
     0
 42
0.00000001
 43
0.00000001
 40
0.0
 40
0.0
 40
0.0
 40
0.0
 40
0.1250000000000002
 40
0.1250000000000002
 40
0.2500000000000003
 40
0.2500000000000003
 40
0.3125000000000003
 40
0.3125000000000003
 40
0.3750000000000004
 40
0.3750000000000004
 40
0.5000000000000002
 40
0.5000000000000002
 40
0.5625000000000002
 40
0.5625000000000002
 40
0.6250000000000001
 40
0.6250000000000001
 40
0.7500000000000001
 40
0.7500000000000001
 40
0.875
 40
0.875
 40
0.9375
 40
0.9375
 40
1.0
 40
1.0
 40
1.0
 40
1.0
 10
334.6885955028748
 20
141.0257193628778
 30
0.0
 10
334.9594734350703
 20
140.183432749859
 30
0.0
 10
335.2198537993924
 20
139.3770227303183
 30
0.0
 10
335.719756896641
 20
137.834132553472
 30
0.0
 10
335.9591925921573
 20
137.0976236859485
 30
0.0
 10
336.2990191443394
 20
136.046554129509
 30
0.0
 10
336.409203413561
 20
135.704368466271
 30
0.0
 10
336.6222835793107
 20
135.0423172109779
 30
0.0
 10
336.724514670121
 20
134.7245259591955
 30
0.0
 10
337.019011180453
 20
133.8101874960764
 30
0.0
 10
337.1993913624586
 20
133.2524939589083
 30
0.0
 10
337.4434511182706
 20
132.4942681538276
 30
0.0
 10
337.5204701158192
 20
132.2546305976547
 30
0.0
 10
337.6659725479519
 20
131.8022610748644
 30
0.0
 10
337.7347000005041
 20
131.5887741151177
 30
0.0
 10
337.9258455637333
 20
130.9961861915673
 30
0.0
 10
338.0328967005898
 20
130.6662622141199
 30
0.0
 10
338.2040952612187
 20
130.1336526798863
 30
0.0
 10
338.2689675597281
 20
129.9309317587598
 30
0.0
 10
338.333273856391
 20
129.7256477662253
 30
0.0
 10
338.349387814124
 20
129.6737049868187
 30
0.0
 10
338.3714698588891
 20
129.6046135588341
 30
0.0
 10
338.3775038766362
 20
129.5872704167212
 30
0.0
 10
338.3792143180726
 20
129.5871543737885
 30
0.0
  0
SPLINE
  5
2F5
330
1F
100
AcDbEntity
  8
0
  6
SLD-Сплошная
 62
     7
370
    25
100
AcDbSpline
210
0.0
220
0.0
230
1.0
 70
     8
 71
     3
 72
    28
 73
    24
 74
     0
 42
0.00000001
 43
0.00000001
 40
0.0
 40
0.0
 40
0.0
 40
0.0
 40
0.1250000000000016
 40
0.1250000000000016
 40
0.1875000000000021
 40
0.1875000000000021
 40
0.2500000000000025
 40
0.2500000000000025
 40
0.375000000000004
 40
0.375000000000004
 40
0.4375000000000046
 40
0.4375000000000046
 40
0.5000000000000051
 40
0.5000000000000051
 40
0.6250000000000038
 40
0.6250000000000038
 40
0.7500000000000026
 40
0.7500000000000026
 40
0.8125000000000019
 40
0.8125000000000019
 40
0.8750000000000012
 40
0.8750000000000012
 40
1.0
 40
1.0
 40
1.0
 40
1.0
 10
328.9296130510256
 20
139.7278678323005
 30
0.0
 10
328.9915212630792
 20
139.9780237440425
 30
0.0
 10
329.0935991184119
 20
140.220651568912
 30
0.0
 10
329.3019765424855
 20
140.5625657047424
 30
0.0
 10
329.3811197365631
 20
140.6733875316277
 30
0.0
 10
329.5542177943379
 20
140.8826974667178
 30
0.0
 10
329.6485739661834
 20
140.9819381689036
 30
0.0
 10
329.9548128183834
 20
141.2630987024677
 30
0.0
 10
330.1926987288367
 20
141.4294586367281
 30
0.0
 10
330.5766840843631
 20
141.6295747953068
 30
0.0
 10
330.7098214288616
 20
141.6886870671265
 30
0.0
 10
330.9864904267289
 20
141.7912530202719
 30
0.0
 10
331.1308740983236
 20
141.8348023653469
 30
0.0
 10
331.5677901151176
 20
141.9376599673992
 30
0.0
 10
331.8670879718282
 20
141.9711761501598
 30
0.0
 10
332.4819514119337
 20
141.9656797962406
 30
0.0
 10
332.7853846144203
 20
141.9265982880729
 30
0.0
 10
333.2314209776268
 20
141.8157197277139
 30
0.0
 10
333.3798075489765
 20
141.7694875444286
 30
0.0
 10
333.6667309127653
 20
141.661347568804
 30
0.0
 10
333.8056177663133
 20
141.599509635557
 30
0.0
 10
334.2089094452742
 20
141.391479463729
 30
0.0
 10
334.4621813515467
 20
141.2209955165556
 30
0.0
 10
334.6885955028731
 20
141.0257193628773
 30
0.0
  0
SPLINE
  5
2F6
330
1F
100
AcDbEntity
  8
0
  6
SLD-Сплошная
 62
     7
370
    25
100
AcDbSpline
210
0.0
220
0.0
230
1.0
 70
     8
 71
     3
 72
    22
 73
    18
 74
     0
 42
0.00000001
 43
0.00000001
 40
0.0
 40
0.0
 40
0.0
 40
0.0
 40
0.2500000000000004
 40
0.2500000000000004
 40
0.3750000000000007
 40
0.3750000000000007
 40
0.5000000000000011
 40
0.5000000000000011
 40
0.5625000000000011
 40
0.5625000000000011
 40
0.6250000000000011
 40
0.6250000000000011
 40
0.7500000000000008
 40
0.7500000000000008
 40
0.8750000000000004
 40
0.8750000000000004
 40
1.0
 40
1.0
 40
1.0
 40
1.0
 10
332.3387074156701
 20
130.0992836172696
 30
0.0
 10
332.3378309880888
 20
130.0993728109373
 30
0.0
 10
332.2575737995299
 20
130.3258017802872
 30
0.0
 10
332.0191077419721
 20
130.992935054235
 30
0.0
 10
331.9191362127675
 20
131.2727405807368
 30
0.0
 10
331.6857081503119
 20
131.9268835661703
 30
0.0
 10
331.5518393375525
 20
132.3023078633809
 30
0.0
 10
331.3264279228202
 20
132.9361448524264
 30
0.0
 10
331.2471983603374
 20
133.1592454823108
 30
0.0
 10
331.0804242353288
 20
133.6292380295153
 30
0.0
 10
330.9925826359336
 20
133.8769642047321
 30
0.0
 10
330.7185092062086
 20
134.6502435123821
 30
0.0
 10
330.5228244106656
 20
135.2026516146752
 30
0.0
 10
330.1076100390713
 20
136.3775850939607
 30
0.0
 10
329.8878833425215
 20
137.0001097049898
 30
0.0
 10
329.424781001902
 20
138.31516849873
 30
0.0
 10
329.1808800312673
 20
139.0092511525713
 30
0.0
 10
328.9296130510238
 20
139.7278678323002
 30
0.0
  0
LINE
  5
2F7
330
1F
100
AcDbEntity
  8
0
  6
SLD-Сплошная
 62
     7
370
    25
100
AcDbLine
 10
314.6975151676
 20
138.2658589193
 30
0.0
 11
314.6975151676
 21
132.7836824339
 31
0.0
  0
LINE
  5
2F8
330
1F
100
AcDbEntity
  8
0
  6
SLD-Сплошная
 62
     7
370
    25
100
AcDbLine
 10
382.9317998452
 20
150.8259168871
 30
0.0
 11
382.9317998452
 21
172.4509168871
 31
0.0
  0
LINE
  5
2F9
330
1F
100
AcDbEntity
  8
0
  6
SLD-Сплошная
 62
     7
370
    25
100
AcDbLine
 10
382.9317998452
 20
129.2009168871
 30
0.0
 11
382.9317998452
 21
150.8259168871
 31
0.0
  0
LINE
  5
2FA
330
1F
100
AcDbEntity
  8
0
  6
SLD-Сплошная
 62
     7
370
    25
100
AcDbLine
 10
414.9067998452
 20
129.4108511275
 30
0.0
 11
414.9067998452
 21
172.4509168871
 31
0.0
  0
LINE
  5
2FB
330
1F
100
AcDbEntity
  8
0
  6
SLD-Сплошная
 62
     7
370
    25
100
AcDbLine
 10
414.9067998452
 20
129.4108511275
 30
0.0
 11
402.6067998452
 21
129.4108511275
 31
0.0
  0
LINE
  5
2FC
330
1F
100
AcDbEntity
  8
0
  6
SLD-Сплошная
 62
     7
370
    25
100
AcDbLine
 10
401.7817998452
 20
150.8259168871
 30
0.0
 11
401.7817998452
 21
172.4509168871
 31
0.0
  0
LINE
  5
2FD
330
1F
100
AcDbEntity
  8
0
  6
SLD-Сплошная
 62
     7
370
    25
100
AcDbLine
 10
401.7817998452
 20
129.2009168871
 30
0.0
 11
401.7817998452
 21
150.8259168871
 31
0.0
  0
SPLINE
  5
2FE
330
1F
100
AcDbEntity
  8
0
  6
SLD-Сплошная
 62
     7
370
    25
100
AcDbSpline
210
0.0
220
0.0
230
1.0
 70
     8
 71
     3
 72
    28
 73
    24
 74
     0
 42
0.00000001
 43
0.00000001
 40
0.0
 40
0.0
 40
0.0
 40
0.0
 40
0.1249999999999984
 40
0.1249999999999984
 40
0.1874999999999979
 40
0.1874999999999979
 40
0.2499999999999973
 40
0.2499999999999973
 40
0.3749999999999972
 40
0.3749999999999972
 40
0.4374999999999971
 40
0.4374999999999971
 40
0.4999999999999971
 40
0.4999999999999971
 40
0.6249999999999968
 40
0.6249999999999968
 40
0.7499999999999966
 40
0.7499999999999966
 40
0.8124999999999972
 40
0.8124999999999972
 40
0.8749999999999978
 40
0.8749999999999978
 40
1.0
 40
1.0
 40
1.0
 40
1.0
 10
352.9714339830385
 20
140.0903769862923
 30
0.0
 10
353.0319384394735
 20
140.3571080770765
 30
0.0
 10
353.133119961525
 20
140.6182059626801
 30
0.0
 10
353.3411986448253
 20
140.9898711124521
 30
0.0
 10
353.4203599509149
 20
141.1109008862821
 30
0.0
 10
353.59382684302
 20
141.3407958671131
 30
0.0
 10
353.6885495336177
 20
141.4504935936431
 30
0.0
 10
353.9965697386548
 20
141.7634981279726
 30
0.0
 10
354.2362767969018
 20
141.9516249233307
 30
0.0
 10
354.6240653147601
 20
142.1831781438933
 30
0.0
 10
354.7587180333616
 20
142.2526725929997
 30
0.0
 10
355.0390177221661
 20
142.375746445341
 30
0.0
 10
355.1851878029007
 20
142.4293268671486
 30
0.0
 10
355.6275149280459
 20
142.5609167944347
 30
0.0
 10
355.9321060331878
 20
142.6123171930809
 30
0.0
 10
356.5567486824223
 20
142.638955214552
 30
0.0
 10
356.8642671850108
 20
142.6138401464312
 30
0.0
 10
357.3185088609629
 20
142.5201209496515
 30
0.0
 10
357.4694760398829
 20
142.4790507240938
 30
0.0
 10
357.7604546702526
 20
142.3801701395523
 30
0.0
 10
357.9014371721838
 20
142.3222575743145
 30
0.0
 10
358.3110503625782
 20
142.1237410394639
 30
0.0
 10
358.5682327739142
 20
141.9566797252617
 30
0.0
 10
358.7967934004383
 20
141.7624032186697
 30
0.0
  0
ARC
  5
2FF
330
1F
100
AcDbEntity
  8
0
  6
SLD-Сплошная
 62
     7
370
    25
100
AcDbCircle
 10
335.5067998452
 20
131.5869631386
 30
0.0
 40
3.500000000000042
100
AcDbArc
 50
205.1539100595
 51
325.1539100595
  0
LINE
  5
300
330
1F
100
AcDbEntity
  8
0
  6
SLD-Сплошная
 62
     7
370
    25
100
AcDbLine
 10
301.2433776589
 20
131.2913071963
 30
0.0
 11
301.2433776589
 21
131.1716940387
 31
0.0
  0
LINE
  5
301
330
1F
100
AcDbEntity
  8
0
  6
SLD-Сплошная
 62
     7
370
    25
100
AcDbLine
 10
301.2433776589
 20
139.1836120417
 30
0.0
 11
301.2433776589
 21
131.2913071963
 31
0.0
  0
LINE
  5
302
330
1F
100
AcDbEntity
  8
0
  6
SLD-Сплошная
 62
     7
370
    25
100
AcDbLine
 10
301.2433776589
 20
142.9336120417
 30
0.0
 11
301.2433776589
 21
139.1836120417
 31
0.0
  0
LINE
  5
303
330
1F
100
AcDbEntity
  8
0
  6
SLD-Сплошная
 62
     7
370
    25
100
AcDbLine
 10
301.2433776589
 20
162.4682217325
 30
0.0
 11
301.2433776589
 21
158.7182217325
 31
0.0
  0
LINE
  5
304
330
1F
100
AcDbEntity
  8
0
  6
SLD-Сплошная
 62
     7
370
    25
100
AcDbLine
 10
301.2433776589
 20
170.3605265779
 30
0.0
 11
301.2433776589
 21
162.4682217325
 31
0.0
  0
LINE
  5
305
330
1F
100
AcDbEntity
  8
0
  6
SLD-Сплошная
 62
     7
370
    25
100
AcDbLine
 10
301.2433776589
 20
170.4801397355
 30
0.0
 11
301.2433776589
 21
170.3605265779
 31
0.0
  0
LINE
  5
306
330
1F
100
AcDbEntity
  8
0
  6
SLD-Сплошная
 62
     7
370
    25
100
AcDbLine
 10
303.2433776589
 20
170.4801397355
 30
0.0
 11
303.2433776589
 21
131.1716940387
 31
0.0
  0
LINE
  5
307
330
1F
100
AcDbEntity
  8
0
  6
SLD-Сплошная
 62
     7
370
    25
100
AcDbLine
 10
301.2433776589
 20
158.7182217325
 30
0.0
 11
301.2433776589
 21
142.9336120417
 31
0.0
  0
LINE
  5
308
330
1F
100
AcDbEntity
  8
0
  6
SLD-Сплошная
 62
     7
370
    25
100
AcDbLine
 10
292.2433776589
 20
142.9336120417
 30
0.0
 11
301.2433776589
 21
142.9336120417
 31
0.0
  0
LINE
  5
309
330
1F
100
AcDbEntity
  8
0
  6
SLD-Сплошная
 62
     7
370
    25
100
AcDbLine
 10
292.2433776589
 20
158.7182217325
 30
0.0
 11
292.2433776589
 21
142.9336120417
 31
0.0
  0
LINE
  5
30A
330
1F
100
AcDbEntity
  8
0
  6
SLD-Сплошная
 62
     7
370
    25
100
AcDbLine
 10
301.2433776589
 20
158.7182217325
 30
0.0
 11
292.2433776589
 21
158.7182217325
 31
0.0
  0
LINE
  5
30B
330
1F
100
AcDbEntity
  8
0
  6
SLD-Сплошная
 62
     7
370
    25
100
AcDbLine
 10
292.2433776589
 20
162.4682217325
 30
0.0
 11
301.2433776589
 21
162.4682217325
 31
0.0
  0
LINE
  5
30C
330
1F
100
AcDbEntity
  8
0
  6
SLD-Сплошная
 62
     7
370
    25
100
AcDbLine
 10
292.2433776589
 20
162.4682217325
 30
0.0
 11
292.2433776589
 21
158.7182217325
 31
0.0
  0
LINE
  5
30D
330
1F
100
AcDbEntity
  8
0
  6
SLD-Сплошная
 62
     7
370
    25
100
AcDbLine
 10
301.2433776589
 20
139.1836120417
 30
0.0
 11
292.2433776589
 21
139.1836120417
 31
0.0
  0
LINE
  5
30E
330
1F
100
AcDbEntity
  8
0
  6
SLD-Сплошная
 62
     7
370
    25
100
AcDbLine
 10
292.2433776589
 20
142.9336120417
 30
0.0
 11
292.2433776589
 21
139.1836120417
 31
0.0
  0
LINE
  5
30F
330
1F
100
AcDbEntity
  8
0
  6
SLD-Сплошная
 62
     7
370
    25
100
AcDbLine
 10
280.2337587157
 20
153.8960009812
 30
0.0
 11
273.3913601273
 21
153.8960009812
 31
0.0
  0
LINE
  5
310
330
1F
100
AcDbEntity
  8
0
  6
SLD-Сплошная
 62
     7
370
    25
100
AcDbLine
 10
280.2337587157
 20
147.755832793
 30
0.0
 11
273.3913601273
 21
147.755832793
 31
0.0
  0
LINE
  5
311
330
1F
100
AcDbEntity
  8
0
  6
SLD-Сплошная
 62
     7
370
    25
100
AcDbLine
 10
280.2337587157
 20
153.8960009812
 30
0.0
 11
292.2433776589
 21
153.8960009812
 31
0.0
  0
LINE
  5
312
330
1F
100
AcDbEntity
  8
0
  6
SLD-Сплошная
 62
     7
370
    25
100
AcDbLine
 10
280.2337587157
 20
147.755832793
 30
0.0
 11
292.2433776589
 21
147.755832793
 31
0.0
  0
LINE
  5
313
330
1F
100
AcDbEntity
  8
0
  6
SLD-Сплошная
 62
     7
370
    25
100
AcDbLine
 10
301.2433776589
 20
170.3605265779
 30
0.0
 11
292.2433776589
 21
170.3605265779
 31
0.0
  0
LINE
  5
314
330
1F
100
AcDbEntity
  8
0
  6
SLD-Сплошная
 62
     7
370
    25
100
AcDbLine
 10
292.2433776589
 20
170.3605265779
 30
0.0
 11
292.2433776589
 21
162.4682217325
 31
0.0
  0
LINE
  5
315
330
1F
100
AcDbEntity
  8
0
  6
SLD-Сплошная
 62
     7
370
    25
100
AcDbLine
 10
292.2433776589
 20
131.2913071963
 30
0.0
 11
301.2433776589
 21
131.2913071963
 31
0.0
  0
LINE
  5
316
330
1F
100
AcDbEntity
  8
0
  6
SLD-Сплошная
 62
     7
370
    25
100
AcDbLine
 10
292.2433776589
 20
139.1836120417
 30
0.0
 11
292.2433776589
 21
131.2913071963
 31
0.0
  0
LINE
  5
317
330
1F
100
AcDbEntity
  8
0
  6
SLD-Сплошная
 62
     7
370
    25
100
AcDbLine
 10
270.6750377113
 20
162.3857980613
 30
0.0
 11
273.3913601273
 21
163.8165352409
 31
0.0
  0
ARC
  5
318
330
1F
100
AcDbEntity
  8
0
  6
SLD-Сплошная
 62
     7
370
    25
100
AcDbCircle
 10
280.2337587157
 20
150.8259168871
 30
0.0
 40
14.68245836551856
100
AcDbArc
 50
90.0
 51
117.7766046258
  0
ARC
  5
319
330
1F
100
AcDbEntity
  8
0
  6
SLD-Сплошная
 62
     7
370
    25
100
AcDbCircle
 10
273.6945836183
 20
150.8259168871
 30
0.0
 40
3.085022014554637
100
AcDbArc
 50
95.6406475517
 51
264.3593524483
  0
ARC
  5
31A
330
1F
100
AcDbEntity
  8
0
  6
SLD-Сплошная
 62
     7
370
    25
100
AcDbCircle
 10
280.2337587157
 20
150.8259168871
 30
0.0
 40
14.68245836551859
100
AcDbArc
 50
242.2233953742
 51
270.0
  0
LINE
  5
31B
330
1F
100
AcDbEntity
  8
0
  6
SLD-Сплошная
 62
     7
370
    25
100
AcDbLine
 10
273.3913601273
 20
137.8352985333
 30
0.0
 11
270.6750377113
 21
139.2660357129
 31
0.0
  0
LINE
  5
31C
330
1F
100
AcDbEntity
  8
0
  6
SLD-Сплошная
 62
     7
370
    25
100
AcDbLine
 10
267.2433776589
 20
158.3259168871
 30
0.0
 11
267.2433776589
 21
143.3259168871
 31
0.0
  0
LINE
  5
31D
330
1F
100
AcDbEntity
  8
0
  6
SLD-Сплошная
 62
     7
370
    25
100
AcDbLine
 10
280.2337587157
 20
165.5083752526
 30
0.0
 11
292.2433776589
 21
165.5083752526
 31
0.0
  0
LINE
  5
31E
330
1F
100
AcDbEntity
  8
0
  6
SLD-Сплошная
 62
     7
370
    25
100
AcDbLine
 10
280.2337587157
 20
136.1434585216
 30
0.0
 11
292.2433776589
 21
136.1434585216
 31
0.0
  0
LINE
  5
31F
330
1F
100
AcDbEntity
  8
0
  6
SLD-Сплошная
 62
     7
370
    25
100
AcDbLine
 10
309.9067998452
 20
133.8259168871
 30
0.0
 11
309.9067998452
 21
138.9914079183
 31
0.0
  0
LINE
  5
320
330
1F
100
AcDbEntity
  8
0
  6
SLD-Сплошная
 62
     7
370
    25
100
AcDbLine
 10
378.1067998452
 20
125.7569780348
 30
0.0
 11
378.1067998452
 21
121.2068416218
 31
0.0
  0
LINE
  5
321
330
1F
100
AcDbEntity
  8
0
  6
SLD-Сплошная
 62
     7
370
    25
100
AcDbLine
 10
374.8067998452
 20
125.7569780348
 30
0.0
 11
374.8067998452
 21
121.2068416218
 31
0.0
  0
LINE
  5
322
330
1F
100
AcDbEntity
  8
0
  6
SLD-Сплошная
 62
     7
370
    25
100
AcDbLine
 10
416.3067998452
 20
142.0759168871
 30
0.0
 11
416.3067998452
 21
138.5759168871
 31
0.0
  0
LINE
  5
323
330
1F
100
AcDbEntity
  8
0
  6
SLD-Сплошная
 62
     7
370
    25
100
AcDbLine
 10
416.3067998452
 20
145.5759168871
 30
0.0
 11
416.3067998452
 21
142.0759168871
 31
0.0
  0
LINE
  5
324
330
1F
100
AcDbEntity
  8
0
  6
SLD-Сплошная
 62
     7
370
    25
100
AcDbLine
 10
402.6067998452
 20
128.7068416218
 30
0.0
 11
402.6067998452
 21
125.7009168871
 31
0.0
  0
LINE
  5
325
330
1F
100
AcDbEntity
  8
0
  6
SLD-Сплошная
 62
     7
370
    25
100
AcDbLine
 10
414.9067998452
 20
128.7068416218
 30
0.0
 11
414.9067998452
 21
125.7009168871
 31
0.0
  0
LINE
  5
326
330
1F
100
AcDbEntity
  8
0
  6
SLD-Сплошная
 62
     7
370
    25
100
AcDbLine
 10
402.6067998452
 20
129.4108511275
 30
0.0
 11
402.6067998452
 21
128.7068416218
 31
0.0
  0
LINE
  5
327
330
1F
100
AcDbEntity
  8
0
  6
SLD-Сплошная
 62
     7
370
    25
100
AcDbLine
 10
414.9067998452
 20
129.4108511275
 30
0.0
 11
414.9067998452
 21
128.7068416218
 31
0.0
  0
LINE
  5
328
330
1F
100
AcDbEntity
  8
0
  6
SLD-Сплошная
 62
     7
370
    25
100
AcDbLine
 10
337.1067998452
 20
180.8259168871
 30
0.0
 11
337.1067998452
 21
180.6991639523
 31
0.0
  0
LINE
  5
329
330
1F
100
AcDbEntity
  8
0
  6
SLD-Сплошная
 62
     7
370
    25
100
AcDbLine
 10
340.4067998452
 20
180.8259168871
 30
0.0
 11
340.4067998452
 21
180.6991639523
 31
0.0
  0
LINE
  5
32A
330
1F
100
AcDbEntity
  8
0
  6
SLD-Сплошная
 62
     7
370
    25
100
AcDbLine
 10
337.1067998452
 20
180.6991639523
 30
0.0
 11
340.4067998452
 21
180.6991639523
 31
0.0
  0
LINE
  5
32B
330
1F
100
AcDbEntity
  8
0
  6
SLD-Сплошная
 62
     7
370
    25
100
AcDbLine
 10
337.1067998452
 20
171.7942607334
 30
0.0
 11
337.1067998452
 21
180.6991639523
 31
0.0
  0
SPLINE
  5
32C
330
1F
100
AcDbEntity
  8
0
  6
SLD-Сплошная
 62
     7
370
    25
100
AcDbSpline
210
0.0
220
0.0
230
1.0
 70
     8
 71
     3
 72
    16
 73
    12
 74
     0
 42
0.00000001
 43
0.00000001
 40
0.0
 40
0.0
 40
0.0
 40
0.0
 40
0.125
 40
0.125
 40
0.25
 40
0.25
 40
0.5
 40
0.5
 40
0.75
 40
0.75
 40
1.0
 40
1.0
 40
1.0
 40
1.0
 10
340.4067998451633
 20
180.6991639523096
 30
0.0
 10
340.6644424154242
 20
180.2336077463365
 30
0.0
 10
340.9419476367096
 20
179.777891882746
 30
0.0
 10
341.5375707763579
 20
178.8865804730308
 30
0.0
 10
341.8566590022659
 20
178.450005926301
 30
0.0
 10
342.8615805721441
 20
177.1904110075013
 30
0.0
 10
343.5982602858045
 20
176.4110523799671
 30
0.0
 10
345.2068509359573
 20
174.9746765375957
 30
0.0
 10
346.0603070898899
 20
174.334163149139
 30
0.0
 10
347.8609151430651
 20
173.203199034895
 30
0.0
 10
348.8082027733731
 20
172.7126173139378
 30
0.0
 10
349.8047374977276
 20
172.3005443408659
 30
0.0
  0
ENDSEC
  0
SECTION
  2
OBJECTS
  0
DICTIONARY
  5
C
330
0
100
AcDbDictionary
281
     1
  3
ACAD_GROUP
350
D
  3
ACAD_LAYOUT
350
1A
  3
ACAD_MLINESTYLE
350
17
  3
ACAD_PLOTSETTINGS
350
19
  3
ACAD_PLOTSTYLENAME
350
E
  3
ACAD_SCALELIST
350
47
  3
DWGPROPS
350
32D
  0
DICTIONARY
  5
D
102
{ACAD_REACTORS
330
C
102
}
330
C
100
AcDbDictionary
281
     1
  0
DICTIONARY
  5
1A
102
{ACAD_REACTORS
330
C
102
}
330
C
100
AcDbDictionary
281
     1
  3
Layout1
350
1E
  3
Layout2
350
26
  3
Model
350
22
  0
DICTIONARY
  5
17
102
{ACAD_REACTORS
330
C
102
}
330
C
100
AcDbDictionary
281
     1
  3
Standard
350
18
  0
DICTIONARY
  5
19
102
{ACAD_REACTORS
330
C
102
}
330
C
100
AcDbDictionary
281
     1
  0
ACDBDICTIONARYWDFLT
  5
E
102
{ACAD_REACTORS
330
C
102
}
330
C
100
AcDbDictionary
281
     1
  3
Normal
350
F
100
AcDbDictionaryWithDefault
340
F
  0
DICTIONARY
  5
47
102
{ACAD_REACTORS
330
C
102
}
330
C
100
AcDbDictionary
281
     1
  3
A0
350
48
  3
A1
350
49
  3
A2
350
4A
  3
A3
350
4B
  3
A4
350
4C
  3
A5
350
4D
  3
A6
350
4E
  3
A7
350
4F
  3
A8
350
50
  3
A9
350
51
  3
B0
350
52
  3
B1
350
53
  3
B2
350
54
  3
B3
350
55
  3
B4
350
56
  3
B5
350
57
  3
B6
350
58
  0
XRECORD
  5
32D
102
{ACAD_REACTORS
330
C
102
}
330
C
100
AcDbXrecord
280
     1
  1
DWGPROPS COOKIE
  2

  3

  4

  6

  7

  8
inyankin
  9

300
=
301
=
302
=
303
=
304
=
305
=
306
=
307
=
308
=
309
=
 40
0.0
 41
2460879.441364792
 42
2460879.441365729
  1

 90
        0
  0
LAYOUT
  5
1E
102
{ACAD_REACTORS
330
1A
102
}
330
1A
100
AcDbPlotSettings
  1

  2
none_device
  4

  6

 40
0.0
 41
0.0
 42
0.0
 43
0.0
 44
0.0
 45
0.0
 46
0.0
 47
0.0
 48
0.0
 49
0.0
140
0.0
141
0.0
142
1.0
143
1.0
 70
   688
 72
     1
 73
     0
 74
     5
  7

 75
    16
147
1.0
148
0.0
149
0.0
100
AcDbLayout
  1
Layout1
 70
     1
 71
     1
 10
0.0
 20
0.0
 11
420.0
 21
297.0
 12
0.0
 22
0.0
 32
0.0
 14
1.0000000000E+20
 24
1.0000000000E+20
 34
1.0000000000E+20
 15
-1.0000000000E+20
 25
-1.0000000000E+20
 35
-1.0000000000E+20
146
0.0
 13
0.0
 23
0.0
 33
0.0
 16
1.0
 26
0.0
 36
0.0
 17
0.0
 27
1.0
 37
0.0
 76
     0
330
1B
  0
LAYOUT
  5
26
102
{ACAD_REACTORS
330
1A
102
}
330
1A
100
AcDbPlotSettings
  1

  2
none_device
  4

  6

 40
0.0
 41
0.0
 42
0.0
 43
0.0
 44
0.0
 45
0.0
 46
0.0
 47
0.0
 48
0.0
 49
0.0
140
0.0
141
0.0
142
1.0
143
1.0
 70
   688
 72
     1
 73
     0
 74
     5
  7

 75
    16
147
1.0
148
0.0
149
0.0
100
AcDbLayout
  1
Layout2
 70
     1
 71
     2
 10
0.0
 20
0.0
 11
0.0
 21
0.0
 12
0.0
 22
0.0
 32
0.0
 14
0.0
 24
0.0
 34
0.0
 15
0.0
 25
0.0
 35
0.0
146
0.0
 13
0.0
 23
0.0
 33
0.0
 16
1.0
 26
0.0
 36
0.0
 17
0.0
 27
1.0
 37
0.0
 76
     0
330
23
  0
LAYOUT
  5
22
102
{ACAD_REACTORS
330
1A
102
}
330
1A
100
AcDbPlotSettings
  1

  2
none_device
  4
Letter_(8.50_x_11.00_Inches)
  6

 40
6.35
 41
6.35
 42
6.35000508
 43
6.35000508
 44
215.9
 45
279.4
 46
0.0
 47
0.0
 48
0.0
 49
0.0
140
0.0
141
0.0
142
1.0
143
1.0
 70
  1712
 72
     1
 73
     0
 74
     0
  7

 75
     0
147
1.0
148
0.0
149
0.0
100
AcDbLayout
  1
Model
 70
     1
 71
     0
 10
0.0
 20
0.0
 11
431.8
 21
279.4
 12
0.0
 22
0.0
 32
0.0
 14
0.0
 24
0.0
 34
0.0
 15
431.8
 25
279.4
 35
0.0
146
0.0
 13
0.0
 23
0.0
 33
0.0
 16
1.0
 26
0.0
 36
0.0
 17
0.0
 27
1.0
 37
0.0
 76
     0
330
1F
331
29
  0
MLINESTYLE
  5
18
102
{ACAD_REACTORS
330
17
102
}
330
17
100
AcDbMlineStyle
  2
Standard
 70
     0
  3

 62
   256
 51
90.0
 52
90.0
 71
     2
 49
0.5
 62
   256
  6
BYLAYER
 49
-0.5
 62
   256
  6
BYLAYER
  0
ACDBPLACEHOLDER
  5
F
102
{ACAD_REACTORS
330
E
102
}
330
E
  0
SCALE
  5
48
102
{ACAD_REACTORS
330
47
102
}
330
47
100
AcDbScale
 70
     0
300
1:1
140
1.0
141
1.0
290
     1
  0
SCALE
  5
49
102
{ACAD_REACTORS
330
47
102
}
330
47
100
AcDbScale
 70
     0
300
1:2
140
1.0
141
2.0
290
     0
  0
SCALE
  5
4A
102
{ACAD_REACTORS
330
47
102
}
330
47
100
AcDbScale
 70
     0
300
1:4
140
1.0
141
4.0
290
     0
  0
SCALE
  5
4B
102
{ACAD_REACTORS
330
47
102
}
330
47
100
AcDbScale
 70
     0
300
1:5
140
1.0
141
5.0
290
     0
  0
SCALE
  5
4C
102
{ACAD_REACTORS
330
47
102
}
330
47
100
AcDbScale
 70
     0
300
1:8
140
1.0
141
8.0
290
     0
  0
SCALE
  5
4D
102
{ACAD_REACTORS
330
47
102
}
330
47
100
AcDbScale
 70
     0
300
1:10
140
1.0
141
10.0
290
     0
  0
SCALE
  5
4E
102
{ACAD_REACTORS
330
47
102
}
330
47
100
AcDbScale
 70
     0
300
1:16
140
1.0
141
16.0
290
     0
  0
SCALE
  5
4F
102
{ACAD_REACTORS
330
47
102
}
330
47
100
AcDbScale
 70
     0
300
1:20
140
1.0
141
20.0
290
     0
  0
SCALE
  5
50
102
{ACAD_REACTORS
330
47
102
}
330
47
100
AcDbScale
 70
     0
300
1:30
140
1.0
141
30.0
290
     0
  0
SCALE
  5
51
102
{ACAD_REACTORS
330
47
102
}
330
47
100
AcDbScale
 70
     0
300
1:40
140
1.0
141
40.0
290
     0
  0
SCALE
  5
52
102
{ACAD_REACTORS
330
47
102
}
330
47
100
AcDbScale
 70
     0
300
1:50
140
1.0
141
50.0
290
     0
  0
SCALE
  5
53
102
{ACAD_REACTORS
330
47
102
}
330
47
100
AcDbScale
 70
     0
300
1:100
140
1.0
141
100.0
290
     0
  0
SCALE
  5
54
102
{ACAD_REACTORS
330
47
102
}
330
47
100
AcDbScale
 70
     0
300
2:1
140
2.0
141
1.0
290
     0
  0
SCALE
  5
55
102
{ACAD_REACTORS
330
47
102
}
330
47
100
AcDbScale
 70
     0
300
4:1
140
4.0
141
1.0
290
     0
  0
SCALE
  5
56
102
{ACAD_REACTORS
330
47
102
}
330
47
100
AcDbScale
 70
     0
300
8:1
140
8.0
141
1.0
290
     0
  0
SCALE
  5
57
102
{ACAD_REACTORS
330
47
102
}
330
47
100
AcDbScale
 70
     0
300
10:1
140
10.0
141
1.0
290
     0
  0
SCALE
  5
58
102
{ACAD_REACTORS
330
47
102
}
330
47
100
AcDbScale
 70
     0
300
100:1
140
100.0
141
1.0
290
     0
  0
ENDSEC
  0
EOF
