  0
SECTION
  2
HEADER
  9
$ACADVER
  1
AC1015
  9
$ACADMAINTVER
 70
     6
  9
$DWGCODEPAGE
  3
ANSI_1251
  9
$INSBASE
 10
0.0
 20
0.0
 30
0.0
  9
$EXTMIN
 10
0.0
 20
0.0
 30
0.0
  9
$EXTMAX
 10
431.8
 20
279.4
 30
0.0
  9
$LIMMIN
 10
0.0
 20
0.0
  9
$LIMMAX
 10
431.8
 20
279.4
  9
$ORTHOMODE
 70
     0
  9
$REGENMODE
 70
     1
  9
$FILLMODE
 70
     1
  9
$QTEXTMODE
 70
     0
  9
$MIRRTEXT
 70
     1
  9
$LTSCALE
 40
1.0
  9
$ATTMODE
 70
     1
  9
$TEXTSIZE
 40
3.5
  9
$TRACEWID
 40
1.0
  9
$TEXTSTYLE
  7
STANDARD
  9
$CLAYER
  8
0
  9
$CELTYPE
  6
ByLayer
  9
$CECOLOR
 62
   256
  9
$CELTSCALE
 40
1.0
  9
$DISPSILH
 70
     0
  9
$DIMSCALE
 40
1.0
  9
$DIMASZ
 40
5.0
  9
$DIMEXO
 40
0.0
  9
$DIMDLI
 40
3.75
  9
$DIMRND
 40
0.0
  9
$DIMDLE
 40
0.0
  9
$DIMEXE
 40
1.0
  9
$DIMTP
 40
0.0
  9
$DIMTM
 40
0.0
  9
$DIMTXT
 40
3.5
  9
$DIMCEN
 40
2.5
  9
$DIMTSZ
 40
0.0
  9
$DIMTOL
 70
     0
  9
$DIMLIM
 70
     0
  9
$DIMTIH
 70
     1
  9
$DIMTOH
 70
     1
  9
$DIMSE1
 70
     0
  9
$DIMSE2
 70
     0
  9
$DIMTAD
 70
     1
  9
$DIMZIN
 70
     0
  9
$DIMBLK
  1

  9
$DIMASO
 70
     1
  9
$DIMSHO
 70
     1
  9
$DIMPOST
  1

  9
$DIMAPOST
  1

  9
$DIMALT
 70
     0
  9
$DIMALTD
 70
     3
  9
$DIMALTF
 40
0.0393700787
  9
$DIMLFAC
 40
1.0
  9
$DIMTOFL
 70
     1
  9
$DIMTVP
 40
0.0
  9
$DIMTIX
 70
     0
  9
$DIMSOXD
 70
     0
  9
$DIMSAH
 70
     0
  9
$DIMBLK1
  1

  9
$DIMBLK2
  1

  9
$DIMSTYLE
  2
ISO-25
  9
$DIMCLRD
 70
     0
  9
$DIMCLRE
 70
     0
  9
$DIMCLRT
 70
     0
  9
$DIMTFAC
 40
1.0
  9
$DIMGAP
 40
1.5
  9
$DIMJUST
 70
     0
  9
$DIMSD1
 70
     0
  9
$DIMSD2
 70
     0
  9
$DIMTOLJ
 70
     0
  9
$DIMTZIN
 70
     0
  9
$DIMALTZ
 70
     0
  9
$DIMALTTZ
 70
     0
  9
$DIMUPT
 70
     0
  9
$DIMDEC
 70
     1
  9
$DIMTDEC
 70
     3
  9
$DIMALTU
 70
     2
  9
$DIMALTTD
 70
     3
  9
$DIMTXSTY
  7
STANDARD
  9
$DIMAUNIT
 70
     0
  9
$DIMADEC
 70
     2
  9
$DIMALTRND
 40
0.0
  9
$DIMAZIN
 70
     0
  9
$DIMDSEP
 70
    44
  9
$DIMATFIT
 70
     3
  9
$DIMFRAC
 70
     0
  9
$DIMLDRBLK
  1

  9
$DIMLUNIT
 70
     2
  9
$DIMLWD
 70
    -2
  9
$DIMLWE
 70
    -2
  9
$DIMTMOVE
 70
     0
  9
$LUNITS
 70
     2
  9
$LUPREC
 70
     1
  9
$SKETCHINC
 40
1.0
  9
$FILLETRAD
 40
0.0
  9
$AUNITS
 70
     0
  9
$AUPREC
 70
     2
  9
$MENU
  1
.
  9
$ELEVATION
 40
0.0
  9
$PELEVATION
 40
0.0
  9
$THICKNESS
 40
0.0
  9
$LIMCHECK
 70
     0
  9
$CHAMFERA
 40
0.0
  9
$CHAMFERB
 40
0.0
  9
$CHAMFERC
 40
0.0
  9
$CHAMFERD
 40
0.0
  9
$SKPOLY
 70
     0
  9
$TDCREATE
 40
2460928.569866285
  9
$TDUCREATE
 40
2460928.444866285
  9
$TDUPDATE
 40
2460928.569866967
  9
$TDUUPDATE
 40
2460928.444866967
  9
$TDINDWG
 40
0.0000000116
  9
$TDUSRTIMER
 40
0.0000000116
  9
$USRTIMER
 70
     1
  9
$ANGBASE
 50
0.0
  9
$ANGDIR
 70
     0
  9
$PDMODE
 70
     0
  9
$PDSIZE
 40
-1.0
  9
$PLINEWID
 40
0.0
  9
$SPLFRAME
 70
     0
  9
$SPLINETYPE
 70
     6
  9
$SPLINESEGS
 70
     8
  9
$HANDSEED
  5
33F
  9
$SURFTAB1
 70
     6
  9
$SURFTAB2
 70
     6
  9
$SURFTYPE
 70
     6
  9
$SURFU
 70
     6
  9
$SURFV
 70
     6
  9
$UCSBASE
  2

  9
$UCSNAME
  2

  9
$UCSORG
 10
0.0
 20
0.0
 30
0.0
  9
$UCSXDIR
 10
1.0
 20
0.0
 30
0.0
  9
$UCSYDIR
 10
0.0
 20
1.0
 30
0.0
  9
$UCSORTHOREF
  2

  9
$UCSORTHOVIEW
 70
     0
  9
$UCSORGTOP
 10
0.0
 20
0.0
 30
0.0
  9
$UCSORGBOTTOM
 10
0.0
 20
0.0
 30
0.0
  9
$UCSORGLEFT
 10
0.0
 20
0.0
 30
0.0
  9
$UCSORGRIGHT
 10
0.0
 20
0.0
 30
0.0
  9
$UCSORGFRONT
 10
0.0
 20
0.0
 30
0.0
  9
$UCSORGBACK
 10
0.0
 20
0.0
 30
0.0
  9
$PUCSBASE
  2

  9
$PUCSNAME
  2

  9
$PUCSORG
 10
0.0
 20
0.0
 30
0.0
  9
$PUCSXDIR
 10
1.0
 20
0.0
 30
0.0
  9
$PUCSYDIR
 10
0.0
 20
1.0
 30
0.0
  9
$PUCSORTHOREF
  2

  9
$PUCSORTHOVIEW
 70
     0
  9
$PUCSORGTOP
 10
0.0
 20
0.0
 30
0.0
  9
$PUCSORGBOTTOM
 10
0.0
 20
0.0
 30
0.0
  9
$PUCSORGLEFT
 10
0.0
 20
0.0
 30
0.0
  9
$PUCSORGRIGHT
 10
0.0
 20
0.0
 30
0.0
  9
$PUCSORGFRONT
 10
0.0
 20
0.0
 30
0.0
  9
$PUCSORGBACK
 10
0.0
 20
0.0
 30
0.0
  9
$USERI1
 70
     0
  9
$USERI2
 70
     0
  9
$USERI3
 70
     0
  9
$USERI4
 70
     0
  9
$USERI5
 70
     0
  9
$USERR1
 40
0.0
  9
$USERR2
 40
0.0
  9
$USERR3
 40
0.0
  9
$USERR4
 40
0.0
  9
$USERR5
 40
0.0
  9
$WORLDVIEW
 70
     1
  9
$SHADEDGE
 70
     3
  9
$SHADEDIF
 70
    70
  9
$TILEMODE
 70
     1
  9
$MAXACTVP
 70
    64
  9
$PINSBASE
 10
0.0
 20
0.0
 30
0.0
  9
$PLIMCHECK
 70
     0
  9
$PEXTMIN
 10
1.0000000000E+20
 20
1.0000000000E+20
 30
1.0000000000E+20
  9
$PEXTMAX
 10
-1.0000000000E+20
 20
-1.0000000000E+20
 30
-1.0000000000E+20
  9
$PLIMMIN
 10
0.0
 20
0.0
  9
$PLIMMAX
 10
420.0
 20
297.0
  9
$UNITMODE
 70
     0
  9
$VISRETAIN
 70
     1
  9
$PLINEGEN
 70
     0
  9
$PSLTSCALE
 70
     1
  9
$TREEDEPTH
 70
  3020
  9
$CMLSTYLE
  2
Standard
  9
$CMLJUST
 70
     0
  9
$CMLSCALE
 40
20.0
  9
$PROXYGRAPHICS
 70
     1
  9
$MEASUREMENT
 70
     1
  9
$CELWEIGHT
370
    -1
  9
$ENDCAPS
280
     0
  9
$JOINSTYLE
280
     0
  9
$LWDISPLAY
290
     1
  9
$INSUNITS
 70
     4
  9
$HYPERLINKBASE
  1

  9
$STYLESHEET
  1

  9
$XEDIT
290
     1
  9
$CEPSNTYPE
380
     0
  9
$PSTYLEMODE
290
     1
  9
$FINGERPRINTGUID
  2
{27daf009-d477-4623-9edc-9bea472ee7b0}
  9
$VERSIONGUID
  2
{FAEB1C32-E019-11D5-929B-00C0DF256EC4}
  9
$EXTNAMES
290
     1
  9
$PSVPSCALE
 40
0.0
  9
$OLESTARTUP
290
     0
  0
ENDSEC
  0
SECTION
  2
CLASSES
  0
CLASS
  1
ACDBDICTIONARYWDFLT
  2
AcDbDictionaryWithDefault
  3
ObjectDBX Classes
 90
        0
280
     0
281
     0
  0
CLASS
  1
VISUALSTYLE
  2
AcDbVisualStyle
  3
ObjectDBX Classes
 90
     4095
280
     0
281
     0
  0
CLASS
  1
MATERIAL
  2
AcDbMaterial
  3
ObjectDBX Classes
 90
     1153
280
     0
281
     0
  0
CLASS
  1
SCALE
  2
AcDbScale
  3
ObjectDBX Classes
 90
     1153
280
     0
281
     0
  0
CLASS
  1
TABLESTYLE
  2
AcDbTableStyle
  3
ObjectDBX Classes
 90
     4095
280
     0
281
     0
  0
CLASS
  1
MLEADERSTYLE
  2
AcDbMLeaderStyle
  3
ACDB_MLEADERSTYLE_CLASS
 90
     4095
280
     0
281
     0
  0
CLASS
  1
SUN
  2
AcDbSun
  3
SCENEOE
 90
     1153
280
     0
281
     0
  0
CLASS
  1
ACDBPLACEHOLDER
  2
AcDbPlaceHolder
  3
ObjectDBX Classes
 90
        0
280
     0
281
     0
  0
CLASS
  1
LAYOUT
  2
AcDbLayout
  3
ObjectDBX Classes
 90
        0
280
     0
281
     0
  0
ENDSEC
  0
SECTION
  2
TABLES
  0
TABLE
  2
VPORT
  5
8
330
0
100
AcDbSymbolTable
 70
     1
  0
VPORT
  5
29
330
8
100
AcDbSymbolTableRecord
100
AcDbViewportTableRecord
  2
*Active
 70
     0
 10
0.0
 20
0.0
 11
1.0
 21
1.0
 12
215.9
 22
139.7
 13
0.0
 23
0.0
 14
10.0
 24
10.0
 15
10.0
 25
10.0
 16
0.0
 26
0.0
 36
1.0
 17
0.0
 27
0.0
 37
0.0
 40
279.4
 41
1.5454545455
 42
50.0
 43
0.0
 44
0.0
 50
0.0
 51
0.0
 71
     0
 72
  2000
 73
     1
 74
     3
 75
     0
 76
     0
 77
     0
 78
     0
281
     0
 65
     1
110
0.0
120
0.0
130
0.0
111
1.0
121
0.0
131
0.0
112
0.0
122
1.0
132
0.0
 79
     0
146
0.0
  0
ENDTAB
  0
TABLE
  2
LTYPE
  5
5
330
0
100
AcDbSymbolTable
 70
     8
  0
LTYPE
  5
14
330
5
100
AcDbSymbolTableRecord
100
AcDbLinetypeTableRecord
  2
ByBlock
 70
     0
  3

 72
    65
 73
     0
 40
0.0
  0
LTYPE
  5
15
330
5
100
AcDbSymbolTableRecord
100
AcDbLinetypeTableRecord
  2
ByLayer
 70
     0
  3

 72
    65
 73
     0
 40
0.0
  0
LTYPE
  5
16
330
5
100
AcDbSymbolTableRecord
100
AcDbLinetypeTableRecord
  2
Continuous
 70
     0
  3
Solid line
 72
    65
 73
     0
 40
0.0
  0
LTYPE
  5
5E
330
5
100
AcDbSymbolTableRecord
100
AcDbLinetypeTableRecord
  2
SLD-Сплошная
 70
     0
  3
SolidWorks Line Style
 72
    65
 73
     0
 40
0.0
  0
LTYPE
  5
5F
330
5
100
AcDbSymbolTableRecord
100
AcDbLinetypeTableRecord
  2
SLD-Штриховая
 70
     0
  3
SolidWorks Line Style
 72
    65
 73
     2
 40
1.905
 49
1.27
 74
     0
 49
-0.635
 74
     0
  0
LTYPE
  5
60
330
5
100
AcDbSymbolTableRecord
100
AcDbLinetypeTableRecord
  2
SLD-Штрихпункт.-с-двумя-точками
 70
     0
  3
SolidWorks Line Style
 72
    65
 73
     6
 40
12.7
 49
6.35
 74
     0
 49
-1.27
 74
     0
 49
1.27
 74
     0
 49
-1.27
 74
     0
 49
1.27
 74
     0
 49
-1.27
 74
     0
  0
LTYPE
  5
61
330
5
100
AcDbSymbolTableRecord
100
AcDbLinetypeTableRecord
  2
SLD-Штрихпункт.-утолщ.
 70
     0
  3
SolidWorks Line Style
 72
    65
 73
     4
 40
10.16
 49
6.35
 74
     0
 49
-1.27
 74
     0
 49
1.27
 74
     0
 49
-1.27
 74
     0
  0
LTYPE
  5
62
330
5
100
AcDbSymbolTableRecord
100
AcDbLinetypeTableRecord
  2
SLD-Осевая
 70
     0
  3
SolidWorks Line Style
 72
    65
 73
     4
 40
19.05
 49
15.24
 74
     0
 49
-1.27
 74
     0
 49
1.27
 74
     0
 49
-1.27
 74
     0
  0
LTYPE
  5
63
330
5
100
AcDbSymbolTableRecord
100
AcDbLinetypeTableRecord
  2
SLD-Сшитая
 70
     0
  3
SolidWorks Line Style
 72
    65
 73
     2
 40
0.635
 49
0.0
 74
     0
 49
-0.635
 74
     0
  0
LTYPE
  5
64
330
5
100
AcDbSymbolTableRecord
100
AcDbLinetypeTableRecord
  2
SLD-Тонкая-Толстая
 70
     0
  3
SolidWorks Line Style
 72
    65
 73
     2
 40
5.080508
 49
0.000508
 74
     0
 49
-5.08
 74
     0
  0
ENDTAB
  0
TABLE
  2
LAYER
  5
2
330
0
100
AcDbSymbolTable
 70
     3
  0
LAYER
  5
10
330
2
100
AcDbSymbolTableRecord
100
AcDbLayerTableRecord
  2
0
 70
     0
 62
     7
  6
Continuous
370
    -3
390
F
  0
LAYER
  5
65
330
2
100
AcDbSymbolTableRecord
100
AcDbLayerTableRecord
  2
ВОДЯНОЙ_ЗНАК
 70
     0
 62
    11
  6
SLD-Сплошная
370
    -3
390
F
  0
LAYER
  5
66
330
2
100
AcDbSymbolTableRecord
100
AcDbLayerTableRecord
  2
ОСНОВНОЙ
 70
     0
 62
     7
  6
SLD-Сплошная
370
    -3
390
F
  0
ENDTAB
  0
TABLE
  2
STYLE
  5
3
330
0
100
AcDbSymbolTable
 70
     1
  0
STYLE
  5
11
330
3
100
AcDbSymbolTableRecord
100
AcDbTextStyleTableRecord
  2
STANDARD
 70
     0
 40
0.0
 41
1.0
 50
0.0
 71
     0
 42
3.5
  3
GOST-TYPE-A.TTF
  4

1001
ACAD
1000
GOST TYPE A
1071
 16777250
  0
ENDTAB
  0
TABLE
  2
VIEW
  5
6
330
0
100
AcDbSymbolTable
 70
     0
  0
ENDTAB
  0
TABLE
  2
UCS
  5
7
330
0
100
AcDbSymbolTable
 70
     0
  0
ENDTAB
  0
TABLE
  2
APPID
  5
9
330
0
100
AcDbSymbolTable
 70
     1
  0
APPID
  5
12
330
9
100
AcDbSymbolTableRecord
100
AcDbRegAppTableRecord
  2
ACAD
 70
     0
  0
ENDTAB
  0
TABLE
  2
DIMSTYLE
  5
A
330
0
100
AcDbSymbolTable
 70
     1
100
AcDbDimStyleTable
  0
DIMSTYLE
105
27
330
A
100
AcDbSymbolTableRecord
100
AcDbDimStyleTableRecord
  2
ISO-25
 70
     0
 41
2.5
 42
0.625
 43
3.75
 44
1.25
 73
     0
 74
     0
 77
     1
 78
     8
140
2.5
141
2.5
143
0.0393700787
147
0.625
171
     3
172
     1
178
     0
271
     2
272
     2
274
     3
278
    44
283
     0
284
     8
340
11
  0
ENDTAB
  0
TABLE
  2
BLOCK_RECORD
  5
1
330
0
100
AcDbSymbolTable
 70
     1
  0
BLOCK_RECORD
  5
1F
330
1
100
AcDbSymbolTableRecord
100
AcDbBlockTableRecord
  2
*Model_Space
340
22
  0
BLOCK_RECORD
  5
1B
330
1
100
AcDbSymbolTableRecord
100
AcDbBlockTableRecord
  2
*Paper_Space
340
1E
  0
BLOCK_RECORD
  5
23
330
1
100
AcDbSymbolTableRecord
100
AcDbBlockTableRecord
  2
*Paper_Space0
340
26
  0
ENDTAB
  0
ENDSEC
  0
SECTION
  2
BLOCKS
  0
BLOCK
  5
20
330
1F
100
AcDbEntity
  8
0
100
AcDbBlockBegin
  2
*Model_Space
 70
     0
 10
0.0
 20
0.0
 30
0.0
  3
*Model_Space
  1

  0
ENDBLK
  5
21
330
1F
100
AcDbEntity
  8
0
100
AcDbBlockEnd
  0
BLOCK
  5
1C
330
1B
100
AcDbEntity
 67
     1
  8
0
100
AcDbBlockBegin
  2
*Paper_Space
 70
     0
 10
0.0
 20
0.0
 30
0.0
  3
*Paper_Space
  1

  0
ENDBLK
  5
1D
330
1B
100
AcDbEntity
 67
     1
  8
0
100
AcDbBlockEnd
  0
BLOCK
  5
24
330
23
100
AcDbEntity
  8
0
100
AcDbBlockBegin
  2
*Paper_Space0
 70
     0
 10
0.0
 20
0.0
 30
0.0
  3
*Paper_Space0
  1

  0
ENDBLK
  5
25
330
23
100
AcDbEntity
  8
0
100
AcDbBlockEnd
  0
ENDSEC
  0
SECTION
  2
ENTITIES
  0
SPLINE
  5
67
330
1F
100
AcDbEntity
  8
0
  6
SLD-Сплошная
 62
     7
370
    25
100
AcDbSpline
210
0.0
220
0.0
230
1.0
 70
     8
 71
     3
 72
    12
 73
     8
 74
     0
 42
0.00000001
 43
0.00000001
 40
0.0
 40
0.0
 40
0.0
 40
0.0
 40
0.2079683918216647
 40
0.4427660061900539
 40
0.7184634968050555
 40
0.8748623196280627
 40
0.9999999999999999
 40
0.9999999999999999
 40
0.9999999999999999
 40
0.9999999999999999
 10
220.3845801519301
 20
179.7835663529465
 30
0.0
 10
220.3560849552099
 20
179.7888971707378
 30
0.0
 10
220.2954185032702
 20
179.8002465151384
 30
0.0
 10
220.1927057382387
 20
179.7886358615648
 30
0.0
 10
220.1081741242809
 20
179.7574748225044
 30
0.0
 10
220.048393374199
 20
179.7104042066812
 30
0.0
 10
220.0273253771742
 20
179.6785124907993
 30
0.0
 10
220.0179610487555
 20
179.6643372229273
 30
0.0
  0
LINE
  5
68
330
1F
100
AcDbEntity
  8
0
  6
SLD-Сплошная
 62
     7
370
    25
100
AcDbLine
 10
239.9824016322
 20
179.7905040135
 30
0.0
 11
220.3717230403
 21
179.7905040135
 31
0.0
  0
ARC
  5
69
330
1F
100
AcDbEntity
  8
0
  6
SLD-Сплошная
 62
     7
370
    25
100
AcDbCircle
 10
239.9824016322
 20
179.2905040135
 30
0.0
 40
0.5000000000000243
100
AcDbArc
 50
35.8755367871
 51
90.0
  0
LINE
  5
6A
330
1F
100
AcDbEntity
  8
0
  6
SLD-Сплошная
 62
     7
370
    25
100
AcDbLine
 10
219.8824016322
 20
154.1397915568
 30
0.0
 11
219.851959217
 21
153.4425456148
 31
0.0
  0
LINE
  5
6B
330
1F
100
AcDbEntity
  8
0
  6
SLD-Сплошная
 62
     7
370
    25
100
AcDbLine
 10
240.5128440475
 20
153.4425456148
 30
0.0
 11
240.4824016322
 21
154.1397915568
 31
0.0
  0
LINE
  5
6C
330
1F
100
AcDbEntity
  8
0
  6
SLD-Сплошная
 62
     7
370
    25
100
AcDbLine
 10
225.1824016322
 20
174.1449658299
 30
0.0
 11
227.1824016322
 21
174.1449658299
 31
0.0
  0
LINE
  5
6D
330
1F
100
AcDbEntity
  8
0
  6
SLD-Сплошная
 62
     7
370
    25
100
AcDbLine
 10
227.1824016322
 20
174.1449658299
 30
0.0
 11
227.1824016322
 21
160.5696622864
 31
0.0
  0
LINE
  5
6E
330
1F
100
AcDbEntity
  8
0
  6
SLD-Сплошная
 62
     7
370
    25
100
AcDbLine
 10
225.1824016322
 20
160.5696622864
 30
0.0
 11
227.1824016322
 21
160.5696622864
 31
0.0
  0
LINE
  5
6F
330
1F
100
AcDbEntity
  8
0
  6
SLD-Сплошная
 62
     7
370
    25
100
AcDbLine
 10
225.1824016322
 20
160.5696622864
 30
0.0
 11
225.1824016322
 21
174.1449658299
 31
0.0
  0
LINE
  5
70
330
1F
100
AcDbEntity
  8
0
  6
SLD-Сплошная
 62
     7
370
    25
100
AcDbLine
 10
233.1824016322
 20
174.1449658299
 30
0.0
 11
235.1824016322
 21
174.1449658299
 31
0.0
  0
LINE
  5
71
330
1F
100
AcDbEntity
  8
0
  6
SLD-Сплошная
 62
     7
370
    25
100
AcDbLine
 10
233.1824016322
 20
174.1449658299
 30
0.0
 11
233.1824016322
 21
174.4825175719
 31
0.0
  0
LINE
  5
72
330
1F
100
AcDbEntity
  8
0
  6
SLD-Сплошная
 62
     7
370
    25
100
AcDbLine
 10
233.1824016322
 20
174.4825175719
 30
0.0
 11
235.1824016322
 21
174.4825175719
 31
0.0
  0
LINE
  5
73
330
1F
100
AcDbEntity
  8
0
  6
SLD-Сплошная
 62
     7
370
    25
100
AcDbLine
 10
235.1824016322
 20
174.4825175719
 30
0.0
 11
235.1824016322
 21
174.1449658299
 31
0.0
  0
LINE
  5
74
330
1F
100
AcDbEntity
  8
0
  6
SLD-Сплошная
 62
     7
370
    25
100
AcDbLine
 10
235.1824016322
 20
174.1449658299
 30
0.0
 11
235.1824016322
 21
160.5696622864
 31
0.0
  0
LINE
  5
75
330
1F
100
AcDbEntity
  8
0
  6
SLD-Сплошная
 62
     7
370
    25
100
AcDbLine
 10
233.1824016322
 20
160.5696622864
 30
0.0
 11
235.1824016322
 21
160.5696622864
 31
0.0
  0
LINE
  5
76
330
1F
100
AcDbEntity
  8
0
  6
SLD-Сплошная
 62
     7
370
    25
100
AcDbLine
 10
233.1824016322
 20
160.5696622864
 30
0.0
 11
233.1824016322
 21
174.1449658299
 31
0.0
  0
LINE
  5
77
330
1F
100
AcDbEntity
  8
0
  6
SLD-Сплошная
 62
     7
370
    25
100
AcDbLine
 10
225.1824016322
 20
174.4825175719
 30
0.0
 11
227.1824016322
 21
174.4825175719
 31
0.0
  0
LINE
  5
78
330
1F
100
AcDbEntity
  8
0
  6
SLD-Сплошная
 62
     7
370
    25
100
AcDbLine
 10
227.1824016322
 20
174.4825175719
 30
0.0
 11
227.1824016322
 21
174.1449658299
 31
0.0
  0
LINE
  5
79
330
1F
100
AcDbEntity
  8
0
  6
SLD-Сплошная
 62
     7
370
    25
100
AcDbLine
 10
225.1824016322
 20
174.4825175719
 30
0.0
 11
225.1824016322
 21
174.1449658299
 31
0.0
  0
SPLINE
  5
7A
330
1F
100
AcDbEntity
  8
0
  6
SLD-Сплошная
 62
     7
370
    25
100
AcDbSpline
210
0.0
220
0.0
230
1.0
 70
     8
 71
     3
 72
    14
 73
    10
 74
     0
 42
0.00000001
 43
0.00000001
 40
0.0
 40
0.0
 40
0.0
 40
0.0
 40
0.1002627764329212
 40
0.1985752284710734
 40
0.2963241860194633
 40
0.394643061969928
 40
0.4948036846209125
 40
0.7476899894415427
 40
1.0
 40
1.0
 40
1.0
 40
1.0
 10
219.9244341770719
 20
174.290345148132
 30
0.0
 10
219.9325243354222
 20
174.2905302481102
 30
0.0
 10
219.9485472813245
 20
174.290896847478
 30
0.0
 10
219.980788260445
 20
174.2902097757253
 30
0.0
 10
220.0175238340076
 20
174.2897959202359
 30
0.0
 10
220.059155164892
 20
174.2898704991974
 30
0.0
 10
220.1285530870206
 20
174.2906437324461
 30
0.0
 10
220.2357540079099
 20
174.2896919025523
 30
0.0
 10
220.3334617808211
 20
174.2903393687951
 30
0.0
 10
220.3822599380213
 20
174.2906627326234
 30
0.0
  0
SPLINE
  5
7B
330
1F
100
AcDbEntity
  8
0
  6
SLD-Сплошная
 62
     7
370
    25
100
AcDbSpline
210
0.0
220
0.0
230
1.0
 70
     8
 71
     3
 72
    23
 73
    19
 74
     0
 42
0.00000001
 43
0.00000001
 40
0.0
 40
0.0
 40
0.0
 40
0.0
 40
0.008755939353731
 40
0.0345446838273209
 40
0.0755161697105475
 40
0.1035791328750696
 40
0.1359610204187546
 40
0.172661483141734
 40
0.2136801250291124
 40
0.2590165033207683
 40
0.3175804646026406
 40
0.3800687781227686
 40
0.4464810188029115
 40
0.5168167042945604
 40
0.6769972573440207
 40
0.8161810616695523
 40
0.9343325765723429
 40
1.0
 40
1.0
 40
1.0
 40
1.0
 10
219.9242854105888
 20
174.2903444113979
 30
0.0
 10
219.9242391837766
 20
174.313879954704
 30
0.0
 10
219.9240568057877
 20
174.4067344011967
 30
0.0
 10
219.9243279427957
 20
174.6096577273133
 30
0.0
 10
219.9246390515852
 20
174.8638293919174
 30
0.0
 10
219.925104346637
 20
175.1339764814759
 30
0.0
 10
219.925575479813
 20
175.3908816072787
 30
0.0
 10
219.9261425526111
 20
175.6788561754707
 30
0.0
 10
219.9268214063163
 20
175.9956469804625
 30
0.0
 10
219.9275690271323
 20
176.360542227686
 30
0.0
 10
219.9288495374506
 20
176.7659943461517
 30
0.0
 10
219.931176170308
 20
177.2011856706519
 30
0.0
 10
219.9343326640138
 20
177.6350623901559
 30
0.0
 10
219.9401046427257
 20
178.2289622737248
 30
0.0
 10
219.9483237841057
 20
178.8485386335479
 30
0.0
 10
219.9593324390706
 20
179.3177031658062
 30
0.0
 10
219.9690786085841
 20
179.5386492595404
 30
0.0
 10
219.9766620396259
 20
179.5630696471256
 30
0.0
 10
219.9793711422994
 20
179.5717935791992
 30
0.0
  0
SPLINE
  5
7C
330
1F
100
AcDbEntity
  8
0
  6
SLD-Сплошная
 62
     7
370
    25
100
AcDbSpline
210
0.0
220
0.0
230
1.0
 70
     8
 71
     3
 72
    14
 73
    10
 74
     0
 42
0.00000001
 43
0.00000001
 40
0.0
 40
0.0
 40
0.0
 40
0.0
 40
0.1209601639922568
 40
0.2674668033268808
 40
0.4139734426615044
 40
0.5604800819961282
 40
0.7069867213307519
 40
0.8534933606653757
 40
1.0
 40
1.0
 40
1.0
 40
1.0
 10
220.3822825011513
 20
179.7695842932455
 30
0.0
 10
220.3822816463474
 20
179.7589027648493
 30
0.0
 10
220.3822797562073
 20
179.7352837967487
 30
0.0
 10
220.3822768307309
 20
179.3518804359122
 30
0.0
 10
220.3822737247221
 20
178.7087077280095
 30
0.0
 10
220.3822706187134
 20
177.824266633135
 30
0.0
 10
220.3822675127046
 20
176.7556714587151
 30
0.0
 10
220.3822644066958
 20
175.556477355176
 30
0.0
 10
220.3822623360233
 20
174.7126009351504
 30
0.0
 10
220.3822613006871
 20
174.2906627251377
 30
0.0
  0
LINE
  5
7D
330
1F
100
AcDbEntity
  8
0
  6
SLD-Сплошная
 62
     7
370
    25
100
AcDbLine
 10
219.8824016322
 20
158.1545195379
 30
0.0
 11
219.8824016322
 21
171.8020956859
 31
0.0
  0
SPLINE
  5
7E
330
1F
100
AcDbEntity
  8
0
  6
SLD-Сплошная
 62
     7
370
    25
100
AcDbSpline
210
0.0
220
0.0
230
1.0
 70
     8
 71
     3
 72
    13
 73
     9
 74
     0
 42
0.00000001
 43
0.00000001
 40
0.0
 40
0.0
 40
0.0
 40
0.0
 40
0.1166478491268956
 40
0.2499954459910525
 40
0.328758665536164
 40
0.4995160502568128
 40
0.7740369170078265
 40
0.9999999999999999
 40
0.9999999999999999
 40
0.9999999999999999
 40
0.9999999999999999
 10
219.8824016322363
 20
171.802095685905
 30
0.0
 10
219.8828236084018
 20
171.8569114257686
 30
0.0
 10
219.8837279724381
 20
171.9743905343599
 30
0.0
 10
219.8886400119486
 20
172.1305446449512
 30
0.0
 10
219.8965302020254
 20
172.313284886706
 30
0.0
 10
219.9076293521964
 20
172.5650533555748
 30
0.0
 10
219.9207173426757
 20
172.8904522013556
 30
0.0
 10
219.9230781732876
 20
173.1342459561322
 30
0.0
 10
219.9241440627407
 20
173.2443161960907
 30
0.0
  0
LINE
  5
7F
330
1F
100
AcDbEntity
  8
0
  6
SLD-Сплошная
 62
     7
370
    25
100
AcDbLine
 10
219.9241440627
 20
174.2903444138
 30
0.0
 11
219.9241440627
 21
173.2443161961
 31
0.0
  0
LINE
  5
80
330
1F
100
AcDbEntity
  8
0
  6
SLD-Сплошная
 62
     7
370
    25
100
AcDbLine
 10
225.1824016322
 20
171.4081954671
 30
0.0
 11
221.6824016322
 21
171.4081954671
 31
0.0
  0
SPLINE
  5
81
330
1F
100
AcDbEntity
  8
0
  6
SLD-Сплошная
 62
     7
370
    25
100
AcDbSpline
210
0.0
220
0.0
230
1.0
 70
     8
 71
     3
 72
    15
 73
    11
 74
     0
 42
0.00000001
 43
0.00000001
 40
0.0
 40
0.0
 40
0.0
 40
0.0
 40
0.1291289702286209
 40
0.2565981305493369
 40
0.3824076492821085
 40
0.5065577128142197
 40
0.6289758999726844
 40
0.7540668342077678
 40
0.8818304002524624
 40
1.0
 40
1.0
 40
1.0
 40
1.0
 10
240.4406592017319
 20
174.2905040135181
 30
0.0
 10
240.4404906745467
 20
174.6445403810926
 30
0.0
 10
240.4401557864064
 20
175.3480623708155
 30
0.0
 10
240.4374081070592
 20
176.3547450009576
 30
0.0
 10
240.4330034918099
 20
177.2692652954848
 30
0.0
 10
240.4268108684735
 20
178.0601010765515
 30
0.0
 10
240.4186931794862
 20
178.7123161306256
 30
0.0
 10
240.4084998867996
 20
179.2019129753105
 30
0.0
 10
240.3967472031965
 20
179.5199708885563
 30
0.0
 10
240.387490284595
 20
179.5607392705024
 30
0.0
 10
240.3830423836276
 20
179.5803282647782
 30
0.0
  0
LINE
  5
82
330
1F
100
AcDbEntity
  8
0
  6
SLD-Сплошная
 62
     7
370
    25
100
AcDbLine
 10
240.4406592017
 20
173.2443161961
 30
0.0
 11
240.4406592017
 21
174.2905040135
 31
0.0
  0
SPLINE
  5
83
330
1F
100
AcDbEntity
  8
0
  6
SLD-Сплошная
 62
     7
370
    25
100
AcDbSpline
210
0.0
220
0.0
230
1.0
 70
     8
 71
     3
 72
    14
 73
    10
 74
     0
 42
0.00000001
 43
0.00000001
 40
0.0
 40
0.0
 40
0.0
 40
0.0
 40
0.145059135019566
 40
0.3115319841443246
 40
0.4994494779161138
 40
0.6707746166556092
 40
0.7495112596391106
 40
0.8832557950880795
 40
0.9999999999999999
 40
0.9999999999999999
 40
0.9999999999999999
 40
0.9999999999999999
 10
240.4406592017319
 20
173.2443161960907
 30
0.0
 10
240.441122410581
 20
173.1736564819412
 30
0.0
 10
240.4421172074395
 20
173.0219062254332
 30
0.0
 10
240.4488461034571
 20
172.7791075760697
 30
0.0
 10
240.4588718680699
 20
172.5247239283406
 30
0.0
 10
240.4682329781214
 20
172.3142704075512
 30
0.0
 10
240.4761323309017
 20
172.1310676482069
 30
0.0
 10
240.4810661744447
 20
171.9746785924141
 30
0.0
 10
240.4819770871075
 20
171.8569601921024
 30
0.0
 10
240.4824016322363
 20
171.802095685905
 30
0.0
  0
LINE
  5
84
330
1F
100
AcDbEntity
  8
0
  6
SLD-Сплошная
 62
     7
370
    25
100
AcDbLine
 10
240.4824016322
 20
158.1545195379
 30
0.0
 11
240.4824016322
 21
171.8020956859
 31
0.0
  0
SPLINE
  5
85
330
1F
100
AcDbEntity
  8
0
  6
SLD-Сплошная
 62
     7
370
    25
100
AcDbSpline
210
0.0
220
0.0
230
1.0
 70
    24
 71
     3
 72
     8
 73
     4
 74
     0
 42
0.00000001
 43
0.00000001
 40
0.0
 40
0.0
 40
0.0
 40
0.0
 40
1.0
 40
1.0
 40
1.0
 40
1.0
 10
219.8824016322363
 20
154.1397915567862
 30
0.0
 10
219.8824016322363
 20
155.4778987015767
 30
0.0
 10
219.8824016322363
 20
156.8161413619641
 30
0.0
 10
219.8824016322363
 20
158.1545195379483
 30
0.0
  0
SPLINE
  5
86
330
1F
100
AcDbEntity
  8
0
  6
SLD-Сплошная
 62
     7
370
    25
100
AcDbSpline
210
0.0
220
0.0
230
1.0
 70
    24
 71
     3
 72
     8
 73
     4
 74
     0
 42
0.00000001
 43
0.00000001
 40
0.0
 40
0.0
 40
0.0
 40
0.0
 40
1.0
 40
1.0
 40
1.0
 40
1.0
 10
240.4824016322363
 20
154.1397915567862
 30
0.0
 10
240.4824016322363
 20
155.4778309557854
 30
0.0
 10
240.4824016322363
 20
156.816209121478
 30
0.0
 10
240.4824016322363
 20
158.1545195379483
 30
0.0
  0
SPLINE
  5
87
330
1F
100
AcDbEntity
  8
0
  6
SLD-Сплошная
 62
     7
370
    25
100
AcDbSpline
210
0.0
220
0.0
230
1.0
 70
     8
 71
     3
 72
     8
 73
     4
 74
     0
 42
0.00000001
 43
0.00000001
 40
0.0
 40
0.0
 40
0.0
 40
0.0
 40
1.0
 40
1.0
 40
1.0
 40
1.0
 10
221.6824016322363
 20
158.1545195379483
 30
0.0
 10
221.7551205793652
 20
156.7001261249842
 30
0.0
 10
221.8278809621242
 20
155.2458056505134
 30
0.0
 10
221.895308512335
 20
153.7915425308834
 30
0.0
  0
SPLINE
  5
88
330
1F
100
AcDbEntity
  8
0
  6
SLD-Сплошная
 62
     7
370
    25
100
AcDbSpline
210
0.0
220
0.0
230
1.0
 70
     8
 71
     3
 72
     8
 73
     4
 74
     0
 42
0.00000001
 43
0.00000001
 40
0.0
 40
0.0
 40
0.0
 40
0.0
 40
1.0
 40
1.0
 40
1.0
 40
1.0
 10
221.6824016322363
 20
149.430642064881
 30
0.0
 10
221.7551205793699
 20
150.8836512174813
 30
0.0
 10
221.8278809621141
 20
152.3372794113557
 30
0.0
 10
221.895308512335
 20
153.7915425308834
 30
0.0
  0
LINE
  5
89
330
1F
100
AcDbEntity
  8
0
  6
SLD-Сплошная
 62
     7
370
    25
100
AcDbLine
 10
235.1824016322
 20
171.4081954671
 30
0.0
 11
238.6824016322
 21
171.4081954671
 31
0.0
  0
SPLINE
  5
8A
330
1F
100
AcDbEntity
  8
0
  6
SLD-Сплошная
 62
     7
370
    25
100
AcDbSpline
210
0.0
220
0.0
230
1.0
 70
     8
 71
     3
 72
    14
 73
    10
 74
     0
 42
0.00000001
 43
0.00000001
 40
0.0
 40
0.0
 40
0.0
 40
0.0
 40
0.25
 40
0.25
 40
0.5
 40
0.5
 40
0.75
 40
0.75
 40
1.0
 40
1.0
 40
1.0
 40
1.0
 10
222.1824016322363
 20
170.5421700633576
 30
0.0
 10
222.1824016322363
 20
170.6442321359736
 30
0.0
 10
222.1716622628296
 20
170.754344346676
 30
0.0
 10
222.1229293027055
 20
170.9675545189977
 30
0.0
 10
222.0847705592985
 20
171.0699915096905
 30
0.0
 10
221.9871394863607
 20
171.2390934884163
 30
0.0
 10
221.9279974622092
 20
171.3051863707502
 30
0.0
 10
221.8049005118253
 20
171.3895943336883
 30
0.0
 10
221.7413271973352
 20
171.4081954671421
 30
0.0
 10
221.6824016322363
 20
171.4081954671421
 30
0.0
  0
LINE
  5
8B
330
1F
100
AcDbEntity
  8
0
  6
SLD-Сплошная
 62
     7
370
    25
100
AcDbLine
 10
222.1824016322
 20
153.8014140523
 30
0.0
 11
222.1824016322
 21
170.5421700634
 31
0.0
  0
SPLINE
  5
8C
330
1F
100
AcDbEntity
  8
0
  6
SLD-Сплошная
 62
     7
370
    25
100
AcDbSpline
210
0.0
220
0.0
230
1.0
 70
     8
 71
     3
 72
    10
 73
     6
 74
     0
 42
0.00000001
 43
0.00000001
 40
0.0
 40
0.0
 40
0.0
 40
0.0
 40
0.5
 40
0.5
 40
1.0
 40
1.0
 40
1.0
 40
1.0
 10
222.1824016322363
 20
153.8014140523313
 30
0.0
 10
222.1824016322363
 20
153.7994654804396
 30
0.0
 10
222.1564579874659
 20
153.7973524493656
 30
0.0
 10
222.0526834083843
 20
153.793784223908
 30
0.0
 10
221.976109735131
 20
153.7923722596751
 30
0.0
 10
221.895308512335
 20
153.7915425308834
 30
0.0
  0
SPLINE
  5
8D
330
1F
100
AcDbEntity
  8
0
  6
SLD-Сплошная
 62
     7
370
    25
100
AcDbSpline
210
0.0
220
0.0
230
1.0
 70
     8
 71
     3
 72
    14
 73
    10
 74
     0
 42
0.00000001
 43
0.00000001
 40
0.0
 40
0.0
 40
0.0
 40
0.0
 40
0.25
 40
0.25
 40
0.5
 40
0.5
 40
0.75
 40
0.75
 40
1.0
 40
1.0
 40
1.0
 40
1.0
 10
238.1824016322363
 20
170.5421700633576
 30
0.0
 10
238.1824016322363
 20
170.6442321359736
 30
0.0
 10
238.1931410016431
 20
170.754344346676
 30
0.0
 10
238.2418739617672
 20
170.9675545189977
 30
0.0
 10
238.2800327051741
 20
171.0699915096905
 30
0.0
 10
238.377663778112
 20
171.2390934884163
 30
0.0
 10
238.4368058022635
 20
171.3051863707502
 30
0.0
 10
238.5599027526473
 20
171.3895943336883
 30
0.0
 10
238.6234760671375
 20
171.4081954671421
 30
0.0
 10
238.6824016322363
 20
171.4081954671421
 30
0.0
  0
SPLINE
  5
8E
330
1F
100
AcDbEntity
  8
0
  6
SLD-Сплошная
 62
     7
370
    25
100
AcDbSpline
210
0.0
220
0.0
230
1.0
 70
     8
 71
     3
 72
    12
 73
     8
 74
     0
 42
0.00000001
 43
0.00000001
 40
0.0
 40
0.0
 40
0.0
 40
0.0
 40
0.5000000000000122
 40
0.5000000000000122
 40
0.7500000000000061
 40
0.7500000000000061
 40
1.0
 40
1.0
 40
1.0
 40
1.0
 10
238.1824016322363
 20
168.6369141750318
 30
0.0
 10
238.1824016322363
 20
168.5552645169391
 30
0.0
 10
238.1628754176487
 20
168.4596059922438
 30
0.0
 10
238.1042967738861
 20
168.3581448050084
 30
0.0
 10
238.0806399642255
 20
168.3317076520748
 30
0.0
 10
238.0314011840719
 20
168.2979444668996
 30
0.0
 10
238.0059718582759
 20
168.290504013518
 30
0.0
 10
237.9824016322363
 20
168.290504013518
 30
0.0
  0
LINE
  5
8F
330
1F
100
AcDbEntity
  8
0
  6
SLD-Сплошная
 62
     7
370
    25
100
AcDbLine
 10
237.9824016322
 20
168.2905040135
 30
0.0
 11
235.1824016322
 21
168.2905040135
 31
0.0
  0
LINE
  5
90
330
1F
100
AcDbEntity
  8
0
  6
SLD-Сплошная
 62
     7
370
    25
100
AcDbLine
 10
227.1824016322
 20
171.4081954671
 30
0.0
 11
233.1824016322
 21
171.4081954671
 31
0.0
  0
SPLINE
  5
91
330
1F
100
AcDbEntity
  8
0
  6
SLD-Сплошная
 62
     7
370
    25
100
AcDbSpline
210
0.0
220
0.0
230
1.0
 70
     8
 71
     3
 72
     8
 73
     4
 74
     0
 42
0.00000001
 43
0.00000001
 40
0.0
 40
0.0
 40
0.0
 40
0.0
 40
1.0
 40
1.0
 40
1.0
 40
1.0
 10
238.6824016322363
 20
158.1545195379483
 30
0.0
 10
238.60968268511
 20
156.7001261250342
 30
0.0
 10
238.5369223023535
 20
155.2458056506135
 30
0.0
 10
238.4694947521332
 20
153.7915425310343
 30
0.0
  0
SPLINE
  5
92
330
1F
100
AcDbEntity
  8
0
  6
SLD-Сплошная
 62
     7
370
    25
100
AcDbSpline
210
0.0
220
0.0
230
1.0
 70
     8
 71
     3
 72
    10
 73
     6
 74
     0
 42
0.00000001
 43
0.00000001
 40
0.0
 40
0.0
 40
0.0
 40
0.0
 40
0.5
 40
0.5
 40
1.0
 40
1.0
 40
1.0
 40
1.0
 10
238.1824016322363
 20
153.8014140523298
 30
0.0
 10
238.1824016322363
 20
153.7994654804383
 30
0.0
 10
238.2083452770062
 20
153.7973524493645
 30
0.0
 10
238.3121198560859
 20
153.7937842239483
 30
0.0
 10
238.3886935293379
 20
153.792372259758
 30
0.0
 10
238.4694947521332
 20
153.7915425310343
 30
0.0
  0
LINE
  5
93
330
1F
100
AcDbEntity
  8
0
  6
SLD-Сплошная
 62
     7
370
    25
100
AcDbLine
 10
238.1824016322
 20
170.5421700634
 30
0.0
 11
238.1824016322
 21
153.8014140523
 31
0.0
  0
LINE
  5
94
330
1F
100
AcDbEntity
  8
0
  6
SLD-Сплошная
 62
     7
370
    25
100
AcDbLine
 10
227.1824016322
 20
168.2905040135
 30
0.0
 11
233.1824016322
 21
168.2905040135
 31
0.0
  0
SPLINE
  5
95
330
1F
100
AcDbEntity
  8
0
  6
SLD-Сплошная
 62
     7
370
    25
100
AcDbSpline
210
0.0
220
0.0
230
1.0
 70
     8
 71
     3
 72
     8
 73
     4
 74
     0
 42
0.00000001
 43
0.00000001
 40
0.0
 40
0.0
 40
0.0
 40
0.0
 40
1.0
 40
1.0
 40
1.0
 40
1.0
 10
238.6824016322363
 20
149.430642064881
 30
0.0
 10
238.6096826850731
 20
150.8836512175301
 30
0.0
 10
238.5369223023536
 20
152.337279411456
 30
0.0
 10
238.4694947521332
 20
153.7915425310343
 30
0.0
  0
LINE
  5
96
330
1F
100
AcDbEntity
  8
0
  6
SLD-Сплошная
 62
     7
370
    25
100
AcDbLine
 10
222.3824016322
 20
168.2905040135
 30
0.0
 11
225.1824016322
 21
168.2905040135
 31
0.0
  0
SPLINE
  5
97
330
1F
100
AcDbEntity
  8
0
  6
SLD-Сплошная
 62
     7
370
    25
100
AcDbSpline
210
0.0
220
0.0
230
1.0
 70
     8
 71
     3
 72
    12
 73
     8
 74
     0
 42
0.00000001
 43
0.00000001
 40
0.0
 40
0.0
 40
0.0
 40
0.0
 40
0.2499999999999978
 40
0.2499999999999978
 40
0.4999999999999956
 40
0.4999999999999956
 40
1.0
 40
1.0
 40
1.0
 40
1.0
 10
222.3824016322363
 20
168.290504013518
 30
0.0
 10
222.3588314061968
 20
168.2905040135181
 30
0.0
 10
222.3334020804007
 20
168.2979444668996
 30
0.0
 10
222.2841633002472
 20
168.3317076520748
 30
0.0
 10
222.2605064905866
 20
168.3581448050084
 30
0.0
 10
222.2019278468239
 20
168.4596059922438
 30
0.0
 10
222.1824016322363
 20
168.555264516939
 30
0.0
 10
222.1824016322363
 20
168.6369141750318
 30
0.0
  0
SPLINE
  5
98
330
1F
100
AcDbEntity
  8
0
  6
SLD-Сплошная
 62
     7
370
    25
100
AcDbSpline
210
0.0
220
0.0
230
1.0
 70
    24
 71
     3
 72
     8
 73
     4
 74
     0
 42
0.00000001
 43
0.00000001
 40
0.0
 40
0.0
 40
0.0
 40
0.0
 40
1.0
 40
1.0
 40
1.0
 40
1.0
 10
240.8581194566021
 20
149.4960296299375
 30
0.0
 10
240.7430698524613
 20
150.811052622679
 30
0.0
 10
240.6279705352023
 20
152.1266438389624
 30
0.0
 10
240.5128440475023
 20
153.4425456148049
 30
0.0
  0
SPLINE
  5
99
330
1F
100
AcDbEntity
  8
0
  6
SLD-Сплошная
 62
     7
370
    25
100
AcDbSpline
210
0.0
220
0.0
230
1.0
 70
    24
 71
     3
 72
     8
 73
     4
 74
     0
 42
0.00000001
 43
0.00000001
 40
0.0
 40
0.0
 40
0.0
 40
0.0
 40
1.0
 40
1.0
 40
1.0
 40
1.0
 10
219.8519592171918
 20
153.4425456173353
 30
0.0
 10
219.7368327292706
 20
152.1266438389649
 30
0.0
 10
219.6217334120111
 20
150.8110526226759
 30
0.0
 10
219.5066838078705
 20
149.4960296299375
 30
0.0
  0
LINE
  5
9A
330
1F
100
AcDbEntity
  8
0
  6
SLD-Сплошная
 62
     7
370
    25
100
AcDbLine
 10
222.1824016322
 20
128.6072719491
 30
0.0
 11
222.1824016322
 21
153.8014140523
 31
0.0
  0
LINE
  5
9B
330
1F
100
AcDbEntity
  8
0
  6
SLD-Сплошная
 62
     7
370
    25
100
AcDbLine
 10
238.1824016322
 20
128.6072719491
 30
0.0
 11
238.1824016322
 21
153.8014140523
 31
0.0
  0
LINE
  5
9C
330
1F
100
AcDbEntity
  8
0
  6
SLD-Сплошная
 62
     7
370
    25
100
AcDbLine
 10
219.6824016322
 20
168.0601339122
 30
0.0
 11
219.6824016322
 21
173.2443161961
 31
0.0
  0
ARC
  5
9D
330
1F
100
AcDbEntity
  8
0
  6
SLD-Сплошная
 62
     7
370
    25
100
AcDbCircle
 10
219.4824016322
 20
179.5905040135
 30
0.0
 40
0.1999999999999886
100
AcDbArc
 50
0.0
 51
90.0
  0
LINE
  5
9E
330
1F
100
AcDbEntity
  8
0
  6
SLD-Сплошная
 62
     7
370
    25
100
AcDbLine
 10
219.6824016322
 20
174.2905040135
 30
0.0
 11
219.6824016322
 21
179.5905040135
 31
0.0
  0
LINE
  5
9F
330
1F
100
AcDbEntity
  8
0
  6
SLD-Сплошная
 62
     7
370
    25
100
AcDbLine
 10
240.6824016322
 20
179.5905040135
 30
0.0
 11
240.6824016322
 21
174.2905040135
 31
0.0
  0
ARC
  5
A0
330
1F
100
AcDbEntity
  8
0
  6
SLD-Сплошная
 62
     7
370
    25
100
AcDbCircle
 10
240.8824016322
 20
179.5905040135
 30
0.0
 40
0.1999999999999886
100
AcDbArc
 50
90.0
 51
180.0
  0
LINE
  5
A1
330
1F
100
AcDbEntity
  8
0
  6
SLD-Сплошная
 62
     7
370
    25
100
AcDbLine
 10
240.6824016322
 20
173.2443161961
 30
0.0
 11
240.6824016322
 21
168.0601339122
 31
0.0
  0
LINE
  5
A2
330
1F
100
AcDbEntity
  8
0
  6
SLD-Сплошная
 62
     7
370
    25
100
AcDbLine
 10
217.6824016322
 20
179.7905040135
 30
0.0
 11
217.6824016322
 21
174.2905040135
 31
0.0
  0
LINE
  5
A3
330
1F
100
AcDbEntity
  8
0
  6
SLD-Сплошная
 62
     7
370
    25
100
AcDbLine
 10
219.4824016322
 20
179.7905040135
 30
0.0
 11
217.6824016322
 21
179.7905040135
 31
0.0
  0
LINE
  5
A4
330
1F
100
AcDbEntity
  8
0
  6
SLD-Сплошная
 62
     7
370
    25
100
AcDbLine
 10
242.6824016322
 20
167.8645043921
 30
0.0
 11
242.6824016322
 21
173.2443161961
 31
0.0
  0
LINE
  5
A5
330
1F
100
AcDbEntity
  8
0
  6
SLD-Сплошная
 62
     7
370
    25
100
AcDbLine
 10
242.6824016322
 20
179.7905040135
 30
0.0
 11
240.8824016322
 21
179.7905040135
 31
0.0
  0
LINE
  5
A6
330
1F
100
AcDbEntity
  8
0
  6
SLD-Сплошная
 62
     7
370
    25
100
AcDbLine
 10
242.6824016322
 20
174.2905040135
 30
0.0
 11
242.6824016322
 21
179.7905040135
 31
0.0
  0
LINE
  5
A7
330
1F
100
AcDbEntity
  8
0
  6
SLD-Сплошная
 62
     7
370
    25
100
AcDbLine
 10
217.6824016322
 20
167.8645043921
 30
0.0
 11
217.6824016322
 21
173.2443161961
 31
0.0
  0
LINE
  5
A8
330
1F
100
AcDbEntity
  8
0
  6
SLD-Сплошная
 62
     7
370
    25
100
AcDbLine
 10
240.6824016322
 20
174.2905040135
 30
0.0
 11
240.6824016322
 21
173.2443161961
 31
0.0
  0
LINE
  5
A9
330
1F
100
AcDbEntity
  8
0
  6
SLD-Сплошная
 62
     7
370
    25
100
AcDbLine
 10
219.6824016322
 20
173.2443161961
 30
0.0
 11
219.6824016322
 21
174.2905040135
 31
0.0
  0
LINE
  5
AA
330
1F
100
AcDbEntity
  8
0
  6
SLD-Сплошная
 62
     7
370
    25
100
AcDbLine
 10
217.6824016322
 20
173.2443161961
 30
0.0
 11
217.6824016322
 21
174.2905040135
 31
0.0
  0
LINE
  5
AB
330
1F
100
AcDbEntity
  8
0
  6
SLD-Сплошная
 62
     7
370
    25
100
AcDbLine
 10
242.6824016322
 20
173.2443161961
 30
0.0
 11
242.6824016322
 21
174.2905040135
 31
0.0
  0
SPLINE
  5
AC
330
1F
100
AcDbEntity
  8
0
  6
SLD-Сплошная
 62
     7
370
    25
100
AcDbSpline
210
0.0
220
0.0
230
1.0
 70
     8
 71
     3
 72
    18
 73
    14
 74
     0
 42
0.00000001
 43
0.00000001
 40
0.0
 40
0.0
 40
0.0
 40
0.0
 40
0.2499999999999999
 40
0.2499999999999999
 40
0.3749999999999999
 40
0.3749999999999999
 40
0.4999999999999999
 40
0.4999999999999999
 40
0.6249999999999999
 40
0.6249999999999999
 40
0.75
 40
0.75
 40
1.0
 40
1.0
 40
1.0
 40
1.0
 10
242.7445078820816
 20
122.1758449468661
 30
0.0
 10
240.9343369237518
 20
121.1238015239834
 30
0.0
 10
238.9264950835122
 20
120.2659233356803
 30
0.0
 10
235.7359578425931
 20
119.3902113921868
 30
0.0
 10
234.6434775226767
 20
119.1663641078839
 30
0.0
 10
232.4280917978421
 20
118.8664927016803
 30
0.0
 10
231.3052696403347
 20
118.7905040135181
 30
0.0
 10
229.059533624138
 20
118.7905040135181
 30
0.0
 10
227.9367114666305
 20
118.8664927016803
 30
0.0
 10
225.721325741796
 20
119.1663641078839
 30
0.0
 10
224.6288454218796
 20
119.3902113921868
 30
0.0
 10
221.4383081809604
 20
120.2659233356803
 30
0.0
 10
219.4304663407208
 20
121.1238015239834
 30
0.0
 10
217.6202953823911
 20
122.1758449468661
 30
0.0
  0
SPLINE
  5
AD
330
1F
100
AcDbEntity
  8
0
  6
SLD-Сплошная
 62
     7
370
    25
100
AcDbSpline
210
0.0
220
0.0
230
1.0
 70
     8
 71
     3
 72
    16
 73
    12
 74
     0
 42
0.00000001
 43
0.00000001
 40
0.0
 40
0.0
 40
0.0
 40
0.0
 40
0.0783438972000947
 40
0.1582907044433289
 40
0.2401736516653839
 40
0.3243029567497785
 40
0.410964709099279
 40
0.5004206960753617
 40
0.6312367075279769
 40
0.7977101405761122
 40
1.0
 40
1.0
 40
1.0
 40
1.0
 10
217.1414540245443
 20
122.4613294984687
 30
0.0
 10
217.1422211362291
 20
122.4608300701111
 30
0.0
 10
217.1437710546443
 20
122.4598209951306
 30
0.0
 10
217.156470081052
 20
122.4518330780309
 30
0.0
 10
217.1770750680166
 20
122.4391729466522
 30
0.0
 10
217.2064194948076
 20
122.4214111863521
 30
0.0
 10
217.2441558692983
 20
122.3987224995481
 30
0.0
 10
217.2965900496073
 20
122.3673936009805
 30
0.0
 10
217.3724995298676
 20
122.3207720607458
 30
0.0
 10
217.4836252702995
 20
122.2548242020139
 30
0.0
 10
217.5718813640626
 20
122.2038225569506
 30
0.0
 10
217.6202953823911
 20
122.1758449468661
 30
0.0
  0
LINE
  5
AE
330
1F
100
AcDbEntity
  8
0
  6
SLD-Сплошная
 62
     7
370
    25
100
AcDbLine
 10
219.5066838079
 20
149.4960296299
 30
0.0
 11
217.1414540245
 21
122.4613294985
 31
0.0
  0
LINE
  5
AF
330
1F
100
AcDbEntity
  8
0
  6
SLD-Сплошная
 62
     7
370
    25
100
AcDbLine
 10
243.2233492399
 20
122.4613294985
 30
0.0
 11
240.8581194566
 21
149.4960296299
 31
0.0
  0
SPLINE
  5
B0
330
1F
100
AcDbEntity
  8
0
  6
SLD-Сплошная
 62
     7
370
    25
100
AcDbSpline
210
0.0
220
0.0
230
1.0
 70
     8
 71
     3
 72
    15
 73
    11
 74
     0
 42
0.00000001
 43
0.00000001
 40
0.0
 40
0.0
 40
0.0
 40
0.0
 40
0.1004584111455271
 40
0.1840068712179631
 40
0.2506431494921372
 40
0.3821902199796015
 40
0.500231100157279
 40
0.6761221300376893
 40
0.8419135447319638
 40
1.0
 40
1.0
 40
1.0
 40
1.0
 10
242.7445078820816
 20
122.1758449468661
 30
0.0
 10
242.7684178999891
 20
122.1897404618609
 30
0.0
 10
242.8122132132512
 20
122.2151924893119
 30
0.0
 10
242.8708769217638
 20
122.2496914108345
 30
0.0
 10
242.9350438106813
 20
122.2877921354044
 30
0.0
 10
243.0039246477781
 20
122.3285830689537
 30
0.0
 10
243.0871259543092
 20
122.3786533587772
 30
0.0
 10
243.1606213252266
 20
122.4226542034297
 30
0.0
 10
243.2136750676918
 20
122.4550621561251
 30
0.0
 10
243.2201760681468
 20
122.4592737821363
 30
0.0
 10
243.2233492399284
 20
122.4613294984687
 30
0.0
  0
LINE
  5
B1
330
1F
100
AcDbEntity
  8
0
  6
SLD-Сплошная
 62
     7
370
    25
100
AcDbLine
 10
219.9831356854
 20
179.5905040135
 30
0.0
 11
219.6824016322
 21
179.5905040135
 31
0.0
  0
LINE
  5
B2
330
1F
100
AcDbEntity
  8
0
  6
SLD-Сплошная
 62
     7
370
    25
100
AcDbLine
 10
240.6824016322
 20
179.5905040135
 30
0.0
 11
240.381692407
 21
179.5905040135
 31
0.0
  0
SPLINE
  5
B3
330
1F
100
AcDbEntity
  8
0
  6
SLD-Сплошная
 62
     7
370
    25
100
AcDbSpline
210
0.0
220
0.0
230
1.0
 70
     8
 71
     3
 72
    42
 73
    38
 74
     0
 42
0.00000001
 43
0.00000001
 40
0.0
 40
0.0
 40
0.0
 40
0.0
 40
0.0286848549674163
 40
0.0572839004214396
 40
0.0858089638341645
 40
0.1142717127007965
 40
0.1426836733785026
 40
0.1710562483589435
 40
0.1994007321298081
 40
0.2277283257771943
 40
0.2560501504776318
 40
0.2843772600257907
 40
0.312720652541384
 40
0.3410912814963357
 40
0.3695000662009074
 40
0.3979579018850561
 40
0.4264756695088196
 40
0.4550642454329409
 40
0.4837345110782348
 40
0.5124855166967718
 40
0.5412449400156244
 40
0.5699985828326956
 40
0.5987461690022507
 40
0.6274871630032278
 40
0.6562208024569663
 40
0.6849461298600285
 40
0.7136620237309863
 40
0.742367229375214
 40
0.7710603894778928
 40
0.7997400747428467
 40
0.8284048148036391
 40
0.8570531296438156
 40
0.8856835617754041
 40
0.9142947094390016
 40
0.9428852611050965
 40
0.9714540315749048
 40
1.0
 40
1.0
 40
1.0
 40
1.0
 10
237.5388956139846
 20
124.0953204883888
 30
0.0
 10
237.4040747436075
 20
124.0453897175599
 30
0.0
 10
237.1348363137049
 20
123.9456775416617
 30
0.0
 10
236.7277548201697
 20
123.8068289404798
 30
0.0
 10
236.3191819985946
 20
123.6761104000888
 30
0.0
 10
235.9088515879992
 20
123.5542384027753
 30
0.0
 10
235.4968538782735
 20
123.4409890755074
 30
0.0
 10
235.0831836985265
 20
123.336396504824
 30
0.0
 10
234.66786115983
 20
123.2404324897369
 30
0.0
 10
234.2508994345189
 20
123.153091879278
 30
0.0
 10
233.832313410009
 20
123.0743695588638
 30
0.0
 10
233.4121174123508
 20
123.0042664351431
 30
0.0
 10
232.9903258537396
 20
122.9427877001732
 30
0.0
 10
232.5669530954012
 20
122.8899431560004
 30
0.0
 10
232.1420135253193
 20
122.8457471421771
 30
0.0
 10
231.7155215594964
 20
122.8102181182249
 30
0.0
 10
231.2874917338648
 20
122.7833801527169
 30
0.0
 10
230.8579385096205
 20
122.7652572312927
 30
0.0
 10
230.4269365003717
 20
122.7558958863648
 30
0.0
 10
229.9949753094831
 20
122.7552791817092
 30
0.0
 10
229.5626791284235
 20
122.7638393302404
 30
0.0
 10
229.1306759061625
 20
122.7814635722835
 30
0.0
 10
228.6992265369095
 20
122.8080858966865
 30
0.0
 10
228.2685217814044
 20
122.8436329512354
 30
0.0
 10
227.8387526706812
 20
122.8880393677567
 30
0.0
 10
227.4101109368449
 20
122.9412432080431
 30
0.0
 10
226.9827891149633
 20
123.0031871480216
 30
0.0
 10
226.5569807248872
 20
123.0738181103861
 30
0.0
 10
226.1328804952639
 20
123.1530874848389
 30
0.0
 10
225.7106843790541
 20
123.2409506674777
 30
0.0
 10
225.2905904074143
 20
123.3373688535861
 30
0.0
 10
224.8727964553765
 20
123.4423026235595
 30
0.0
 10
224.4575095747816
 20
123.5557361995214
 30
0.0
 10
224.0449122542616
 20
123.6775874493517
 30
0.0
 10
223.6352893306153
 20
123.8080439536819
 30
0.0
 10
223.228556057805
 20
123.9463108010405
 30
0.0
 10
222.9600880245992
 20
124.0456637061872
 30
0.0
 10
222.8259075985424
 20
124.0953203263194
 30
0.0
  0
ARC
  5
B4
330
1F
100
AcDbEntity
  8
0
  6
SLD-Сплошная
 62
     7
370
    25
100
AcDbCircle
 10
230.1824016322
 20
143.7905040135
 30
0.0
 40
23.52922000190503
100
AcDbArc
 50
0.0
 51
64.0393624696
  0
ARC
  5
B5
330
1F
100
AcDbEntity
  8
0
  6
SLD-Сплошная
 62
     7
370
    25
100
AcDbCircle
 10
230.1824016322
 20
143.7905040135
 30
0.0
 40
23.52922000190505
100
AcDbArc
 50
303.2376170863
 51
0.0
  0
LINE
  5
B6
330
1F
100
AcDbEntity
  8
0
  6
SLD-Сплошная
 62
     7
370
    25
100
AcDbLine
 10
224.2057266322
 20
151.0889988635
 30
0.0
 11
225.6944766322
 21
151.0889988635
 31
0.0
  0
LINE
  5
B7
330
1F
100
AcDbEntity
  8
0
  6
SLD-Сплошная
 62
     7
370
    25
100
AcDbLine
 10
225.6944766322
 20
151.0889988635
 30
0.0
 11
225.6944766322
 21
148.1113687135
 31
0.0
  0
LINE
  5
B8
330
1F
100
AcDbEntity
  8
0
  6
SLD-Сплошная
 62
     7
370
    25
100
AcDbLine
 10
225.6944766322
 20
148.1113687135
 30
0.0
 11
224.2057266322
 21
148.1113687135
 31
0.0
  0
LINE
  5
B9
330
1F
100
AcDbEntity
  8
0
  6
SLD-Сплошная
 62
     7
370
    25
100
AcDbLine
 10
224.2057266322
 20
148.1113687135
 30
0.0
 11
224.2057266322
 21
151.0889988635
 31
0.0
  0
ARC
  5
BA
330
1F
100
AcDbEntity
  8
0
  6
SLD-Сплошная
 62
     7
370
    25
100
AcDbCircle
 10
230.1824016322
 20
143.7905040135
 30
0.0
 40
23.53085363013867
100
AcDbArc
 50
303.2354808899
 51
0.0
  0
ARC
  5
BB
330
1F
100
AcDbEntity
  8
0
  6
SLD-Сплошная
 62
     7
370
    25
100
AcDbCircle
 10
235.4324016322
 20
155.2905040135
 30
0.0
 40
1.5
100
AcDbArc
 50
0.0
 51
90.0
  0
LINE
  5
BC
330
1F
100
AcDbEntity
  8
0
  6
SLD-Сплошная
 62
     7
370
    25
100
AcDbLine
 10
224.9324016322
 20
156.7905040135
 30
0.0
 11
235.4324016322
 21
156.7905040135
 31
0.0
  0
ARC
  5
BD
330
1F
100
AcDbEntity
  8
0
  6
SLD-Сплошная
 62
     7
370
    25
100
AcDbCircle
 10
224.9324016322
 20
155.2905040135
 30
0.0
 40
1.5
100
AcDbArc
 50
90.0
 51
180.0
  0
ARC
  5
BE
330
1F
100
AcDbEntity
  8
0
  6
SLD-Сплошная
 62
     7
370
    25
100
AcDbCircle
 10
224.9324016322
 20
138.2905040135
 30
0.0
 40
1.5
100
AcDbArc
 50
180.0
 51
270.0
  0
LINE
  5
BF
330
1F
100
AcDbEntity
  8
0
  6
SLD-Сплошная
 62
     7
370
    25
100
AcDbLine
 10
235.4324016322
 20
136.7905040135
 30
0.0
 11
224.9324016322
 21
136.7905040135
 31
0.0
  0
ARC
  5
C0
330
1F
100
AcDbEntity
  8
0
  6
SLD-Сплошная
 62
     7
370
    25
100
AcDbCircle
 10
235.4324016322
 20
138.2905040135
 30
0.0
 40
1.5
100
AcDbArc
 50
270.0
 51
0.0
  0
LINE
  5
C1
330
1F
100
AcDbEntity
  8
0
  6
SLD-Сплошная
 62
     7
370
    25
100
AcDbLine
 10
236.9324016322
 20
155.2905040135
 30
0.0
 11
236.9324016322
 21
138.2905040135
 31
0.0
  0
LINE
  5
C2
330
1F
100
AcDbEntity
  8
0
  6
SLD-Сплошная
 62
     7
370
    25
100
AcDbLine
 10
223.4324016322
 20
138.2905040135
 30
0.0
 11
223.4324016322
 21
155.2905040135
 31
0.0
  0
LINE
  5
C3
330
1F
100
AcDbEntity
  8
0
  6
SLD-Сплошная
 62
     7
370
    25
100
AcDbLine
 10
230.6226586972
 20
151.5143790135
 30
0.0
 11
226.1198516322
 21
151.5143790135
 31
0.0
  0
LINE
  5
C4
330
1F
100
AcDbEntity
  8
0
  6
SLD-Сплошная
 62
     7
370
    25
100
AcDbLine
 10
230.6226586972
 20
152.7905040135
 30
0.0
 11
230.6226586972
 21
151.5143790135
 31
0.0
  0
LINE
  5
C5
330
1F
100
AcDbEntity
  8
0
  6
SLD-Сплошная
 62
     7
370
    25
100
AcDbLine
 10
226.1198516322
 20
151.5143790135
 30
0.0
 11
226.1198516322
 21
152.7905040135
 31
0.0
  0
LINE
  5
C6
330
1F
100
AcDbEntity
  8
0
  6
SLD-Сплошная
 62
     7
370
    25
100
AcDbLine
 10
226.1198516322
 20
152.7905040135
 30
0.0
 11
230.6226586972
 21
152.7905040135
 31
0.0
  0
ARC
  5
C7
330
1F
100
AcDbEntity
  8
0
  6
SLD-Сплошная
 62
     7
370
    25
100
AcDbCircle
 10
230.1824016322
 20
143.7905040135
 30
0.0
 40
23.53085363013867
100
AcDbArc
 50
0.0
 51
64.0412991534
  0
LINE
  5
C8
330
1F
100
AcDbEntity
  8
0
  6
SLD-Сплошная
 62
     7
370
    25
100
AcDbLine
 10
230.6226586972
 20
151.0889988635
 30
0.0
 11
230.6226586972
 21
149.8128738635
 31
0.0
  0
LINE
  5
C9
330
1F
100
AcDbEntity
  8
0
  6
SLD-Сплошная
 62
     7
370
    25
100
AcDbLine
 10
227.6086016322
 20
149.8128738635
 30
0.0
 11
227.6086016322
 21
149.3874937135
 31
0.0
  0
LINE
  5
CA
330
1F
100
AcDbEntity
  8
0
  6
SLD-Сплошная
 62
     7
370
    25
100
AcDbLine
 10
230.6226586972
 20
149.3874937135
 30
0.0
 11
230.6226586972
 21
148.1113687135
 31
0.0
  0
LINE
  5
CB
330
1F
100
AcDbEntity
  8
0
  6
SLD-Сплошная
 62
     7
370
    25
100
AcDbLine
 10
226.1198516322
 20
151.0889988635
 30
0.0
 11
230.6226586972
 21
151.0889988635
 31
0.0
  0
LINE
  5
CC
330
1F
100
AcDbEntity
  8
0
  6
SLD-Сплошная
 62
     7
370
    25
100
AcDbLine
 10
230.6226586972
 20
148.1113687135
 30
0.0
 11
226.1198516322
 21
148.1113687135
 31
0.0
  0
LINE
  5
CD
330
1F
100
AcDbEntity
  8
0
  6
SLD-Сплошная
 62
     7
370
    25
100
AcDbLine
 10
227.6086016322
 20
149.3874937135
 30
0.0
 11
230.6226586972
 21
149.3874937135
 31
0.0
  0
LINE
  5
CE
330
1F
100
AcDbEntity
  8
0
  6
SLD-Сплошная
 62
     7
370
    25
100
AcDbLine
 10
230.6226586972
 20
149.8128738635
 30
0.0
 11
227.6086016322
 21
149.8128738635
 31
0.0
  0
LINE
  5
CF
330
1F
100
AcDbEntity
  8
0
  6
SLD-Сплошная
 62
     7
370
    25
100
AcDbLine
 10
226.1198516322
 20
148.1113687135
 30
0.0
 11
226.1198516322
 21
151.0889988635
 31
0.0
  0
LINE
  5
D0
330
1F
100
AcDbEntity
  8
0
  6
SLD-Сплошная
 62
     7
370
    25
100
AcDbLine
 10
224.2057266322
 20
152.7905040135
 30
0.0
 11
225.6944766322
 21
152.7905040135
 31
0.0
  0
LINE
  5
D1
330
1F
100
AcDbEntity
  8
0
  6
SLD-Сплошная
 62
     7
370
    25
100
AcDbLine
 10
225.6944766322
 20
152.7905040135
 30
0.0
 11
225.6944766322
 21
151.5143790135
 31
0.0
  0
LINE
  5
D2
330
1F
100
AcDbEntity
  8
0
  6
SLD-Сплошная
 62
     7
370
    25
100
AcDbLine
 10
224.2057266322
 20
151.5143790135
 30
0.0
 11
224.2057266322
 21
152.7905040135
 31
0.0
  0
LINE
  5
D3
330
1F
100
AcDbEntity
  8
0
  6
SLD-Сплошная
 62
     7
370
    25
100
AcDbLine
 10
225.6944766322
 20
151.5143790135
 30
0.0
 11
224.2057266322
 21
151.5143790135
 31
0.0
  0
ARC
  5
D4
330
1F
100
AcDbEntity
  8
0
  6
SLD-Сплошная
 62
     7
370
    25
100
AcDbCircle
 10
230.1824016322
 20
143.7905040135
 30
0.0
 40
23.53085363013866
100
AcDbArc
 50
115.9587008466
 51
236.7645191101
  0
ARC
  5
D5
330
1F
100
AcDbEntity
  8
0
  6
SLD-Сплошная
 62
     7
370
    25
100
AcDbCircle
 10
230.1824016322
 20
143.7905040135
 30
0.0
 40
23.52922000190503
100
AcDbArc
 50
115.9606375304
 51
236.7623829137
  0
LINE
  5
D6
330
1F
100
AcDbEntity
  8
0
  6
SLD-Сплошная
 62
     7
370
    25
100
AcDbLine
 10
232.5367888472
 20
152.7905040135
 30
0.0
 11
232.5367888472
 21
150.5106751515
 31
0.0
  0
LINE
  5
D7
330
1F
100
AcDbEntity
  8
0
  6
SLD-Сплошная
 62
     7
370
    25
100
AcDbLine
 10
232.5867888472
 20
150.5106751515
 30
0.0
 11
234.4949534917
 21
152.7905040135
 31
0.0
  0
LINE
  5
D8
330
1F
100
AcDbEntity
  8
0
  6
SLD-Сплошная
 62
     7
370
    25
100
AcDbLine
 10
234.4949534917
 20
152.7905040135
 30
0.0
 11
236.1590766322
 21
152.7905040135
 31
0.0
  0
LINE
  5
D9
330
1F
100
AcDbEntity
  8
0
  6
SLD-Сплошная
 62
     7
370
    25
100
AcDbLine
 10
234.2009119878
 20
150.4509363635
 30
0.0
 11
236.1590766322
 21
148.1113687135
 31
0.0
  0
LINE
  5
DA
330
1F
100
AcDbEntity
  8
0
  6
SLD-Сплошная
 62
     7
370
    25
100
AcDbLine
 10
236.1590766322
 20
148.1113687135
 30
0.0
 11
234.4949534917
 21
148.1113687135
 31
0.0
  0
LINE
  5
DB
330
1F
100
AcDbEntity
  8
0
  6
SLD-Сплошная
 62
     7
370
    25
100
AcDbLine
 10
234.4949534917
 20
148.1113687135
 30
0.0
 11
232.5867888472
 21
150.3911975756
 31
0.0
  0
LINE
  5
DC
330
1F
100
AcDbEntity
  8
0
  6
SLD-Сплошная
 62
     7
370
    25
100
AcDbLine
 10
232.5867888472
 20
150.3911975756
 30
0.0
 11
232.5367888472
 21
150.3911975755
 31
0.0
  0
LINE
  5
DD
330
1F
100
AcDbEntity
  8
0
  6
SLD-Сплошная
 62
     7
370
    25
100
AcDbLine
 10
232.5367888472
 20
150.3911975755
 30
0.0
 11
232.5367888472
 21
148.1113687135
 31
0.0
  0
LINE
  5
DE
330
1F
100
AcDbEntity
  8
0
  6
SLD-Сплошная
 62
     7
370
    25
100
AcDbLine
 10
232.5367888472
 20
148.1113687135
 30
0.0
 11
231.0480388472
 21
148.1113687135
 31
0.0
  0
LINE
  5
DF
330
1F
100
AcDbEntity
  8
0
  6
SLD-Сплошная
 62
     7
370
    25
100
AcDbLine
 10
231.0480388472
 20
148.1113687135
 30
0.0
 11
231.0480388472
 21
152.7905040135
 31
0.0
  0
LINE
  5
E0
330
1F
100
AcDbEntity
  8
0
  6
SLD-Сплошная
 62
     7
370
    25
100
AcDbLine
 10
232.5367888472
 20
150.5106751515
 30
0.0
 11
232.5867888472
 21
150.5106751515
 31
0.0
  0
LINE
  5
E1
330
1F
100
AcDbEntity
  8
0
  6
SLD-Сплошная
 62
     7
370
    25
100
AcDbLine
 10
236.1590766322
 20
152.7905040135
 30
0.0
 11
234.2009119878
 21
150.4509363635
 31
0.0
  0
LINE
  5
E2
330
1F
100
AcDbEntity
  8
0
  6
SLD-Сплошная
 62
     7
370
    25
100
AcDbLine
 10
231.0480388472
 20
152.7905040135
 30
0.0
 11
232.5367888472
 21
152.7905040135
 31
0.0
  0
LINE
  5
E3
330
1F
100
AcDbEntity
  8
0
  6
SLD-Сплошная
 62
     7
370
    25
100
AcDbLine
 10
219.6824016322
 20
167.1882413583
 30
0.0
 11
219.6824016322
 21
168.0601339122
 31
0.0
  0
LINE
  5
E4
330
1F
100
AcDbEntity
  8
0
  6
SLD-Сплошная
 62
     7
370
    25
100
AcDbLine
 10
240.6824016322
 20
168.0601339122
 30
0.0
 11
240.6824016322
 21
167.1882413583
 31
0.0
  0
LINE
  5
E5
330
1F
100
AcDbEntity
  8
0
  6
SLD-Сплошная
 62
     7
370
    25
100
AcDbLine
 10
217.6824016322
 20
166.941261927
 30
0.0
 11
219.5635945215
 21
166.941261927
 31
0.0
  0
LINE
  5
E6
330
1F
100
AcDbEntity
  8
0
  6
SLD-Сплошная
 62
     7
370
    25
100
AcDbLine
 10
217.6824016322
 20
166.941261927
 30
0.0
 11
217.6824016322
 21
167.8645043921
 31
0.0
  0
LINE
  5
E7
330
1F
100
AcDbEntity
  8
0
  6
SLD-Сплошная
 62
     7
370
    25
100
AcDbLine
 10
240.801208743
 20
166.941261927
 30
0.0
 11
242.6824016322
 21
166.941261927
 31
0.0
  0
LINE
  5
E8
330
1F
100
AcDbEntity
  8
0
  6
SLD-Сплошная
 62
     7
370
    25
100
AcDbLine
 10
242.6824016322
 20
166.941261927
 30
0.0
 11
242.6824016322
 21
167.8645043921
 31
0.0
  0
LINE
  5
E9
330
1F
100
AcDbEntity
  8
0
  6
SLD-Сплошная
 62
     7
370
    25
100
AcDbLine
 10
240.6824016322
 20
167.1882413583
 30
0.0
 11
240.4824016322
 21
167.1882413583
 31
0.0
  0
LINE
  5
EA
330
1F
100
AcDbEntity
  8
0
  6
SLD-Сплошная
 62
     7
370
    25
100
AcDbLine
 10
219.8824016322
 20
167.1882413583
 30
0.0
 11
219.6824016322
 21
167.1882413583
 31
0.0
  0
LINE
  5
EB
330
1F
100
AcDbEntity
  8
0
  6
SLD-Сплошная
 62
     7
370
    25
100
AcDbLine
 10
219.4824016322
 20
179.7905040135
 30
0.0
 11
220.2470037408
 21
179.7905040135
 31
0.0
  0
LINE
  5
EC
330
1F
100
AcDbEntity
  8
0
  6
SLD-Сплошная
 62
     7
370
    25
100
AcDbLine
 10
220.3717230403
 20
179.7905040135
 30
0.0
 11
240.8824016322
 21
179.7905040135
 31
0.0
  0
SPLINE
  5
ED
330
1F
100
AcDbEntity
  8
0
  6
SLD-Сплошная
 62
     7
370
    25
100
AcDbSpline
210
0.0
220
0.0
230
1.0
 70
     8
 71
     3
 72
    11
 73
     7
 74
     0
 42
0.00000001
 43
0.00000001
 40
0.0
 40
0.0
 40
0.0
 40
0.0
 40
0.2932901877679122
 40
0.5518092008134474
 40
0.7836686206872205
 40
1.0
 40
1.0
 40
1.0
 40
1.0
 10
219.882401632254
 20
167.1032187336277
 30
0.0
 10
219.8562131651198
 20
167.0786618722154
 30
0.0
 10
219.8069410185476
 20
167.0324595012002
 30
0.0
 10
219.7257821855226
 20
166.9809927645918
 30
0.0
 10
219.6449493702687
 20
166.9475916384654
 30
0.0
 10
219.5900791253181
 20
166.9433225282128
 30
0.0
 10
219.5635945214508
 20
166.9412619269889
 30
0.0
  0
SPLINE
  5
EE
330
1F
100
AcDbEntity
  8
0
  6
SLD-Сплошная
 62
     7
370
    25
100
AcDbSpline
210
0.0
220
0.0
230
1.0
 70
     8
 71
     3
 72
    13
 73
     9
 74
     0
 42
0.00000001
 43
0.00000001
 40
0.0
 40
0.0
 40
0.0
 40
0.0
 40
0.1432192223015413
 40
0.2914332645400337
 40
0.4483681751997887
 40
0.6171734986881637
 40
0.8003876233602306
 40
0.9999999999999999
 40
0.9999999999999999
 40
0.9999999999999999
 40
0.9999999999999999
 10
240.8012087430218
 20
166.9412619269889
 30
0.0
 10
240.7836817954447
 20
166.9421526668975
 30
0.0
 10
240.7480166419286
 20
166.9439652115772
 30
0.0
 10
240.6947540261653
 20
166.9583899704771
 30
0.0
 10
240.6413451975471
 20
166.9811941293221
 30
0.0
 10
240.5878514543677
 20
167.0132763705521
 30
0.0
 10
240.5339235172697
 20
167.0540090883946
 30
0.0
 10
240.5000591175276
 20
167.0863536948908
 30
0.0
 10
240.4824016322363
 20
167.1032187336278
 30
0.0
  0
ARC
  5
EF
330
1F
100
AcDbEntity
  8
0
  6
SLD-Сплошная
 62
     7
370
    25
100
AcDbCircle
 10
211.1824016322
 20
162.7905040135
 30
0.0
 40
2.999308849592609
100
AcDbArc
 50
0.0
 51
180.0
  0
ARC
  5
F0
330
1F
100
AcDbEntity
  8
0
  6
SLD-Сплошная
 62
     7
370
    25
100
AcDbCircle
 10
211.1824016322
 20
162.7905040135
 30
0.0
 40
2.999308849592609
100
AcDbArc
 50
180.0
 51
0.0
  0
ARC
  5
F1
330
1F
100
AcDbEntity
  8
0
  6
SLD-Сплошная
 62
     7
370
    25
100
AcDbCircle
 10
211.1824016322
 20
124.7905040135
 30
0.0
 40
2.999308849592609
100
AcDbArc
 50
0.0
 51
180.0
  0
ARC
  5
F2
330
1F
100
AcDbEntity
  8
0
  6
SLD-Сплошная
 62
     7
370
    25
100
AcDbCircle
 10
211.1824016322
 20
124.7905040135
 30
0.0
 40
2.999308849592609
100
AcDbArc
 50
180.0
 51
0.0
  0
ARC
  5
F3
330
1F
100
AcDbEntity
  8
0
  6
SLD-Сплошная
 62
     7
370
    25
100
AcDbCircle
 10
249.1824016322
 20
124.7905040135
 30
0.0
 40
2.999308849589312
100
AcDbArc
 50
0.0
 51
180.0
  0
ARC
  5
F4
330
1F
100
AcDbEntity
  8
0
  6
SLD-Сплошная
 62
     7
370
    25
100
AcDbCircle
 10
249.1824016322
 20
124.7905040135
 30
0.0
 40
2.999308849589312
100
AcDbArc
 50
180.0
 51
0.0
  0
ARC
  5
F5
330
1F
100
AcDbEntity
  8
0
  6
SLD-Сплошная
 62
     7
370
    25
100
AcDbCircle
 10
249.1824016322
 20
162.7905040135
 30
0.0
 40
2.999308849589312
100
AcDbArc
 50
0.0
 51
180.0
  0
ARC
  5
F6
330
1F
100
AcDbEntity
  8
0
  6
SLD-Сплошная
 62
     7
370
    25
100
AcDbCircle
 10
249.1824016322
 20
162.7905040135
 30
0.0
 40
2.999308849589312
100
AcDbArc
 50
180.0
 51
0.0
  0
LINE
  5
F7
330
1F
100
AcDbEntity
  8
0
  6
SLD-Сплошная
 62
     7
370
    25
100
AcDbLine
 10
255.2109404242
 20
168.8190428055
 30
0.0
 11
255.2109404242
 21
118.7619652216
 31
0.0
  0
LINE
  5
F8
330
1F
100
AcDbEntity
  8
0
  6
SLD-Сплошная
 62
     7
370
    25
100
AcDbLine
 10
205.1538628403
 20
118.7619652216
 30
0.0
 11
255.2109404242
 21
118.7619652216
 31
0.0
  0
LINE
  5
F9
330
1F
100
AcDbEntity
  8
0
  6
SLD-Сплошная
 62
     7
370
    25
100
AcDbLine
 10
205.1538628403
 20
168.8190428055
 30
0.0
 11
205.1538628403
 21
118.7619652216
 31
0.0
  0
LINE
  5
FA
330
1F
100
AcDbEntity
  8
0
  6
SLD-Сплошная
 62
     7
370
    25
100
AcDbLine
 10
217.6824016322
 20
168.8190428055
 30
0.0
 11
205.1538628403
 21
168.8190428055
 31
0.0
  0
LINE
  5
FB
330
1F
100
AcDbEntity
  8
0
  6
SLD-Сплошная
 62
     7
370
    25
100
AcDbLine
 10
242.6824016322
 20
168.8190428055
 30
0.0
 11
255.2109404242
 21
168.8190428055
 31
0.0
  0
ARC
  5
FC
330
1F
100
AcDbEntity
  8
0
  6
SLD-Сплошная
 62
     7
370
    25
100
AcDbCircle
 10
249.1824016322
 20
162.7905040135
 30
0.0
 40
2.099999999998886
100
AcDbArc
 50
180.0
 51
0.0
  0
ARC
  5
FD
330
1F
100
AcDbEntity
  8
0
  6
SLD-Сплошная
 62
     7
370
    25
100
AcDbCircle
 10
249.1824016322
 20
162.7905040135
 30
0.0
 40
2.099999999998886
100
AcDbArc
 50
0.0
 51
180.0
  0
ARC
  5
FE
330
1F
100
AcDbEntity
  8
0
  6
SLD-Сплошная
 62
     7
370
    25
100
AcDbCircle
 10
211.1824016322
 20
124.7905040135
 30
0.0
 40
2.099999999998602
100
AcDbArc
 50
180.0
 51
0.0
  0
ARC
  5
FF
330
1F
100
AcDbEntity
  8
0
  6
SLD-Сплошная
 62
     7
370
    25
100
AcDbCircle
 10
211.1824016322
 20
124.7905040135
 30
0.0
 40
2.099999999998602
100
AcDbArc
 50
0.0
 51
180.0
  0
ARC
  5
100
330
1F
100
AcDbEntity
  8
0
  6
SLD-Сплошная
 62
     7
370
    25
100
AcDbCircle
 10
249.1824016322
 20
124.7905040135
 30
0.0
 40
2.099999999998886
100
AcDbArc
 50
180.0
 51
0.0
  0
ARC
  5
101
330
1F
100
AcDbEntity
  8
0
  6
SLD-Сплошная
 62
     7
370
    25
100
AcDbCircle
 10
249.1824016322
 20
124.7905040135
 30
0.0
 40
2.099999999998886
100
AcDbArc
 50
0.0
 51
180.0
  0
ARC
  5
102
330
1F
100
AcDbEntity
  8
0
  6
SLD-Сплошная
 62
     7
370
    25
100
AcDbCircle
 10
211.1824016322
 20
162.7905040135
 30
0.0
 40
2.099999999998602
100
AcDbArc
 50
180.0
 51
0.0
  0
ARC
  5
103
330
1F
100
AcDbEntity
  8
0
  6
SLD-Сплошная
 62
     7
370
    25
100
AcDbCircle
 10
211.1824016322
 20
162.7905040135
 30
0.0
 40
2.099999999998602
100
AcDbArc
 50
0.0
 51
180.0
  0
LINE
  5
104
330
1F
100
AcDbEntity
  8
0
  6
SLD-Сплошная
 62
     7
370
    25
100
AcDbLine
 10
158.5582017724
 20
122.7905040135
 30
0.0
 11
175.3582017724
 21
122.7905040135
 31
0.0
  0
LINE
  5
105
330
1F
100
AcDbEntity
  8
0
  6
SLD-Сплошная
 62
     7
370
    25
100
AcDbLine
 10
175.3582017724
 20
164.7905040135
 30
0.0
 11
158.5582017724
 21
164.7905040135
 31
0.0
  0
LINE
  5
106
330
1F
100
AcDbEntity
  8
0
  6
SLD-Сплошная
 62
     7
370
    25
100
AcDbLine
 10
185.7582017724
 20
148.4897186153
 30
0.0
 11
183.2582017724
 21
148.4905040135
 31
0.0
  0
LINE
  5
107
330
1F
100
AcDbEntity
  8
0
  6
SLD-Сплошная
 62
     7
370
    25
100
AcDbLine
 10
183.2582017724
 20
139.0905040135
 30
0.0
 11
185.7582017724
 21
139.0912894117
 31
0.0
  0
LINE
  5
108
330
1F
100
AcDbEntity
  8
0
  6
SLD-Сплошная
 62
     7
370
    25
100
AcDbLine
 10
143.7843580044
 20
118.7905040135
 30
0.0
 11
149.2582017724
 21
118.7905040135
 31
0.0
  0
LINE
  5
109
330
1F
100
AcDbEntity
  8
0
  6
SLD-Сплошная
 62
     7
370
    25
100
AcDbLine
 10
185.7582017724
 20
139.0207380634
 30
0.0
 11
183.2582017724
 21
139.0215234616
 31
0.0
  0
LINE
  5
10A
330
1F
100
AcDbEntity
  8
0
  6
SLD-Сплошная
 62
     7
370
    25
100
AcDbLine
 10
183.2582017724
 20
131.5594845655
 30
0.0
 11
185.7582017724
 21
131.5602699637
 31
0.0
  0
LINE
  5
10B
330
1F
100
AcDbEntity
  8
0
  6
SLD-Сплошная
 62
     7
370
    25
100
AcDbLine
 10
149.2582017724
 20
121.5847847013
 30
0.0
 11
151.0582017724
 21
121.4904506987
 31
0.0
  0
LINE
  5
10C
330
1F
100
AcDbEntity
  8
0
  6
SLD-Сплошная
 62
     7
370
    25
100
AcDbLine
 10
151.0582017724
 20
166.0905573283
 30
0.0
 11
149.2582017724
 21
165.9962233257
 31
0.0
  0
LINE
  5
10D
330
1F
100
AcDbEntity
  8
0
  6
SLD-Сплошная
 62
     7
370
    25
100
AcDbLine
 10
151.0582017724
 20
168.8190428055
 30
0.0
 11
158.5582017724
 21
168.8166866109
 31
0.0
  0
LINE
  5
10E
330
1F
100
AcDbEntity
  8
0
  6
SLD-Сплошная
 62
     7
370
    25
100
AcDbLine
 10
158.5582017724
 20
118.7643214161
 30
0.0
 11
158.5582017724
 21
168.8166866109
 31
0.0
  0
LINE
  5
10F
330
1F
100
AcDbEntity
  8
0
  6
SLD-Сплошная
 62
     7
370
    25
100
AcDbLine
 10
151.0582017724
 20
118.7619652216
 30
0.0
 11
158.5582017724
 21
118.7643214161
 31
0.0
  0
LINE
  5
110
330
1F
100
AcDbEntity
  8
0
  6
SLD-Сплошная
 62
     7
370
    25
100
AcDbLine
 10
151.0582017724
 20
168.8190428055
 30
0.0
 11
151.0582017724
 21
118.7619652216
 31
0.0
  0
LINE
  5
111
330
1F
100
AcDbEntity
  8
0
  6
SLD-Сплошная
 62
     7
370
    25
100
AcDbLine
 10
149.2582017724
 20
164.94732496
 30
0.0
 11
144.0582017724
 21
164.9455080054
 31
0.0
  0
LINE
  5
112
330
1F
100
AcDbEntity
  8
0
  6
SLD-Сплошная
 62
     7
370
    25
100
AcDbLine
 10
144.0582017724
 20
164.9455080054
 30
0.0
 11
144.0582017724
 21
143.7905040135
 31
0.0
  0
LINE
  5
113
330
1F
100
AcDbEntity
  8
0
  6
SLD-Сплошная
 62
     7
370
    25
100
AcDbLine
 10
149.2582017724
 20
164.94732496
 30
0.0
 11
149.2582017724
 21
143.7905040135
 31
0.0
  0
LINE
  5
114
330
1F
100
AcDbEntity
  8
0
  6
SLD-Сплошная
 62
     7
370
    25
100
AcDbLine
 10
145.9582017724
 20
121.487986587
 30
0.0
 11
149.2582017724
 21
121.4868928135
 31
0.0
  0
LINE
  5
115
330
1F
100
AcDbEntity
  8
0
  6
SLD-Сплошная
 62
     7
370
    25
100
AcDbLine
 10
145.9582017724
 20
124.1098803956
 30
0.0
 11
144.0582017724
 21
124.1105553488
 31
0.0
  0
LINE
  5
116
330
1F
100
AcDbEntity
  8
0
  6
SLD-Сплошная
 62
     7
370
    25
100
AcDbLine
 10
144.0582017724
 20
143.7905040135
 30
0.0
 11
144.0582017724
 21
124.1105553488
 31
0.0
  0
LINE
  5
117
330
1F
100
AcDbEntity
  8
0
  6
SLD-Сплошная
 62
     7
370
    25
100
AcDbLine
 10
149.2582017724
 20
143.7905040135
 30
0.0
 11
149.2582017724
 21
121.4868928135
 31
0.0
  0
LWPOLYLINE
  5
118
330
1F
100
AcDbEntity
  8
0
  6
SLD-Сплошная
 62
     7
370
    25
100
AcDbPolyline
 90
        3
 70
   128
 43
0.0
 10
151.0582017724
 20
164.6622794751
 10
150.0502014589
 20
164.6158431146
 10
149.2582017724
 20
164.5793367054
  0
LWPOLYLINE
  5
119
330
1F
100
AcDbEntity
  8
0
  6
SLD-Сплошная
 62
     7
370
    25
100
AcDbPolyline
 90
        3
 70
   128
 43
0.0
 10
151.0582017724
 20
122.9187285519
 10
150.0502014659
 20
122.9651649121
 10
149.2582017724
 20
123.0016713217
  0
LINE
  5
11A
330
1F
100
AcDbEntity
  8
0
  6
SLD-Сплошная
 62
     7
370
    25
100
AcDbLine
 10
183.2582017724
 20
134.1905040135
 30
0.0
 11
183.2582017724
 21
143.7905040135
 31
0.0
  0
LINE
  5
11B
330
1F
100
AcDbEntity
  8
0
  6
SLD-Сплошная
 62
     7
370
    25
100
AcDbLine
 10
175.3582017724
 20
134.1905040135
 30
0.0
 11
183.2582017724
 21
134.1905040135
 31
0.0
  0
LINE
  5
11C
330
1F
100
AcDbEntity
  8
0
  6
SLD-Сплошная
 62
     7
370
    25
100
AcDbLine
 10
175.3582017724
 20
122.7905040135
 30
0.0
 11
175.3582017724
 21
134.1905040135
 31
0.0
  0
LINE
  5
11D
330
1F
100
AcDbEntity
  8
0
  6
SLD-Сплошная
 62
     7
370
    25
100
AcDbLine
 10
175.3582017724
 20
153.3905040135
 30
0.0
 11
175.3582017724
 21
164.7905040135
 31
0.0
  0
LINE
  5
11E
330
1F
100
AcDbEntity
  8
0
  6
SLD-Сплошная
 62
     7
370
    25
100
AcDbLine
 10
183.2582017724
 20
153.3905040135
 30
0.0
 11
175.3582017724
 21
153.3905040135
 31
0.0
  0
LINE
  5
11F
330
1F
100
AcDbEntity
  8
0
  6
SLD-Сплошная
 62
     7
370
    25
100
AcDbLine
 10
183.2582017724
 20
143.7905040135
 30
0.0
 11
183.2582017724
 21
153.3905040135
 31
0.0
  0
LINE
  5
120
330
1F
100
AcDbEntity
  8
0
  6
SLD-Сплошная
 62
     7
370
    25
100
AcDbLine
 10
175.3582017724
 20
129.3905040135
 30
0.0
 11
183.2582017724
 21
129.3905040135
 31
0.0
  0
LINE
  5
121
330
1F
100
AcDbEntity
  8
0
  6
SLD-Сплошная
 62
     7
370
    25
100
AcDbLine
 10
183.2582017724
 20
134.1905040135
 30
0.0
 11
183.2582017724
 21
129.3905040135
 31
0.0
  0
LINE
  5
122
330
1F
100
AcDbEntity
  8
0
  6
SLD-Сплошная
 62
     7
370
    25
100
AcDbLine
 10
185.7582017724
 20
138.2207380635
 30
0.0
 11
185.7582017724
 21
132.3602699635
 31
0.0
  0
LINE
  5
123
330
1F
100
AcDbEntity
  8
0
  6
SLD-Сплошная
 62
     7
370
    25
100
AcDbLine
 10
183.2582017724
 20
132.3594845653
 30
0.0
 11
185.7582017724
 21
132.3602699635
 31
0.0
  0
LINE
  5
124
330
1F
100
AcDbEntity
  8
0
  6
SLD-Сплошная
 62
     7
370
    25
100
AcDbLine
 10
183.2582017724
 20
138.2215234617
 30
0.0
 11
185.7582017724
 21
138.2207380635
 31
0.0
  0
LINE
  5
125
330
1F
100
AcDbEntity
  8
0
  6
SLD-Сплошная
 62
     7
370
    25
100
AcDbLine
 10
185.7582017724
 20
143.7905040135
 30
0.0
 11
185.7582017724
 21
148.4897186153
 31
0.0
  0
LINE
  5
126
330
1F
100
AcDbEntity
  8
0
  6
SLD-Сплошная
 62
     7
370
    25
100
AcDbLine
 10
185.7582017724
 20
139.0912894117
 30
0.0
 11
185.7582017724
 21
143.7905040135
 31
0.0
  0
LINE
  5
127
330
1F
100
AcDbEntity
  8
0
  6
SLD-Сплошная
 62
     7
370
    25
100
AcDbLine
 10
145.9582017724
 20
119.9420239781
 30
0.0
 11
145.9582017724
 21
122.4613294985
 31
0.0
  0
LINE
  5
128
330
1F
100
AcDbEntity
  8
0
  6
SLD-Сплошная
 62
     7
370
    25
100
AcDbLine
 10
149.2582017724
 20
119.9420239781
 30
0.0
 11
145.9582017724
 21
119.9420239781
 31
0.0
  0
SPLINE
  5
129
330
1F
100
AcDbEntity
  8
0
  6
SLD-Сплошная
 62
     7
370
    25
100
AcDbSpline
210
0.0
220
0.0
230
1.0
 70
    24
 71
     3
 72
    12
 73
     8
 74
     0
 42
0.00000001
 43
0.00000001
 40
0.0
 40
0.0
 40
0.0
 40
0.0
 40
0.2168848782119233
 40
0.4390445441863819
 40
0.6651144165781531
 40
0.8935732556477504
 40
1.0
 40
1.0
 40
1.0
 40
1.0
 10
143.6385275969961
 20
122.1758449468661
 30
0.0
 10
143.6582011958464
 20
121.7252454513031
 30
0.0
 10
143.6980268688532
 20
120.8130875739487
 30
0.0
 10
143.7417014198354
 20
119.8127758978191
 30
0.0
 10
143.7715572087752
 20
119.1289659076794
 30
0.0
 10
143.7861228274107
 20
118.7953583933822
 30
0.0
 10
143.7847836085801
 20
118.8260315474972
 30
0.0
 10
143.784358004412
 20
118.8357794855784
 30
0.0
  0
SPLINE
  5
12A
330
1F
100
AcDbEntity
  8
0
  6
SLD-Сплошная
 62
     7
370
    25
100
AcDbSpline
210
0.0
220
0.0
230
1.0
 70
     8
 71
     3
 72
    15
 73
    11
 74
     0
 42
0.00000001
 43
0.00000001
 40
0.0
 40
0.0
 40
0.0
 40
0.0
 40
0.1004584111455271
 40
0.1840068712179631
 40
0.2506431494921372
 40
0.3821902199796015
 40
0.500231100157279
 40
0.6761221300376893
 40
0.8419135447319638
 40
1.0
 40
1.0
 40
1.0
 40
1.0
 10
143.638527596996
 20
122.1758449468661
 30
0.0
 10
143.6389915653116
 20
122.1897404618609
 30
0.0
 10
143.6398414031412
 20
122.2151924893119
 30
0.0
 10
143.6521008747411
 20
122.2496914108345
 30
0.0
 10
143.6730079650983
 20
122.2877921354044
 30
0.0
 10
143.708383089446
 20
122.3285830689537
 30
0.0
 10
143.7746963882575
 20
122.3786533587772
 30
0.0
 10
143.869622526774
 20
122.4226542034297
 30
0.0
 10
143.9955055128436
 20
122.4550621561251
 30
0.0
 10
144.0848382816093
 20
122.4592737821363
 30
0.0
 10
144.128442065823
 20
122.4613294984687
 30
0.0
  0
LINE
  5
12B
330
1F
100
AcDbEntity
  8
0
  6
SLD-Сплошная
 62
     7
370
    25
100
AcDbLine
 10
145.9582017724
 20
122.4613294985
 30
0.0
 11
144.1284420658
 21
122.4613294985
 31
0.0
  0
LINE
  5
12C
330
1F
100
AcDbEntity
  8
0
  6
SLD-Сплошная
 62
     7
370
    25
100
AcDbLine
 10
149.2582017724
 20
119.9420239781
 30
0.0
 11
149.2582017724
 21
118.7905040135
 31
0.0
  0
LINE
  5
12D
330
1F
100
AcDbEntity
  8
0
  6
SLD-Сплошная
 62
     7
370
    25
100
AcDbLine
 10
143.638527597
 20
122.1758449469
 30
0.0
 11
142.448557456
 21
149.4306420649
 31
0.0
  0
LINE
  5
12E
330
1F
100
AcDbEntity
  8
0
  6
SLD-Сплошная
 62
     7
370
    25
100
AcDbLine
 10
145.9582017724
 20
122.4613294985
 30
0.0
 11
145.9582017724
 21
124.1098803956
 31
0.0
  0
ARC
  5
12F
330
1F
100
AcDbEntity
  8
0
  6
SLD-Сплошная
 62
     7
370
    25
100
AcDbCircle
 10
147.8582017724
 20
173.2443161961
 30
0.0
 40
5.500000000000067
100
AcDbArc
 50
180.0
 51
258.0
  0
LINE
  5
130
330
1F
100
AcDbEntity
  8
0
  6
SLD-Сплошная
 62
     7
370
    25
100
AcDbLine
 10
142.3582017724
 20
173.2443161961
 30
0.0
 11
142.3582017724
 21
174.2905040135
 31
0.0
  0
ARC
  5
131
330
1F
100
AcDbEntity
  8
0
  6
SLD-Сплошная
 62
     7
370
    25
100
AcDbCircle
 10
147.8582017724
 20
174.2905040135
 30
0.0
 40
5.499999999999972
100
AcDbArc
 50
90.0
 51
180.0
  0
LINE
  5
132
330
1F
100
AcDbEntity
  8
0
  6
SLD-Сплошная
 62
     7
370
    25
100
AcDbLine
 10
158.5582017724
 20
179.7905040135
 30
0.0
 11
147.8582017724
 21
179.7905040135
 31
0.0
  0
LINE
  5
133
330
1F
100
AcDbEntity
  8
0
  6
SLD-Сплошная
 62
     7
370
    25
100
AcDbLine
 10
151.0582017724
 20
166.941261927
 30
0.0
 11
146.7146874729
 21
167.8645043921
 31
0.0
  0
LINE
  5
134
330
1F
100
AcDbEntity
  8
0
  6
SLD-Сплошная
 62
     7
370
    25
100
AcDbLine
 10
158.5582017724
 20
168.8166866109
 30
0.0
 11
158.5582017724
 21
179.7905040135
 31
0.0
  0
LINE
  5
135
330
1F
100
AcDbEntity
  8
0
  6
SLD-Сплошная
 62
     7
370
    25
100
AcDbLine
 10
185.7582017724
 20
138.2207380635
 30
0.0
 11
185.7582017724
 21
139.0207380634
 31
0.0
  0
LINE
  5
136
330
1F
100
AcDbEntity
  8
0
  6
SLD-Сплошная
 62
     7
370
    25
100
AcDbLine
 10
185.7582017724
 20
131.5602699637
 30
0.0
 11
185.7582017724
 21
132.3602699635
 31
0.0
  0
SPLINE
  5
137
330
1F
100
AcDbEntity
  8
0
  6
SLD-Сплошная
 62
     7
370
    25
100
AcDbSpline
210
0.0
220
0.0
230
1.0
 70
     8
 71
     3
 72
     8
 73
     4
 74
     0
 42
0.00000001
 43
0.00000001
 40
0.0
 40
0.0
 40
0.0
 40
0.0
 40
1.0
 40
1.0
 40
1.0
 40
1.0
 10
142.4485574560433
 20
149.430642064881
 30
0.0
 10
142.3909984148987
 20
150.7489608484519
 30
0.0
 10
142.3464869509706
 20
152.0678492981677
 30
0.0
 10
142.3150317832625
 20
153.3870490672543
 30
0.0
  0
SPLINE
  5
138
330
1F
100
AcDbEntity
  8
0
  6
SLD-Сплошная
 62
     7
370
    25
100
AcDbSpline
210
0.0
220
0.0
230
1.0
 70
     8
 71
     3
 72
     8
 73
     4
 74
     0
 42
0.00000001
 43
0.00000001
 40
0.0
 40
0.0
 40
0.0
 40
0.0
 40
1.0
 40
1.0
 40
1.0
 40
1.0
 10
142.2987032088066
 20
154.129729581896
 30
0.0
 10
142.303695777525
 20
153.8816889267626
 30
0.0
 10
142.3091404452919
 20
153.6341261695823
 30
0.0
 10
142.3150317832625
 20
153.3870490672543
 30
0.0
  0
LINE
  5
139
330
1F
100
AcDbEntity
  8
0
  6
SLD-Сплошная
 62
     7
370
    25
100
AcDbLine
 10
149.2582017724
 20
167.323863738
 30
0.0
 11
149.2582017724
 21
164.94732496
 31
0.0
  0
LINE
  5
13A
330
1F
100
AcDbEntity
  8
0
  6
SLD-Сплошная
 62
     7
370
    25
100
AcDbLine
 10
142.2582017724
 20
174.2905040135
 30
0.0
 11
142.2582017724
 21
158.1545195379
 31
0.0
  0
ARC
  5
13B
330
1F
100
AcDbEntity
  8
0
  6
SLD-Сплошная
 62
     7
370
    25
100
AcDbCircle
 10
342.2582017724
 20
158.1545195379
 30
0.0
 40
200.0000000000001
100
AcDbArc
 50
180.0
 51
181.1530952273
  0
ARC
  5
13C
330
1F
100
AcDbEntity
  8
0
  6
SLD-Сплошная
 62
     7
370
    25
100
AcDbCircle
 10
147.7582017724
 20
174.2905040135
 30
0.0
 40
5.5
100
AcDbArc
 50
89.4791221277
 51
180.0
  0
LINE
  5
13D
330
1F
100
AcDbEntity
  8
0
  6
SLD-Сплошная
 62
     7
370
    25
100
AcDbLine
 10
149.2582017724
 20
119.9420239781
 30
0.0
 11
149.2582017724
 21
121.4868928135
 31
0.0
  0
LINE
  5
13E
330
1F
100
AcDbEntity
  8
0
  6
SLD-Сплошная
 62
     7
370
    25
100
AcDbLine
 10
140.6734984519
 20
174.1449658299
 30
0.0
 11
142.2582017724
 21
167.7890679667
 31
0.0
  0
LINE
  5
13F
330
1F
100
AcDbEntity
  8
0
  6
SLD-Сплошная
 62
     7
370
    25
100
AcDbLine
 10
142.2615545404
 20
174.4825175719
 30
0.0
 11
140.6734984519
 21
174.1449658299
 31
0.0
  0
LWPOLYLINE
  5
140
330
1F
100
AcDbEntity
  8
0
  6
SLD-Сплошная
 62
     7
370
    25
100
AcDbPolyline
 90
        3
 70
   128
 43
0.0
 10
151.0582017724
 20
165.6670889535
 10
150.0502014245
 20
165.6201304882
 10
149.2582017724
 20
165.5832121912
  0
LWPOLYLINE
  5
141
330
1F
100
AcDbEntity
  8
0
  6
SLD-Сплошная
 62
     7
370
    25
100
AcDbPolyline
 90
        3
 70
   128
 43
0.0
 10
151.0582017724
 20
121.9139190735
 10
150.0502014223
 20
121.9608775389
 10
149.2582017724
 20
121.9977958359
  0
LINE
  5
142
330
1F
100
AcDbEntity
  8
0
  6
SLD-Сплошная
 62
     7
370
    25
100
AcDbLine
 10
176.1582017724
 20
162.7905040135
 30
0.0
 11
175.3582017724
 21
162.7905040135
 31
0.0
  0
LINE
  5
143
330
1F
100
AcDbEntity
  8
0
  6
SLD-Сплошная
 62
     7
370
    25
100
AcDbLine
 10
176.1582017724
 20
153.3905040135
 30
0.0
 11
176.1582017724
 21
162.7905040135
 31
0.0
  0
LINE
  5
144
330
1F
100
AcDbEntity
  8
0
  6
SLD-Сплошная
 62
     7
370
    25
100
AcDbLine
 10
175.3582017724
 20
124.7905040135
 30
0.0
 11
176.1582017724
 21
124.7905040135
 31
0.0
  0
LINE
  5
145
330
1F
100
AcDbEntity
  8
0
  6
SLD-Сплошная
 62
     7
370
    25
100
AcDbLine
 10
176.1582017724
 20
124.7905040135
 30
0.0
 11
176.1582017724
 21
129.3905040135
 31
0.0
  0
LINE
  5
146
330
1F
100
AcDbEntity
  8
0
  6
SLD-Сплошная
 62
     7
370
    25
100
AcDbLine
 10
206.6531816303
 20
237.0250733516
 30
0.0
 11
206.6515480021
 21
231.8250733516
 31
0.0
  0
LINE
  5
147
330
1F
100
AcDbEntity
  8
0
  6
SLD-Сплошная
 62
     7
370
    25
100
AcDbLine
 10
219.7815155595
 20
238.5825775902
 30
0.0
 11
217.4060201025
 21
237.3970940389
 31
0.0
  0
LINE
  5
148
330
1F
100
AcDbEntity
  8
0
  6
SLD-Сплошная
 62
     7
370
    25
100
AcDbLine
 10
242.9588204652
 20
237.3970754229
 30
0.0
 11
240.5832877049
 21
238.5825775902
 31
0.0
  0
LINE
  5
149
330
1F
100
AcDbEntity
  8
0
  6
SLD-Сплошная
 62
     7
370
    25
100
AcDbLine
 10
251.5824016322
 20
230.0250733516
 30
0.0
 11
251.4880676296
 21
231.8250733516
 31
0.0
  0
LINE
  5
14A
330
1F
100
AcDbEntity
  8
0
  6
SLD-Сплошная
 62
     7
370
    25
100
AcDbLine
 10
208.8767356348
 20
231.8250733516
 30
0.0
 11
208.7824016322
 21
230.0250733516
 31
0.0
  0
LINE
  5
14B
330
1F
100
AcDbEntity
  8
0
  6
SLD-Сплошная
 62
     7
370
    25
100
AcDbLine
 10
220.2185698432
 20
238.7507869515
 30
0.0
 11
219.7815252768
 21
238.5825824394
 31
0.0
  0
LINE
  5
14C
330
1F
100
AcDbEntity
  8
0
  6
SLD-Сплошная
 62
     7
370
    25
100
AcDbLine
 10
240.5832779876
 20
238.5825824395
 30
0.0
 11
240.1462334212
 21
238.7507869515
 31
0.0
  0
LINE
  5
14D
330
1F
100
AcDbEntity
  8
0
  6
SLD-Сплошная
 62
     7
370
    25
100
AcDbLine
 10
237.6824016322
 20
235.1250733516
 30
0.0
 11
243.2233492399
 21
235.1250733516
 31
0.0
  0
LINE
  5
14E
330
1F
100
AcDbEntity
  8
0
  6
SLD-Сплошная
 62
     7
370
    25
100
AcDbLine
 10
237.6824016322
 20
231.8250733516
 30
0.0
 11
237.6824016322
 21
235.1250733516
 31
0.0
  0
LINE
  5
14F
330
1F
100
AcDbEntity
  8
0
  6
SLD-Сплошная
 62
     7
370
    25
100
AcDbLine
 10
237.6824016322
 20
231.8250733516
 30
0.0
 11
222.6824016322
 21
231.8250733516
 31
0.0
  0
LINE
  5
150
330
1F
100
AcDbEntity
  8
0
  6
SLD-Сплошная
 62
     7
370
    25
100
AcDbLine
 10
222.6824016322
 20
235.1250733516
 30
0.0
 11
222.6824016322
 21
231.8250733516
 31
0.0
  0
LINE
  5
151
330
1F
100
AcDbEntity
  8
0
  6
SLD-Сплошная
 62
     7
370
    25
100
AcDbLine
 10
217.1414540245
 20
235.1250733516
 30
0.0
 11
222.6824016322
 21
235.1250733516
 31
0.0
  0
LINE
  5
152
330
1F
100
AcDbEntity
  8
0
  6
SLD-Сплошная
 62
     7
370
    25
100
AcDbLine
 10
217.1414540245
 20
235.1250733516
 30
0.0
 11
217.1414540245
 21
236.9548330582
 31
0.0
  0
SPLINE
  5
153
330
1F
100
AcDbEntity
  8
0
  6
SLD-Сплошная
 62
     7
370
    25
100
AcDbSpline
210
0.0
220
0.0
230
1.0
 70
     8
 71
     3
 72
    16
 73
    12
 74
     0
 42
0.00000001
 43
0.00000001
 40
0.0
 40
0.0
 40
0.0
 40
0.0
 40
0.0783438972000947
 40
0.1582907044433289
 40
0.2401736516653839
 40
0.3243029567497785
 40
0.410964709099279
 40
0.5004206960753617
 40
0.6312367075279769
 40
0.7977101405761122
 40
1.0
 40
1.0
 40
1.0
 40
1.0
 10
217.1414540245443
 20
236.9548330581519
 30
0.0
 10
217.1422211362292
 20
236.9763990550281
 30
0.0
 10
217.1437710546443
 20
237.0199722873989
 30
0.0
 10
217.156470081052
 20
237.0846724068378
 30
0.0
 10
217.1770750680167
 20
237.1480506190723
 30
0.0
 10
217.2064194948076
 20
237.2088043641374
 30
0.0
 10
217.2441558692983
 20
237.2655362602731
 30
0.0
 10
217.2965900496073
 20
237.324292448347
 30
0.0
 10
217.3724995298677
 20
237.3833662141975
 30
0.0
 10
217.4836252702995
 20
237.4358026629045
 30
0.0
 10
217.5718813640626
 20
237.4415788984718
 30
0.0
 10
217.6202953823911
 20
237.4447475269789
 30
0.0
  0
SPLINE
  5
154
330
1F
100
AcDbEntity
  8
0
  6
SLD-Сплошная
 62
     7
370
    25
100
AcDbSpline
210
0.0
220
0.0
230
1.0
 70
     8
 71
     3
 72
    18
 73
    14
 74
     0
 42
0.00000001
 43
0.00000001
 40
0.0
 40
0.0
 40
0.0
 40
0.0
 40
0.2499999999999999
 40
0.2499999999999999
 40
0.3749999999999999
 40
0.3749999999999999
 40
0.4999999999999999
 40
0.4999999999999999
 40
0.6249999999999999
 40
0.6249999999999999
 40
0.75
 40
0.75
 40
1.0
 40
1.0
 40
1.0
 40
1.0
 10
242.7445078820816
 20
237.4447475269789
 30
0.0
 10
240.9343369237519
 20
237.3988143191552
 30
0.0
 10
238.9264950835123
 20
237.3613585485532
 30
0.0
 10
235.7359578425931
 20
237.323124139384
 30
0.0
 10
234.6434775226767
 20
237.3133507558839
 30
0.0
 10
232.4280917978421
 20
237.3002580875377
 30
0.0
 10
231.3052696403347
 20
237.2969403497622
 30
0.0
 10
229.059533624138
 20
237.2969403497622
 30
0.0
 10
227.9367114666306
 20
237.3002580875377
 30
0.0
 10
225.721325741796
 20
237.3133507558839
 30
0.0
 10
224.6288454218796
 20
237.323124139384
 30
0.0
 10
221.4383081809604
 20
237.3613585485532
 30
0.0
 10
219.4304663407209
 20
237.3988143191552
 30
0.0
 10
217.6202953823911
 20
237.4447475269789
 30
0.0
  0
SPLINE
  5
155
330
1F
100
AcDbEntity
  8
0
  6
SLD-Сплошная
 62
     7
370
    25
100
AcDbSpline
210
0.0
220
0.0
230
1.0
 70
     8
 71
     3
 72
    15
 73
    11
 74
     0
 42
0.00000001
 43
0.00000001
 40
0.0
 40
0.0
 40
0.0
 40
0.0
 40
0.1004584111455271
 40
0.1840068712179631
 40
0.2506431494921372
 40
0.3821902199796015
 40
0.500231100157279
 40
0.6761221300376893
 40
0.8419135447319638
 40
1.0
 40
1.0
 40
1.0
 40
1.0
 10
242.7445078820816
 20
237.444747526979
 30
0.0
 10
242.7684178999891
 20
237.4442835586634
 30
0.0
 10
242.8122132132513
 20
237.4434337208339
 30
0.0
 10
242.8708769217638
 20
237.4311742492339
 30
0.0
 10
242.9350438106814
 20
237.4102671588767
 30
0.0
 10
243.0039246477782
 20
237.374892034529
 30
0.0
 10
243.0871259543092
 20
237.3085787357176
 30
0.0
 10
243.1606213252267
 20
237.213652597201
 30
0.0
 10
243.2136750676918
 20
237.0877696111314
 30
0.0
 10
243.2201760681469
 20
236.9984368423657
 30
0.0
 10
243.2233492399284
 20
236.954833058152
 30
0.0
  0
LINE
  5
156
330
1F
100
AcDbEntity
  8
0
  6
SLD-Сплошная
 62
     7
370
    25
100
AcDbLine
 10
243.2233492399
 20
235.1250733516
 30
0.0
 11
243.2233492399
 21
236.9548330582
 31
0.0
  0
SPLINE
  5
157
330
1F
100
AcDbEntity
  8
0
  6
SLD-Сплошная
 62
     7
370
    25
100
AcDbSpline
210
0.0
220
0.0
230
1.0
 70
     8
 71
     3
 72
     8
 73
     4
 74
     0
 42
0.00000001
 43
0.00000001
 40
0.0
 40
0.0
 40
0.0
 40
0.0
 40
1.0
 40
1.0
 40
1.0
 40
1.0
 10
222.6574959236277
 20
237.5081861431818
 30
0.0
 10
222.4393567633663
 20
237.5117392395184
 30
0.0
 10
222.2505217910418
 20
237.5172096792415
 30
0.0
 10
222.090991006654
 20
237.524597462351
 30
0.0
  0
SPLINE
  5
158
330
1F
100
AcDbEntity
  8
0
  6
SLD-Сплошная
 62
     7
370
    25
100
AcDbSpline
210
0.0
220
0.0
230
1.0
 70
     8
 71
     3
 72
    17
 73
    13
 74
     0
 42
0.00000001
 43
0.00000001
 40
0.0
 40
0.0
 40
0.0
 40
0.0
 40
0.2500000000000001
 40
0.375
 40
0.375
 40
0.5
 40
0.5
 40
0.625
 40
0.625
 40
0.75
 40
0.75
 40
1.0
 40
1.0
 40
1.0
 40
1.0
 10
237.7073073408452
 20
237.5081861431818
 30
0.0
 10
236.5014299560975
 20
237.4885445597405
 30
0.0
 10
234.659673082352
 20
237.4664216945933
 30
0.0
 10
232.7685050136704
 20
237.4553080944681
 30
0.0
 10
231.4967460356746
 20
237.4503455310562
 30
0.0
 10
230.8530517255543
 20
237.4490873760327
 30
0.0
 10
229.563981593179
 20
237.4490180692707
 30
0.0
 10
228.9220202948556
 20
237.4502319705131
 30
0.0
 10
227.6432452339369
 20
237.4551568822449
 30
0.0
 10
227.0077637647855
 20
237.458857474602
 30
0.0
 10
225.1010469002611
 20
237.4737674243368
 30
0.0
 10
223.8628150492667
 20
237.4885536527818
 30
0.0
 10
222.6574959236277
 20
237.5081861431818
 30
0.0
  0
SPLINE
  5
159
330
1F
100
AcDbEntity
  8
0
  6
SLD-Сплошная
 62
     7
370
    25
100
AcDbSpline
210
0.0
220
0.0
230
1.0
 70
     8
 71
     3
 72
     8
 73
     4
 74
     0
 42
0.00000001
 43
0.00000001
 40
0.0
 40
0.0
 40
0.0
 40
0.0
 40
1.0
 40
1.0
 40
1.0
 40
1.0
 10
238.2738122578186
 20
237.524597462351
 30
0.0
 10
238.1142814734309
 20
237.5172096792415
 30
0.0
 10
237.9254465011063
 20
237.5117392395184
 30
0.0
 10
237.7073073408452
 20
237.5081861431818
 30
0.0
  0
LINE
  5
15A
330
1F
100
AcDbEntity
  8
0
  6
SLD-Сплошная
 62
     7
370
    25
100
AcDbLine
 10
205.1562190348
 20
222.5250733516
 30
0.0
 11
255.2085842296
 21
222.5250733516
 31
0.0
  0
LINE
  5
15B
330
1F
100
AcDbEntity
  8
0
  6
SLD-Сплошная
 62
     7
370
    25
100
AcDbLine
 10
205.1538628403
 20
230.0250733516
 30
0.0
 11
255.2109404242
 21
230.0250733516
 31
0.0
  0
LINE
  5
15C
330
1F
100
AcDbEntity
  8
0
  6
SLD-Сплошная
 62
     7
370
    25
100
AcDbLine
 10
255.2109404242
 20
230.0250733516
 30
0.0
 11
255.2085842296
 21
222.5250733516
 31
0.0
  0
LINE
  5
15D
330
1F
100
AcDbEntity
  8
0
  6
SLD-Сплошная
 62
     7
370
    25
100
AcDbLine
 10
205.1538628403
 20
230.0250733516
 30
0.0
 11
205.1562190348
 21
222.5250733516
 31
0.0
  0
LINE
  5
15E
330
1F
100
AcDbEntity
  8
0
  6
SLD-Сплошная
 62
     7
370
    25
100
AcDbLine
 10
206.6531816303
 20
237.0250733516
 30
0.0
 11
217.1475688803
 21
237.0250733516
 31
0.0
  0
LINE
  5
15F
330
1F
100
AcDbEntity
  8
0
  6
SLD-Сплошная
 62
     7
370
    25
100
AcDbLine
 10
222.6824016322
 20
231.8250733516
 30
0.0
 11
206.6515480021
 21
231.8250733516
 31
0.0
  0
LINE
  5
160
330
1F
100
AcDbEntity
  8
0
  6
SLD-Сплошная
 62
     7
370
    25
100
AcDbLine
 10
253.7116216341
 20
237.0250733516
 30
0.0
 11
243.2200937137
 21
237.0250733516
 31
0.0
  0
LINE
  5
161
330
1F
100
AcDbEntity
  8
0
  6
SLD-Сплошная
 62
     7
370
    25
100
AcDbLine
 10
253.7116216341
 20
237.0250733516
 30
0.0
 11
253.7132552624
 21
231.8250733516
 31
0.0
  0
LINE
  5
162
330
1F
100
AcDbEntity
  8
0
  6
SLD-Сплошная
 62
     7
370
    25
100
AcDbLine
 10
253.7132552624
 20
231.8250733516
 30
0.0
 11
237.6824016322
 21
231.8250733516
 31
0.0
  0
LWPOLYLINE
  5
163
330
1F
100
AcDbEntity
  8
0
  6
SLD-Сплошная
 62
     7
370
    25
100
AcDbPolyline
 90
        3
 70
   128
 43
0.0
 10
234.3276305833
 20
230.0250733516
 10
234.2937426315
 20
231.0330737017
 10
234.2671293309
 20
231.8250733516
  0
LWPOLYLINE
  5
164
330
1F
100
AcDbEntity
  8
0
  6
SLD-Сплошная
 62
     7
370
    25
100
AcDbPolyline
 90
        3
 70
   128
 43
0.0
 10
226.0371726812
 20
230.0250733516
 10
226.071060633
 20
231.0330737012
 10
226.0976739335
 20
231.8250733516
  0
LWPOLYLINE
  5
165
330
1F
100
AcDbEntity
  8
0
  6
SLD-Сплошная
 62
     7
370
    25
100
AcDbPolyline
 90
        3
 70
   128
 43
0.0
 10
234.9077576062
 20
230.0250733516
 10
234.8735682194
 20
231.0330736581
 10
234.8467171129
 20
231.8250733516
  0
LWPOLYLINE
  5
166
330
1F
100
AcDbEntity
  8
0
  6
SLD-Сплошная
 62
     7
370
    25
100
AcDbPolyline
 90
        3
 70
   128
 43
0.0
 10
225.4570456583
 20
230.0250733516
 10
225.4912350451
 20
231.0330736581
 10
225.5180861516
 20
231.8250733516
  0
LINE
  5
167
330
1F
100
AcDbEntity
  8
0
  6
SLD-Сплошная
 62
     7
370
    25
100
AcDbLine
 10
251.1824016322
 20
197.8250733516
 30
0.0
 11
251.1824016322
 21
222.5250733516
 31
0.0
  0
LINE
  5
168
330
1F
100
AcDbEntity
  8
0
  6
SLD-Сплошная
 62
     7
370
    25
100
AcDbLine
 10
248.8596605318
 20
197.8250733516
 30
0.0
 11
251.1824016322
 21
197.8250733516
 31
0.0
  0
LINE
  5
169
330
1F
100
AcDbEntity
  8
0
  6
SLD-Сплошная
 62
     7
370
    25
100
AcDbLine
 10
248.8596605318
 20
205.7250733516
 30
0.0
 11
248.8596605318
 21
197.8250733516
 31
0.0
  0
LINE
  5
16A
330
1F
100
AcDbEntity
  8
0
  6
SLD-Сплошная
 62
     7
370
    25
100
AcDbLine
 10
211.5051427327
 20
205.7250733516
 30
0.0
 11
248.8596605318
 21
205.7250733516
 31
0.0
  0
LINE
  5
16B
330
1F
100
AcDbEntity
  8
0
  6
SLD-Сплошная
 62
     7
370
    25
100
AcDbLine
 10
211.5051427327
 20
197.8250733516
 30
0.0
 11
211.5051427327
 21
205.7250733516
 31
0.0
  0
LINE
  5
16C
330
1F
100
AcDbEntity
  8
0
  6
SLD-Сплошная
 62
     7
370
    25
100
AcDbLine
 10
209.1824016322
 20
197.8250733516
 30
0.0
 11
211.5051427327
 21
197.8250733516
 31
0.0
  0
LINE
  5
16D
330
1F
100
AcDbEntity
  8
0
  6
SLD-Сплошная
 62
     7
370
    25
100
AcDbLine
 10
209.1824016322
 20
197.8250733516
 30
0.0
 11
209.1824016322
 21
222.5250733516
 31
0.0
  0
LINE
  5
16E
330
1F
100
AcDbEntity
  8
0
  6
SLD-Сплошная
 62
     7
370
    25
100
AcDbLine
 10
227.6824016322
 20
204.9250733516
 30
0.0
 11
232.6824016322
 21
204.9250733516
 31
0.0
  0
LINE
  5
16F
330
1F
100
AcDbEntity
  8
0
  6
SLD-Сплошная
 62
     7
370
    25
100
AcDbLine
 10
227.6824016322
 20
205.7250733516
 30
0.0
 11
227.6824016322
 21
204.9250733516
 31
0.0
  0
LINE
  5
170
330
1F
100
AcDbEntity
  8
0
  6
SLD-Сплошная
 62
     7
370
    25
100
AcDbLine
 10
232.6824016322
 20
205.7250733516
 30
0.0
 11
232.6824016322
 21
204.9250733516
 31
0.0
  0
LINE
  5
171
330
1F
100
AcDbEntity
  8
0
  6
SLD-Сплошная
 62
     7
370
    25
100
AcDbLine
 10
238.1824016322
 20
237.5213169721
 30
0.0
 11
238.1824016322
 21
238.3250733516
 31
0.0
  0
SPLINE
  5
172
330
1F
100
AcDbEntity
  8
0
  6
SLD-Сплошная
 62
     7
370
    25
100
AcDbSpline
210
0.0
220
0.0
230
1.0
 70
     8
 71
     3
 72
    10
 73
     6
 74
     0
 42
0.00000001
 43
0.00000001
 40
0.0
 40
0.0
 40
0.0
 40
0.0
 40
0.5
 40
0.5
 40
1.0
 40
1.0
 40
1.0
 40
1.0
 10
238.1824016322363
 20
238.3250733515601
 30
0.0
 10
238.1824016322363
 20
238.4143751370183
 30
0.0
 10
238.2083452770063
 20
238.5112139801119
 30
0.0
 10
238.3121198560859
 20
238.6747434357574
 30
0.0
 10
238.3886935293379
 20
238.7394528384773
 30
0.0
 10
238.4694947521332
 20
238.7774787675365
 30
0.0
  0
SPLINE
  5
173
330
1F
100
AcDbEntity
  8
0
  6
SLD-Сплошная
 62
     7
370
    25
100
AcDbSpline
210
0.0
220
0.0
230
1.0
 70
     8
 71
     3
 72
     8
 73
     4
 74
     0
 42
0.00000001
 43
0.00000001
 40
0.0
 40
0.0
 40
0.0
 40
0.0
 40
1.0
 40
1.0
 40
1.0
 40
1.0
 10
238.6824016322363
 20
238.6347176679317
 30
0.0
 10
238.6096826850731
 20
238.698157417591
 30
0.0
 10
238.5369223023536
 20
238.7457466333896
 30
0.0
 10
238.4694947521332
 20
238.7774787675365
 30
0.0
  0
SPLINE
  5
174
330
1F
100
AcDbEntity
  8
0
  6
SLD-Сплошная
 62
     7
370
    25
100
AcDbSpline
210
0.0
220
0.0
230
1.0
 70
     8
 71
     3
 72
     8
 73
     4
 74
     0
 42
0.00000001
 43
0.00000001
 40
0.0
 40
0.0
 40
0.0
 40
0.0
 40
1.0
 40
1.0
 40
1.0
 40
1.0
 10
221.6824016322363
 20
238.6347176679317
 30
0.0
 10
221.75512057937
 20
238.6981574175889
 30
0.0
 10
221.8278809621141
 20
238.7457466333863
 30
0.0
 10
221.895308512335
 20
238.7774787675386
 30
0.0
  0
SPLINE
  5
175
330
1F
100
AcDbEntity
  8
0
  6
SLD-Сплошная
 62
     7
370
    25
100
AcDbSpline
210
0.0
220
0.0
230
1.0
 70
     8
 71
     3
 72
    10
 73
     6
 74
     0
 42
0.00000001
 43
0.00000001
 40
0.0
 40
0.0
 40
0.0
 40
0.0
 40
0.5
 40
0.5
 40
1.0
 40
1.0
 40
1.0
 40
1.0
 10
222.1824016322363
 20
238.3250733515601
 30
0.0
 10
222.1824016322363
 20
238.4143751370192
 30
0.0
 10
222.1564579874659
 20
238.511213980114
 30
0.0
 10
222.0526834083843
 20
238.6747434357606
 30
0.0
 10
221.9761097351311
 20
238.7394528384804
 30
0.0
 10
221.895308512335
 20
238.7774787675386
 30
0.0
  0
LINE
  5
176
330
1F
100
AcDbEntity
  8
0
  6
SLD-Сплошная
 62
     7
370
    25
100
AcDbLine
 10
222.1824016322
 20
237.5211280912
 30
0.0
 11
222.1824016322
 21
238.3250733516
 31
0.0
  0
LINE
  5
177
330
1F
100
AcDbEntity
  8
0
  6
SLD-Сплошная
 62
     7
370
    25
100
AcDbLine
 10
237.1824016322
 20
205.3250733516
 30
0.0
 11
237.1825272959
 21
205.7250733516
 31
0.0
  0
LINE
  5
178
330
1F
100
AcDbEntity
  8
0
  6
SLD-Сплошная
 62
     7
370
    25
100
AcDbLine
 10
237.1824016322
 20
205.3250733516
 30
0.0
 11
235.8133146192
 21
205.3250733516
 31
0.0
  0
LINE
  5
179
330
1F
100
AcDbEntity
  8
0
  6
SLD-Сплошная
 62
     7
370
    25
100
AcDbLine
 10
235.8133146192
 20
205.3250733516
 30
0.0
 11
235.8109584246
 21
197.8250733516
 31
0.0
  0
LINE
  5
17A
330
1F
100
AcDbEntity
  8
0
  6
SLD-Сплошная
 62
     7
370
    25
100
AcDbLine
 10
235.8109584246
 20
197.8250733516
 30
0.0
 11
234.2824016322
 21
197.8250733516
 31
0.0
  0
LINE
  5
17B
330
1F
100
AcDbEntity
  8
0
  6
SLD-Сплошная
 62
     7
370
    25
100
AcDbLine
 10
224.5538448398
 20
197.8250733516
 30
0.0
 11
224.5514886453
 21
205.3250733516
 31
0.0
  0
LINE
  5
17C
330
1F
100
AcDbEntity
  8
0
  6
SLD-Сплошная
 62
     7
370
    25
100
AcDbLine
 10
224.5514886453
 20
205.3250733516
 30
0.0
 11
223.1824016322
 21
205.3250733516
 31
0.0
  0
LINE
  5
17D
330
1F
100
AcDbEntity
  8
0
  6
SLD-Сплошная
 62
     7
370
    25
100
AcDbLine
 10
223.1824016322
 20
205.3250733516
 30
0.0
 11
223.1822759685
 21
205.7250733516
 31
0.0
  0
LINE
  5
17E
330
1F
100
AcDbEntity
  8
0
  6
SLD-Сплошная
 62
     7
370
    25
100
AcDbLine
 10
226.0824016322
 20
197.8250733516
 30
0.0
 11
224.5538448398
 21
197.8250733516
 31
0.0
  0
LINE
  5
17F
330
1F
100
AcDbEntity
  8
0
  6
SLD-Сплошная
 62
     7
370
    25
100
AcDbLine
 10
246.0824016322
 20
197.8250733516
 30
0.0
 11
246.0824016322
 21
205.7250733516
 31
0.0
  0
LINE
  5
180
330
1F
100
AcDbEntity
  8
0
  6
SLD-Сплошная
 62
     7
370
    25
100
AcDbLine
 10
245.2360321248
 20
205.7250733516
 30
0.0
 11
245.2360321248
 21
197.8250733516
 31
0.0
  0
LINE
  5
181
330
1F
100
AcDbEntity
  8
0
  6
SLD-Сплошная
 62
     7
370
    25
100
AcDbLine
 10
246.0824016322
 20
197.8250733516
 30
0.0
 11
245.2360321248
 21
197.8250733516
 31
0.0
  0
LINE
  5
182
330
1F
100
AcDbEntity
  8
0
  6
SLD-Сплошная
 62
     7
370
    25
100
AcDbLine
 10
243.5514886453
 20
205.3250733516
 30
0.0
 11
242.1824016322
 21
205.3250733516
 31
0.0
  0
LINE
  5
183
330
1F
100
AcDbEntity
  8
0
  6
SLD-Сплошная
 62
     7
370
    25
100
AcDbLine
 10
242.1824016322
 20
205.3250733516
 30
0.0
 11
242.1822759685
 21
205.7250733516
 31
0.0
  0
LINE
  5
184
330
1F
100
AcDbEntity
  8
0
  6
SLD-Сплошная
 62
     7
370
    25
100
AcDbLine
 10
243.5538448398
 20
197.8250733516
 30
0.0
 11
243.5514886453
 21
205.3250733516
 31
0.0
  0
LINE
  5
185
330
1F
100
AcDbEntity
  8
0
  6
SLD-Сплошная
 62
     7
370
    25
100
AcDbLine
 10
245.2360321248
 20
197.8250733516
 30
0.0
 11
243.5538448398
 21
197.8250733516
 31
0.0
  0
LINE
  5
186
330
1F
100
AcDbEntity
  8
0
  6
SLD-Сплошная
 62
     7
370
    25
100
AcDbLine
 10
233.2824016322
 20
197.8250733516
 30
0.0
 11
233.2824016322
 21
205.7250733516
 31
0.0
  0
LINE
  5
187
330
1F
100
AcDbEntity
  8
0
  6
SLD-Сплошная
 62
     7
370
    25
100
AcDbLine
 10
233.2824016322
 20
197.8250733516
 30
0.0
 11
234.2824016322
 21
197.8250733516
 31
0.0
  0
LINE
  5
188
330
1F
100
AcDbEntity
  8
0
  6
SLD-Сплошная
 62
     7
370
    25
100
AcDbLine
 10
227.0824016322
 20
205.7250733516
 30
0.0
 11
227.0824016322
 21
197.8250733516
 31
0.0
  0
LINE
  5
189
330
1F
100
AcDbEntity
  8
0
  6
SLD-Сплошная
 62
     7
370
    25
100
AcDbLine
 10
227.0824016322
 20
197.8250733516
 30
0.0
 11
226.0824016322
 21
197.8250733516
 31
0.0
  0
LINE
  5
18A
330
1F
100
AcDbEntity
  8
0
  6
SLD-Сплошная
 62
     7
370
    25
100
AcDbLine
 10
214.2824016322
 20
197.8250733516
 30
0.0
 11
214.2824016322
 21
205.7250733516
 31
0.0
  0
LINE
  5
18B
330
1F
100
AcDbEntity
  8
0
  6
SLD-Сплошная
 62
     7
370
    25
100
AcDbLine
 10
215.1287711396
 20
197.8250733516
 30
0.0
 11
215.1287711396
 21
205.7250733516
 31
0.0
  0
LINE
  5
18C
330
1F
100
AcDbEntity
  8
0
  6
SLD-Сплошная
 62
     7
370
    25
100
AcDbLine
 10
215.1287711396
 20
197.8250733516
 30
0.0
 11
214.2824016322
 21
197.8250733516
 31
0.0
  0
LINE
  5
18D
330
1F
100
AcDbEntity
  8
0
  6
SLD-Сплошная
 62
     7
370
    25
100
AcDbLine
 10
218.1824016322
 20
205.3250733516
 30
0.0
 11
218.1825272959
 21
205.7250733516
 31
0.0
  0
LINE
  5
18E
330
1F
100
AcDbEntity
  8
0
  6
SLD-Сплошная
 62
     7
370
    25
100
AcDbLine
 10
218.1824016322
 20
205.3250733516
 30
0.0
 11
216.8133146192
 21
205.3250733516
 31
0.0
  0
LINE
  5
18F
330
1F
100
AcDbEntity
  8
0
  6
SLD-Сплошная
 62
     7
370
    25
100
AcDbLine
 10
216.8133146192
 20
205.3250733516
 30
0.0
 11
216.8109584246
 21
197.8250733516
 31
0.0
  0
LINE
  5
190
330
1F
100
AcDbEntity
  8
0
  6
SLD-Сплошная
 62
     7
370
    25
100
AcDbLine
 10
216.8109584246
 20
197.8250733516
 30
0.0
 11
215.1287711396
 21
197.8250733516
 31
0.0
  0
LINE
  5
191
330
1F
100
AcDbEntity
  8
0
  6
SLD-Сплошная
 62
     7
370
    25
100
AcDbLine
 10
233.2824016322
 20
197.8250733516
 30
0.0
 11
227.0824016322
 21
197.8250733516
 31
0.0
  0
LINE
  5
192
330
1F
100
AcDbEntity
  8
0
  6
SLD-Сплошная
 62
     7
370
    25
100
AcDbLine
 10
243.5538448398
 20
197.8250733516
 30
0.0
 11
235.8109584246
 21
197.8250733516
 31
0.0
  0
LINE
  5
193
330
1F
100
AcDbEntity
  8
0
  6
SLD-Сплошная
 62
     7
370
    25
100
AcDbLine
 10
224.5538448398
 20
197.8250733516
 30
0.0
 11
216.8109584246
 21
197.8250733516
 31
0.0
  0
LINE
  5
194
330
1F
100
AcDbEntity
  8
0
  6
SLD-Сплошная
 62
     7
370
    25
100
AcDbLine
 10
222.8843041003
 20
195.3250733516
 30
0.0
 11
222.8845894344
 21
197.8250733516
 31
0.0
  0
LINE
  5
195
330
1F
100
AcDbEntity
  8
0
  6
SLD-Сплошная
 62
     7
370
    25
100
AcDbLine
 10
222.8843041003
 20
195.3250733516
 30
0.0
 11
218.4804991641
 21
195.3250733516
 31
0.0
  0
LINE
  5
196
330
1F
100
AcDbEntity
  8
0
  6
SLD-Сплошная
 62
     7
370
    25
100
AcDbLine
 10
218.4804991641
 20
195.3250733516
 30
0.0
 11
218.4802138301
 21
197.8250733516
 31
0.0
  0
LINE
  5
197
330
1F
100
AcDbEntity
  8
0
  6
SLD-Сплошная
 62
     7
370
    25
100
AcDbLine
 10
241.8843041003
 20
195.3250733516
 30
0.0
 11
241.8845894344
 21
197.8250733516
 31
0.0
  0
LINE
  5
198
330
1F
100
AcDbEntity
  8
0
  6
SLD-Сплошная
 62
     7
370
    25
100
AcDbLine
 10
237.4804991641
 20
195.3250733516
 30
0.0
 11
241.8843041003
 21
195.3250733516
 31
0.0
  0
LINE
  5
199
330
1F
100
AcDbEntity
  8
0
  6
SLD-Сплошная
 62
     7
370
    25
100
AcDbLine
 10
237.4804991641
 20
195.3250733516
 30
0.0
 11
237.4802138301
 21
197.8250733516
 31
0.0
  0
LINE
  5
19A
330
1F
100
AcDbEntity
  8
0
  6
SLD-Сплошная
 62
     7
370
    25
100
AcDbLine
 10
234.751382184
 20
197.8250733516
 30
0.0
 11
234.7521675822
 21
195.3250733516
 31
0.0
  0
LINE
  5
19B
330
1F
100
AcDbEntity
  8
0
  6
SLD-Сплошная
 62
     7
370
    25
100
AcDbLine
 10
237.4804991641
 20
195.3250733516
 30
0.0
 11
234.7521675822
 21
195.3250733516
 31
0.0
  0
LINE
  5
19C
330
1F
100
AcDbEntity
  8
0
  6
SLD-Сплошная
 62
     7
370
    25
100
AcDbLine
 10
244.6134210804
 20
197.8250733516
 30
0.0
 11
244.6126356823
 21
195.3250733516
 31
0.0
  0
LINE
  5
19D
330
1F
100
AcDbEntity
  8
0
  6
SLD-Сплошная
 62
     7
370
    25
100
AcDbLine
 10
244.6126356823
 20
195.3250733516
 30
0.0
 11
241.8843041003
 21
195.3250733516
 31
0.0
  0
LINE
  5
19E
330
1F
100
AcDbEntity
  8
0
  6
SLD-Сплошная
 62
     7
370
    25
100
AcDbLine
 10
215.751382184
 20
197.8250733516
 30
0.0
 11
215.7521675822
 21
195.3250733516
 31
0.0
  0
LINE
  5
19F
330
1F
100
AcDbEntity
  8
0
  6
SLD-Сплошная
 62
     7
370
    25
100
AcDbLine
 10
215.7521675822
 20
195.3250733516
 30
0.0
 11
218.4804991641
 21
195.3250733516
 31
0.0
  0
LINE
  5
1A0
330
1F
100
AcDbEntity
  8
0
  6
SLD-Сплошная
 62
     7
370
    25
100
AcDbLine
 10
225.6134210804
 20
197.8250733516
 30
0.0
 11
225.6126356823
 21
195.3250733516
 31
0.0
  0
LINE
  5
1A1
330
1F
100
AcDbEntity
  8
0
  6
SLD-Сплошная
 62
     7
370
    25
100
AcDbLine
 10
222.8843041003
 20
195.3250733516
 30
0.0
 11
225.6126356823
 21
195.3250733516
 31
0.0
  0
LINE
  5
1A2
330
1F
100
AcDbEntity
  8
0
  6
SLD-Сплошная
 62
     7
370
    25
100
AcDbLine
 10
248.8596605318
 20
197.8250733516
 30
0.0
 11
246.0824016322
 21
197.8250733516
 31
0.0
  0
LINE
  5
1A3
330
1F
100
AcDbEntity
  8
0
  6
SLD-Сплошная
 62
     7
370
    25
100
AcDbLine
 10
214.2824016322
 20
197.8250733516
 30
0.0
 11
211.5051427327
 21
197.8250733516
 31
0.0
  0
LINE
  5
1A4
330
1F
100
AcDbEntity
  8
0
  6
SLD-Сплошная
 62
     7
370
    25
100
AcDbLine
 10
226.1827157915
 20
196.8250733516
 30
0.0
 11
226.1824016322
 21
197.8250733516
 31
0.0
  0
LINE
  5
1A5
330
1F
100
AcDbEntity
  8
0
  6
SLD-Сплошная
 62
     7
370
    25
100
AcDbLine
 10
234.182087473
 20
196.8250733516
 30
0.0
 11
234.1824016322
 21
197.8250733516
 31
0.0
  0
LINE
  5
1A6
330
1F
100
AcDbEntity
  8
0
  6
SLD-Сплошная
 62
     7
370
    25
100
AcDbLine
 10
234.182087473
 20
196.8250733516
 30
0.0
 11
226.1827157915
 21
196.8250733516
 31
0.0
  0
LINE
  5
1A7
330
1F
100
AcDbEntity
  8
0
  6
SLD-Сплошная
 62
     7
370
    25
100
AcDbLine
 10
220.1983030782
 20
238.7447961667
 30
0.0
 11
220.2183854482
 21
238.7507366533
 31
0.0
  0
LINE
  5
1A8
330
1F
100
AcDbEntity
  8
0
  6
SLD-Сплошная
 62
     7
370
    25
100
AcDbLine
 10
240.1664999371
 20
238.7447962462
 30
0.0
 11
240.1464178161
 21
238.7507366534
 31
0.0
  0
SPLINE
  5
1A9
330
1F
100
AcDbEntity
  8
0
  6
SLD-Сплошная
 62
     7
370
    25
100
AcDbSpline
210
0.0
220
0.0
230
1.0
 70
     8
 71
     3
 72
     8
 73
     4
 74
     0
 42
0.00000001
 43
0.00000001
 40
0.0
 40
0.0
 40
0.0
 40
0.0
 40
1.0
 40
1.0
 40
1.0
 40
1.0
 10
238.6824016322363
 20
238.8250733515601
 30
0.0
 10
238.60968268511
 20
238.8250733515601
 30
0.0
 10
238.5369223023536
 20
238.8092109016941
 30
0.0
 10
238.4694947521332
 20
238.7774787675365
 30
0.0
  0
LINE
  5
1AA
330
1F
100
AcDbEntity
  8
0
  6
SLD-Сплошная
 62
     7
370
    25
100
AcDbLine
 10
239.9824016322
 20
238.8250733516
 30
0.0
 11
238.6824016322
 21
238.8250733516
 31
0.0
  0
LINE
  5
1AB
330
1F
100
AcDbEntity
  8
0
  6
SLD-Сплошная
 62
     7
370
    25
100
AcDbLine
 10
221.6824016322
 20
238.8250733516
 30
0.0
 11
220.3824016322
 21
238.8250733516
 31
0.0
  0
SPLINE
  5
1AC
330
1F
100
AcDbEntity
  8
0
  6
SLD-Сплошная
 62
     7
370
    25
100
AcDbSpline
210
0.0
220
0.0
230
1.0
 70
     8
 71
     3
 72
     8
 73
     4
 74
     0
 42
0.00000001
 43
0.00000001
 40
0.0
 40
0.0
 40
0.0
 40
0.0
 40
1.0
 40
1.0
 40
1.0
 40
1.0
 10
221.6824016322363
 20
238.8250733515601
 30
0.0
 10
221.7551205793652
 20
238.8250733515601
 30
0.0
 10
221.8278809621242
 20
238.809210901693
 30
0.0
 10
221.895308512335
 20
238.7774787675386
 30
0.0
  0
ARC
  5
1AD
330
1F
100
AcDbEntity
  8
0
  6
SLD-Сплошная
 62
     7
370
    25
100
AcDbCircle
 10
239.9824016322
 20
238.3250733516
 30
0.0
 40
0.5
100
AcDbArc
 50
45.3290664743
 51
90.0
  0
ARC
  5
1AE
330
1F
100
AcDbEntity
  8
0
  6
SLD-Сплошная
 62
     7
370
    25
100
AcDbCircle
 10
220.3824016322
 20
238.3250733516
 30
0.0
 40
0.5
100
AcDbArc
 50
90.0
 51
134.8964854158
  0
LINE
  5
1AF
330
1F
100
AcDbEntity
  8
0
  6
SLD-Сплошная
 62
     7
370
    25
100
AcDbLine
 10
233.1824016322
 20
240.4097766721
 30
0.0
 11
235.1824016322
 21
240.4097766721
 31
0.0
  0
LINE
  5
1B0
330
1F
100
AcDbEntity
  8
0
  6
SLD-Сплошная
 62
     7
370
    25
100
AcDbLine
 10
235.1824016322
 20
240.4097766721
 30
0.0
 11
235.1824016322
 21
237.4751587509
 31
0.0
  0
LINE
  5
1B1
330
1F
100
AcDbEntity
  8
0
  6
SLD-Сплошная
 62
     7
370
    25
100
AcDbLine
 10
233.1824016322
 20
237.460012051
 30
0.0
 11
233.1824016322
 21
240.4097766721
 31
0.0
  0
LINE
  5
1B2
330
1F
100
AcDbEntity
  8
0
  6
SLD-Сплошная
 62
     7
370
    25
100
AcDbLine
 10
225.1824016322
 20
240.4097766721
 30
0.0
 11
227.1824016322
 21
240.4097766721
 31
0.0
  0
LINE
  5
1B3
330
1F
100
AcDbEntity
  8
0
  6
SLD-Сплошная
 62
     7
370
    25
100
AcDbLine
 10
225.1824016322
 20
237.4753878102
 30
0.0
 11
225.1824016322
 21
240.4097766721
 31
0.0
  0
LINE
  5
1B4
330
1F
100
AcDbEntity
  8
0
  6
SLD-Сплошная
 62
     7
370
    25
100
AcDbLine
 10
227.1824016322
 20
240.4097766721
 30
0.0
 11
227.1824016322
 21
237.4585018791
 31
0.0
  0
LINE
  5
1B5
330
1F
100
AcDbEntity
  8
0
  6
SLD-Сплошная
 62
     7
370
    25
100
AcDbLine
 10
219.4824016322
 20
238.7250733516
 30
0.0
 11
217.6824016322
 21
238.7250733516
 31
0.0
  0
LINE
  5
1B6
330
1F
100
AcDbEntity
  8
0
  6
SLD-Сплошная
 62
     7
370
    25
100
AcDbLine
 10
217.6824016322
 20
237.5350213738
 30
0.0
 11
217.6824016322
 21
238.7250733516
 31
0.0
  0
LINE
  5
1B7
330
1F
100
AcDbEntity
  8
0
  6
SLD-Сплошная
 62
     7
370
    25
100
AcDbLine
 10
242.6824016322
 20
238.7250733516
 30
0.0
 11
240.8824016322
 21
238.7250733516
 31
0.0
  0
LINE
  5
1B8
330
1F
100
AcDbEntity
  8
0
  6
SLD-Сплошная
 62
     7
370
    25
100
AcDbLine
 10
242.6824016322
 20
237.5350213738
 30
0.0
 11
242.6824016322
 21
238.7250733516
 31
0.0
  0
ARC
  5
1B9
330
1F
100
AcDbEntity
  8
0
  6
SLD-Сплошная
 62
     7
370
    25
100
AcDbCircle
 10
219.4824016322
 20
238.5250733516
 30
0.0
 40
0.2000000000000171
100
AcDbArc
 50
2.281722815
 51
90.0
  0
ARC
  5
1BA
330
1F
100
AcDbEntity
  8
0
  6
SLD-Сплошная
 62
     7
370
    25
100
AcDbCircle
 10
240.8824016322
 20
238.5250733516
 30
0.0
 40
0.2000000000000171
100
AcDbArc
 50
90.0
 51
177.7182771849
  0
LINE
  5
1BB
330
1F
100
AcDbEntity
  8
0
  6
SLD-Сплошная
 62
     7
370
    25
100
AcDbLine
 10
235.1824016322
 20
238.8250733516
 30
0.0
 11
238.6824016322
 21
238.8250733516
 31
0.0
  0
LINE
  5
1BC
330
1F
100
AcDbEntity
  8
0
  6
SLD-Сплошная
 62
     7
370
    25
100
AcDbLine
 10
227.1824016322
 20
238.8250733516
 30
0.0
 11
233.1824016322
 21
238.8250733516
 31
0.0
  0
LINE
  5
1BD
330
1F
100
AcDbEntity
  8
0
  6
SLD-Сплошная
 62
     7
370
    25
100
AcDbLine
 10
225.1824016322
 20
238.8250733516
 30
0.0
 11
221.6824016322
 21
238.8250733516
 31
0.0
  0
SPLINE
  5
1BE
330
1F
100
AcDbEntity
  8
0
  6
SLD-Сплошная
 62
     7
370
    25
100
AcDbSpline
210
0.0
220
0.0
230
1.0
 70
     8
 71
     3
 72
    18
 73
    14
 74
     0
 42
0.00000001
 43
0.00000001
 40
0.0
 40
0.0
 40
0.0
 40
0.0
 40
0.2405027807019403
 40
0.3879329752554794
 40
0.4289244273506796
 40
0.4431067655235316
 40
0.4541313276605235
 40
0.4589644629246102
 40
0.4636767847815936
 40
0.4984933471191609
 40
0.5712841071516572
 40
0.6901690365770473
 40
1.0
 40
1.0
 40
1.0
 40
1.0
 10
219.9222923014991
 20
49.7683446307844
 30
0.0
 10
219.9246590696978
 20
49.76406753355672
 30
0.0
 10
219.9284766863854
 20
49.75716854033866
 30
0.0
 10
219.9310227734798
 20
49.72183840258564
 30
0.0
 10
219.9483342903122
 20
49.66923205649146
 30
0.0
 10
219.9582336303557
 20
49.64780979872367
 30
0.0
 10
219.9644488450008
 20
49.63620641851112
 30
0.0
 10
219.9693962319387
 20
49.62788470890555
 30
0.0
 10
219.9803117035617
 20
49.61060825973085
 30
0.0
 10
220.0052115224562
 20
49.57896767320124
 30
0.0
 10
220.0658296430852
 20
49.52859488347683
 30
0.0
 10
220.2085198252173
 20
49.46573439507461
 30
0.0
 10
220.3381005986278
 20
49.47690002002823
 30
0.0
 10
220.4317480153358
 20
49.48496936477219
 30
0.0
  0
LINE
  5
1BF
330
1F
100
AcDbEntity
  8
0
  6
SLD-Сплошная
 62
     7
370
    25
100
AcDbLine
 10
206.6515480021
 20
56.4628888718
 30
0.0
 11
206.6531816303
 21
51.2628888718
 31
0.0
  0
LINE
  5
1C0
330
1F
100
AcDbEntity
  8
0
  6
SLD-Сплошная
 62
     7
370
    25
100
AcDbLine
 10
251.4880676296
 20
56.4628888718
 30
0.0
 11
251.5824016322
 21
58.2628888718
 31
0.0
  0
LINE
  5
1C1
330
1F
100
AcDbEntity
  8
0
  6
SLD-Сплошная
 62
     7
370
    25
100
AcDbLine
 10
208.7824016322
 20
58.2628888718
 30
0.0
 11
208.8767356348
 21
56.4628888718
 31
0.0
  0
LINE
  5
1C2
330
1F
100
AcDbEntity
  8
0
  6
SLD-Сплошная
 62
     7
370
    25
100
AcDbLine
 10
219.7815252768
 20
49.7053797839
 30
0.0
 11
219.9655013573
 21
49.6345732593
 31
0.0
  0
LINE
  5
1C3
330
1F
100
AcDbEntity
  8
0
  6
SLD-Сплошная
 62
     7
370
    25
100
AcDbLine
 10
240.3326632845
 20
49.6089261791
 30
0.0
 11
240.5832779876
 21
49.7053797838
 31
0.0
  0
LINE
  5
1C4
330
1F
100
AcDbEntity
  8
0
  6
SLD-Сплошная
 62
     7
370
    25
100
AcDbLine
 10
217.4060201025
 20
50.8908681844
 30
0.0
 11
217.6824016322
 21
50.7529408495
 31
0.0
  0
LINE
  5
1C5
330
1F
100
AcDbEntity
  8
0
  6
SLD-Сплошная
 62
     7
370
    25
100
AcDbLine
 10
219.6822430615
 20
49.7549262617
 30
0.0
 11
219.7815155595
 21
49.7053846331
 31
0.0
  0
LINE
  5
1C6
330
1F
100
AcDbEntity
  8
0
  6
SLD-Сплошная
 62
     7
370
    25
100
AcDbLine
 10
240.5832877049
 20
49.7053846331
 30
0.0
 11
240.682560203
 21
49.7549262617
 31
0.0
  0
LINE
  5
1C7
330
1F
100
AcDbEntity
  8
0
  6
SLD-Сплошная
 62
     7
370
    25
100
AcDbLine
 10
242.6824016322
 20
50.7529408495
 30
0.0
 11
242.9588204652
 21
50.8908868004
 31
0.0
  0
SPLINE
  5
1C8
330
1F
100
AcDbEntity
  8
0
  6
SLD-Сплошная
 62
     7
370
    25
100
AcDbSpline
210
0.0
220
0.0
230
1.0
 70
     8
 71
     3
 72
    17
 73
    13
 74
     0
 42
0.00000001
 43
0.00000001
 40
0.0
 40
0.0
 40
0.0
 40
0.0
 40
0.1735086245318277
 40
0.3389971773261329
 40
0.4977697965912597
 40
0.6326007808877375
 40
0.7482799942471304
 40
0.8173721229533852
 40
0.8753227537261928
 40
0.9234601902157474
 40
0.96390117969215
 40
1.0
 40
1.0
 40
1.0
 40
1.0
 10
240.3816924069786
 20
55.0628888717664
 30
0.0
 10
240.3796064250935
 20
55.14970489397714
 30
0.0
 10
240.3755308814546
 20
55.31932405011727
 30
0.0
 10
240.3565399319102
 20
55.56782858998614
 30
0.0
 10
240.3267036001563
 20
55.795776146333
 30
0.0
 10
240.2858798543119
 20
55.99668992052943
 30
0.0
 10
240.2384205724431
 20
56.14989697081133
 30
0.0
 10
240.1886073086247
 20
56.26088440410062
 30
0.0
 10
240.1422320989816
 20
56.33587847660731
 30
0.0
 10
240.0924192483403
 20
56.3899296201327
 30
0.0
 10
240.0390187085975
 20
56.42564601530685
 30
0.0
 10
240.0005464699732
 20
56.43035961898872
 30
0.0
 10
239.9824016322364
 20
56.43258271743636
 30
0.0
  0
SPLINE
  5
1C9
330
1F
100
AcDbEntity
  8
0
  6
SLD-Сплошная
 62
     7
370
    25
100
AcDbSpline
210
0.0
220
0.0
230
1.0
 70
     8
 71
     3
 72
    30
 73
    26
 74
     0
 42
0.00000001
 43
0.00000001
 40
0.0
 40
0.0
 40
0.0
 40
0.0
 40
0.0285050583755907
 40
0.0575072734576239
 40
0.0869881913225769
 40
0.1169266063956952
 40
0.1472985481913574
 40
0.1780773031017224
 40
0.2092334739979343
 40
0.2407350796307548
 40
0.2725476948769383
 40
0.3046346317999622
 40
0.3369571603167897
 40
0.3694747660348842
 40
0.4021454416020706
 40
0.434926006757831
 40
0.4677724512498836
 40
0.5006402939422658
 40
0.6176225566050783
 40
0.7503588495930016
 40
0.8020588160322172
 40
0.8530074784759731
 40
0.9030618536097852
 40
0.9520955777593583
 40
1.0
 40
1.0
 40
1.0
 40
1.0
 10
240.4406592017319
 20
49.76288887176639
 30
0.0
 10
240.4406491794373
 20
49.76390876258263
 30
0.0
 10
240.4406289600493
 20
49.76596633213024
 30
0.0
 10
240.440468588977
 20
49.78282669456293
 30
0.0
 10
240.4402129636787
 20
49.81037803316593
 30
0.0
 10
240.4398512741338
 20
49.85008385923856
 30
0.0
 10
240.4393847943852
 20
49.90207391907663
 30
0.0
 10
240.4388109640234
 20
49.96675397812575
 30
0.0
 10
240.4381277530723
 20
50.04435204219716
 30
0.0
 10
240.4373324649406
 20
50.13503144235878
 30
0.0
 10
240.4364220624936
 20
50.23885019795031
 30
0.0
 10
240.4353930758664
 20
50.35576421305596
 30
0.0
 10
240.4342416317102
 20
50.48562089977526
 30
0.0
 10
240.4329634223878
 20
50.62815730649121
 30
0.0
 10
240.4315537942532
 20
50.78300214597819
 30
0.0
 10
240.4300074193768
 20
50.94967074630678
 30
0.0
 10
240.4283195239133
 20
51.1275982428734
 30
0.0
 10
240.4249120397102
 20
51.47690900144858
 30
0.0
 10
240.4186775918621
 20
52.0834801581641
 30
0.0
 10
240.4104532940546
 20
52.82462075951138
 30
0.0
 10
240.403157441008
 20
53.43810199666771
 30
0.0
 10
240.3981585110313
 20
53.84669028376459
 30
0.0
 10
240.3929272530742
 20
54.25563934044079
 30
0.0
 10
240.38750176954
 20
54.66108732886143
 30
0.0
 10
240.3836137631079
 20
54.92999927342383
 30
0.0
 10
240.3816924069779
 20
55.0628888717664
 30
0.0
  0
ARC
  5
1CA
330
1F
100
AcDbEntity
  8
0
  6
SLD-Сплошная
 62
     7
370
    25
100
AcDbCircle
 10
239.9824016322
 20
49.9628888718
 30
0.0
 40
0.5000000000000163
100
AcDbArc
 50
270.0
 51
336.4218215218
  0
SPLINE
  5
1CB
330
1F
100
AcDbEntity
  8
0
  6
SLD-Сплошная
 62
     7
370
    25
100
AcDbSpline
210
0.0
220
0.0
230
1.0
 70
     8
 71
     3
 72
    21
 73
    17
 74
     0
 42
0.00000001
 43
0.00000001
 40
0.0
 40
0.0
 40
0.0
 40
0.0
 40
0.0235163959120337
 40
0.0731935607424689
 40
0.1490105805861163
 40
0.2509354796049658
 40
0.3681496245057641
 40
0.5005229479116808
 40
0.5808569912592163
 40
0.6560790352476218
 40
0.7261879023373745
 40
0.7911825065535748
 40
0.8510618565623713
 40
0.905825060175484
 40
0.9554713311672061
 40
1.0
 40
1.0
 40
1.0
 40
1.0
 10
219.9242854105889
 20
49.76288887416948
 30
0.0
 10
219.9242384514816
 20
49.76361979602728
 30
0.0
 10
219.9240922936997
 20
49.76589475234279
 30
0.0
 10
219.9248501199792
 20
49.79837322741758
 30
0.0
 10
219.9259605190601
 20
49.90746665817031
 30
0.0
 10
219.9273804680235
 20
50.16143202344649
 30
0.0
 10
219.9308827235516
 20
50.61925243958654
 30
0.0
 10
219.9371650426226
 20
51.20087238573031
 30
0.0
 10
219.943563924474
 20
51.80194457913282
 30
0.0
 10
219.9489396987166
 20
52.31996751212624
 30
0.0
 10
219.9544010683462
 20
52.83697588063143
 30
0.0
 10
219.9599340710005
 20
53.34017439310342
 30
0.0
 10
219.9655325404838
 20
53.81947464510068
 30
0.0
 10
219.9712251267474
 20
54.26729798254961
 30
0.0
 10
219.9769113977988
 20
54.6782400226442
 30
0.0
 10
219.9811374732352
 20
54.93940558801662
 30
0.0
 10
219.9831356854339
 20
55.06289231381297
 30
0.0
  0
SPLINE
  5
1CC
330
1F
100
AcDbEntity
  8
0
  6
SLD-Сплошная
 62
     7
370
    25
100
AcDbSpline
210
0.0
220
0.0
230
1.0
 70
     8
 71
     3
 72
    18
 73
    14
 74
     0
 42
0.00000001
 43
0.00000001
 40
0.0
 40
0.0
 40
0.0
 40
0.0
 40
0.027624897009168
 40
0.0560373336015359
 40
0.0867221938006633
 40
0.1208763716936022
 40
0.1593823038535508
 40
0.2028620941407999
 40
0.2517441056635594
 40
0.3666016799382452
 40
0.5018245610891845
 40
0.7291479518792698
 40
1.0
 40
1.0
 40
1.0
 40
1.0
 10
220.3822839977312
 20
56.43254522819778
 30
0.0
 10
220.3685129896257
 20
56.43071434942663
 30
0.0
 10
220.3405783850194
 20
56.42700039659457
 30
0.0
 10
220.300816993361
 20
56.40812636164355
 30
0.0
 10
220.2634059434725
 20
56.37990885864303
 30
0.0
 10
220.2283057158033
 20
56.3415990318601
 30
0.0
 10
220.1953376687505
 20
56.29359096598139
 30
0.0
 10
220.1643793949237
 20
56.23577680126726
 30
0.0
 10
220.1235185588046
 20
56.14039300833387
 30
0.0
 10
220.0794812086723
 20
55.99703480839218
 30
0.0
 10
220.0313687567194
 20
55.76288619723857
 30
0.0
 10
219.9946014995226
 20
55.44757640779763
 30
0.0
 10
219.9871739391371
 20
55.19837833567835
 30
0.0
 10
219.9831356630885
 20
55.06289231418999
 30
0.0
  0
SPLINE
  5
1CD
330
1F
100
AcDbEntity
  8
0
  6
SLD-Сплошная
 62
     7
370
    25
100
AcDbSpline
210
0.0
220
0.0
230
1.0
 70
     8
 71
     3
 72
    14
 73
    10
 74
     0
 42
0.00000001
 43
0.00000001
 40
0.0
 40
0.0
 40
0.0
 40
0.0
 40
0.25
 40
0.25
 40
0.5
 40
0.5
 40
0.75
 40
0.75
 40
1.0
 40
1.0
 40
1.0
 40
1.0
 10
220.3822861487571
 20
56.43248746760391
 30
0.0
 10
220.3822840780847
 20
55.6192631567229
 30
0.0
 10
220.3822820074121
 20
54.75384567722958
 30
0.0
 10
220.3822778660671
 20
53.09634858977449
 30
0.0
 10
220.3822757953946
 20
52.30549679149868
 30
0.0
 10
220.3822716540496
 20
50.96199790751229
 30
0.0
 10
220.3822695833771
 20
50.41034603377244
 30
0.0
 10
220.3822654420321
 20
49.66052597438568
 30
0.0
 10
220.3822633713596
 20
49.46291322641563
 30
0.0
 10
220.3822613006871
 20
49.46288887405633
 30
0.0
  0
LINE
  5
1CE
330
1F
100
AcDbEntity
  8
0
  6
SLD-Сплошная
 62
     7
370
    25
100
AcDbLine
 10
239.9824016322
 20
56.4325827174
 30
0.0
 11
220.3822861488
 21
56.4325827174
 31
0.0
  0
LINE
  5
1CF
330
1F
100
AcDbEntity
  8
0
  6
SLD-Сплошная
 62
     7
370
    25
100
AcDbLine
 10
235.1824016322
 20
49.4628888718
 30
0.0
 11
239.9824016322
 21
49.4628888718
 31
0.0
  0
LINE
  5
1D0
330
1F
100
AcDbEntity
  8
0
  6
SLD-Сплошная
 62
     7
370
    25
100
AcDbLine
 10
233.1824016322
 20
49.4662416397
 30
0.0
 11
235.1824016322
 21
49.4662416397
 31
0.0
  0
LINE
  5
1D1
330
1F
100
AcDbEntity
  8
0
  6
SLD-Сплошная
 62
     7
370
    25
100
AcDbLine
 10
227.1824016322
 20
49.4628888718
 30
0.0
 11
233.1824016322
 21
49.4628888718
 31
0.0
  0
LINE
  5
1D2
330
1F
100
AcDbEntity
  8
0
  6
SLD-Сплошная
 62
     7
370
    25
100
AcDbLine
 10
225.1824016322
 20
49.4662416397
 30
0.0
 11
227.1824016322
 21
49.4662416397
 31
0.0
  0
LINE
  5
1D3
330
1F
100
AcDbEntity
  8
0
  6
SLD-Сплошная
 62
     7
370
    25
100
AcDbLine
 10
220.3822613007
 20
49.4628888718
 30
0.0
 11
225.1824016322
 21
49.4628888718
 31
0.0
  0
LINE
  5
1D4
330
1F
100
AcDbEntity
  8
0
  6
SLD-Сплошная
 62
     7
370
    25
100
AcDbLine
 10
219.4824016322
 20
57.5628888718
 30
0.0
 11
240.8824016322
 21
57.5628888718
 31
0.0
  0
LINE
  5
1D5
330
1F
100
AcDbEntity
  8
0
  6
SLD-Сплошная
 62
     7
370
    25
100
AcDbLine
 10
217.6824016322
 20
65.7628888718
 30
0.0
 11
217.6824016322
 21
55.0628888718
 31
0.0
  0
LINE
  5
1D6
330
1F
100
AcDbEntity
  8
0
  6
SLD-Сплошная
 62
     7
370
    25
100
AcDbLine
 10
242.6824016322
 20
65.7628888718
 30
0.0
 11
242.6824016322
 21
55.0628888718
 31
0.0
  0
LINE
  5
1D7
330
1F
100
AcDbEntity
  8
0
  6
SLD-Сплошная
 62
     7
370
    25
100
AcDbLine
 10
242.6824016322
 20
65.7628888718
 30
0.0
 11
217.6824016322
 21
65.7628888718
 31
0.0
  0
LINE
  5
1D8
330
1F
100
AcDbEntity
  8
0
  6
SLD-Сплошная
 62
     7
370
    25
100
AcDbLine
 10
219.6824016322
 20
49.7628888718
 30
0.0
 11
219.6824016322
 21
55.0628888718
 31
0.0
  0
ARC
  5
1D9
330
1F
100
AcDbEntity
  8
0
  6
SLD-Сплошная
 62
     7
370
    25
100
AcDbCircle
 10
219.4824016322
 20
49.7628888718
 30
0.0
 40
0.1999999999999957
100
AcDbArc
 50
270.0
 51
0.0
  0
LINE
  5
1DA
330
1F
100
AcDbEntity
  8
0
  6
SLD-Сплошная
 62
     7
370
    25
100
AcDbLine
 10
240.6824016322
 20
55.0628888718
 30
0.0
 11
240.6824016322
 21
49.7628888718
 31
0.0
  0
ARC
  5
1DB
330
1F
100
AcDbEntity
  8
0
  6
SLD-Сплошная
 62
     7
370
    25
100
AcDbCircle
 10
240.8824016322
 20
49.7628888718
 30
0.0
 40
0.1999999999999957
100
AcDbArc
 50
180.0
 51
270.0
  0
LINE
  5
1DC
330
1F
100
AcDbEntity
  8
0
  6
SLD-Сплошная
 62
     7
370
    25
100
AcDbLine
 10
219.6824016322
 20
55.0628888718
 30
0.0
 11
219.6824016322
 21
57.5628888718
 31
0.0
  0
LINE
  5
1DD
330
1F
100
AcDbEntity
  8
0
  6
SLD-Сплошная
 62
     7
370
    25
100
AcDbLine
 10
240.6824016322
 20
57.5628888718
 30
0.0
 11
240.6824016322
 21
55.0628888718
 31
0.0
  0
LINE
  5
1DE
330
1F
100
AcDbEntity
  8
0
  6
SLD-Сплошная
 62
     7
370
    25
100
AcDbLine
 10
240.8824016322
 20
49.5628888718
 30
0.0
 11
242.6824016322
 21
49.5628888718
 31
0.0
  0
LINE
  5
1DF
330
1F
100
AcDbEntity
  8
0
  6
SLD-Сплошная
 62
     7
370
    25
100
AcDbLine
 10
242.6824016322
 20
49.5628888718
 30
0.0
 11
242.6824016322
 21
55.0628888718
 31
0.0
  0
LINE
  5
1E0
330
1F
100
AcDbEntity
  8
0
  6
SLD-Сплошная
 62
     7
370
    25
100
AcDbLine
 10
217.6824016322
 20
49.5628888718
 30
0.0
 11
219.4824016322
 21
49.5628888718
 31
0.0
  0
LINE
  5
1E1
330
1F
100
AcDbEntity
  8
0
  6
SLD-Сплошная
 62
     7
370
    25
100
AcDbLine
 10
217.6824016322
 20
55.0628888718
 30
0.0
 11
217.6824016322
 21
49.5628888718
 31
0.0
  0
LINE
  5
1E2
330
1F
100
AcDbEntity
  8
0
  6
SLD-Сплошная
 62
     7
370
    25
100
AcDbLine
 10
219.6824016322
 20
49.7628888718
 30
0.0
 11
219.9242854106
 21
49.7628888718
 31
0.0
  0
LINE
  5
1E3
330
1F
100
AcDbEntity
  8
0
  6
SLD-Сплошная
 62
     7
370
    25
100
AcDbLine
 10
240.4406592017
 20
49.7628888718
 30
0.0
 11
240.6824016322
 21
49.7628888718
 31
0.0
  0
LINE
  5
1E4
330
1F
100
AcDbEntity
  8
0
  6
SLD-Сплошная
 62
     7
370
    25
100
AcDbLine
 10
225.1824016322
 20
47.8781855513
 30
0.0
 11
227.1824016322
 21
47.8781855513
 31
0.0
  0
LINE
  5
1E5
330
1F
100
AcDbEntity
  8
0
  6
SLD-Сплошная
 62
     7
370
    25
100
AcDbLine
 10
225.1824016322
 20
49.4662416397
 30
0.0
 11
225.1824016322
 21
47.8781855513
 31
0.0
  0
LINE
  5
1E6
330
1F
100
AcDbEntity
  8
0
  6
SLD-Сплошная
 62
     7
370
    25
100
AcDbLine
 10
227.1824016322
 20
49.4662416397
 30
0.0
 11
227.1824016322
 21
47.8781855513
 31
0.0
  0
LINE
  5
1E7
330
1F
100
AcDbEntity
  8
0
  6
SLD-Сплошная
 62
     7
370
    25
100
AcDbLine
 10
233.1824016322
 20
47.8781855513
 30
0.0
 11
235.1824016322
 21
47.8781855513
 31
0.0
  0
LINE
  5
1E8
330
1F
100
AcDbEntity
  8
0
  6
SLD-Сплошная
 62
     7
370
    25
100
AcDbLine
 10
235.1824016322
 20
49.4662416397
 30
0.0
 11
235.1824016322
 21
47.8781855513
 31
0.0
  0
LINE
  5
1E9
330
1F
100
AcDbEntity
  8
0
  6
SLD-Сплошная
 62
     7
370
    25
100
AcDbLine
 10
233.1824016322
 20
47.8781855513
 30
0.0
 11
233.1824016322
 21
49.4662416397
 31
0.0
  0
LINE
  5
1EA
330
1F
100
AcDbEntity
  8
0
  6
SLD-Сплошная
 62
     7
370
    25
100
AcDbLine
 10
217.6824016322
 20
58.2628888718
 30
0.0
 11
205.1538628403
 21
58.2628888718
 31
0.0
  0
LINE
  5
1EB
330
1F
100
AcDbEntity
  8
0
  6
SLD-Сплошная
 62
     7
370
    25
100
AcDbLine
 10
205.1538628403
 20
58.2628888718
 30
0.0
 11
205.1562190348
 21
65.7628888718
 31
0.0
  0
LINE
  5
1EC
330
1F
100
AcDbEntity
  8
0
  6
SLD-Сплошная
 62
     7
370
    25
100
AcDbLine
 10
217.6824016322
 20
65.7628888718
 30
0.0
 11
205.1562190348
 21
65.7628888718
 31
0.0
  0
LINE
  5
1ED
330
1F
100
AcDbEntity
  8
0
  6
SLD-Сплошная
 62
     7
370
    25
100
AcDbLine
 10
255.2109404242
 20
58.2628888718
 30
0.0
 11
255.2085842296
 21
65.7628888718
 31
0.0
  0
LINE
  5
1EE
330
1F
100
AcDbEntity
  8
0
  6
SLD-Сплошная
 62
     7
370
    25
100
AcDbLine
 10
242.6824016322
 20
58.2628888718
 30
0.0
 11
255.2109404242
 21
58.2628888718
 31
0.0
  0
LINE
  5
1EF
330
1F
100
AcDbEntity
  8
0
  6
SLD-Сплошная
 62
     7
370
    25
100
AcDbLine
 10
255.2085842296
 20
65.7628888718
 30
0.0
 11
242.6824016322
 21
65.7628888718
 31
0.0
  0
LINE
  5
1F0
330
1F
100
AcDbEntity
  8
0
  6
SLD-Сплошная
 62
     7
370
    25
100
AcDbLine
 10
253.7116216341
 20
51.2628888718
 30
0.0
 11
253.7132552624
 21
56.4628888718
 31
0.0
  0
LINE
  5
1F1
330
1F
100
AcDbEntity
  8
0
  6
SLD-Сплошная
 62
     7
370
    25
100
AcDbLine
 10
242.6824016322
 20
51.2628888718
 30
0.0
 11
253.7116216341
 21
51.2628888718
 31
0.0
  0
LINE
  5
1F2
330
1F
100
AcDbEntity
  8
0
  6
SLD-Сплошная
 62
     7
370
    25
100
AcDbLine
 10
242.6824016322
 20
56.4628888718
 30
0.0
 11
253.7132552624
 21
56.4628888718
 31
0.0
  0
LINE
  5
1F3
330
1F
100
AcDbEntity
  8
0
  6
SLD-Сплошная
 62
     7
370
    25
100
AcDbLine
 10
217.6824016322
 20
51.2628888718
 30
0.0
 11
206.6531816303
 21
51.2628888718
 31
0.0
  0
LINE
  5
1F4
330
1F
100
AcDbEntity
  8
0
  6
SLD-Сплошная
 62
     7
370
    25
100
AcDbLine
 10
206.6515480021
 20
56.4628888718
 30
0.0
 11
217.6824016322
 21
56.4628888718
 31
0.0
  0
LINE
  5
1F5
330
1F
100
AcDbEntity
  8
0
  6
SLD-Сплошная
 62
     7
370
    25
100
AcDbLine
 10
211.5051427327
 20
82.5628888718
 30
0.0
 11
211.5051427327
 21
90.4628888718
 31
0.0
  0
LINE
  5
1F6
330
1F
100
AcDbEntity
  8
0
  6
SLD-Сплошная
 62
     7
370
    25
100
AcDbLine
 10
248.8596605318
 20
82.5628888718
 30
0.0
 11
211.5051427327
 21
82.5628888718
 31
0.0
  0
LINE
  5
1F7
330
1F
100
AcDbEntity
  8
0
  6
SLD-Сплошная
 62
     7
370
    25
100
AcDbLine
 10
248.8596605318
 20
90.4628888718
 30
0.0
 11
248.8596605318
 21
82.5628888718
 31
0.0
  0
LINE
  5
1F8
330
1F
100
AcDbEntity
  8
0
  6
SLD-Сплошная
 62
     7
370
    25
100
AcDbLine
 10
251.1824016322
 20
90.4628888718
 30
0.0
 11
248.8596605318
 21
90.4628888718
 31
0.0
  0
LINE
  5
1F9
330
1F
100
AcDbEntity
  8
0
  6
SLD-Сплошная
 62
     7
370
    25
100
AcDbLine
 10
251.1824016322
 20
90.4628888718
 30
0.0
 11
251.1824016322
 21
65.7628888718
 31
0.0
  0
LINE
  5
1FA
330
1F
100
AcDbEntity
  8
0
  6
SLD-Сплошная
 62
     7
370
    25
100
AcDbLine
 10
209.1824016322
 20
90.4628888718
 30
0.0
 11
209.1824016322
 21
65.7628888718
 31
0.0
  0
LINE
  5
1FB
330
1F
100
AcDbEntity
  8
0
  6
SLD-Сплошная
 62
     7
370
    25
100
AcDbLine
 10
211.5051427327
 20
90.4628888718
 30
0.0
 11
209.1824016322
 21
90.4628888718
 31
0.0
  0
LINE
  5
1FC
330
1F
100
AcDbEntity
  8
0
  6
SLD-Сплошная
 62
     7
370
    25
100
AcDbLine
 10
227.6824016322
 20
83.3628888718
 30
0.0
 11
227.6824016322
 21
82.5628888718
 31
0.0
  0
LINE
  5
1FD
330
1F
100
AcDbEntity
  8
0
  6
SLD-Сплошная
 62
     7
370
    25
100
AcDbLine
 10
227.6824016322
 20
83.3628888718
 30
0.0
 11
232.6824016322
 21
83.3628888718
 31
0.0
  0
LINE
  5
1FE
330
1F
100
AcDbEntity
  8
0
  6
SLD-Сплошная
 62
     7
370
    25
100
AcDbLine
 10
232.6824016322
 20
83.3628888718
 30
0.0
 11
232.6824016322
 21
82.5628888718
 31
0.0
  0
LINE
  5
1FF
330
1F
100
AcDbEntity
  8
0
  6
SLD-Сплошная
 62
     7
370
    25
100
AcDbLine
 10
211.5051427327
 20
90.4628888718
 30
0.0
 11
248.8596605318
 21
90.4628888718
 31
0.0
  0
SPLINE
  5
200
330
1F
100
AcDbEntity
  8
0
  6
SLD-Сплошная
 62
     7
370
    25
100
AcDbSpline
210
0.0
220
0.0
230
1.0
 70
     8
 71
     3
 72
    12
 73
     8
 74
     0
 42
0.00000001
 43
0.00000001
 40
0.0
 40
0.0
 40
0.0
 40
0.0
 40
0.1705262742243758
 40
0.3468010459154581
 40
0.530366713922303
 40
0.7225901166040608
 40
1.0
 40
1.0
 40
1.0
 40
1.0
 10
217.1414540245443
 20
51.33312916517454
 30
0.0
 10
217.1432081025536
 20
51.30062861225993
 30
0.0
 10
217.1467753891257
 20
51.23453190197359
 30
0.0
 10
217.1759333319752
 20
51.13822501092989
 30
0.0
 10
217.2232988707966
 20
51.04844759875694
 30
0.0
 10
217.2975257035483
 20
50.95675759139917
 30
0.0
 10
217.3664325927706
 20
50.91636675805032
 30
0.0
 10
217.4071355256142
 20
50.89250810769111
 30
0.0
  0
SPLINE
  5
201
330
1F
100
AcDbEntity
  8
0
  6
SLD-Сплошная
 62
     7
370
    25
100
AcDbSpline
210
0.0
220
0.0
230
1.0
 70
     8
 71
     3
 72
    12
 73
     8
 74
     0
 42
0.00000001
 43
0.00000001
 40
0.0
 40
0.0
 40
0.0
 40
0.0
 40
0.2768372905945341
 40
0.4692120650333994
 40
0.6529214469637055
 40
0.8293354448211967
 40
1.0
 40
1.0
 40
1.0
 40
1.0
 10
242.9553164028293
 20
50.89639922456531
 30
0.0
 10
242.9969591787992
 20
50.91849050365716
 30
0.0
 10
243.0675396012002
 20
50.95593305577744
 30
0.0
 10
243.1412797343494
 20
51.04838634659907
 30
0.0
 10
243.1888332572244
 20
51.13802780650384
 30
0.0
 10
243.2180132228988
 20
51.23445544769465
 30
0.0
 10
243.2215903194168
 20
51.30060317721959
 30
0.0
 10
243.2233492399284
 20
51.33312916517448
 30
0.0
  0
LINE
  5
202
330
1F
100
AcDbEntity
  8
0
  6
SLD-Сплошная
 62
     7
370
    25
100
AcDbLine
 10
215.9831870304
 20
92.9628888718
 30
0.0
 11
215.9824016322
 21
90.4628888718
 31
0.0
  0
LINE
  5
203
330
1F
100
AcDbEntity
  8
0
  6
SLD-Сплошная
 62
     7
370
    25
100
AcDbLine
 10
225.381616234
 20
92.9628888718
 30
0.0
 11
215.9831870304
 21
92.9628888718
 31
0.0
  0
LINE
  5
204
330
1F
100
AcDbEntity
  8
0
  6
SLD-Сплошная
 62
     7
370
    25
100
AcDbLine
 10
225.381616234
 20
92.9628888718
 30
0.0
 11
225.3824016322
 21
90.4628888718
 31
0.0
  0
LINE
  5
205
330
1F
100
AcDbEntity
  8
0
  6
SLD-Сплошная
 62
     7
370
    25
100
AcDbLine
 10
244.381616234
 20
92.9628888718
 30
0.0
 11
244.3824016322
 21
90.4628888718
 31
0.0
  0
LINE
  5
206
330
1F
100
AcDbEntity
  8
0
  6
SLD-Сплошная
 62
     7
370
    25
100
AcDbLine
 10
234.9831870304
 20
92.9628888718
 30
0.0
 11
234.9824016322
 21
90.4628888718
 31
0.0
  0
LINE
  5
207
330
1F
100
AcDbEntity
  8
0
  6
SLD-Сплошная
 62
     7
370
    25
100
AcDbLine
 10
244.381616234
 20
92.9628888718
 30
0.0
 11
234.9831870304
 21
92.9628888718
 31
0.0
  0
LINE
  5
208
330
1F
100
AcDbEntity
  8
0
  6
SLD-Сплошная
 62
     7
370
    25
100
AcDbLine
 10
226.1827157915
 20
91.4628888718
 30
0.0
 11
226.1824016322
 21
90.4628888718
 31
0.0
  0
LINE
  5
209
330
1F
100
AcDbEntity
  8
0
  6
SLD-Сплошная
 62
     7
370
    25
100
AcDbLine
 10
226.1827157915
 20
91.4628888718
 30
0.0
 11
234.182087473
 21
91.4628888718
 31
0.0
  0
LINE
  5
20A
330
1F
100
AcDbEntity
  8
0
  6
SLD-Сплошная
 62
     7
370
    25
100
AcDbLine
 10
234.182087473
 20
91.4628888718
 30
0.0
 11
234.1824016322
 21
90.4628888718
 31
0.0
  0
LINE
  5
20B
330
1F
100
AcDbEntity
  8
0
  6
SLD-Сплошная
 62
     7
370
    25
100
AcDbLine
 10
215.751382184
 20
90.4628888718
 30
0.0
 11
215.7521675822
 21
92.9628888718
 31
0.0
  0
LINE
  5
20C
330
1F
100
AcDbEntity
  8
0
  6
SLD-Сплошная
 62
     7
370
    25
100
AcDbLine
 10
215.9831870304
 20
92.9628888718
 30
0.0
 11
215.7521675822
 21
92.9628888718
 31
0.0
  0
LINE
  5
20D
330
1F
100
AcDbEntity
  8
0
  6
SLD-Сплошная
 62
     7
370
    25
100
AcDbLine
 10
234.751382184
 20
90.4628888718
 30
0.0
 11
234.7521675822
 21
92.9628888718
 31
0.0
  0
LINE
  5
20E
330
1F
100
AcDbEntity
  8
0
  6
SLD-Сплошная
 62
     7
370
    25
100
AcDbLine
 10
234.7521675822
 20
92.9628888718
 30
0.0
 11
234.9831870304
 21
92.9628888718
 31
0.0
  0
LINE
  5
20F
330
1F
100
AcDbEntity
  8
0
  6
SLD-Сплошная
 62
     7
370
    25
100
AcDbLine
 10
225.6134210804
 20
90.4628888718
 30
0.0
 11
225.6126356823
 21
92.9628888718
 31
0.0
  0
LINE
  5
210
330
1F
100
AcDbEntity
  8
0
  6
SLD-Сплошная
 62
     7
370
    25
100
AcDbLine
 10
225.6126356823
 20
92.9628888718
 30
0.0
 11
225.381616234
 21
92.9628888718
 31
0.0
  0
LINE
  5
211
330
1F
100
AcDbEntity
  8
0
  6
SLD-Сплошная
 62
     7
370
    25
100
AcDbLine
 10
244.6134210804
 20
90.4628888718
 30
0.0
 11
244.6126356823
 21
92.9628888718
 31
0.0
  0
LINE
  5
212
330
1F
100
AcDbEntity
  8
0
  6
SLD-Сплошная
 62
     7
370
    25
100
AcDbLine
 10
244.381616234
 20
92.9628888718
 30
0.0
 11
244.6126356823
 21
92.9628888718
 31
0.0
  0
SPLINE
  5
213
330
1F
100
AcDbEntity
  8
0
  6
SLD-Сплошная
 62
     7
370
    25
100
AcDbSpline
210
0.0
220
0.0
230
1.0
 70
     8
 71
     3
 72
     9
 73
     5
 74
     0
 42
0.00000001
 43
0.00000001
 40
0.0
 40
0.0
 40
0.0
 40
0.0
 40
0.3719175699181865
 40
1.0
 40
1.0
 40
1.0
 40
1.0
 10
103.8218680731973
 20
179.790504013518
 30
0.0
 10
103.8046641791466
 20
179.7929068131926
 30
0.0
 10
103.7584069021526
 20
179.7993673836762
 30
0.0
 10
103.7128838753684
 20
179.7896620822505
 30
0.0
 10
103.6842916620811
 20
179.7835663529465
 30
0.0
  0
LINE
  5
214
330
1F
100
AcDbEntity
  8
0
  6
SLD-Сплошная
 62
     7
370
    25
100
AcDbLine
 10
105.5883726499
 20
138.2207380635
 30
0.0
 11
105.588657984
 21
138.2215234617
 31
0.0
  0
LINE
  5
215
330
1F
100
AcDbEntity
  8
0
  6
SLD-Сплошная
 62
     7
370
    25
100
AcDbLine
 10
108.31748963
 20
138.2215234617
 30
0.0
 11
105.588657984
 21
138.2215234617
 31
0.0
  0
LINE
  5
216
330
1F
100
AcDbEntity
  8
0
  6
SLD-Сплошная
 62
     7
370
    25
100
AcDbLine
 10
108.31748963
 20
138.2215234617
 30
0.0
 11
108.3167042318
 21
138.2207380635
 31
0.0
  0
LINE
  5
217
330
1F
100
AcDbEntity
  8
0
  6
SLD-Сплошная
 62
     7
370
    25
100
AcDbLine
 10
105.5883726499
 20
138.2207380635
 30
0.0
 11
108.3167042318
 21
138.2207380635
 31
0.0
  0
LINE
  5
218
330
1F
100
AcDbEntity
  8
0
  6
SLD-Сплошная
 62
     7
370
    25
100
AcDbLine
 10
108.31748963
 20
132.3594845653
 30
0.0
 11
108.3167042318
 21
132.3602699635
 31
0.0
  0
LINE
  5
219
330
1F
100
AcDbEntity
  8
0
  6
SLD-Сплошная
 62
     7
370
    25
100
AcDbLine
 10
105.588657984
 20
132.3594845653
 30
0.0
 11
108.31748963
 21
132.3594845653
 31
0.0
  0
LINE
  5
21A
330
1F
100
AcDbEntity
  8
0
  6
SLD-Сплошная
 62
     7
370
    25
100
AcDbLine
 10
105.5883726499
 20
132.3602699635
 30
0.0
 11
105.588657984
 21
132.3594845653
 31
0.0
  0
LINE
  5
21B
330
1F
100
AcDbEntity
  8
0
  6
SLD-Сплошная
 62
     7
370
    25
100
AcDbLine
 10
108.3167042318
 20
132.3602699635
 30
0.0
 11
105.5883726499
 21
132.3602699635
 31
0.0
  0
LINE
  5
21C
330
1F
100
AcDbEntity
  8
0
  6
SLD-Сплошная
 62
     7
370
    25
100
AcDbLine
 10
108.31748963
 20
132.3594845653
 30
0.0
 11
108.31748963
 21
138.2215234617
 31
0.0
  0
LINE
  5
21D
330
1F
100
AcDbEntity
  8
0
  6
SLD-Сплошная
 62
     7
370
    25
100
AcDbLine
 10
108.3167042318
 20
138.2207380635
 30
0.0
 11
108.3167042318
 21
132.3602699635
 31
0.0
  0
LINE
  5
21E
330
1F
100
AcDbEntity
  8
0
  6
SLD-Сплошная
 62
     7
370
    25
100
AcDbLine
 10
101.55309716
 20
133.2897186153
 30
0.0
 11
99.3856847836
 21
133.2897186153
 31
0.0
  0
ARC
  5
21F
330
1F
100
AcDbEntity
  8
0
  6
SLD-Сплошная
 62
     7
370
    25
100
AcDbCircle
 10
103.3864701818
 20
134.9905040135
 30
0.0
 40
2.500785398185071
100
AcDbArc
 50
222.85149692
 51
317.14850308
  0
LINE
  5
220
330
1F
100
AcDbEntity
  8
0
  6
SLD-Сплошная
 62
     7
370
    25
100
AcDbLine
 10
107.38725558
 20
133.2897186153
 30
0.0
 11
105.2198432036
 21
133.2897186153
 31
0.0
  0
LINE
  5
221
330
1F
100
AcDbEntity
  8
0
  6
SLD-Сплошная
 62
     7
370
    25
100
AcDbLine
 10
107.38725558
 20
137.2912894117
 30
0.0
 11
107.38725558
 21
133.2897186153
 31
0.0
  0
LINE
  5
222
330
1F
100
AcDbEntity
  8
0
  6
SLD-Сплошная
 62
     7
370
    25
100
AcDbLine
 10
105.2198432036
 20
137.2912894117
 30
0.0
 11
107.38725558
 21
137.2912894117
 31
0.0
  0
ARC
  5
223
330
1F
100
AcDbEntity
  8
0
  6
SLD-Сплошная
 62
     7
370
    25
100
AcDbCircle
 10
103.3864701818
 20
135.5905040135
 30
0.0
 40
2.500785398190886
100
AcDbArc
 50
42.8514969199
 51
137.1485030801
  0
LINE
  5
224
330
1F
100
AcDbEntity
  8
0
  6
SLD-Сплошная
 62
     7
370
    25
100
AcDbLine
 10
99.3856847836
 20
137.2912894117
 30
0.0
 11
101.55309716
 21
137.2912894117
 31
0.0
  0
LINE
  5
225
330
1F
100
AcDbEntity
  8
0
  6
SLD-Сплошная
 62
     7
370
    25
100
AcDbLine
 10
99.3856847836
 20
133.2897186153
 30
0.0
 11
99.3856847836
 21
137.2912894117
 31
0.0
  0
ARC
  5
226
330
1F
100
AcDbEntity
  8
0
  6
SLD-Сплошная
 62
     7
370
    25
100
AcDbCircle
 10
103.3864701818
 20
135.5905040135
 30
0.0
 40
3.430234049865138
100
AcDbArc
 50
50.0655884815
 51
129.9344115185
  0
ARC
  5
227
330
1F
100
AcDbEntity
  8
0
  6
SLD-Сплошная
 62
     7
370
    25
100
AcDbCircle
 10
103.3864701818
 20
134.9905040135
 30
0.0
 40
3.430234049865138
100
AcDbArc
 50
230.0655884815
 51
309.9344115185
  0
LINE
  5
228
330
1F
100
AcDbEntity
  8
0
  6
SLD-Сплошная
 62
     7
370
    25
100
AcDbLine
 10
101.1845677137
 20
132.3602699635
 30
0.0
 11
98.4562361318
 21
132.3602699635
 31
0.0
  0
LINE
  5
229
330
1F
100
AcDbEntity
  8
0
  6
SLD-Сплошная
 62
     7
370
    25
100
AcDbLine
 10
98.4562361318
 20
132.3602699635
 30
0.0
 11
98.4562361318
 21
138.2207380635
 31
0.0
  0
LINE
  5
22A
330
1F
100
AcDbEntity
  8
0
  6
SLD-Сплошная
 62
     7
370
    25
100
AcDbLine
 10
98.4562361318
 20
138.2207380635
 30
0.0
 11
101.1845677137
 21
138.2207380635
 31
0.0
  0
ARC
  5
22B
330
1F
100
AcDbEntity
  8
0
  6
SLD-Сплошная
 62
     7
370
    25
100
AcDbCircle
 10
103.3864701818
 20
143.7905040135
 30
0.0
 40
4.69921460181007
100
AcDbArc
 50
0.0
 51
180.0
  0
ARC
  5
22C
330
1F
100
AcDbEntity
  8
0
  6
SLD-Сплошная
 62
     7
370
    25
100
AcDbCircle
 10
103.3864701818
 20
143.7905040135
 30
0.0
 40
4.699999999999307
100
AcDbArc
 50
0.0
 51
180.0
  0
ARC
  5
22D
330
1F
100
AcDbEntity
  8
0
  6
SLD-Сплошная
 62
     7
370
    25
100
AcDbCircle
 10
103.3864701818
 20
143.7905040135
 30
0.0
 40
4.699999999999307
100
AcDbArc
 50
180.0
 51
0.0
  0
ARC
  5
22E
330
1F
100
AcDbEntity
  8
0
  6
SLD-Сплошная
 62
     7
370
    25
100
AcDbCircle
 10
103.3864701818
 20
143.7905040135
 30
0.0
 40
4.69921460181007
100
AcDbArc
 50
180.0
 51
0.0
  0
LINE
  5
22F
330
1F
100
AcDbEntity
  8
0
  6
SLD-Сплошная
 62
     7
370
    25
100
AcDbLine
 10
107.38725558
 20
137.2912894117
 30
0.0
 11
107.3864701818
 21
137.2905040135
 31
0.0
  0
LINE
  5
230
330
1F
100
AcDbEntity
  8
0
  6
SLD-Сплошная
 62
     7
370
    25
100
AcDbLine
 10
105.3126062102
 20
137.2905040135
 30
0.0
 11
107.3864701818
 21
137.2905040135
 31
0.0
  0
LINE
  5
231
330
1F
100
AcDbEntity
  8
0
  6
SLD-Сплошная
 62
     7
370
    25
100
AcDbLine
 10
105.3123060602
 20
137.2907553409
 30
0.0
 11
105.2196101448
 21
137.2907553409
 31
0.0
  0
LINE
  5
232
330
1F
100
AcDbEntity
  8
0
  6
SLD-Сплошная
 62
     7
370
    25
100
AcDbLine
 10
105.2198432036
 20
137.2912894117
 30
0.0
 11
105.2196101448
 21
137.2907553409
 31
0.0
  0
LINE
  5
233
330
1F
100
AcDbEntity
  8
0
  6
SLD-Сплошная
 62
     7
370
    25
100
AcDbLine
 10
107.38725558
 20
133.2897186153
 30
0.0
 11
107.3864701818
 21
133.2905040135
 31
0.0
  0
LINE
  5
234
330
1F
100
AcDbEntity
  8
0
  6
SLD-Сплошная
 62
     7
370
    25
100
AcDbLine
 10
107.3864701818
 20
133.2905040135
 30
0.0
 11
107.3864701818
 21
137.2905040135
 31
0.0
  0
LINE
  5
235
330
1F
100
AcDbEntity
  8
0
  6
SLD-Сплошная
 62
     7
370
    25
100
AcDbLine
 10
105.2196101447
 20
133.2902526861
 30
0.0
 11
105.2198432036
 21
133.2897186153
 31
0.0
  0
LINE
  5
236
330
1F
100
AcDbEntity
  8
0
  6
SLD-Сплошная
 62
     7
370
    25
100
AcDbLine
 10
105.2196101447
 20
133.2902526861
 30
0.0
 11
105.8581387323
 21
133.2902526861
 31
0.0
  0
LINE
  5
237
330
1F
100
AcDbEntity
  8
0
  6
SLD-Сплошная
 62
     7
370
    25
100
AcDbLine
 10
105.8583116006
 20
133.2905040135
 30
0.0
 11
107.3864701818
 21
133.2905040135
 31
0.0
  0
LINE
  5
238
330
1F
100
AcDbEntity
  8
0
  6
SLD-Сплошная
 62
     7
370
    25
100
AcDbLine
 10
101.1845677137
 20
132.3602699635
 30
0.0
 11
101.1842823796
 21
132.3594845653
 31
0.0
  0
ARC
  5
239
330
1F
100
AcDbEntity
  8
0
  6
SLD-Сплошная
 62
     7
370
    25
100
AcDbCircle
 10
103.3864701818
 20
134.9905040135
 30
0.0
 40
3.431019448055014
100
AcDbArc
 50
230.0703539196
 51
309.9296460804
  0
LINE
  5
23A
330
1F
100
AcDbEntity
  8
0
  6
SLD-Сплошная
 62
     7
370
    25
100
AcDbLine
 10
101.1845677137
 20
138.2207380635
 30
0.0
 11
101.1842823796
 21
138.2215234617
 31
0.0
  0
ARC
  5
23B
330
1F
100
AcDbEntity
  8
0
  6
SLD-Сплошная
 62
     7
370
    25
100
AcDbCircle
 10
103.3864701818
 20
135.5905040135
 30
0.0
 40
3.431019448054992
100
AcDbArc
 50
50.0703539196
 51
129.9296460804
  0
ARC
  5
23C
330
1F
100
AcDbEntity
  8
0
  6
SLD-Сплошная
 62
     7
370
    25
100
AcDbCircle
 10
103.3864701818
 20
135.5905040135
 30
0.0
 40
2.500251327422188
100
AcDbArc
 50
127.2343100604
 51
137.1538432878
  0
LINE
  5
23D
330
1F
100
AcDbEntity
  8
0
  6
SLD-Сплошная
 62
     7
370
    25
100
AcDbLine
 10
101.55309716
 20
137.2912894117
 30
0.0
 11
101.5533302188
 21
137.2907553409
 31
0.0
  0
ARC
  5
23E
330
1F
100
AcDbEntity
  8
0
  6
SLD-Сплошная
 62
     7
370
    25
100
AcDbCircle
 10
103.3864701818
 20
135.5905040135
 30
0.0
 40
2.500251327422188
100
AcDbArc
 50
42.8461567122
 51
52.7656899396
  0
ARC
  5
23F
330
1F
100
AcDbEntity
  8
0
  6
SLD-Сплошная
 62
     7
370
    25
100
AcDbCircle
 10
103.3864701818
 20
135.5905040135
 30
0.0
 40
2.500000000001626
100
AcDbArc
 50
52.8129611299
 51
127.1870388701
  0
LINE
  5
240
330
1F
100
AcDbEntity
  8
0
  6
SLD-Сплошная
 62
     7
370
    25
100
AcDbLine
 10
101.5533302188
 20
133.2902526861
 30
0.0
 11
101.55309716
 21
133.2897186153
 31
0.0
  0
ARC
  5
241
330
1F
100
AcDbEntity
  8
0
  6
SLD-Сплошная
 62
     7
370
    25
100
AcDbCircle
 10
103.3864701818
 20
134.9905040135
 30
0.0
 40
2.500251327416404
100
AcDbArc
 50
222.8461567123
 51
317.1538432877
  0
LINE
  5
242
330
1F
100
AcDbEntity
  8
0
  6
SLD-Сплошная
 62
     7
370
    25
100
AcDbLine
 10
100.9148016313
 20
133.2902526861
 30
0.0
 11
101.5533302188
 21
133.2902526861
 31
0.0
  0
LINE
  5
243
330
1F
100
AcDbEntity
  8
0
  6
SLD-Сплошная
 62
     7
370
    25
100
AcDbLine
 10
99.3856847836
 20
133.2897186153
 30
0.0
 11
99.3864701818
 21
133.2905040135
 31
0.0
  0
LINE
  5
244
330
1F
100
AcDbEntity
  8
0
  6
SLD-Сплошная
 62
     7
370
    25
100
AcDbLine
 10
100.9146287629
 20
133.2905040135
 30
0.0
 11
99.3864701818
 21
133.2905040135
 31
0.0
  0
LINE
  5
245
330
1F
100
AcDbEntity
  8
0
  6
SLD-Сплошная
 62
     7
370
    25
100
AcDbLine
 10
101.4606343033
 20
137.2907553409
 30
0.0
 11
101.5533302188
 21
137.2907553409
 31
0.0
  0
LINE
  5
246
330
1F
100
AcDbEntity
  8
0
  6
SLD-Сплошная
 62
     7
370
    25
100
AcDbLine
 10
99.3864701818
 20
137.2905040135
 30
0.0
 11
101.4603341533
 21
137.2905040135
 31
0.0
  0
LINE
  5
247
330
1F
100
AcDbEntity
  8
0
  6
SLD-Сплошная
 62
     7
370
    25
100
AcDbLine
 10
99.3856847836
 20
137.2912894117
 30
0.0
 11
99.3864701818
 21
137.2905040135
 31
0.0
  0
LINE
  5
248
330
1F
100
AcDbEntity
  8
0
  6
SLD-Сплошная
 62
     7
370
    25
100
AcDbLine
 10
98.4554507336
 20
132.3594845653
 30
0.0
 11
101.1842823796
 21
132.3594845653
 31
0.0
  0
LINE
  5
249
330
1F
100
AcDbEntity
  8
0
  6
SLD-Сплошная
 62
     7
370
    25
100
AcDbLine
 10
98.4554507336
 20
132.3594845653
 30
0.0
 11
98.4562361318
 21
132.3602699635
 31
0.0
  0
LINE
  5
24A
330
1F
100
AcDbEntity
  8
0
  6
SLD-Сплошная
 62
     7
370
    25
100
AcDbLine
 10
98.4554507336
 20
138.2215234617
 30
0.0
 11
98.4562361318
 21
138.2207380635
 31
0.0
  0
LINE
  5
24B
330
1F
100
AcDbEntity
  8
0
  6
SLD-Сплошная
 62
     7
370
    25
100
AcDbLine
 10
101.1842823796
 20
138.2215234617
 30
0.0
 11
98.4554507336
 21
138.2215234617
 31
0.0
  0
LINE
  5
24C
330
1F
100
AcDbEntity
  8
0
  6
SLD-Сплошная
 62
     7
370
    25
100
AcDbLine
 10
99.3864701818
 20
137.2905040135
 30
0.0
 11
99.3864701818
 21
133.2905040135
 31
0.0
  0
LINE
  5
24D
330
1F
100
AcDbEntity
  8
0
  6
SLD-Сплошная
 62
     7
370
    25
100
AcDbLine
 10
98.4554507336
 20
138.2215234617
 30
0.0
 11
98.4554507336
 21
132.3594845653
 31
0.0
  0
LINE
  5
24E
330
1F
100
AcDbEntity
  8
0
  6
SLD-Сплошная
 62
     7
370
    25
100
AcDbLine
 10
86.5883726499
 20
132.3602699635
 30
0.0
 11
89.3167042318
 21
132.3602699635
 31
0.0
  0
ARC
  5
24F
330
1F
100
AcDbEntity
  8
0
  6
SLD-Сплошная
 62
     7
370
    25
100
AcDbCircle
 10
84.3864701818
 20
134.9905040135
 30
0.0
 40
3.430234049865138
100
AcDbArc
 50
230.0655884815
 51
309.9344115185
  0
LINE
  5
250
330
1F
100
AcDbEntity
  8
0
  6
SLD-Сплошная
 62
     7
370
    25
100
AcDbLine
 10
79.4562361318
 20
132.3602699635
 30
0.0
 11
82.1845677137
 21
132.3602699635
 31
0.0
  0
LINE
  5
251
330
1F
100
AcDbEntity
  8
0
  6
SLD-Сплошная
 62
     7
370
    25
100
AcDbLine
 10
79.4562361318
 20
138.2207380635
 30
0.0
 11
79.4562361318
 21
132.3602699635
 31
0.0
  0
LINE
  5
252
330
1F
100
AcDbEntity
  8
0
  6
SLD-Сплошная
 62
     7
370
    25
100
AcDbLine
 10
82.1845677137
 20
138.2207380635
 30
0.0
 11
79.4562361318
 21
138.2207380635
 31
0.0
  0
ARC
  5
253
330
1F
100
AcDbEntity
  8
0
  6
SLD-Сплошная
 62
     7
370
    25
100
AcDbCircle
 10
84.3864701818
 20
135.5905040135
 30
0.0
 40
3.430234049865138
100
AcDbArc
 50
50.0655884815
 51
129.9344115185
  0
LINE
  5
254
330
1F
100
AcDbEntity
  8
0
  6
SLD-Сплошная
 62
     7
370
    25
100
AcDbLine
 10
89.3167042318
 20
138.2207380635
 30
0.0
 11
86.5883726499
 21
138.2207380635
 31
0.0
  0
LINE
  5
255
330
1F
100
AcDbEntity
  8
0
  6
SLD-Сплошная
 62
     7
370
    25
100
AcDbLine
 10
89.3167042318
 20
132.3602699635
 30
0.0
 11
89.3167042318
 21
138.2207380635
 31
0.0
  0
ARC
  5
256
330
1F
100
AcDbEntity
  8
0
  6
SLD-Сплошная
 62
     7
370
    25
100
AcDbCircle
 10
84.3864701818
 20
135.5905040135
 30
0.0
 40
2.500785398190875
100
AcDbArc
 50
42.8514969199
 51
137.1485030801
  0
LINE
  5
257
330
1F
100
AcDbEntity
  8
0
  6
SLD-Сплошная
 62
     7
370
    25
100
AcDbLine
 10
82.55309716
 20
137.2912894117
 30
0.0
 11
80.3856847836
 21
137.2912894117
 31
0.0
  0
LINE
  5
258
330
1F
100
AcDbEntity
  8
0
  6
SLD-Сплошная
 62
     7
370
    25
100
AcDbLine
 10
80.3856847836
 20
137.2912894117
 30
0.0
 11
80.3856847836
 21
133.2897186153
 31
0.0
  0
LINE
  5
259
330
1F
100
AcDbEntity
  8
0
  6
SLD-Сплошная
 62
     7
370
    25
100
AcDbLine
 10
80.3856847836
 20
133.2897186153
 30
0.0
 11
82.55309716
 21
133.2897186153
 31
0.0
  0
ARC
  5
25A
330
1F
100
AcDbEntity
  8
0
  6
SLD-Сплошная
 62
     7
370
    25
100
AcDbCircle
 10
84.3864701818
 20
134.9905040135
 30
0.0
 40
2.500785398185081
100
AcDbArc
 50
222.85149692
 51
317.14850308
  0
LINE
  5
25B
330
1F
100
AcDbEntity
  8
0
  6
SLD-Сплошная
 62
     7
370
    25
100
AcDbLine
 10
86.2198432036
 20
133.2897186153
 30
0.0
 11
88.38725558
 21
133.2897186153
 31
0.0
  0
LINE
  5
25C
330
1F
100
AcDbEntity
  8
0
  6
SLD-Сплошная
 62
     7
370
    25
100
AcDbLine
 10
88.38725558
 20
133.2897186153
 30
0.0
 11
88.38725558
 21
137.2912894117
 31
0.0
  0
LINE
  5
25D
330
1F
100
AcDbEntity
  8
0
  6
SLD-Сплошная
 62
     7
370
    25
100
AcDbLine
 10
88.38725558
 20
137.2912894117
 30
0.0
 11
86.2198432036
 21
137.2912894117
 31
0.0
  0
LINE
  5
25E
330
1F
100
AcDbEntity
  8
0
  6
SLD-Сплошная
 62
     7
370
    25
100
AcDbLine
 10
89.31748963
 20
132.3594845653
 30
0.0
 11
89.3167042318
 21
132.3602699635
 31
0.0
  0
LINE
  5
25F
330
1F
100
AcDbEntity
  8
0
  6
SLD-Сплошная
 62
     7
370
    25
100
AcDbLine
 10
89.31748963
 20
132.3594845653
 30
0.0
 11
86.588657984
 21
132.3594845653
 31
0.0
  0
LINE
  5
260
330
1F
100
AcDbEntity
  8
0
  6
SLD-Сплошная
 62
     7
370
    25
100
AcDbLine
 10
86.5883726499
 20
132.3602699635
 30
0.0
 11
86.588657984
 21
132.3594845653
 31
0.0
  0
LINE
  5
261
330
1F
100
AcDbEntity
  8
0
  6
SLD-Сплошная
 62
     7
370
    25
100
AcDbLine
 10
89.31748963
 20
138.2215234617
 30
0.0
 11
89.3167042318
 21
138.2207380635
 31
0.0
  0
LINE
  5
262
330
1F
100
AcDbEntity
  8
0
  6
SLD-Сплошная
 62
     7
370
    25
100
AcDbLine
 10
89.31748963
 20
138.2215234617
 30
0.0
 11
89.31748963
 21
132.3594845653
 31
0.0
  0
LINE
  5
263
330
1F
100
AcDbEntity
  8
0
  6
SLD-Сплошная
 62
     7
370
    25
100
AcDbLine
 10
86.5883726499
 20
138.2207380635
 30
0.0
 11
86.588657984
 21
138.2215234617
 31
0.0
  0
LINE
  5
264
330
1F
100
AcDbEntity
  8
0
  6
SLD-Сплошная
 62
     7
370
    25
100
AcDbLine
 10
86.588657984
 20
138.2215234617
 30
0.0
 11
89.31748963
 21
138.2215234617
 31
0.0
  0
ARC
  5
265
330
1F
100
AcDbEntity
  8
0
  6
SLD-Сплошная
 62
     7
370
    25
100
AcDbCircle
 10
84.3864701818
 20
143.7905040135
 30
0.0
 40
4.69921460181007
100
AcDbArc
 50
180.0
 51
0.0
  0
ARC
  5
266
330
1F
100
AcDbEntity
  8
0
  6
SLD-Сплошная
 62
     7
370
    25
100
AcDbCircle
 10
84.3864701818
 20
143.7905040135
 30
0.0
 40
4.699999999999292
100
AcDbArc
 50
180.0
 51
0.0
  0
ARC
  5
267
330
1F
100
AcDbEntity
  8
0
  6
SLD-Сплошная
 62
     7
370
    25
100
AcDbCircle
 10
84.3864701818
 20
143.7905040135
 30
0.0
 40
4.69921460181007
100
AcDbArc
 50
0.0
 51
180.0
  0
ARC
  5
268
330
1F
100
AcDbEntity
  8
0
  6
SLD-Сплошная
 62
     7
370
    25
100
AcDbCircle
 10
84.3864701818
 20
143.7905040135
 30
0.0
 40
4.699999999999292
100
AcDbArc
 50
0.0
 51
180.0
  0
LINE
  5
269
330
1F
100
AcDbEntity
  8
0
  6
SLD-Сплошная
 62
     7
370
    25
100
AcDbLine
 10
88.38725558
 20
133.2897186153
 30
0.0
 11
88.3864701818
 21
133.2905040135
 31
0.0
  0
LINE
  5
26A
330
1F
100
AcDbEntity
  8
0
  6
SLD-Сплошная
 62
     7
370
    25
100
AcDbLine
 10
88.3864701818
 20
137.2905040135
 30
0.0
 11
88.3864701818
 21
133.2905040135
 31
0.0
  0
LINE
  5
26B
330
1F
100
AcDbEntity
  8
0
  6
SLD-Сплошная
 62
     7
370
    25
100
AcDbLine
 10
88.38725558
 20
137.2912894117
 30
0.0
 11
88.3864701818
 21
137.2905040135
 31
0.0
  0
LINE
  5
26C
330
1F
100
AcDbEntity
  8
0
  6
SLD-Сплошная
 62
     7
370
    25
100
AcDbLine
 10
86.3123060602
 20
137.2907553409
 30
0.0
 11
86.2196101448
 21
137.2907553409
 31
0.0
  0
LINE
  5
26D
330
1F
100
AcDbEntity
  8
0
  6
SLD-Сплошная
 62
     7
370
    25
100
AcDbLine
 10
86.2198432036
 20
137.2912894117
 30
0.0
 11
86.2196101448
 21
137.2907553409
 31
0.0
  0
LINE
  5
26E
330
1F
100
AcDbEntity
  8
0
  6
SLD-Сплошная
 62
     7
370
    25
100
AcDbLine
 10
88.3864701818
 20
137.2905040135
 30
0.0
 11
86.3126062102
 21
137.2905040135
 31
0.0
  0
LINE
  5
26F
330
1F
100
AcDbEntity
  8
0
  6
SLD-Сплошная
 62
     7
370
    25
100
AcDbLine
 10
86.2198432036
 20
133.2897186153
 30
0.0
 11
86.2196101447
 21
133.2902526861
 31
0.0
  0
LINE
  5
270
330
1F
100
AcDbEntity
  8
0
  6
SLD-Сплошная
 62
     7
370
    25
100
AcDbLine
 10
86.8581387323
 20
133.2902526861
 30
0.0
 11
86.2196101447
 21
133.2902526861
 31
0.0
  0
LINE
  5
271
330
1F
100
AcDbEntity
  8
0
  6
SLD-Сплошная
 62
     7
370
    25
100
AcDbLine
 10
86.8583116006
 20
133.2905040135
 30
0.0
 11
88.3864701818
 21
133.2905040135
 31
0.0
  0
LINE
  5
272
330
1F
100
AcDbEntity
  8
0
  6
SLD-Сплошная
 62
     7
370
    25
100
AcDbLine
 10
82.1845677137
 20
132.3602699635
 30
0.0
 11
82.1842823796
 21
132.3594845653
 31
0.0
  0
ARC
  5
273
330
1F
100
AcDbEntity
  8
0
  6
SLD-Сплошная
 62
     7
370
    25
100
AcDbCircle
 10
84.3864701818
 20
134.9905040135
 30
0.0
 40
3.431019448055004
100
AcDbArc
 50
230.0703539196
 51
309.9296460804
  0
LINE
  5
274
330
1F
100
AcDbEntity
  8
0
  6
SLD-Сплошная
 62
     7
370
    25
100
AcDbLine
 10
82.1845677137
 20
138.2207380635
 30
0.0
 11
82.1842823796
 21
138.2215234617
 31
0.0
  0
ARC
  5
275
330
1F
100
AcDbEntity
  8
0
  6
SLD-Сплошная
 62
     7
370
    25
100
AcDbCircle
 10
84.3864701818
 20
135.5905040135
 30
0.0
 40
3.431019448054982
100
AcDbArc
 50
50.0703539196
 51
129.9296460804
  0
ARC
  5
276
330
1F
100
AcDbEntity
  8
0
  6
SLD-Сплошная
 62
     7
370
    25
100
AcDbCircle
 10
84.3864701818
 20
135.5905040135
 30
0.0
 40
2.500000000001626
100
AcDbArc
 50
52.8129611299
 51
127.1870388701
  0
ARC
  5
277
330
1F
100
AcDbEntity
  8
0
  6
SLD-Сплошная
 62
     7
370
    25
100
AcDbCircle
 10
84.3864701818
 20
135.5905040135
 30
0.0
 40
2.500251327422186
100
AcDbArc
 50
127.2343100604
 51
137.1538432878
  0
LINE
  5
278
330
1F
100
AcDbEntity
  8
0
  6
SLD-Сплошная
 62
     7
370
    25
100
AcDbLine
 10
82.55309716
 20
137.2912894117
 30
0.0
 11
82.5533302188
 21
137.2907553409
 31
0.0
  0
ARC
  5
279
330
1F
100
AcDbEntity
  8
0
  6
SLD-Сплошная
 62
     7
370
    25
100
AcDbCircle
 10
84.3864701818
 20
135.5905040135
 30
0.0
 40
2.500251327422198
100
AcDbArc
 50
42.8461567122
 51
52.7656899396
  0
LINE
  5
27A
330
1F
100
AcDbEntity
  8
0
  6
SLD-Сплошная
 62
     7
370
    25
100
AcDbLine
 10
82.55309716
 20
133.2897186153
 30
0.0
 11
82.5533302188
 21
133.2902526861
 31
0.0
  0
ARC
  5
27B
330
1F
100
AcDbEntity
  8
0
  6
SLD-Сплошная
 62
     7
370
    25
100
AcDbCircle
 10
84.3864701818
 20
134.9905040135
 30
0.0
 40
2.500251327416404
100
AcDbArc
 50
222.8461567123
 51
317.1538432877
  0
LINE
  5
27C
330
1F
100
AcDbEntity
  8
0
  6
SLD-Сплошная
 62
     7
370
    25
100
AcDbLine
 10
80.3856847836
 20
137.2912894117
 30
0.0
 11
80.3864701818
 21
137.2905040135
 31
0.0
  0
LINE
  5
27D
330
1F
100
AcDbEntity
  8
0
  6
SLD-Сплошная
 62
     7
370
    25
100
AcDbLine
 10
82.4606343033
 20
137.2907553409
 30
0.0
 11
82.5533302188
 21
137.2907553409
 31
0.0
  0
LINE
  5
27E
330
1F
100
AcDbEntity
  8
0
  6
SLD-Сплошная
 62
     7
370
    25
100
AcDbLine
 10
82.4603341533
 20
137.2905040135
 30
0.0
 11
80.3864701818
 21
137.2905040135
 31
0.0
  0
LINE
  5
27F
330
1F
100
AcDbEntity
  8
0
  6
SLD-Сплошная
 62
     7
370
    25
100
AcDbLine
 10
82.5533302188
 20
133.2902526861
 30
0.0
 11
81.9148016313
 21
133.2902526861
 31
0.0
  0
LINE
  5
280
330
1F
100
AcDbEntity
  8
0
  6
SLD-Сплошная
 62
     7
370
    25
100
AcDbLine
 10
80.3856847836
 20
133.2897186153
 30
0.0
 11
80.3864701818
 21
133.2905040135
 31
0.0
  0
LINE
  5
281
330
1F
100
AcDbEntity
  8
0
  6
SLD-Сплошная
 62
     7
370
    25
100
AcDbLine
 10
81.9146287629
 20
133.2905040135
 30
0.0
 11
80.3864701818
 21
133.2905040135
 31
0.0
  0
LINE
  5
282
330
1F
100
AcDbEntity
  8
0
  6
SLD-Сплошная
 62
     7
370
    25
100
AcDbLine
 10
82.1842823796
 20
132.3594845653
 30
0.0
 11
79.4554507336
 21
132.3594845653
 31
0.0
  0
LINE
  5
283
330
1F
100
AcDbEntity
  8
0
  6
SLD-Сплошная
 62
     7
370
    25
100
AcDbLine
 10
79.4554507336
 20
132.3594845653
 30
0.0
 11
79.4562361318
 21
132.3602699635
 31
0.0
  0
LINE
  5
284
330
1F
100
AcDbEntity
  8
0
  6
SLD-Сплошная
 62
     7
370
    25
100
AcDbLine
 10
79.4554507336
 20
138.2215234617
 30
0.0
 11
79.4562361318
 21
138.2207380635
 31
0.0
  0
LINE
  5
285
330
1F
100
AcDbEntity
  8
0
  6
SLD-Сплошная
 62
     7
370
    25
100
AcDbLine
 10
79.4554507336
 20
138.2215234617
 30
0.0
 11
82.1842823796
 21
138.2215234617
 31
0.0
  0
LINE
  5
286
330
1F
100
AcDbEntity
  8
0
  6
SLD-Сплошная
 62
     7
370
    25
100
AcDbLine
 10
80.3864701818
 20
133.2905040135
 30
0.0
 11
80.3864701818
 21
137.2905040135
 31
0.0
  0
LINE
  5
287
330
1F
100
AcDbEntity
  8
0
  6
SLD-Сплошная
 62
     7
370
    25
100
AcDbLine
 10
79.4554507336
 20
132.3594845653
 30
0.0
 11
79.4554507336
 21
138.2215234617
 31
0.0
  0
LINE
  5
288
330
1F
100
AcDbEntity
  8
0
  6
SLD-Сплошная
 62
     7
370
    25
100
AcDbLine
 10
103.8364701818
 20
134.4900904297
 30
0.0
 11
105.1533272677
 21
134.4905040135
 31
0.0
  0
LINE
  5
289
330
1F
100
AcDbEntity
  8
0
  6
SLD-Сплошная
 62
     7
370
    25
100
AcDbLine
 10
105.1533272677
 20
134.4905040135
 30
0.0
 11
105.1533272677
 21
135.4905040135
 31
0.0
  0
LINE
  5
28A
330
1F
100
AcDbEntity
  8
0
  6
SLD-Сплошная
 62
     7
370
    25
100
AcDbLine
 10
105.1533272677
 20
135.4905040135
 30
0.0
 11
103.8364701818
 21
135.4909175973
 31
0.0
  0
LINE
  5
28B
330
1F
100
AcDbEntity
  8
0
  6
SLD-Сплошная
 62
     7
370
    25
100
AcDbLine
 10
103.8364701818
 20
135.4909175973
 30
0.0
 11
103.8364701818
 21
137.3479390603
 31
0.0
  0
ARC
  5
28C
330
1F
100
AcDbEntity
  8
0
  6
SLD-Сплошная
 62
     7
370
    25
100
AcDbCircle
 10
103.3864701818
 20
134.9905040135
 30
0.0
 40
2.400000000000003
100
AcDbArc
 50
280.8069228749
 51
79.1930771251
  0
LINE
  5
28D
330
1F
100
AcDbEntity
  8
0
  6
SLD-Сплошная
 62
     7
370
    25
100
AcDbLine
 10
103.8364701818
 20
132.6330689667
 30
0.0
 11
103.8364701818
 21
134.4900904297
 31
0.0
  0
LINE
  5
28E
330
1F
100
AcDbEntity
  8
0
  6
SLD-Сплошная
 62
     7
370
    25
100
AcDbLine
 10
105.1529502766
 20
134.4908494622
 30
0.0
 11
103.8364701818
 21
134.4904359969
 31
0.0
  0
LINE
  5
28F
330
1F
100
AcDbEntity
  8
0
  6
SLD-Сплошная
 62
     7
370
    25
100
AcDbLine
 10
105.1529502766
 20
134.4908494622
 30
0.0
 11
105.1533272677
 21
134.4905040135
 31
0.0
  0
LINE
  5
290
330
1F
100
AcDbEntity
  8
0
  6
SLD-Сплошная
 62
     7
370
    25
100
AcDbLine
 10
103.8364701818
 20
134.4900904297
 30
0.0
 11
103.8364701818
 21
134.4904359969
 31
0.0
  0
LINE
  5
291
330
1F
100
AcDbEntity
  8
0
  6
SLD-Сплошная
 62
     7
370
    25
100
AcDbLine
 10
105.1529502766
 20
135.4901585648
 30
0.0
 11
105.1529502766
 21
134.4908494622
 31
0.0
  0
LINE
  5
292
330
1F
100
AcDbEntity
  8
0
  6
SLD-Сплошная
 62
     7
370
    25
100
AcDbLine
 10
105.1533272677
 20
135.4905040135
 30
0.0
 11
105.1529502766
 21
135.4901585648
 31
0.0
  0
LINE
  5
293
330
1F
100
AcDbEntity
  8
0
  6
SLD-Сплошная
 62
     7
370
    25
100
AcDbLine
 10
105.1529502766
 20
135.4901585648
 30
0.0
 11
103.8364701818
 21
135.4905720302
 31
0.0
  0
LINE
  5
294
330
1F
100
AcDbEntity
  8
0
  6
SLD-Сплошная
 62
     7
370
    25
100
AcDbLine
 10
103.8364701818
 20
135.4909175973
 30
0.0
 11
103.8364701818
 21
135.4905720302
 31
0.0
  0
LINE
  5
295
330
1F
100
AcDbEntity
  8
0
  6
SLD-Сплошная
 62
     7
370
    25
100
AcDbLine
 10
102.9364701818
 20
134.4900904297
 30
0.0
 11
102.9364701818
 21
132.6330689667
 31
0.0
  0
ARC
  5
296
330
1F
100
AcDbEntity
  8
0
  6
SLD-Сплошная
 62
     7
370
    25
100
AcDbCircle
 10
103.3864701818
 20
134.9905040135
 30
0.0
 40
2.400000000000006
100
AcDbArc
 50
180.0
 51
259.1930771251
  0
ARC
  5
297
330
1F
100
AcDbEntity
  8
0
  6
SLD-Сплошная
 62
     7
370
    25
100
AcDbCircle
 10
103.3864701818
 20
134.9905040135
 30
0.0
 40
2.400000000000006
100
AcDbArc
 50
100.8069228749
 51
180.0
  0
LINE
  5
298
330
1F
100
AcDbEntity
  8
0
  6
SLD-Сплошная
 62
     7
370
    25
100
AcDbLine
 10
102.9364701818
 20
137.3479390603
 30
0.0
 11
102.9364701818
 21
135.4909175973
 31
0.0
  0
LINE
  5
299
330
1F
100
AcDbEntity
  8
0
  6
SLD-Сплошная
 62
     7
370
    25
100
AcDbLine
 10
102.9364701818
 20
135.4909175973
 30
0.0
 11
101.6196130958
 21
135.4905040135
 31
0.0
  0
LINE
  5
29A
330
1F
100
AcDbEntity
  8
0
  6
SLD-Сплошная
 62
     7
370
    25
100
AcDbLine
 10
101.6196130958
 20
135.4905040135
 30
0.0
 11
101.6196130958
 21
134.4905040135
 31
0.0
  0
LINE
  5
29B
330
1F
100
AcDbEntity
  8
0
  6
SLD-Сплошная
 62
     7
370
    25
100
AcDbLine
 10
101.6196130958
 20
134.4905040135
 30
0.0
 11
102.9364701818
 21
134.4900904297
 31
0.0
  0
LINE
  5
29C
330
1F
100
AcDbEntity
  8
0
  6
SLD-Сплошная
 62
     7
370
    25
100
AcDbLine
 10
102.9364701818
 20
135.4909175973
 30
0.0
 11
102.9364701818
 21
135.4905720302
 31
0.0
  0
LINE
  5
29D
330
1F
100
AcDbEntity
  8
0
  6
SLD-Сплошная
 62
     7
370
    25
100
AcDbLine
 10
101.619990087
 20
135.4901585648
 30
0.0
 11
102.9364701818
 21
135.4905720302
 31
0.0
  0
LINE
  5
29E
330
1F
100
AcDbEntity
  8
0
  6
SLD-Сплошная
 62
     7
370
    25
100
AcDbLine
 10
101.619990087
 20
135.4901585648
 30
0.0
 11
101.6196130958
 21
135.4905040135
 31
0.0
  0
LINE
  5
29F
330
1F
100
AcDbEntity
  8
0
  6
SLD-Сплошная
 62
     7
370
    25
100
AcDbLine
 10
101.6196130958
 20
134.4905040135
 30
0.0
 11
101.619990087
 21
134.4908494622
 31
0.0
  0
LINE
  5
2A0
330
1F
100
AcDbEntity
  8
0
  6
SLD-Сплошная
 62
     7
370
    25
100
AcDbLine
 10
101.619990087
 20
134.4908494622
 30
0.0
 11
102.9364701818
 21
134.4904359969
 31
0.0
  0
LINE
  5
2A1
330
1F
100
AcDbEntity
  8
0
  6
SLD-Сплошная
 62
     7
370
    25
100
AcDbLine
 10
102.9364701818
 20
134.4904359969
 30
0.0
 11
102.9364701818
 21
134.4900904297
 31
0.0
  0
LINE
  5
2A2
330
1F
100
AcDbEntity
  8
0
  6
SLD-Сплошная
 62
     7
370
    25
100
AcDbLine
 10
101.619990087
 20
134.4908494622
 30
0.0
 11
101.619990087
 21
135.4901585648
 31
0.0
  0
LINE
  5
2A3
330
1F
100
AcDbEntity
  8
0
  6
SLD-Сплошная
 62
     7
370
    25
100
AcDbLine
 10
86.1533272677
 20
135.4905040135
 30
0.0
 11
86.1533272677
 21
134.4905040135
 31
0.0
  0
LINE
  5
2A4
330
1F
100
AcDbEntity
  8
0
  6
SLD-Сплошная
 62
     7
370
    25
100
AcDbLine
 10
84.8364701818
 20
135.4909175973
 30
0.0
 11
86.1533272677
 21
135.4905040135
 31
0.0
  0
LINE
  5
2A5
330
1F
100
AcDbEntity
  8
0
  6
SLD-Сплошная
 62
     7
370
    25
100
AcDbLine
 10
84.8364701818
 20
137.3479390603
 30
0.0
 11
84.8364701818
 21
135.4909175973
 31
0.0
  0
LINE
  5
2A6
330
1F
100
AcDbEntity
  8
0
  6
SLD-Сплошная
 62
     7
370
    25
100
AcDbLine
 10
84.8364701818
 20
134.4900904297
 30
0.0
 11
84.8364701818
 21
132.6330689667
 31
0.0
  0
LINE
  5
2A7
330
1F
100
AcDbEntity
  8
0
  6
SLD-Сплошная
 62
     7
370
    25
100
AcDbLine
 10
86.1533272677
 20
134.4905040135
 30
0.0
 11
84.8364701818
 21
134.4900904297
 31
0.0
  0
ARC
  5
2A8
330
1F
100
AcDbEntity
  8
0
  6
SLD-Сплошная
 62
     7
370
    25
100
AcDbCircle
 10
84.3864701818
 20
134.9905040135
 30
0.0
 40
2.400000000000003
100
AcDbArc
 50
280.8069228749
 51
0.0
  0
ARC
  5
2A9
330
1F
100
AcDbEntity
  8
0
  6
SLD-Сплошная
 62
     7
370
    25
100
AcDbCircle
 10
84.3864701818
 20
134.9905040135
 30
0.0
 40
2.400000000000003
100
AcDbArc
 50
0.0
 51
79.1930771251
  0
LINE
  5
2AA
330
1F
100
AcDbEntity
  8
0
  6
SLD-Сплошная
 62
     7
370
    25
100
AcDbLine
 10
86.1529502766
 20
134.4908494622
 30
0.0
 11
86.1529502766
 21
135.4901585648
 31
0.0
  0
LINE
  5
2AB
330
1F
100
AcDbEntity
  8
0
  6
SLD-Сплошная
 62
     7
370
    25
100
AcDbLine
 10
86.1529502766
 20
135.4901585648
 30
0.0
 11
86.1533272677
 21
135.4905040135
 31
0.0
  0
LINE
  5
2AC
330
1F
100
AcDbEntity
  8
0
  6
SLD-Сплошная
 62
     7
370
    25
100
AcDbLine
 10
86.1533272677
 20
134.4905040135
 30
0.0
 11
86.1529502766
 21
134.4908494622
 31
0.0
  0
LINE
  5
2AD
330
1F
100
AcDbEntity
  8
0
  6
SLD-Сплошная
 62
     7
370
    25
100
AcDbLine
 10
86.1529502766
 20
135.4901585648
 30
0.0
 11
84.8364701818
 21
135.4905720302
 31
0.0
  0
LINE
  5
2AE
330
1F
100
AcDbEntity
  8
0
  6
SLD-Сплошная
 62
     7
370
    25
100
AcDbLine
 10
84.8364701818
 20
135.4909175973
 30
0.0
 11
84.8364701818
 21
135.4905720302
 31
0.0
  0
LINE
  5
2AF
330
1F
100
AcDbEntity
  8
0
  6
SLD-Сплошная
 62
     7
370
    25
100
AcDbLine
 10
84.8364701818
 20
134.4904359969
 30
0.0
 11
84.8364701818
 21
134.4900904297
 31
0.0
  0
LINE
  5
2B0
330
1F
100
AcDbEntity
  8
0
  6
SLD-Сплошная
 62
     7
370
    25
100
AcDbLine
 10
86.1529502766
 20
134.4908494622
 30
0.0
 11
84.8364701818
 21
134.4904359969
 31
0.0
  0
LINE
  5
2B1
330
1F
100
AcDbEntity
  8
0
  6
SLD-Сплошная
 62
     7
370
    25
100
AcDbLine
 10
82.6196130958
 20
135.4905040135
 30
0.0
 11
82.619990087
 21
135.4901585648
 31
0.0
  0
LINE
  5
2B2
330
1F
100
AcDbEntity
  8
0
  6
SLD-Сплошная
 62
     7
370
    25
100
AcDbLine
 10
82.6196130958
 20
135.4905040135
 30
0.0
 11
83.9364701818
 21
135.4909175973
 31
0.0
  0
LINE
  5
2B3
330
1F
100
AcDbEntity
  8
0
  6
SLD-Сплошная
 62
     7
370
    25
100
AcDbLine
 10
82.619990087
 20
135.4901585648
 30
0.0
 11
83.9364701818
 21
135.4905720302
 31
0.0
  0
LINE
  5
2B4
330
1F
100
AcDbEntity
  8
0
  6
SLD-Сплошная
 62
     7
370
    25
100
AcDbLine
 10
83.9364701818
 20
135.4909175973
 30
0.0
 11
83.9364701818
 21
135.4905720302
 31
0.0
  0
LINE
  5
2B5
330
1F
100
AcDbEntity
  8
0
  6
SLD-Сплошная
 62
     7
370
    25
100
AcDbLine
 10
83.9364701818
 20
134.4900904297
 30
0.0
 11
82.6196130958
 21
134.4905040135
 31
0.0
  0
LINE
  5
2B6
330
1F
100
AcDbEntity
  8
0
  6
SLD-Сплошная
 62
     7
370
    25
100
AcDbLine
 10
82.619990087
 20
134.4908494622
 30
0.0
 11
82.6196130958
 21
134.4905040135
 31
0.0
  0
LINE
  5
2B7
330
1F
100
AcDbEntity
  8
0
  6
SLD-Сплошная
 62
     7
370
    25
100
AcDbLine
 10
82.619990087
 20
134.4908494622
 30
0.0
 11
83.9364701818
 21
134.4904359969
 31
0.0
  0
LINE
  5
2B8
330
1F
100
AcDbEntity
  8
0
  6
SLD-Сплошная
 62
     7
370
    25
100
AcDbLine
 10
83.9364701818
 20
134.4900904297
 30
0.0
 11
83.9364701818
 21
134.4904359969
 31
0.0
  0
LINE
  5
2B9
330
1F
100
AcDbEntity
  8
0
  6
SLD-Сплошная
 62
     7
370
    25
100
AcDbLine
 10
82.6196130958
 20
134.4905040135
 30
0.0
 11
82.6196130958
 21
135.4905040135
 31
0.0
  0
LINE
  5
2BA
330
1F
100
AcDbEntity
  8
0
  6
SLD-Сплошная
 62
     7
370
    25
100
AcDbLine
 10
83.9364701818
 20
135.4909175973
 30
0.0
 11
83.9364701818
 21
137.3479390603
 31
0.0
  0
LINE
  5
2BB
330
1F
100
AcDbEntity
  8
0
  6
SLD-Сплошная
 62
     7
370
    25
100
AcDbLine
 10
83.9364701818
 20
132.6330689667
 30
0.0
 11
83.9364701818
 21
134.4900904297
 31
0.0
  0
ARC
  5
2BC
330
1F
100
AcDbEntity
  8
0
  6
SLD-Сплошная
 62
     7
370
    25
100
AcDbCircle
 10
84.3864701818
 20
134.9905040135
 30
0.0
 40
2.400000000000003
100
AcDbArc
 50
100.8069228749
 51
259.1930771251
  0
LINE
  5
2BD
330
1F
100
AcDbEntity
  8
0
  6
SLD-Сплошная
 62
     7
370
    25
100
AcDbLine
 10
82.619990087
 20
135.4901585648
 30
0.0
 11
82.619990087
 21
134.4908494622
 31
0.0
  0
ARC
  5
2BE
330
1F
100
AcDbEntity
  8
0
  6
SLD-Сплошная
 62
     7
370
    25
100
AcDbCircle
 10
93.8864701818
 20
143.7905040135
 30
0.0
 40
4.0
100
AcDbArc
 50
180.0
 51
0.0
  0
ARC
  5
2BF
330
1F
100
AcDbEntity
  8
0
  6
SLD-Сплошная
 62
     7
370
    25
100
AcDbCircle
 10
93.8864701818
 20
143.7905040135
 30
0.0
 40
3.999685840724311
100
AcDbArc
 50
180.0
 51
0.0
  0
ARC
  5
2C0
330
1F
100
AcDbEntity
  8
0
  6
SLD-Сплошная
 62
     7
370
    25
100
AcDbCircle
 10
93.8864701818
 20
143.7905040135
 30
0.0
 40
2.5
100
AcDbArc
 50
180.0
 51
0.0
  0
ARC
  5
2C1
330
1F
100
AcDbEntity
  8
0
  6
SLD-Сплошная
 62
     7
370
    25
100
AcDbCircle
 10
93.8864701818
 20
143.7905040135
 30
0.0
 40
2.5
100
AcDbArc
 50
0.0
 51
180.0
  0
ARC
  5
2C2
330
1F
100
AcDbEntity
  8
0
  6
SLD-Сплошная
 62
     7
370
    25
100
AcDbCircle
 10
93.8864701818
 20
143.7905040135
 30
0.0
 40
3.999685840724311
100
AcDbArc
 50
0.0
 51
180.0
  0
ARC
  5
2C3
330
1F
100
AcDbEntity
  8
0
  6
SLD-Сплошная
 62
     7
370
    25
100
AcDbCircle
 10
93.8864701818
 20
143.7905040135
 30
0.0
 40
4.0
100
AcDbArc
 50
0.0
 51
180.0
  0
ARC
  5
2C4
330
1F
100
AcDbEntity
  8
0
  6
SLD-Сплошная
 62
     7
370
    25
100
AcDbCircle
 10
103.3864701818
 20
134.9905040135
 30
0.0
 40
3.000000000000004
100
AcDbArc
 50
180.0
 51
214.5239336614
  0
ARC
  5
2C5
330
1F
100
AcDbEntity
  8
0
  6
SLD-Сплошная
 62
     7
370
    25
100
AcDbCircle
 10
103.3864701818
 20
134.9905040135
 30
0.0
 40
3.0
100
AcDbArc
 50
129.9370284995
 51
180.0
  0
ARC
  5
2C6
330
1F
100
AcDbEntity
  8
0
  6
SLD-Сплошная
 62
     7
370
    25
100
AcDbCircle
 10
103.3864701818
 20
134.9905040135
 30
0.0
 40
2.999999999999982
100
AcDbArc
 50
59.7163860572
 51
120.2836139428
  0
ARC
  5
2C7
330
1F
100
AcDbEntity
  8
0
  6
SLD-Сплошная
 62
     7
370
    25
100
AcDbCircle
 10
103.3864701818
 20
134.9905040135
 30
0.0
 40
3.000000000000004
100
AcDbArc
 50
325.4760663386
 51
50.0629715005
  0
ARC
  5
2C8
330
1F
100
AcDbEntity
  8
0
  6
SLD-Сплошная
 62
     7
370
    25
100
AcDbCircle
 10
84.3864701818
 20
134.9905040135
 30
0.0
 40
3.000000000000015
100
AcDbArc
 50
325.4760663386
 51
0.0
  0
ARC
  5
2C9
330
1F
100
AcDbEntity
  8
0
  6
SLD-Сплошная
 62
     7
370
    25
100
AcDbCircle
 10
84.3864701818
 20
134.9905040135
 30
0.0
 40
3.000000000000004
100
AcDbArc
 50
129.9370284995
 51
214.5239336614
  0
ARC
  5
2CA
330
1F
100
AcDbEntity
  8
0
  6
SLD-Сплошная
 62
     7
370
    25
100
AcDbCircle
 10
84.3864701818
 20
134.9905040135
 30
0.0
 40
2.999999999999989
100
AcDbArc
 50
59.7163860572
 51
120.2836139428
  0
ARC
  5
2CB
330
1F
100
AcDbEntity
  8
0
  6
SLD-Сплошная
 62
     7
370
    25
100
AcDbCircle
 10
84.3864701818
 20
134.9905040135
 30
0.0
 40
3.0
100
AcDbArc
 50
0.0
 51
50.0629715005
  0
LINE
  5
2CC
330
1F
100
AcDbEntity
  8
0
  6
SLD-Сплошная
 62
     7
370
    25
100
AcDbLine
 10
95.6533272677
 20
144.2905040135
 30
0.0
 11
95.6533272677
 21
143.2905040135
 31
0.0
  0
LINE
  5
2CD
330
1F
100
AcDbEntity
  8
0
  6
SLD-Сплошная
 62
     7
370
    25
100
AcDbLine
 10
94.3364701818
 20
144.2909175973
 30
0.0
 11
95.6533272677
 21
144.2905040135
 31
0.0
  0
LINE
  5
2CE
330
1F
100
AcDbEntity
  8
0
  6
SLD-Сплошная
 62
     7
370
    25
100
AcDbLine
 10
94.3364701818
 20
146.1479390603
 30
0.0
 11
94.3364701818
 21
144.2909175973
 31
0.0
  0
ARC
  5
2CF
330
1F
100
AcDbEntity
  8
0
  6
SLD-Сплошная
 62
     7
370
    25
100
AcDbCircle
 10
93.8864701818
 20
143.7905040135
 30
0.0
 40
2.400000000000006
100
AcDbArc
 50
0.0
 51
79.1930771251
  0
ARC
  5
2D0
330
1F
100
AcDbEntity
  8
0
  6
SLD-Сплошная
 62
     7
370
    25
100
AcDbCircle
 10
93.8864701818
 20
143.7905040135
 30
0.0
 40
2.400000000000006
100
AcDbArc
 50
280.8069228749
 51
0.0
  0
LINE
  5
2D1
330
1F
100
AcDbEntity
  8
0
  6
SLD-Сплошная
 62
     7
370
    25
100
AcDbLine
 10
94.3364701818
 20
143.2900904297
 30
0.0
 11
94.3364701818
 21
141.4330689667
 31
0.0
  0
LINE
  5
2D2
330
1F
100
AcDbEntity
  8
0
  6
SLD-Сплошная
 62
     7
370
    25
100
AcDbLine
 10
95.6533272677
 20
143.2905040135
 30
0.0
 11
94.3364701818
 21
143.2900904297
 31
0.0
  0
LINE
  5
2D3
330
1F
100
AcDbEntity
  8
0
  6
SLD-Сплошная
 62
     7
370
    25
100
AcDbLine
 10
94.3364701818
 20
143.2900904297
 30
0.0
 11
94.3364701818
 21
143.2904359969
 31
0.0
  0
LINE
  5
2D4
330
1F
100
AcDbEntity
  8
0
  6
SLD-Сплошная
 62
     7
370
    25
100
AcDbLine
 10
94.3364701818
 20
143.2904359969
 30
0.0
 11
95.6529502766
 21
143.2908494622
 31
0.0
  0
LINE
  5
2D5
330
1F
100
AcDbEntity
  8
0
  6
SLD-Сплошная
 62
     7
370
    25
100
AcDbLine
 10
95.6533272677
 20
143.2905040135
 30
0.0
 11
95.6529502766
 21
143.2908494622
 31
0.0
  0
LINE
  5
2D6
330
1F
100
AcDbEntity
  8
0
  6
SLD-Сплошная
 62
     7
370
    25
100
AcDbLine
 10
95.6529502766
 20
143.2908494622
 30
0.0
 11
95.6529502766
 21
144.2901585648
 31
0.0
  0
LINE
  5
2D7
330
1F
100
AcDbEntity
  8
0
  6
SLD-Сплошная
 62
     7
370
    25
100
AcDbLine
 10
95.6529502766
 20
144.2901585648
 30
0.0
 11
95.6533272677
 21
144.2905040135
 31
0.0
  0
LINE
  5
2D8
330
1F
100
AcDbEntity
  8
0
  6
SLD-Сплошная
 62
     7
370
    25
100
AcDbLine
 10
95.6529502766
 20
144.2901585648
 30
0.0
 11
94.3364701818
 21
144.2905720302
 31
0.0
  0
LINE
  5
2D9
330
1F
100
AcDbEntity
  8
0
  6
SLD-Сплошная
 62
     7
370
    25
100
AcDbLine
 10
94.3364701818
 20
144.2909175973
 30
0.0
 11
94.3364701818
 21
144.2905720302
 31
0.0
  0
LINE
  5
2DA
330
1F
100
AcDbEntity
  8
0
  6
SLD-Сплошная
 62
     7
370
    25
100
AcDbLine
 10
93.4364701818
 20
143.2900904297
 30
0.0
 11
92.1196130958
 21
143.2905040135
 31
0.0
  0
LINE
  5
2DB
330
1F
100
AcDbEntity
  8
0
  6
SLD-Сплошная
 62
     7
370
    25
100
AcDbLine
 10
92.119990087
 20
143.2908494622
 30
0.0
 11
92.1196130958
 21
143.2905040135
 31
0.0
  0
LINE
  5
2DC
330
1F
100
AcDbEntity
  8
0
  6
SLD-Сплошная
 62
     7
370
    25
100
AcDbLine
 10
92.119990087
 20
143.2908494622
 30
0.0
 11
93.4364701818
 21
143.2904359969
 31
0.0
  0
LINE
  5
2DD
330
1F
100
AcDbEntity
  8
0
  6
SLD-Сплошная
 62
     7
370
    25
100
AcDbLine
 10
93.4364701818
 20
143.2900904297
 30
0.0
 11
93.4364701818
 21
143.2904359969
 31
0.0
  0
LINE
  5
2DE
330
1F
100
AcDbEntity
  8
0
  6
SLD-Сплошная
 62
     7
370
    25
100
AcDbLine
 10
93.4364701818
 20
144.2909175973
 30
0.0
 11
92.1196130958
 21
144.2905040135
 31
0.0
  0
LINE
  5
2DF
330
1F
100
AcDbEntity
  8
0
  6
SLD-Сплошная
 62
     7
370
    25
100
AcDbLine
 10
93.4364701818
 20
144.2905720302
 30
0.0
 11
93.4364701818
 21
144.2909175973
 31
0.0
  0
LINE
  5
2E0
330
1F
100
AcDbEntity
  8
0
  6
SLD-Сплошная
 62
     7
370
    25
100
AcDbLine
 10
93.4364701818
 20
144.2905720302
 30
0.0
 11
92.119990087
 21
144.2901585648
 31
0.0
  0
LINE
  5
2E1
330
1F
100
AcDbEntity
  8
0
  6
SLD-Сплошная
 62
     7
370
    25
100
AcDbLine
 10
92.1196130958
 20
144.2905040135
 30
0.0
 11
92.119990087
 21
144.2901585648
 31
0.0
  0
ARC
  5
2E2
330
1F
100
AcDbEntity
  8
0
  6
SLD-Сплошная
 62
     7
370
    25
100
AcDbCircle
 10
93.8864701818
 20
143.7905040135
 30
0.0
 40
2.400000000000003
100
AcDbArc
 50
100.8069228749
 51
259.1930771251
  0
LINE
  5
2E3
330
1F
100
AcDbEntity
  8
0
  6
SLD-Сплошная
 62
     7
370
    25
100
AcDbLine
 10
93.4364701818
 20
144.2909175973
 30
0.0
 11
93.4364701818
 21
146.1479390603
 31
0.0
  0
LINE
  5
2E4
330
1F
100
AcDbEntity
  8
0
  6
SLD-Сплошная
 62
     7
370
    25
100
AcDbLine
 10
92.1196130958
 20
143.2905040135
 30
0.0
 11
92.1196130958
 21
144.2905040135
 31
0.0
  0
LINE
  5
2E5
330
1F
100
AcDbEntity
  8
0
  6
SLD-Сплошная
 62
     7
370
    25
100
AcDbLine
 10
93.4364701818
 20
141.4330689667
 30
0.0
 11
93.4364701818
 21
143.2900904297
 31
0.0
  0
LINE
  5
2E6
330
1F
100
AcDbEntity
  8
0
  6
SLD-Сплошная
 62
     7
370
    25
100
AcDbLine
 10
92.119990087
 20
144.2901585648
 30
0.0
 11
92.119990087
 21
143.2908494622
 31
0.0
  0
ARC
  5
2E7
330
1F
100
AcDbEntity
  8
0
  6
SLD-Сплошная
 62
     7
370
    25
100
AcDbCircle
 10
93.8864701818
 20
143.7905040135
 30
0.0
 40
21.0
100
AcDbArc
 50
332.7971055878
 51
0.0
  0
LINE
  5
2E8
330
1F
100
AcDbEntity
  8
0
  6
SLD-Сплошная
 62
     7
370
    25
100
AcDbLine
 10
109.7864701818
 20
134.1905040135
 30
0.0
 11
112.5637290813
 21
134.1905040135
 31
0.0
  0
LINE
  5
2E9
330
1F
100
AcDbEntity
  8
0
  6
SLD-Сплошная
 62
     7
370
    25
100
AcDbLine
 10
108.9401006744
 20
129.3905040135
 30
0.0
 11
109.7864701818
 21
134.1905040135
 31
0.0
  0
LINE
  5
2EA
330
1F
100
AcDbEntity
  8
0
  6
SLD-Сплошная
 62
     7
370
    25
100
AcDbLine
 10
107.2579133894
 20
129.3905040135
 30
0.0
 11
108.9401006744
 21
129.3905040135
 31
0.0
  0
LINE
  5
2EB
330
1F
100
AcDbEntity
  8
0
  6
SLD-Сплошная
 62
     7
370
    25
100
AcDbLine
 10
107.2579133894
 20
129.3905040135
 30
0.0
 11
107.2579133894
 21
130.3905040135
 31
0.0
  0
LINE
  5
2EC
330
1F
100
AcDbEntity
  8
0
  6
SLD-Сплошная
 62
     7
370
    25
100
AcDbLine
 10
99.5150269742
 20
130.3905040135
 30
0.0
 11
107.2579133894
 21
130.3905040135
 31
0.0
  0
LINE
  5
2ED
330
1F
100
AcDbEntity
  8
0
  6
SLD-Сплошная
 62
     7
370
    25
100
AcDbLine
 10
99.5150269742
 20
130.3905040135
 30
0.0
 11
99.5150269742
 21
129.3905040135
 31
0.0
  0
LINE
  5
2EE
330
1F
100
AcDbEntity
  8
0
  6
SLD-Сплошная
 62
     7
370
    25
100
AcDbLine
 10
97.9864701818
 20
129.3905040135
 30
0.0
 11
99.5150269742
 21
129.3905040135
 31
0.0
  0
ARC
  5
2EF
330
1F
100
AcDbEntity
  8
0
  6
SLD-Сплошная
 62
     7
370
    25
100
AcDbCircle
 10
97.9864701818
 20
130.3905040135
 30
0.0
 40
1.0
100
AcDbArc
 50
180.0
 51
270.0
  0
LINE
  5
2F0
330
1F
100
AcDbEntity
  8
0
  6
SLD-Сплошная
 62
     7
370
    25
100
AcDbLine
 10
90.7864701818
 20
130.3905040135
 30
0.0
 11
96.9864701818
 21
130.3905040135
 31
0.0
  0
ARC
  5
2F1
330
1F
100
AcDbEntity
  8
0
  6
SLD-Сплошная
 62
     7
370
    25
100
AcDbCircle
 10
89.7864701818
 20
130.3905040135
 30
0.0
 40
1.000000000000014
100
AcDbArc
 50
270.0
 51
0.0
  0
LINE
  5
2F2
330
1F
100
AcDbEntity
  8
0
  6
SLD-Сплошная
 62
     7
370
    25
100
AcDbLine
 10
88.2579133894
 20
129.3905040135
 30
0.0
 11
89.7864701818
 21
129.3905040135
 31
0.0
  0
LINE
  5
2F3
330
1F
100
AcDbEntity
  8
0
  6
SLD-Сплошная
 62
     7
370
    25
100
AcDbLine
 10
88.2579133894
 20
129.3905040135
 30
0.0
 11
88.2579133894
 21
130.3905040135
 31
0.0
  0
LINE
  5
2F4
330
1F
100
AcDbEntity
  8
0
  6
SLD-Сплошная
 62
     7
370
    25
100
AcDbLine
 10
80.5150269742
 20
130.3905040135
 30
0.0
 11
88.2579133894
 21
130.3905040135
 31
0.0
  0
LINE
  5
2F5
330
1F
100
AcDbEntity
  8
0
  6
SLD-Сплошная
 62
     7
370
    25
100
AcDbLine
 10
80.5150269742
 20
130.3905040135
 30
0.0
 11
80.5150269742
 21
129.3905040135
 31
0.0
  0
LINE
  5
2F6
330
1F
100
AcDbEntity
  8
0
  6
SLD-Сплошная
 62
     7
370
    25
100
AcDbLine
 10
78.8328396892
 20
129.3905040135
 30
0.0
 11
80.5150269742
 21
129.3905040135
 31
0.0
  0
LINE
  5
2F7
330
1F
100
AcDbEntity
  8
0
  6
SLD-Сплошная
 62
     7
370
    25
100
AcDbLine
 10
77.9864701818
 20
134.1905040135
 30
0.0
 11
78.8328396892
 21
129.3905040135
 31
0.0
  0
LINE
  5
2F8
330
1F
100
AcDbEntity
  8
0
  6
SLD-Сплошная
 62
     7
370
    25
100
AcDbLine
 10
75.2092112822
 20
134.1905040135
 30
0.0
 11
77.9864701818
 21
134.1905040135
 31
0.0
  0
ARC
  5
2F9
330
1F
100
AcDbEntity
  8
0
  6
SLD-Сплошная
 62
     7
370
    25
100
AcDbCircle
 10
93.8864701818
 20
143.7905040135
 30
0.0
 40
21.0
100
AcDbArc
 50
180.0
 51
207.2028944122
  0
ARC
  5
2FA
330
1F
100
AcDbEntity
  8
0
  6
SLD-Сплошная
 62
     7
370
    25
100
AcDbCircle
 10
93.8864701818
 20
143.7905040135
 30
0.0
 40
21.0
100
AcDbArc
 50
152.7971055878
 51
180.0
  0
LINE
  5
2FB
330
1F
100
AcDbEntity
  8
0
  6
SLD-Сплошная
 62
     7
370
    25
100
AcDbLine
 10
112.5637290813
 20
153.3905040135
 30
0.0
 11
75.2092112822
 21
153.3905040135
 31
0.0
  0
ARC
  5
2FC
330
1F
100
AcDbEntity
  8
0
  6
SLD-Сплошная
 62
     7
370
    25
100
AcDbCircle
 10
93.8864701818
 20
143.7905040135
 30
0.0
 40
21.0
100
AcDbArc
 50
0.0
 51
27.2028944122
  0
LINE
  5
2FD
330
1F
100
AcDbEntity
  8
0
  6
SLD-Сплошная
 62
     7
370
    25
100
AcDbLine
 10
107.2555571948
 20
130.3905040135
 30
0.0
 11
107.2555571948
 21
129.3905040135
 31
0.0
  0
LINE
  5
2FE
330
1F
100
AcDbEntity
  8
0
  6
SLD-Сплошная
 62
     7
370
    25
100
AcDbLine
 10
107.2555571948
 20
129.3905040135
 30
0.0
 11
107.2579133894
 21
129.3905040135
 31
0.0
  0
LINE
  5
2FF
330
1F
100
AcDbEntity
  8
0
  6
SLD-Сплошная
 62
     7
370
    25
100
AcDbLine
 10
99.5173831687
 20
130.3905040135
 30
0.0
 11
99.5173831687
 21
129.3905040135
 31
0.0
  0
LINE
  5
300
330
1F
100
AcDbEntity
  8
0
  6
SLD-Сплошная
 62
     7
370
    25
100
AcDbLine
 10
99.5150269742
 20
129.3905040135
 30
0.0
 11
99.5173831687
 21
129.3905040135
 31
0.0
  0
LINE
  5
301
330
1F
100
AcDbEntity
  8
0
  6
SLD-Сплошная
 62
     7
370
    25
100
AcDbLine
 10
88.2555571948
 20
130.3905040135
 30
0.0
 11
88.2555571948
 21
129.3905040135
 31
0.0
  0
LINE
  5
302
330
1F
100
AcDbEntity
  8
0
  6
SLD-Сплошная
 62
     7
370
    25
100
AcDbLine
 10
88.2555571948
 20
129.3905040135
 30
0.0
 11
88.2579133894
 21
129.3905040135
 31
0.0
  0
LINE
  5
303
330
1F
100
AcDbEntity
  8
0
  6
SLD-Сплошная
 62
     7
370
    25
100
AcDbLine
 10
80.5173831687
 20
130.3905040135
 30
0.0
 11
80.5173831687
 21
129.3905040135
 31
0.0
  0
LINE
  5
304
330
1F
100
AcDbEntity
  8
0
  6
SLD-Сплошная
 62
     7
370
    25
100
AcDbLine
 10
80.5150269742
 20
129.3905040135
 30
0.0
 11
80.5173831687
 21
129.3905040135
 31
0.0
  0
LINE
  5
305
330
1F
100
AcDbEntity
  8
0
  6
SLD-Сплошная
 62
     7
370
    25
100
AcDbLine
 10
96.3864701818
 20
124.7905040135
 30
0.0
 11
91.3864701818
 21
124.7905040135
 31
0.0
  0
LINE
  5
306
330
1F
100
AcDbEntity
  8
0
  6
SLD-Сплошная
 62
     7
370
    25
100
AcDbLine
 10
91.3864701818
 20
124.7905040135
 30
0.0
 11
91.3864701818
 21
130.3905040135
 31
0.0
  0
LINE
  5
307
330
1F
100
AcDbEntity
  8
0
  6
SLD-Сплошная
 62
     7
370
    25
100
AcDbLine
 10
96.3864701818
 20
124.7905040135
 30
0.0
 11
96.3864701818
 21
130.3905040135
 31
0.0
  0
LINE
  5
308
330
1F
100
AcDbEntity
  8
0
  6
SLD-Сплошная
 62
     7
370
    25
100
AcDbLine
 10
96.3864701818
 20
153.3905040135
 30
0.0
 11
96.3864701818
 21
162.7905040135
 31
0.0
  0
LINE
  5
309
330
1F
100
AcDbEntity
  8
0
  6
SLD-Сплошная
 62
     7
370
    25
100
AcDbLine
 10
91.3864701818
 20
153.3905040135
 30
0.0
 11
91.3864701818
 21
162.7905040135
 31
0.0
  0
LINE
  5
30A
330
1F
100
AcDbEntity
  8
0
  6
SLD-Сплошная
 62
     7
370
    25
100
AcDbLine
 10
96.3864701818
 20
162.7905040135
 30
0.0
 11
91.3864701818
 21
162.7905040135
 31
0.0
  0
LINE
  5
30B
330
1F
100
AcDbEntity
  8
0
  6
SLD-Сплошная
 62
     7
370
    25
100
AcDbLine
 10
105.8864701818
 20
130.3905040135
 30
0.0
 11
105.8864701818
 21
129.3905040135
 31
0.0
  0
LINE
  5
30C
330
1F
100
AcDbEntity
  8
0
  6
SLD-Сплошная
 62
     7
370
    25
100
AcDbLine
 10
105.8864701818
 20
129.3905040135
 30
0.0
 11
107.2555571948
 21
129.3905040135
 31
0.0
  0
LINE
  5
30D
330
1F
100
AcDbEntity
  8
0
  6
SLD-Сплошная
 62
     7
370
    25
100
AcDbLine
 10
105.8863445181
 20
129.3905040135
 30
0.0
 11
105.8863445181
 21
130.3905040135
 31
0.0
  0
LINE
  5
30E
330
1F
100
AcDbEntity
  8
0
  6
SLD-Сплошная
 62
     7
370
    25
100
AcDbLine
 10
105.8864701818
 20
129.3905040135
 30
0.0
 11
105.8863445181
 21
129.3905040135
 31
0.0
  0
LINE
  5
30F
330
1F
100
AcDbEntity
  8
0
  6
SLD-Сплошная
 62
     7
370
    25
100
AcDbLine
 10
100.8864701818
 20
130.3905040135
 30
0.0
 11
100.8864701818
 21
129.3905040135
 31
0.0
  0
LINE
  5
310
330
1F
100
AcDbEntity
  8
0
  6
SLD-Сплошная
 62
     7
370
    25
100
AcDbLine
 10
99.5173831687
 20
129.3905040135
 30
0.0
 11
100.8864701818
 21
129.3905040135
 31
0.0
  0
LINE
  5
311
330
1F
100
AcDbEntity
  8
0
  6
SLD-Сплошная
 62
     7
370
    25
100
AcDbLine
 10
100.8865958455
 20
130.3905040135
 30
0.0
 11
100.8865958455
 21
129.3905040135
 31
0.0
  0
LINE
  5
312
330
1F
100
AcDbEntity
  8
0
  6
SLD-Сплошная
 62
     7
370
    25
100
AcDbLine
 10
100.8864701818
 20
129.3905040135
 30
0.0
 11
100.8865958455
 21
129.3905040135
 31
0.0
  0
LINE
  5
313
330
1F
100
AcDbEntity
  8
0
  6
SLD-Сплошная
 62
     7
370
    25
100
AcDbLine
 10
86.8864701818
 20
130.3905040135
 30
0.0
 11
86.8864701818
 21
129.3905040135
 31
0.0
  0
LINE
  5
314
330
1F
100
AcDbEntity
  8
0
  6
SLD-Сплошная
 62
     7
370
    25
100
AcDbLine
 10
86.8864701818
 20
129.3905040135
 30
0.0
 11
88.2555571948
 21
129.3905040135
 31
0.0
  0
LINE
  5
315
330
1F
100
AcDbEntity
  8
0
  6
SLD-Сплошная
 62
     7
370
    25
100
AcDbLine
 10
86.8863445181
 20
129.3905040135
 30
0.0
 11
86.8863445181
 21
130.3905040135
 31
0.0
  0
LINE
  5
316
330
1F
100
AcDbEntity
  8
0
  6
SLD-Сплошная
 62
     7
370
    25
100
AcDbLine
 10
86.8864701818
 20
129.3905040135
 30
0.0
 11
86.8863445181
 21
129.3905040135
 31
0.0
  0
LINE
  5
317
330
1F
100
AcDbEntity
  8
0
  6
SLD-Сплошная
 62
     7
370
    25
100
AcDbLine
 10
81.8864701818
 20
130.3905040135
 30
0.0
 11
81.8864701818
 21
129.3905040135
 31
0.0
  0
LINE
  5
318
330
1F
100
AcDbEntity
  8
0
  6
SLD-Сплошная
 62
     7
370
    25
100
AcDbLine
 10
80.5173831687
 20
129.3905040135
 30
0.0
 11
81.8864701818
 21
129.3905040135
 31
0.0
  0
LINE
  5
319
330
1F
100
AcDbEntity
  8
0
  6
SLD-Сплошная
 62
     7
370
    25
100
AcDbLine
 10
81.8865958455
 20
130.3905040135
 30
0.0
 11
81.8865958455
 21
129.3905040135
 31
0.0
  0
LINE
  5
31A
330
1F
100
AcDbEntity
  8
0
  6
SLD-Сплошная
 62
     7
370
    25
100
AcDbLine
 10
81.8864701818
 20
129.3905040135
 30
0.0
 11
81.8865958455
 21
129.3905040135
 31
0.0
  0
ARC
  5
31B
330
1F
100
AcDbEntity
  8
0
  6
SLD-Сплошная
 62
     7
370
    25
100
AcDbCircle
 10
93.8864701818
 20
143.7905040135
 30
0.0
 40
21.0
100
AcDbArc
 50
207.2028944122
 51
332.7971055878
  0
ARC
  5
31C
330
1F
100
AcDbEntity
  8
0
  6
SLD-Сплошная
 62
     7
370
    25
100
AcDbCircle
 10
93.8864701818
 20
143.7905040135
 30
0.0
 40
20.99999999999998
100
AcDbArc
 50
27.2028944122
 51
152.7971055878
  0
LINE
  5
31D
330
1F
100
AcDbEntity
  8
0
  6
SLD-Сплошная
 62
     7
370
    25
100
AcDbLine
 10
118.9150089737
 20
118.7619652216
 30
0.0
 11
118.9126527792
 21
118.7643214161
 31
0.0
  0
LINE
  5
31E
330
1F
100
AcDbEntity
  8
0
  6
SLD-Сплошная
 62
     7
370
    25
100
AcDbLine
 10
118.9126527792
 20
168.8166866109
 30
0.0
 11
118.9126527792
 21
118.7643214161
 31
0.0
  0
LINE
  5
31F
330
1F
100
AcDbEntity
  8
0
  6
SLD-Сплошная
 62
     7
370
    25
100
AcDbLine
 10
118.9150089737
 20
168.8190428055
 30
0.0
 11
118.9126527792
 21
168.8166866109
 31
0.0
  0
LINE
  5
320
330
1F
100
AcDbEntity
  8
0
  6
SLD-Сплошная
 62
     7
370
    25
100
AcDbLine
 10
118.9150089737
 20
168.8190428055
 30
0.0
 11
118.9150089737
 21
118.7619652216
 31
0.0
  0
LINE
  5
321
330
1F
100
AcDbEntity
  8
0
  6
SLD-Сплошная
 62
     7
370
    25
100
AcDbLine
 10
106.3864701818
 20
168.8190428055
 30
0.0
 11
118.9150089737
 21
168.8190428055
 31
0.0
  0
LINE
  5
322
330
1F
100
AcDbEntity
  8
0
  6
SLD-Сплошная
 62
     7
370
    25
100
AcDbLine
 10
106.3864701818
 20
168.8166866109
 30
0.0
 11
118.9126527792
 21
168.8166866109
 31
0.0
  0
ARC
  5
323
330
1F
100
AcDbEntity
  8
0
  6
SLD-Сплошная
 62
     7
370
    25
100
AcDbCircle
 10
74.8864701818
 20
124.7905040135
 30
0.0
 40
2.101665044160001
100
AcDbArc
 50
0.0
 51
180.0
  0
ARC
  5
324
330
1F
100
AcDbEntity
  8
0
  6
SLD-Сплошная
 62
     7
370
    25
100
AcDbCircle
 10
74.8864701818
 20
124.7905040135
 30
0.0
 40
2.101665044160001
100
AcDbArc
 50
180.0
 51
0.0
  0
ARC
  5
325
330
1F
100
AcDbEntity
  8
0
  6
SLD-Сплошная
 62
     7
370
    25
100
AcDbCircle
 10
112.8864701818
 20
162.7905040135
 30
0.0
 40
2.101665044159759
100
AcDbArc
 50
0.0
 51
180.0
  0
ARC
  5
326
330
1F
100
AcDbEntity
  8
0
  6
SLD-Сплошная
 62
     7
370
    25
100
AcDbCircle
 10
112.8864701818
 20
162.7905040135
 30
0.0
 40
2.101665044159759
100
AcDbArc
 50
180.0
 51
0.0
  0
ARC
  5
327
330
1F
100
AcDbEntity
  8
0
  6
SLD-Сплошная
 62
     7
370
    25
100
AcDbCircle
 10
74.8864701818
 20
162.7905040135
 30
0.0
 40
2.101665044160001
100
AcDbArc
 50
0.0
 51
180.0
  0
ARC
  5
328
330
1F
100
AcDbEntity
  8
0
  6
SLD-Сплошная
 62
     7
370
    25
100
AcDbCircle
 10
74.8864701818
 20
162.7905040135
 30
0.0
 40
2.101665044160001
100
AcDbArc
 50
180.0
 51
0.0
  0
ARC
  5
329
330
1F
100
AcDbEntity
  8
0
  6
SLD-Сплошная
 62
     7
370
    25
100
AcDbCircle
 10
112.8864701818
 20
124.7905040135
 30
0.0
 40
2.101665044159759
100
AcDbArc
 50
0.0
 51
180.0
  0
ARC
  5
32A
330
1F
100
AcDbEntity
  8
0
  6
SLD-Сплошная
 62
     7
370
    25
100
AcDbCircle
 10
112.8864701818
 20
124.7905040135
 30
0.0
 40
2.101665044159759
100
AcDbArc
 50
180.0
 51
0.0
  0
LINE
  5
32B
330
1F
100
AcDbEntity
  8
0
  6
SLD-Сплошная
 62
     7
370
    25
100
AcDbLine
 10
118.9126527792
 20
118.7643214161
 30
0.0
 11
68.8602875844
 21
118.7643214161
 31
0.0
  0
LINE
  5
32C
330
1F
100
AcDbEntity
  8
0
  6
SLD-Сплошная
 62
     7
370
    25
100
AcDbLine
 10
68.8602875844
 20
118.7643214161
 30
0.0
 11
68.8602875844
 21
168.8166866109
 31
0.0
  0
LINE
  5
32D
330
1F
100
AcDbEntity
  8
0
  6
SLD-Сплошная
 62
     7
370
    25
100
AcDbLine
 10
68.8602875844
 20
168.8166866109
 30
0.0
 11
81.3864701818
 21
168.8166866109
 31
0.0
  0
LINE
  5
32E
330
1F
100
AcDbEntity
  8
0
  6
SLD-Сплошная
 62
     7
370
    25
100
AcDbLine
 10
81.3864701818
 20
168.8166866109
 30
0.0
 11
81.3864701818
 21
179.7905040135
 31
0.0
  0
LINE
  5
32F
330
1F
100
AcDbEntity
  8
0
  6
SLD-Сплошная
 62
     7
370
    25
100
AcDbLine
 10
81.3864701818
 20
179.7905040135
 30
0.0
 11
106.3864701818
 21
179.7905040135
 31
0.0
  0
LINE
  5
330
330
1F
100
AcDbEntity
  8
0
  6
SLD-Сплошная
 62
     7
370
    25
100
AcDbLine
 10
106.3864701818
 20
168.8166866109
 30
0.0
 11
106.3864701818
 21
179.7905040135
 31
0.0
  0
LINE
  5
331
330
1F
100
AcDbEntity
  8
0
  6
SLD-Сплошная
 62
     7
370
    25
100
AcDbLine
 10
68.8579313898
 20
118.7619652216
 30
0.0
 11
68.8602875844
 21
118.7643214161
 31
0.0
  0
LINE
  5
332
330
1F
100
AcDbEntity
  8
0
  6
SLD-Сплошная
 62
     7
370
    25
100
AcDbLine
 10
118.9150089737
 20
118.7619652216
 30
0.0
 11
68.8579313898
 21
118.7619652216
 31
0.0
  0
ARC
  5
333
330
1F
100
AcDbEntity
  8
0
  6
SLD-Сплошная
 62
     7
370
    25
100
AcDbCircle
 10
112.8864701818
 20
162.7905040135
 30
0.0
 40
2.099999999998602
100
AcDbArc
 50
0.0
 51
180.0
  0
ARC
  5
334
330
1F
100
AcDbEntity
  8
0
  6
SLD-Сплошная
 62
     7
370
    25
100
AcDbCircle
 10
112.8864701818
 20
124.7905040135
 30
0.0
 40
2.099999999998602
100
AcDbArc
 50
0.0
 51
180.0
  0
ARC
  5
335
330
1F
100
AcDbEntity
  8
0
  6
SLD-Сплошная
 62
     7
370
    25
100
AcDbCircle
 10
112.8864701818
 20
162.7905040135
 30
0.0
 40
2.099999999998602
100
AcDbArc
 50
180.0
 51
0.0
  0
ARC
  5
336
330
1F
100
AcDbEntity
  8
0
  6
SLD-Сплошная
 62
     7
370
    25
100
AcDbCircle
 10
112.8864701818
 20
124.7905040135
 30
0.0
 40
2.099999999998602
100
AcDbArc
 50
180.0
 51
0.0
  0
LINE
  5
337
330
1F
100
AcDbEntity
  8
0
  6
SLD-Сплошная
 62
     7
370
    25
100
AcDbLine
 10
68.8579313898
 20
168.8190428055
 30
0.0
 11
68.8602875844
 21
168.8166866109
 31
0.0
  0
LINE
  5
338
330
1F
100
AcDbEntity
  8
0
  6
SLD-Сплошная
 62
     7
370
    25
100
AcDbLine
 10
81.3864701818
 20
168.8190428055
 30
0.0
 11
68.8579313898
 21
168.8190428055
 31
0.0
  0
ARC
  5
339
330
1F
100
AcDbEntity
  8
0
  6
SLD-Сплошная
 62
     7
370
    25
100
AcDbCircle
 10
74.8864701818
 20
162.7905040135
 30
0.0
 40
2.099999999998857
100
AcDbArc
 50
180.0
 51
0.0
  0
ARC
  5
33A
330
1F
100
AcDbEntity
  8
0
  6
SLD-Сплошная
 62
     7
370
    25
100
AcDbCircle
 10
74.8864701818
 20
124.7905040135
 30
0.0
 40
2.099999999998857
100
AcDbArc
 50
0.0
 51
180.0
  0
ARC
  5
33B
330
1F
100
AcDbEntity
  8
0
  6
SLD-Сплошная
 62
     7
370
    25
100
AcDbCircle
 10
74.8864701818
 20
162.7905040135
 30
0.0
 40
2.099999999998857
100
AcDbArc
 50
0.0
 51
180.0
  0
ARC
  5
33C
330
1F
100
AcDbEntity
  8
0
  6
SLD-Сплошная
 62
     7
370
    25
100
AcDbCircle
 10
74.8864701818
 20
124.7905040135
 30
0.0
 40
2.099999999998857
100
AcDbArc
 50
180.0
 51
0.0
  0
LINE
  5
33D
330
1F
100
AcDbEntity
  8
0
  6
SLD-Сплошная
 62
     7
370
    25
100
AcDbLine
 10
68.8579313898
 20
168.8190428055
 30
0.0
 11
68.8579313898
 21
118.7619652216
 31
0.0
  0
ENDSEC
  0
SECTION
  2
OBJECTS
  0
DICTIONARY
  5
C
330
0
100
AcDbDictionary
281
     1
  3
ACAD_GROUP
350
D
  3
ACAD_LAYOUT
350
1A
  3
ACAD_MLINESTYLE
350
17
  3
ACAD_PLOTSETTINGS
350
19
  3
ACAD_PLOTSTYLENAME
350
E
  3
ACAD_SCALELIST
350
47
  3
DWGPROPS
350
33E
  0
DICTIONARY
  5
D
102
{ACAD_REACTORS
330
C
102
}
330
C
100
AcDbDictionary
281
     1
  0
DICTIONARY
  5
1A
102
{ACAD_REACTORS
330
C
102
}
330
C
100
AcDbDictionary
281
     1
  3
Layout1
350
1E
  3
Layout2
350
26
  3
Model
350
22
  0
DICTIONARY
  5
17
102
{ACAD_REACTORS
330
C
102
}
330
C
100
AcDbDictionary
281
     1
  3
Standard
350
18
  0
DICTIONARY
  5
19
102
{ACAD_REACTORS
330
C
102
}
330
C
100
AcDbDictionary
281
     1
  0
ACDBDICTIONARYWDFLT
  5
E
102
{ACAD_REACTORS
330
C
102
}
330
C
100
AcDbDictionary
281
     1
  3
Normal
350
F
100
AcDbDictionaryWithDefault
340
F
  0
DICTIONARY
  5
47
102
{ACAD_REACTORS
330
C
102
}
330
C
100
AcDbDictionary
281
     1
  3
A0
350
48
  3
A1
350
49
  3
A2
350
4A
  3
A3
350
4B
  3
A4
350
4C
  3
A5
350
4D
  3
A6
350
4E
  3
A7
350
4F
  3
A8
350
50
  3
A9
350
51
  3
B0
350
52
  3
B1
350
53
  3
B2
350
54
  3
B3
350
55
  3
B4
350
56
  3
B5
350
57
  3
B6
350
58
  0
XRECORD
  5
33E
102
{ACAD_REACTORS
330
C
102
}
330
C
100
AcDbXrecord
280
     1
  1
DWGPROPS COOKIE
  2

  3

  4

  6

  7

  8
inyankin
  9

300
=
301
=
302
=
303
=
304
=
305
=
306
=
307
=
308
=
309
=
 40
0.0
 41
2460928.444866285
 42
2460928.444866967
  1

 90
        0
  0
LAYOUT
  5
1E
102
{ACAD_REACTORS
330
1A
102
}
330
1A
100
AcDbPlotSettings
  1

  2
none_device
  4

  6

 40
0.0
 41
0.0
 42
0.0
 43
0.0
 44
0.0
 45
0.0
 46
0.0
 47
0.0
 48
0.0
 49
0.0
140
0.0
141
0.0
142
1.0
143
1.0
 70
   688
 72
     1
 73
     0
 74
     5
  7

 75
    16
147
1.0
148
0.0
149
0.0
100
AcDbLayout
  1
Layout1
 70
     1
 71
     1
 10
0.0
 20
0.0
 11
420.0
 21
297.0
 12
0.0
 22
0.0
 32
0.0
 14
1.0000000000E+20
 24
1.0000000000E+20
 34
1.0000000000E+20
 15
-1.0000000000E+20
 25
-1.0000000000E+20
 35
-1.0000000000E+20
146
0.0
 13
0.0
 23
0.0
 33
0.0
 16
1.0
 26
0.0
 36
0.0
 17
0.0
 27
1.0
 37
0.0
 76
     0
330
1B
  0
LAYOUT
  5
26
102
{ACAD_REACTORS
330
1A
102
}
330
1A
100
AcDbPlotSettings
  1

  2
none_device
  4

  6

 40
0.0
 41
0.0
 42
0.0
 43
0.0
 44
0.0
 45
0.0
 46
0.0
 47
0.0
 48
0.0
 49
0.0
140
0.0
141
0.0
142
1.0
143
1.0
 70
   688
 72
     1
 73
     0
 74
     5
  7

 75
    16
147
1.0
148
0.0
149
0.0
100
AcDbLayout
  1
Layout2
 70
     1
 71
     2
 10
0.0
 20
0.0
 11
0.0
 21
0.0
 12
0.0
 22
0.0
 32
0.0
 14
0.0
 24
0.0
 34
0.0
 15
0.0
 25
0.0
 35
0.0
146
0.0
 13
0.0
 23
0.0
 33
0.0
 16
1.0
 26
0.0
 36
0.0
 17
0.0
 27
1.0
 37
0.0
 76
     0
330
23
  0
LAYOUT
  5
22
102
{ACAD_REACTORS
330
1A
102
}
330
1A
100
AcDbPlotSettings
  1

  2
none_device
  4
Letter_(8.50_x_11.00_Inches)
  6

 40
6.35
 41
6.35
 42
6.35000508
 43
6.35000508
 44
215.9
 45
279.4
 46
0.0
 47
0.0
 48
0.0
 49
0.0
140
0.0
141
0.0
142
1.0
143
1.0
 70
  1712
 72
     1
 73
     0
 74
     0
  7

 75
     0
147
1.0
148
0.0
149
0.0
100
AcDbLayout
  1
Model
 70
     1
 71
     0
 10
0.0
 20
0.0
 11
431.8
 21
279.4
 12
0.0
 22
0.0
 32
0.0
 14
0.0
 24
0.0
 34
0.0
 15
431.8
 25
279.4
 35
0.0
146
0.0
 13
0.0
 23
0.0
 33
0.0
 16
1.0
 26
0.0
 36
0.0
 17
0.0
 27
1.0
 37
0.0
 76
     0
330
1F
331
29
  0
MLINESTYLE
  5
18
102
{ACAD_REACTORS
330
17
102
}
330
17
100
AcDbMlineStyle
  2
Standard
 70
     0
  3

 62
   256
 51
90.0
 52
90.0
 71
     2
 49
0.5
 62
   256
  6
BYLAYER
 49
-0.5
 62
   256
  6
BYLAYER
  0
ACDBPLACEHOLDER
  5
F
102
{ACAD_REACTORS
330
E
102
}
330
E
  0
SCALE
  5
48
102
{ACAD_REACTORS
330
47
102
}
330
47
100
AcDbScale
 70
     0
300
1:1
140
1.0
141
1.0
290
     1
  0
SCALE
  5
49
102
{ACAD_REACTORS
330
47
102
}
330
47
100
AcDbScale
 70
     0
300
1:2
140
1.0
141
2.0
290
     0
  0
SCALE
  5
4A
102
{ACAD_REACTORS
330
47
102
}
330
47
100
AcDbScale
 70
     0
300
1:4
140
1.0
141
4.0
290
     0
  0
SCALE
  5
4B
102
{ACAD_REACTORS
330
47
102
}
330
47
100
AcDbScale
 70
     0
300
1:5
140
1.0
141
5.0
290
     0
  0
SCALE
  5
4C
102
{ACAD_REACTORS
330
47
102
}
330
47
100
AcDbScale
 70
     0
300
1:8
140
1.0
141
8.0
290
     0
  0
SCALE
  5
4D
102
{ACAD_REACTORS
330
47
102
}
330
47
100
AcDbScale
 70
     0
300
1:10
140
1.0
141
10.0
290
     0
  0
SCALE
  5
4E
102
{ACAD_REACTORS
330
47
102
}
330
47
100
AcDbScale
 70
     0
300
1:16
140
1.0
141
16.0
290
     0
  0
SCALE
  5
4F
102
{ACAD_REACTORS
330
47
102
}
330
47
100
AcDbScale
 70
     0
300
1:20
140
1.0
141
20.0
290
     0
  0
SCALE
  5
50
102
{ACAD_REACTORS
330
47
102
}
330
47
100
AcDbScale
 70
     0
300
1:30
140
1.0
141
30.0
290
     0
  0
SCALE
  5
51
102
{ACAD_REACTORS
330
47
102
}
330
47
100
AcDbScale
 70
     0
300
1:40
140
1.0
141
40.0
290
     0
  0
SCALE
  5
52
102
{ACAD_REACTORS
330
47
102
}
330
47
100
AcDbScale
 70
     0
300
1:50
140
1.0
141
50.0
290
     0
  0
SCALE
  5
53
102
{ACAD_REACTORS
330
47
102
}
330
47
100
AcDbScale
 70
     0
300
1:100
140
1.0
141
100.0
290
     0
  0
SCALE
  5
54
102
{ACAD_REACTORS
330
47
102
}
330
47
100
AcDbScale
 70
     0
300
2:1
140
2.0
141
1.0
290
     0
  0
SCALE
  5
55
102
{ACAD_REACTORS
330
47
102
}
330
47
100
AcDbScale
 70
     0
300
4:1
140
4.0
141
1.0
290
     0
  0
SCALE
  5
56
102
{ACAD_REACTORS
330
47
102
}
330
47
100
AcDbScale
 70
     0
300
8:1
140
8.0
141
1.0
290
     0
  0
SCALE
  5
57
102
{ACAD_REACTORS
330
47
102
}
330
47
100
AcDbScale
 70
     0
300
10:1
140
10.0
141
1.0
290
     0
  0
SCALE
  5
58
102
{ACAD_REACTORS
330
47
102
}
330
47
100
AcDbScale
 70
     0
300
100:1
140
100.0
141
1.0
290
     0
  0
ENDSEC
  0
EOF
