ISO-10303-21;
HEADER;
FILE_DESCRIPTION (( 'STEP AP203' ),
    '1' );
FILE_NAME ('ITK DATAROW Ïàíåëü ìîä. êðûøè ïîëèêîðá. 750x1200.STEP',
    '2024-12-18T10:18:08',
    ( '' ),
    ( '' ),
    'SwSTEP 2.0',
    'SolidWorks 2022',
    '' );
FILE_SCHEMA (( 'CONFIG_CONTROL_DESIGN' ));
ENDSEC;

DATA;
#1 = PERSON_AND_ORGANIZATION ( #6, #91 ) ;
#2 = ORIENTED_EDGE ( 'NONE', *, *, #198, .T. ) ;
#3 = VERTEX_POINT ( 'NONE', #48 ) ;
#4 = DIRECTION ( 'NONE',  ( 0.000000000000000000, -0.000000000000000000, -1.000000000000000000 ) ) ;
#5 = PLANE ( 'NONE',  #85 ) ;
#6 = PERSON ( 'UNSPECIFIED', 'UNSPECIFIED', 'UNSPECIFIED', ('UNSPECIFIED'), ('UNSPECIFIED'), ('UNSPECIFIED') ) ;
#7 = LINE ( 'NONE', #173, #120 ) ;
#8 = CLOSED_SHELL ( 'NONE', ( #34, #18, #37, #68, #153, #228 ) ) ;
#9 = EDGE_CURVE ( 'NONE', #187, #189, #29, .T. ) ;
#10 = CC_DESIGN_PERSON_AND_ORGANIZATION_ASSIGNMENT ( #56, #206, ( #145 ) ) ;
#11 = APPROVAL_PERSON_ORGANIZATION ( #150, #35, #208 ) ;
#12 = DIRECTION ( 'NONE',  ( 0.000000000000000000, -0.000000000000000000, 1.000000000000000000 ) ) ;
#13 = DIRECTION ( 'NONE',  ( -1.000000000000000000, 0.000000000000000000, 0.000000000000000000 ) ) ;
#14 = EDGE_CURVE ( 'NONE', #3, #187, #177, .T. ) ;
#15 = CARTESIAN_POINT ( 'NONE',  ( 0.000000000000000000, 0.000000000000000000, 0.000000000000000000 ) ) ;
#16 = CARTESIAN_POINT ( 'NONE',  ( 0.000000000000000000, 0.000000000000000000, 4.000000000000000000 ) ) ;
#17 = EDGE_CURVE ( 'NONE', #25, #189, #7, .T. ) ;
#18 = ADVANCED_FACE ( 'NONE', ( #224 ), #5, .F. ) ;
#19 = DATE_AND_TIME ( #188, #161 ) ;
#20 = LOCAL_TIME ( 13, 18, 8.000000000000000000, #111 ) ;
#21 = DATE_AND_TIME ( #57, #20 ) ;
#22 = VERTEX_POINT ( 'NONE', #135 ) ;
#23 = APPROVAL_DATE_TIME ( #21, #35 ) ;
#24 = ORIENTED_EDGE ( 'NONE', *, *, #231, .T. ) ;
#25 = VERTEX_POINT ( 'NONE', #81 ) ;
#26 = APPLICATION_CONTEXT ( 'configuration controlled 3d designs of mechanical parts and assemblies' ) ;
#27 = EDGE_CURVE ( 'NONE', #3, #25, #230, .T. ) ;
#28 = ORIENTED_EDGE ( 'NONE', *, *, #47, .F. ) ;
#29 = LINE ( 'NONE', #84, #167 ) ;
#30 = CC_DESIGN_APPROVAL ( #165, ( #145 ) ) ;
#31 = DIRECTION ( 'NONE',  ( 0.000000000000000000, 0.000000000000000000, 1.000000000000000000 ) ) ;
#32 =( GEOMETRIC_REPRESENTATION_CONTEXT ( 3 ) GLOBAL_UNCERTAINTY_ASSIGNED_CONTEXT ( ( #163 ) ) GLOBAL_UNIT_ASSIGNED_CONTEXT ( ( #232, #218, #236 ) ) REPRESENTATION_CONTEXT ( 'NONE', 'WORKASPACE' ) );
#33 = DIRECTION ( 'NONE',  ( 0.000000000000000000, -1.000000000000000000, 0.000000000000000000 ) ) ;
#34 = ADVANCED_FACE ( 'NONE', ( #65 ), #152, .F. ) ;
#35 = APPROVAL ( #75, 'UNSPECIFIED' ) ;
#36 = CARTESIAN_POINT ( 'NONE',  ( -324.4999999999998863, 624.9999999999998863, 0.000000000000000000 ) ) ;
#37 = ADVANCED_FACE ( 'NONE', ( #219 ), #89, .T. ) ;
#38 = LINE ( 'NONE', #121, #179 ) ;
#39 = DATE_AND_TIME ( #40, #50 ) ;
#40 = CALENDAR_DATE ( 2024, 18, 12 ) ;
#41 = PERSON_AND_ORGANIZATION ( #6, #91 ) ;
#42 = ORIENTED_EDGE ( 'NONE', *, *, #175, .F. ) ;
#43 = DATE_TIME_ROLE ( 'classification_date' ) ;
#44 = ORIENTED_EDGE ( 'NONE', *, *, #27, .T. ) ;
#45 = VECTOR ( 'NONE', #119, 1000.000000000000000 ) ;
#46 = VERTEX_POINT ( 'NONE', #126 ) ;
#47 = EDGE_CURVE ( 'NONE', #46, #25, #122, .T. ) ;
#48 = CARTESIAN_POINT ( 'NONE',  ( -324.4999999999998863, -625.0000000000001137, 4.000000000000000000 ) ) ;
#49 = ORIENTED_EDGE ( 'NONE', *, *, #69, .F. ) ;
#50 = LOCAL_TIME ( 13, 18, 8.000000000000000000, #221 ) ;
#51 = CARTESIAN_POINT ( 'NONE',  ( 324.5000000000001137, -625.0000000000001137, 0.000000000000000000 ) ) ;
#52 = FACE_OUTER_BOUND ( 'NONE', #210, .T. ) ;
#53 = DIRECTION ( 'NONE',  ( -1.000000000000000000, 0.000000000000000000, 0.000000000000000000 ) ) ;
#54 = VECTOR ( 'NONE', #137, 1000.000000000000000 ) ;
#55 = PERSON_AND_ORGANIZATION ( #6, #91 ) ;
#56 = PERSON_AND_ORGANIZATION ( #6, #91 ) ;
#57 = CALENDAR_DATE ( 2024, 18, 12 ) ;
#58 = EDGE_CURVE ( 'NONE', #63, #3, #38, .T. ) ;
#59 = CC_DESIGN_DATE_AND_TIME_ASSIGNMENT ( #131, #43, ( #145 ) ) ;
#60 = CALENDAR_DATE ( 2024, 18, 12 ) ;
#61 = CC_DESIGN_SECURITY_CLASSIFICATION ( #145, ( #117 ) ) ;
#62 = PRODUCT_DEFINITION_SHAPE ( 'NONE', 'NONE',  #235 ) ;
#63 = VERTEX_POINT ( 'NONE', #237 ) ;
#64 = ORIENTED_EDGE ( 'NONE', *, *, #58, .T. ) ;
#65 = FACE_OUTER_BOUND ( 'NONE', #211, .T. ) ;
#66 = ORIENTED_EDGE ( 'NONE', *, *, #9, .F. ) ;
#67 = DIRECTION ( 'NONE',  ( 0.000000000000000000, 0.000000000000000000, 1.000000000000000000 ) ) ;
#68 = ADVANCED_FACE ( 'NONE', ( #139 ), #87, .T. ) ;
#69 = EDGE_CURVE ( 'NONE', #63, #22, #181, .T. ) ;
#70 = DIRECTION ( 'NONE',  ( 1.000000000000000000, 0.000000000000000000, -0.000000000000000000 ) ) ;
#71 = CARTESIAN_POINT ( 'NONE',  ( -324.4999999999998863, -625.0000000000001137, 0.000000000000000000 ) ) ;
#72 = AXIS2_PLACEMENT_3D ( 'NONE', #197, #33, #90 ) ;
#73 = VECTOR ( 'NONE', #200, 1000.000000000000000 ) ;
#74 = ORIENTED_EDGE ( 'NONE', *, *, #215, .F. ) ;
#75 = APPROVAL_STATUS ( 'not_yet_approved' ) ;
#76 = CC_DESIGN_PERSON_AND_ORGANIZATION_ASSIGNMENT ( #186, #220, ( #209 ) ) ;
#77 = SECURITY_CLASSIFICATION_LEVEL ( 'unclassified' ) ;
#78 = EDGE_LOOP ( 'NONE', ( #42, #2, #192, #74 ) ) ;
#79 = DIRECTION ( 'NONE',  ( 0.000000000000000000, 1.000000000000000000, 0.000000000000000000 ) ) ;
#80 = DATE_AND_TIME ( #98, #216 ) ;
#81 = CARTESIAN_POINT ( 'NONE',  ( -324.4999999999998863, 624.9999999999998863, 4.000000000000000000 ) ) ;
#82 = DIRECTION ( 'NONE',  ( 0.000000000000000000, -1.000000000000000000, 0.000000000000000000 ) ) ;
#83 = APPROVAL_PERSON_ORGANIZATION ( #41, #165, #110 ) ;
#84 = CARTESIAN_POINT ( 'NONE',  ( -324.4999999999998863, -625.0000000000001137, 0.000000000000000000 ) ) ;
#85 = AXIS2_PLACEMENT_3D ( 'NONE', #157, #82, #4 ) ;
#86 = CARTESIAN_POINT ( 'NONE',  ( 324.5000000000001137, 624.9999999999998863, 4.000000000000000000 ) ) ;
#87 = PLANE ( 'NONE',  #72 ) ;
#88 = CARTESIAN_POINT ( 'NONE',  ( -324.4999999999998863, -625.0000000000001137, 4.000000000000000000 ) ) ;
#89 = PLANE ( 'NONE',  #196 ) ;
#90 = DIRECTION ( 'NONE',  ( 0.000000000000000000, -0.000000000000000000, -1.000000000000000000 ) ) ;
#91 = ORGANIZATION ( 'UNSPECIFIED', 'UNSPECIFIED', '' ) ;
#92 = DIRECTION ( 'NONE',  ( 0.000000000000000000, 0.000000000000000000, 1.000000000000000000 ) ) ;
#93 = PERSON_AND_ORGANIZATION ( #6, #91 ) ;
#94 = EDGE_CURVE ( 'NONE', #63, #46, #125, .T. ) ;
#95 = EDGE_LOOP ( 'NONE', ( #66, #134, #44, #118 ) ) ;
#96 = COORDINATED_UNIVERSAL_TIME_OFFSET ( 3, 0, .AHEAD. ) ;
#97 = ORIENTED_EDGE ( 'NONE', *, *, #175, .T. ) ;
#98 = CALENDAR_DATE ( 2024, 18, 12 ) ;
#99 = CARTESIAN_POINT ( 'NONE',  ( -324.4999999999998863, -625.0000000000001137, 4.000000000000000000 ) ) ;
#100 = CARTESIAN_POINT ( 'NONE',  ( 324.5000000000001137, -625.0000000000001137, 4.000000000000000000 ) ) ;
#101 = CC_DESIGN_PERSON_AND_ORGANIZATION_ASSIGNMENT ( #55, #129, ( #117 ) ) ;
#102 = VECTOR ( 'NONE', #144, 1000.000000000000000 ) ;
#103 = FACE_OUTER_BOUND ( 'NONE', #78, .T. ) ;
#104 = AXIS2_PLACEMENT_3D ( 'NONE', #15, #12, #182 ) ;
#105 = CARTESIAN_POINT ( 'NONE',  ( 324.5000000000001137, 624.9999999999998863, 4.000000000000000000 ) ) ;
#106 = LINE ( 'NONE', #201, #178 ) ;
#107 = CARTESIAN_POINT ( 'NONE',  ( 324.5000000000001137, 624.9999999999998863, 0.000000000000000000 ) ) ;
#108 = AXIS2_PLACEMENT_3D ( 'NONE', #115, #92, #127 ) ;
#109 = DIRECTION ( 'NONE',  ( 0.000000000000000000, 1.000000000000000000, 0.000000000000000000 ) ) ;
#110 = APPROVAL_ROLE ( '' ) ;
#111 = COORDINATED_UNIVERSAL_TIME_OFFSET ( 3, 0, .AHEAD. ) ;
#112 = APPROVAL_DATE_TIME ( #39, #141 ) ;
#113 = APPROVAL_STATUS ( 'not_yet_approved' ) ;
#114 = ORIENTED_EDGE ( 'NONE', *, *, #14, .T. ) ;
#115 = CARTESIAN_POINT ( 'NONE',  ( 0.000000000000000000, 0.000000000000000000, 0.000000000000000000 ) ) ;
#116 = ORIENTED_EDGE ( 'NONE', *, *, #17, .F. ) ;
#117 = PRODUCT_DEFINITION_FORMATION_WITH_SPECIFIED_SOURCE ( 'ANY', '', #209, .NOT_KNOWN. ) ;
#118 = ORIENTED_EDGE ( 'NONE', *, *, #17, .T. ) ;
#119 = DIRECTION ( 'NONE',  ( 0.000000000000000000, 1.000000000000000000, 0.000000000000000000 ) ) ;
#120 = VECTOR ( 'NONE', #149, 1000.000000000000000 ) ;
#121 = CARTESIAN_POINT ( 'NONE',  ( 324.5000000000001137, -625.0000000000001137, 4.000000000000000000 ) ) ;
#122 = LINE ( 'NONE', #105, #212 ) ;
#123 = APPROVAL_PERSON_ORGANIZATION ( #93, #141, #168 ) ;
#124 = DIRECTION ( 'NONE',  ( -0.000000000000000000, -0.000000000000000000, -1.000000000000000000 ) ) ;
#125 = LINE ( 'NONE', #217, #73 ) ;
#126 = CARTESIAN_POINT ( 'NONE',  ( 324.5000000000001137, 624.9999999999998863, 4.000000000000000000 ) ) ;
#127 = DIRECTION ( 'NONE',  ( 1.000000000000000000, 0.000000000000000000, 0.000000000000000000 ) ) ;
#128 = PRODUCT_RELATED_PRODUCT_CATEGORY ( 'detail', '', ( #209 ) ) ;
#129 = PERSON_AND_ORGANIZATION_ROLE ( 'design_supplier' ) ;
#130 = VECTOR ( 'NONE', #13, 1000.000000000000000 ) ;
#131 = DATE_AND_TIME ( #60, #185 ) ;
#132 = EDGE_LOOP ( 'NONE', ( #193, #49, #64, #114 ) ) ;
#133 = DATE_TIME_ROLE ( 'creation_date' ) ;
#134 = ORIENTED_EDGE ( 'NONE', *, *, #14, .F. ) ;
#135 = CARTESIAN_POINT ( 'NONE',  ( 324.5000000000001137, -625.0000000000001137, 0.000000000000000000 ) ) ;
#136 = ORIENTED_EDGE ( 'NONE', *, *, #69, .T. ) ;
#137 = DIRECTION ( 'NONE',  ( -0.000000000000000000, -0.000000000000000000, -1.000000000000000000 ) ) ;
#138 = CC_DESIGN_DATE_AND_TIME_ASSIGNMENT ( #19, #133, ( #235 ) ) ;
#139 = FACE_OUTER_BOUND ( 'NONE', #132, .T. ) ;
#140 = AXIS2_PLACEMENT_3D ( 'NONE', #100, #226, #67 ) ;
#141 = APPROVAL ( #203, 'UNSPECIFIED' ) ;
#142 = DIRECTION ( 'NONE',  ( -1.000000000000000000, 0.000000000000000000, 0.000000000000000000 ) ) ;
#143 = LINE ( 'NONE', #107, #130 ) ;
#144 = DIRECTION ( 'NONE',  ( -1.000000000000000000, 0.000000000000000000, 0.000000000000000000 ) ) ;
#145 = SECURITY_CLASSIFICATION ( '', '', #77 ) ;
#146 = COORDINATED_UNIVERSAL_TIME_OFFSET ( 3, 0, .AHEAD. ) ;
#147 = VERTEX_POINT ( 'NONE', #160 ) ;
#148 = PERSON_AND_ORGANIZATION ( #6, #91 ) ;
#149 = DIRECTION ( 'NONE',  ( -0.000000000000000000, -0.000000000000000000, -1.000000000000000000 ) ) ;
#150 = PERSON_AND_ORGANIZATION ( #6, #91 ) ;
#151 = CARTESIAN_POINT ( 'NONE',  ( -324.4999999999998863, -625.0000000000001137, 4.000000000000000000 ) ) ;
#152 = PLANE ( 'NONE',  #140 ) ;
#153 = ADVANCED_FACE ( 'NONE', ( #52 ), #195, .T. ) ;
#154 = AXIS2_PLACEMENT_3D ( 'NONE', #16, #164, #70 ) ;
#155 = ADVANCED_BREP_SHAPE_REPRESENTATION ( 'ITK DATAROW \X2\041f0430043d0435043b044c\X0\ \X2\043c043e0434\X0\. \X2\043a0440044b04480438\X0\ \X2\043f043e043b0438043a043e04400431\X0\. 750x1200', ( #213, #108 ), #32 ) ;
#156 = CC_DESIGN_PERSON_AND_ORGANIZATION_ASSIGNMENT ( #1, #223, ( #235 ) ) ;
#157 = CARTESIAN_POINT ( 'NONE',  ( 324.5000000000001137, 624.9999999999998863, 4.000000000000000000 ) ) ;
#158 = DIRECTION ( 'NONE',  ( -0.000000000000000000, -0.000000000000000000, -1.000000000000000000 ) ) ;
#159 = CARTESIAN_POINT ( 'NONE',  ( 324.5000000000001137, -625.0000000000001137, 4.000000000000000000 ) ) ;
#160 = CARTESIAN_POINT ( 'NONE',  ( 324.5000000000001137, 624.9999999999998863, 0.000000000000000000 ) ) ;
#161 = LOCAL_TIME ( 13, 18, 8.000000000000000000, #184 ) ;
#162 = LINE ( 'NONE', #51, #102 ) ;
#163 = UNCERTAINTY_MEASURE_WITH_UNIT (LENGTH_MEASURE( 1.000000000000000082E-05 ), #232, 'distance_accuracy_value', 'NONE');
#164 = DIRECTION ( 'NONE',  ( 0.000000000000000000, -0.000000000000000000, 1.000000000000000000 ) ) ;
#165 = APPROVAL ( #113, 'UNSPECIFIED' ) ;
#166 = SHAPE_DEFINITION_REPRESENTATION ( #62, #155 ) ;
#167 = VECTOR ( 'NONE', #79, 1000.000000000000000 ) ;
#168 = APPROVAL_ROLE ( '' ) ;
#169 = PERSON_AND_ORGANIZATION_ROLE ( 'creator' ) ;
#170 = ORIENTED_EDGE ( 'NONE', *, *, #215, .T. ) ;
#171 = APPROVAL_DATE_TIME ( #80, #165 ) ;
#172 = ORIENTED_EDGE ( 'NONE', *, *, #231, .F. ) ;
#173 = CARTESIAN_POINT ( 'NONE',  ( -324.4999999999998863, 624.9999999999998863, 4.000000000000000000 ) ) ;
#174 = ORIENTED_EDGE ( 'NONE', *, *, #58, .F. ) ;
#175 = EDGE_CURVE ( 'NONE', #22, #147, #106, .T. ) ;
#176 = APPLICATION_CONTEXT ( 'configuration controlled 3d designs of mechanical parts and assemblies' ) ;
#177 = LINE ( 'NONE', #99, #54 ) ;
#178 = VECTOR ( 'NONE', #109, 1000.000000000000000 ) ;
#179 = VECTOR ( 'NONE', #53, 1000.000000000000000 ) ;
#180 = PLANE ( 'NONE',  #104 ) ;
#181 = LINE ( 'NONE', #159, #202 ) ;
#182 = DIRECTION ( 'NONE',  ( 1.000000000000000000, 0.000000000000000000, -0.000000000000000000 ) ) ;
#183 = DIRECTION ( 'NONE',  ( -1.000000000000000000, 0.000000000000000000, 0.000000000000000000 ) ) ;
#184 = COORDINATED_UNIVERSAL_TIME_OFFSET ( 3, 0, .AHEAD. ) ;
#185 = LOCAL_TIME ( 13, 18, 8.000000000000000000, #146 ) ;
#186 = PERSON_AND_ORGANIZATION ( #6, #91 ) ;
#187 = VERTEX_POINT ( 'NONE', #71 ) ;
#188 = CALENDAR_DATE ( 2024, 18, 12 ) ;
#189 = VERTEX_POINT ( 'NONE', #36 ) ;
#190 = MECHANICAL_CONTEXT ( 'NONE', #26, 'mechanical' ) ;
#191 = ORIENTED_EDGE ( 'NONE', *, *, #94, .F. ) ;
#192 = ORIENTED_EDGE ( 'NONE', *, *, #9, .T. ) ;
#193 = ORIENTED_EDGE ( 'NONE', *, *, #198, .F. ) ;
#194 = DESIGN_CONTEXT ( 'detailed design', #176, 'design' ) ;
#195 = PLANE ( 'NONE',  #154 ) ;
#196 = AXIS2_PLACEMENT_3D ( 'NONE', #88, #142, #31 ) ;
#197 = CARTESIAN_POINT ( 'NONE',  ( 324.5000000000001137, -625.0000000000001137, 4.000000000000000000 ) ) ;
#198 = EDGE_CURVE ( 'NONE', #22, #187, #162, .T. ) ;
#199 = LINE ( 'NONE', #86, #229 ) ;
#200 = DIRECTION ( 'NONE',  ( 0.000000000000000000, 1.000000000000000000, 0.000000000000000000 ) ) ;
#201 = CARTESIAN_POINT ( 'NONE',  ( 324.5000000000001137, -625.0000000000001137, 0.000000000000000000 ) ) ;
#202 = VECTOR ( 'NONE', #124, 1000.000000000000000 ) ;
#203 = APPROVAL_STATUS ( 'not_yet_approved' ) ;
#204 = APPLICATION_PROTOCOL_DEFINITION ( 'international standard', 'config_control_design', 1994, #176 ) ;
#205 = CC_DESIGN_APPROVAL ( #141, ( #235 ) ) ;
#206 = PERSON_AND_ORGANIZATION_ROLE ( 'classification_officer' ) ;
#207 = ORIENTED_EDGE ( 'NONE', *, *, #47, .T. ) ;
#208 = APPROVAL_ROLE ( '' ) ;
#209 = PRODUCT ( 'ITK DATAROW \X2\041f0430043d0435043b044c\X0\ \X2\043c043e0434\X0\. \X2\043a0440044b04480438\X0\ \X2\043f043e043b0438043a043e04400431\X0\. 750x1200', 'ITK DATAROW \X2\041f0430043d0435043b044c\X0\ \X2\043c043e0434\X0\. \X2\043a0440044b04480438\X0\ \X2\043f043e043b0438043a043e04400431\X0\. 750x1200', '', ( #190 ) ) ;
#210 = EDGE_LOOP ( 'NONE', ( #225, #207, #222, #174 ) ) ;
#211 = EDGE_LOOP ( 'NONE', ( #97, #172, #191, #136 ) ) ;
#212 = VECTOR ( 'NONE', #183, 1000.000000000000000 ) ;
#213 = MANIFOLD_SOLID_BREP ( 'Áîáûøêà-Âûòÿíóòü1', #8 ) ;
#214 = EDGE_LOOP ( 'NONE', ( #170, #116, #28, #24 ) ) ;
#215 = EDGE_CURVE ( 'NONE', #147, #189, #143, .T. ) ;
#216 = LOCAL_TIME ( 13, 18, 8.000000000000000000, #96 ) ;
#217 = CARTESIAN_POINT ( 'NONE',  ( 324.5000000000001137, -625.0000000000001137, 4.000000000000000000 ) ) ;
#218 =( NAMED_UNIT ( * ) PLANE_ANGLE_UNIT ( ) SI_UNIT ( $, .RADIAN. ) );
#219 = FACE_OUTER_BOUND ( 'NONE', #95, .T. ) ;
#220 = PERSON_AND_ORGANIZATION_ROLE ( 'design_owner' ) ;
#221 = COORDINATED_UNIVERSAL_TIME_OFFSET ( 3, 0, .AHEAD. ) ;
#222 = ORIENTED_EDGE ( 'NONE', *, *, #27, .F. ) ;
#223 = PERSON_AND_ORGANIZATION_ROLE ( 'creator' ) ;
#224 = FACE_OUTER_BOUND ( 'NONE', #214, .T. ) ;
#225 = ORIENTED_EDGE ( 'NONE', *, *, #94, .T. ) ;
#226 = DIRECTION ( 'NONE',  ( -1.000000000000000000, 0.000000000000000000, 0.000000000000000000 ) ) ;
#227 = CC_DESIGN_PERSON_AND_ORGANIZATION_ASSIGNMENT ( #148, #169, ( #117 ) ) ;
#228 = ADVANCED_FACE ( 'NONE', ( #103 ), #180, .F. ) ;
#229 = VECTOR ( 'NONE', #158, 1000.000000000000000 ) ;
#230 = LINE ( 'NONE', #151, #45 ) ;
#231 = EDGE_CURVE ( 'NONE', #46, #147, #199, .T. ) ;
#232 =( LENGTH_UNIT ( ) NAMED_UNIT ( * ) SI_UNIT ( .MILLI., .METRE. ) );
#233 = CC_DESIGN_APPROVAL ( #35, ( #117 ) ) ;
#234 = APPLICATION_PROTOCOL_DEFINITION ( 'international standard', 'config_control_design', 1994, #26 ) ;
#235 = PRODUCT_DEFINITION ( 'UNKNOWN', '', #117, #194 ) ;
#236 =( NAMED_UNIT ( * ) SI_UNIT ( $, .STERADIAN. ) SOLID_ANGLE_UNIT ( ) );
#237 = CARTESIAN_POINT ( 'NONE',  ( 324.5000000000001137, -625.0000000000001137, 4.000000000000000000 ) ) ;
ENDSEC;
END-ISO-10303-21;
