  0
SECTION
  2
HEADER
  9
$ACADVER
  1
AC1015
  9
$ACADMAINTVER
 70
     6
  9
$DWGCODEPAGE
  3
ANSI_1251
  9
$INSBASE
 10
0.0
 20
0.0
 30
0.0
  9
$EXTMIN
 10
0.0
 20
0.0
 30
0.0
  9
$EXTMAX
 10
210.0
 20
148.0
 30
0.0
  9
$LIMMIN
 10
0.0
 20
0.0
  9
$LIMMAX
 10
210.0
 20
148.0
  9
$ORTHOMODE
 70
     0
  9
$REGENMODE
 70
     1
  9
$FILLMODE
 70
     1
  9
$QTEXTMODE
 70
     0
  9
$MIRRTEXT
 70
     1
  9
$LTSCALE
 40
1.0
  9
$ATTMODE
 70
     1
  9
$TEXTSIZE
 40
3.5
  9
$TRACEWID
 40
1.0
  9
$TEXTSTYLE
  7
Standard
  9
$CLAYER
  8
0
  9
$CELTYPE
  6
ByLayer
  9
$CECOLOR
 62
   256
  9
$CELTSCALE
 40
1.0
  9
$DISPSILH
 70
     0
  9
$DIMSCALE
 40
1.0
  9
$DIMASZ
 40
3.302
  9
$DIMEXO
 40
0.0
  9
$DIMDLI
 40
3.75
  9
$DIMRND
 40
0.0
  9
$DIMDLE
 40
0.0
  9
$DIMEXE
 40
1.0
  9
$DIMTP
 40
0.0
  9
$DIMTM
 40
0.0
  9
$DIMTXT
 40
3.5
  9
$DIMCEN
 40
2.5
  9
$DIMTSZ
 40
0.0
  9
$DIMTOL
 70
     0
  9
$DIMLIM
 70
     0
  9
$DIMTIH
 70
     1
  9
$DIMTOH
 70
     1
  9
$DIMSE1
 70
     0
  9
$DIMSE2
 70
     0
  9
$DIMTAD
 70
     1
  9
$DIMZIN
 70
     1
  9
$DIMBLK
  1

  9
$DIMASO
 70
     1
  9
$DIMSHO
 70
     1
  9
$DIMPOST
  1

  9
$DIMAPOST
  1

  9
$DIMALT
 70
     0
  9
$DIMALTD
 70
     3
  9
$DIMALTF
 40
0.0393700787
  9
$DIMLFAC
 40
1.0
  9
$DIMTOFL
 70
     1
  9
$DIMTVP
 40
0.0
  9
$DIMTIX
 70
     0
  9
$DIMSOXD
 70
     0
  9
$DIMSAH
 70
     0
  9
$DIMBLK1
  1

  9
$DIMBLK2
  1

  9
$DIMSTYLE
  2
ISO-25
  9
$DIMCLRD
 70
     0
  9
$DIMCLRE
 70
     0
  9
$DIMCLRT
 70
     0
  9
$DIMTFAC
 40
1.0
  9
$DIMGAP
 40
1.524
  9
$DIMJUST
 70
     0
  9
$DIMSD1
 70
     0
  9
$DIMSD2
 70
     0
  9
$DIMTOLJ
 70
     0
  9
$DIMTZIN
 70
     1
  9
$DIMALTZ
 70
     0
  9
$DIMALTTZ
 70
     0
  9
$DIMUPT
 70
     0
  9
$DIMDEC
 70
     2
  9
$DIMTDEC
 70
     2
  9
$DIMALTU
 70
     2
  9
$DIMALTTD
 70
     3
  9
$DIMTXSTY
  7
Standard
  9
$DIMAUNIT
 70
     0
  9
$DIMADEC
 70
     2
  9
$DIMALTRND
 40
0.0
  9
$DIMAZIN
 70
     0
  9
$DIMDSEP
 70
    44
  9
$DIMATFIT
 70
     3
  9
$DIMFRAC
 70
     0
  9
$DIMLDRBLK
  1

  9
$DIMLUNIT
 70
     2
  9
$DIMLWD
 70
    -2
  9
$DIMLWE
 70
    -2
  9
$DIMTMOVE
 70
     0
  9
$LUNITS
 70
     2
  9
$LUPREC
 70
     2
  9
$SKETCHINC
 40
1.0
  9
$FILLETRAD
 40
0.0
  9
$AUNITS
 70
     0
  9
$AUPREC
 70
     2
  9
$MENU
  1
.
  9
$ELEVATION
 40
0.0
  9
$PELEVATION
 40
0.0
  9
$THICKNESS
 40
0.0
  9
$LIMCHECK
 70
     0
  9
$CHAMFERA
 40
0.0
  9
$CHAMFERB
 40
0.0
  9
$CHAMFERC
 40
0.0
  9
$CHAMFERD
 40
0.0
  9
$SKPOLY
 70
     0
  9
$TDCREATE
 40
2459912.582999109
  9
$TDUCREATE
 40
2459912.457999109
  9
$TDUPDATE
 40
2459912.582999826
  9
$TDUUPDATE
 40
2459912.457999826
  9
$TDINDWG
 40
0.0000000116
  9
$TDUSRTIMER
 40
0.0000000116
  9
$USRTIMER
 70
     1
  9
$ANGBASE
 50
0.0
  9
$ANGDIR
 70
     0
  9
$PDMODE
 70
     0
  9
$PDSIZE
 40
-1.0
  9
$PLINEWID
 40
0.0
  9
$SPLFRAME
 70
     0
  9
$SPLINETYPE
 70
     6
  9
$SPLINESEGS
 70
     8
  9
$HANDSEED
  5
1AA
  9
$SURFTAB1
 70
     6
  9
$SURFTAB2
 70
     6
  9
$SURFTYPE
 70
     6
  9
$SURFU
 70
     6
  9
$SURFV
 70
     6
  9
$UCSBASE
  2

  9
$UCSNAME
  2

  9
$UCSORG
 10
0.0
 20
0.0
 30
0.0
  9
$UCSXDIR
 10
1.0
 20
0.0
 30
0.0
  9
$UCSYDIR
 10
0.0
 20
1.0
 30
0.0
  9
$UCSORTHOREF
  2

  9
$UCSORTHOVIEW
 70
     0
  9
$UCSORGTOP
 10
0.0
 20
0.0
 30
0.0
  9
$UCSORGBOTTOM
 10
0.0
 20
0.0
 30
0.0
  9
$UCSORGLEFT
 10
0.0
 20
0.0
 30
0.0
  9
$UCSORGRIGHT
 10
0.0
 20
0.0
 30
0.0
  9
$UCSORGFRONT
 10
0.0
 20
0.0
 30
0.0
  9
$UCSORGBACK
 10
0.0
 20
0.0
 30
0.0
  9
$PUCSBASE
  2

  9
$PUCSNAME
  2

  9
$PUCSORG
 10
0.0
 20
0.0
 30
0.0
  9
$PUCSXDIR
 10
1.0
 20
0.0
 30
0.0
  9
$PUCSYDIR
 10
0.0
 20
1.0
 30
0.0
  9
$PUCSORTHOREF
  2

  9
$PUCSORTHOVIEW
 70
     0
  9
$PUCSORGTOP
 10
0.0
 20
0.0
 30
0.0
  9
$PUCSORGBOTTOM
 10
0.0
 20
0.0
 30
0.0
  9
$PUCSORGLEFT
 10
0.0
 20
0.0
 30
0.0
  9
$PUCSORGRIGHT
 10
0.0
 20
0.0
 30
0.0
  9
$PUCSORGFRONT
 10
0.0
 20
0.0
 30
0.0
  9
$PUCSORGBACK
 10
0.0
 20
0.0
 30
0.0
  9
$USERI1
 70
     0
  9
$USERI2
 70
     0
  9
$USERI3
 70
     0
  9
$USERI4
 70
     0
  9
$USERI5
 70
     0
  9
$USERR1
 40
0.0
  9
$USERR2
 40
0.0
  9
$USERR3
 40
0.0
  9
$USERR4
 40
0.0
  9
$USERR5
 40
0.0
  9
$WORLDVIEW
 70
     1
  9
$SHADEDGE
 70
     3
  9
$SHADEDIF
 70
    70
  9
$TILEMODE
 70
     1
  9
$MAXACTVP
 70
    64
  9
$PINSBASE
 10
0.0
 20
0.0
 30
0.0
  9
$PLIMCHECK
 70
     0
  9
$PEXTMIN
 10
1.0000000000E+20
 20
1.0000000000E+20
 30
1.0000000000E+20
  9
$PEXTMAX
 10
-1.0000000000E+20
 20
-1.0000000000E+20
 30
-1.0000000000E+20
  9
$PLIMMIN
 10
0.0
 20
0.0
  9
$PLIMMAX
 10
420.0
 20
297.0
  9
$UNITMODE
 70
     0
  9
$VISRETAIN
 70
     1
  9
$PLINEGEN
 70
     0
  9
$PSLTSCALE
 70
     1
  9
$TREEDEPTH
 70
  3020
  9
$CMLSTYLE
  2
Standard
  9
$CMLJUST
 70
     0
  9
$CMLSCALE
 40
20.0
  9
$PROXYGRAPHICS
 70
     1
  9
$MEASUREMENT
 70
     1
  9
$CELWEIGHT
370
    -1
  9
$ENDCAPS
280
     0
  9
$JOINSTYLE
280
     0
  9
$LWDISPLAY
290
     1
  9
$INSUNITS
 70
     4
  9
$HYPERLINKBASE
  1

  9
$STYLESHEET
  1

  9
$XEDIT
290
     1
  9
$CEPSNTYPE
380
     0
  9
$PSTYLEMODE
290
     1
  9
$FINGERPRINTGUID
  2
{1950c768-fbcf-439e-9c27-68a472c9cfe9}
  9
$VERSIONGUID
  2
{FAEB1C32-E019-11D5-929B-00C0DF256EC4}
  9
$EXTNAMES
290
     1
  9
$PSVPSCALE
 40
0.0
  9
$OLESTARTUP
290
     0
  0
ENDSEC
  0
SECTION
  2
CLASSES
  0
CLASS
  1
ACDBDICTIONARYWDFLT
  2
AcDbDictionaryWithDefault
  3
ObjectDBX Classes
 90
        0
280
     0
281
     0
  0
CLASS
  1
VISUALSTYLE
  2
AcDbVisualStyle
  3
ObjectDBX Classes
 90
     4095
280
     0
281
     0
  0
CLASS
  1
MATERIAL
  2
AcDbMaterial
  3
ObjectDBX Classes
 90
     1153
280
     0
281
     0
  0
CLASS
  1
SCALE
  2
AcDbScale
  3
ObjectDBX Classes
 90
     1153
280
     0
281
     0
  0
CLASS
  1
TABLESTYLE
  2
AcDbTableStyle
  3
ObjectDBX Classes
 90
     4095
280
     0
281
     0
  0
CLASS
  1
MLEADERSTYLE
  2
AcDbMLeaderStyle
  3
ACDB_MLEADERSTYLE_CLASS
 90
     4095
280
     0
281
     0
  0
CLASS
  1
SUN
  2
AcDbSun
  3
SCENEOE
 90
     1153
280
     0
281
     0
  0
CLASS
  1
ACDBPLACEHOLDER
  2
AcDbPlaceHolder
  3
ObjectDBX Classes
 90
        0
280
     0
281
     0
  0
CLASS
  1
LAYOUT
  2
AcDbLayout
  3
ObjectDBX Classes
 90
        0
280
     0
281
     0
  0
ENDSEC
  0
SECTION
  2
TABLES
  0
TABLE
  2
VPORT
  5
8
330
0
100
AcDbSymbolTable
 70
     1
  0
VPORT
  5
29
330
8
100
AcDbSymbolTableRecord
100
AcDbViewportTableRecord
  2
*Active
 70
     0
 10
0.0
 20
0.0
 11
1.0
 21
1.0
 12
105.0
 22
74.0
 13
0.0
 23
0.0
 14
10.0
 24
10.0
 15
10.0
 25
10.0
 16
0.0
 26
0.0
 36
1.0
 17
0.0
 27
0.0
 37
0.0
 40
148.0
 41
1.4189189189
 42
50.0
 43
0.0
 44
0.0
 50
0.0
 51
0.0
 71
     0
 72
  2000
 73
     1
 74
     3
 75
     0
 76
     0
 77
     0
 78
     0
281
     0
 65
     1
110
0.0
120
0.0
130
0.0
111
1.0
121
0.0
131
0.0
112
0.0
122
1.0
132
0.0
 79
     0
146
0.0
  0
ENDTAB
  0
TABLE
  2
LTYPE
  5
5
330
0
100
AcDbSymbolTable
 70
     6
  0
LTYPE
  5
14
330
5
100
AcDbSymbolTableRecord
100
AcDbLinetypeTableRecord
  2
ByBlock
 70
     0
  3

 72
    65
 73
     0
 40
0.0
  0
LTYPE
  5
15
330
5
100
AcDbSymbolTableRecord
100
AcDbLinetypeTableRecord
  2
ByLayer
 70
     0
  3

 72
    65
 73
     0
 40
0.0
  0
LTYPE
  5
16
330
5
100
AcDbSymbolTableRecord
100
AcDbLinetypeTableRecord
  2
Continuous
 70
     0
  3
Solid line
 72
    65
 73
     0
 40
0.0
  0
LTYPE
  5
5E
330
5
100
AcDbSymbolTableRecord
100
AcDbLinetypeTableRecord
  2
HIDDEN
 70
     0
  3
Hidden __ __ __ __ __ __ __ __ __ __ __ __ __ __
 72
    65
 73
     2
 40
1.905
 49
1.27
 74
     0
 49
-0.635
 74
     0
  0
LTYPE
  5
5F
330
5
100
AcDbSymbolTableRecord
100
AcDbLinetypeTableRecord
  2
PHANTOM
 70
     0
  3
Phantom ______  __  __  ______  __  __  ______
 72
    65
 73
     6
 40
12.7
 49
6.35
 74
     0
 49
-1.27
 74
     0
 49
1.27
 74
     0
 49
-1.27
 74
     0
 49
1.27
 74
     0
 49
-1.27
 74
     0
  0
LTYPE
  5
60
330
5
100
AcDbSymbolTableRecord
100
AcDbLinetypeTableRecord
  2
CENTER
 70
     0
  3
Center ____ _ ____ _ ____ _ ____ _ ____ _ ____
 72
    65
 73
     4
 40
10.16
 49
6.35
 74
     0
 49
-1.27
 74
     0
 49
1.27
 74
     0
 49
-1.27
 74
     0
  0
LTYPE
  5
61
330
5
100
AcDbSymbolTableRecord
100
AcDbLinetypeTableRecord
  2
CENTERX2
 70
     0
  3
Center (2x) ________  __  ________  __  _____
 72
    65
 73
     4
 40
20.32
 49
12.7
 74
     0
 49
-2.54
 74
     0
 49
2.54
 74
     0
 49
-2.54
 74
     0
  0
LTYPE
  5
62
330
5
100
AcDbSymbolTableRecord
100
AcDbLinetypeTableRecord
  2
DOT2
 70
     0
  3
Dot (.5x) ........................................
 72
    65
 73
     2
 40
0.635
 49
0.0
 74
     0
 49
-0.635
 74
     0
  0
ENDTAB
  0
TABLE
  2
LAYER
  5
2
330
0
100
AcDbSymbolTable
 70
     1
  0
LAYER
  5
10
330
2
100
AcDbSymbolTableRecord
100
AcDbLayerTableRecord
  2
0
 70
     0
 62
     7
  6
Continuous
370
    -3
390
F
  0
ENDTAB
  0
TABLE
  2
STYLE
  5
3
330
0
100
AcDbSymbolTable
 70
     1
  0
STYLE
  5
11
330
3
100
AcDbSymbolTableRecord
100
AcDbTextStyleTableRecord
  2
Standard
 70
     0
 40
0.0
 41
1.0
 50
0.0
 71
     0
 42
3.5
  3
txt
  4

  0
ENDTAB
  0
TABLE
  2
VIEW
  5
6
330
0
100
AcDbSymbolTable
 70
     0
  0
ENDTAB
  0
TABLE
  2
UCS
  5
7
330
0
100
AcDbSymbolTable
 70
     0
  0
ENDTAB
  0
TABLE
  2
APPID
  5
9
330
0
100
AcDbSymbolTable
 70
     1
  0
APPID
  5
12
330
9
100
AcDbSymbolTableRecord
100
AcDbRegAppTableRecord
  2
ACAD
 70
     0
  0
ENDTAB
  0
TABLE
  2
DIMSTYLE
  5
A
330
0
100
AcDbSymbolTable
 70
     1
100
AcDbDimStyleTable
  0
DIMSTYLE
105
27
330
A
100
AcDbSymbolTableRecord
100
AcDbDimStyleTableRecord
  2
ISO-25
 70
     0
 41
2.5
 42
0.625
 43
3.75
 44
1.25
 73
     0
 74
     0
 77
     1
 78
     8
140
2.5
141
2.5
143
0.0393700787
147
0.625
171
     3
172
     1
178
     0
271
     2
272
     2
274
     3
278
    44
283
     0
284
     8
340
11
  0
ENDTAB
  0
TABLE
  2
BLOCK_RECORD
  5
1
330
0
100
AcDbSymbolTable
 70
     3
  0
BLOCK_RECORD
  5
1F
330
1
100
AcDbSymbolTableRecord
100
AcDbBlockTableRecord
  2
*Model_Space
340
22
  0
BLOCK_RECORD
  5
1B
330
1
100
AcDbSymbolTableRecord
100
AcDbBlockTableRecord
  2
*Paper_Space
340
1E
  0
BLOCK_RECORD
  5
23
330
1
100
AcDbSymbolTableRecord
100
AcDbBlockTableRecord
  2
*Paper_Space0
340
26
  0
BLOCK_RECORD
  5
C5
330
1
100
AcDbSymbolTableRecord
100
AcDbBlockTableRecord
  2
SW_CENTERMARKSYMBOL_0
340
0
102
{BLKREFS
331
D0
102
}
  0
BLOCK_RECORD
  5
12A
330
1
100
AcDbSymbolTableRecord
100
AcDbBlockTableRecord
  2
SW_CENTERMARKSYMBOL_1
340
0
102
{BLKREFS
331
135
102
}
  0
ENDTAB
  0
ENDSEC
  0
SECTION
  2
BLOCKS
  0
BLOCK
  5
20
330
1F
100
AcDbEntity
  8
0
100
AcDbBlockBegin
  2
*Model_Space
 70
     0
 10
0.0
 20
0.0
 30
0.0
  3
*Model_Space
  1

  0
ENDBLK
  5
21
330
1F
100
AcDbEntity
  8
0
100
AcDbBlockEnd
  0
BLOCK
  5
1C
330
1B
100
AcDbEntity
 67
     1
  8
0
100
AcDbBlockBegin
  2
*Paper_Space
 70
     0
 10
0.0
 20
0.0
 30
0.0
  3
*Paper_Space
  1

  0
ENDBLK
  5
1D
330
1B
100
AcDbEntity
 67
     1
  8
0
100
AcDbBlockEnd
  0
BLOCK
  5
24
330
23
100
AcDbEntity
  8
0
100
AcDbBlockBegin
  2
*Paper_Space0
 70
     0
 10
0.0
 20
0.0
 30
0.0
  3
*Paper_Space0
  1

  0
ENDBLK
  5
25
330
23
100
AcDbEntity
  8
0
100
AcDbBlockEnd
  0
BLOCK
  5
C6
330
C5
100
AcDbEntity
  8
0
100
AcDbBlockBegin
  2
SW_CENTERMARKSYMBOL_0
 70
     0
 10
0.0
 20
0.0
 30
0.0
  3
SW_CENTERMARKSYMBOL_0
  1

  0
LINE
  5
C8
330
C5
100
AcDbEntity
  8
0
  6
Continuous
 62
     0
370
    18
100
AcDbLine
 10
0.0
 20
0.0
 30
0.0
 11
0.0
 21
2.5
 31
0.0
  0
LINE
  5
C9
330
C5
100
AcDbEntity
  8
0
  6
Continuous
 62
     0
370
    18
100
AcDbLine
 10
0.0
 20
0.0
 30
0.0
 11
-2.5
 21
0.0
 31
0.0
  0
LINE
  5
CA
330
C5
100
AcDbEntity
  8
0
  6
Continuous
 62
     0
370
    18
100
AcDbLine
 10
0.0
 20
0.0
 30
0.0
 11
0.0
 21
-2.5
 31
0.0
  0
LINE
  5
CB
330
C5
100
AcDbEntity
  8
0
  6
Continuous
 62
     0
370
    18
100
AcDbLine
 10
0.0
 20
0.0
 30
0.0
 11
2.5
 21
0.0
 31
0.0
  0
LINE
  5
CC
330
C5
100
AcDbEntity
  8
0
  6
Continuous
 62
     0
370
    18
100
AcDbLine
 10
0.0
 20
2.5
 30
0.0
 11
0.0
 21
4.5
 31
0.0
  0
LINE
  5
CD
330
C5
100
AcDbEntity
  8
0
  6
Continuous
 62
     0
370
    18
100
AcDbLine
 10
-2.5
 20
0.0
 30
0.0
 11
-4.5
 21
0.0
 31
0.0
  0
LINE
  5
CE
330
C5
100
AcDbEntity
  8
0
  6
Continuous
 62
     0
370
    18
100
AcDbLine
 10
0.0
 20
-2.5
 30
0.0
 11
0.0
 21
-4.5
 31
0.0
  0
LINE
  5
CF
330
C5
100
AcDbEntity
  8
0
  6
Continuous
 62
     0
370
    18
100
AcDbLine
 10
2.5
 20
0.0
 30
0.0
 11
4.5
 21
0.0
 31
0.0
  0
ENDBLK
  5
C7
330
C5
100
AcDbEntity
  8
0
100
AcDbBlockEnd
  0
BLOCK
  5
12B
330
12A
100
AcDbEntity
  8
0
100
AcDbBlockBegin
  2
SW_CENTERMARKSYMBOL_1
 70
     0
 10
0.0
 20
0.0
 30
0.0
  3
SW_CENTERMARKSYMBOL_1
  1

  0
LINE
  5
12D
330
12A
100
AcDbEntity
  8
0
  6
Continuous
 62
     0
370
    18
100
AcDbLine
 10
0.0
 20
0.0
 30
0.0
 11
0.0
 21
2.5
 31
0.0
  0
LINE
  5
12E
330
12A
100
AcDbEntity
  8
0
  6
Continuous
 62
     0
370
    18
100
AcDbLine
 10
0.0
 20
0.0
 30
0.0
 11
-2.5
 21
0.0
 31
0.0
  0
LINE
  5
12F
330
12A
100
AcDbEntity
  8
0
  6
Continuous
 62
     0
370
    18
100
AcDbLine
 10
0.0
 20
0.0
 30
0.0
 11
0.0
 21
-2.5
 31
0.0
  0
LINE
  5
130
330
12A
100
AcDbEntity
  8
0
  6
Continuous
 62
     0
370
    18
100
AcDbLine
 10
0.0
 20
0.0
 30
0.0
 11
2.5
 21
0.0
 31
0.0
  0
LINE
  5
131
330
12A
100
AcDbEntity
  8
0
  6
Continuous
 62
     0
370
    18
100
AcDbLine
 10
0.0
 20
2.5
 30
0.0
 11
0.0
 21
4.5
 31
0.0
  0
LINE
  5
132
330
12A
100
AcDbEntity
  8
0
  6
Continuous
 62
     0
370
    18
100
AcDbLine
 10
-2.5
 20
0.0
 30
0.0
 11
-4.5
 21
0.0
 31
0.0
  0
LINE
  5
133
330
12A
100
AcDbEntity
  8
0
  6
Continuous
 62
     0
370
    18
100
AcDbLine
 10
0.0
 20
-2.5
 30
0.0
 11
0.0
 21
-4.5
 31
0.0
  0
LINE
  5
134
330
12A
100
AcDbEntity
  8
0
  6
Continuous
 62
     0
370
    18
100
AcDbLine
 10
2.5
 20
0.0
 30
0.0
 11
4.5
 21
0.0
 31
0.0
  0
ENDBLK
  5
12C
330
12A
100
AcDbEntity
  8
0
100
AcDbBlockEnd
  0
ENDSEC
  0
SECTION
  2
ENTITIES
  0
LINE
  5
63
330
1F
100
AcDbEntity
  8
0
  6
Continuous
 62
     7
370
    25
100
AcDbLine
 10
55.8043230404
 20
69.3607244656
 30
0.0
 11
55.8043230404
 21
66.291986023
 31
0.0
  0
LINE
  5
64
330
1F
100
AcDbEntity
  8
0
  6
Continuous
 62
     7
370
    25
100
AcDbLine
 10
58.2043230404
 20
68.9757244656
 30
0.0
 11
55.8043230404
 21
69.3607244656
 31
0.0
  0
LINE
  5
65
330
1F
100
AcDbEntity
  8
0
  6
Continuous
 62
     7
370
    25
100
AcDbLine
 10
58.2043230404
 20
60.8757244656
 30
0.0
 11
84.2043230404
 21
60.8757244656
 31
0.0
  0
LINE
  5
66
330
1F
100
AcDbEntity
  8
0
  6
Continuous
 62
     7
370
    25
100
AcDbLine
 10
65.7043230404
 20
66.8757244656
 30
0.0
 11
76.7043230404
 21
66.8757244656
 31
0.0
  0
LINE
  5
67
330
1F
100
AcDbEntity
  8
0
  6
Continuous
 62
     7
370
    25
100
AcDbLine
 10
84.2043230404
 20
60.8757244656
 30
0.0
 11
84.2043230404
 21
66.6757244656
 31
0.0
  0
LINE
  5
68
330
1F
100
AcDbEntity
  8
0
  6
Continuous
 62
     7
370
    25
100
AcDbLine
 10
84.2043230404
 20
70.8757244656
 30
0.0
 11
76.7043230404
 21
70.8757244656
 31
0.0
  0
LINE
  5
69
330
1F
100
AcDbEntity
  8
0
  6
Continuous
 62
     7
370
    25
100
AcDbLine
 10
76.7043230404
 20
66.8757244656
 30
0.0
 11
76.7043230404
 21
70.8757244656
 31
0.0
  0
LINE
  5
6A
330
1F
100
AcDbEntity
  8
0
  6
Continuous
 62
     7
370
    25
100
AcDbLine
 10
81.7043230404
 20
69.3757244656
 30
0.0
 11
84.2043230404
 21
68.9757244656
 31
0.0
  0
LINE
  5
6B
330
1F
100
AcDbEntity
  8
0
  6
Continuous
 62
     7
370
    25
100
AcDbLine
 10
55.8043230404
 20
66.291986023
 30
0.0
 11
58.2043230404
 21
66.6757244656
 31
0.0
  0
LINE
  5
6C
330
1F
100
AcDbEntity
  8
0
  6
Continuous
 62
     7
370
    25
100
AcDbLine
 10
65.7043230404
 20
70.8757244656
 30
0.0
 11
58.2043230404
 21
70.8757244656
 31
0.0
  0
LINE
  5
6D
330
1F
100
AcDbEntity
  8
0
  6
Continuous
 62
     7
370
    25
100
AcDbLine
 10
65.7043230404
 20
66.8757244656
 30
0.0
 11
65.7043230404
 21
70.8757244656
 31
0.0
  0
LINE
  5
6E
330
1F
100
AcDbEntity
  8
0
  6
Continuous
 62
     7
370
    25
100
AcDbLine
 10
81.7043230404
 20
66.2757244656
 30
0.0
 11
81.7043230404
 21
69.3757244656
 31
0.0
  0
LINE
  5
6F
330
1F
100
AcDbEntity
  8
0
  6
Continuous
 62
     7
370
    25
100
AcDbLine
 10
84.2043230404
 20
68.9757244656
 30
0.0
 11
84.2043230404
 21
70.8757244656
 31
0.0
  0
LINE
  5
70
330
1F
100
AcDbEntity
  8
0
  6
Continuous
 62
     7
370
    25
100
AcDbLine
 10
84.2043230404
 20
66.6757244656
 30
0.0
 11
81.7043230404
 21
66.2757244656
 31
0.0
  0
LINE
  5
71
330
1F
100
AcDbEntity
  8
0
  6
Continuous
 62
     7
370
    25
100
AcDbLine
 10
58.2043230404
 20
66.6757244656
 30
0.0
 11
58.2043230404
 21
60.8757244656
 31
0.0
  0
LINE
  5
72
330
1F
100
AcDbEntity
  8
0
  6
Continuous
 62
     7
370
    25
100
AcDbLine
 10
58.2043230404
 20
70.8757244656
 30
0.0
 11
58.2043230404
 21
68.9757244656
 31
0.0
  0
SPLINE
  5
73
330
1F
100
AcDbEntity
  8
0
  6
Continuous
 62
     7
370
    25
100
AcDbSpline
210
0.0
220
0.0
230
1.0
 70
     8
 71
     3
 72
    22
 73
    18
 74
     0
 42
0.00000001
 43
0.00000001
 40
0.0
 40
0.0
 40
0.0
 40
0.0
 40
0.125
 40
0.125
 40
0.25
 40
0.25
 40
0.375
 40
0.375
 40
0.5
 40
0.5
 40
0.625
 40
0.625
 40
0.75
 40
0.75
 40
0.875
 40
0.875
 40
1.0
 40
1.0
 40
1.0
 40
1.0
 10
82.45432304038002
 20
80.87572446555819
 30
0.0
 10
82.45432304038002
 20
81.07477889430314
 30
0.0
 10
82.44904779272785
 20
81.27033371723905
 30
0.0
 10
82.42896638861478
 20
81.65478346364836
 30
0.0
 10
82.4139106242894
 20
81.84571961752596
 30
0.0
 10
82.37658982542253
 20
82.20846573077526
 30
0.0
 10
82.35446198582605
 20
82.38036820866307
 30
0.0
 10
82.30571078473585
 20
82.70568114424839
 30
0.0
 10
82.27901472516646
 20
82.85899091340998
 30
0.0
 10
82.22617167880037
 20
83.13426255644886
 30
0.0
 10
82.19974979895112
 20
83.25810519575535
 30
0.0
 10
82.14992597585041
 20
83.47744003912456
 30
0.0
 10
82.12718498944044
 20
83.57008497675491
 30
0.0
 10
82.08907519439667
 20
83.72013341438361
 30
0.0
 10
82.07351373900528
 20
83.77827834901365
 30
0.0
 10
82.0524306721316
 20
83.856108048149
 30
0.0
 10
82.04694726148074
 20
83.8757244655582
 30
0.0
 10
82.04694726148074
 20
83.8757244655582
 30
0.0
  0
LINE
  5
74
330
1F
100
AcDbEntity
  8
0
  6
Continuous
 62
     7
370
    25
100
AcDbLine
 10
82.0469472615
 20
83.8757244656
 30
0.0
 11
80.481310698
 21
83.8757244656
 31
0.0
  0
SPLINE
  5
75
330
1F
100
AcDbEntity
  8
0
  6
Continuous
 62
     7
370
    25
100
AcDbSpline
210
0.0
220
0.0
230
1.0
 70
     8
 71
     3
 72
    22
 73
    18
 74
     0
 42
0.00000001
 43
0.00000001
 40
0.0
 40
0.0
 40
0.0
 40
0.0
 40
0.125
 40
0.125
 40
0.25
 40
0.25
 40
0.375
 40
0.375
 40
0.5
 40
0.5
 40
0.625
 40
0.625
 40
0.75
 40
0.75
 40
0.875
 40
0.875
 40
1.0
 40
1.0
 40
1.0
 40
1.0
 10
80.95432304038003
 20
80.87572446555819
 30
0.0
 10
80.95432304038003
 20
81.07259812051379
 30
0.0
 10
80.94815668239444
 20
81.27256048968061
 30
0.0
 10
80.92480928434786
 20
81.6579776561078
 30
0.0
 10
80.9077142304802
 20
81.84545896542323
 30
0.0
 10
80.86434373642376
 20
82.20996047929367
 30
0.0
 10
80.83845825015153
 20
82.38333144544201
 30
0.0
 10
80.78225472857552
 20
82.70675276195726
 30
0.0
 10
80.75147932750252
 20
82.85924674691856
 30
0.0
 10
80.68984594387676
 20
83.13568222149847
 30
0.0
 10
80.6592492054295
 20
83.25888803472552
 30
0.0
 10
80.60188289727093
 20
83.47591025124669
 30
0.0
 10
80.57496280720139
 20
83.57011734305819
 30
0.0
 10
80.53043721932428
 20
83.72041020200629
 30
0.0
 10
80.51252310154014
 20
83.77772076978923
 30
0.0
 10
80.48786300387056
 20
83.8556668600729
 30
0.0
 10
80.48131069801975
 20
83.8757244655582
 30
0.0
 10
80.48131069801975
 20
83.8757244655582
 30
0.0
  0
LINE
  5
76
330
1F
100
AcDbEntity
  8
0
  6
Continuous
 62
     7
370
    25
100
AcDbLine
 10
60.3616988193
 20
83.8757244656
 30
0.0
 11
61.9273353827
 21
83.8757244656
 31
0.0
  0
SPLINE
  5
77
330
1F
100
AcDbEntity
  8
0
  6
Continuous
 62
     7
370
    25
100
AcDbSpline
210
0.0
220
0.0
230
1.0
 70
     8
 71
     3
 72
    22
 73
    18
 74
     0
 42
0.00000001
 43
0.00000001
 40
0.0
 40
0.0
 40
0.0
 40
0.0
 40
0.125
 40
0.125
 40
0.25
 40
0.25
 40
0.375
 40
0.375
 40
0.5
 40
0.5
 40
0.625
 40
0.625
 40
0.75
 40
0.75
 40
0.875
 40
0.875
 40
1.0
 40
1.0
 40
1.0
 40
1.0
 10
59.95432304038003
 20
80.87572446555819
 30
0.0
 10
59.95432304038002
 20
81.07477889430314
 30
0.0
 10
59.95959828803218
 20
81.27033371723905
 30
0.0
 10
59.97967969214525
 20
81.65478346364836
 30
0.0
 10
59.99473545647064
 20
81.84571961752596
 30
0.0
 10
60.03205625533751
 20
82.20846573077526
 30
0.0
 10
60.05418409493399
 20
82.38036820866307
 30
0.0
 10
60.10293529602419
 20
82.70568114424839
 30
0.0
 10
60.12963135559357
 20
82.85899091340998
 30
0.0
 10
60.18247440195967
 20
83.13426255644886
 30
0.0
 10
60.20889628180892
 20
83.25810519575535
 30
0.0
 10
60.25872010490962
 20
83.47744003912456
 30
0.0
 10
60.2814610913196
 20
83.57008497675491
 30
0.0
 10
60.31957088636336
 20
83.72013341438361
 30
0.0
 10
60.33513234175476
 20
83.77827834901365
 30
0.0
 10
60.35621540862842
 20
83.856108048149
 30
0.0
 10
60.3616988192793
 20
83.8757244655582
 30
0.0
 10
60.3616988192793
 20
83.8757244655582
 30
0.0
  0
SPLINE
  5
78
330
1F
100
AcDbEntity
  8
0
  6
Continuous
 62
     7
370
    25
100
AcDbSpline
210
0.0
220
0.0
230
1.0
 70
     8
 71
     3
 72
    22
 73
    18
 74
     0
 42
0.00000001
 43
0.00000001
 40
0.0
 40
0.0
 40
0.0
 40
0.0
 40
0.125
 40
0.125
 40
0.25
 40
0.25
 40
0.375
 40
0.375
 40
0.5
 40
0.5
 40
0.625
 40
0.625
 40
0.75
 40
0.75
 40
0.875
 40
0.875
 40
1.0
 40
1.0
 40
1.0
 40
1.0
 10
61.45432304038002
 20
80.87572446555819
 30
0.0
 10
61.45432304038002
 20
81.07259812051379
 30
0.0
 10
61.4604893983656
 20
81.27256048968061
 30
0.0
 10
61.48383679641217
 20
81.6579776561078
 30
0.0
 10
61.50093185027984
 20
81.84545896542323
 30
0.0
 10
61.54430234433627
 20
82.20996047929367
 30
0.0
 10
61.57018783060851
 20
82.38333144544201
 30
0.0
 10
61.62639135218452
 20
82.70675276195726
 30
0.0
 10
61.65716675325751
 20
82.85924674691856
 30
0.0
 10
61.71880013688328
 20
83.13568222149847
 30
0.0
 10
61.74939687533052
 20
83.25888803472552
 30
0.0
 10
61.80676318348911
 20
83.47591025124669
 30
0.0
 10
61.83368327355866
 20
83.57011734305819
 30
0.0
 10
61.87820886143574
 20
83.72041020200629
 30
0.0
 10
61.8961229792199
 20
83.77772076978923
 30
0.0
 10
61.92078307688947
 20
83.8556668600729
 30
0.0
 10
61.92733538274027
 20
83.8757244655582
 30
0.0
 10
61.92733538274027
 20
83.8757244655582
 30
0.0
  0
LINE
  5
79
330
1F
100
AcDbEntity
  8
0
  6
Continuous
 62
     7
370
    25
100
AcDbLine
 10
61.6567373671
 20
87.6982835218
 30
0.0
 11
61.7772017428
 21
87.015096098
 31
0.0
  0
LINE
  5
7A
330
1F
100
AcDbEntity
  8
0
  6
Continuous
 62
     7
370
    25
100
AcDbLine
 10
61.6400432381
 20
87.7929606319
 30
0.0
 11
61.6567373671
 21
87.6982835218
 31
0.0
  0
LINE
  5
7B
330
1F
100
AcDbEntity
  8
0
  6
Continuous
 62
     7
370
    25
100
AcDbLine
 10
61.4245202566
 20
89.0152521991
 30
0.0
 11
61.6400432381
 21
87.7929606319
 31
0.0
  0
LINE
  5
7C
330
1F
100
AcDbEntity
  8
0
  6
Continuous
 62
     7
370
    25
100
AcDbLine
 10
62.9017318861
 20
89.2757244656
 30
0.0
 11
61.4245202566
 21
89.0152521991
 31
0.0
  0
LINE
  5
7D
330
1F
100
AcDbEntity
  8
0
  6
Continuous
 62
     7
370
    25
100
AcDbLine
 10
63.3615089004
 20
86.6681994431
 30
0.0
 11
62.9017318861
 21
89.2757244656
 31
0.0
  0
ARC
  5
7E
330
1F
100
AcDbEntity
  8
0
  6
Continuous
 62
     7
370
    25
100
AcDbCircle
 10
71.2043230404
 20
80.8757244656
 30
0.0
 40
11.25
100
AcDbArc
 50
146.9259888702
 51
164.5339900466
  0
ARC
  5
7F
330
1F
100
AcDbEntity
  8
0
  6
Continuous
 62
     7
370
    25
100
AcDbCircle
 10
71.2043230404
 20
80.8757244656
 30
0.0
 40
9.750000000000012
100
AcDbArc
 50
143.5515004625
 51
162.0797868606
  0
LINE
  5
80
330
1F
100
AcDbEntity
  8
0
  6
Continuous
 62
     7
370
    25
100
AcDbLine
 10
79.5069141947
 20
89.2757244656
 30
0.0
 11
79.0471371804
 21
86.6681994431
 31
0.0
  0
LINE
  5
81
330
1F
100
AcDbEntity
  8
0
  6
Continuous
 62
     7
370
    25
100
AcDbLine
 10
80.9841258242
 20
89.0152521991
 30
0.0
 11
79.5069141947
 21
89.2757244656
 31
0.0
  0
LINE
  5
82
330
1F
100
AcDbEntity
  8
0
  6
Continuous
 62
     7
370
    25
100
AcDbLine
 10
80.7686028426
 20
87.7929606319
 30
0.0
 11
80.9841258242
 21
89.0152521991
 31
0.0
  0
LINE
  5
83
330
1F
100
AcDbEntity
  8
0
  6
Continuous
 62
     7
370
    25
100
AcDbLine
 10
80.7519087136
 20
87.6982835218
 30
0.0
 11
80.7686028426
 21
87.7929606319
 31
0.0
  0
LINE
  5
84
330
1F
100
AcDbEntity
  8
0
  6
Continuous
 62
     7
370
    25
100
AcDbLine
 10
80.6314443379
 20
87.015096098
 30
0.0
 11
80.7519087136
 21
87.6982835218
 31
0.0
  0
ARC
  5
85
330
1F
100
AcDbEntity
  8
0
  6
Continuous
 62
     7
370
    25
100
AcDbCircle
 10
71.2043230404
 20
80.8757244656
 30
0.0
 40
11.25
100
AcDbArc
 50
15.4660099534
 51
33.0740111298
  0
ARC
  5
86
330
1F
100
AcDbEntity
  8
0
  6
Continuous
 62
     7
370
    25
100
AcDbCircle
 10
71.2043230404
 20
80.8757244656
 30
0.0
 40
9.75000000000002
100
AcDbArc
 50
17.9202131394
 51
36.4484995375
  0
LINE
  5
87
330
1F
100
AcDbEntity
  8
0
  6
Continuous
 62
     7
370
    25
100
AcDbLine
 10
62.7043230404
 20
70.8757244656
 30
0.0
 11
62.7043230404
 21
76.0994811719
 31
0.0
  0
LINE
  5
88
330
1F
100
AcDbEntity
  8
0
  6
Continuous
 62
     7
370
    25
100
AcDbLine
 10
59.9543230404
 20
70.8757244656
 30
0.0
 11
59.9543230404
 21
80.8757244656
 31
0.0
  0
ARC
  5
89
330
1F
100
AcDbEntity
  8
0
  6
Continuous
 62
     7
370
    25
100
AcDbCircle
 10
71.2043230404
 20
80.8757244656
 30
0.0
 40
9.75
100
AcDbArc
 50
180.0
 51
209.3321101677
  0
LINE
  5
8A
330
1F
100
AcDbEntity
  8
0
  6
Continuous
 62
     7
370
    25
100
AcDbLine
 10
79.7043230404
 20
70.8757244656
 30
0.0
 11
79.7043230404
 21
76.0994811719
 31
0.0
  0
LINE
  5
8B
330
1F
100
AcDbEntity
  8
0
  6
Continuous
 62
     7
370
    25
100
AcDbLine
 10
82.4543230404
 20
70.8757244656
 30
0.0
 11
82.4543230404
 21
80.8757244656
 31
0.0
  0
ARC
  5
8C
330
1F
100
AcDbEntity
  8
0
  6
Continuous
 62
     7
370
    25
100
AcDbCircle
 10
71.2043230404
 20
80.8757244656
 30
0.0
 40
9.75
100
AcDbArc
 50
330.6678898323
 51
0.0
  0
LINE
  5
8D
330
1F
100
AcDbEntity
  8
0
  6
Continuous
 62
     7
370
    25
100
AcDbLine
 10
58.9543230404
 20
78.6224014643
 30
0.0
 11
58.9543230404
 21
70.8757244656
 31
0.0
  0
LINE
  5
8E
330
1F
100
AcDbEntity
  8
0
  6
Continuous
 62
     7
370
    25
100
AcDbLine
 10
60.3078888466
 20
83.6739778244
 30
0.0
 11
58.9543230404
 21
78.6224014643
 31
0.0
  0
LINE
  5
8F
330
1F
100
AcDbEntity
  8
0
  6
Continuous
 62
     7
370
    25
100
AcDbLine
 10
83.4543230404
 20
70.8757244656
 30
0.0
 11
83.4543230404
 21
78.6224014643
 31
0.0
  0
LINE
  5
90
330
1F
100
AcDbEntity
  8
0
  6
Continuous
 62
     7
370
    25
100
AcDbLine
 10
83.4543230404
 20
78.6224014643
 30
0.0
 11
82.1007572342
 21
83.6739778244
 31
0.0
  0
LINE
  5
91
330
1F
100
AcDbEntity
  8
0
  6
Continuous
 62
     7
370
    25
100
AcDbLine
 10
86.6043230404
 20
66.291986023
 30
0.0
 11
86.6043230404
 21
69.3607244656
 31
0.0
  0
LINE
  5
92
330
1F
100
AcDbEntity
  8
0
  6
Continuous
 62
     7
370
    25
100
AcDbLine
 10
84.2043230404
 20
66.6757244656
 30
0.0
 11
86.6043230404
 21
66.291986023
 31
0.0
  0
LINE
  5
93
330
1F
100
AcDbEntity
  8
0
  6
Continuous
 62
     7
370
    25
100
AcDbLine
 10
86.6043230404
 20
69.3607244656
 30
0.0
 11
84.2043230404
 21
68.9757244656
 31
0.0
  0
LINE
  5
94
330
1F
100
AcDbEntity
  8
0
  6
Continuous
 62
     7
370
    25
100
AcDbLine
 10
73.7043230404
 20
66.8757244656
 30
0.0
 11
73.7043230404
 21
70.8757244656
 31
0.0
  0
LINE
  5
95
330
1F
100
AcDbEntity
  8
0
  6
Continuous
 62
     7
370
    25
100
AcDbLine
 10
68.7043230404
 20
66.8757244656
 30
0.0
 11
68.7043230404
 21
70.8757244656
 31
0.0
  0
LINE
  5
96
330
1F
100
AcDbEntity
  8
0
  6
Continuous
 62
     7
370
    25
100
AcDbLine
 10
73.7043230404
 20
70.8757244656
 30
0.0
 11
68.7043230404
 21
70.8757244656
 31
0.0
  0
LINE
  5
97
330
1F
100
AcDbEntity
  8
0
  6
Continuous
 62
     7
370
    25
100
AcDbLine
 10
116.0339667458
 20
69.3607244656
 30
0.0
 11
116.0339667458
 21
66.291986023
 31
0.0
  0
LINE
  5
98
330
1F
100
AcDbEntity
  8
0
  6
Continuous
 62
     7
370
    25
100
AcDbLine
 10
109.0339667458
 20
66.291986023
 30
0.0
 11
109.0339667458
 21
69.3607244656
 31
0.0
  0
LINE
  5
99
330
1F
100
AcDbEntity
  8
0
  6
Continuous
 62
     7
370
    25
100
AcDbLine
 10
109.0339667458
 20
66.291986023
 30
0.0
 11
116.0339667458
 21
66.291986023
 31
0.0
  0
LINE
  5
9A
330
1F
100
AcDbEntity
  8
0
  6
Continuous
 62
     7
370
    25
100
AcDbLine
 10
109.0339667458
 20
69.3607244656
 30
0.0
 11
116.0339667458
 21
69.3607244656
 31
0.0
  0
LINE
  5
9B
330
1F
100
AcDbEntity
  8
0
  6
Continuous
 62
     7
370
    25
100
AcDbLine
 10
102.0339667458
 20
68.9757244656
 30
0.0
 11
102.0339667458
 21
70.8757244656
 31
0.0
  0
LINE
  5
9C
330
1F
100
AcDbEntity
  8
0
  6
Continuous
 62
     7
370
    25
100
AcDbLine
 10
116.0339667458
 20
70.8757244656
 30
0.0
 11
102.0339667458
 21
70.8757244656
 31
0.0
  0
LINE
  5
9D
330
1F
100
AcDbEntity
  8
0
  6
Continuous
 62
     7
370
    25
100
AcDbLine
 10
102.0339667458
 20
68.9757244656
 30
0.0
 11
109.0339667458
 21
68.9757244656
 31
0.0
  0
LINE
  5
9E
330
1F
100
AcDbEntity
  8
0
  6
Continuous
 62
     7
370
    25
100
AcDbLine
 10
116.0339667458
 20
70.8757244656
 30
0.0
 11
116.0339667458
 21
69.3607244656
 31
0.0
  0
LINE
  5
9F
330
1F
100
AcDbEntity
  8
0
  6
Continuous
 62
     7
370
    25
100
AcDbLine
 10
116.0339667458
 20
60.8757244656
 30
0.0
 11
102.0339667458
 21
60.8757244656
 31
0.0
  0
LINE
  5
A0
330
1F
100
AcDbEntity
  8
0
  6
Continuous
 62
     7
370
    25
100
AcDbLine
 10
102.0339667458
 20
60.8757244656
 30
0.0
 11
102.0339667458
 21
66.6757244656
 31
0.0
  0
LINE
  5
A1
330
1F
100
AcDbEntity
  8
0
  6
Continuous
 62
     7
370
    25
100
AcDbLine
 10
102.0339667458
 20
66.6757244656
 30
0.0
 11
109.0339667458
 21
66.6757244656
 31
0.0
  0
LINE
  5
A2
330
1F
100
AcDbEntity
  8
0
  6
Continuous
 62
     7
370
    25
100
AcDbLine
 10
116.0339667458
 20
66.291986023
 30
0.0
 11
116.0339667458
 21
60.8757244656
 31
0.0
  0
LINE
  5
A3
330
1F
100
AcDbEntity
  8
0
  6
Continuous
 62
     7
370
    25
100
AcDbLine
 10
108.2839667458
 20
70.8757244656
 30
0.0
 11
108.2839667458
 21
78.6224014643
 31
0.0
  0
LINE
  5
A4
330
1F
100
AcDbEntity
  8
0
  6
Continuous
 62
     7
370
    25
100
AcDbLine
 10
109.7839667458
 20
78.6224014643
 30
0.0
 11
108.2839667458
 21
78.6224014643
 31
0.0
  0
LINE
  5
A5
330
1F
100
AcDbEntity
  8
0
  6
Continuous
 62
     7
370
    25
100
AcDbLine
 10
109.7839667458
 20
70.8757244656
 30
0.0
 11
109.7839667458
 21
78.6224014643
 31
0.0
  0
LINE
  5
A6
330
1F
100
AcDbEntity
  8
0
  6
Continuous
 62
     7
370
    25
100
AcDbLine
 10
108.2839667458
 20
78.6224014643
 30
0.0
 11
108.2839667458
 21
83.6739778244
 31
0.0
  0
LINE
  5
A7
330
1F
100
AcDbEntity
  8
0
  6
Continuous
 62
     7
370
    25
100
AcDbLine
 10
109.7839667458
 20
78.6224014643
 30
0.0
 11
109.7839667458
 21
83.6739778244
 31
0.0
  0
LINE
  5
A8
330
1F
100
AcDbEntity
  8
0
  6
Continuous
 62
     7
370
    25
100
AcDbLine
 10
102.5339667458
 20
83.8757244656
 30
0.0
 11
102.5339667458
 21
87.015096098
 31
0.0
  0
LINE
  5
A9
330
1F
100
AcDbEntity
  8
0
  6
Continuous
 62
     7
370
    25
100
AcDbLine
 10
115.5339667458
 20
87.015096098
 30
0.0
 11
102.5339667458
 21
87.015096098
 31
0.0
  0
LINE
  5
AA
330
1F
100
AcDbEntity
  8
0
  6
Continuous
 62
     7
370
    25
100
AcDbLine
 10
115.5339667458
 20
83.8757244656
 30
0.0
 11
115.5339667458
 21
87.015096098
 31
0.0
  0
SPLINE
  5
AB
330
1F
100
AcDbEntity
  8
0
  6
Continuous
 62
     7
370
    25
100
AcDbSpline
210
0.0
220
0.0
230
1.0
 70
     8
 71
     3
 72
    22
 73
    18
 74
     0
 42
0.00000001
 43
0.00000001
 40
0.0
 40
0.0
 40
0.0
 40
0.0
 40
0.125
 40
0.125
 40
0.25
 40
0.25
 40
0.375
 40
0.375
 40
0.5
 40
0.5
 40
0.625
 40
0.625
 40
0.75
 40
0.75
 40
0.875
 40
0.875
 40
1.0
 40
1.0
 40
1.0
 40
1.0
 10
105.5339667458432
 20
80.87572446555819
 30
0.0
 10
105.5339667458432
 20
81.07477889430314
 30
0.0
 10
105.5143533073045
 20
81.27033371723905
 30
0.0
 10
105.4376691401574
 20
81.65478346364836
 30
0.0
 10
105.3796104336327
 20
81.84571961752596
 30
0.0
 10
105.2288469496157
 20
82.20846573077526
 30
0.0
 10
105.1367207767017
 20
82.38036820866307
 30
0.0
 10
104.9192423888102
 20
82.70568114424839
 30
0.0
 10
104.7932866676604
 20
82.85899091340998
 30
0.0
 10
104.5181234947647
 20
83.13426255644886
 30
0.0
 10
104.3678323013212
 20
83.25810519575535
 30
0.0
 10
104.0405778082763
 20
83.47744003912456
 30
0.0
 10
103.8675691542493
 20
83.57008497675491
 30
0.0
 10
103.5073174944661
 20
83.72013341438361
 30
0.0
 10
103.3177858685017
 20
83.77827834901365
 30
0.0
 10
102.9295740815064
 20
83.856108048149
 30
0.0
 10
102.733020129239
 20
83.8757244655582
 30
0.0
 10
102.5339667458432
 20
83.8757244655582
 30
0.0
  0
SPLINE
  5
AC
330
1F
100
AcDbEntity
  8
0
  6
Continuous
 62
     7
370
    25
100
AcDbSpline
210
0.0
220
0.0
230
1.0
 70
     8
 71
     3
 72
    22
 73
    18
 74
     0
 42
0.00000001
 43
0.00000001
 40
0.0
 40
0.0
 40
0.0
 40
0.0
 40
0.1250000000000001
 40
0.1250000000000001
 40
0.2500000000000001
 40
0.2500000000000001
 40
0.3750000000000002
 40
0.3750000000000002
 40
0.5000000000000002
 40
0.5000000000000002
 40
0.6250000000000002
 40
0.6250000000000002
 40
0.7500000000000002
 40
0.7500000000000002
 40
0.8750000000000001
 40
0.8750000000000001
 40
1.0
 40
1.0
 40
1.0
 40
1.0
 10
115.5339667458432
 20
83.8757244655582
 30
0.0
 10
115.3349071091595
 20
83.8757244655582
 30
0.0
 10
115.1393612938532
 20
83.85611026234011
 30
0.0
 10
114.754948773498
 20
83.779436565468
 30
0.0
 10
114.5640427783294
 20
83.72138912239598
 30
0.0
 10
114.2013787253524
 20
83.57067697155486
 30
0.0
 10
114.029510358342
 20
83.4785846073698
 30
0.0
 10
113.704228186282
 20
83.26116504192547
 30
0.0
 10
113.5509380392768
 20
83.13525234082076
 30
0.0
 10
113.2756485112016
 20
82.86013062893316
 30
0.0
 10
113.1517721859591
 20
82.70983722257289
 30
0.0
 10
112.9323533912615
 20
82.38251857221225
 30
0.0
 10
112.839678298808
 20
82.20947921725666
 30
0.0
 10
112.6895796739754
 20
81.84914840141396
 30
0.0
 10
112.6314192893119
 20
81.65957065217499
 30
0.0
 10
112.553582583477
 20
81.27133390225922
 30
0.0
 10
112.5339667458432
 20
81.07477414917277
 30
0.0
 10
112.5339667458432
 20
80.87572446555819
 30
0.0
  0
LINE
  5
AD
330
1F
100
AcDbEntity
  8
0
  6
Continuous
 62
     7
370
    25
100
AcDbLine
 10
112.5339667458
 20
70.8757244656
 30
0.0
 11
112.5339667458
 21
80.8757244656
 31
0.0
  0
LINE
  5
AE
330
1F
100
AcDbEntity
  8
0
  6
Continuous
 62
     7
370
    25
100
AcDbLine
 10
105.5339667458
 20
70.8757244656
 30
0.0
 11
105.5339667458
 21
80.8757244656
 31
0.0
  0
LINE
  5
AF
330
1F
100
AcDbEntity
  8
0
  6
Continuous
 62
     7
370
    25
100
AcDbLine
 10
102.0339667458
 20
66.6757244656
 30
0.0
 11
102.0339667458
 21
68.9757244656
 31
0.0
  0
LINE
  5
B0
330
1F
100
AcDbEntity
  8
0
  6
Continuous
 62
     7
370
    25
100
AcDbLine
 10
115.5339667458
 20
89.0152521991
 30
0.0
 11
102.5339667458
 21
89.0152521991
 31
0.0
  0
LINE
  5
B1
330
1F
100
AcDbEntity
  8
0
  6
Continuous
 62
     7
370
    25
100
AcDbLine
 10
102.5339667458
 20
87.7929606319
 30
0.0
 11
102.5339667458
 21
89.0152521991
 31
0.0
  0
LINE
  5
B2
330
1F
100
AcDbEntity
  8
0
  6
Continuous
 62
     7
370
    25
100
AcDbLine
 10
115.5339667458
 20
89.0152521991
 30
0.0
 11
115.5339667458
 21
87.7929606319
 31
0.0
  0
LINE
  5
B3
330
1F
100
AcDbEntity
  8
0
  6
Continuous
 62
     7
370
    25
100
AcDbLine
 10
115.5339667458
 20
89.2757244656
 30
0.0
 11
102.5339667458
 21
89.2757244656
 31
0.0
  0
LINE
  5
B4
330
1F
100
AcDbEntity
  8
0
  6
Continuous
 62
     7
370
    25
100
AcDbLine
 10
102.5339667458
 20
89.0152521991
 30
0.0
 11
102.5339667458
 21
89.2757244656
 31
0.0
  0
LINE
  5
B5
330
1F
100
AcDbEntity
  8
0
  6
Continuous
 62
     7
370
    25
100
AcDbLine
 10
115.5339667458
 20
89.2757244656
 30
0.0
 11
115.5339667458
 21
89.0152521991
 31
0.0
  0
LINE
  5
B6
330
1F
100
AcDbEntity
  8
0
  6
Continuous
 62
     7
370
    25
100
AcDbLine
 10
102.5339667458
 20
87.6982835218
 30
0.0
 11
102.5339667458
 21
87.7929606319
 31
0.0
  0
SPLINE
  5
B7
330
1F
100
AcDbEntity
  8
0
  6
Continuous
 62
     7
370
    25
100
AcDbSpline
210
0.0
220
0.0
230
1.0
 70
    24
 71
     3
 72
     8
 73
     4
 74
     0
 42
0.00000001
 43
0.00000001
 40
0.0
 40
0.0
 40
0.0
 40
0.0
 40
1.0
 40
1.0
 40
1.0
 40
1.0
 10
115.5339667458432
 20
87.6982835217985
 30
0.0
 10
115.5339667458432
 20
87.72944283388206
 30
0.0
 10
115.5339667458432
 20
87.76108825963284
 30
0.0
 10
115.5339667458432
 20
87.79296063189193
 30
0.0
  0
LINE
  5
B8
330
1F
100
AcDbEntity
  8
0
  6
Continuous
 62
     7
370
    25
100
AcDbLine
 10
102.5339667458
 20
87.015096098
 30
0.0
 11
102.5339667458
 21
87.6982835218
 31
0.0
  0
LINE
  5
B9
330
1F
100
AcDbEntity
  8
0
  6
Continuous
 62
     7
370
    25
100
AcDbLine
 10
115.5339667458
 20
87.015096098
 30
0.0
 11
115.5339667458
 21
87.6982835218
 31
0.0
  0
LINE
  5
BA
330
1F
100
AcDbEntity
  8
0
  6
Continuous
 62
     7
370
    25
100
AcDbLine
 10
58.2043230404
 20
34.3696912114
 30
0.0
 11
58.2043230404
 21
48.3696912114
 31
0.0
  0
LINE
  5
BB
330
1F
100
AcDbEntity
  8
0
  6
Continuous
 62
     7
370
    25
100
AcDbLine
 10
58.2043230404
 20
48.3696912114
 30
0.0
 11
84.2043230404
 21
48.3696912114
 31
0.0
  0
CIRCLE
  5
BC
330
1F
100
AcDbEntity
  8
0
  6
Continuous
 62
     7
370
    25
100
AcDbCircle
 10
71.2043230404
 20
41.3696912114
 30
0.0
 40
2.0
  0
LINE
  5
BD
330
1F
100
AcDbEntity
  8
0
  6
Continuous
 62
     7
370
    25
100
AcDbLine
 10
84.2043230404
 20
34.3696912114
 30
0.0
 11
84.2043230404
 21
48.3696912114
 31
0.0
  0
LINE
  5
BE
330
1F
100
AcDbEntity
  8
0
  6
Continuous
 62
     7
370
    25
100
AcDbLine
 10
84.2043230404
 20
34.3696912114
 30
0.0
 11
58.2043230404
 21
34.3696912114
 31
0.0
  0
LINE
  5
BF
330
1F
100
AcDbEntity
  8
0
  6
Continuous
 62
     7
370
    25
100
AcDbLine
 10
86.6043230404
 20
41.3696912114
 30
0.0
 11
86.6043230404
 21
34.3696912114
 31
0.0
  0
LINE
  5
C0
330
1F
100
AcDbEntity
  8
0
  6
Continuous
 62
     7
370
    25
100
AcDbLine
 10
84.2043230404
 20
41.3696912114
 30
0.0
 11
86.6043230404
 21
41.3696912114
 31
0.0
  0
LINE
  5
C1
330
1F
100
AcDbEntity
  8
0
  6
Continuous
 62
     7
370
    25
100
AcDbLine
 10
86.6043230404
 20
34.3696912114
 30
0.0
 11
84.2043230404
 21
34.3696912114
 31
0.0
  0
LINE
  5
C2
330
1F
100
AcDbEntity
  8
0
  6
Continuous
 62
     7
370
    25
100
AcDbLine
 10
55.8043230404
 20
41.3696912114
 30
0.0
 11
55.8043230404
 21
48.3696912114
 31
0.0
  0
LINE
  5
C3
330
1F
100
AcDbEntity
  8
0
  6
Continuous
 62
     7
370
    25
100
AcDbLine
 10
55.8043230404
 20
41.3696912114
 30
0.0
 11
58.2043230404
 21
41.3696912114
 31
0.0
  0
LINE
  5
C4
330
1F
100
AcDbEntity
  8
0
  6
Continuous
 62
     7
370
    25
100
AcDbLine
 10
55.8043230404
 20
48.3696912114
 30
0.0
 11
58.2043230404
 21
48.3696912114
 31
0.0
  0
INSERT
  5
D0
330
1F
100
AcDbEntity
  8
0
  6
Continuous
 62
     7
370
    18
100
AcDbBlockReference
  2
SW_CENTERMARKSYMBOL_0
 10
71.2043230404
 20
41.3696912114
 30
0.0
  0
LINE
  5
D1
330
1F
100
AcDbEntity
  8
0
  6
Continuous
 62
     7
370
    25
100
AcDbLine
 10
45.9325890736
 20
69.3607244656
 30
0.0
 11
45.9325890736
 21
66.291986023
 31
0.0
  0
LINE
  5
D2
330
1F
100
AcDbEntity
  8
0
  6
Continuous
 62
     7
370
    25
100
AcDbLine
 10
38.9325890736
 20
69.3607244656
 30
0.0
 11
45.9325890736
 21
69.3607244656
 31
0.0
  0
LINE
  5
D3
330
1F
100
AcDbEntity
  8
0
  6
Continuous
 62
     7
370
    25
100
AcDbLine
 10
38.9325890736
 20
69.3607244656
 30
0.0
 11
38.9325890736
 21
66.291986023
 31
0.0
  0
LINE
  5
D4
330
1F
100
AcDbEntity
  8
0
  6
Continuous
 62
     7
370
    25
100
AcDbLine
 10
38.9325890736
 20
66.291986023
 30
0.0
 11
45.9325890736
 21
66.291986023
 31
0.0
  0
LINE
  5
D5
330
1F
100
AcDbEntity
  8
0
  6
Continuous
 62
     7
370
    25
100
AcDbLine
 10
31.9325890736
 20
60.8757244656
 30
0.0
 11
45.9325890736
 21
60.8757244656
 31
0.0
  0
LINE
  5
D6
330
1F
100
AcDbEntity
  8
0
  6
Continuous
 62
     7
370
    25
100
AcDbLine
 10
31.9325890736
 20
60.8757244656
 30
0.0
 11
31.9325890736
 21
66.6757244656
 31
0.0
  0
LINE
  5
D7
330
1F
100
AcDbEntity
  8
0
  6
Continuous
 62
     7
370
    25
100
AcDbLine
 10
38.9325890736
 20
66.6757244656
 30
0.0
 11
31.9325890736
 21
66.6757244656
 31
0.0
  0
LINE
  5
D8
330
1F
100
AcDbEntity
  8
0
  6
Continuous
 62
     7
370
    25
100
AcDbLine
 10
45.9325890736
 20
66.291986023
 30
0.0
 11
45.9325890736
 21
60.8757244656
 31
0.0
  0
LINE
  5
D9
330
1F
100
AcDbEntity
  8
0
  6
Continuous
 62
     7
370
    25
100
AcDbLine
 10
31.9325890736
 20
68.9757244656
 30
0.0
 11
31.9325890736
 21
70.8757244656
 31
0.0
  0
LINE
  5
DA
330
1F
100
AcDbEntity
  8
0
  6
Continuous
 62
     7
370
    25
100
AcDbLine
 10
31.9325890736
 20
70.8757244656
 30
0.0
 11
45.9325890736
 21
70.8757244656
 31
0.0
  0
LINE
  5
DB
330
1F
100
AcDbEntity
  8
0
  6
Continuous
 62
     7
370
    25
100
AcDbLine
 10
38.9325890736
 20
68.9757244656
 30
0.0
 11
31.9325890736
 21
68.9757244656
 31
0.0
  0
LINE
  5
DC
330
1F
100
AcDbEntity
  8
0
  6
Continuous
 62
     7
370
    25
100
AcDbLine
 10
45.9325890736
 20
70.8757244656
 30
0.0
 11
45.9325890736
 21
69.3607244656
 31
0.0
  0
LINE
  5
DD
330
1F
100
AcDbEntity
  8
0
  6
Continuous
 62
     7
370
    25
100
AcDbLine
 10
39.6825890736
 20
83.6739778244
 30
0.0
 11
39.6825890736
 21
78.6224014643
 31
0.0
  0
LINE
  5
DE
330
1F
100
AcDbEntity
  8
0
  6
Continuous
 62
     7
370
    25
100
AcDbLine
 10
38.1825890736
 20
78.6224014643
 30
0.0
 11
39.6825890736
 21
78.6224014643
 31
0.0
  0
LINE
  5
DF
330
1F
100
AcDbEntity
  8
0
  6
Continuous
 62
     7
370
    25
100
AcDbLine
 10
38.1825890736
 20
83.6739778244
 30
0.0
 11
38.1825890736
 21
78.6224014643
 31
0.0
  0
LINE
  5
E0
330
1F
100
AcDbEntity
  8
0
  6
Continuous
 62
     7
370
    25
100
AcDbLine
 10
39.6825890736
 20
78.6224014643
 30
0.0
 11
39.6825890736
 21
70.8757244656
 31
0.0
  0
LINE
  5
E1
330
1F
100
AcDbEntity
  8
0
  6
Continuous
 62
     7
370
    25
100
AcDbLine
 10
38.1825890736
 20
78.6224014643
 30
0.0
 11
38.1825890736
 21
70.8757244656
 31
0.0
  0
LINE
  5
E2
330
1F
100
AcDbEntity
  8
0
  6
Continuous
 62
     7
370
    25
100
AcDbLine
 10
32.4325890736
 20
87.015096098
 30
0.0
 11
32.4325890736
 21
83.8757244656
 31
0.0
  0
LINE
  5
E3
330
1F
100
AcDbEntity
  8
0
  6
Continuous
 62
     7
370
    25
100
AcDbLine
 10
32.4325890736
 20
87.015096098
 30
0.0
 11
45.4325890736
 21
87.015096098
 31
0.0
  0
LINE
  5
E4
330
1F
100
AcDbEntity
  8
0
  6
Continuous
 62
     7
370
    25
100
AcDbLine
 10
45.4325890736
 20
87.015096098
 30
0.0
 11
45.4325890736
 21
83.8757244656
 31
0.0
  0
SPLINE
  5
E5
330
1F
100
AcDbEntity
  8
0
  6
Continuous
 62
     7
370
    25
100
AcDbSpline
210
0.0
220
0.0
230
1.0
 70
     8
 71
     3
 72
    22
 73
    18
 74
     0
 42
0.00000001
 43
0.00000001
 40
0.0
 40
0.0
 40
0.0
 40
0.0
 40
0.125
 40
0.125
 40
0.25
 40
0.25
 40
0.375
 40
0.375
 40
0.5
 40
0.5
 40
0.625
 40
0.625
 40
0.75
 40
0.75
 40
0.875
 40
0.875
 40
1.0
 40
1.0
 40
1.0
 40
1.0
 10
42.4325890736342
 20
80.87572446555819
 30
0.0
 10
42.4325890736342
 20
81.07477889430314
 30
0.0
 10
42.45220251217288
 20
81.27033371723905
 30
0.0
 10
42.52888667931998
 20
81.65478346364836
 30
0.0
 10
42.58694538584462
 20
81.84571961752596
 30
0.0
 10
42.73770886986163
 20
82.20846573077526
 30
0.0
 10
42.8298350427757
 20
82.38036820866307
 30
0.0
 10
43.04731343066713
 20
82.70568114424839
 30
0.0
 10
43.17326915181696
 20
82.85899091340998
 30
0.0
 10
43.44843232471267
 20
83.13426255644886
 30
0.0
 10
43.59872351815615
 20
83.25810519575535
 30
0.0
 10
43.92597801120111
 20
83.47744003912456
 30
0.0
 10
44.09898666522807
 20
83.57008497675491
 30
0.0
 10
44.45923832501128
 20
83.72013341438361
 30
0.0
 10
44.64876995097572
 20
83.77827834901365
 30
0.0
 10
45.03698173797094
 20
83.856108048149
 30
0.0
 10
45.23353569023843
 20
83.8757244655582
 30
0.0
 10
45.43258907363419
 20
83.8757244655582
 30
0.0
  0
SPLINE
  5
E6
330
1F
100
AcDbEntity
  8
0
  6
Continuous
 62
     7
370
    25
100
AcDbSpline
210
0.0
220
0.0
230
1.0
 70
     8
 71
     3
 72
    22
 73
    18
 74
     0
 42
0.00000001
 43
0.00000001
 40
0.0
 40
0.0
 40
0.0
 40
0.0
 40
0.1250000000000001
 40
0.1250000000000001
 40
0.2500000000000001
 40
0.2500000000000001
 40
0.3750000000000002
 40
0.3750000000000002
 40
0.5000000000000002
 40
0.5000000000000002
 40
0.6250000000000002
 40
0.6250000000000002
 40
0.7500000000000002
 40
0.7500000000000002
 40
0.8750000000000001
 40
0.8750000000000001
 40
1.0
 40
1.0
 40
1.0
 40
1.0
 10
32.43258907363419
 20
83.8757244655582
 30
0.0
 10
32.63164871031784
 20
83.8757244655582
 30
0.0
 10
32.82719452562412
 20
83.85611026234011
 30
0.0
 10
33.2116070459794
 20
83.779436565468
 30
0.0
 10
33.40251304114793
 20
83.72138912239598
 30
0.0
 10
33.76517709412498
 20
83.57067697155486
 30
0.0
 10
33.93704546113533
 20
83.4785846073698
 30
0.0
 10
34.26232763319542
 20
83.26116504192547
 30
0.0
 10
34.41561778020059
 20
83.13525234082076
 30
0.0
 10
34.69090730827573
 20
82.86013062893316
 30
0.0
 10
34.81478363351823
 20
82.70983722257289
 30
0.0
 10
35.03420242821588
 20
82.38251857221225
 30
0.0
 10
35.12687752066941
 20
82.20947921725666
 30
0.0
 10
35.276976145502
 20
81.84914840141396
 30
0.0
 10
35.33513653016551
 20
81.65957065217499
 30
0.0
 10
35.41297323600038
 20
81.27133390225922
 30
0.0
 10
35.43258907363419
 20
81.07477414917277
 30
0.0
 10
35.43258907363419
 20
80.87572446555819
 30
0.0
  0
LINE
  5
E7
330
1F
100
AcDbEntity
  8
0
  6
Continuous
 62
     7
370
    25
100
AcDbLine
 10
35.4325890736
 20
70.8757244656
 30
0.0
 11
35.4325890736
 21
80.8757244656
 31
0.0
  0
LINE
  5
E8
330
1F
100
AcDbEntity
  8
0
  6
Continuous
 62
     7
370
    25
100
AcDbLine
 10
42.4325890736
 20
70.8757244656
 30
0.0
 11
42.4325890736
 21
80.8757244656
 31
0.0
  0
LINE
  5
E9
330
1F
100
AcDbEntity
  8
0
  6
Continuous
 62
     7
370
    25
100
AcDbLine
 10
31.9325890736
 20
66.6757244656
 30
0.0
 11
31.9325890736
 21
68.9757244656
 31
0.0
  0
LINE
  5
EA
330
1F
100
AcDbEntity
  8
0
  6
Continuous
 62
     7
370
    25
100
AcDbLine
 10
32.4325890736
 20
89.0152521991
 30
0.0
 11
45.4325890736
 21
89.0152521991
 31
0.0
  0
LINE
  5
EB
330
1F
100
AcDbEntity
  8
0
  6
Continuous
 62
     7
370
    25
100
AcDbLine
 10
45.4325890736
 20
89.0152521991
 30
0.0
 11
45.4325890736
 21
87.7929606319
 31
0.0
  0
LINE
  5
EC
330
1F
100
AcDbEntity
  8
0
  6
Continuous
 62
     7
370
    25
100
AcDbLine
 10
32.4325890736
 20
87.7929606319
 30
0.0
 11
32.4325890736
 21
89.0152521991
 31
0.0
  0
LINE
  5
ED
330
1F
100
AcDbEntity
  8
0
  6
Continuous
 62
     7
370
    25
100
AcDbLine
 10
32.4325890736
 20
89.2757244656
 30
0.0
 11
45.4325890736
 21
89.2757244656
 31
0.0
  0
LINE
  5
EE
330
1F
100
AcDbEntity
  8
0
  6
Continuous
 62
     7
370
    25
100
AcDbLine
 10
45.4325890736
 20
89.2757244656
 30
0.0
 11
45.4325890736
 21
89.0152521991
 31
0.0
  0
LINE
  5
EF
330
1F
100
AcDbEntity
  8
0
  6
Continuous
 62
     7
370
    25
100
AcDbLine
 10
32.4325890736
 20
89.0152521991
 30
0.0
 11
32.4325890736
 21
89.2757244656
 31
0.0
  0
LINE
  5
F0
330
1F
100
AcDbEntity
  8
0
  6
Continuous
 62
     7
370
    25
100
AcDbLine
 10
45.4325890736
 20
87.7929606319
 30
0.0
 11
45.4325890736
 21
87.6982835218
 31
0.0
  0
SPLINE
  5
F1
330
1F
100
AcDbEntity
  8
0
  6
Continuous
 62
     7
370
    25
100
AcDbSpline
210
0.0
220
0.0
230
1.0
 70
    24
 71
     3
 72
     8
 73
     4
 74
     0
 42
0.00000001
 43
0.00000001
 40
0.0
 40
0.0
 40
0.0
 40
0.0
 40
1.0
 40
1.0
 40
1.0
 40
1.0
 10
32.43258907363419
 20
87.79296063189196
 30
0.0
 10
32.43258907363419
 20
87.76108825963287
 30
0.0
 10
32.43258907363419
 20
87.72944283388208
 30
0.0
 10
32.43258907363419
 20
87.6982835217985
 30
0.0
  0
LINE
  5
F2
330
1F
100
AcDbEntity
  8
0
  6
Continuous
 62
     7
370
    25
100
AcDbLine
 10
45.4325890736
 20
87.6982835218
 30
0.0
 11
45.4325890736
 21
87.015096098
 31
0.0
  0
LINE
  5
F3
330
1F
100
AcDbEntity
  8
0
  6
Continuous
 62
     7
370
    25
100
AcDbLine
 10
32.4325890736
 20
87.6982835218
 30
0.0
 11
32.4325890736
 21
87.015096098
 31
0.0
  0
LINE
  5
F4
330
1F
100
AcDbEntity
  8
0
  6
Continuous
 62
     7
370
    25
100
AcDbLine
 10
79.5069141947
 20
117.4332066508
 30
0.0
 11
79.0471371804
 21
117.4332066508
 31
0.0
  0
LINE
  5
F5
330
1F
100
AcDbEntity
  8
0
  6
Continuous
 62
     7
370
    25
100
AcDbLine
 10
79.5069141947
 20
117.4332066508
 30
0.0
 11
79.5069141947
 21
104.4332066508
 31
0.0
  0
LINE
  5
F6
330
1F
100
AcDbEntity
  8
0
  6
Continuous
 62
     7
370
    25
100
AcDbLine
 10
79.5069141947
 20
104.4332066508
 30
0.0
 11
79.0471371804
 21
104.4332066508
 31
0.0
  0
LINE
  5
F7
330
1F
100
AcDbEntity
  8
0
  6
Continuous
 62
     7
370
    25
100
AcDbLine
 10
79.0471371804
 20
117.4332066508
 30
0.0
 11
79.0471371804
 21
104.4332066508
 31
0.0
  0
LINE
  5
F8
330
1F
100
AcDbEntity
  8
0
  6
Continuous
 62
     7
370
    25
100
AcDbLine
 10
62.9017318861
 20
117.4332066508
 30
0.0
 11
62.9017318861
 21
104.4332066508
 31
0.0
  0
LINE
  5
F9
330
1F
100
AcDbEntity
  8
0
  6
Continuous
 62
     7
370
    25
100
AcDbLine
 10
62.9017318861
 20
104.4332066508
 30
0.0
 11
61.4245202566
 21
104.4332066508
 31
0.0
  0
LINE
  5
FA
330
1F
100
AcDbEntity
  8
0
  6
Continuous
 62
     7
370
    25
100
AcDbLine
 10
61.4245202566
 20
117.4332066508
 30
0.0
 11
61.4245202566
 21
104.4332066508
 31
0.0
  0
LINE
  5
FB
330
1F
100
AcDbEntity
  8
0
  6
Continuous
 62
     7
370
    25
100
AcDbLine
 10
61.4245202566
 20
117.4332066508
 30
0.0
 11
62.9017318861
 21
117.4332066508
 31
0.0
  0
LINE
  5
FC
330
1F
100
AcDbEntity
  8
0
  6
Continuous
 62
     7
370
    25
100
AcDbLine
 10
63.3615089004
 20
117.4332066508
 30
0.0
 11
63.3615089004
 21
104.4332066508
 31
0.0
  0
LINE
  5
FD
330
1F
100
AcDbEntity
  8
0
  6
Continuous
 62
     7
370
    25
100
AcDbLine
 10
63.3615089004
 20
104.4332066508
 30
0.0
 11
62.9017318861
 21
104.4332066508
 31
0.0
  0
LINE
  5
FE
330
1F
100
AcDbEntity
  8
0
  6
Continuous
 62
     7
370
    25
100
AcDbLine
 10
63.3615089004
 20
117.4332066508
 30
0.0
 11
62.9017318861
 21
117.4332066508
 31
0.0
  0
LINE
  5
FF
330
1F
100
AcDbEntity
  8
0
  6
Continuous
 62
     7
370
    25
100
AcDbLine
 10
80.9841258242
 20
117.4332066508
 30
0.0
 11
80.9841258242
 21
104.4332066508
 31
0.0
  0
LINE
  5
100
330
1F
100
AcDbEntity
  8
0
  6
Continuous
 62
     7
370
    25
100
AcDbLine
 10
80.9841258242
 20
104.4332066508
 30
0.0
 11
79.5069141947
 21
104.4332066508
 31
0.0
  0
LINE
  5
101
330
1F
100
AcDbEntity
  8
0
  6
Continuous
 62
     7
370
    25
100
AcDbLine
 10
79.5069141947
 20
117.4332066508
 30
0.0
 11
80.9841258242
 21
117.4332066508
 31
0.0
  0
SPLINE
  5
102
330
1F
100
AcDbEntity
  8
0
  6
Continuous
 62
     7
370
    25
100
AcDbSpline
210
0.0
220
0.0
230
1.0
 70
     8
 71
     3
 72
    22
 73
    18
 74
     0
 42
0.00000001
 43
0.00000001
 40
0.0
 40
0.0
 40
0.0
 40
0.0
 40
0.1250000000000001
 40
0.1250000000000001
 40
0.2500000000000001
 40
0.2500000000000001
 40
0.3750000000000002
 40
0.3750000000000002
 40
0.5000000000000002
 40
0.5000000000000002
 40
0.6250000000000002
 40
0.6250000000000002
 40
0.7500000000000002
 40
0.7500000000000002
 40
0.8750000000000001
 40
0.8750000000000001
 40
1.0
 40
1.0
 40
1.0
 40
1.0
 10
82.04694726148074
 20
117.4332066508314
 30
0.0
 10
82.04694726148074
 20
117.2341470141478
 30
0.0
 10
82.0524278568613
 20
117.0386011988415
 30
0.0
 10
82.07320217522467
 20
116.6541886784862
 30
0.0
 10
82.08874942708002
 20
116.4632826833177
 30
0.0
 10
82.1270413878011
 20
116.1006186303406
 30
0.0
 10
82.14964385768286
 20
115.9287502633303
 30
0.0
 10
82.19907642406876
 20
115.6034680912702
 30
0.0
 10
82.22596787374354
 20
115.450177944265
 30
0.0
 10
82.27880963031532
 20
115.1748884161899
 30
0.0
 10
82.30504007204786
 20
115.0510120909474
 30
0.0
 10
82.354186705141
 20
114.8315932962497
 30
0.0
 10
82.37644919284008
 20
114.7389182037962
 30
0.0
 10
82.41359377246886
 20
114.5888195789636
 30
0.0
 10
82.42866582426251
 20
114.5306591943001
 30
0.0
 10
82.44904531120385
 20
114.4528224884652
 30
0.0
 10
82.45432304038003
 20
114.4332066508314
 30
0.0
 10
82.45432304038002
 20
114.4332066508314
 30
0.0
  0
LINE
  5
103
330
1F
100
AcDbEntity
  8
0
  6
Continuous
 62
     7
370
    25
100
AcDbLine
 10
82.4543230404
 20
114.4332066508
 30
0.0
 11
82.4543230404
 21
111.6832066508
 31
0.0
  0
LINE
  5
104
330
1F
100
AcDbEntity
  8
0
  6
Continuous
 62
     7
370
    25
100
AcDbLine
 10
82.4543230404
 20
110.1832066508
 30
0.0
 11
82.4543230404
 21
107.4332066508
 31
0.0
  0
SPLINE
  5
105
330
1F
100
AcDbEntity
  8
0
  6
Continuous
 62
     7
370
    25
100
AcDbSpline
210
0.0
220
0.0
230
1.0
 70
     8
 71
     3
 72
    22
 73
    18
 74
     0
 42
0.00000001
 43
0.00000001
 40
0.0
 40
0.0
 40
0.0
 40
0.0
 40
0.125
 40
0.125
 40
0.25
 40
0.25
 40
0.375
 40
0.375
 40
0.5
 40
0.5
 40
0.625
 40
0.625
 40
0.75
 40
0.75
 40
0.875
 40
0.875
 40
1.0
 40
1.0
 40
1.0
 40
1.0
 10
82.45432304038002
 20
107.4332066508314
 30
0.0
 10
82.45432304038002
 20
107.4332066508314
 30
0.0
 10
82.44904779272785
 20
107.4135932122927
 30
0.0
 10
82.42896638861478
 20
107.3369090451456
 30
0.0
 10
82.4139106242894
 20
107.278850338621
 30
0.0
 10
82.37658982542253
 20
107.128086854604
 30
0.0
 10
82.35446198582605
 20
107.0359606816899
 30
0.0
 10
82.30571078473585
 20
106.8184822937985
 30
0.0
 10
82.27901472516646
 20
106.6925265726486
 30
0.0
 10
82.22617167880037
 20
106.4173633997529
 30
0.0
 10
82.19974979895112
 20
106.2670722063095
 30
0.0
 10
82.14992597585041
 20
105.9398177132645
 30
0.0
 10
82.12718498944044
 20
105.7668090592375
 30
0.0
 10
82.08907519439667
 20
105.4065573994543
 30
0.0
 10
82.07351373900528
 20
105.2170257734899
 30
0.0
 10
82.0524306721316
 20
104.8288139864947
 30
0.0
 10
82.04694726148074
 20
104.6322600342272
 30
0.0
 10
82.04694726148074
 20
104.4332066508314
 30
0.0
  0
LINE
  5
106
330
1F
100
AcDbEntity
  8
0
  6
Continuous
 62
     7
370
    25
100
AcDbLine
 10
82.0469472615
 20
104.4332066508
 30
0.0
 11
80.9841258242
 21
104.4332066508
 31
0.0
  0
LINE
  5
107
330
1F
100
AcDbEntity
  8
0
  6
Continuous
 62
     7
370
    25
100
AcDbLine
 10
82.0469472615
 20
117.4332066508
 30
0.0
 11
80.9841258242
 21
117.4332066508
 31
0.0
  0
LINE
  5
108
330
1F
100
AcDbEntity
  8
0
  6
Continuous
 62
     7
370
    25
100
AcDbLine
 10
59.9543230404
 20
114.4332066508
 30
0.0
 11
59.9543230404
 21
111.6832066508
 31
0.0
  0
SPLINE
  5
109
330
1F
100
AcDbEntity
  8
0
  6
Continuous
 62
     7
370
    25
100
AcDbSpline
210
0.0
220
0.0
230
1.0
 70
     8
 71
     3
 72
    22
 73
    18
 74
     0
 42
0.00000001
 43
0.00000001
 40
0.0
 40
0.0
 40
0.0
 40
0.0
 40
0.1250000000000001
 40
0.1250000000000001
 40
0.2500000000000001
 40
0.2500000000000001
 40
0.3750000000000002
 40
0.3750000000000002
 40
0.5000000000000002
 40
0.5000000000000002
 40
0.6250000000000002
 40
0.6250000000000002
 40
0.7500000000000002
 40
0.7500000000000002
 40
0.8750000000000001
 40
0.8750000000000001
 40
1.0
 40
1.0
 40
1.0
 40
1.0
 10
60.3616988192793
 20
117.4332066508314
 30
0.0
 10
60.3616988192793
 20
117.2341470141478
 30
0.0
 10
60.35621822389873
 20
117.0386011988415
 30
0.0
 10
60.33544390553538
 20
116.6541886784862
 30
0.0
 10
60.31989665368003
 20
116.4632826833177
 30
0.0
 10
60.28160469295894
 20
116.1006186303406
 30
0.0
 10
60.25900222307718
 20
115.9287502633303
 30
0.0
 10
60.20956965669127
 20
115.6034680912702
 30
0.0
 10
60.18267820701649
 20
115.450177944265
 30
0.0
 10
60.12983645044471
 20
115.1748884161899
 30
0.0
 10
60.10360600871218
 20
115.0510120909474
 30
0.0
 10
60.05445937561903
 20
114.8315932962497
 30
0.0
 10
60.03219688791995
 20
114.7389182037962
 30
0.0
 10
59.99505230829118
 20
114.5888195789636
 30
0.0
 10
59.97998025649754
 20
114.5306591943001
 30
0.0
 10
59.95960076955618
 20
114.4528224884652
 30
0.0
 10
59.95432304038002
 20
114.4332066508314
 30
0.0
 10
59.95432304038003
 20
114.4332066508314
 30
0.0
  0
SPLINE
  5
10A
330
1F
100
AcDbEntity
  8
0
  6
Continuous
 62
     7
370
    25
100
AcDbSpline
210
0.0
220
0.0
230
1.0
 70
     8
 71
     3
 72
    22
 73
    18
 74
     0
 42
0.00000001
 43
0.00000001
 40
0.0
 40
0.0
 40
0.0
 40
0.0
 40
0.125
 40
0.125
 40
0.25
 40
0.25
 40
0.375
 40
0.375
 40
0.5
 40
0.5
 40
0.625
 40
0.625
 40
0.75
 40
0.75
 40
0.875
 40
0.875
 40
1.0
 40
1.0
 40
1.0
 40
1.0
 10
59.95432304038003
 20
107.4332066508314
 30
0.0
 10
59.95432304038002
 20
107.4332066508314
 30
0.0
 10
59.95959828803218
 20
107.4135932122927
 30
0.0
 10
59.97967969214525
 20
107.3369090451456
 30
0.0
 10
59.99473545647064
 20
107.278850338621
 30
0.0
 10
60.03205625533751
 20
107.128086854604
 30
0.0
 10
60.05418409493399
 20
107.0359606816899
 30
0.0
 10
60.10293529602419
 20
106.8184822937985
 30
0.0
 10
60.12963135559357
 20
106.6925265726486
 30
0.0
 10
60.18247440195967
 20
106.4173633997529
 30
0.0
 10
60.20889628180892
 20
106.2670722063095
 30
0.0
 10
60.25872010490962
 20
105.9398177132645
 30
0.0
 10
60.2814610913196
 20
105.7668090592375
 30
0.0
 10
60.31957088636336
 20
105.4065573994543
 30
0.0
 10
60.33513234175476
 20
105.2170257734899
 30
0.0
 10
60.35621540862842
 20
104.8288139864947
 30
0.0
 10
60.3616988192793
 20
104.6322600342272
 30
0.0
 10
60.3616988192793
 20
104.4332066508314
 30
0.0
  0
LINE
  5
10B
330
1F
100
AcDbEntity
  8
0
  6
Continuous
 62
     7
370
    25
100
AcDbLine
 10
59.9543230404
 20
110.1832066508
 30
0.0
 11
59.9543230404
 21
107.4332066508
 31
0.0
  0
LINE
  5
10C
330
1F
100
AcDbEntity
  8
0
  6
Continuous
 62
     7
370
    25
100
AcDbLine
 10
61.4245202566
 20
104.4332066508
 30
0.0
 11
60.3616988193
 21
104.4332066508
 31
0.0
  0
LINE
  5
10D
330
1F
100
AcDbEntity
  8
0
  6
Continuous
 62
     7
370
    25
100
AcDbLine
 10
61.4245202566
 20
117.4332066508
 30
0.0
 11
60.3616988193
 21
117.4332066508
 31
0.0
  0
LINE
  5
10E
330
1F
100
AcDbEntity
  8
0
  6
Continuous
 62
     7
370
    25
100
AcDbLine
 10
83.4543230404
 20
111.6832066508
 30
0.0
 11
82.1007572342
 21
111.6832066508
 31
0.0
  0
LINE
  5
10F
330
1F
100
AcDbEntity
  8
0
  6
Continuous
 62
     7
370
    25
100
AcDbLine
 10
83.4543230404
 20
111.6832066508
 30
0.0
 11
83.4543230404
 21
110.1832066508
 31
0.0
  0
LINE
  5
110
330
1F
100
AcDbEntity
  8
0
  6
Continuous
 62
     7
370
    25
100
AcDbLine
 10
83.4543230404
 20
110.1832066508
 30
0.0
 11
82.1007572342
 21
110.1832066508
 31
0.0
  0
LINE
  5
111
330
1F
100
AcDbEntity
  8
0
  6
Continuous
 62
     7
370
    25
100
AcDbLine
 10
60.3078888466
 20
110.1832066508
 30
0.0
 11
58.9543230404
 21
110.1832066508
 31
0.0
  0
LINE
  5
112
330
1F
100
AcDbEntity
  8
0
  6
Continuous
 62
     7
370
    25
100
AcDbLine
 10
58.9543230404
 20
111.6832066508
 30
0.0
 11
58.9543230404
 21
110.1832066508
 31
0.0
  0
LINE
  5
113
330
1F
100
AcDbEntity
  8
0
  6
Continuous
 62
     7
370
    25
100
AcDbLine
 10
60.3078888466
 20
111.6832066508
 30
0.0
 11
58.9543230404
 21
111.6832066508
 31
0.0
  0
LINE
  5
114
330
1F
100
AcDbEntity
  8
0
  6
Continuous
 62
     7
370
    25
100
AcDbLine
 10
65.7043230404
 20
103.9332066508
 30
0.0
 11
58.2043230404
 21
103.9332066508
 31
0.0
  0
LINE
  5
115
330
1F
100
AcDbEntity
  8
0
  6
Continuous
 62
     7
370
    25
100
AcDbLine
 10
58.2043230404
 20
117.9332066508
 30
0.0
 11
58.2043230404
 21
103.9332066508
 31
0.0
  0
LINE
  5
116
330
1F
100
AcDbEntity
  8
0
  6
Continuous
 62
     7
370
    25
100
AcDbLine
 10
58.2043230404
 20
117.9332066508
 30
0.0
 11
65.7043230404
 21
117.9332066508
 31
0.0
  0
LINE
  5
117
330
1F
100
AcDbEntity
  8
0
  6
Continuous
 62
     7
370
    25
100
AcDbLine
 10
65.7043230404
 20
117.9332066508
 30
0.0
 11
65.7043230404
 21
103.9332066508
 31
0.0
  0
LINE
  5
118
330
1F
100
AcDbEntity
  8
0
  6
Continuous
 62
     7
370
    25
100
AcDbLine
 10
84.2043230404
 20
103.9332066508
 30
0.0
 11
76.7043230404
 21
103.9332066508
 31
0.0
  0
LINE
  5
119
330
1F
100
AcDbEntity
  8
0
  6
Continuous
 62
     7
370
    25
100
AcDbLine
 10
76.7043230404
 20
117.9332066508
 30
0.0
 11
76.7043230404
 21
103.9332066508
 31
0.0
  0
LINE
  5
11A
330
1F
100
AcDbEntity
  8
0
  6
Continuous
 62
     7
370
    25
100
AcDbLine
 10
76.7043230404
 20
117.9332066508
 30
0.0
 11
84.2043230404
 21
117.9332066508
 31
0.0
  0
LINE
  5
11B
330
1F
100
AcDbEntity
  8
0
  6
Continuous
 62
     7
370
    25
100
AcDbLine
 10
84.2043230404
 20
117.9332066508
 30
0.0
 11
84.2043230404
 21
103.9332066508
 31
0.0
  0
LINE
  5
11C
330
1F
100
AcDbEntity
  8
0
  6
Continuous
 62
     7
370
    25
100
AcDbLine
 10
73.7043230404
 20
117.9332066508
 30
0.0
 11
73.7043230404
 21
116.4332066508
 31
0.0
  0
LINE
  5
11D
330
1F
100
AcDbEntity
  8
0
  6
Continuous
 62
     7
370
    25
100
AcDbLine
 10
73.7043230404
 20
116.4332066508
 30
0.0
 11
68.7043230404
 21
116.4332066508
 31
0.0
  0
LINE
  5
11E
330
1F
100
AcDbEntity
  8
0
  6
Continuous
 62
     7
370
    25
100
AcDbLine
 10
68.7043230404
 20
116.4332066508
 30
0.0
 11
68.7043230404
 21
117.9332066508
 31
0.0
  0
LINE
  5
11F
330
1F
100
AcDbEntity
  8
0
  6
Continuous
 62
     7
370
    25
100
AcDbLine
 10
73.7043230404
 20
117.9332066508
 30
0.0
 11
68.7043230404
 21
117.9332066508
 31
0.0
  0
LINE
  5
120
330
1F
100
AcDbEntity
  8
0
  6
Continuous
 62
     7
370
    25
100
AcDbLine
 10
86.6043230404
 20
110.9332066508
 30
0.0
 11
86.6043230404
 21
117.9332066508
 31
0.0
  0
LINE
  5
121
330
1F
100
AcDbEntity
  8
0
  6
Continuous
 62
     7
370
    25
100
AcDbLine
 10
86.6043230404
 20
110.9332066508
 30
0.0
 11
84.2043230404
 21
110.9332066508
 31
0.0
  0
LINE
  5
122
330
1F
100
AcDbEntity
  8
0
  6
Continuous
 62
     7
370
    25
100
AcDbLine
 10
84.2043230404
 20
117.9332066508
 30
0.0
 11
86.6043230404
 21
117.9332066508
 31
0.0
  0
LINE
  5
123
330
1F
100
AcDbEntity
  8
0
  6
Continuous
 62
     7
370
    25
100
AcDbLine
 10
55.8043230404
 20
110.9332066508
 30
0.0
 11
55.8043230404
 21
103.9332066508
 31
0.0
  0
LINE
  5
124
330
1F
100
AcDbEntity
  8
0
  6
Continuous
 62
     7
370
    25
100
AcDbLine
 10
58.2043230404
 20
110.9332066508
 30
0.0
 11
55.8043230404
 21
110.9332066508
 31
0.0
  0
LINE
  5
125
330
1F
100
AcDbEntity
  8
0
  6
Continuous
 62
     7
370
    25
100
AcDbLine
 10
58.2043230404
 20
103.9332066508
 30
0.0
 11
55.8043230404
 21
103.9332066508
 31
0.0
  0
CIRCLE
  5
126
330
1F
100
AcDbEntity
  8
0
  6
Continuous
 62
     7
370
    25
100
AcDbCircle
 10
71.2043230404
 20
110.9332066508
 30
0.0
 40
2.0
  0
LINE
  5
127
330
1F
100
AcDbEntity
  8
0
  6
Continuous
 62
     7
370
    25
100
AcDbLine
 10
65.7043230404
 20
103.9332066508
 30
0.0
 11
76.7043230404
 21
103.9332066508
 31
0.0
  0
LINE
  5
128
330
1F
100
AcDbEntity
  8
0
  6
Continuous
 62
     7
370
    25
100
AcDbLine
 10
73.7043230404
 20
117.9332066508
 30
0.0
 11
76.7043230404
 21
117.9332066508
 31
0.0
  0
LINE
  5
129
330
1F
100
AcDbEntity
  8
0
  6
Continuous
 62
     7
370
    25
100
AcDbLine
 10
65.7043230404
 20
117.9332066508
 30
0.0
 11
68.7043230404
 21
117.9332066508
 31
0.0
  0
INSERT
  5
135
330
1F
100
AcDbEntity
  8
0
  6
Continuous
 62
     7
370
    18
100
AcDbBlockReference
  2
SW_CENTERMARKSYMBOL_1
 10
71.2043230404
 20
110.9332066508
 30
0.0
  0
ARC
  5
136
330
1F
100
AcDbEntity
  8
0
  6
Continuous
 62
     7
370
    25
100
AcDbCircle
 10
102.0073410742
 20
115.9831496993
 30
0.0
 40
17.02044914461308
100
AcDbArc
 50
12.1159628426
 51
23.2315353455
  0
LINE
  5
137
330
1F
100
AcDbEntity
  8
0
  6
Continuous
 62
     7
370
    25
100
AcDbLine
 10
118.6486562795
 20
119.5555882672
 30
0.0
 11
117.5415840486
 21
120.1946874625
 31
0.0
  0
ARC
  5
138
330
1F
100
AcDbEntity
  8
0
  6
Continuous
 62
     7
370
    25
100
AcDbCircle
 10
102.7243999105
 20
116.563255263
 30
0.0
 40
15.25569551355152
100
AcDbArc
 50
13.7707586255
 51
25.2061357864
  0
LINE
  5
139
330
1F
100
AcDbEntity
  8
0
  6
Continuous
 62
     7
370
    25
100
AcDbLine
 10
116.8525816736
 20
125.0017604514
 30
0.0
 11
116.5274702289
 21
123.0602926947
 31
0.0
  0
LINE
  5
13A
330
1F
100
AcDbEntity
  8
0
  6
Continuous
 62
     7
370
    25
100
AcDbLine
 10
117.897128034
 20
124.1860704369
 30
0.0
 11
116.8525816736
 21
125.0017604514
 31
0.0
  0
LINE
  5
13B
330
1F
100
AcDbEntity
  8
0
  6
Continuous
 62
     7
370
    25
100
AcDbLine
 10
117.7447302723
 20
123.2759968435
 30
0.0
 11
117.897128034
 21
124.1860704369
 31
0.0
  0
LINE
  5
13C
330
1F
100
AcDbEntity
  8
0
  6
Continuous
 62
     7
370
    25
100
AcDbLine
 10
117.7329257405
 20
123.2055037303
 30
0.0
 11
117.7447302723
 21
123.2759968435
 31
0.0
  0
LINE
  5
13D
330
1F
100
AcDbEntity
  8
0
  6
Continuous
 62
     7
370
    25
100
AcDbLine
 10
117.6477445635
 20
122.6968273633
 30
0.0
 11
117.7329257405
 21
123.2055037303
 31
0.0
  0
LINE
  5
13E
330
1F
100
AcDbEntity
  8
0
  6
Continuous
 62
     7
370
    25
100
AcDbLine
 10
127.0895161895
 20
129.4927231637
 30
0.0
 11
117.897128034
 21
124.1860704369
 31
0.0
  0
LINE
  5
13F
330
1F
100
AcDbEntity
  8
0
  6
Continuous
 62
     7
370
    25
100
AcDbLine
 10
126.044969829
 20
130.3084131783
 30
0.0
 11
116.8525816736
 21
125.0017604514
 31
0.0
  0
LINE
  5
140
330
1F
100
AcDbEntity
  8
0
  6
Continuous
 62
     7
370
    25
100
AcDbLine
 10
126.044969829
 20
130.3084131783
 30
0.0
 11
127.0895161895
 21
129.4927231637
 31
0.0
  0
LINE
  5
141
330
1F
100
AcDbEntity
  8
0
  6
Continuous
 62
     7
370
    25
100
AcDbLine
 10
127.0895161895
 20
129.4927231637
 30
0.0
 11
126.9371184277
 21
128.5826495703
 31
0.0
  0
LINE
  5
142
330
1F
100
AcDbEntity
  8
0
  6
Continuous
 62
     7
370
    25
100
AcDbLine
 10
126.8401327189
 20
128.0034800902
 30
0.0
 11
117.6477445635
 21
122.6968273633
 31
0.0
  0
ARC
  5
143
330
1F
100
AcDbEntity
  8
0
  6
Continuous
 62
     7
370
    25
100
AcDbCircle
 10
111.1997292296
 20
121.2898024261
 30
0.0
 40
17.02044914461289
100
AcDbArc
 50
12.1159628426
 51
23.2315353455
  0
SPLINE
  5
144
330
1F
100
AcDbEntity
  8
0
  6
Continuous
 62
     7
370
    25
100
AcDbSpline
210
0.0
220
0.0
230
1.0
 70
     8
 71
     3
 72
    22
 73
    18
 74
     0
 42
0.00000001
 43
0.00000001
 40
0.0
 40
0.0
 40
0.0
 40
0.0
 40
0.1250000000000001
 40
0.1250000000000001
 40
0.2500000000000001
 40
0.2500000000000001
 40
0.3750000000000002
 40
0.3750000000000002
 40
0.5000000000000002
 40
0.5000000000000002
 40
0.6250000000000002
 40
0.6250000000000002
 40
0.7500000000000002
 40
0.7500000000000002
 40
0.8750000000000001
 40
0.8750000000000001
 40
1.0
 40
1.0
 40
1.0
 40
1.0
 10
127.8410444349659
 20
124.8622409940761
 30
0.0
 10
127.7002880160064
 20
124.7809840430136
 30
0.0
 10
127.5658916101292
 20
124.6829084494057
 30
0.0
 10
127.3087605716022
 20
124.4549023357447
 30
0.0
 10
127.1847632150651
 20
124.3232291766595
 30
0.0
 10
126.9553975090032
 20
124.036494683617
 30
0.0
 10
126.8498505809437
 20
123.8819137254211
 30
0.0
 10
126.6547954541839
 20
123.5514217008899
 30
0.0
 10
126.5654180781684
 20
123.3750579831378
 30
0.0
 10
126.4081237504786
 20
123.0164653558814
 30
0.0
 10
126.3390776840937
 20
122.8324704647319
 30
0.0
 10
126.2186770839759
 20
122.4555719313194
 30
0.0
 10
126.168887853673
 20
122.2673602495408
 30
0.0
 10
126.0890172823469
 20
121.8967019971222
 30
0.0
 10
126.0585492299846
 20
121.7120102502571
 30
0.0
 10
126.0179208408769
 20
121.3549068510295
 30
0.0
 10
126.0077822671571
 20
121.1842461357223
 30
0.0
 10
126.0077822671571
 20
121.0217139454581
 30
0.0
  0
ARC
  5
145
330
1F
100
AcDbEntity
  8
0
  6
Continuous
 62
     7
370
    25
100
AcDbCircle
 10
110.3875542713
 20
119.2160124357
 30
0.0
 40
12.61522304402166
100
AcDbArc
 50
0.3217165601
 51
11.4303857296
  0
SPLINE
  5
146
330
1F
100
AcDbEntity
  8
0
  6
Continuous
 62
     7
370
    25
100
AcDbSpline
210
0.0
220
0.0
230
1.0
 70
     8
 71
     3
 72
    22
 73
    18
 74
     0
 42
0.00000001
 43
0.00000001
 40
0.0
 40
0.0
 40
0.0
 40
0.0
 40
0.125
 40
0.125
 40
0.25
 40
0.25
 40
0.375
 40
0.375
 40
0.5
 40
0.5
 40
0.625
 40
0.625
 40
0.75
 40
0.75
 40
0.875
 40
0.875
 40
1.0
 40
1.0
 40
1.0
 40
1.0
 10
121.0580347988513
 20
118.1642855540786
 30
0.0
 10
121.0580347988513
 20
118.3268216189354
 30
0.0
 10
121.0404358400709
 20
118.4806472051494
 30
0.0
 10
120.9720122484474
 20
118.7714606357654
 30
0.0
 10
120.9203125103065
 20
118.9098138224491
 30
0.0
 10
120.7873168384447
 20
119.1597030640784
 30
0.0
 10
120.7065270514207
 20
119.2714948493708
 30
0.0
 10
120.5182743036993
 20
119.4682510159158
 30
0.0
 10
120.4103331943925
 20
119.5529165028515
 30
0.0
 10
120.1783977724812
 20
119.6869350563874
 30
0.0
 10
120.0534427600316
 20
119.7374936694207
 30
0.0
 10
119.7868081256466
 20
119.8033411957948
 30
0.0
 10
119.6483922274788
 20
119.817649696991
 30
0.0
 10
119.3667081414073
 20
119.808670754309
 30
0.0
 10
119.2216854328061
 20
119.7851331372034
 30
0.0
 10
118.9322702661307
 20
119.698820830329
 30
0.0
 10
118.7894082767581
 20
119.6368426656735
 30
0.0
 10
118.6486562795408
 20
119.5555882672285
 30
0.0
  0
SPLINE
  5
147
330
1F
100
AcDbEntity
  8
0
  6
Continuous
 62
     7
370
    25
100
AcDbSpline
210
0.0
220
0.0
230
1.0
 70
     8
 71
     3
 72
     8
 73
     4
 74
     0
 42
0.00000001
 43
0.00000001
 40
0.0
 40
0.0
 40
0.0
 40
0.0
 40
1.0
 40
1.0
 40
1.0
 40
1.0
 10
126.9253138958963
 20
128.5121564571262
 30
0.0
 10
126.9306731118598
 20
128.5345054975905
 30
0.0
 10
126.9346187269525
 20
128.5580675241159
 30
0.0
 10
126.9371184276934
 20
128.5826495703154
 30
0.0
  0
LINE
  5
148
330
1F
100
AcDbEntity
  8
0
  6
Continuous
 62
     7
370
    25
100
AcDbLine
 10
126.8401327189
 20
128.0034800902
 30
0.0
 11
126.9253138959
 21
128.5121564571
 31
0.0
  0
SPLINE
  5
149
330
1F
100
AcDbEntity
  8
0
  6
Continuous
 62
     7
370
    25
100
AcDbSpline
210
0.0
220
0.0
230
1.0
 70
     8
 71
     3
 72
    11
 73
     7
 74
     0
 42
0.00000001
 43
0.00000001
 40
0.0
 40
0.0
 40
0.0
 40
0.0
 40
0.1959485756360334
 40
0.5339988844924924
 40
0.8721036102559742
 40
1.0
 40
1.0
 40
1.0
 40
1.0
 10
119.9973746270714
 20
118.7765916379456
 30
0.0
 10
119.9950455440158
 20
118.8524226322528
 30
0.0
 10
119.9886983289387
 20
119.0590771906672
 30
0.0
 10
119.9156330425217
 20
119.3713573269611
 30
0.0
 10
119.8098102222152
 20
119.6396920378161
 30
0.0
 10
119.7115161780683
 20
119.7639542369138
 30
0.0
 10
119.6845388748787
 20
119.7980586330566
 30
0.0
  0
LINE
  5
14A
330
1F
100
AcDbEntity
  8
0
  6
Continuous
 62
     7
370
    25
100
AcDbLine
 10
124.7703454001
 20
117.6510185429
 30
0.0
 11
123.8132298397
 21
122.3283678574
 31
0.0
  0
LINE
  5
14B
330
1F
100
AcDbEntity
  8
0
  6
Continuous
 62
     7
370
    25
100
AcDbLine
 10
124.7703454001
 20
117.6510185429
 30
0.0
 11
123.7096852283
 21
117.038712459
 31
0.0
  0
LINE
  5
14C
330
1F
100
AcDbEntity
  8
0
  6
Continuous
 62
     7
370
    25
100
AcDbLine
 10
123.7096852283
 20
117.038712459
 30
0.0
 11
122.7525696679
 21
121.7160617735
 31
0.0
  0
LINE
  5
14D
330
1F
100
AcDbEntity
  8
0
  6
Continuous
 62
     7
370
    25
100
AcDbLine
 10
123.0025784471
 20
111.121438589
 30
0.0
 11
123.7096852283
 21
110.7132345331
 31
0.0
  0
LINE
  5
14E
330
1F
100
AcDbEntity
  8
0
  6
Continuous
 62
     7
370
    25
100
AcDbLine
 10
123.0025784471
 20
119.2868467078
 30
0.0
 11
123.0025784471
 21
111.121438589
 31
0.0
  0
LINE
  5
14F
330
1F
100
AcDbEntity
  8
0
  6
Continuous
 62
     7
370
    25
100
AcDbLine
 10
123.7096852283
 20
110.7132345331
 30
0.0
 11
123.7096852283
 21
117.038712459
 31
0.0
  0
LINE
  5
150
330
1F
100
AcDbEntity
  8
0
  6
Continuous
 62
     7
370
    25
100
AcDbLine
 10
119.1134911506
 20
111.121438589
 30
0.0
 11
121.0580347989
 21
109.9988774352
 31
0.0
  0
LINE
  5
151
330
1F
100
AcDbEntity
  8
0
  6
Continuous
 62
     7
370
    25
100
AcDbLine
 10
119.1134911506
 20
111.121438589
 30
0.0
 11
119.1134911506
 21
115.3868491311
 31
0.0
  0
LINE
  5
152
330
1F
100
AcDbEntity
  8
0
  6
Continuous
 62
     7
370
    25
100
AcDbLine
 10
121.0580347989
 20
109.9988774352
 30
0.0
 11
121.0580347989
 21
118.1642855541
 31
0.0
  0
ARC
  5
153
330
1F
100
AcDbEntity
  8
0
  6
Continuous
 62
     7
370
    25
100
AcDbCircle
 10
113.9891842829
 20
118.5331330387
 30
0.0
 40
6.0131209285855
100
AcDbArc
 50
328.4504039376
 51
2.3204196745
  0
LINE
  5
154
330
1F
100
AcDbEntity
  8
0
  6
Continuous
 62
     7
370
    25
100
AcDbLine
 10
123.0025784471
 20
111.121438589
 30
0.0
 11
121.0580347989
 21
109.9988774352
 31
0.0
  0
LINE
  5
155
330
1F
100
AcDbEntity
  8
0
  6
Continuous
 62
     7
370
    25
100
AcDbLine
 10
124.7703454001
 20
111.3255406169
 30
0.0
 11
123.7096852283
 21
110.7132345331
 31
0.0
  0
LINE
  5
156
330
1F
100
AcDbEntity
  8
0
  6
Continuous
 62
     7
370
    25
100
AcDbLine
 10
124.7703454001
 20
111.3255406169
 30
0.0
 11
124.7703454001
 21
117.6510185429
 31
0.0
  0
LINE
  5
157
330
1F
100
AcDbEntity
  8
0
  6
Continuous
 62
     7
370
    25
100
AcDbLine
 10
126.0077822672
 20
112.8563058266
 30
0.0
 11
126.0077822672
 21
121.0217139455
 31
0.0
  0
LINE
  5
158
330
1F
100
AcDbEntity
  8
0
  6
Continuous
 62
     7
370
    25
100
AcDbLine
 10
126.0077822672
 20
112.8563058266
 30
0.0
 11
124.7703454001
 21
112.1419487288
 31
0.0
  0
LINE
  5
159
330
1F
100
AcDbEntity
  8
0
  6
Continuous
 62
     7
370
    25
100
AcDbLine
 10
119.8205979318
 20
106.3043785991
 30
0.0
 11
119.8205979318
 21
107.8558061417
 31
0.0
  0
LINE
  5
15A
330
1F
100
AcDbEntity
  8
0
  6
Continuous
 62
     7
370
    25
100
AcDbLine
 10
129.7200928684
 20
113.5706629244
 30
0.0
 11
119.8205979318
 21
107.8558061417
 31
0.0
  0
LINE
  5
15B
330
1F
100
AcDbEntity
  8
0
  6
Continuous
 62
     7
370
    25
100
AcDbLine
 10
129.7200928684
 20
113.5706629244
 30
0.0
 11
129.7200928684
 21
112.0192353819
 31
0.0
  0
LINE
  5
15C
330
1F
100
AcDbEntity
  8
0
  6
Continuous
 62
     7
370
    25
100
AcDbLine
 10
129.7200928684
 20
112.0192353819
 30
0.0
 11
124.7703454001
 21
109.1618069905
 31
0.0
  0
LINE
  5
15D
330
1F
100
AcDbEntity
  8
0
  6
Continuous
 62
     7
370
    25
100
AcDbLine
 10
119.8205979318
 20
106.3043785991
 30
0.0
 11
124.7703454001
 21
109.1618069905
 31
0.0
  0
LINE
  5
15E
330
1F
100
AcDbEntity
  8
0
  6
Continuous
 62
     7
370
    25
100
AcDbLine
 10
99.7387653461
 20
118.2117419996
 30
0.0
 11
99.7387653461
 21
115.7059918202
 31
0.0
  0
LINE
  5
15F
330
1F
100
AcDbEntity
  8
0
  6
Continuous
 62
     7
370
    25
100
AcDbLine
 10
101.4358216209
 20
116.9176840528
 30
0.0
 11
99.7387653461
 21
118.2117419996
 31
0.0
  0
LINE
  5
160
330
1F
100
AcDbEntity
  8
0
  6
Continuous
 62
     7
370
    25
100
AcDbLine
 10
101.4358216209
 20
118.4691115954
 30
0.0
 11
101.4358216209
 21
116.9176840528
 31
0.0
  0
LINE
  5
161
330
1F
100
AcDbEntity
  8
0
  6
Continuous
 62
     7
370
    25
100
AcDbLine
 10
106.7391224798
 20
115.407581176
 30
0.0
 11
101.4358216209
 21
118.4691115954
 31
0.0
  0
LINE
  5
162
330
1F
100
AcDbEntity
  8
0
  6
Continuous
 62
     7
370
    25
100
AcDbLine
 10
106.7391224798
 20
112.1414179285
 30
0.0
 11
106.7391224798
 21
115.407581176
 31
0.0
  0
LINE
  5
163
330
1F
100
AcDbEntity
  8
0
  6
Continuous
 62
     7
370
    25
100
AcDbLine
 10
106.7391224798
 20
112.1414179285
 30
0.0
 11
114.5172970729
 21
107.6511733135
 31
0.0
  0
LINE
  5
164
330
1F
100
AcDbEntity
  8
0
  6
Continuous
 62
     7
370
    25
100
AcDbLine
 10
114.5172970729
 20
107.6511733135
 30
0.0
 11
114.5172970729
 21
110.917336561
 31
0.0
  0
LINE
  5
165
330
1F
100
AcDbEntity
  8
0
  6
Continuous
 62
     7
370
    25
100
AcDbLine
 10
119.8205979318
 20
107.8558061417
 30
0.0
 11
114.5172970729
 21
110.917336561
 31
0.0
  0
LINE
  5
166
330
1F
100
AcDbEntity
  8
0
  6
Continuous
 62
     7
370
    25
100
AcDbLine
 10
118.0528309788
 20
107.6515050636
 30
0.0
 11
119.8205979318
 21
106.3043785991
 31
0.0
  0
LINE
  5
167
330
1F
100
AcDbEntity
  8
0
  6
Continuous
 62
     7
370
    25
100
AcDbLine
 10
118.0528309788
 20
105.1202285468
 30
0.0
 11
118.0528309788
 21
107.6515050636
 31
0.0
  0
LINE
  5
168
330
1F
100
AcDbEntity
  8
0
  6
Continuous
 62
     7
370
    25
100
AcDbLine
 10
119.8205979318
 20
104.4263347318
 30
0.0
 11
118.0528309788
 21
105.1202285468
 31
0.0
  0
LINE
  5
169
330
1F
100
AcDbEntity
  8
0
  6
Continuous
 62
     7
370
    25
100
AcDbLine
 10
119.8205979318
 20
99.6903980228
 30
0.0
 11
119.8205979318
 21
104.4263347318
 31
0.0
  0
LINE
  5
16A
330
1F
100
AcDbEntity
  8
0
  6
Continuous
 62
     7
370
    25
100
AcDbLine
 10
101.4358216209
 20
110.3037034765
 30
0.0
 11
119.8205979318
 21
99.6903980228
 31
0.0
  0
LINE
  5
16B
330
1F
100
AcDbEntity
  8
0
  6
Continuous
 62
     7
370
    25
100
AcDbLine
 10
101.4358216209
 20
115.0396401855
 30
0.0
 11
101.4358216209
 21
110.3037034765
 31
0.0
  0
LINE
  5
16C
330
1F
100
AcDbEntity
  8
0
  6
Continuous
 62
     7
370
    25
100
AcDbLine
 10
99.7387653461
 20
115.7059918202
 30
0.0
 11
101.4358216209
 21
115.0396401855
 31
0.0
  0
LINE
  5
16D
330
1F
100
AcDbEntity
  8
0
  6
Continuous
 62
     7
370
    25
100
AcDbLine
 10
119.1134911506
 20
113.5706629244
 30
0.0
 11
114.5172970729
 21
110.917336561
 31
0.0
  0
LINE
  5
16E
330
1F
100
AcDbEntity
  8
0
  6
Continuous
 62
     7
370
    25
100
AcDbLine
 10
126.0077822672
 20
115.713734218
 30
0.0
 11
129.7200928684
 21
113.5706629244
 31
0.0
  0
ARC
  5
16F
330
1F
100
AcDbEntity
  8
0
  6
Continuous
 62
     7
370
    25
100
AcDbCircle
 10
108.4633771982
 20
126.5009225291
 30
0.0
 40
4.23555630804316
100
AcDbArc
 50
135.6218871003
 51
162.5862658039
  0
LINE
  5
170
330
1F
100
AcDbEntity
  8
0
  6
Continuous
 62
     7
370
    25
100
AcDbLine
 10
103.3148700543
 20
128.4075946348
 30
0.0
 11
104.4219422852
 21
127.7684954395
 31
0.0
  0
ARC
  5
171
330
1F
100
AcDbEntity
  8
0
  6
Continuous
 62
     7
370
    25
100
AcDbCircle
 10
108.4165787702
 20
127.0809892309
 30
0.0
 40
5.271367348134538
100
AcDbArc
 50
141.0721668969
 51
165.4240887131
  0
LINE
  5
172
330
1F
100
AcDbEntity
  8
0
  6
Continuous
 62
     7
370
    25
100
AcDbLine
 10
104.2306005934
 20
131.0002301223
 30
0.0
 11
104.3157817704
 21
130.3932056618
 31
0.0
  0
LINE
  5
173
330
1F
100
AcDbEntity
  8
0
  6
Continuous
 62
     7
370
    25
100
AcDbLine
 10
104.2187960616
 20
131.0843524578
 30
0.0
 11
104.2306005934
 21
131.0002301223
 31
0.0
  0
LINE
  5
174
330
1F
100
AcDbEntity
  8
0
  6
Continuous
 62
     7
370
    25
100
AcDbLine
 10
104.0663982998
 20
132.1703807616
 30
0.0
 11
104.2187960616
 21
131.0843524578
 31
0.0
  0
LINE
  5
175
330
1F
100
AcDbEntity
  8
0
  6
Continuous
 62
     7
370
    25
100
AcDbLine
 10
105.1109446603
 20
131.7800632189
 30
0.0
 11
104.0663982998
 21
132.1703807616
 31
0.0
  0
LINE
  5
176
330
1F
100
AcDbEntity
  8
0
  6
Continuous
 62
     7
370
    25
100
AcDbLine
 10
105.436056105
 20
129.4632297781
 30
0.0
 11
105.1109446603
 21
131.7800632189
 31
0.0
  0
LINE
  5
177
330
1F
100
AcDbEntity
  8
0
  6
Continuous
 62
     7
370
    25
100
AcDbLine
 10
114.6284442604
 20
134.7698825049
 30
0.0
 11
105.436056105
 21
129.4632297781
 31
0.0
  0
LINE
  5
178
330
1F
100
AcDbEntity
  8
0
  6
Continuous
 62
     7
370
    25
100
AcDbLine
 10
114.3033328157
 20
137.0867159458
 30
0.0
 11
105.1109446603
 21
131.7800632189
 31
0.0
  0
LINE
  5
179
330
1F
100
AcDbEntity
  8
0
  6
Continuous
 62
     7
370
    25
100
AcDbLine
 10
114.6284442604
 20
134.7698825049
 30
0.0
 11
114.3033328157
 21
137.0867159458
 31
0.0
  0
LINE
  5
17A
330
1F
100
AcDbEntity
  8
0
  6
Continuous
 62
     7
370
    25
100
AcDbLine
 10
113.2587864553
 20
137.4770334884
 30
0.0
 11
104.0663982998
 21
132.1703807616
 31
0.0
  0
LINE
  5
17B
330
1F
100
AcDbEntity
  8
0
  6
Continuous
 62
     7
370
    25
100
AcDbLine
 10
113.2587864553
 20
137.4770334884
 30
0.0
 11
114.3033328157
 21
137.0867159458
 31
0.0
  0
LINE
  5
17C
330
1F
100
AcDbEntity
  8
0
  6
Continuous
 62
     7
370
    25
100
AcDbLine
 10
123.0025784471
 20
108.1412968507
 30
0.0
 11
123.0025784471
 21
107.9776569382
 31
0.0
  0
LINE
  5
17D
330
1F
100
AcDbEntity
  8
0
  6
Continuous
 62
     7
370
    25
100
AcDbLine
 10
118.0528309788
 20
105.1202285468
 30
0.0
 11
123.0025784471
 21
107.9776569382
 31
0.0
  0
LINE
  5
17E
330
1F
100
AcDbEntity
  8
0
  6
Continuous
 62
     7
370
    25
100
AcDbLine
 10
129.7200928684
 20
107.8684739467
 30
0.0
 11
129.7200928684
 21
105.4052548056
 31
0.0
  0
LINE
  5
17F
330
1F
100
AcDbEntity
  8
0
  6
Continuous
 62
     7
370
    25
100
AcDbLine
 10
129.7200928684
 20
105.4052548056
 30
0.0
 11
119.8205979318
 21
99.6903980228
 31
0.0
  0
LINE
  5
180
330
1F
100
AcDbEntity
  8
0
  6
Continuous
 62
     7
370
    25
100
AcDbLine
 10
119.8205979318
 20
104.4263347318
 30
0.0
 11
124.7703454001
 21
107.2837631231
 31
0.0
  0
LINE
  5
181
330
1F
100
AcDbEntity
  8
0
  6
Continuous
 62
     7
370
    25
100
AcDbLine
 10
123.0025784471
 20
107.9776569382
 30
0.0
 11
124.7703454001
 21
107.2837631231
 31
0.0
  0
SPLINE
  5
182
330
1F
100
AcDbEntity
  8
0
  6
Continuous
 62
     7
370
    25
100
AcDbSpline
210
0.0
220
0.0
230
1.0
 70
     8
 71
     3
 72
    20
 73
    16
 74
     0
 42
0.00000001
 43
0.00000001
 40
0.0
 40
0.0
 40
0.0
 40
0.0
 40
0.1250000000000001
 40
0.1250000000000001
 40
0.2500000000000002
 40
0.2500000000000002
 40
0.3750000000000003
 40
0.3750000000000003
 40
0.5000000000000004
 40
0.5000000000000004
 40
0.7500000000000011
 40
0.7500000000000011
 40
0.8750000000000006
 40
0.8750000000000006
 40
1.0
 40
1.0
 40
1.0
 40
1.0
 10
113.6143304406672
 20
133.0751481663403
 30
0.0
 10
113.473200314531
 20
132.9936754787168
 30
0.0
 10
113.3300584684824
 20
132.900200187553
 30
0.0
 10
113.0404671118921
 20
132.6900378785028
 30
0.0
 10
112.8923579423589
 20
132.5718137094669
 30
0.0
 10
112.6042027331445
 20
132.3186455023217
 30
0.0
 10
112.464031267891
 20
132.1839234622021
 30
0.0
 10
112.1933303066435
 20
131.8968403811589
 30
0.0
 10
112.0631082967316
 20
131.7443893067339
 30
0.0
 10
111.7065301207393
 20
131.2766441052324
 30
0.0
 10
111.5057192045513
 20
130.9385948219823
 30
0.0
 10
111.3011238828763
 20
130.4311571863927
 30
0.0
 10
111.2476235685127
 20
130.2589387386374
 30
0.0
 10
111.1763684868465
 20
129.9200677074579
 30
0.0
 10
111.1585398622396
 20
129.7549593094738
 30
0.0
 10
111.1585398622396
 20
129.5939991195965
 30
0.0
  0
ARC
  5
183
330
1F
100
AcDbEntity
  8
0
  6
Continuous
 62
     7
370
    25
100
AcDbCircle
 10
123.8178438827
 20
129.8374229163
 30
0.0
 40
12.66164418340446
100
AcDbArc
 50
181.1015959144
 51
201.5640590745
  0
LINE
  5
184
330
1F
100
AcDbEntity
  8
0
  6
Continuous
 62
     7
370
    25
100
AcDbLine
 10
112.0424233387
 20
125.183746473
 30
0.0
 11
107.0926758704
 21
122.3263180816
 31
0.0
  0
ARC
  5
185
330
1F
100
AcDbEntity
  8
0
  6
Continuous
 62
     7
370
    25
100
AcDbCircle
 10
118.8680964144
 20
126.979994525
 30
0.0
 40
12.66164418340432
100
AcDbArc
 50
181.1015959144
 51
201.5640590745
  0
SPLINE
  5
186
330
1F
100
AcDbEntity
  8
0
  6
Continuous
 62
     7
370
    25
100
AcDbSpline
210
0.0
220
0.0
230
1.0
 70
     8
 71
     3
 72
    22
 73
    18
 74
     0
 42
0.00000001
 43
0.00000001
 40
0.0
 40
0.0
 40
0.0
 40
0.0
 40
0.125
 40
0.125
 40
0.25
 40
0.25
 40
0.375
 40
0.375
 40
0.5
 40
0.5
 40
0.625
 40
0.625
 40
0.75
 40
0.75
 40
0.875
 40
0.875
 40
1.0
 40
1.0
 40
1.0
 40
1.0
 10
106.2087923939338
 20
126.736570728217
 30
0.0
 10
106.2087923939338
 20
126.8973261022734
 30
0.0
 10
106.1990994547444
 20
127.0499736581716
 30
0.0
 10
106.1609870735402
 20
127.3236196896581
 30
0.0
 10
106.1327136170423
 20
127.4464273705159
 30
0.0
 10
106.0561920830659
 20
127.6644747681493
 30
0.0
 10
106.008558194063
 20
127.7574076578341
 30
0.0
 10
105.8951459542691
 20
127.9101378588419
 30
0.0
 10
105.8283807832737
 20
127.9709874212383
 30
0.0
 10
105.676415403131
 20
128.0586625271159
 30
0.0
 10
105.5919781961687
 20
128.0855411143916
 30
0.0
 10
105.4036889580614
 20
128.1072172284637
 30
0.0
 10
105.2987127432896
 20
128.1015619049441
 30
0.0
 10
105.0749493625838
 20
128.0587552567875
 30
0.0
 10
104.9554781879163
 20
128.0219572021755
 30
0.0
 10
104.6991981166476
 20
127.9175233262474
 30
0.0
 10
104.5629032275113
 20
127.8498704593487
 30
0.0
 10
104.421942285242
 20
127.7684954394927
 30
0.0
  0
ARC
  5
187
330
1F
100
AcDbEntity
  8
0
  6
Continuous
 62
     7
370
    25
100
AcDbCircle
 10
117.6557653536
 20
131.8075752559
 30
0.0
 40
4.235556308043362
100
AcDbArc
 50
135.6218871003
 51
162.5862658039
  0
LINE
  5
188
330
1F
100
AcDbEntity
  8
0
  6
Continuous
 62
     7
370
    25
100
AcDbLine
 10
126.4674016749
 20
108.4964854689
 30
0.0
 11
124.7703454001
 21
109.1618069905
 31
0.0
  0
LINE
  5
189
330
1F
100
AcDbEntity
  8
0
  6
Continuous
 62
     7
370
    25
100
AcDbLine
 10
126.4674016749
 20
105.9907352895
 30
0.0
 11
126.4674016749
 21
108.4964854689
 31
0.0
  0
LINE
  5
18A
330
1F
100
AcDbEntity
  8
0
  6
Continuous
 62
     7
370
    25
100
AcDbLine
 10
124.7703454001
 20
107.2837631231
 30
0.0
 11
126.4674016749
 21
105.9907352895
 31
0.0
  0
LINE
  5
18B
330
1F
100
AcDbEntity
  8
0
  6
Continuous
 62
     7
370
    25
100
AcDbLine
 10
129.7200928684
 20
112.0192353819
 30
0.0
 11
131.4171491432
 21
111.3539138603
 31
0.0
  0
LINE
  5
18C
330
1F
100
AcDbEntity
  8
0
  6
Continuous
 62
     7
370
    25
100
AcDbLine
 10
126.4674016749
 20
108.4964854689
 30
0.0
 11
131.4171491432
 21
111.3539138603
 31
0.0
  0
LINE
  5
18D
330
1F
100
AcDbEntity
  8
0
  6
Continuous
 62
     7
370
    25
100
AcDbLine
 10
131.4171491432
 20
111.3539138603
 30
0.0
 11
131.4171491432
 21
108.8481636809
 31
0.0
  0
LINE
  5
18E
330
1F
100
AcDbEntity
  8
0
  6
Continuous
 62
     7
370
    25
100
AcDbLine
 10
126.4674016749
 20
105.9907352895
 30
0.0
 11
131.4171491432
 21
108.8481636809
 31
0.0
  0
SPLINE
  5
18F
330
1F
100
AcDbEntity
  8
0
  6
Continuous
 62
     7
370
    25
100
AcDbSpline
210
0.0
220
0.0
230
1.0
 70
     8
 71
     3
 72
     9
 73
     5
 74
     0
 42
0.00000001
 43
0.00000001
 40
0.0
 40
0.0
 40
0.0
 40
0.0
 40
0.5072934219060773
 40
1.0
 40
1.0
 40
1.0
 40
1.0
 10
105.148132222154
 20
127.3488768120841
 30
0.0
 10
105.144567963982
 20
127.480619393046
 30
0.0
 10
105.1375419352222
 20
127.7403163953587
 30
0.0
 10
105.0889470858931
 20
127.948320858752
 30
0.0
 10
105.0650040839672
 20
128.0508060261387
 30
0.0
  0
LINE
  5
190
330
1F
100
AcDbEntity
  8
0
  6
Continuous
 62
     7
370
    25
100
AcDbLine
 10
116.6386174164
 20
117.8562747113
 30
0.0
 11
106.7391224798
 21
112.1414179285
 31
0.0
  0
LINE
  5
191
330
1F
100
AcDbEntity
  8
0
  6
Continuous
 62
     7
370
    25
100
AcDbLine
 10
116.6386174164
 20
117.8562747113
 30
0.0
 11
117.6992775882
 21
117.2439686274
 31
0.0
  0
LINE
  5
192
330
1F
100
AcDbEntity
  8
0
  6
Continuous
 62
     7
370
    25
100
AcDbLine
 10
119.1134911506
 20
115.2029483478
 30
0.0
 11
117.6992775882
 21
116.0193564597
 31
0.0
  0
ARC
  5
193
330
1F
100
AcDbEntity
  8
0
  6
Continuous
 62
     7
370
    25
100
AcDbCircle
 10
115.5463517312
 20
114.5783740399
 30
0.0
 40
2.981072476839867
100
AcDbArc
 50
242.3677022405
 51
272.9971763819
  0
LWPOLYLINE
  5
194
330
1F
100
AcDbEntity
  8
0
  6
Continuous
 62
     7
370
    25
100
AcDbPolyline
 90
       35
 70
   128
 43
0.0
 10
117.5740930607
 20
112.6819873232
 10
117.5777200905
 20
112.7359442952
 10
117.5663477082
 20
112.8779460326
 10
117.5248333534
 20
113.0180646907
 10
117.4538063413
 20
113.1541762136
 10
117.354343369
 20
113.2842172893
 10
117.2279521939
 20
113.4062166278
 10
117.0765487772
 20
113.5183248432
 10
116.9024282404
 20
113.6188424895
 10
116.7082300735
 20
113.7062458215
 10
116.4968981226
 20
113.7792098939
 10
116.2716359647
 20
113.8366286456
 10
116.0358583446
 20
113.8776316669
 10
115.7931394105
 20
113.9015973938
 10
115.5471585341
 20
113.9081625303
 10
115.3016445348
 20
113.8972275557
 10
115.0603191545
 20
113.868958233
 10
114.8268406399
 20
113.8237830963
 10
114.6047482875
 20
113.7623869546
 10
114.3974087909
 20
113.6857005109
 10
114.2079652054
 20
113.5948862535
 10
114.0392893027
 20
113.491320834
 10
113.8939380376
 20
113.3765741985
 10
113.7741147871
 20
113.2523857891
 10
113.6816359495
 20
113.1206381754
 10
113.6179034097
 20
112.9833285171
 10
113.5838832881
 20
112.8425382885
 10
113.5800912951
 20
112.700401726
 10
113.6065849133
 20
112.559073475
 10
113.6629625265
 20
112.4206959278
 10
113.7483695077
 20
112.2873667468
 10
113.8615111739
 20
112.1611070667
 10
114.000672413
 20
112.0438308553
 10
114.1637436823
 20
111.9373159005
 10
114.1637436823
 20
111.9373159005
  0
LINE
  5
195
330
1F
100
AcDbEntity
  8
0
  6
Continuous
 62
     7
370
    25
100
AcDbLine
 10
107.0926758704
 20
118.0609075395
 30
0.0
 11
107.0926758704
 21
122.3263180816
 31
0.0
  0
LINE
  5
196
330
1F
100
AcDbEntity
  8
0
  6
Continuous
 62
     7
370
    25
100
AcDbLine
 10
107.0926758704
 20
118.0609075395
 30
0.0
 11
105.1481322222
 21
119.1834686932
 31
0.0
  0
LINE
  5
197
330
1F
100
AcDbEntity
  8
0
  6
Continuous
 62
     7
370
    25
100
AcDbLine
 10
105.1481322222
 20
119.1834686932
 30
0.0
 11
105.1481322222
 21
127.3488768121
 31
0.0
  0
LINE
  5
198
330
1F
100
AcDbEntity
  8
0
  6
Continuous
 62
     7
370
    25
100
AcDbLine
 10
116.6386174164
 20
121.1224379588
 30
0.0
 11
106.7391224798
 21
115.407581176
 31
0.0
  0
LINE
  5
199
330
1F
100
AcDbEntity
  8
0
  6
Continuous
 62
     7
370
    25
100
AcDbLine
 10
116.6386174164
 20
121.1224379588
 30
0.0
 11
116.6386174164
 21
117.8562747113
 31
0.0
  0
LINE
  5
19A
330
1F
100
AcDbEntity
  8
0
  6
Continuous
 62
     7
370
    25
100
AcDbLine
 10
112.0424233387
 20
120.9183359308
 30
0.0
 11
107.0926758704
 21
118.0609075395
 31
0.0
  0
LINE
  5
19B
330
1F
100
AcDbEntity
  8
0
  6
Continuous
 62
     7
370
    25
100
AcDbLine
 10
105.1481322222
 20
120.6121828889
 30
0.0
 11
101.4358216209
 21
118.4691115954
 31
0.0
  0
LINE
  5
19C
330
1F
100
AcDbEntity
  8
0
  6
Continuous
 62
     7
370
    25
100
AcDbLine
 10
112.0424233387
 20
123.7757643222
 30
0.0
 11
116.6386174164
 21
121.1224379588
 31
0.0
  0
LINE
  5
19D
330
1F
100
AcDbEntity
  8
0
  6
Continuous
 62
     7
370
    25
100
AcDbLine
 10
112.0424233387
 20
120.9183359308
 30
0.0
 11
112.0424233387
 21
125.183746473
 31
0.0
  0
LINE
  5
19E
330
1F
100
AcDbEntity
  8
0
  6
Continuous
 62
     7
370
    25
100
AcDbLine
 10
117.6992775882
 20
119.2855197072
 30
0.0
 11
118.4078785124
 21
119.6945863135
 31
0.0
  0
LINE
  5
19F
330
1F
100
AcDbEntity
  8
0
  6
Continuous
 62
     7
370
    25
100
AcDbLine
 10
119.9609101557
 20
117.9799070167
 30
0.0
 11
117.6992775882
 21
119.2855197072
 31
0.0
  0
LINE
  5
1A0
330
1F
100
AcDbEntity
  8
0
  6
Continuous
 62
     7
370
    25
100
AcDbLine
 10
119.9395279543
 20
119.2168628666
 30
0.0
 11
119.051987176
 21
119.7292292519
 31
0.0
  0
LINE
  5
1A1
330
1F
100
AcDbEntity
  8
0
  6
Continuous
 62
     7
370
    25
100
AcDbLine
 10
117.6992775882
 20
116.0193564597
 30
0.0
 11
117.6992775882
 21
119.2855197072
 31
0.0
  0
LINE
  5
1A2
330
1F
100
AcDbEntity
  8
0
  6
Continuous
 62
     7
370
    25
100
AcDbLine
 10
104.6885128144
 20
121.0691703909
 30
0.0
 11
99.7387653461
 21
118.2117419996
 31
0.0
  0
LINE
  5
1A3
330
1F
100
AcDbEntity
  8
0
  6
Continuous
 62
     7
370
    25
100
AcDbLine
 10
105.1481322222
 20
120.7186963637
 30
0.0
 11
104.6885128144
 21
121.0691703909
 31
0.0
  0
LINE
  5
1A4
330
1F
100
AcDbEntity
  8
0
  6
Continuous
 62
     7
370
    25
100
AcDbLine
 10
126.0077822672
 20
121.0217139455
 30
0.0
 11
124.284211388
 21
120.026717656
 31
0.0
  0
LINE
  5
1A5
330
1F
100
AcDbEntity
  8
0
  6
Continuous
 62
     7
370
    25
100
AcDbLine
 10
123.8132298397
 20
122.3283678574
 30
0.0
 11
122.7525696679
 21
121.7160617735
 31
0.0
  0
LINE
  5
1A6
330
1F
100
AcDbEntity
  8
0
  6
Continuous
 62
     7
370
    25
100
AcDbLine
 10
123.0025784471
 20
119.2868467078
 30
0.0
 11
121.0580347989
 21
118.1642855541
 31
0.0
  0
LINE
  5
1A7
330
1F
100
AcDbEntity
  8
0
  6
Continuous
 62
     7
370
    25
100
AcDbLine
 10
121.0580347989
 20
118.1642855541
 30
0.0
 11
119.9973746271
 21
118.7765916379
 31
0.0
  0
LINE
  5
1A8
330
1F
100
AcDbEntity
  8
0
  6
Continuous
 62
     7
370
    25
100
AcDbLine
 10
105.1481322222
 20
127.3488768121
 30
0.0
 11
106.2087923939
 21
126.7365707282
 31
0.0
  0
ENDSEC
  0
SECTION
  2
OBJECTS
  0
DICTIONARY
  5
C
330
0
100
AcDbDictionary
281
     1
  3
ACAD_GROUP
350
D
  3
ACAD_LAYOUT
350
1A
  3
ACAD_MLINESTYLE
350
17
  3
ACAD_PLOTSETTINGS
350
19
  3
ACAD_PLOTSTYLENAME
350
E
  3
ACAD_SCALELIST
350
47
  3
DWGPROPS
350
1A9
  0
DICTIONARY
  5
D
102
{ACAD_REACTORS
330
C
102
}
330
C
100
AcDbDictionary
281
     1
  0
DICTIONARY
  5
1A
102
{ACAD_REACTORS
330
C
102
}
330
C
100
AcDbDictionary
281
     1
  3
Layout1
350
1E
  3
Layout2
350
26
  3
Model
350
22
  0
DICTIONARY
  5
17
102
{ACAD_REACTORS
330
C
102
}
330
C
100
AcDbDictionary
281
     1
  3
Standard
350
18
  0
DICTIONARY
  5
19
102
{ACAD_REACTORS
330
C
102
}
330
C
100
AcDbDictionary
281
     1
  0
ACDBDICTIONARYWDFLT
  5
E
102
{ACAD_REACTORS
330
C
102
}
330
C
100
AcDbDictionary
281
     1
  3
Normal
350
F
100
AcDbDictionaryWithDefault
340
F
  0
DICTIONARY
  5
47
102
{ACAD_REACTORS
330
C
102
}
330
C
100
AcDbDictionary
281
     1
  3
A0
350
48
  3
A1
350
49
  3
A2
350
4A
  3
A3
350
4B
  3
A4
350
4C
  3
A5
350
4D
  3
A6
350
4E
  3
A7
350
4F
  3
A8
350
50
  3
A9
350
51
  3
B0
350
52
  3
B1
350
53
  3
B2
350
54
  3
B3
350
55
  3
B4
350
56
  3
B5
350
57
  3
B6
350
58
  0
XRECORD
  5
1A9
102
{ACAD_REACTORS
330
C
102
}
330
C
100
AcDbXrecord
280
     1
  1
DWGPROPS COOKIE
  2

  3

  4

  6

  7

  8
grigorievsin
  9

300
=
301
=
302
=
303
=
304
=
305
=
306
=
307
=
308
=
309
=
 40
0.0
 41
2459912.457999109
 42
2459912.457999826
  1

 90
        0
  0
LAYOUT
  5
1E
102
{ACAD_REACTORS
330
1A
102
}
330
1A
100
AcDbPlotSettings
  1

  2
none_device
  4

  6

 40
0.0
 41
0.0
 42
0.0
 43
0.0
 44
0.0
 45
0.0
 46
0.0
 47
0.0
 48
0.0
 49
0.0
140
0.0
141
0.0
142
1.0
143
1.0
 70
   688
 72
     1
 73
     0
 74
     5
  7

 75
    16
147
1.0
148
0.0
149
0.0
100
AcDbLayout
  1
Layout1
 70
     1
 71
     1
 10
0.0
 20
0.0
 11
420.0
 21
297.0
 12
0.0
 22
0.0
 32
0.0
 14
1.0000000000E+20
 24
1.0000000000E+20
 34
1.0000000000E+20
 15
-1.0000000000E+20
 25
-1.0000000000E+20
 35
-1.0000000000E+20
146
0.0
 13
0.0
 23
0.0
 33
0.0
 16
1.0
 26
0.0
 36
0.0
 17
0.0
 27
1.0
 37
0.0
 76
     0
330
1B
  0
LAYOUT
  5
26
102
{ACAD_REACTORS
330
1A
102
}
330
1A
100
AcDbPlotSettings
  1

  2
none_device
  4

  6

 40
0.0
 41
0.0
 42
0.0
 43
0.0
 44
0.0
 45
0.0
 46
0.0
 47
0.0
 48
0.0
 49
0.0
140
0.0
141
0.0
142
1.0
143
1.0
 70
   688
 72
     1
 73
     0
 74
     5
  7

 75
    16
147
1.0
148
0.0
149
0.0
100
AcDbLayout
  1
Layout2
 70
     1
 71
     2
 10
0.0
 20
0.0
 11
0.0
 21
0.0
 12
0.0
 22
0.0
 32
0.0
 14
0.0
 24
0.0
 34
0.0
 15
0.0
 25
0.0
 35
0.0
146
0.0
 13
0.0
 23
0.0
 33
0.0
 16
1.0
 26
0.0
 36
0.0
 17
0.0
 27
1.0
 37
0.0
 76
     0
330
23
  0
LAYOUT
  5
22
102
{ACAD_REACTORS
330
1A
102
}
330
1A
100
AcDbPlotSettings
  1

  2
none_device
  4
Letter_(8.50_x_11.00_Inches)
  6

 40
6.35
 41
6.35
 42
6.35000508
 43
6.35000508
 44
215.9
 45
279.4
 46
0.0
 47
0.0
 48
0.0
 49
0.0
140
0.0
141
0.0
142
1.0
143
1.0
 70
  1712
 72
     1
 73
     0
 74
     0
  7

 75
     0
147
1.0
148
0.0
149
0.0
100
AcDbLayout
  1
Model
 70
     1
 71
     0
 10
0.0
 20
0.0
 11
210.0
 21
148.0
 12
0.0
 22
0.0
 32
0.0
 14
0.0
 24
0.0
 34
0.0
 15
210.0
 25
148.0
 35
0.0
146
0.0
 13
0.0
 23
0.0
 33
0.0
 16
1.0
 26
0.0
 36
0.0
 17
0.0
 27
1.0
 37
0.0
 76
     0
330
1F
331
29
  0
MLINESTYLE
  5
18
102
{ACAD_REACTORS
330
17
102
}
330
17
100
AcDbMlineStyle
  2
Standard
 70
     0
  3

 62
   256
 51
90.0
 52
90.0
 71
     2
 49
0.5
 62
   256
  6
BYLAYER
 49
-0.5
 62
   256
  6
BYLAYER
  0
ACDBPLACEHOLDER
  5
F
102
{ACAD_REACTORS
330
E
102
}
330
E
  0
SCALE
  5
48
102
{ACAD_REACTORS
330
47
102
}
330
47
100
AcDbScale
 70
     0
300
1:1
140
1.0
141
1.0
290
     1
  0
SCALE
  5
49
102
{ACAD_REACTORS
330
47
102
}
330
47
100
AcDbScale
 70
     0
300
1:2
140
1.0
141
2.0
290
     0
  0
SCALE
  5
4A
102
{ACAD_REACTORS
330
47
102
}
330
47
100
AcDbScale
 70
     0
300
1:4
140
1.0
141
4.0
290
     0
  0
SCALE
  5
4B
102
{ACAD_REACTORS
330
47
102
}
330
47
100
AcDbScale
 70
     0
300
1:5
140
1.0
141
5.0
290
     0
  0
SCALE
  5
4C
102
{ACAD_REACTORS
330
47
102
}
330
47
100
AcDbScale
 70
     0
300
1:8
140
1.0
141
8.0
290
     0
  0
SCALE
  5
4D
102
{ACAD_REACTORS
330
47
102
}
330
47
100
AcDbScale
 70
     0
300
1:10
140
1.0
141
10.0
290
     0
  0
SCALE
  5
4E
102
{ACAD_REACTORS
330
47
102
}
330
47
100
AcDbScale
 70
     0
300
1:16
140
1.0
141
16.0
290
     0
  0
SCALE
  5
4F
102
{ACAD_REACTORS
330
47
102
}
330
47
100
AcDbScale
 70
     0
300
1:20
140
1.0
141
20.0
290
     0
  0
SCALE
  5
50
102
{ACAD_REACTORS
330
47
102
}
330
47
100
AcDbScale
 70
     0
300
1:30
140
1.0
141
30.0
290
     0
  0
SCALE
  5
51
102
{ACAD_REACTORS
330
47
102
}
330
47
100
AcDbScale
 70
     0
300
1:40
140
1.0
141
40.0
290
     0
  0
SCALE
  5
52
102
{ACAD_REACTORS
330
47
102
}
330
47
100
AcDbScale
 70
     0
300
1:50
140
1.0
141
50.0
290
     0
  0
SCALE
  5
53
102
{ACAD_REACTORS
330
47
102
}
330
47
100
AcDbScale
 70
     0
300
1:100
140
1.0
141
100.0
290
     0
  0
SCALE
  5
54
102
{ACAD_REACTORS
330
47
102
}
330
47
100
AcDbScale
 70
     0
300
2:1
140
2.0
141
1.0
290
     0
  0
SCALE
  5
55
102
{ACAD_REACTORS
330
47
102
}
330
47
100
AcDbScale
 70
     0
300
4:1
140
4.0
141
1.0
290
     0
  0
SCALE
  5
56
102
{ACAD_REACTORS
330
47
102
}
330
47
100
AcDbScale
 70
     0
300
8:1
140
8.0
141
1.0
290
     0
  0
SCALE
  5
57
102
{ACAD_REACTORS
330
47
102
}
330
47
100
AcDbScale
 70
     0
300
10:1
140
10.0
141
1.0
290
     0
  0
SCALE
  5
58
102
{ACAD_REACTORS
330
47
102
}
330
47
100
AcDbScale
 70
     0
300
100:1
140
100.0
141
1.0
290
     0
  0
ENDSEC
  0
EOF
