  0
SECTION
  2
HEADER
  9
$ACADVER
  1
AC1015
  9
$ACADMAINTVER
 70
     6
  9
$DWGCODEPAGE
  3
ANSI_1251
  9
$INSBASE
 10
0.0
 20
0.0
 30
0.0
  9
$EXTMIN
 10
0.0
 20
0.0
 30
0.0
  9
$EXTMAX
 10
3000.0
 20
2000.0
 30
0.0
  9
$LIMMIN
 10
0.0
 20
0.0
  9
$LIMMAX
 10
3000.0
 20
2000.0
  9
$ORTHOMODE
 70
     0
  9
$REGENMODE
 70
     1
  9
$FILLMODE
 70
     1
  9
$QTEXTMODE
 70
     0
  9
$MIRRTEXT
 70
     1
  9
$LTSCALE
 40
1.0
  9
$ATTMODE
 70
     1
  9
$TEXTSIZE
 40
3.5
  9
$TRACEWID
 40
1.0
  9
$TEXTSTYLE
  7
Standard
  9
$CLAYER
  8
0
  9
$CELTYPE
  6
ByLayer
  9
$CECOLOR
 62
   256
  9
$CELTSCALE
 40
1.0
  9
$DISPSILH
 70
     0
  9
$DIMSCALE
 40
1.0
  9
$DIMASZ
 40
3.302
  9
$DIMEXO
 40
0.0
  9
$DIMDLI
 40
3.75
  9
$DIMRND
 40
0.0
  9
$DIMDLE
 40
0.0
  9
$DIMEXE
 40
1.0
  9
$DIMTP
 40
0.0
  9
$DIMTM
 40
0.0
  9
$DIMTXT
 40
3.5
  9
$DIMCEN
 40
2.5
  9
$DIMTSZ
 40
0.0
  9
$DIMTOL
 70
     0
  9
$DIMLIM
 70
     0
  9
$DIMTIH
 70
     1
  9
$DIMTOH
 70
     1
  9
$DIMSE1
 70
     0
  9
$DIMSE2
 70
     0
  9
$DIMTAD
 70
     1
  9
$DIMZIN
 70
     0
  9
$DIMBLK
  1

  9
$DIMASO
 70
     1
  9
$DIMSHO
 70
     1
  9
$DIMPOST
  1

  9
$DIMAPOST
  1

  9
$DIMALT
 70
     0
  9
$DIMALTD
 70
     3
  9
$DIMALTF
 40
0.0393700787
  9
$DIMLFAC
 40
1.0
  9
$DIMTOFL
 70
     1
  9
$DIMTVP
 40
0.0
  9
$DIMTIX
 70
     0
  9
$DIMSOXD
 70
     0
  9
$DIMSAH
 70
     0
  9
$DIMBLK1
  1

  9
$DIMBLK2
  1

  9
$DIMSTYLE
  2
ISO-25
  9
$DIMCLRD
 70
     0
  9
$DIMCLRE
 70
     0
  9
$DIMCLRT
 70
     0
  9
$DIMTFAC
 40
1.0
  9
$DIMGAP
 40
1.524
  9
$DIMJUST
 70
     0
  9
$DIMSD1
 70
     0
  9
$DIMSD2
 70
     0
  9
$DIMTOLJ
 70
     0
  9
$DIMTZIN
 70
     0
  9
$DIMALTZ
 70
     0
  9
$DIMALTTZ
 70
     0
  9
$DIMUPT
 70
     0
  9
$DIMDEC
 70
     2
  9
$DIMTDEC
 70
     2
  9
$DIMALTU
 70
     2
  9
$DIMALTTD
 70
     3
  9
$DIMTXSTY
  7
Standard
  9
$DIMAUNIT
 70
     0
  9
$DIMADEC
 70
     2
  9
$DIMALTRND
 40
0.0
  9
$DIMAZIN
 70
     0
  9
$DIMDSEP
 70
    44
  9
$DIMATFIT
 70
     3
  9
$DIMFRAC
 70
     0
  9
$DIMLDRBLK
  1

  9
$DIMLUNIT
 70
     2
  9
$DIMLWD
 70
    -2
  9
$DIMLWE
 70
    -2
  9
$DIMTMOVE
 70
     0
  9
$LUNITS
 70
     2
  9
$LUPREC
 70
     1
  9
$SKETCHINC
 40
1.0
  9
$FILLETRAD
 40
10.0
  9
$AUNITS
 70
     1
  9
$AUPREC
 70
     2
  9
$MENU
  1
.
  9
$ELEVATION
 40
0.0
  9
$PELEVATION
 40
0.0
  9
$THICKNESS
 40
0.0
  9
$LIMCHECK
 70
     0
  9
$CHAMFERA
 40
0.0
  9
$CHAMFERB
 40
0.0
  9
$CHAMFERC
 40
0.0
  9
$CHAMFERD
 40
0.0
  9
$SKPOLY
 70
     0
  9
$TDCREATE
 40
2459491.574404676
  9
$TDUCREATE
 40
2459491.449404676
  9
$TDUPDATE
 40
2459491.57440875
  9
$TDUUPDATE
 40
2459491.44940875
  9
$TDINDWG
 40
0.0000000116
  9
$TDUSRTIMER
 40
0.0000000116
  9
$USRTIMER
 70
     1
  9
$ANGBASE
 50
0.0
  9
$ANGDIR
 70
     0
  9
$PDMODE
 70
     0
  9
$PDSIZE
 40
-1.0
  9
$PLINEWID
 40
0.0
  9
$SPLFRAME
 70
     0
  9
$SPLINETYPE
 70
     6
  9
$SPLINESEGS
 70
     8
  9
$HANDSEED
  5
238
  9
$SURFTAB1
 70
     6
  9
$SURFTAB2
 70
     6
  9
$SURFTYPE
 70
     6
  9
$SURFU
 70
     6
  9
$SURFV
 70
     6
  9
$UCSBASE
  2

  9
$UCSNAME
  2

  9
$UCSORG
 10
0.0
 20
0.0
 30
0.0
  9
$UCSXDIR
 10
1.0
 20
0.0
 30
0.0
  9
$UCSYDIR
 10
0.0
 20
1.0
 30
0.0
  9
$UCSORTHOREF
  2

  9
$UCSORTHOVIEW
 70
     0
  9
$UCSORGTOP
 10
0.0
 20
0.0
 30
0.0
  9
$UCSORGBOTTOM
 10
0.0
 20
0.0
 30
0.0
  9
$UCSORGLEFT
 10
0.0
 20
0.0
 30
0.0
  9
$UCSORGRIGHT
 10
0.0
 20
0.0
 30
0.0
  9
$UCSORGFRONT
 10
0.0
 20
0.0
 30
0.0
  9
$UCSORGBACK
 10
0.0
 20
0.0
 30
0.0
  9
$PUCSBASE
  2

  9
$PUCSNAME
  2

  9
$PUCSORG
 10
0.0
 20
0.0
 30
0.0
  9
$PUCSXDIR
 10
1.0
 20
0.0
 30
0.0
  9
$PUCSYDIR
 10
0.0
 20
1.0
 30
0.0
  9
$PUCSORTHOREF
  2

  9
$PUCSORTHOVIEW
 70
     0
  9
$PUCSORGTOP
 10
0.0
 20
0.0
 30
0.0
  9
$PUCSORGBOTTOM
 10
0.0
 20
0.0
 30
0.0
  9
$PUCSORGLEFT
 10
0.0
 20
0.0
 30
0.0
  9
$PUCSORGRIGHT
 10
0.0
 20
0.0
 30
0.0
  9
$PUCSORGFRONT
 10
0.0
 20
0.0
 30
0.0
  9
$PUCSORGBACK
 10
0.0
 20
0.0
 30
0.0
  9
$USERI1
 70
     0
  9
$USERI2
 70
     0
  9
$USERI3
 70
     0
  9
$USERI4
 70
     0
  9
$USERI5
 70
     0
  9
$USERR1
 40
0.0
  9
$USERR2
 40
0.0
  9
$USERR3
 40
0.0
  9
$USERR4
 40
0.0
  9
$USERR5
 40
0.0
  9
$WORLDVIEW
 70
     1
  9
$SHADEDGE
 70
     3
  9
$SHADEDIF
 70
    70
  9
$TILEMODE
 70
     1
  9
$MAXACTVP
 70
    64
  9
$PINSBASE
 10
0.0
 20
0.0
 30
0.0
  9
$PLIMCHECK
 70
     0
  9
$PEXTMIN
 10
1.0000000000E+20
 20
1.0000000000E+20
 30
1.0000000000E+20
  9
$PEXTMAX
 10
-1.0000000000E+20
 20
-1.0000000000E+20
 30
-1.0000000000E+20
  9
$PLIMMIN
 10
0.0
 20
0.0
  9
$PLIMMAX
 10
420.0
 20
297.0
  9
$UNITMODE
 70
     0
  9
$VISRETAIN
 70
     1
  9
$PLINEGEN
 70
     0
  9
$PSLTSCALE
 70
     1
  9
$TREEDEPTH
 70
  3020
  9
$CMLSTYLE
  2
Standard
  9
$CMLJUST
 70
     0
  9
$CMLSCALE
 40
20.0
  9
$PROXYGRAPHICS
 70
     1
  9
$MEASUREMENT
 70
     1
  9
$CELWEIGHT
370
    -1
  9
$ENDCAPS
280
     0
  9
$JOINSTYLE
280
     0
  9
$LWDISPLAY
290
     1
  9
$INSUNITS
 70
     4
  9
$HYPERLINKBASE
  1

  9
$STYLESHEET
  1

  9
$XEDIT
290
     1
  9
$CEPSNTYPE
380
     0
  9
$PSTYLEMODE
290
     1
  9
$FINGERPRINTGUID
  2
{DBD54C10-7C6D-4E7E-8090-98B5ABA6E3B1}
  9
$VERSIONGUID
  2
{FAEB1C32-E019-11D5-929B-00C0DF256EC4}
  9
$EXTNAMES
290
     1
  9
$PSVPSCALE
 40
0.0
  9
$OLESTARTUP
290
     0
  0
ENDSEC
  0
SECTION
  2
CLASSES
  0
CLASS
  1
ACDBDICTIONARYWDFLT
  2
AcDbDictionaryWithDefault
  3
ObjectDBX Classes
 90
        0
280
     0
281
     0
  0
CLASS
  1
VISUALSTYLE
  2
AcDbVisualStyle
  3
ObjectDBX Classes
 90
     4095
280
     0
281
     0
  0
CLASS
  1
MATERIAL
  2
AcDbMaterial
  3
ObjectDBX Classes
 90
     1153
280
     0
281
     0
  0
CLASS
  1
SCALE
  2
AcDbScale
  3
ObjectDBX Classes
 90
     1153
280
     0
281
     0
  0
CLASS
  1
TABLESTYLE
  2
AcDbTableStyle
  3
ObjectDBX Classes
 90
     4095
280
     0
281
     0
  0
CLASS
  1
MLEADERSTYLE
  2
AcDbMLeaderStyle
  3
ACDB_MLEADERSTYLE_CLASS
 90
     4095
280
     0
281
     0
  0
CLASS
  1
SUN
  2
AcDbSun
  3
SCENEOE
 90
     1153
280
     0
281
     0
  0
CLASS
  1
ACDBPLACEHOLDER
  2
AcDbPlaceHolder
  3
ObjectDBX Classes
 90
        0
280
     0
281
     0
  0
CLASS
  1
LAYOUT
  2
AcDbLayout
  3
ObjectDBX Classes
 90
        0
280
     0
281
     0
  0
ENDSEC
  0
SECTION
  2
TABLES
  0
TABLE
  2
VPORT
  5
8
330
0
100
AcDbSymbolTable
 70
     1
  0
VPORT
  5
29
330
8
100
AcDbSymbolTableRecord
100
AcDbViewportTableRecord
  2
*Active
 70
     0
 10
0.0
 20
0.0
 11
1.0
 21
1.0
 12
1500.0
 22
1000.0
 13
0.0
 23
0.0
 14
10.0
 24
10.0
 15
10.0
 25
10.0
 16
0.0
 26
0.0
 36
1.0
 17
0.0
 27
0.0
 37
0.0
 40
2000.0
 41
1.5
 42
50.0
 43
0.0
 44
0.0
 50
0.0
 51
0.0
 71
     0
 72
  2000
 73
     1
 74
     3
 75
     0
 76
     0
 77
     0
 78
     0
281
     0
 65
     1
110
0.0
120
0.0
130
0.0
111
1.0
121
0.0
131
0.0
112
0.0
122
1.0
132
0.0
 79
     0
146
0.0
  0
ENDTAB
  0
TABLE
  2
LTYPE
  5
5
330
0
100
AcDbSymbolTable
 70
     6
  0
LTYPE
  5
14
330
5
100
AcDbSymbolTableRecord
100
AcDbLinetypeTableRecord
  2
ByBlock
 70
     0
  3

 72
    65
 73
     0
 40
0.0
  0
LTYPE
  5
15
330
5
100
AcDbSymbolTableRecord
100
AcDbLinetypeTableRecord
  2
ByLayer
 70
     0
  3

 72
    65
 73
     0
 40
0.0
  0
LTYPE
  5
16
330
5
100
AcDbSymbolTableRecord
100
AcDbLinetypeTableRecord
  2
Continuous
 70
     0
  3
Solid line
 72
    65
 73
     0
 40
0.0
  0
LTYPE
  5
6E
330
5
100
AcDbSymbolTableRecord
100
AcDbLinetypeTableRecord
  2
HIDDEN
 70
     0
  3
Hidden __ __ __ __ __ __ __ __ __ __ __ __ __ __
 72
    65
 73
     2
 40
1.905
 49
1.27
 74
     0
 49
-0.635
 74
     0
  0
LTYPE
  5
6F
330
5
100
AcDbSymbolTableRecord
100
AcDbLinetypeTableRecord
  2
PHANTOM
 70
     0
  3
Phantom ______  __  __  ______  __  __  ______
 72
    65
 73
     6
 40
12.7
 49
6.35
 74
     0
 49
-1.27
 74
     0
 49
1.27
 74
     0
 49
-1.27
 74
     0
 49
1.27
 74
     0
 49
-1.27
 74
     0
  0
LTYPE
  5
70
330
5
100
AcDbSymbolTableRecord
100
AcDbLinetypeTableRecord
  2
CENTER
 70
     0
  3
Center ____ _ ____ _ ____ _ ____ _ ____ _ ____
 72
    65
 73
     4
 40
10.16
 49
6.35
 74
     0
 49
-1.27
 74
     0
 49
1.27
 74
     0
 49
-1.27
 74
     0
  0
LTYPE
  5
71
330
5
100
AcDbSymbolTableRecord
100
AcDbLinetypeTableRecord
  2
CENTERX2
 70
     0
  3
Center (2x) ________  __  ________  __  _____
 72
    65
 73
     4
 40
20.32
 49
12.7
 74
     0
 49
-2.54
 74
     0
 49
2.54
 74
     0
 49
-2.54
 74
     0
  0
LTYPE
  5
72
330
5
100
AcDbSymbolTableRecord
100
AcDbLinetypeTableRecord
  2
DOT2
 70
     0
  3
Dot (.5x) ........................................
 72
    65
 73
     2
 40
0.635
 49
0.0
 74
     0
 49
-0.635
 74
     0
  0
ENDTAB
  0
TABLE
  2
LAYER
  5
2
330
0
100
AcDbSymbolTable
 70
     8
  0
LAYER
  5
10
330
2
100
AcDbSymbolTableRecord
100
AcDbLayerTableRecord
  2
0
 70
     0
 62
     7
  6
Continuous
370
    -3
390
F
  0
LAYER
  5
73
330
2
100
AcDbSymbolTableRecord
100
AcDbLayerTableRecord
  2
SLD-0
 70
     0
 62
     7
  6
Continuous
370
    25
390
F
  0
LAYER
  5
74
330
2
100
AcDbSymbolTableRecord
100
AcDbLayerTableRecord
  2
OSNOVA
 70
     0
 62
     5
  6
Continuous
370
    -3
390
F
  0
LAYER
  5
75
330
2
100
AcDbSymbolTableRecord
100
AcDbLayerTableRecord
  2
THIN_LINE
 70
     0
 62
     7
  6
Continuous
370
    25
390
F
  0
LAYER
  5
76
330
2
100
AcDbSymbolTableRecord
100
AcDbLayerTableRecord
  2
THICK_LINE
 70
     0
 62
     7
  6
Continuous
370
    25
390
F
  0
LAYER
  5
77
330
2
100
AcDbSymbolTableRecord
100
AcDbLayerTableRecord
  2
THIN_LIONE
 70
     0
 62
     7
  6
Continuous
370
    -3
390
F
  0
LAYER
  5
78
330
2
100
AcDbSymbolTableRecord
100
AcDbLayerTableRecord
  2
THICK_LIONE
 70
     0
 62
     7
  6
Continuous
370
    25
390
F
  0
LAYER
  5
79
330
2
100
AcDbSymbolTableRecord
100
AcDbLayerTableRecord
  2
ИЗМЕН_РАЗМЕР
 70
     0
 62
     1
  6
Continuous
370
    -3
390
F
  0
ENDTAB
  0
TABLE
  2
STYLE
  5
3
330
0
100
AcDbSymbolTable
 70
     1
  0
STYLE
  5
11
330
3
100
AcDbSymbolTableRecord
100
AcDbTextStyleTableRecord
  2
Standard
 70
     0
 40
0.0
 41
1.0
 50
0.0
 71
     0
 42
3.5
  3
txt
  4

  0
ENDTAB
  0
TABLE
  2
VIEW
  5
6
330
0
100
AcDbSymbolTable
 70
     0
  0
ENDTAB
  0
TABLE
  2
UCS
  5
7
330
0
100
AcDbSymbolTable
 70
     0
  0
ENDTAB
  0
TABLE
  2
APPID
  5
9
330
0
100
AcDbSymbolTable
 70
     1
  0
APPID
  5
12
330
9
100
AcDbSymbolTableRecord
100
AcDbRegAppTableRecord
  2
ACAD
 70
     0
  0
ENDTAB
  0
TABLE
  2
DIMSTYLE
  5
A
330
0
100
AcDbSymbolTable
 70
     1
100
AcDbDimStyleTable
  0
DIMSTYLE
105
27
330
A
100
AcDbSymbolTableRecord
100
AcDbDimStyleTableRecord
  2
ISO-25
 70
     0
 41
2.5
 42
0.625
 43
3.75
 44
1.25
 73
     0
 74
     0
 77
     1
 78
     8
140
2.5
141
2.5
143
0.0393700787
147
0.625
171
     3
172
     1
178
     0
271
     2
272
     2
274
     3
278
    44
283
     0
284
     8
340
11
  0
ENDTAB
  0
TABLE
  2
BLOCK_RECORD
  5
1
330
0
100
AcDbSymbolTable
 70
     1
  0
BLOCK_RECORD
  5
1F
330
1
100
AcDbSymbolTableRecord
100
AcDbBlockTableRecord
  2
*Model_Space
340
22
  0
BLOCK_RECORD
  5
1B
330
1
100
AcDbSymbolTableRecord
100
AcDbBlockTableRecord
  2
*Paper_Space
340
1E
  0
BLOCK_RECORD
  5
23
330
1
100
AcDbSymbolTableRecord
100
AcDbBlockTableRecord
  2
*Paper_Space0
340
26
  0
ENDTAB
  0
ENDSEC
  0
SECTION
  2
BLOCKS
  0
BLOCK
  5
20
330
1F
100
AcDbEntity
  8
0
100
AcDbBlockBegin
  2
*Model_Space
 70
     0
 10
0.0
 20
0.0
 30
0.0
  3
*Model_Space
  1

  0
ENDBLK
  5
21
330
1F
100
AcDbEntity
  8
0
100
AcDbBlockEnd
  0
BLOCK
  5
1C
330
1B
100
AcDbEntity
 67
     1
  8
0
100
AcDbBlockBegin
  2
*Paper_Space
 70
     0
 10
0.0
 20
0.0
 30
0.0
  3
*Paper_Space
  1

  0
ENDBLK
  5
1D
330
1B
100
AcDbEntity
 67
     1
  8
0
100
AcDbBlockEnd
  0
BLOCK
  5
24
330
23
100
AcDbEntity
  8
0
100
AcDbBlockBegin
  2
*Paper_Space0
 70
     0
 10
0.0
 20
0.0
 30
0.0
  3
*Paper_Space0
  1

  0
ENDBLK
  5
25
330
23
100
AcDbEntity
  8
0
100
AcDbBlockEnd
  0
ENDSEC
  0
SECTION
  2
ENTITIES
  0
LINE
  5
7A
330
1F
100
AcDbEntity
  8
0
  6
Continuous
 62
     7
370
    25
100
AcDbLine
 10
95.4774483545
 20
1280.2206712786
 30
0.0
 11
95.4774483545
 21
1281.386440424
 31
0.0
  0
LINE
  5
7B
330
1F
100
AcDbEntity
  8
0
  6
Continuous
 62
     7
370
    25
100
AcDbLine
 10
2095.4774483545
 20
1281.386440424
 30
0.0
 11
95.4774483545
 21
1281.386440424
 31
0.0
  0
LINE
  5
7C
330
1F
100
AcDbEntity
  8
0
  6
Continuous
 62
     7
370
    25
100
AcDbLine
 10
2095.4774483545
 20
1280.2206712786
 30
0.0
 11
2095.4774483545
 21
1281.386440424
 31
0.0
  0
LINE
  5
7D
330
1F
100
AcDbEntity
  8
0
  6
Continuous
 62
     7
370
    25
100
AcDbLine
 10
2095.4774483545
 20
1195.2206712786
 30
0.0
 11
95.4774483545
 21
1195.2206712786
 31
0.0
  0
LINE
  5
7E
330
1F
100
AcDbEntity
  8
0
  6
Continuous
 62
     7
370
    25
100
AcDbLine
 10
95.4774483545
 20
1280.2206712786
 30
0.0
 11
95.4774483545
 21
1197.7206712786
 31
0.0
  0
ARC
  5
7F
330
1F
100
AcDbEntity
  8
0
  6
Continuous
 62
     7
370
    25
100
AcDbCircle
 10
179.4774483545
 20
1213.2206712786
 30
0.0
 40
3.5
100
AcDbArc
 50
270.0
 51
90.0
  0
LINE
  5
80
330
1F
100
AcDbEntity
  8
0
  6
Continuous
 62
     7
370
    25
100
AcDbLine
 10
179.4774483545
 20
1216.7206712786
 30
0.0
 11
161.4774483545
 21
1216.7206712786
 31
0.0
  0
ARC
  5
81
330
1F
100
AcDbEntity
  8
0
  6
Continuous
 62
     7
370
    25
100
AcDbCircle
 10
161.4774483545
 20
1213.2206712786
 30
0.0
 40
3.5
100
AcDbArc
 50
90.0
 51
270.0
  0
LINE
  5
82
330
1F
100
AcDbEntity
  8
0
  6
Continuous
 62
     7
370
    25
100
AcDbLine
 10
161.4774483545
 20
1209.7206712786
 30
0.0
 11
179.4774483545
 21
1209.7206712786
 31
0.0
  0
ARC
  5
83
330
1F
100
AcDbEntity
  8
0
  6
Continuous
 62
     7
370
    25
100
AcDbCircle
 10
129.4774483545
 20
1213.2206712786
 30
0.0
 40
3.500000000000227
100
AcDbArc
 50
270.0
 51
90.0
  0
LINE
  5
84
330
1F
100
AcDbEntity
  8
0
  6
Continuous
 62
     7
370
    25
100
AcDbLine
 10
129.4774483545
 20
1216.7206712786
 30
0.0
 11
111.4774483545
 21
1216.7206712786
 31
0.0
  0
ARC
  5
85
330
1F
100
AcDbEntity
  8
0
  6
Continuous
 62
     7
370
    25
100
AcDbCircle
 10
111.4774483545
 20
1213.2206712786
 30
0.0
 40
3.500000000000227
100
AcDbArc
 50
90.0
 51
270.0
  0
LINE
  5
86
330
1F
100
AcDbEntity
  8
0
  6
Continuous
 62
     7
370
    25
100
AcDbLine
 10
111.4774483545
 20
1209.7206712786
 30
0.0
 11
129.4774483545
 21
1209.7206712786
 31
0.0
  0
ARC
  5
87
330
1F
100
AcDbEntity
  8
0
  6
Continuous
 62
     7
370
    25
100
AcDbCircle
 10
2061.4774483545
 20
1213.2206712786
 30
0.0
 40
3.500000000000227
100
AcDbArc
 50
90.0
 51
270.0
  0
LINE
  5
88
330
1F
100
AcDbEntity
  8
0
  6
Continuous
 62
     7
370
    25
100
AcDbLine
 10
2061.4774483545
 20
1209.7206712786
 30
0.0
 11
2079.4774483545
 21
1209.7206712786
 31
0.0
  0
ARC
  5
89
330
1F
100
AcDbEntity
  8
0
  6
Continuous
 62
     7
370
    25
100
AcDbCircle
 10
2079.4774483545
 20
1213.2206712786
 30
0.0
 40
3.500000000000227
100
AcDbArc
 50
270.0
 51
90.0
  0
LINE
  5
8A
330
1F
100
AcDbEntity
  8
0
  6
Continuous
 62
     7
370
    25
100
AcDbLine
 10
2079.4774483545
 20
1216.7206712786
 30
0.0
 11
2061.4774483545
 21
1216.7206712786
 31
0.0
  0
ARC
  5
8B
330
1F
100
AcDbEntity
  8
0
  6
Continuous
 62
     7
370
    25
100
AcDbCircle
 10
2011.4774483545
 20
1213.2206712786
 30
0.0
 40
3.5
100
AcDbArc
 50
90.0
 51
270.0
  0
LINE
  5
8C
330
1F
100
AcDbEntity
  8
0
  6
Continuous
 62
     7
370
    25
100
AcDbLine
 10
2011.4774483545
 20
1209.7206712786
 30
0.0
 11
2029.4774483545
 21
1209.7206712786
 31
0.0
  0
ARC
  5
8D
330
1F
100
AcDbEntity
  8
0
  6
Continuous
 62
     7
370
    25
100
AcDbCircle
 10
2029.4774483545
 20
1213.2206712786
 30
0.0
 40
3.5
100
AcDbArc
 50
270.0
 51
90.0
  0
LINE
  5
8E
330
1F
100
AcDbEntity
  8
0
  6
Continuous
 62
     7
370
    25
100
AcDbLine
 10
2029.4774483545
 20
1216.7206712786
 30
0.0
 11
2011.4774483545
 21
1216.7206712786
 31
0.0
  0
ARC
  5
8F
330
1F
100
AcDbEntity
  8
0
  6
Continuous
 62
     7
370
    25
100
AcDbCircle
 10
2011.4774483545
 20
1248.2206712786
 30
0.0
 40
3.499999999999773
100
AcDbArc
 50
90.0
 51
270.0
  0
LINE
  5
90
330
1F
100
AcDbEntity
  8
0
  6
Continuous
 62
     7
370
    25
100
AcDbLine
 10
2011.4774483545
 20
1244.7206712786
 30
0.0
 11
2029.4774483545
 21
1244.7206712786
 31
0.0
  0
ARC
  5
91
330
1F
100
AcDbEntity
  8
0
  6
Continuous
 62
     7
370
    25
100
AcDbCircle
 10
2029.4774483545
 20
1248.2206712786
 30
0.0
 40
3.499999999999773
100
AcDbArc
 50
270.0
 51
90.0
  0
LINE
  5
92
330
1F
100
AcDbEntity
  8
0
  6
Continuous
 62
     7
370
    25
100
AcDbLine
 10
2079.4774483545
 20
1251.7206712786
 30
0.0
 11
2061.4774483545
 21
1251.7206712786
 31
0.0
  0
ARC
  5
93
330
1F
100
AcDbEntity
  8
0
  6
Continuous
 62
     7
370
    25
100
AcDbCircle
 10
129.4774483545
 20
1248.2206712786
 30
0.0
 40
3.5
100
AcDbArc
 50
270.0
 51
90.0
  0
LINE
  5
94
330
1F
100
AcDbEntity
  8
0
  6
Continuous
 62
     7
370
    25
100
AcDbLine
 10
129.4774483545
 20
1251.7206712786
 30
0.0
 11
111.4774483545
 21
1251.7206712786
 31
0.0
  0
ARC
  5
95
330
1F
100
AcDbEntity
  8
0
  6
Continuous
 62
     7
370
    25
100
AcDbCircle
 10
111.4774483545
 20
1248.2206712786
 30
0.0
 40
3.5
100
AcDbArc
 50
90.0
 51
270.0
  0
LINE
  5
96
330
1F
100
AcDbEntity
  8
0
  6
Continuous
 62
     7
370
    25
100
AcDbLine
 10
111.4774483545
 20
1244.7206712786
 30
0.0
 11
129.4774483545
 21
1244.7206712786
 31
0.0
  0
ARC
  5
97
330
1F
100
AcDbEntity
  8
0
  6
Continuous
 62
     7
370
    25
100
AcDbCircle
 10
2061.4774483545
 20
1248.2206712786
 30
0.0
 40
3.5
100
AcDbArc
 50
90.0
 51
270.0
  0
LINE
  5
98
330
1F
100
AcDbEntity
  8
0
  6
Continuous
 62
     7
370
    25
100
AcDbLine
 10
2061.4774483545
 20
1244.7206712786
 30
0.0
 11
2079.4774483545
 21
1244.7206712786
 31
0.0
  0
ARC
  5
99
330
1F
100
AcDbEntity
  8
0
  6
Continuous
 62
     7
370
    25
100
AcDbCircle
 10
2079.4774483545
 20
1248.2206712786
 30
0.0
 40
3.5
100
AcDbArc
 50
270.0
 51
90.0
  0
LINE
  5
9A
330
1F
100
AcDbEntity
  8
0
  6
Continuous
 62
     7
370
    25
100
AcDbLine
 10
2029.4774483545
 20
1251.7206712786
 30
0.0
 11
2011.4774483545
 21
1251.7206712786
 31
0.0
  0
LINE
  5
9B
330
1F
100
AcDbEntity
  8
0
  6
Continuous
 62
     7
370
    25
100
AcDbLine
 10
95.4774483545
 20
1195.2206712786
 30
0.0
 11
95.4774483545
 21
1197.7206712786
 31
0.0
  0
LINE
  5
9C
330
1F
100
AcDbEntity
  8
0
  6
Continuous
 62
     7
370
    25
100
AcDbLine
 10
2095.4774483545
 20
1280.2206712786
 30
0.0
 11
2095.4774483545
 21
1197.7206712786
 31
0.0
  0
LINE
  5
9D
330
1F
100
AcDbEntity
  8
0
  6
Continuous
 62
     7
370
    25
100
AcDbLine
 10
2095.4774483545
 20
1195.2206712786
 30
0.0
 11
2095.4774483545
 21
1197.7206712786
 31
0.0
  0
LINE
  5
9E
330
1F
100
AcDbEntity
  8
0
  6
Continuous
 62
     7
370
    25
100
AcDbLine
 10
161.4774483545
 20
1244.7206712786
 30
0.0
 11
179.4774483545
 21
1244.7206712786
 31
0.0
  0
ARC
  5
9F
330
1F
100
AcDbEntity
  8
0
  6
Continuous
 62
     7
370
    25
100
AcDbCircle
 10
179.4774483545
 20
1248.2206712786
 30
0.0
 40
3.499999999999773
100
AcDbArc
 50
270.0
 51
90.0
  0
LINE
  5
A0
330
1F
100
AcDbEntity
  8
0
  6
Continuous
 62
     7
370
    25
100
AcDbLine
 10
179.4774483545
 20
1251.7206712786
 30
0.0
 11
161.4774483545
 21
1251.7206712786
 31
0.0
  0
ARC
  5
A1
330
1F
100
AcDbEntity
  8
0
  6
Continuous
 62
     7
370
    25
100
AcDbCircle
 10
161.4774483545
 20
1248.2206712786
 30
0.0
 40
3.499999999999773
100
AcDbArc
 50
90.0
 51
270.0
  0
LINE
  5
A2
330
1F
100
AcDbEntity
  8
0
  6
Continuous
 62
     7
370
    25
100
AcDbLine
 10
2095.4774483545
 20
1282.1357823864
 30
0.0
 11
2095.4774483545
 21
1285.3966373691
 31
0.0
  0
LINE
  5
A3
330
1F
100
AcDbEntity
  8
0
  6
Continuous
 62
     7
370
    25
100
AcDbLine
 10
95.4774483545
 20
1285.3966373691
 30
0.0
 11
95.4774483545
 21
1282.1357823864
 31
0.0
  0
LINE
  5
A4
330
1F
100
AcDbEntity
  8
0
  6
Continuous
 62
     7
370
    25
100
AcDbLine
 10
95.4774483545
 20
1285.3966373691
 30
0.0
 11
2095.4774483545
 21
1285.3966373691
 31
0.0
  0
LINE
  5
A5
330
1F
100
AcDbEntity
  8
0
  6
Continuous
 62
     7
370
    25
100
AcDbLine
 10
2095.4774483545
 20
1281.386440424
 30
0.0
 11
2095.4774483545
 21
1282.1357823864
 31
0.0
  0
LINE
  5
A6
330
1F
100
AcDbEntity
  8
0
  6
Continuous
 62
     7
370
    25
100
AcDbLine
 10
95.4774483545
 20
1281.386440424
 30
0.0
 11
95.4774483545
 21
1282.1357823864
 31
0.0
  0
LINE
  5
A7
330
1F
100
AcDbEntity
  8
0
  6
Continuous
 62
     7
370
    25
100
AcDbLine
 10
95.4774483545
 20
1290.4963495574
 30
0.0
 11
2095.4774483545
 21
1290.4963495574
 31
0.0
  0
LINE
  5
A8
330
1F
100
AcDbEntity
  8
0
  6
Continuous
 62
     7
370
    25
100
AcDbLine
 10
2095.4774483545
 20
1290.4963495574
 30
0.0
 11
2095.4774483545
 21
1285.3966373691
 31
0.0
  0
LINE
  5
A9
330
1F
100
AcDbEntity
  8
0
  6
Continuous
 62
     7
370
    25
100
AcDbLine
 10
95.4774483545
 20
1290.4963495574
 30
0.0
 11
95.4774483545
 21
1285.3966373691
 31
0.0
  0
LINE
  5
AA
330
1F
100
AcDbEntity
  8
0
  6
Continuous
 62
     7
370
    25
100
AcDbLine
 10
2095.4774483545
 20
1295.1869789367
 30
0.0
 11
95.4774483545
 21
1295.1869789367
 31
0.0
  0
LINE
  5
AB
330
1F
100
AcDbEntity
  8
0
  6
Continuous
 62
     7
370
    25
100
AcDbLine
 10
2095.4774483545
 20
1290.4963495574
 30
0.0
 11
2095.4774483545
 21
1295.1869789367
 31
0.0
  0
LINE
  5
AC
330
1F
100
AcDbEntity
  8
0
  6
Continuous
 62
     7
370
    25
100
AcDbLine
 10
95.4774483545
 20
1295.1869789367
 30
0.0
 11
95.4774483545
 21
1290.4963495574
 31
0.0
  0
LINE
  5
AD
330
1F
100
AcDbEntity
  8
0
  6
Continuous
 62
     7
370
    25
100
AcDbLine
 10
95.4774483545
 20
1846.9940110858
 30
0.0
 11
95.4774483545
 21
1849.4940110858
 31
0.0
  0
LINE
  5
AE
330
1F
100
AcDbEntity
  8
0
  6
Continuous
 62
     7
370
    25
100
AcDbLine
 10
2095.4774483545
 20
1849.4940110858
 30
0.0
 11
95.4774483545
 21
1849.4940110858
 31
0.0
  0
LINE
  5
AF
330
1F
100
AcDbEntity
  8
0
  6
Continuous
 62
     7
370
    25
100
AcDbLine
 10
2095.4774483545
 20
1846.9940110858
 30
0.0
 11
2095.4774483545
 21
1849.4940110858
 31
0.0
  0
LINE
  5
B0
330
1F
100
AcDbEntity
  8
0
  6
Continuous
 62
     7
370
    25
100
AcDbLine
 10
2095.4774483545
 20
1846.9940110858
 30
0.0
 11
2095.4774483545
 21
1451.9940110858
 31
0.0
  0
LINE
  5
B1
330
1F
100
AcDbEntity
  8
0
  6
Continuous
 62
     7
370
    25
100
AcDbLine
 10
2095.4774483545
 20
1449.4940110858
 30
0.0
 11
95.4774483545
 21
1449.4940110858
 31
0.0
  0
LINE
  5
B2
330
1F
100
AcDbEntity
  8
0
  6
Continuous
 62
     7
370
    25
100
AcDbLine
 10
95.4774483545
 20
1449.4940110858
 30
0.0
 11
95.4774483545
 21
1451.9940110858
 31
0.0
  0
LINE
  5
B3
330
1F
100
AcDbEntity
  8
0
  6
Continuous
 62
     7
370
    25
100
AcDbLine
 10
95.4774483545
 20
1846.9940110858
 30
0.0
 11
95.4774483545
 21
1451.9940110858
 31
0.0
  0
ARC
  5
B4
330
1F
100
AcDbEntity
  8
0
  6
Continuous
 62
     7
370
    25
100
AcDbCircle
 10
2074.4774483545
 20
1653.4940110858
 30
0.0
 40
1.0
100
AcDbArc
 50
90.0
 51
180.0
  0
LINE
  5
B5
330
1F
100
AcDbEntity
  8
0
  6
Continuous
 62
     7
370
    25
100
AcDbLine
 10
2073.4774483545
 20
1645.4940110858
 30
0.0
 11
2073.4774483545
 21
1653.4940110858
 31
0.0
  0
ARC
  5
B6
330
1F
100
AcDbEntity
  8
0
  6
Continuous
 62
     7
370
    25
100
AcDbCircle
 10
2074.4774483545
 20
1645.4940110858
 30
0.0
 40
1.000000000000227
100
AcDbArc
 50
180.0
 51
270.0
  0
LINE
  5
B7
330
1F
100
AcDbEntity
  8
0
  6
Continuous
 62
     7
370
    25
100
AcDbLine
 10
2079.4774483545
 20
1644.4940110858
 30
0.0
 11
2074.4774483545
 21
1644.4940110858
 31
0.0
  0
ARC
  5
B8
330
1F
100
AcDbEntity
  8
0
  6
Continuous
 62
     7
370
    25
100
AcDbCircle
 10
2079.4774483545
 20
1645.4940110858
 30
0.0
 40
1.000000000000227
100
AcDbArc
 50
270.0
 51
0.0
  0
LINE
  5
B9
330
1F
100
AcDbEntity
  8
0
  6
Continuous
 62
     7
370
    25
100
AcDbLine
 10
2080.4774483545
 20
1653.4940110858
 30
0.0
 11
2080.4774483545
 21
1645.4940110858
 31
0.0
  0
ARC
  5
BA
330
1F
100
AcDbEntity
  8
0
  6
Continuous
 62
     7
370
    25
100
AcDbCircle
 10
2079.4774483545
 20
1653.4940110858
 30
0.0
 40
1.000000000000227
100
AcDbArc
 50
0.0
 51
90.0
  0
LINE
  5
BB
330
1F
100
AcDbEntity
  8
0
  6
Continuous
 62
     7
370
    25
100
AcDbLine
 10
2074.4774483545
 20
1654.4940110858
 30
0.0
 11
2079.4774483545
 21
1654.4940110858
 31
0.0
  0
ARC
  5
BC
330
1F
100
AcDbEntity
  8
0
  6
Continuous
 62
     7
370
    25
100
AcDbCircle
 10
111.4774483545
 20
1653.4940110858
 30
0.0
 40
1.000000000000227
100
AcDbArc
 50
90.0
 51
180.0
  0
LINE
  5
BD
330
1F
100
AcDbEntity
  8
0
  6
Continuous
 62
     7
370
    25
100
AcDbLine
 10
110.4774483545
 20
1645.4940110858
 30
0.0
 11
110.4774483545
 21
1653.4940110858
 31
0.0
  0
ARC
  5
BE
330
1F
100
AcDbEntity
  8
0
  6
Continuous
 62
     7
370
    25
100
AcDbCircle
 10
111.4774483545
 20
1645.4940110858
 30
0.0
 40
1.0
100
AcDbArc
 50
180.0
 51
270.0
  0
LINE
  5
BF
330
1F
100
AcDbEntity
  8
0
  6
Continuous
 62
     7
370
    25
100
AcDbLine
 10
116.4774483545
 20
1644.4940110858
 30
0.0
 11
111.4774483545
 21
1644.4940110858
 31
0.0
  0
ARC
  5
C0
330
1F
100
AcDbEntity
  8
0
  6
Continuous
 62
     7
370
    25
100
AcDbCircle
 10
116.4774483545
 20
1645.4940110858
 30
0.0
 40
1.0
100
AcDbArc
 50
270.0
 51
0.0
  0
LINE
  5
C1
330
1F
100
AcDbEntity
  8
0
  6
Continuous
 62
     7
370
    25
100
AcDbLine
 10
117.4774483545
 20
1653.4940110858
 30
0.0
 11
117.4774483545
 21
1645.4940110858
 31
0.0
  0
ARC
  5
C2
330
1F
100
AcDbEntity
  8
0
  6
Continuous
 62
     7
370
    25
100
AcDbCircle
 10
116.4774483545
 20
1653.4940110858
 30
0.0
 40
1.000000000000227
100
AcDbArc
 50
0.0
 51
90.0
  0
LINE
  5
C3
330
1F
100
AcDbEntity
  8
0
  6
Continuous
 62
     7
370
    25
100
AcDbLine
 10
111.4774483545
 20
1654.4940110858
 30
0.0
 11
116.4774483545
 21
1654.4940110858
 31
0.0
  0
ARC
  5
C4
330
1F
100
AcDbEntity
  8
0
  6
Continuous
 62
     7
370
    25
100
AcDbCircle
 10
129.4774483545
 20
1461.9940110858
 30
0.0
 40
3.5
100
AcDbArc
 50
270.0
 51
90.0
  0
LINE
  5
C5
330
1F
100
AcDbEntity
  8
0
  6
Continuous
 62
     7
370
    25
100
AcDbLine
 10
111.4774483545
 20
1465.4940110858
 30
0.0
 11
129.4774483545
 21
1465.4940110858
 31
0.0
  0
ARC
  5
C6
330
1F
100
AcDbEntity
  8
0
  6
Continuous
 62
     7
370
    25
100
AcDbCircle
 10
111.4774483545
 20
1461.9940110858
 30
0.0
 40
3.5
100
AcDbArc
 50
90.0
 51
270.0
  0
LINE
  5
C7
330
1F
100
AcDbEntity
  8
0
  6
Continuous
 62
     7
370
    25
100
AcDbLine
 10
129.4774483545
 20
1458.4940110858
 30
0.0
 11
111.4774483545
 21
1458.4940110858
 31
0.0
  0
ARC
  5
C8
330
1F
100
AcDbEntity
  8
0
  6
Continuous
 62
     7
370
    25
100
AcDbCircle
 10
2011.4774483545
 20
1461.9940110858
 30
0.0
 40
3.500000000000227
100
AcDbArc
 50
90.0
 51
270.0
  0
LINE
  5
C9
330
1F
100
AcDbEntity
  8
0
  6
Continuous
 62
     7
370
    25
100
AcDbLine
 10
2029.4774483545
 20
1458.4940110858
 30
0.0
 11
2011.4774483545
 21
1458.4940110858
 31
0.0
  0
ARC
  5
CA
330
1F
100
AcDbEntity
  8
0
  6
Continuous
 62
     7
370
    25
100
AcDbCircle
 10
2029.4774483545
 20
1461.9940110858
 30
0.0
 40
3.500000000000227
100
AcDbArc
 50
270.0
 51
90.0
  0
LINE
  5
CB
330
1F
100
AcDbEntity
  8
0
  6
Continuous
 62
     7
370
    25
100
AcDbLine
 10
2011.4774483545
 20
1465.4940110858
 30
0.0
 11
2029.4774483545
 21
1465.4940110858
 31
0.0
  0
ARC
  5
CC
330
1F
100
AcDbEntity
  8
0
  6
Continuous
 62
     7
370
    25
100
AcDbCircle
 10
2061.4774483545
 20
1836.9940110858
 30
0.0
 40
3.5
100
AcDbArc
 50
90.0
 51
270.0
  0
LINE
  5
CD
330
1F
100
AcDbEntity
  8
0
  6
Continuous
 62
     7
370
    25
100
AcDbLine
 10
2079.4774483545
 20
1833.4940110858
 30
0.0
 11
2061.4774483545
 21
1833.4940110858
 31
0.0
  0
ARC
  5
CE
330
1F
100
AcDbEntity
  8
0
  6
Continuous
 62
     7
370
    25
100
AcDbCircle
 10
2079.4774483545
 20
1836.9940110858
 30
0.0
 40
3.5
100
AcDbArc
 50
270.0
 51
90.0
  0
LINE
  5
CF
330
1F
100
AcDbEntity
  8
0
  6
Continuous
 62
     7
370
    25
100
AcDbLine
 10
2061.4774483545
 20
1840.4940110858
 30
0.0
 11
2079.4774483545
 21
1840.4940110858
 31
0.0
  0
ARC
  5
D0
330
1F
100
AcDbEntity
  8
0
  6
Continuous
 62
     7
370
    25
100
AcDbCircle
 10
2011.4774483545
 20
1836.9940110858
 30
0.0
 40
3.500000000000227
100
AcDbArc
 50
90.0
 51
270.0
  0
LINE
  5
D1
330
1F
100
AcDbEntity
  8
0
  6
Continuous
 62
     7
370
    25
100
AcDbLine
 10
2029.4774483545
 20
1833.4940110858
 30
0.0
 11
2011.4774483545
 21
1833.4940110858
 31
0.0
  0
ARC
  5
D2
330
1F
100
AcDbEntity
  8
0
  6
Continuous
 62
     7
370
    25
100
AcDbCircle
 10
2029.4774483545
 20
1836.9940110858
 30
0.0
 40
3.500000000000227
100
AcDbArc
 50
270.0
 51
90.0
  0
LINE
  5
D3
330
1F
100
AcDbEntity
  8
0
  6
Continuous
 62
     7
370
    25
100
AcDbLine
 10
2011.4774483545
 20
1840.4940110858
 30
0.0
 11
2029.4774483545
 21
1840.4940110858
 31
0.0
  0
ARC
  5
D4
330
1F
100
AcDbEntity
  8
0
  6
Continuous
 62
     7
370
    25
100
AcDbCircle
 10
179.4774483545
 20
1461.9940110858
 30
0.0
 40
3.500000000000227
100
AcDbArc
 50
270.0
 51
90.0
  0
LINE
  5
D5
330
1F
100
AcDbEntity
  8
0
  6
Continuous
 62
     7
370
    25
100
AcDbLine
 10
161.4774483545
 20
1465.4940110858
 30
0.0
 11
179.4774483545
 21
1465.4940110858
 31
0.0
  0
ARC
  5
D6
330
1F
100
AcDbEntity
  8
0
  6
Continuous
 62
     7
370
    25
100
AcDbCircle
 10
161.4774483545
 20
1461.9940110858
 30
0.0
 40
3.500000000000227
100
AcDbArc
 50
90.0
 51
270.0
  0
LINE
  5
D7
330
1F
100
AcDbEntity
  8
0
  6
Continuous
 62
     7
370
    25
100
AcDbLine
 10
179.4774483545
 20
1458.4940110858
 30
0.0
 11
161.4774483545
 21
1458.4940110858
 31
0.0
  0
ARC
  5
D8
330
1F
100
AcDbEntity
  8
0
  6
Continuous
 62
     7
370
    25
100
AcDbCircle
 10
129.4774483545
 20
1836.9940110858
 30
0.0
 40
3.5
100
AcDbArc
 50
270.0
 51
90.0
  0
LINE
  5
D9
330
1F
100
AcDbEntity
  8
0
  6
Continuous
 62
     7
370
    25
100
AcDbLine
 10
111.4774483545
 20
1840.4940110858
 30
0.0
 11
129.4774483545
 21
1840.4940110858
 31
0.0
  0
ARC
  5
DA
330
1F
100
AcDbEntity
  8
0
  6
Continuous
 62
     7
370
    25
100
AcDbCircle
 10
111.4774483545
 20
1836.9940110858
 30
0.0
 40
3.5
100
AcDbArc
 50
90.0
 51
270.0
  0
LINE
  5
DB
330
1F
100
AcDbEntity
  8
0
  6
Continuous
 62
     7
370
    25
100
AcDbLine
 10
129.4774483545
 20
1833.4940110858
 30
0.0
 11
111.4774483545
 21
1833.4940110858
 31
0.0
  0
ARC
  5
DC
330
1F
100
AcDbEntity
  8
0
  6
Continuous
 62
     7
370
    25
100
AcDbCircle
 10
179.4774483545
 20
1836.9940110858
 30
0.0
 40
3.500000000000227
100
AcDbArc
 50
270.0
 51
90.0
  0
LINE
  5
DD
330
1F
100
AcDbEntity
  8
0
  6
Continuous
 62
     7
370
    25
100
AcDbLine
 10
161.4774483545
 20
1840.4940110858
 30
0.0
 11
179.4774483545
 21
1840.4940110858
 31
0.0
  0
ARC
  5
DE
330
1F
100
AcDbEntity
  8
0
  6
Continuous
 62
     7
370
    25
100
AcDbCircle
 10
161.4774483545
 20
1836.9940110858
 30
0.0
 40
3.500000000000227
100
AcDbArc
 50
90.0
 51
270.0
  0
LINE
  5
DF
330
1F
100
AcDbEntity
  8
0
  6
Continuous
 62
     7
370
    25
100
AcDbLine
 10
179.4774483545
 20
1833.4940110858
 30
0.0
 11
161.4774483545
 21
1833.4940110858
 31
0.0
  0
ARC
  5
E0
330
1F
100
AcDbEntity
  8
0
  6
Continuous
 62
     7
370
    25
100
AcDbCircle
 10
2061.4774483545
 20
1461.9940110858
 30
0.0
 40
3.5
100
AcDbArc
 50
90.0
 51
270.0
  0
LINE
  5
E1
330
1F
100
AcDbEntity
  8
0
  6
Continuous
 62
     7
370
    25
100
AcDbLine
 10
2079.4774483545
 20
1458.4940110858
 30
0.0
 11
2061.4774483545
 21
1458.4940110858
 31
0.0
  0
ARC
  5
E2
330
1F
100
AcDbEntity
  8
0
  6
Continuous
 62
     7
370
    25
100
AcDbCircle
 10
2079.4774483545
 20
1461.9940110858
 30
0.0
 40
3.5
100
AcDbArc
 50
270.0
 51
90.0
  0
LINE
  5
E3
330
1F
100
AcDbEntity
  8
0
  6
Continuous
 62
     7
370
    25
100
AcDbLine
 10
2061.4774483545
 20
1465.4940110858
 30
0.0
 11
2079.4774483545
 21
1465.4940110858
 31
0.0
  0
LINE
  5
E4
330
1F
100
AcDbEntity
  8
0
  6
Continuous
 62
     7
370
    25
100
AcDbLine
 10
117.4774483545
 20
1553.4940110858
 30
0.0
 11
117.4774483545
 21
1545.4940110858
 31
0.0
  0
ARC
  5
E5
330
1F
100
AcDbEntity
  8
0
  6
Continuous
 62
     7
370
    25
100
AcDbCircle
 10
116.4774483545
 20
1553.4940110858
 30
0.0
 40
1.0
100
AcDbArc
 50
0.0
 51
90.0
  0
LINE
  5
E6
330
1F
100
AcDbEntity
  8
0
  6
Continuous
 62
     7
370
    25
100
AcDbLine
 10
111.4774483545
 20
1554.4940110858
 30
0.0
 11
116.4774483545
 21
1554.4940110858
 31
0.0
  0
ARC
  5
E7
330
1F
100
AcDbEntity
  8
0
  6
Continuous
 62
     7
370
    25
100
AcDbCircle
 10
111.4774483545
 20
1553.4940110858
 30
0.0
 40
1.0
100
AcDbArc
 50
90.0
 51
180.0
  0
LINE
  5
E8
330
1F
100
AcDbEntity
  8
0
  6
Continuous
 62
     7
370
    25
100
AcDbLine
 10
110.4774483545
 20
1545.4940110858
 30
0.0
 11
110.4774483545
 21
1553.4940110858
 31
0.0
  0
ARC
  5
E9
330
1F
100
AcDbEntity
  8
0
  6
Continuous
 62
     7
370
    25
100
AcDbCircle
 10
111.4774483545
 20
1545.4940110858
 30
0.0
 40
1.000000000000227
100
AcDbArc
 50
180.0
 51
270.0
  0
LINE
  5
EA
330
1F
100
AcDbEntity
  8
0
  6
Continuous
 62
     7
370
    25
100
AcDbLine
 10
116.4774483545
 20
1544.4940110858
 30
0.0
 11
111.4774483545
 21
1544.4940110858
 31
0.0
  0
ARC
  5
EB
330
1F
100
AcDbEntity
  8
0
  6
Continuous
 62
     7
370
    25
100
AcDbCircle
 10
116.4774483545
 20
1545.4940110858
 30
0.0
 40
1.000000000000227
100
AcDbArc
 50
270.0
 51
0.0
  0
LINE
  5
EC
330
1F
100
AcDbEntity
  8
0
  6
Continuous
 62
     7
370
    25
100
AcDbLine
 10
117.4774483545
 20
1753.4940110858
 30
0.0
 11
117.4774483545
 21
1745.4940110858
 31
0.0
  0
ARC
  5
ED
330
1F
100
AcDbEntity
  8
0
  6
Continuous
 62
     7
370
    25
100
AcDbCircle
 10
116.4774483545
 20
1753.4940110858
 30
0.0
 40
1.0
100
AcDbArc
 50
0.0
 51
90.0
  0
LINE
  5
EE
330
1F
100
AcDbEntity
  8
0
  6
Continuous
 62
     7
370
    25
100
AcDbLine
 10
111.4774483545
 20
1754.4940110858
 30
0.0
 11
116.4774483545
 21
1754.4940110858
 31
0.0
  0
ARC
  5
EF
330
1F
100
AcDbEntity
  8
0
  6
Continuous
 62
     7
370
    25
100
AcDbCircle
 10
111.4774483545
 20
1753.4940110858
 30
0.0
 40
1.0
100
AcDbArc
 50
90.0
 51
180.0
  0
LINE
  5
F0
330
1F
100
AcDbEntity
  8
0
  6
Continuous
 62
     7
370
    25
100
AcDbLine
 10
110.4774483545
 20
1745.4940110858
 30
0.0
 11
110.4774483545
 21
1753.4940110858
 31
0.0
  0
ARC
  5
F1
330
1F
100
AcDbEntity
  8
0
  6
Continuous
 62
     7
370
    25
100
AcDbCircle
 10
111.4774483545
 20
1745.4940110858
 30
0.0
 40
1.0
100
AcDbArc
 50
180.0
 51
270.0
  0
LINE
  5
F2
330
1F
100
AcDbEntity
  8
0
  6
Continuous
 62
     7
370
    25
100
AcDbLine
 10
116.4774483545
 20
1744.4940110858
 30
0.0
 11
111.4774483545
 21
1744.4940110858
 31
0.0
  0
ARC
  5
F3
330
1F
100
AcDbEntity
  8
0
  6
Continuous
 62
     7
370
    25
100
AcDbCircle
 10
116.4774483545
 20
1745.4940110858
 30
0.0
 40
1.0
100
AcDbArc
 50
270.0
 51
0.0
  0
LINE
  5
F4
330
1F
100
AcDbEntity
  8
0
  6
Continuous
 62
     7
370
    25
100
AcDbLine
 10
2080.4774483545
 20
1553.4940110858
 30
0.0
 11
2080.4774483545
 21
1545.4940110858
 31
0.0
  0
ARC
  5
F5
330
1F
100
AcDbEntity
  8
0
  6
Continuous
 62
     7
370
    25
100
AcDbCircle
 10
2079.4774483545
 20
1553.4940110858
 30
0.0
 40
1.0
100
AcDbArc
 50
0.0
 51
90.0
  0
LINE
  5
F6
330
1F
100
AcDbEntity
  8
0
  6
Continuous
 62
     7
370
    25
100
AcDbLine
 10
2074.4774483545
 20
1554.4940110858
 30
0.0
 11
2079.4774483545
 21
1554.4940110858
 31
0.0
  0
ARC
  5
F7
330
1F
100
AcDbEntity
  8
0
  6
Continuous
 62
     7
370
    25
100
AcDbCircle
 10
2074.4774483545
 20
1553.4940110858
 30
0.0
 40
1.0
100
AcDbArc
 50
90.0
 51
180.0
  0
LINE
  5
F8
330
1F
100
AcDbEntity
  8
0
  6
Continuous
 62
     7
370
    25
100
AcDbLine
 10
2073.4774483545
 20
1545.4940110858
 30
0.0
 11
2073.4774483545
 21
1553.4940110858
 31
0.0
  0
ARC
  5
F9
330
1F
100
AcDbEntity
  8
0
  6
Continuous
 62
     7
370
    25
100
AcDbCircle
 10
2074.4774483545
 20
1545.4940110858
 30
0.0
 40
1.0
100
AcDbArc
 50
180.0
 51
270.0
  0
LINE
  5
FA
330
1F
100
AcDbEntity
  8
0
  6
Continuous
 62
     7
370
    25
100
AcDbLine
 10
2079.4774483545
 20
1544.4940110858
 30
0.0
 11
2074.4774483545
 21
1544.4940110858
 31
0.0
  0
ARC
  5
FB
330
1F
100
AcDbEntity
  8
0
  6
Continuous
 62
     7
370
    25
100
AcDbCircle
 10
2079.4774483545
 20
1545.4940110858
 30
0.0
 40
1.0
100
AcDbArc
 50
270.0
 51
0.0
  0
LINE
  5
FC
330
1F
100
AcDbEntity
  8
0
  6
Continuous
 62
     7
370
    25
100
AcDbLine
 10
2080.4774483545
 20
1753.4940110858
 30
0.0
 11
2080.4774483545
 21
1745.4940110858
 31
0.0
  0
ARC
  5
FD
330
1F
100
AcDbEntity
  8
0
  6
Continuous
 62
     7
370
    25
100
AcDbCircle
 10
2079.4774483545
 20
1753.4940110858
 30
0.0
 40
1.0
100
AcDbArc
 50
0.0
 51
90.0
  0
LINE
  5
FE
330
1F
100
AcDbEntity
  8
0
  6
Continuous
 62
     7
370
    25
100
AcDbLine
 10
2074.4774483545
 20
1754.4940110858
 30
0.0
 11
2079.4774483545
 21
1754.4940110858
 31
0.0
  0
ARC
  5
FF
330
1F
100
AcDbEntity
  8
0
  6
Continuous
 62
     7
370
    25
100
AcDbCircle
 10
2074.4774483545
 20
1753.4940110858
 30
0.0
 40
1.000000000000227
100
AcDbArc
 50
90.0
 51
180.0
  0
LINE
  5
100
330
1F
100
AcDbEntity
  8
0
  6
Continuous
 62
     7
370
    25
100
AcDbLine
 10
2073.4774483545
 20
1745.4940110858
 30
0.0
 11
2073.4774483545
 21
1753.4940110858
 31
0.0
  0
ARC
  5
101
330
1F
100
AcDbEntity
  8
0
  6
Continuous
 62
     7
370
    25
100
AcDbCircle
 10
2074.4774483545
 20
1745.4940110858
 30
0.0
 40
1.0
100
AcDbArc
 50
180.0
 51
270.0
  0
LINE
  5
102
330
1F
100
AcDbEntity
  8
0
  6
Continuous
 62
     7
370
    25
100
AcDbLine
 10
2079.4774483545
 20
1744.4940110858
 30
0.0
 11
2074.4774483545
 21
1744.4940110858
 31
0.0
  0
ARC
  5
103
330
1F
100
AcDbEntity
  8
0
  6
Continuous
 62
     7
370
    25
100
AcDbCircle
 10
2079.4774483545
 20
1745.4940110858
 30
0.0
 40
1.0
100
AcDbArc
 50
270.0
 51
0.0
  0
LINE
  5
104
330
1F
100
AcDbEntity
  8
0
  6
Continuous
 62
     7
370
    25
100
AcDbLine
 10
2095.4774483545
 20
1449.4940110858
 30
0.0
 11
2095.4774483545
 21
1451.9940110858
 31
0.0
  0
LINE
  5
105
330
1F
100
AcDbEntity
  8
0
  6
Continuous
 62
     7
370
    25
100
AcDbLine
 10
2081.2802239922
 20
1458.9940110858
 30
0.0
 11
2059.6746727168
 21
1458.9940110858
 31
0.0
  0
LINE
  5
106
330
1F
100
AcDbEntity
  8
0
  6
Continuous
 62
     7
370
    25
100
AcDbLine
 10
2031.2802239922
 20
1458.9940110858
 30
0.0
 11
2009.6746727168
 21
1458.9940110858
 31
0.0
  0
LINE
  5
107
330
1F
100
AcDbEntity
  8
0
  6
Continuous
 62
     7
370
    25
100
AcDbLine
 10
181.2802239922
 20
1458.9940110858
 30
0.0
 11
159.6746727168
 21
1458.9940110858
 31
0.0
  0
LINE
  5
108
330
1F
100
AcDbEntity
  8
0
  6
Continuous
 62
     7
370
    25
100
AcDbLine
 10
131.2802239922
 20
1458.9940110858
 30
0.0
 11
109.6746727168
 21
1458.9940110858
 31
0.0
  0
LINE
  5
109
330
1F
100
AcDbEntity
  8
0
  6
Continuous
 62
     7
370
    25
100
AcDbLine
 10
2081.2802239922
 20
1839.9940110858
 30
0.0
 11
2059.6746727168
 21
1839.9940110858
 31
0.0
  0
LINE
  5
10A
330
1F
100
AcDbEntity
  8
0
  6
Continuous
 62
     7
370
    25
100
AcDbLine
 10
2031.2802239922
 20
1839.9940110858
 30
0.0
 11
2009.6746727168
 21
1839.9940110858
 31
0.0
  0
LINE
  5
10B
330
1F
100
AcDbEntity
  8
0
  6
Continuous
 62
     7
370
    25
100
AcDbLine
 10
181.2802239922
 20
1839.9940110858
 30
0.0
 11
159.6746727168
 21
1839.9940110858
 31
0.0
  0
LINE
  5
10C
330
1F
100
AcDbEntity
  8
0
  6
Continuous
 62
     7
370
    25
100
AcDbLine
 10
131.2802239922
 20
1839.9940110858
 30
0.0
 11
109.6746727168
 21
1839.9940110858
 31
0.0
  0
LINE
  5
10D
330
1F
100
AcDbEntity
  8
0
  6
Continuous
 62
     7
370
    25
100
AcDbLine
 10
2322.8484167386
 20
1281.386440424
 30
0.0
 11
2322.8484167386
 21
1280.2206712786
 31
0.0
  0
LINE
  5
10E
330
1F
100
AcDbEntity
  8
0
  6
Continuous
 62
     7
370
    25
100
AcDbLine
 10
2323.7414477144
 20
1282.1357823864
 30
0.0
 11
2322.8484167386
 21
1281.386440424
 31
0.0
  0
LINE
  5
10F
330
1F
100
AcDbEntity
  8
0
  6
Continuous
 62
     7
370
    25
100
AcDbLine
 10
2324.7056291289
 20
1280.9867157217
 30
0.0
 11
2324.3484167386
 21
1280.6869789367
 31
0.0
  0
LINE
  5
110
330
1F
100
AcDbEntity
  8
0
  6
Continuous
 62
     7
370
    25
100
AcDbLine
 10
2324.3484167386
 20
1280.6869789367
 30
0.0
 11
2324.3484167386
 21
1280.2206712786
 31
0.0
  0
LINE
  5
111
330
1F
100
AcDbEntity
  8
0
  6
Continuous
 62
     7
370
    25
100
AcDbLine
 10
2322.8484167386
 20
1195.2206712786
 30
0.0
 11
2325.3484167386
 21
1195.2206712786
 31
0.0
  0
LINE
  5
112
330
1F
100
AcDbEntity
  8
0
  6
Continuous
 62
     7
370
    25
100
AcDbLine
 10
2322.8484167386
 20
1197.7206712786
 30
0.0
 11
2322.8484167386
 21
1195.2206712786
 31
0.0
  0
LINE
  5
113
330
1F
100
AcDbEntity
  8
0
  6
Continuous
 62
     7
370
    25
100
AcDbLine
 10
2324.3484167386
 20
1197.7206712786
 30
0.0
 11
2324.3484167386
 21
1196.7206712786
 31
0.0
  0
LINE
  5
114
330
1F
100
AcDbEntity
  8
0
  6
Continuous
 62
     7
370
    25
100
AcDbLine
 10
2324.3484167386
 20
1196.7206712786
 30
0.0
 11
2325.3484167386
 21
1196.7206712786
 31
0.0
  0
LINE
  5
115
330
1F
100
AcDbEntity
  8
0
  6
Continuous
 62
     7
370
    25
100
AcDbLine
 10
2324.3484167386
 20
1197.7206712786
 30
0.0
 11
2324.3484167386
 21
1280.2206712786
 31
0.0
  0
LINE
  5
116
330
1F
100
AcDbEntity
  8
0
  6
Continuous
 62
     7
370
    25
100
AcDbLine
 10
2322.8484167386
 20
1197.7206712786
 30
0.0
 11
2322.8484167386
 21
1280.2206712786
 31
0.0
  0
LINE
  5
117
330
1F
100
AcDbEntity
  8
0
  6
Continuous
 62
     7
370
    25
100
AcDbLine
 10
2327.6275833549
 20
1285.3966373691
 30
0.0
 11
2323.7414477144
 21
1282.1357823864
 31
0.0
  0
LINE
  5
118
330
1F
100
AcDbEntity
  8
0
  6
Continuous
 62
     7
370
    25
100
AcDbLine
 10
2323.3484167386
 20
1290.4963495574
 30
0.0
 11
2327.6275833549
 21
1285.3966373691
 31
0.0
  0
LINE
  5
119
330
1F
100
AcDbEntity
  8
0
  6
Continuous
 62
     7
370
    25
100
AcDbLine
 10
2332.3484167386
 20
1295.1869789367
 30
0.0
 11
2328.9384911529
 21
1295.1869789367
 31
0.0
  0
LINE
  5
11A
330
1F
100
AcDbEntity
  8
0
  6
Continuous
 62
     7
370
    25
100
AcDbLine
 10
2332.3484167386
 20
1287.3997759861
 30
0.0
 11
2332.3484167386
 21
1295.1869789367
 31
0.0
  0
LINE
  5
11B
330
1F
100
AcDbEntity
  8
0
  6
Continuous
 62
     7
370
    25
100
AcDbLine
 10
2332.3484167386
 20
1287.3997759861
 30
0.0
 11
2324.7056291289
 21
1280.9867157217
 31
0.0
  0
LINE
  5
11C
330
1F
100
AcDbEntity
  8
0
  6
Continuous
 62
     7
370
    25
100
AcDbLine
 10
2328.9384911529
 20
1295.1869789367
 30
0.0
 11
2323.3484167386
 21
1290.4963495574
 31
0.0
  0
LINE
  5
11D
330
1F
100
AcDbEntity
  8
0
  6
Continuous
 62
     7
370
    25
100
AcDbLine
 10
2722.8484167386
 20
1195.2206712786
 30
0.0
 11
2722.8484167386
 21
1197.7206712786
 31
0.0
  0
LINE
  5
11E
330
1F
100
AcDbEntity
  8
0
  6
Continuous
 62
     7
370
    25
100
AcDbLine
 10
2720.3484167386
 20
1195.2206712786
 30
0.0
 11
2722.8484167386
 21
1195.2206712786
 31
0.0
  0
LINE
  5
11F
330
1F
100
AcDbEntity
  8
0
  6
Continuous
 62
     7
370
    25
100
AcDbLine
 10
2720.3484167386
 20
1196.7206712786
 30
0.0
 11
2721.3484167386
 21
1196.7206712786
 31
0.0
  0
LINE
  5
120
330
1F
100
AcDbEntity
  8
0
  6
Continuous
 62
     7
370
    25
100
AcDbLine
 10
2721.3484167386
 20
1196.7206712786
 30
0.0
 11
2721.3484167386
 21
1197.7206712786
 31
0.0
  0
LINE
  5
121
330
1F
100
AcDbEntity
  8
0
  6
Continuous
 62
     7
370
    25
100
AcDbLine
 10
2720.3484167386
 20
1196.7206712786
 30
0.0
 11
2325.3484167386
 21
1196.7206712786
 31
0.0
  0
LINE
  5
122
330
1F
100
AcDbEntity
  8
0
  6
Continuous
 62
     7
370
    25
100
AcDbLine
 10
2720.3484167386
 20
1195.2206712786
 30
0.0
 11
2325.3484167386
 21
1195.2206712786
 31
0.0
  0
LINE
  5
123
330
1F
100
AcDbEntity
  8
0
  6
Continuous
 62
     7
370
    25
100
AcDbLine
 10
2713.3484167386
 20
1287.3997759861
 30
0.0
 11
2720.9912043483
 21
1280.9867157217
 31
0.0
  0
LINE
  5
124
330
1F
100
AcDbEntity
  8
0
  6
Continuous
 62
     7
370
    25
100
AcDbLine
 10
2713.3484167386
 20
1287.3997759861
 30
0.0
 11
2713.3484167386
 21
1295.1869789367
 31
0.0
  0
LINE
  5
125
330
1F
100
AcDbEntity
  8
0
  6
Continuous
 62
     7
370
    25
100
AcDbLine
 10
2716.7583423243
 20
1295.1869789367
 30
0.0
 11
2713.3484167386
 21
1295.1869789367
 31
0.0
  0
LINE
  5
126
330
1F
100
AcDbEntity
  8
0
  6
Continuous
 62
     7
370
    25
100
AcDbLine
 10
2716.7583423243
 20
1295.1869789367
 30
0.0
 11
2722.3484167386
 21
1290.4963495574
 31
0.0
  0
LINE
  5
127
330
1F
100
AcDbEntity
  8
0
  6
Continuous
 62
     7
370
    25
100
AcDbLine
 10
2718.0692501222
 20
1285.3966373691
 30
0.0
 11
2721.9553857628
 21
1282.1357823864
 31
0.0
  0
LINE
  5
128
330
1F
100
AcDbEntity
  8
0
  6
Continuous
 62
     7
370
    25
100
AcDbLine
 10
2722.3484167386
 20
1290.4963495574
 30
0.0
 11
2718.0692501222
 21
1285.3966373691
 31
0.0
  0
LINE
  5
129
330
1F
100
AcDbEntity
  8
0
  6
Continuous
 62
     7
370
    25
100
AcDbLine
 10
2722.8484167386
 20
1280.2206712786
 30
0.0
 11
2722.8484167386
 21
1197.7206712786
 31
0.0
  0
LINE
  5
12A
330
1F
100
AcDbEntity
  8
0
  6
Continuous
 62
     7
370
    25
100
AcDbLine
 10
2721.3484167386
 20
1280.2206712786
 30
0.0
 11
2721.3484167386
 21
1197.7206712786
 31
0.0
  0
LINE
  5
12B
330
1F
100
AcDbEntity
  8
0
  6
Continuous
 62
     7
370
    25
100
AcDbLine
 10
2722.8484167386
 20
1281.386440424
 30
0.0
 11
2721.9553857628
 21
1282.1357823864
 31
0.0
  0
LINE
  5
12C
330
1F
100
AcDbEntity
  8
0
  6
Continuous
 62
     7
370
    25
100
AcDbLine
 10
2721.3484167386
 20
1280.6869789367
 30
0.0
 11
2720.9912043483
 21
1280.9867157217
 31
0.0
  0
LINE
  5
12D
330
1F
100
AcDbEntity
  8
0
  6
Continuous
 62
     7
370
    25
100
AcDbLine
 10
2722.8484167386
 20
1280.2206712786
 30
0.0
 11
2722.8484167386
 21
1281.386440424
 31
0.0
  0
LINE
  5
12E
330
1F
100
AcDbEntity
  8
0
  6
Continuous
 62
     7
370
    25
100
AcDbLine
 10
2721.3484167386
 20
1280.2206712786
 30
0.0
 11
2721.3484167386
 21
1280.6869789367
 31
0.0
  0
LINE
  5
12F
330
1F
100
AcDbEntity
  8
0
  6
Continuous
 62
     7
370
    25
100
AcDbLine
 10
1430.9291556964
 20
155.1986089061
 30
0.0
 11
1434.8819352221
 21
149.0866275357
 31
0.0
  0
LINE
  5
130
330
1F
100
AcDbEntity
  8
0
  6
Continuous
 62
     7
370
    25
100
AcDbLine
 10
2845.1427180695
 20
971.6067207289
 30
0.0
 11
1430.9291556964
 21
155.1986089061
 31
0.0
  0
LINE
  5
131
330
1F
100
AcDbEntity
  8
0
  6
Continuous
 62
     7
370
    25
100
AcDbLine
 10
2849.0954975952
 20
965.4947393584
 30
0.0
 11
2845.1427180695
 21
971.6067207289
 31
0.0
  0
LINE
  5
132
330
1F
100
AcDbEntity
  8
0
  6
Continuous
 62
     7
370
    25
100
AcDbLine
 10
1434.8819352221
 20
149.0866275357
 30
0.0
 11
2849.0954975952
 21
965.4947393584
 31
0.0
  0
LINE
  5
133
330
1F
100
AcDbEntity
  8
0
  6
Continuous
 62
     7
370
    25
100
AcDbLine
 10
1428.5179741914
 20
150.231985341
 30
0.0
 11
1433.9222411374
 21
141.8756430052
 31
0.0
  0
LINE
  5
134
330
1F
100
AcDbEntity
  8
0
  6
Continuous
 62
     7
370
    25
100
AcDbLine
 10
1428.5179741914
 20
150.231985341
 30
0.0
 11
1428.5179741914
 21
156.5905543606
 31
0.0
  0
LINE
  5
135
330
1F
100
AcDbEntity
  8
0
  6
Continuous
 62
     7
370
    25
100
AcDbLine
 10
1430.9291556964
 20
155.1986089061
 30
0.0
 11
1428.5179741914
 21
156.5905543606
 31
0.0
  0
LINE
  5
136
330
1F
100
AcDbEntity
  8
0
  6
Continuous
 62
     7
370
    25
100
AcDbLine
 10
1434.8819352221
 20
149.0866275357
 30
0.0
 11
1431.8561074898
 21
146.6692775738
 31
0.0
  0
LINE
  5
137
330
1F
100
AcDbEntity
  8
0
  6
Continuous
 62
     7
370
    25
100
AcDbLine
 10
1431.8561074898
 20
146.6692775738
 30
0.0
 11
1434.6040203539
 21
142.4203200685
 31
0.0
  0
LINE
  5
138
330
1F
100
AcDbEntity
  8
0
  6
Continuous
 62
     7
370
    25
100
AcDbLine
 10
2849.0954975952
 20
965.4947393584
 30
0.0
 11
2846.0696698629
 21
963.0773893965
 31
0.0
  0
LINE
  5
139
330
1F
100
AcDbEntity
  8
0
  6
Continuous
 62
     7
370
    25
100
AcDbLine
 10
1431.8561074898
 20
146.6692775738
 30
0.0
 11
2846.0696698629
 21
963.0773893965
 31
0.0
  0
LINE
  5
13A
330
1F
100
AcDbEntity
  8
0
  6
Continuous
 62
     7
370
    25
100
AcDbLine
 10
2845.1427180695
 20
971.6067207289
 30
0.0
 11
2842.7315365645
 21
972.9986661833
 31
0.0
  0
LINE
  5
13B
330
1F
100
AcDbEntity
  8
0
  6
Continuous
 62
     7
370
    25
100
AcDbLine
 10
2842.7315365645
 20
972.9986661833
 30
0.0
 11
1428.5179741914
 21
156.5905543606
 31
0.0
  0
LINE
  5
13C
330
1F
100
AcDbEntity
  8
0
  6
Continuous
 62
     7
370
    25
100
AcDbLine
 10
2848.817582727
 20
958.8284318912
 30
0.0
 11
2846.0696698629
 21
963.0773893965
 31
0.0
  0
LINE
  5
13D
330
1F
100
AcDbEntity
  8
0
  6
Continuous
 62
     7
370
    25
100
AcDbLine
 10
2849.4490509858
 20
957.8520247304
 30
0.0
 11
2848.817582727
 21
958.8284318912
 31
0.0
  0
LINE
  5
13E
330
1F
100
AcDbEntity
  8
0
  6
Continuous
 62
     7
370
    25
100
AcDbLine
 10
2849.4490509858
 20
957.8520247304
 30
0.0
 11
1435.2354886127
 21
141.4439129077
 31
0.0
  0
LINE
  5
13F
330
1F
100
AcDbEntity
  8
0
  6
Continuous
 62
     7
370
    25
100
AcDbLine
 10
1435.2354886127
 20
141.4439129077
 30
0.0
 11
1434.6040203539
 21
142.4203200685
 31
0.0
  0
LINE
  5
140
330
1F
100
AcDbEntity
  8
0
  6
Continuous
 62
     7
370
    25
100
AcDbLine
 10
1435.2354886127
 20
140.4920148233
 30
0.0
 11
1435.2354886127
 21
141.4439129077
 31
0.0
  0
LINE
  5
141
330
1F
100
AcDbEntity
  8
0
  6
Continuous
 62
     7
370
    25
100
AcDbLine
 10
1434.1748284409
 20
141.1043209072
 30
0.0
 11
1434.1748284409
 21
141.4850801409
 31
0.0
  0
LINE
  5
142
330
1F
100
AcDbEntity
  8
0
  6
Continuous
 62
     7
370
    25
100
AcDbLine
 10
1434.1748284409
 20
141.4850801409
 30
0.0
 11
1433.9222411374
 21
141.8756430052
 31
0.0
  0
LINE
  5
143
330
1F
100
AcDbEntity
  8
0
  6
Continuous
 62
     7
370
    25
100
AcDbLine
 10
2849.4490509858
 20
956.900126646
 30
0.0
 11
2849.4490509858
 21
957.8520247304
 31
0.0
  0
LINE
  5
144
330
1F
100
AcDbEntity
  8
0
  6
Continuous
 62
     7
370
    25
100
AcDbLine
 10
2849.4490509858
 20
956.900126646
 30
0.0
 11
2849.4490509858
 21
889.5355096654
 31
0.0
  0
LINE
  5
145
330
1F
100
AcDbEntity
  8
0
  6
Continuous
 62
     7
370
    25
100
AcDbLine
 10
2849.4490509858
 20
887.4941576357
 30
0.0
 11
2849.4490509858
 21
889.5355096654
 31
0.0
  0
LINE
  5
146
330
1F
100
AcDbEntity
  8
0
  6
Continuous
 62
     7
370
    25
100
AcDbLine
 10
2849.4490509858
 20
887.4941576357
 30
0.0
 11
1435.2354886127
 21
71.086045813
 31
0.0
  0
LINE
  5
147
330
1F
100
AcDbEntity
  8
0
  6
Continuous
 62
     7
370
    25
100
AcDbLine
 10
1435.2354886127
 20
71.086045813
 30
0.0
 11
1435.2354886127
 21
73.1273978427
 31
0.0
  0
LINE
  5
148
330
1F
100
AcDbEntity
  8
0
  6
Continuous
 62
     7
370
    25
100
AcDbLine
 10
1435.2354886127
 20
140.4920148233
 30
0.0
 11
1435.2354886127
 21
73.1273978427
 31
0.0
  0
LWPOLYLINE
  5
149
330
1F
100
AcDbEntity
  8
0
  6
Continuous
 62
     7
370
    25
100
AcDbPolyline
 90
       10
 70
   128
 43
0.0
 10
1494.6324582324
 20
117.2150282819
 10
1495.4789149016
 20
117.8760293432
 10
1496.2232764042
 20
118.8020079759
 10
1496.7757617573
 20
119.8812774909
 10
1497.0697330735
 20
120.9836620563
 10
1497.0697330735
 20
121.9761978242
 10
1496.7757617573
 20
122.7391703325
 10
1496.2232764042
 20
123.1805538366
 10
1495.4789149016
 20
123.2471109717
 10
1494.6324582324
 20
122.9308139651
  0
LINE
  5
14A
330
1F
100
AcDbEntity
  8
0
  6
Continuous
 62
     7
370
    25
100
AcDbLine
 10
1494.6324582324
 20
122.9308139651
 30
0.0
 11
1481.904536171
 21
115.5831409587
 31
0.0
  0
LWPOLYLINE
  5
14B
330
1F
100
AcDbEntity
  8
0
  6
Continuous
 62
     7
370
    25
100
AcDbPolyline
 90
       10
 70
   128
 43
0.0
 10
1481.904536171
 20
115.5831409587
 10
1481.0580795017
 20
114.9221398974
 10
1480.3137179991
 20
113.9961612647
 10
1479.7612326461
 20
112.9168917497
 10
1479.4672613299
 20
111.8145071842
 10
1479.4672613299
 20
110.8219714164
 10
1479.7612326461
 20
110.0589989081
 10
1480.3137179991
 20
109.617615404
 10
1481.0580795017
 20
109.5510582689
 10
1481.904536171
 20
109.8673552755
  0
LINE
  5
14C
330
1F
100
AcDbEntity
  8
0
  6
Continuous
 62
     7
370
    25
100
AcDbLine
 10
1481.904536171
 20
109.8673552755
 30
0.0
 11
1494.6324582324
 21
117.2150282819
 31
0.0
  0
LWPOLYLINE
  5
14D
330
1F
100
AcDbEntity
  8
0
  6
Continuous
 62
     7
370
    25
100
AcDbPolyline
 90
       10
 70
   128
 43
0.0
 10
1459.277119173
 20
96.8048254863
 10
1460.1235758423
 20
97.4658265477
 10
1460.8679373449
 20
98.3918051804
 10
1461.420422698
 20
99.4710746953
 10
1461.7143940141
 20
100.5734592608
 10
1461.7143940141
 20
101.5659950286
 10
1461.420422698
 20
102.3289675369
 10
1460.8679373449
 20
102.770351041
 10
1460.1235758423
 20
102.8369081762
 10
1459.277119173
 20
102.5206111695
  0
LINE
  5
14E
330
1F
100
AcDbEntity
  8
0
  6
Continuous
 62
     7
370
    25
100
AcDbLine
 10
1459.277119173
 20
102.5206111695
 30
0.0
 11
1446.5491971117
 21
95.1729381631
 31
0.0
  0
LWPOLYLINE
  5
14F
330
1F
100
AcDbEntity
  8
0
  6
Continuous
 62
     7
370
    25
100
AcDbPolyline
 90
       10
 70
   128
 43
0.0
 10
1446.5491971117
 20
95.1729381631
 10
1445.7027404424
 20
94.5119371018
 10
1444.9583789398
 20
93.5859584691
 10
1444.4058935867
 20
92.5066889541
 10
1444.1119222705
 20
91.4043043887
 10
1444.1119222705
 20
90.4117686209
 10
1444.4058935867
 20
89.6487961125
 10
1444.9583789398
 20
89.2074126084
 10
1445.7027404424
 20
89.1408554733
 10
1446.5491971117
 20
89.4571524799
  0
LINE
  5
150
330
1F
100
AcDbEntity
  8
0
  6
Continuous
 62
     7
370
    25
100
AcDbLine
 10
1446.5491971117
 20
89.4571524799
 30
0.0
 11
1459.277119173
 21
96.8048254863
 31
0.0
  0
LWPOLYLINE
  5
151
330
1F
100
AcDbEntity
  8
0
  6
Continuous
 62
     7
370
    25
100
AcDbPolyline
 90
       10
 70
   128
 43
0.0
 10
2825.4074204254
 20
891.1708471903
 10
2824.5609637562
 20
890.5098461289
 10
2823.8166022536
 20
889.5838674962
 10
2823.2641169005
 20
888.5045979812
 10
2822.9701455843
 20
887.4022134158
 10
2822.9701455843
 20
886.409677648
 10
2823.2641169005
 20
885.6467051396
 10
2823.8166022536
 20
885.2053216356
 10
2824.5609637562
 20
885.1387645004
 10
2825.4074204254
 20
885.4550615071
  0
LINE
  5
152
330
1F
100
AcDbEntity
  8
0
  6
Continuous
 62
     7
370
    25
100
AcDbLine
 10
2825.4074204254
 20
885.4550615071
 30
0.0
 11
2838.1353424868
 21
892.8027345135
 31
0.0
  0
LWPOLYLINE
  5
153
330
1F
100
AcDbEntity
  8
0
  6
Continuous
 62
     7
370
    25
100
AcDbPolyline
 90
       10
 70
   128
 43
0.0
 10
2838.1353424868
 20
892.8027345135
 10
2838.9817991561
 20
893.4637355748
 10
2839.7261606586
 20
894.3897142075
 10
2840.2786460117
 20
895.4689837225
 10
2840.5726173279
 20
896.5713682879
 10
2840.5726173279
 20
897.5639040557
 10
2840.2786460117
 20
898.3268765641
 10
2839.7261606586
 20
898.7682600682
 10
2838.9817991561
 20
898.8348172033
 10
2838.1353424868
 20
898.5185201967
  0
LINE
  5
154
330
1F
100
AcDbEntity
  8
0
  6
Continuous
 62
     7
370
    25
100
AcDbLine
 10
2838.1353424868
 20
898.5185201967
 30
0.0
 11
2825.4074204254
 21
891.1708471903
 31
0.0
  0
LWPOLYLINE
  5
155
330
1F
100
AcDbEntity
  8
0
  6
Continuous
 62
     7
370
    25
100
AcDbPolyline
 90
       10
 70
   128
 43
0.0
 10
2790.0520813661
 20
870.7606443947
 10
2789.2056246968
 20
870.0996433334
 10
2788.4612631943
 20
869.1736647007
 10
2787.9087778412
 20
868.0943951857
 10
2787.614806525
 20
866.9920106203
 10
2787.614806525
 20
865.9994748524
 10
2787.9087778412
 20
865.2365023441
 10
2788.4612631943
 20
864.79511884
 10
2789.2056246968
 20
864.7285617049
 10
2790.0520813661
 20
865.0448587115
  0
LINE
  5
156
330
1F
100
AcDbEntity
  8
0
  6
Continuous
 62
     7
370
    25
100
AcDbLine
 10
2790.0520813661
 20
865.0448587115
 30
0.0
 11
2802.7800034275
 21
872.3925317179
 31
0.0
  0
LWPOLYLINE
  5
157
330
1F
100
AcDbEntity
  8
0
  6
Continuous
 62
     7
370
    25
100
AcDbPolyline
 90
       10
 70
   128
 43
0.0
 10
2802.7800034275
 20
872.3925317179
 10
2803.6264600967
 20
873.0535327792
 10
2804.3708215993
 20
873.9795114119
 10
2804.9233069524
 20
875.0587809269
 10
2805.2172782686
 20
876.1611654923
 10
2805.2172782686
 20
877.1537012602
 10
2804.9233069524
 20
877.9166737685
 10
2804.3708215993
 20
878.3580572726
 10
2803.6264600967
 20
878.4246144077
 10
2802.7800034275
 20
878.1083174011
  0
LINE
  5
158
330
1F
100
AcDbEntity
  8
0
  6
Continuous
 62
     7
370
    25
100
AcDbLine
 10
2802.7800034275
 20
878.1083174011
 30
0.0
 11
2790.0520813661
 21
870.7606443947
 31
0.0
  0
LWPOLYLINE
  5
159
330
1F
100
AcDbEntity
  8
0
  6
Continuous
 62
     7
370
    25
100
AcDbPolyline
 90
       10
 70
   128
 43
0.0
 10
1494.6324582324
 20
145.7939566979
 10
1495.4789149016
 20
146.4549577592
 10
1496.2232764042
 20
147.3809363919
 10
1496.7757617573
 20
148.4602059069
 10
1497.0697330735
 20
149.5625904723
 10
1497.0697330735
 20
150.5551262402
 10
1496.7757617573
 20
151.3180987485
 10
1496.2232764042
 20
151.7594822526
 10
1495.4789149016
 20
151.8260393877
 10
1494.6324582324
 20
151.5097423811
  0
LINE
  5
15A
330
1F
100
AcDbEntity
  8
0
  6
Continuous
 62
     7
370
    25
100
AcDbLine
 10
1494.6324582324
 20
151.5097423811
 30
0.0
 11
1481.904536171
 21
144.1620693747
 31
0.0
  0
LWPOLYLINE
  5
15B
330
1F
100
AcDbEntity
  8
0
  6
Continuous
 62
     7
370
    25
100
AcDbPolyline
 90
       10
 70
   128
 43
0.0
 10
1481.904536171
 20
144.1620693747
 10
1481.0580795017
 20
143.5010683134
 10
1480.3137179991
 20
142.5750896807
 10
1479.7612326461
 20
141.4958201657
 10
1479.4672613299
 20
140.3934356003
 10
1479.4672613299
 20
139.4008998324
 10
1479.7612326461
 20
138.6379273241
 10
1480.3137179991
 20
138.19654382
 10
1481.0580795017
 20
138.1299866849
 10
1481.904536171
 20
138.4462836915
  0
LINE
  5
15C
330
1F
100
AcDbEntity
  8
0
  6
Continuous
 62
     7
370
    25
100
AcDbLine
 10
1481.904536171
 20
138.4462836915
 30
0.0
 11
1494.6324582324
 21
145.7939566979
 31
0.0
  0
LWPOLYLINE
  5
15D
330
1F
100
AcDbEntity
  8
0
  6
Continuous
 62
     7
370
    25
100
AcDbPolyline
 90
       10
 70
   128
 43
0.0
 10
2790.0520813661
 20
899.3395728107
 10
2789.2056246968
 20
898.6785717494
 10
2788.4612631943
 20
897.7525931167
 10
2787.9087778412
 20
896.6733236017
 10
2787.614806525
 20
895.5709390363
 10
2787.614806525
 20
894.5784032684
 10
2787.9087778412
 20
893.8154307601
 10
2788.4612631943
 20
893.374047256
 10
2789.2056246968
 20
893.3074901209
 10
2790.0520813661
 20
893.6237871275
  0
LINE
  5
15E
330
1F
100
AcDbEntity
  8
0
  6
Continuous
 62
     7
370
    25
100
AcDbLine
 10
2790.0520813661
 20
893.6237871275
 30
0.0
 11
2802.7800034275
 21
900.9714601339
 31
0.0
  0
LWPOLYLINE
  5
15F
330
1F
100
AcDbEntity
  8
0
  6
Continuous
 62
     7
370
    25
100
AcDbPolyline
 90
       10
 70
   128
 43
0.0
 10
2802.7800034275
 20
900.9714601339
 10
2803.6264600967
 20
901.6324611952
 10
2804.3708215993
 20
902.5584398279
 10
2804.9233069524
 20
903.6377093429
 10
2805.2172782686
 20
904.7400939083
 10
2805.2172782686
 20
905.7326296762
 10
2804.9233069524
 20
906.4956021845
 10
2804.3708215993
 20
906.9369856886
 10
2803.6264600967
 20
907.0035428237
 10
2802.7800034275
 20
906.6872458171
  0
LINE
  5
160
330
1F
100
AcDbEntity
  8
0
  6
Continuous
 62
     7
370
    25
100
AcDbLine
 10
2802.7800034275
 20
906.6872458171
 30
0.0
 11
2790.0520813661
 21
899.3395728107
 31
0.0
  0
LWPOLYLINE
  5
161
330
1F
100
AcDbEntity
  8
0
  6
Continuous
 62
     7
370
    25
100
AcDbPolyline
 90
       10
 70
   128
 43
0.0
 10
2825.4074204254
 20
919.7497756063
 10
2824.5609637562
 20
919.0887745449
 10
2823.8166022536
 20
918.1627959122
 10
2823.2641169005
 20
917.0835263972
 10
2822.9701455843
 20
915.9811418318
 10
2822.9701455843
 20
914.988606064
 10
2823.2641169005
 20
914.2256335556
 10
2823.8166022536
 20
913.7842500516
 10
2824.5609637562
 20
913.7176929164
 10
2825.4074204254
 20
914.0339899231
  0
LINE
  5
162
330
1F
100
AcDbEntity
  8
0
  6
Continuous
 62
     7
370
    25
100
AcDbLine
 10
2825.4074204254
 20
914.0339899231
 30
0.0
 11
2838.1353424868
 21
921.3816629295
 31
0.0
  0
LWPOLYLINE
  5
163
330
1F
100
AcDbEntity
  8
0
  6
Continuous
 62
     7
370
    25
100
AcDbPolyline
 90
       10
 70
   128
 43
0.0
 10
2838.1353424868
 20
921.3816629295
 10
2838.9817991561
 20
922.0426639908
 10
2839.7261606586
 20
922.9686426235
 10
2840.2786460117
 20
924.0479121385
 10
2840.5726173279
 20
925.1502967039
 10
2840.5726173279
 20
926.1428324717
 10
2840.2786460117
 20
926.9058049801
 10
2839.7261606586
 20
927.3471884842
 10
2838.9817991561
 20
927.4137456193
 10
2838.1353424868
 20
927.0974486127
  0
LINE
  5
164
330
1F
100
AcDbEntity
  8
0
  6
Continuous
 62
     7
370
    25
100
AcDbLine
 10
2838.1353424868
 20
927.0974486127
 30
0.0
 11
2825.4074204254
 21
919.7497756063
 31
0.0
  0
LWPOLYLINE
  5
165
330
1F
100
AcDbEntity
  8
0
  6
Continuous
 62
     7
370
    25
100
AcDbPolyline
 90
       10
 70
   128
 43
0.0
 10
1459.277119173
 20
125.3837539023
 10
1460.1235758423
 20
126.0447549637
 10
1460.8679373449
 20
126.9707335964
 10
1461.420422698
 20
128.0500031113
 10
1461.7143940141
 20
129.1523876768
 10
1461.7143940141
 20
130.1449234446
 10
1461.420422698
 20
130.9078959529
 10
1460.8679373449
 20
131.349279457
 10
1460.1235758423
 20
131.4158365922
 10
1459.277119173
 20
131.0995395855
  0
LINE
  5
166
330
1F
100
AcDbEntity
  8
0
  6
Continuous
 62
     7
370
    25
100
AcDbLine
 10
1459.277119173
 20
131.0995395855
 30
0.0
 11
1446.5491971117
 21
123.7518665791
 31
0.0
  0
LWPOLYLINE
  5
167
330
1F
100
AcDbEntity
  8
0
  6
Continuous
 62
     7
370
    25
100
AcDbPolyline
 90
       10
 70
   128
 43
0.0
 10
1446.5491971117
 20
123.7518665791
 10
1445.7027404424
 20
123.0908655178
 10
1444.9583789398
 20
122.1648868851
 10
1444.4058935867
 20
121.0856173701
 10
1444.1119222705
 20
119.9832328047
 10
1444.1119222705
 20
118.9906970369
 10
1444.4058935867
 20
118.2277245285
 10
1444.9583789398
 20
117.7863410244
 10
1445.7027404424
 20
117.7197838893
 10
1446.5491971117
 20
118.0360808959
  0
LINE
  5
168
330
1F
100
AcDbEntity
  8
0
  6
Continuous
 62
     7
370
    25
100
AcDbLine
 10
1446.5491971117
 20
118.0360808959
 30
0.0
 11
1459.277119173
 21
125.3837539023
 31
0.0
  0
LINE
  5
169
330
1F
100
AcDbEntity
  8
0
  6
Continuous
 62
     7
370
    25
100
AcDbLine
 10
1434.1748284409
 20
141.1043209072
 30
0.0
 11
1434.1748284409
 21
73.7397039266
 31
0.0
  0
LWPOLYLINE
  5
16A
330
1F
100
AcDbEntity
  8
0
  6
Continuous
 62
     7
370
    25
100
AcDbPolyline
 90
        3
 70
   128
 43
0.0
 10
1445.4885369399
 20
118.6483869798
 10
1444.6420802706
 20
118.3320899732
 10
1444.3512808466
 20
118.3114697992
  0
LINE
  5
16B
330
1F
100
AcDbEntity
  8
0
  6
Continuous
 62
     7
370
    25
100
AcDbLine
 10
1458.2164590012
 20
125.9960599862
 30
0.0
 11
1445.4885369399
 21
118.6483869798
 31
0.0
  0
ARC
  5
16C
330
1F
100
AcDbEntity
  8
0
  6
Continuous
 62
     7
370
    25
100
AcDbCircle
 10
1456.0432095127
 20
130.0382278287
 30
0.0
 40
4.589350085459361
100
AcDbArc
 50
298.2644546684
 51
17.7382019331
  0
LWPOLYLINE
  5
16D
330
1F
100
AcDbEntity
  8
0
  6
Continuous
 62
     7
370
    25
100
AcDbPolyline
 90
        3
 70
   128
 43
0.0
 10
1445.4885369399
 20
90.0694585638
 10
1444.6420802706
 20
89.7531615572
 10
1444.3512808466
 20
89.7325413832
  0
LINE
  5
16E
330
1F
100
AcDbEntity
  8
0
  6
Continuous
 62
     7
370
    25
100
AcDbLine
 10
1433.4677216597
 20
72.1065559528
 30
0.0
 11
1435.2354886127
 21
71.086045813
 31
0.0
  0
LINE
  5
16F
330
1F
100
AcDbEntity
  8
0
  6
Continuous
 62
     7
370
    25
100
AcDbLine
 10
1433.4677216597
 20
73.3313671706
 30
0.0
 11
1434.1748284409
 21
72.9231631147
 31
0.0
  0
LINE
  5
170
330
1F
100
AcDbEntity
  8
0
  6
Continuous
 62
     7
370
    25
100
AcDbLine
 10
1434.1748284409
 20
72.9231631147
 30
0.0
 11
1434.1748284409
 21
73.7397039266
 31
0.0
  0
LINE
  5
171
330
1F
100
AcDbEntity
  8
0
  6
Continuous
 62
     7
370
    25
100
AcDbLine
 10
1153.4534363098
 20
234.9801733115
 30
0.0
 11
1154.160543091
 21
234.5719692556
 31
0.0
  0
LINE
  5
172
330
1F
100
AcDbEntity
  8
0
  6
Continuous
 62
     7
370
    25
100
AcDbLine
 10
2567.6669986829
 20
1051.3882851342
 30
0.0
 11
1153.4534363098
 21
234.9801733115
 31
0.0
  0
LINE
  5
173
330
1F
100
AcDbEntity
  8
0
  6
Continuous
 62
     7
370
    25
100
AcDbLine
 10
2567.6669986829
 20
1051.3882851342
 30
0.0
 11
2568.3741054641
 21
1050.9800810783
 31
0.0
  0
LINE
  5
174
330
1F
100
AcDbEntity
  8
0
  6
Continuous
 62
     7
370
    25
100
AcDbLine
 10
2838.6380812425
 20
894.9600088421
 30
0.0
 11
2835.3046166805
 21
896.8843769724
 31
0.0
  0
LINE
  5
175
330
1F
100
AcDbEntity
  8
0
  6
Continuous
 62
     7
370
    25
100
AcDbLine
 10
2773.0940255666
 20
932.797786784
 30
0.0
 11
2568.3741054641
 21
1050.9800810783
 31
0.0
  0
LINE
  5
176
330
1F
100
AcDbEntity
  8
0
  6
Continuous
 62
     7
370
    25
100
AcDbLine
 10
1433.4677216597
 20
73.3313671706
 30
0.0
 11
1154.160543091
 21
234.5719692556
 31
0.0
  0
ARC
  5
177
330
1F
100
AcDbEntity
  8
0
  6
Continuous
 62
     7
370
    25
100
AcDbCircle
 10
2689.7978454644
 20
963.4203110853
 30
0.0
 40
0.4366153168343392
100
AcDbArc
 50
110.7834207995
 51
249.2165792005
  0
LINE
  5
178
330
1F
100
AcDbEntity
  8
0
  6
Continuous
 62
     7
370
    25
100
AcDbLine
 10
2689.6429184376
 20
963.0121070294
 30
0.0
 11
2695.2997726871
 21
959.7464745821
 31
0.0
  0
ARC
  5
179
330
1F
100
AcDbEntity
  8
0
  6
Continuous
 62
     7
370
    25
100
AcDbCircle
 10
2696.0068794683
 20
961.1111856671
 30
0.0
 40
1.537021907911521
100
AcDbArc
 50
242.6096722366
 51
297.3903277634
  0
LINE
  5
17A
330
1F
100
AcDbEntity
  8
0
  6
Continuous
 62
     7
370
    25
100
AcDbLine
 10
2696.7139862495
 20
959.7464745821
 30
0.0
 11
2700.2495201554
 21
961.7874948617
 31
0.0
  0
ARC
  5
17B
330
1F
100
AcDbEntity
  8
0
  6
Continuous
 62
     7
370
    25
100
AcDbCircle
 10
2700.0945931286
 20
962.1956989176
 30
0.0
 40
0.4366153168346069
100
AcDbArc
 50
290.7834207996
 51
69.2165792005
  0
LINE
  5
17C
330
1F
100
AcDbEntity
  8
0
  6
Continuous
 62
     7
370
    25
100
AcDbLine
 10
2700.2495201554
 20
962.6039029735
 30
0.0
 11
2694.5926659059
 21
965.8695354208
 31
0.0
  0
ARC
  5
17D
330
1F
100
AcDbEntity
  8
0
  6
Continuous
 62
     7
370
    25
100
AcDbCircle
 10
2693.8855591247
 20
964.5048243358
 30
0.0
 40
1.537021907912422
100
AcDbArc
 50
62.6096722366
 51
117.3903277634
  0
LINE
  5
17E
330
1F
100
AcDbEntity
  8
0
  6
Continuous
 62
     7
370
    25
100
AcDbLine
 10
2693.1784523436
 20
965.8695354208
 30
0.0
 11
2689.6429184376
 21
963.8285151412
 31
0.0
  0
ARC
  5
17F
330
1F
100
AcDbEntity
  8
0
  6
Continuous
 62
     7
370
    25
100
AcDbCircle
 10
1301.7472339952
 20
162.1157493313
 30
0.0
 40
0.4366153168342585
100
AcDbArc
 50
110.7834207995
 51
249.2165792005
  0
LINE
  5
180
330
1F
100
AcDbEntity
  8
0
  6
Continuous
 62
     7
370
    25
100
AcDbLine
 10
1301.5923069684
 20
161.7075452754
 30
0.0
 11
1307.2491612179
 21
158.4419128281
 31
0.0
  0
ARC
  5
181
330
1F
100
AcDbEntity
  8
0
  6
Continuous
 62
     7
370
    25
100
AcDbCircle
 10
1307.9562679991
 20
159.8066239131
 30
0.0
 40
1.537021907911571
100
AcDbArc
 50
242.6096722366
 51
297.3903277634
  0
LINE
  5
182
330
1F
100
AcDbEntity
  8
0
  6
Continuous
 62
     7
370
    25
100
AcDbLine
 10
1308.6633747803
 20
158.4419128281
 30
0.0
 11
1312.1989086862
 21
160.4829331077
 31
0.0
  0
ARC
  5
183
330
1F
100
AcDbEntity
  8
0
  6
Continuous
 62
     7
370
    25
100
AcDbCircle
 10
1312.0439816594
 20
160.8911371636
 30
0.0
 40
0.4366153168342319
100
AcDbArc
 50
290.7834207995
 51
69.2165792006
  0
LINE
  5
184
330
1F
100
AcDbEntity
  8
0
  6
Continuous
 62
     7
370
    25
100
AcDbLine
 10
1312.1989086862
 20
161.2993412195
 30
0.0
 11
1306.5420544367
 21
164.5649736668
 31
0.0
  0
ARC
  5
185
330
1F
100
AcDbEntity
  8
0
  6
Continuous
 62
     7
370
    25
100
AcDbCircle
 10
1305.8349476555
 20
163.2002625818
 30
0.0
 40
1.537021907912029
100
AcDbArc
 50
62.6096722366
 51
117.3903277634
  0
LINE
  5
186
330
1F
100
AcDbEntity
  8
0
  6
Continuous
 62
     7
370
    25
100
AcDbLine
 10
1305.1278408744
 20
164.5649736668
 30
0.0
 11
1301.5923069684
 21
162.5239533872
 31
0.0
  0
LINE
  5
187
330
1F
100
AcDbEntity
  8
0
  6
Continuous
 62
     7
370
    25
100
AcDbLine
 10
1175.020193136
 20
235.5924793954
 30
0.0
 11
1187.7481151974
 21
242.9401524018
 31
0.0
  0
LWPOLYLINE
  5
188
330
1F
100
AcDbEntity
  8
0
  6
Continuous
 62
     7
370
    25
100
AcDbPolyline
 90
       10
 70
   128
 43
0.0
 10
1187.7481151974
 20
242.9401524018
 10
1188.4453187179
 20
243.5149634445
 10
1188.7599229066
 20
244.1927678098
 10
1188.6539818552
 20
244.8918122878
 10
1188.1402736182
 20
245.5277817977
 10
1187.2807589905
 20
246.0239690307
 10
1186.1791081211
 20
246.3205264835
 10
1184.9681963636
 20
246.3816849506
 10
1183.7940775471
 20
246.2000678183
 10
1182.7983677291
 20
245.7975807932
  0
LINE
  5
189
330
1F
100
AcDbEntity
  8
0
  6
Continuous
 62
     7
370
    25
100
AcDbLine
 10
1182.7983677291
 20
245.7975807932
 30
0.0
 11
1170.0704456677
 21
238.4499077867
 31
0.0
  0
LWPOLYLINE
  5
18A
330
1F
100
AcDbEntity
  8
0
  6
Continuous
 62
     7
370
    25
100
AcDbPolyline
 90
       10
 70
   128
 43
0.0
 10
1170.0704456677
 20
238.4499077867
 10
1169.3732421473
 20
237.875096744
 10
1169.0586379586
 20
237.1972923787
 10
1169.1645790099
 20
236.4982479007
 10
1169.6782872469
 20
235.8622783908
 10
1170.5378018747
 20
235.3660911578
 10
1171.639452744
 20
235.069533705
 10
1172.8503645015
 20
235.0083752379
 10
1174.024483318
 20
235.1899923702
 10
1175.020193136
 20
235.5924793954
  0
LINE
  5
18B
330
1F
100
AcDbEntity
  8
0
  6
Continuous
 62
     7
370
    25
100
AcDbLine
 10
2526.3012519835
 20
1021.3852870247
 30
0.0
 11
2513.5733299222
 21
1014.0376140183
 31
0.0
  0
LWPOLYLINE
  5
18C
330
1F
100
AcDbEntity
  8
0
  6
Continuous
 62
     7
370
    25
100
AcDbPolyline
 90
       10
 70
   128
 43
0.0
 10
2513.5733299222
 20
1014.0376140183
 10
2512.8761264017
 20
1013.4628029756
 10
2512.561522213
 20
1012.7849986103
 10
2512.6674632643
 20
1012.0859541323
 10
2513.1811715013
 20
1011.4499846224
 10
2514.0406861291
 20
1010.9537973894
 10
2515.1423369985
 20
1010.6572399366
 10
2516.3532487559
 20
1010.5960814694
 10
2517.5273675724
 20
1010.7776986017
 10
2518.5230773905
 20
1011.1801856269
  0
LINE
  5
18D
330
1F
100
AcDbEntity
  8
0
  6
Continuous
 62
     7
370
    25
100
AcDbLine
 10
2518.5230773905
 20
1011.1801856269
 30
0.0
 11
2531.2509994518
 21
1018.5278586333
 31
0.0
  0
LWPOLYLINE
  5
18E
330
1F
100
AcDbEntity
  8
0
  6
Continuous
 62
     7
370
    25
100
AcDbPolyline
 90
       10
 70
   128
 43
0.0
 10
2531.2509994518
 20
1018.5278586333
 10
2531.9482029723
 20
1019.1026696761
 10
2532.262807161
 20
1019.7804740414
 10
2532.1568661097
 20
1020.4795185194
 10
2531.6431578727
 20
1021.1154880293
 10
2530.7836432449
 20
1021.6116752623
 10
2529.6819923755
 20
1021.9082327151
 10
2528.4710806181
 20
1021.9693911822
 10
2527.2969618016
 20
1021.7877740499
 10
2526.3012519835
 20
1021.3852870247
  0
LINE
  5
18F
330
1F
100
AcDbEntity
  8
0
  6
Continuous
 62
     7
370
    25
100
AcDbLine
 10
2826.8216339878
 20
888.7189688535
 30
0.0
 11
2822.9581967729
 21
886.488654023
 31
0.0
  0
ARC
  5
190
330
1F
100
AcDbEntity
  8
0
  6
Continuous
 62
     7
370
    25
100
AcDbCircle
 10
2829.2770934225
 20
883.9782955277
 30
0.0
 40
5.338844876745434
100
AcDbArc
 50
83.1834142245
 51
117.3821616972
  0
LINE
  5
191
330
1F
100
AcDbEntity
  8
0
  6
Continuous
 62
     7
370
    25
100
AcDbLine
 10
2791.4662949285
 20
868.308766058
 30
0.0
 11
2787.6028577136
 21
866.0784512274
 31
0.0
  0
ARC
  5
192
330
1F
100
AcDbEntity
  8
0
  6
Continuous
 62
     7
370
    25
100
AcDbCircle
 10
2793.9217543632
 20
863.5680927321
 30
0.0
 40
5.338844876742268
100
AcDbArc
 50
83.1834142245
 51
117.3821616972
  0
LINE
  5
193
330
1F
100
AcDbEntity
  8
0
  6
Continuous
 62
     7
370
    25
100
AcDbLine
 10
1210.3755321954
 20
256.0026821909
 30
0.0
 11
1223.1034542567
 21
263.3503551973
 31
0.0
  0
LWPOLYLINE
  5
194
330
1F
100
AcDbEntity
  8
0
  6
Continuous
 62
     7
370
    25
100
AcDbPolyline
 90
       10
 70
   128
 43
0.0
 10
1223.1034542567
 20
263.3503551973
 10
1223.8006577772
 20
263.9251662401
 10
1224.1152619659
 20
264.6029706054
 10
1224.0093209146
 20
265.3020150834
 10
1223.4956126776
 20
265.9379845933
 10
1222.6360980498
 20
266.4341718263
 10
1221.5344471804
 20
266.7307292791
 10
1220.3235354229
 20
266.7918877462
 10
1219.1494166065
 20
266.6102706139
 10
1218.1537067884
 20
266.2077835887
  0
LINE
  5
195
330
1F
100
AcDbEntity
  8
0
  6
Continuous
 62
     7
370
    25
100
AcDbLine
 10
1218.1537067884
 20
266.2077835887
 30
0.0
 11
1205.4257847271
 21
258.8601105823
 31
0.0
  0
LWPOLYLINE
  5
196
330
1F
100
AcDbEntity
  8
0
  6
Continuous
 62
     7
370
    25
100
AcDbPolyline
 90
       10
 70
   128
 43
0.0
 10
1205.4257847271
 20
258.8601105823
 10
1204.7285812066
 20
258.2852995395
 10
1204.4139770179
 20
257.6074951743
 10
1204.5199180692
 20
256.9084506963
 10
1205.0336263062
 20
256.2724811864
 10
1205.893140934
 20
255.7762939534
 10
1206.9947918033
 20
255.4797365006
 10
1208.2057035608
 20
255.4185780334
 10
1209.3798223773
 20
255.6001951657
 10
1210.3755321954
 20
256.0026821909
  0
ARC
  5
197
330
1F
100
AcDbEntity
  8
0
  6
Continuous
 62
     7
370
    25
100
AcDbCircle
 10
1450.4188701088
 20
87.9803865006
 30
0.0
 40
5.338844876746075
100
AcDbArc
 50
83.1834142245
 51
117.3821616972
  0
LINE
  5
198
330
1F
100
AcDbEntity
  8
0
  6
Continuous
 62
     7
370
    25
100
AcDbLine
 10
1447.963410674
 20
92.7210598264
 30
0.0
 11
1444.0999734592
 21
90.4907449958
 31
0.0
  0
ARC
  5
199
330
1F
100
AcDbEntity
  8
0
  6
Continuous
 62
     7
370
    25
100
AcDbCircle
 10
1485.7742091681
 20
108.3905892961
 30
0.0
 40
5.338844876746351
100
AcDbArc
 50
83.1834142245
 51
117.3821616972
  0
LINE
  5
19A
330
1F
100
AcDbEntity
  8
0
  6
Continuous
 62
     7
370
    25
100
AcDbLine
 10
1483.3187497334
 20
113.131262622
 30
0.0
 11
1479.4553125185
 21
110.9009477914
 31
0.0
  0
LINE
  5
19B
330
1F
100
AcDbEntity
  8
0
  6
Continuous
 62
     7
370
    25
100
AcDbLine
 10
2561.6565910429
 20
1041.7954898203
 30
0.0
 11
2548.9286689815
 21
1034.4478168139
 31
0.0
  0
LWPOLYLINE
  5
19C
330
1F
100
AcDbEntity
  8
0
  6
Continuous
 62
     7
370
    25
100
AcDbPolyline
 90
       10
 70
   128
 43
0.0
 10
2548.9286689815
 20
1034.4478168139
 10
2548.231465461
 20
1033.8730057711
 10
2547.9168612723
 20
1033.1952014058
 10
2548.0228023236
 20
1032.4961569278
 10
2548.5365105606
 20
1031.8601874179
 10
2549.3960251884
 20
1031.364000185
 10
2550.4976760578
 20
1031.0674427321
 10
2551.7085878153
 20
1031.006284265
 10
2552.8827066317
 20
1031.1879013973
 10
2553.8784164498
 20
1031.5903884225
  0
LINE
  5
19D
330
1F
100
AcDbEntity
  8
0
  6
Continuous
 62
     7
370
    25
100
AcDbLine
 10
2553.8784164498
 20
1031.5903884225
 30
0.0
 11
2566.6063385112
 21
1038.9380614289
 31
0.0
  0
LWPOLYLINE
  5
19E
330
1F
100
AcDbEntity
  8
0
  6
Continuous
 62
     7
370
    25
100
AcDbPolyline
 90
       10
 70
   128
 43
0.0
 10
2566.6063385112
 20
1038.9380614289
 10
2567.3035420316
 20
1039.5128724717
 10
2567.6181462203
 20
1040.190676837
 10
2567.512205169
 20
1040.889721315
 10
2566.998496932
 20
1041.5256908249
 10
2566.1389823042
 20
1042.0218780578
 10
2565.0373314349
 20
1042.3184355107
 10
2563.8264196774
 20
1042.3795939778
 10
2562.6523008609
 20
1042.1979768455
 10
2561.6565910429
 20
1041.7954898203
  0
ARC
  5
19F
330
1F
100
AcDbEntity
  8
0
  6
Continuous
 62
     7
370
    25
100
AcDbCircle
 10
1231.0365558766
 20
202.9361549225
 30
0.0
 40
0.4366153168342851
100
AcDbArc
 50
110.7834207995
 51
249.2165792005
  0
LINE
  5
1A0
330
1F
100
AcDbEntity
  8
0
  6
Continuous
 62
     7
370
    25
100
AcDbLine
 10
1230.8816288498
 20
202.5279508665
 30
0.0
 11
1236.5384830993
 21
199.2623184193
 31
0.0
  0
ARC
  5
1A1
330
1F
100
AcDbEntity
  8
0
  6
Continuous
 62
     7
370
    25
100
AcDbCircle
 10
1237.2455898804
 20
200.6270295042
 30
0.0
 40
1.537021907911849
100
AcDbArc
 50
242.6096722366
 51
297.3903277634
  0
LINE
  5
1A2
330
1F
100
AcDbEntity
  8
0
  6
Continuous
 62
     7
370
    25
100
AcDbLine
 10
1237.9526966616
 20
199.2623184193
 30
0.0
 11
1241.4882305676
 21
201.3033386988
 31
0.0
  0
ARC
  5
1A3
330
1F
100
AcDbEntity
  8
0
  6
Continuous
 62
     7
370
    25
100
AcDbCircle
 10
1241.3333035408
 20
201.7115427547
 30
0.0
 40
0.4366153168343117
100
AcDbArc
 50
290.7834207995
 51
69.2165792005
  0
LINE
  5
1A4
330
1F
100
AcDbEntity
  8
0
  6
Continuous
 62
     7
370
    25
100
AcDbLine
 10
1241.4882305676
 20
202.1197468106
 30
0.0
 11
1235.8313763181
 21
205.3853792579
 31
0.0
  0
ARC
  5
1A5
330
1F
100
AcDbEntity
  8
0
  6
Continuous
 62
     7
370
    25
100
AcDbCircle
 10
1235.1242695369
 20
204.020668173
 30
0.0
 40
1.537021907911925
100
AcDbArc
 50
62.6096722366
 51
117.3903277634
  0
LINE
  5
1A6
330
1F
100
AcDbEntity
  8
0
  6
Continuous
 62
     7
370
    25
100
AcDbLine
 10
1234.4171627557
 20
205.3853792579
 30
0.0
 11
1230.8816288498
 21
203.3443589784
 31
0.0
  0
ARC
  5
1A7
330
1F
100
AcDbEntity
  8
0
  6
Continuous
 62
     7
370
    25
100
AcDbCircle
 10
1372.4579121139
 20
121.2953437402
 30
0.0
 40
0.4366153168343392
100
AcDbArc
 50
110.7834207995
 51
249.2165792005
  0
LINE
  5
1A8
330
1F
100
AcDbEntity
  8
0
  6
Continuous
 62
     7
370
    25
100
AcDbLine
 10
1372.3029850871
 20
120.8871396843
 30
0.0
 11
1377.9598393366
 21
117.621507237
 31
0.0
  0
ARC
  5
1A9
330
1F
100
AcDbEntity
  8
0
  6
Continuous
 62
     7
370
    25
100
AcDbCircle
 10
1378.6669461178
 20
118.9862183219
 30
0.0
 40
1.537021907911584
100
AcDbArc
 50
242.6096722366
 51
297.3903277634
  0
LINE
  5
1AA
330
1F
100
AcDbEntity
  8
0
  6
Continuous
 62
     7
370
    25
100
AcDbLine
 10
1379.3740528989
 20
117.621507237
 30
0.0
 11
1382.9095868049
 21
119.6625275165
 31
0.0
  0
ARC
  5
1AB
330
1F
100
AcDbEntity
  8
0
  6
Continuous
 62
     7
370
    25
100
AcDbCircle
 10
1382.7546597781
 20
120.0707315725
 30
0.0
 40
0.4366153168342851
100
AcDbArc
 50
290.7834207995
 51
69.2165792005
  0
LINE
  5
1AC
330
1F
100
AcDbEntity
  8
0
  6
Continuous
 62
     7
370
    25
100
AcDbLine
 10
1382.9095868049
 20
120.4789356284
 30
0.0
 11
1377.2527325554
 21
123.7445680757
 31
0.0
  0
ARC
  5
1AD
330
1F
100
AcDbEntity
  8
0
  6
Continuous
 62
     7
370
    25
100
AcDbCircle
 10
1376.5456257742
 20
122.3798569907
 30
0.0
 40
1.537021907911773
100
AcDbArc
 50
62.6096722366
 51
117.3903277634
  0
LINE
  5
1AE
330
1F
100
AcDbEntity
  8
0
  6
Continuous
 62
     7
370
    25
100
AcDbLine
 10
1375.838518993
 20
123.7445680757
 30
0.0
 11
1372.3029850871
 21
121.7035477961
 31
0.0
  0
ARC
  5
1AF
330
1F
100
AcDbEntity
  8
0
  6
Continuous
 62
     7
370
    25
100
AcDbCircle
 10
2619.0871673458
 20
1004.2407166764
 30
0.0
 40
0.4366153168340716
100
AcDbArc
 50
110.7834207994
 51
249.2165792006
  0
LINE
  5
1B0
330
1F
100
AcDbEntity
  8
0
  6
Continuous
 62
     7
370
    25
100
AcDbLine
 10
2618.932240319
 20
1003.8325126205
 30
0.0
 11
2624.5890945685
 21
1000.5668801732
 31
0.0
  0
ARC
  5
1B1
330
1F
100
AcDbEntity
  8
0
  6
Continuous
 62
     7
370
    25
100
AcDbCircle
 10
2625.2962013496
 20
1001.9315912582
 30
0.0
 40
1.537021907912739
100
AcDbArc
 50
242.6096722366
 51
297.3903277634
  0
LINE
  5
1B2
330
1F
100
AcDbEntity
  8
0
  6
Continuous
 62
     7
370
    25
100
AcDbLine
 10
2626.0033081308
 20
1000.5668801732
 30
0.0
 11
2629.5388420368
 21
1002.6079004528
 31
0.0
  0
ARC
  5
1B3
330
1F
100
AcDbEntity
  8
0
  6
Continuous
 62
     7
370
    25
100
AcDbCircle
 10
2629.38391501
 20
1003.0161045087
 30
0.0
 40
0.4366153168339653
100
AcDbArc
 50
290.7834207994
 51
69.2165792006
  0
LINE
  5
1B4
330
1F
100
AcDbEntity
  8
0
  6
Continuous
 62
     7
370
    25
100
AcDbLine
 10
2629.5388420368
 20
1003.4243085646
 30
0.0
 11
2623.8819877873
 21
1006.6899410119
 31
0.0
  0
ARC
  5
1B5
330
1F
100
AcDbEntity
  8
0
  6
Continuous
 62
     7
370
    25
100
AcDbCircle
 10
2623.1748810061
 20
1005.325229927
 30
0.0
 40
1.53702190791253
100
AcDbArc
 50
62.6096722366
 51
117.3903277634
  0
LINE
  5
1B6
330
1F
100
AcDbEntity
  8
0
  6
Continuous
 62
     7
370
    25
100
AcDbLine
 10
2622.4677742249
 20
1006.6899410119
 30
0.0
 11
2618.932240319
 21
1004.6489207324
 31
0.0
  0
LINE
  5
1B7
330
1F
100
AcDbEntity
  8
0
  6
Continuous
 62
     7
370
    25
100
AcDbLine
 10
1433.4677216597
 20
72.1065559528
 30
0.0
 11
1154.160543091
 21
233.3471580378
 31
0.0
  0
LINE
  5
1B8
330
1F
100
AcDbEntity
  8
0
  6
Continuous
 62
     7
370
    25
100
AcDbLine
 10
1458.2164590012
 20
97.4171315702
 30
0.0
 11
1445.4885369399
 21
90.0694585638
 31
0.0
  0
LWPOLYLINE
  5
1B9
330
1F
100
AcDbEntity
  8
0
  6
Continuous
 62
     7
370
    25
100
AcDbPolyline
 90
        3
 70
   128
 43
0.0
 10
1480.8438759992
 20
139.0585897754
 10
1479.9974193299
 20
138.7422927687
 10
1479.706619906
 20
138.7216725948
  0
ARC
  5
1BA
330
1F
100
AcDbEntity
  8
0
  6
Continuous
 62
     7
370
    25
100
AcDbCircle
 10
1456.0432095127
 20
101.4592994127
 30
0.0
 40
4.58935008544273
100
AcDbArc
 50
298.2644546683
 51
17.7382019336
  0
LINE
  5
1BB
330
1F
100
AcDbEntity
  8
0
  6
Continuous
 62
     7
370
    25
100
AcDbLine
 10
1493.5717980606
 20
146.4062627818
 30
0.0
 11
1480.8438759992
 21
139.0585897754
 31
0.0
  0
ARC
  5
1BC
330
1F
100
AcDbEntity
  8
0
  6
Continuous
 62
     7
370
    25
100
AcDbCircle
 10
1491.398548572
 20
150.4484306243
 30
0.0
 40
4.58935008544574
100
AcDbArc
 50
298.2644546683
 51
17.7382019335
  0
LWPOLYLINE
  5
1BD
330
1F
100
AcDbEntity
  8
0
  6
Continuous
 62
     7
370
    25
100
AcDbPolyline
 90
        3
 70
   128
 43
0.0
 10
1480.8438759992
 20
110.4796613594
 10
1479.9974193299
 20
110.1633643527
 10
1479.706619906
 20
110.1427441788
  0
LINE
  5
1BE
330
1F
100
AcDbEntity
  8
0
  6
Continuous
 62
     7
370
    25
100
AcDbLine
 10
1493.5717980606
 20
117.8273343658
 30
0.0
 11
1480.8438759992
 21
110.4796613594
 31
0.0
  0
ARC
  5
1BF
330
1F
100
AcDbEntity
  8
0
  6
Continuous
 62
     7
370
    25
100
AcDbCircle
 10
1491.398548572
 20
121.8695022083
 30
0.0
 40
4.589350085455933
100
AcDbArc
 50
298.2644546684
 51
17.7382019332
  0
LINE
  5
1C0
330
1F
100
AcDbEntity
  8
0
  6
Continuous
 62
     7
370
    25
100
AcDbLine
 10
1382.5558610132
 20
119.4583259635
 30
0.0
 11
1377.2527325554
 21
122.5197568578
 31
0.0
  0
LINE
  5
1C1
330
1F
100
AcDbEntity
  8
0
  6
Continuous
 62
     7
370
    25
100
AcDbLine
 10
1375.838518993
 20
122.5197568578
 30
0.0
 11
1372.6567108788
 21
120.6829381313
 31
0.0
  0
ARC
  5
1C2
330
1F
100
AcDbEntity
  8
0
  6
Continuous
 62
     7
370
    25
100
AcDbCircle
 10
1376.5456257742
 20
121.1550457729
 30
0.0
 40
1.537021907911824
100
AcDbArc
 50
62.6096722366
 51
117.3903277634
  0
LINE
  5
1C3
330
1F
100
AcDbEntity
  8
0
  6
Continuous
 62
     7
370
    25
100
AcDbLine
 10
1311.8451828945
 20
160.2787315547
 30
0.0
 11
1306.5420544367
 21
163.340162449
 31
0.0
  0
LINE
  5
1C4
330
1F
100
AcDbEntity
  8
0
  6
Continuous
 62
     7
370
    25
100
AcDbLine
 10
1305.1278408744
 20
163.340162449
 30
0.0
 11
1301.9460327601
 21
161.5033437224
 31
0.0
  0
ARC
  5
1C5
330
1F
100
AcDbEntity
  8
0
  6
Continuous
 62
     7
370
    25
100
AcDbCircle
 10
1305.8349476555
 20
161.975451364
 30
0.0
 40
1.53702190791195
100
AcDbArc
 50
62.6096722366
 51
117.3903277634
  0
LINE
  5
1C6
330
1F
100
AcDbEntity
  8
0
  6
Continuous
 62
     7
370
    25
100
AcDbLine
 10
1155.7721572609
 20
306.049149545
 30
0.0
 11
1153.0242443969
 21
304.9728647003
 31
0.0
  0
LINE
  5
1C7
330
1F
100
AcDbEntity
  8
0
  6
Continuous
 62
     7
370
    25
100
AcDbLine
 10
1152.7463295287
 20
311.9600458443
 30
0.0
 11
1155.7721572609
 21
306.049149545
 31
0.0
  0
LINE
  5
1C8
330
1F
100
AcDbEntity
  8
0
  6
Continuous
 62
     7
370
    25
100
AcDbLine
 10
1156.6991090544
 20
313.5082451172
 30
0.0
 11
1152.7463295287
 21
311.9600458443
 31
0.0
  0
LINE
  5
1C9
330
1F
100
AcDbEntity
  8
0
  6
Continuous
 62
     7
370
    25
100
AcDbLine
 10
1159.1102905593
 20
312.1162996628
 30
0.0
 11
1156.6991090544
 21
313.5082451172
 31
0.0
  0
LINE
  5
1CA
330
1F
100
AcDbEntity
  8
0
  6
Continuous
 62
     7
370
    25
100
AcDbLine
 10
1159.1102905593
 20
305.7577306432
 30
0.0
 11
1159.1102905593
 21
312.1162996628
 31
0.0
  0
LINE
  5
1CB
330
1F
100
AcDbEntity
  8
0
  6
Continuous
 62
     7
370
    25
100
AcDbLine
 10
1159.1102905593
 20
305.7577306432
 30
0.0
 11
1153.7060236134
 21
303.6410221089
 31
0.0
  0
LINE
  5
1CC
330
1F
100
AcDbEntity
  8
0
  6
Continuous
 62
     7
370
    25
100
AcDbLine
 10
2573.3238529324
 20
1128.5244114855
 30
0.0
 11
1159.1102905593
 21
312.1162996628
 31
0.0
  0
LINE
  5
1CD
330
1F
100
AcDbEntity
  8
0
  6
Continuous
 62
     7
370
    25
100
AcDbLine
 10
2570.9126714275
 20
1129.9163569399
 30
0.0
 11
1156.6991090544
 21
313.5082451172
 31
0.0
  0
LINE
  5
1CE
330
1F
100
AcDbEntity
  8
0
  6
Continuous
 62
     7
370
    25
100
AcDbLine
 10
2573.3238529324
 20
1128.5244114855
 30
0.0
 11
2570.9126714275
 21
1129.9163569399
 31
0.0
  0
LINE
  5
1CF
330
1F
100
AcDbEntity
  8
0
  6
Continuous
 62
     7
370
    25
100
AcDbLine
 10
2573.3238529324
 20
1122.1658424659
 30
0.0
 11
1159.1102905593
 21
305.7577306432
 31
0.0
  0
LINE
  5
1D0
330
1F
100
AcDbEntity
  8
0
  6
Continuous
 62
     7
370
    25
100
AcDbLine
 10
2573.3238529324
 20
1128.5244114855
 30
0.0
 11
2573.3238529324
 21
1122.1658424659
 31
0.0
  0
LINE
  5
1D1
330
1F
100
AcDbEntity
  8
0
  6
Continuous
 62
     7
370
    25
100
AcDbLine
 10
2566.9598919018
 20
1128.3681576671
 30
0.0
 11
2570.9126714275
 21
1129.9163569399
 31
0.0
  0
LINE
  5
1D2
330
1F
100
AcDbEntity
  8
0
  6
Continuous
 62
     7
370
    25
100
AcDbLine
 10
1152.7463295287
 20
311.9600458443
 30
0.0
 11
2566.9598919018
 21
1128.3681576671
 31
0.0
  0
LINE
  5
1D3
330
1F
100
AcDbEntity
  8
0
  6
Continuous
 62
     7
370
    25
100
AcDbLine
 10
1153.0242443969
 20
304.9728647003
 30
0.0
 11
1152.3927761381
 21
304.7255352723
 31
0.0
  0
LINE
  5
1D4
330
1F
100
AcDbEntity
  8
0
  6
Continuous
 62
     7
370
    25
100
AcDbLine
 10
1155.5243033274
 20
306.5333274387
 30
0.0
 11
1152.3927761381
 21
304.7255352723
 31
0.0
  0
LINE
  5
1D5
330
1F
100
AcDbEntity
  8
0
  6
Continuous
 62
     7
370
    25
100
AcDbLine
 10
1152.3927761381
 20
304.7255352723
 30
0.0
 11
1152.3927761381
 21
303.7736371878
 31
0.0
  0
LINE
  5
1D6
330
1F
100
AcDbEntity
  8
0
  6
Continuous
 62
     7
370
    25
100
AcDbLine
 10
1153.4534363098
 20
303.5420903377
 30
0.0
 11
1153.4534363098
 21
303.161331104
 31
0.0
  0
LINE
  5
1D7
330
1F
100
AcDbEntity
  8
0
  6
Continuous
 62
     7
370
    25
100
AcDbLine
 10
1153.7060236134
 20
303.6410221089
 30
0.0
 11
1153.4534363098
 21
303.5420903377
 31
0.0
  0
LINE
  5
1D8
330
1F
100
AcDbEntity
  8
0
  6
Continuous
 62
     7
370
    25
100
AcDbLine
 10
2567.6669986829
 20
1052.2048259461
 30
0.0
 11
2567.6669986829
 21
1118.9002100186
 31
0.0
  0
LINE
  5
1D9
330
1F
100
AcDbEntity
  8
0
  6
Continuous
 62
     7
370
    25
100
AcDbLine
 10
2567.6669986829
 20
1052.2048259461
 30
0.0
 11
2567.6669986829
 21
1051.3882851342
 31
0.0
  0
LINE
  5
1DA
330
1F
100
AcDbEntity
  8
0
  6
Continuous
 62
     7
370
    25
100
AcDbLine
 10
1153.4534363098
 20
235.7967141234
 30
0.0
 11
1153.4534363098
 21
234.9801733115
 31
0.0
  0
LINE
  5
1DB
330
1F
100
AcDbEntity
  8
0
  6
Continuous
 62
     7
370
    25
100
AcDbLine
 10
1153.4534363098
 20
235.7967141234
 30
0.0
 11
1153.4534363098
 21
303.161331104
 31
0.0
  0
LINE
  5
1DC
330
1F
100
AcDbEntity
  8
0
  6
Continuous
 62
     7
370
    25
100
AcDbLine
 10
1200.1224838682
 20
272.5366715562
 30
0.0
 11
1212.8504059295
 21
279.8843445626
 31
0.0
  0
LWPOLYLINE
  5
1DD
330
1F
100
AcDbEntity
  8
0
  6
Continuous
 62
     7
370
    25
100
AcDbPolyline
 90
       10
 70
   128
 43
0.0
 10
1212.8504059295
 20
279.8843445626
 10
1213.6968625988
 20
280.5453456239
 10
1214.4412241014
 20
281.4713242566
 10
1214.9937094544
 20
282.5505937716
 10
1215.2876807706
 20
283.652978337
 10
1215.2876807706
 20
284.6455141048
 10
1214.9937094544
 20
285.4084866132
 10
1214.4412241014
 20
285.8498701173
 10
1213.6968625988
 20
285.9164272524
 10
1212.8504059295
 20
285.6001302458
  0
LINE
  5
1DE
330
1F
100
AcDbEntity
  8
0
  6
Continuous
 62
     7
370
    25
100
AcDbLine
 10
1212.8504059295
 20
285.6001302458
 30
0.0
 11
1200.1224838682
 21
278.2524572394
 31
0.0
  0
LWPOLYLINE
  5
1DF
330
1F
100
AcDbEntity
  8
0
  6
Continuous
 62
     7
370
    25
100
AcDbPolyline
 90
       10
 70
   128
 43
0.0
 10
1200.1224838682
 20
278.2524572394
 10
1199.2760271989
 20
277.591456178
 10
1198.5316656963
 20
276.6654775453
 10
1197.9791803432
 20
275.5862080304
 10
1197.685209027
 20
274.4838234649
 10
1197.685209027
 20
273.4912876971
 10
1197.9791803432
 20
272.7283151888
 10
1198.5316656963
 20
272.2869316847
 10
1199.2760271989
 20
272.2203745495
 10
1200.1224838682
 20
272.5366715562
  0
LINE
  5
1E0
330
1F
100
AcDbEntity
  8
0
  6
Continuous
 62
     7
370
    25
100
AcDbLine
 10
1164.7671448088
 20
252.1264687606
 30
0.0
 11
1177.4950668702
 21
259.474141767
 31
0.0
  0
LWPOLYLINE
  5
1E1
330
1F
100
AcDbEntity
  8
0
  6
Continuous
 62
     7
370
    25
100
AcDbPolyline
 90
       10
 70
   128
 43
0.0
 10
1177.4950668702
 20
259.474141767
 10
1178.3415235395
 20
260.1351428283
 10
1179.085885042
 20
261.061121461
 10
1179.6383703951
 20
262.140390976
 10
1179.9323417113
 20
263.2427755414
 10
1179.9323417113
 20
264.2353113093
 10
1179.6383703951
 20
264.9982838176
 10
1179.085885042
 20
265.4396673217
 10
1178.3415235395
 20
265.5062244568
 10
1177.4950668702
 20
265.1899274502
  0
LINE
  5
1E2
330
1F
100
AcDbEntity
  8
0
  6
Continuous
 62
     7
370
    25
100
AcDbLine
 10
1177.4950668702
 20
265.1899274502
 30
0.0
 11
1164.7671448088
 21
257.8422544438
 31
0.0
  0
LWPOLYLINE
  5
1E3
330
1F
100
AcDbEntity
  8
0
  6
Continuous
 62
     7
370
    25
100
AcDbPolyline
 90
       10
 70
   128
 43
0.0
 10
1164.7671448088
 20
257.8422544438
 10
1163.9206881396
 20
257.1812533825
 10
1163.176326637
 20
256.2552747498
 10
1162.6238412839
 20
255.1760052348
 10
1162.3298699677
 20
254.0736206694
 10
1162.3298699677
 20
253.0810849015
 10
1162.6238412839
 20
252.3181123932
 10
1163.176326637
 20
251.8767288891
 10
1163.9206881396
 20
251.810171754
 10
1164.7671448088
 20
252.1264687606
  0
LINE
  5
1E4
330
1F
100
AcDbEntity
  8
0
  6
Continuous
 62
     7
370
    25
100
AcDbLine
 10
2556.353290184
 20
1061.1878364773
 30
0.0
 11
2543.6253681226
 21
1053.8401634709
 31
0.0
  0
LWPOLYLINE
  5
1E5
330
1F
100
AcDbEntity
  8
0
  6
Continuous
 62
     7
370
    25
100
AcDbPolyline
 90
       10
 70
   128
 43
0.0
 10
2543.6253681226
 20
1053.8401634709
 10
2542.7789114533
 20
1053.1791624096
 10
2542.0345499507
 20
1052.2531837769
 10
2541.4820645977
 20
1051.1739142619
 10
2541.1880932815
 20
1050.0715296965
 10
2541.1880932815
 20
1049.0789939287
 10
2541.4820645977
 20
1048.3160214203
 10
2542.0345499507
 20
1047.8746379162
 10
2542.7789114533
 20
1047.8080807811
 10
2543.6253681226
 20
1048.1243777877
  0
LINE
  5
1E6
330
1F
100
AcDbEntity
  8
0
  6
Continuous
 62
     7
370
    25
100
AcDbLine
 10
2543.6253681226
 20
1048.1243777877
 30
0.0
 11
2556.353290184
 21
1055.4720507941
 31
0.0
  0
LWPOLYLINE
  5
1E7
330
1F
100
AcDbEntity
  8
0
  6
Continuous
 62
     7
370
    25
100
AcDbPolyline
 90
       10
 70
   128
 43
0.0
 10
2556.353290184
 20
1055.4720507941
 10
2557.1997468532
 20
1056.1330518555
 10
2557.9441083558
 20
1057.0590304882
 10
2558.4965937089
 20
1058.1383000032
 10
2558.7905650251
 20
1059.2406845686
 10
2558.7905650251
 20
1060.2332203364
 10
2558.4965937089
 20
1060.9961928448
 10
2557.9441083558
 20
1061.4375763489
 10
2557.1997468532
 20
1061.504133484
 10
2556.353290184
 20
1061.1878364773
  0
LINE
  5
1E8
330
1F
100
AcDbEntity
  8
0
  6
Continuous
 62
     7
370
    25
100
AcDbLine
 10
2520.9979511246
 20
1040.7776336818
 30
0.0
 11
2508.2700290633
 21
1033.4299606754
 31
0.0
  0
LWPOLYLINE
  5
1E9
330
1F
100
AcDbEntity
  8
0
  6
Continuous
 62
     7
370
    25
100
AcDbPolyline
 90
       10
 70
   128
 43
0.0
 10
2508.2700290633
 20
1033.4299606754
 10
2507.423572394
 20
1032.768959614
 10
2506.6792108914
 20
1031.8429809813
 10
2506.1267255383
 20
1030.7637114664
 10
2505.8327542222
 20
1029.6613269009
 10
2505.8327542222
 20
1028.6687911331
 10
2506.1267255383
 20
1027.9058186248
 10
2506.6792108914
 20
1027.4644351207
 10
2507.423572394
 20
1027.3978779855
 10
2508.2700290633
 20
1027.7141749922
  0
LINE
  5
1EA
330
1F
100
AcDbEntity
  8
0
  6
Continuous
 62
     7
370
    25
100
AcDbLine
 10
2508.2700290633
 20
1027.7141749922
 30
0.0
 11
2520.9979511246
 21
1035.0618479986
 31
0.0
  0
LWPOLYLINE
  5
1EB
330
1F
100
AcDbEntity
  8
0
  6
Continuous
 62
     7
370
    25
100
AcDbPolyline
 90
       10
 70
   128
 43
0.0
 10
2520.9979511246
 20
1035.0618479986
 10
2521.8444077939
 20
1035.7228490599
 10
2522.5887692965
 20
1036.6488276926
 10
2523.1412546496
 20
1037.7280972076
 10
2523.4352259657
 20
1038.830481773
 10
2523.4352259657
 20
1039.8230175408
 10
2523.1412546496
 20
1040.5859900492
 10
2522.5887692965
 20
1041.0273735533
 10
2521.8444077939
 20
1041.0939306884
 10
2520.9979511246
 20
1040.7776336818
  0
LINE
  5
1EC
330
1F
100
AcDbEntity
  8
0
  6
Continuous
 62
     7
370
    25
100
AcDbLine
 10
1200.1224838682
 20
301.1155999722
 30
0.0
 11
1212.8504059295
 21
308.4632729786
 31
0.0
  0
LWPOLYLINE
  5
1ED
330
1F
100
AcDbEntity
  8
0
  6
Continuous
 62
     7
370
    25
100
AcDbPolyline
 90
       10
 70
   128
 43
0.0
 10
1212.8504059295
 20
308.4632729786
 10
1213.6968625988
 20
309.1242740399
 10
1214.4412241014
 20
310.0502526726
 10
1214.9937094544
 20
311.1295221876
 10
1215.2876807706
 20
312.231906753
 10
1215.2876807706
 20
313.2244425208
 10
1214.9937094544
 20
313.9874150292
 10
1214.4412241014
 20
314.4287985333
 10
1213.6968625988
 20
314.4953556684
 10
1212.8504059295
 20
314.1790586618
  0
LINE
  5
1EE
330
1F
100
AcDbEntity
  8
0
  6
Continuous
 62
     7
370
    25
100
AcDbLine
 10
1212.8504059295
 20
314.1790586618
 30
0.0
 11
1200.1224838682
 21
306.8313856554
 31
0.0
  0
LWPOLYLINE
  5
1EF
330
1F
100
AcDbEntity
  8
0
  6
Continuous
 62
     7
370
    25
100
AcDbPolyline
 90
       10
 70
   128
 43
0.0
 10
1200.1224838682
 20
306.8313856554
 10
1199.2760271989
 20
306.170384594
 10
1198.5316656963
 20
305.2444059613
 10
1197.9791803432
 20
304.1651364464
 10
1197.685209027
 20
303.0627518809
 10
1197.685209027
 20
302.0702161131
 10
1197.9791803432
 20
301.3072436048
 10
1198.5316656963
 20
300.8658601007
 10
1199.2760271989
 20
300.7993029655
 10
1200.1224838682
 20
301.1155999722
  0
LINE
  5
1F0
330
1F
100
AcDbEntity
  8
0
  6
Continuous
 62
     7
370
    25
100
AcDbLine
 10
2520.9979511246
 20
1069.3565620978
 30
0.0
 11
2508.2700290633
 21
1062.0088890914
 31
0.0
  0
LWPOLYLINE
  5
1F1
330
1F
100
AcDbEntity
  8
0
  6
Continuous
 62
     7
370
    25
100
AcDbPolyline
 90
       10
 70
   128
 43
0.0
 10
2508.2700290633
 20
1062.0088890914
 10
2507.423572394
 20
1061.34788803
 10
2506.6792108914
 20
1060.4219093973
 10
2506.1267255383
 20
1059.3426398824
 10
2505.8327542222
 20
1058.2402553169
 10
2505.8327542222
 20
1057.2477195491
 10
2506.1267255383
 20
1056.4847470408
 10
2506.6792108914
 20
1056.0433635367
 10
2507.423572394
 20
1055.9768064015
 10
2508.2700290633
 20
1056.2931034082
  0
LINE
  5
1F2
330
1F
100
AcDbEntity
  8
0
  6
Continuous
 62
     7
370
    25
100
AcDbLine
 10
2508.2700290633
 20
1056.2931034082
 30
0.0
 11
2520.9979511246
 21
1063.6407764146
 31
0.0
  0
LWPOLYLINE
  5
1F3
330
1F
100
AcDbEntity
  8
0
  6
Continuous
 62
     7
370
    25
100
AcDbPolyline
 90
       10
 70
   128
 43
0.0
 10
2520.9979511246
 20
1063.6407764146
 10
2521.8444077939
 20
1064.3017774759
 10
2522.5887692965
 20
1065.2277561086
 10
2523.1412546496
 20
1066.3070256236
 10
2523.4352259657
 20
1067.409410189
 10
2523.4352259657
 20
1068.4019459568
 10
2523.1412546496
 20
1069.1649184652
 10
2522.5887692965
 20
1069.6063019693
 10
2521.8444077939
 20
1069.6728591044
 10
2520.9979511246
 20
1069.3565620978
  0
LINE
  5
1F4
330
1F
100
AcDbEntity
  8
0
  6
Continuous
 62
     7
370
    25
100
AcDbLine
 10
2556.353290184
 20
1089.7667648933
 30
0.0
 11
2543.6253681226
 21
1082.4190918869
 31
0.0
  0
LWPOLYLINE
  5
1F5
330
1F
100
AcDbEntity
  8
0
  6
Continuous
 62
     7
370
    25
100
AcDbPolyline
 90
       10
 70
   128
 43
0.0
 10
2543.6253681226
 20
1082.4190918869
 10
2542.7789114533
 20
1081.7580908256
 10
2542.0345499507
 20
1080.8321121929
 10
2541.4820645977
 20
1079.7528426779
 10
2541.1880932815
 20
1078.6504581125
 10
2541.1880932815
 20
1077.6579223447
 10
2541.4820645977
 20
1076.8949498363
 10
2542.0345499507
 20
1076.4535663322
 10
2542.7789114533
 20
1076.3870091971
 10
2543.6253681226
 20
1076.7033062037
  0
LINE
  5
1F6
330
1F
100
AcDbEntity
  8
0
  6
Continuous
 62
     7
370
    25
100
AcDbLine
 10
2543.6253681226
 20
1076.7033062037
 30
0.0
 11
2556.353290184
 21
1084.0509792101
 31
0.0
  0
LWPOLYLINE
  5
1F7
330
1F
100
AcDbEntity
  8
0
  6
Continuous
 62
     7
370
    25
100
AcDbPolyline
 90
       10
 70
   128
 43
0.0
 10
2556.353290184
 20
1084.0509792101
 10
2557.1997468532
 20
1084.7119802715
 10
2557.9441083558
 20
1085.6379589042
 10
2558.4965937089
 20
1086.7172284192
 10
2558.7905650251
 20
1087.8196129846
 10
2558.7905650251
 20
1088.8121487524
 10
2558.4965937089
 20
1089.5751212608
 10
2557.9441083558
 20
1090.0165047649
 10
2557.1997468532
 20
1090.0830619
 10
2556.353290184
 20
1089.7667648933
  0
LINE
  5
1F8
330
1F
100
AcDbEntity
  8
0
  6
Continuous
 62
     7
370
    25
100
AcDbLine
 10
1164.7671448088
 20
280.7053971766
 30
0.0
 11
1177.4950668702
 21
288.053070183
 31
0.0
  0
LWPOLYLINE
  5
1F9
330
1F
100
AcDbEntity
  8
0
  6
Continuous
 62
     7
370
    25
100
AcDbPolyline
 90
       10
 70
   128
 43
0.0
 10
1177.4950668702
 20
288.053070183
 10
1178.3415235395
 20
288.7140712443
 10
1179.085885042
 20
289.640049877
 10
1179.6383703951
 20
290.719319392
 10
1179.9323417113
 20
291.8217039574
 10
1179.9323417113
 20
292.8142397253
 10
1179.6383703951
 20
293.5772122336
 10
1179.085885042
 20
294.0185957377
 10
1178.3415235395
 20
294.0851528728
 10
1177.4950668702
 20
293.7688558662
  0
LINE
  5
1FA
330
1F
100
AcDbEntity
  8
0
  6
Continuous
 62
     7
370
    25
100
AcDbLine
 10
1177.4950668702
 20
293.7688558662
 30
0.0
 11
1164.7671448088
 21
286.4211828598
 31
0.0
  0
LWPOLYLINE
  5
1FB
330
1F
100
AcDbEntity
  8
0
  6
Continuous
 62
     7
370
    25
100
AcDbPolyline
 90
       10
 70
   128
 43
0.0
 10
1164.7671448088
 20
286.4211828598
 10
1163.9206881396
 20
285.7601817985
 10
1163.176326637
 20
284.8342031658
 10
1162.6238412839
 20
283.7549336508
 10
1162.3298699677
 20
282.6525490854
 10
1162.3298699677
 20
281.6600133175
 10
1162.6238412839
 20
280.8970408092
 10
1163.176326637
 20
280.4556573051
 10
1163.9206881396
 20
280.38910017
 10
1164.7671448088
 20
280.7053971766
  0
LINE
  5
1FC
330
1F
100
AcDbEntity
  8
0
  6
Continuous
 62
     7
370
    25
100
AcDbLine
 10
1152.3927761381
 20
236.4090202073
 30
0.0
 11
1152.3927761381
 21
303.7736371878
 31
0.0
  0
LINE
  5
1FD
330
1F
100
AcDbEntity
  8
0
  6
Continuous
 62
     7
370
    25
100
AcDbLine
 10
1241.1345047759
 20
201.0991371458
 30
0.0
 11
1235.8313763181
 21
204.1605680401
 31
0.0
  0
LINE
  5
1FE
330
1F
100
AcDbEntity
  8
0
  6
Continuous
 62
     7
370
    25
100
AcDbLine
 10
1234.4171627557
 20
204.1605680401
 30
0.0
 11
1231.2353546415
 21
202.3237493135
 31
0.0
  0
ARC
  5
1FF
330
1F
100
AcDbEntity
  8
0
  6
Continuous
 62
     7
370
    25
100
AcDbCircle
 10
1235.1242695369
 20
202.7958569551
 30
0.0
 40
1.537021907911445
100
AcDbArc
 50
62.6096722366
 51
117.3903277634
  0
LWPOLYLINE
  5
200
330
1F
100
AcDbEntity
  8
0
  6
Continuous
 62
     7
370
    25
100
AcDbPolyline
 90
        3
 70
   128
 43
0.0
 10
1162.5692285438
 20
280.9807860799
 10
1162.8600279678
 20
281.0014062538
 10
1163.706484637
 20
281.3177032605
  0
LINE
  5
201
330
1F
100
AcDbEntity
  8
0
  6
Continuous
 62
     7
370
    25
100
AcDbLine
 10
1163.706484637
 20
281.3177032605
 30
0.0
 11
1176.4344066984
 21
288.6653762669
 31
0.0
  0
ARC
  5
202
330
1F
100
AcDbEntity
  8
0
  6
Continuous
 62
     7
370
    25
100
AcDbCircle
 10
1174.2611572098
 20
292.7075441094
 30
0.0
 40
4.589350085448108
100
AcDbArc
 50
298.2644546683
 51
17.7382019334
  0
LWPOLYLINE
  5
203
330
1F
100
AcDbEntity
  8
0
  6
Continuous
 62
     7
370
    25
100
AcDbPolyline
 90
        3
 70
   128
 43
0.0
 10
1162.5692285439
 20
252.4018576639
 10
1162.8600279678
 20
252.4224778378
 10
1163.706484637
 20
252.7387748445
  0
LWPOLYLINE
  5
204
330
1F
100
AcDbEntity
  8
0
  6
Continuous
 62
     7
370
    25
100
AcDbPolyline
 90
        3
 70
   128
 43
0.0
 10
1170.0704456677
 20
237.2250965689
 10
1169.3732421473
 20
236.6502855262
 10
1169.2099582142
 20
236.4087879822
  0
LINE
  5
205
330
1F
100
AcDbEntity
  8
0
  6
Continuous
 62
     7
370
    25
100
AcDbLine
 10
1152.3927761381
 20
236.4090202073
 30
0.0
 11
1152.3927761381
 21
234.3676681775
 31
0.0
  0
LINE
  5
206
330
1F
100
AcDbEntity
  8
0
  6
Continuous
 62
     7
370
    25
100
AcDbLine
 10
1152.3927761381
 20
234.3676681775
 30
0.0
 11
1154.160543091
 21
233.3471580378
 31
0.0
  0
LINE
  5
207
330
1F
100
AcDbEntity
  8
0
  6
Continuous
 62
     7
370
    25
100
AcDbLine
 10
1163.706484637
 20
252.7387748445
 30
0.0
 11
1176.4344066984
 21
260.0864478509
 31
0.0
  0
LWPOLYLINE
  5
208
330
1F
100
AcDbEntity
  8
0
  6
Continuous
 62
     7
370
    25
100
AcDbPolyline
 90
        3
 70
   128
 43
0.0
 10
1197.9245676031
 20
301.3909888754
 10
1198.2153670271
 20
301.4116090494
 10
1199.0618236964
 20
301.727906056
  0
LINE
  5
209
330
1F
100
AcDbEntity
  8
0
  6
Continuous
 62
     7
370
    25
100
AcDbLine
 10
1182.7983677291
 20
244.5727695753
 30
0.0
 11
1170.0704456677
 21
237.2250965689
 31
0.0
  0
ARC
  5
20A
330
1F
100
AcDbEntity
  8
0
  6
Continuous
 62
     7
370
    25
100
AcDbCircle
 10
1174.2611572098
 20
264.1286156934
 30
0.0
 40
4.589350085431694
100
AcDbArc
 50
298.2644546682
 51
17.7382019339
  0
LINE
  5
20B
330
1F
100
AcDbEntity
  8
0
  6
Continuous
 62
     7
370
    25
100
AcDbLine
 10
1199.0618236964
 20
301.727906056
 30
0.0
 11
1211.7897457577
 21
309.0755790624
 31
0.0
  0
ARC
  5
20C
330
1F
100
AcDbEntity
  8
0
  6
Continuous
 62
     7
370
    25
100
AcDbCircle
 10
1185.2123626821
 20
240.6689554387
 30
0.0
 40
4.58989503653651
100
AcDbArc
 50
42.2738245001
 51
121.7313331989
  0
ARC
  5
20D
330
1F
100
AcDbEntity
  8
0
  6
Continuous
 62
     7
370
    25
100
AcDbCircle
 10
1209.6164962692
 20
313.1177469049
 30
0.0
 40
4.589350085373183
100
AcDbArc
 50
298.2644546679
 51
17.7382019357
  0
LWPOLYLINE
  5
20E
330
1F
100
AcDbEntity
  8
0
  6
Continuous
 62
     7
370
    25
100
AcDbPolyline
 90
        3
 70
   128
 43
0.0
 10
1197.9245676031
 20
272.8120604594
 10
1198.2153670271
 20
272.8326806334
 10
1199.0618236964
 20
273.14897764
  0
LWPOLYLINE
  5
20F
330
1F
100
AcDbEntity
  8
0
  6
Continuous
 62
     7
370
    25
100
AcDbPolyline
 90
        3
 70
   128
 43
0.0
 10
1205.4257847271
 20
257.6352993645
 10
1204.7285812066
 20
257.0604883217
 10
1204.5652972735
 20
256.8189907777
  0
LINE
  5
210
330
1F
100
AcDbEntity
  8
0
  6
Continuous
 62
     7
370
    25
100
AcDbLine
 10
1199.0618236964
 20
273.14897764
 30
0.0
 11
1211.7897457577
 21
280.4966506464
 31
0.0
  0
LINE
  5
211
330
1F
100
AcDbEntity
  8
0
  6
Continuous
 62
     7
370
    25
100
AcDbLine
 10
1218.1537067884
 20
264.9829723709
 30
0.0
 11
1205.4257847271
 21
257.6352993645
 31
0.0
  0
ARC
  5
212
330
1F
100
AcDbEntity
  8
0
  6
Continuous
 62
     7
370
    25
100
AcDbCircle
 10
1209.6164962692
 20
284.538818489
 30
0.0
 40
4.589350085441997
100
AcDbArc
 50
298.2644546683
 51
17.7382019336
  0
ARC
  5
213
330
1F
100
AcDbEntity
  8
0
  6
Continuous
 62
     7
370
    25
100
AcDbCircle
 10
1220.5677017414
 20
261.0791582343
 30
0.0
 40
4.589895036476655
100
AcDbArc
 50
42.2738244983
 51
121.7313331993
  0
LWPOLYLINE
  5
214
330
1F
100
AcDbEntity
  8
0
  6
Continuous
 62
     7
370
    25
100
AcDbPolyline
 90
        3
 70
   128
 43
0.0
 10
2788.9914211943
 20
894.2360932114
 10
2788.1449645251
 20
893.9197962047
 10
2787.8541651011
 20
893.8991760308
  0
LINE
  5
215
330
1F
100
AcDbEntity
  8
0
  6
Continuous
 62
     7
370
    25
100
AcDbLine
 10
2801.7193432557
 20
901.5837662178
 30
0.0
 11
2788.9914211943
 21
894.2360932114
 31
0.0
  0
ARC
  5
216
330
1F
100
AcDbEntity
  8
0
  6
Continuous
 62
     7
370
    25
100
AcDbCircle
 10
2799.5460937671
 20
905.6259340603
 30
0.0
 40
4.589350085465492
100
AcDbArc
 50
298.2644546684
 51
17.7382019329
  0
LWPOLYLINE
  5
217
330
1F
100
AcDbEntity
  8
0
  6
Continuous
 62
     7
370
    25
100
AcDbPolyline
 90
        3
 70
   128
 43
0.0
 10
2788.9914211943
 20
865.6571647954
 10
2788.1449645251
 20
865.3408677887
 10
2787.8541651012
 20
865.3202476148
  0
LINE
  5
218
330
1F
100
AcDbEntity
  8
0
  6
Continuous
 62
     7
370
    25
100
AcDbLine
 10
2801.7193432557
 20
873.0048378018
 30
0.0
 11
2788.9914211943
 21
865.6571647954
 31
0.0
  0
LWPOLYLINE
  5
219
330
1F
100
AcDbEntity
  8
0
  6
Continuous
 62
     7
370
    25
100
AcDbPolyline
 90
        3
 70
   128
 43
0.0
 10
2824.3467602537
 20
914.6462960069
 10
2823.5003035844
 20
914.3299990003
 10
2823.2095041603
 20
914.3093788263
  0
ARC
  5
21A
330
1F
100
AcDbEntity
  8
0
  6
Continuous
 62
     7
370
    25
100
AcDbCircle
 10
2799.5460937671
 20
877.0470056443
 30
0.0
 40
4.589350085443732
100
AcDbArc
 50
298.2644546683
 51
17.7382019336
  0
LINE
  5
21B
330
1F
100
AcDbEntity
  8
0
  6
Continuous
 62
     7
370
    25
100
AcDbLine
 10
2837.074682315
 20
921.9939690133
 30
0.0
 11
2824.3467602537
 21
914.6462960069
 31
0.0
  0
ARC
  5
21C
330
1F
100
AcDbEntity
  8
0
  6
Continuous
 62
     7
370
    25
100
AcDbCircle
 10
2834.9014328264
 20
926.0361368559
 30
0.0
 40
4.589350085448894
100
AcDbArc
 50
298.2644546683
 51
17.7382019334
  0
LWPOLYLINE
  5
21D
330
1F
100
AcDbEntity
  8
0
  6
Continuous
 62
     7
370
    25
100
AcDbPolyline
 90
        3
 70
   128
 43
0.0
 10
2824.3467602537
 20
886.0673675909
 10
2823.5003035844
 20
885.7510705843
 10
2823.2095041604
 20
885.7304504103
  0
LINE
  5
21E
330
1F
100
AcDbEntity
  8
0
  6
Continuous
 62
     7
370
    25
100
AcDbLine
 10
2837.074682315
 20
893.4150405973
 30
0.0
 11
2824.3467602537
 21
886.0673675909
 31
0.0
  0
ARC
  5
21F
330
1F
100
AcDbEntity
  8
0
  6
Continuous
 62
     7
370
    25
100
AcDbCircle
 10
2834.9014328265
 20
897.4572084398
 30
0.0
 40
4.589350085419677
100
AcDbArc
 50
298.2644546682
 51
17.7382019343
  0
LINE
  5
220
330
1F
100
AcDbEntity
  8
0
  6
Continuous
 62
     7
370
    25
100
AcDbLine
 10
2699.8957943637
 20
961.5832933087
 30
0.0
 11
2694.5926659059
 21
964.644724203
 31
0.0
  0
LINE
  5
221
330
1F
100
AcDbEntity
  8
0
  6
Continuous
 62
     7
370
    25
100
AcDbLine
 10
2693.1784523436
 20
964.644724203
 30
0.0
 11
2689.9966442293
 21
962.8079054764
 31
0.0
  0
ARC
  5
222
330
1F
100
AcDbEntity
  8
0
  6
Continuous
 62
     7
370
    25
100
AcDbCircle
 10
2693.8855591247
 20
963.280013118
 30
0.0
 40
1.537021907911312
100
AcDbArc
 50
62.6096722366
 51
117.3903277634
  0
LWPOLYLINE
  5
223
330
1F
100
AcDbEntity
  8
0
  6
Continuous
 62
     7
370
    25
100
AcDbPolyline
 90
        3
 70
   128
 43
0.0
 10
2506.0721127982
 20
1056.5684923114
 10
2506.3629122222
 20
1056.5891124854
 10
2507.2093688915
 20
1056.905409492
  0
LINE
  5
224
330
1F
100
AcDbEntity
  8
0
  6
Continuous
 62
     7
370
    25
100
AcDbLine
 10
2507.2093688915
 20
1056.905409492
 30
0.0
 11
2519.9372909528
 21
1064.2530824984
 31
0.0
  0
ARC
  5
225
330
1F
100
AcDbEntity
  8
0
  6
Continuous
 62
     7
370
    25
100
AcDbCircle
 10
2517.7640414643
 20
1068.295250341
 30
0.0
 40
4.589350085469818
100
AcDbArc
 50
298.2644546685
 51
17.7382019328
  0
LINE
  5
226
330
1F
100
AcDbEntity
  8
0
  6
Continuous
 62
     7
370
    25
100
AcDbLine
 10
2629.1851162451
 20
1002.4036988998
 30
0.0
 11
2623.8819877873
 21
1005.4651297941
 31
0.0
  0
LINE
  5
227
330
1F
100
AcDbEntity
  8
0
  6
Continuous
 62
     7
370
    25
100
AcDbLine
 10
2622.4677742249
 20
1005.4651297941
 30
0.0
 11
2619.2859661107
 21
1003.6283110675
 31
0.0
  0
ARC
  5
228
330
1F
100
AcDbEntity
  8
0
  6
Continuous
 62
     7
370
    25
100
AcDbCircle
 10
2623.1748810061
 20
1004.1004187091
 30
0.0
 40
1.537021907911521
100
AcDbArc
 50
62.6096722366
 51
117.3903277634
  0
LWPOLYLINE
  5
229
330
1F
100
AcDbEntity
  8
0
  6
Continuous
 62
     7
370
    25
100
AcDbPolyline
 90
        3
 70
   128
 43
0.0
 10
2506.0721127982
 20
1027.9895638954
 10
2506.3629122222
 20
1028.0101840694
 10
2507.2093688915
 20
1028.326481076
  0
LWPOLYLINE
  5
22A
330
1F
100
AcDbEntity
  8
0
  6
Continuous
 62
     7
370
    25
100
AcDbPolyline
 90
        3
 70
   128
 43
0.0
 10
2513.5733299222
 20
1012.8128028005
 10
2512.8761264017
 20
1012.2379917577
 10
2512.7128424686
 20
1011.9964942137
  0
LINE
  5
22B
330
1F
100
AcDbEntity
  8
0
  6
Continuous
 62
     7
370
    25
100
AcDbLine
 10
2507.2093688915
 20
1028.326481076
 30
0.0
 11
2519.9372909528
 21
1035.6741540824
 31
0.0
  0
LWPOLYLINE
  5
22C
330
1F
100
AcDbEntity
  8
0
  6
Continuous
 62
     7
370
    25
100
AcDbPolyline
 90
        3
 70
   128
 43
0.0
 10
2541.4274518576
 20
1076.978695107
 10
2541.7182512816
 20
1076.999315281
 10
2542.5647079508
 20
1077.3156122876
  0
LINE
  5
22D
330
1F
100
AcDbEntity
  8
0
  6
Continuous
 62
     7
370
    25
100
AcDbLine
 10
2526.3012519835
 20
1020.1604758069
 30
0.0
 11
2513.5733299222
 21
1012.8128028005
 31
0.0
  0
ARC
  5
22E
330
1F
100
AcDbEntity
  8
0
  6
Continuous
 62
     7
370
    25
100
AcDbCircle
 10
2517.7640414643
 20
1039.716321925
 30
0.0
 40
4.589350085446911
100
AcDbArc
 50
298.2644546683
 51
17.7382019335
  0
LINE
  5
22F
330
1F
100
AcDbEntity
  8
0
  6
Continuous
 62
     7
370
    25
100
AcDbLine
 10
2542.5647079508
 20
1077.3156122876
 30
0.0
 11
2555.2926300122
 21
1084.663285294
 31
0.0
  0
ARC
  5
230
330
1F
100
AcDbEntity
  8
0
  6
Continuous
 62
     7
370
    25
100
AcDbCircle
 10
2528.7152469365
 20
1016.2566616703
 30
0.0
 40
4.589895036513118
100
AcDbArc
 50
42.2738244994
 51
121.7313331991
  0
ARC
  5
231
330
1F
100
AcDbEntity
  8
0
  6
Continuous
 62
     7
370
    25
100
AcDbCircle
 10
2553.1193805236
 20
1088.7054531365
 30
0.0
 40
4.589350085430422
100
AcDbArc
 50
298.2644546682
 51
17.738201934
  0
LWPOLYLINE
  5
232
330
1F
100
AcDbEntity
  8
0
  6
Continuous
 62
     7
370
    25
100
AcDbPolyline
 90
        3
 70
   128
 43
0.0
 10
2541.4274518576
 20
1048.399766691
 10
2541.7182512816
 20
1048.420386865
 10
2542.5647079508
 20
1048.7366838716
  0
LWPOLYLINE
  5
233
330
1F
100
AcDbEntity
  8
0
  6
Continuous
 62
     7
370
    25
100
AcDbPolyline
 90
        3
 70
   128
 43
0.0
 10
2548.9286689815
 20
1033.2230055961
 10
2548.231465461
 20
1032.6481945533
 10
2548.068181528
 20
1032.4066970093
  0
LINE
  5
234
330
1F
100
AcDbEntity
  8
0
  6
Continuous
 62
     7
370
    25
100
AcDbLine
 10
2542.5647079508
 20
1048.7366838716
 30
0.0
 11
2555.2926300122
 21
1056.084356878
 31
0.0
  0
LINE
  5
235
330
1F
100
AcDbEntity
  8
0
  6
Continuous
 62
     7
370
    25
100
AcDbLine
 10
2561.6565910429
 20
1040.5706786025
 30
0.0
 11
2548.9286689815
 21
1033.2230055961
 31
0.0
  0
ARC
  5
236
330
1F
100
AcDbEntity
  8
0
  6
Continuous
 62
     7
370
    25
100
AcDbCircle
 10
2553.1193805236
 20
1060.1265247206
 30
0.0
 40
4.589350085478821
100
AcDbArc
 50
298.2644546685
 51
17.7382019326
  0
ARC
  5
237
330
1F
100
AcDbEntity
  8
0
  6
Continuous
 62
     7
370
    25
100
AcDbCircle
 10
2564.0705859958
 20
1036.6668644659
 30
0.0
 40
4.58989503649984
100
AcDbArc
 50
42.273824499
 51
121.7313331992
  0
ENDSEC
  0
SECTION
  2
OBJECTS
  0
DICTIONARY
  5
C
330
0
100
AcDbDictionary
281
     1
  3
ACAD_GROUP
350
D
  3
ACAD_LAYOUT
350
1A
  3
ACAD_MLINESTYLE
350
17
  3
ACAD_PLOTSETTINGS
350
19
  3
ACAD_PLOTSTYLENAME
350
E
  3
ACAD_SCALELIST
350
47
  0
DICTIONARY
  5
D
102
{ACAD_REACTORS
330
C
102
}
330
C
100
AcDbDictionary
281
     1
  0
DICTIONARY
  5
1A
102
{ACAD_REACTORS
330
C
102
}
330
C
100
AcDbDictionary
281
     1
  3
Layout1
350
1E
  3
Layout2
350
26
  3
Model
350
22
  0
DICTIONARY
  5
17
102
{ACAD_REACTORS
330
C
102
}
330
C
100
AcDbDictionary
281
     1
  3
Standard
350
18
  0
DICTIONARY
  5
19
102
{ACAD_REACTORS
330
C
102
}
330
C
100
AcDbDictionary
281
     1
  0
ACDBDICTIONARYWDFLT
  5
E
102
{ACAD_REACTORS
330
C
102
}
330
C
100
AcDbDictionary
281
     1
  3
Normal
350
F
100
AcDbDictionaryWithDefault
340
F
  0
DICTIONARY
  5
47
102
{ACAD_REACTORS
330
C
102
}
330
C
100
AcDbDictionary
281
     1
  3
A0
350
48
  3
A1
350
49
  3
A2
350
4A
  3
A3
350
4B
  3
A4
350
4C
  3
A5
350
4D
  3
A6
350
4E
  3
A7
350
4F
  3
A8
350
50
  3
A9
350
51
  3
B0
350
52
  3
B1
350
53
  3
B2
350
54
  3
B3
350
55
  3
B4
350
56
  3
B5
350
57
  3
B6
350
58
  3
B7
350
59
  3
B8
350
5A
  3
B9
350
5B
  3
C0
350
5C
  3
C1
350
5D
  3
C2
350
5E
  3
C3
350
5F
  3
C4
350
60
  3
C5
350
61
  3
C6
350
62
  3
C7
350
63
  3
C8
350
64
  3
C9
350
65
  3
D0
350
66
  3
D1
350
67
  3
D2
350
68
  0
LAYOUT
  5
1E
102
{ACAD_REACTORS
330
1A
102
}
330
1A
100
AcDbPlotSettings
  1

  2
none_device
  4

  6

 40
0.0
 41
0.0
 42
0.0
 43
0.0
 44
0.0
 45
0.0
 46
0.0
 47
0.0
 48
0.0
 49
0.0
140
0.0
141
0.0
142
1.0
143
1.0
 70
   688
 72
     1
 73
     0
 74
     5
  7

 75
    16
147
1.0
148
0.0
149
0.0
100
AcDbLayout
  1
Layout1
 70
     1
 71
     1
 10
0.0
 20
0.0
 11
420.0
 21
297.0
 12
0.0
 22
0.0
 32
0.0
 14
1.0000000000E+20
 24
1.0000000000E+20
 34
1.0000000000E+20
 15
-1.0000000000E+20
 25
-1.0000000000E+20
 35
-1.0000000000E+20
146
0.0
 13
0.0
 23
0.0
 33
0.0
 16
1.0
 26
0.0
 36
0.0
 17
0.0
 27
1.0
 37
0.0
 76
     0
330
1B
  0
LAYOUT
  5
26
102
{ACAD_REACTORS
330
1A
102
}
330
1A
100
AcDbPlotSettings
  1

  2
none_device
  4

  6

 40
0.0
 41
0.0
 42
0.0
 43
0.0
 44
0.0
 45
0.0
 46
0.0
 47
0.0
 48
0.0
 49
0.0
140
0.0
141
0.0
142
1.0
143
1.0
 70
   688
 72
     1
 73
     0
 74
     5
  7

 75
    16
147
1.0
148
0.0
149
0.0
100
AcDbLayout
  1
Layout2
 70
     1
 71
     2
 10
0.0
 20
0.0
 11
0.0
 21
0.0
 12
0.0
 22
0.0
 32
0.0
 14
0.0
 24
0.0
 34
0.0
 15
0.0
 25
0.0
 35
0.0
146
0.0
 13
0.0
 23
0.0
 33
0.0
 16
1.0
 26
0.0
 36
0.0
 17
0.0
 27
1.0
 37
0.0
 76
     0
330
23
  0
LAYOUT
  5
22
102
{ACAD_REACTORS
330
1A
102
}
330
1A
100
AcDbPlotSettings
  1

  2
none_device
  4
Letter_(8.50_x_11.00_Inches)
  6

 40
6.35
 41
6.35
 42
6.35000508
 43
6.35000508
 44
215.9
 45
279.4
 46
0.0
 47
0.0
 48
0.0
 49
0.0
140
0.0
141
0.0
142
1.0
143
1.0
 70
  1712
 72
     1
 73
     0
 74
     0
  7

 75
     0
147
1.0
148
0.0
149
0.0
100
AcDbLayout
  1
Model
 70
     1
 71
     0
 10
0.0
 20
0.0
 11
3000.0
 21
2000.0
 12
0.0
 22
0.0
 32
0.0
 14
0.0
 24
0.0
 34
0.0
 15
3000.0
 25
2000.0
 35
0.0
146
0.0
 13
0.0
 23
0.0
 33
0.0
 16
1.0
 26
0.0
 36
0.0
 17
0.0
 27
1.0
 37
0.0
 76
     0
330
1F
331
29
  0
MLINESTYLE
  5
18
102
{ACAD_REACTORS
330
17
102
}
330
17
100
AcDbMlineStyle
  2
Standard
 70
     0
  3

 62
   256
 51
90.0
 52
90.0
 71
     2
 49
0.5
 62
   256
  6
BYLAYER
 49
-0.5
 62
   256
  6
BYLAYER
  0
ACDBPLACEHOLDER
  5
F
102
{ACAD_REACTORS
330
E
102
}
330
E
  0
SCALE
  5
48
102
{ACAD_REACTORS
330
47
102
}
330
47
100
AcDbScale
 70
     0
300
1:1
140
1.0
141
1.0
290
     1
  0
SCALE
  5
49
102
{ACAD_REACTORS
330
47
102
}
330
47
100
AcDbScale
 70
     0
300
1:2
140
1.0
141
2.0
290
     0
  0
SCALE
  5
4A
102
{ACAD_REACTORS
330
47
102
}
330
47
100
AcDbScale
 70
     0
300
1:4
140
1.0
141
4.0
290
     0
  0
SCALE
  5
4B
102
{ACAD_REACTORS
330
47
102
}
330
47
100
AcDbScale
 70
     0
300
1:5
140
1.0
141
5.0
290
     0
  0
SCALE
  5
4C
102
{ACAD_REACTORS
330
47
102
}
330
47
100
AcDbScale
 70
     0
300
1:8
140
1.0
141
8.0
290
     0
  0
SCALE
  5
4D
102
{ACAD_REACTORS
330
47
102
}
330
47
100
AcDbScale
 70
     0
300
1:10
140
1.0
141
10.0
290
     0
  0
SCALE
  5
4E
102
{ACAD_REACTORS
330
47
102
}
330
47
100
AcDbScale
 70
     0
300
1:16
140
1.0
141
16.0
290
     0
  0
SCALE
  5
4F
102
{ACAD_REACTORS
330
47
102
}
330
47
100
AcDbScale
 70
     0
300
1:20
140
1.0
141
20.0
290
     0
  0
SCALE
  5
50
102
{ACAD_REACTORS
330
47
102
}
330
47
100
AcDbScale
 70
     0
300
1:30
140
1.0
141
30.0
290
     0
  0
SCALE
  5
51
102
{ACAD_REACTORS
330
47
102
}
330
47
100
AcDbScale
 70
     0
300
1:40
140
1.0
141
40.0
290
     0
  0
SCALE
  5
52
102
{ACAD_REACTORS
330
47
102
}
330
47
100
AcDbScale
 70
     0
300
1:50
140
1.0
141
50.0
290
     0
  0
SCALE
  5
53
102
{ACAD_REACTORS
330
47
102
}
330
47
100
AcDbScale
 70
     0
300
1:100
140
1.0
141
100.0
290
     0
  0
SCALE
  5
54
102
{ACAD_REACTORS
330
47
102
}
330
47
100
AcDbScale
 70
     0
300
2:1
140
2.0
141
1.0
290
     0
  0
SCALE
  5
55
102
{ACAD_REACTORS
330
47
102
}
330
47
100
AcDbScale
 70
     0
300
4:1
140
4.0
141
1.0
290
     0
  0
SCALE
  5
56
102
{ACAD_REACTORS
330
47
102
}
330
47
100
AcDbScale
 70
     0
300
8:1
140
8.0
141
1.0
290
     0
  0
SCALE
  5
57
102
{ACAD_REACTORS
330
47
102
}
330
47
100
AcDbScale
 70
     0
300
10:1
140
10.0
141
1.0
290
     0
  0
SCALE
  5
58
102
{ACAD_REACTORS
330
47
102
}
330
47
100
AcDbScale
 70
     0
300
100:1
140
100.0
141
1.0
290
     0
  0
SCALE
  5
59
102
{ACAD_REACTORS
330
47
102
}
330
47
100
AcDbScale
 70
     0
300
1/128" = 1'-0"
140
0.0078125
141
12.0
290
     0
  0
SCALE
  5
5A
102
{ACAD_REACTORS
330
47
102
}
330
47
100
AcDbScale
 70
     0
300
1/64" = 1'-0"
140
0.015625
141
12.0
290
     0
  0
SCALE
  5
5B
102
{ACAD_REACTORS
330
47
102
}
330
47
100
AcDbScale
 70
     0
300
1/32" = 1'-0"
140
0.03125
141
12.0
290
     0
  0
SCALE
  5
5C
102
{ACAD_REACTORS
330
47
102
}
330
47
100
AcDbScale
 70
     0
300
1/16" = 1'-0"
140
0.0625
141
12.0
290
     0
  0
SCALE
  5
5D
102
{ACAD_REACTORS
330
47
102
}
330
47
100
AcDbScale
 70
     0
300
3/32" = 1'-0"
140
0.09375
141
12.0
290
     0
  0
SCALE
  5
5E
102
{ACAD_REACTORS
330
47
102
}
330
47
100
AcDbScale
 70
     0
300
1/8" = 1'-0"
140
0.125
141
12.0
290
     0
  0
SCALE
  5
5F
102
{ACAD_REACTORS
330
47
102
}
330
47
100
AcDbScale
 70
     0
300
3/16" = 1'-0"
140
0.1875
141
12.0
290
     0
  0
SCALE
  5
60
102
{ACAD_REACTORS
330
47
102
}
330
47
100
AcDbScale
 70
     0
300
1/4" = 1'-0"
140
0.25
141
12.0
290
     0
  0
SCALE
  5
61
102
{ACAD_REACTORS
330
47
102
}
330
47
100
AcDbScale
 70
     0
300
3/8" = 1'-0"
140
0.375
141
12.0
290
     0
  0
SCALE
  5
62
102
{ACAD_REACTORS
330
47
102
}
330
47
100
AcDbScale
 70
     0
300
1/2" = 1'-0"
140
0.5
141
12.0
290
     0
  0
SCALE
  5
63
102
{ACAD_REACTORS
330
47
102
}
330
47
100
AcDbScale
 70
     0
300
3/4" = 1'-0"
140
0.75
141
12.0
290
     0
  0
SCALE
  5
64
102
{ACAD_REACTORS
330
47
102
}
330
47
100
AcDbScale
 70
     0
300
1" = 1'-0"
140
1.0
141
12.0
290
     0
  0
SCALE
  5
65
102
{ACAD_REACTORS
330
47
102
}
330
47
100
AcDbScale
 70
     0
300
1-1/2" = 1'-0"
140
1.5
141
12.0
290
     0
  0
SCALE
  5
66
102
{ACAD_REACTORS
330
47
102
}
330
47
100
AcDbScale
 70
     0
300
3" = 1'-0"
140
3.0
141
12.0
290
     0
  0
SCALE
  5
67
102
{ACAD_REACTORS
330
47
102
}
330
47
100
AcDbScale
 70
     0
300
6" = 1'-0"
140
6.0
141
12.0
290
     0
  0
SCALE
  5
68
102
{ACAD_REACTORS
330
47
102
}
330
47
100
AcDbScale
 70
     0
300
1'-0" = 1'-0"
140
12.0
141
12.0
290
     0
  0
ENDSEC
  0
EOF
