  0
SECTION
  2
HEADER
  9
$ACADVER
  1
AC1015
  9
$ACADMAINTVER
 70
     6
  9
$DWGCODEPAGE
  3
ANSI_1251
  9
$INSBASE
 10
0.0
 20
0.0
 30
0.0
  9
$EXTMIN
 10
0.0
 20
0.0
 30
0.0
  9
$EXTMAX
 10
420.0
 20
297.0
 30
0.0
  9
$LIMMIN
 10
0.0
 20
0.0
  9
$LIMMAX
 10
420.0
 20
297.0
  9
$ORTHOMODE
 70
     0
  9
$REGENMODE
 70
     1
  9
$FILLMODE
 70
     1
  9
$QTEXTMODE
 70
     0
  9
$MIRRTEXT
 70
     1
  9
$LTSCALE
 40
1.0
  9
$ATTMODE
 70
     1
  9
$TEXTSIZE
 40
5.0
  9
$TRACEWID
 40
1.0
  9
$TEXTSTYLE
  7
Standard
  9
$CLAYER
  8
0
  9
$CELTYPE
  6
ByLayer
  9
$CECOLOR
 62
   256
  9
$CELTSCALE
 40
1.0
  9
$DISPSILH
 70
     0
  9
$DIMSCALE
 40
1.0
  9
$DIMASZ
 40
5.0
  9
$DIMEXO
 40
0.0
  9
$DIMDLI
 40
3.75
  9
$DIMRND
 40
0.0
  9
$DIMDLE
 40
0.0
  9
$DIMEXE
 40
1.0
  9
$DIMTP
 40
0.0
  9
$DIMTM
 40
0.0
  9
$DIMTXT
 40
3.5
  9
$DIMCEN
 40
2.5
  9
$DIMTSZ
 40
0.0
  9
$DIMTOL
 70
     0
  9
$DIMLIM
 70
     0
  9
$DIMTIH
 70
     1
  9
$DIMTOH
 70
     1
  9
$DIMSE1
 70
     0
  9
$DIMSE2
 70
     0
  9
$DIMTAD
 70
     1
  9
$DIMZIN
 70
     0
  9
$DIMBLK
  1

  9
$DIMASO
 70
     1
  9
$DIMSHO
 70
     1
  9
$DIMPOST
  1

  9
$DIMAPOST
  1

  9
$DIMALT
 70
     0
  9
$DIMALTD
 70
     3
  9
$DIMALTF
 40
0.0393700787
  9
$DIMLFAC
 40
1.0
  9
$DIMTOFL
 70
     1
  9
$DIMTVP
 40
0.0
  9
$DIMTIX
 70
     0
  9
$DIMSOXD
 70
     0
  9
$DIMSAH
 70
     0
  9
$DIMBLK1
  1

  9
$DIMBLK2
  1

  9
$DIMSTYLE
  2
ISO-25
  9
$DIMCLRD
 70
     0
  9
$DIMCLRE
 70
     0
  9
$DIMCLRT
 70
     0
  9
$DIMTFAC
 40
1.0
  9
$DIMGAP
 40
1.5
  9
$DIMJUST
 70
     0
  9
$DIMSD1
 70
     0
  9
$DIMSD2
 70
     0
  9
$DIMTOLJ
 70
     0
  9
$DIMTZIN
 70
     0
  9
$DIMALTZ
 70
     0
  9
$DIMALTTZ
 70
     0
  9
$DIMUPT
 70
     0
  9
$DIMDEC
 70
     1
  9
$DIMTDEC
 70
     1
  9
$DIMALTU
 70
     2
  9
$DIMALTTD
 70
     3
  9
$DIMTXSTY
  7
Standard
  9
$DIMAUNIT
 70
     0
  9
$DIMADEC
 70
     2
  9
$DIMALTRND
 40
0.0
  9
$DIMAZIN
 70
     0
  9
$DIMDSEP
 70
    44
  9
$DIMATFIT
 70
     3
  9
$DIMFRAC
 70
     0
  9
$DIMLDRBLK
  1

  9
$DIMLUNIT
 70
     2
  9
$DIMLWD
 70
    -2
  9
$DIMLWE
 70
    -2
  9
$DIMTMOVE
 70
     0
  9
$LUNITS
 70
     2
  9
$LUPREC
 70
     1
  9
$SKETCHINC
 40
1.0
  9
$FILLETRAD
 40
0.0
  9
$AUNITS
 70
     0
  9
$AUPREC
 70
     2
  9
$MENU
  1
.
  9
$ELEVATION
 40
0.0
  9
$PELEVATION
 40
0.0
  9
$THICKNESS
 40
0.0
  9
$LIMCHECK
 70
     0
  9
$CHAMFERA
 40
0.0
  9
$CHAMFERB
 40
0.0
  9
$CHAMFERC
 40
0.0
  9
$CHAMFERD
 40
0.0
  9
$SKPOLY
 70
     0
  9
$TDCREATE
 40
2460697.681090787
  9
$TDUCREATE
 40
2460697.556090787
  9
$TDUPDATE
 40
2460697.681091285
  9
$TDUUPDATE
 40
2460697.556091285
  9
$TDINDWG
 40
0.0000000116
  9
$TDUSRTIMER
 40
0.0000000116
  9
$USRTIMER
 70
     1
  9
$ANGBASE
 50
0.0
  9
$ANGDIR
 70
     0
  9
$PDMODE
 70
     0
  9
$PDSIZE
 40
-1.0
  9
$PLINEWID
 40
0.0
  9
$SPLFRAME
 70
     0
  9
$SPLINETYPE
 70
     6
  9
$SPLINESEGS
 70
     8
  9
$HANDSEED
  5
695
  9
$SURFTAB1
 70
     6
  9
$SURFTAB2
 70
     6
  9
$SURFTYPE
 70
     6
  9
$SURFU
 70
     6
  9
$SURFV
 70
     6
  9
$UCSBASE
  2

  9
$UCSNAME
  2

  9
$UCSORG
 10
0.0
 20
0.0
 30
0.0
  9
$UCSXDIR
 10
1.0
 20
0.0
 30
0.0
  9
$UCSYDIR
 10
0.0
 20
1.0
 30
0.0
  9
$UCSORTHOREF
  2

  9
$UCSORTHOVIEW
 70
     0
  9
$UCSORGTOP
 10
0.0
 20
0.0
 30
0.0
  9
$UCSORGBOTTOM
 10
0.0
 20
0.0
 30
0.0
  9
$UCSORGLEFT
 10
0.0
 20
0.0
 30
0.0
  9
$UCSORGRIGHT
 10
0.0
 20
0.0
 30
0.0
  9
$UCSORGFRONT
 10
0.0
 20
0.0
 30
0.0
  9
$UCSORGBACK
 10
0.0
 20
0.0
 30
0.0
  9
$PUCSBASE
  2

  9
$PUCSNAME
  2

  9
$PUCSORG
 10
0.0
 20
0.0
 30
0.0
  9
$PUCSXDIR
 10
1.0
 20
0.0
 30
0.0
  9
$PUCSYDIR
 10
0.0
 20
1.0
 30
0.0
  9
$PUCSORTHOREF
  2

  9
$PUCSORTHOVIEW
 70
     0
  9
$PUCSORGTOP
 10
0.0
 20
0.0
 30
0.0
  9
$PUCSORGBOTTOM
 10
0.0
 20
0.0
 30
0.0
  9
$PUCSORGLEFT
 10
0.0
 20
0.0
 30
0.0
  9
$PUCSORGRIGHT
 10
0.0
 20
0.0
 30
0.0
  9
$PUCSORGFRONT
 10
0.0
 20
0.0
 30
0.0
  9
$PUCSORGBACK
 10
0.0
 20
0.0
 30
0.0
  9
$USERI1
 70
     0
  9
$USERI2
 70
     0
  9
$USERI3
 70
     0
  9
$USERI4
 70
     0
  9
$USERI5
 70
     0
  9
$USERR1
 40
0.0
  9
$USERR2
 40
0.0
  9
$USERR3
 40
0.0
  9
$USERR4
 40
0.0
  9
$USERR5
 40
0.0
  9
$WORLDVIEW
 70
     1
  9
$SHADEDGE
 70
     3
  9
$SHADEDIF
 70
    70
  9
$TILEMODE
 70
     1
  9
$MAXACTVP
 70
    64
  9
$PINSBASE
 10
0.0
 20
0.0
 30
0.0
  9
$PLIMCHECK
 70
     0
  9
$PEXTMIN
 10
1.0000000000E+20
 20
1.0000000000E+20
 30
1.0000000000E+20
  9
$PEXTMAX
 10
-1.0000000000E+20
 20
-1.0000000000E+20
 30
-1.0000000000E+20
  9
$PLIMMIN
 10
0.0
 20
0.0
  9
$PLIMMAX
 10
420.0
 20
297.0
  9
$UNITMODE
 70
     0
  9
$VISRETAIN
 70
     1
  9
$PLINEGEN
 70
     0
  9
$PSLTSCALE
 70
     1
  9
$TREEDEPTH
 70
  3020
  9
$CMLSTYLE
  2
Standard
  9
$CMLJUST
 70
     0
  9
$CMLSCALE
 40
20.0
  9
$PROXYGRAPHICS
 70
     1
  9
$MEASUREMENT
 70
     1
  9
$CELWEIGHT
370
    -1
  9
$ENDCAPS
280
     0
  9
$JOINSTYLE
280
     0
  9
$LWDISPLAY
290
     1
  9
$INSUNITS
 70
     4
  9
$HYPERLINKBASE
  1

  9
$STYLESHEET
  1

  9
$XEDIT
290
     1
  9
$CEPSNTYPE
380
     0
  9
$PSTYLEMODE
290
     1
  9
$FINGERPRINTGUID
  2
{529ca09a-59cc-4fd3-8d03-14dd87e563ae}
  9
$VERSIONGUID
  2
{FAEB1C32-E019-11D5-929B-00C0DF256EC4}
  9
$EXTNAMES
290
     1
  9
$PSVPSCALE
 40
0.0
  9
$OLESTARTUP
290
     0
  0
ENDSEC
  0
SECTION
  2
CLASSES
  0
CLASS
  1
ACDBDICTIONARYWDFLT
  2
AcDbDictionaryWithDefault
  3
ObjectDBX Classes
 90
        0
280
     0
281
     0
  0
CLASS
  1
VISUALSTYLE
  2
AcDbVisualStyle
  3
ObjectDBX Classes
 90
     4095
280
     0
281
     0
  0
CLASS
  1
MATERIAL
  2
AcDbMaterial
  3
ObjectDBX Classes
 90
     1153
280
     0
281
     0
  0
CLASS
  1
SCALE
  2
AcDbScale
  3
ObjectDBX Classes
 90
     1153
280
     0
281
     0
  0
CLASS
  1
TABLESTYLE
  2
AcDbTableStyle
  3
ObjectDBX Classes
 90
     4095
280
     0
281
     0
  0
CLASS
  1
MLEADERSTYLE
  2
AcDbMLeaderStyle
  3
ACDB_MLEADERSTYLE_CLASS
 90
     4095
280
     0
281
     0
  0
CLASS
  1
SUN
  2
AcDbSun
  3
SCENEOE
 90
     1153
280
     0
281
     0
  0
CLASS
  1
ACDBPLACEHOLDER
  2
AcDbPlaceHolder
  3
ObjectDBX Classes
 90
        0
280
     0
281
     0
  0
CLASS
  1
LAYOUT
  2
AcDbLayout
  3
ObjectDBX Classes
 90
        0
280
     0
281
     0
  0
ENDSEC
  0
SECTION
  2
TABLES
  0
TABLE
  2
VPORT
  5
8
330
0
100
AcDbSymbolTable
 70
     1
  0
VPORT
  5
29
330
8
100
AcDbSymbolTableRecord
100
AcDbViewportTableRecord
  2
*Active
 70
     0
 10
0.0
 20
0.0
 11
1.0
 21
1.0
 12
210.0
 22
148.5
 13
0.0
 23
0.0
 14
10.0
 24
10.0
 15
10.0
 25
10.0
 16
0.0
 26
0.0
 36
1.0
 17
0.0
 27
0.0
 37
0.0
 40
297.0
 41
1.4141414141
 42
50.0
 43
0.0
 44
0.0
 50
0.0
 51
0.0
 71
     0
 72
  2000
 73
     1
 74
     3
 75
     0
 76
     0
 77
     0
 78
     0
281
     0
 65
     1
110
0.0
120
0.0
130
0.0
111
1.0
121
0.0
131
0.0
112
0.0
122
1.0
132
0.0
 79
     0
146
0.0
  0
ENDTAB
  0
TABLE
  2
LTYPE
  5
5
330
0
100
AcDbSymbolTable
 70
     6
  0
LTYPE
  5
14
330
5
100
AcDbSymbolTableRecord
100
AcDbLinetypeTableRecord
  2
ByBlock
 70
     0
  3

 72
    65
 73
     0
 40
0.0
  0
LTYPE
  5
15
330
5
100
AcDbSymbolTableRecord
100
AcDbLinetypeTableRecord
  2
ByLayer
 70
     0
  3

 72
    65
 73
     0
 40
0.0
  0
LTYPE
  5
16
330
5
100
AcDbSymbolTableRecord
100
AcDbLinetypeTableRecord
  2
Continuous
 70
     0
  3
Solid line
 72
    65
 73
     0
 40
0.0
  0
LTYPE
  5
5E
330
5
100
AcDbSymbolTableRecord
100
AcDbLinetypeTableRecord
  2
HIDDEN
 70
     0
  3
Hidden __ __ __ __ __ __ __ __ __ __ __ __ __ __
 72
    65
 73
     2
 40
1.905
 49
1.27
 74
     0
 49
-0.635
 74
     0
  0
LTYPE
  5
5F
330
5
100
AcDbSymbolTableRecord
100
AcDbLinetypeTableRecord
  2
PHANTOM
 70
     0
  3
Phantom ______  __  __  ______  __  __  ______
 72
    65
 73
     6
 40
12.7
 49
6.35
 74
     0
 49
-1.27
 74
     0
 49
1.27
 74
     0
 49
-1.27
 74
     0
 49
1.27
 74
     0
 49
-1.27
 74
     0
  0
LTYPE
  5
60
330
5
100
AcDbSymbolTableRecord
100
AcDbLinetypeTableRecord
  2
CENTER
 70
     0
  3
Center ____ _ ____ _ ____ _ ____ _ ____ _ ____
 72
    65
 73
     4
 40
10.16
 49
6.35
 74
     0
 49
-1.27
 74
     0
 49
1.27
 74
     0
 49
-1.27
 74
     0
  0
LTYPE
  5
61
330
5
100
AcDbSymbolTableRecord
100
AcDbLinetypeTableRecord
  2
CENTERX2
 70
     0
  3
Center (2x) ________  __  ________  __  _____
 72
    65
 73
     4
 40
20.32
 49
12.7
 74
     0
 49
-2.54
 74
     0
 49
2.54
 74
     0
 49
-2.54
 74
     0
  0
LTYPE
  5
62
330
5
100
AcDbSymbolTableRecord
100
AcDbLinetypeTableRecord
  2
DOT2
 70
     0
  3
Dot (.5x) ........................................
 72
    65
 73
     2
 40
0.635
 49
0.0
 74
     0
 49
-0.635
 74
     0
  0
ENDTAB
  0
TABLE
  2
LAYER
  5
2
330
0
100
AcDbSymbolTable
 70
     3
  0
LAYER
  5
10
330
2
100
AcDbSymbolTableRecord
100
AcDbLayerTableRecord
  2
0
 70
     0
 62
     7
  6
Continuous
370
    -3
390
F
  0
LAYER
  5
63
330
2
100
AcDbSymbolTableRecord
100
AcDbLayerTableRecord
  2
ВОДЯНОЙ_ЗНАК
 70
     0
 62
    11
  6
Continuous
370
    -3
390
F
  0
LAYER
  5
64
330
2
100
AcDbSymbolTableRecord
100
AcDbLayerTableRecord
  2
ОСНОВНОЙ
 70
     0
 62
     7
  6
Continuous
370
    -3
390
F
  0
ENDTAB
  0
TABLE
  2
STYLE
  5
3
330
0
100
AcDbSymbolTable
 70
     1
  0
STYLE
  5
11
330
3
100
AcDbSymbolTableRecord
100
AcDbTextStyleTableRecord
  2
Standard
 70
     0
 40
0.0
 41
1.0
 50
0.0
 71
     0
 42
5.0
  3
txt
  4

  0
ENDTAB
  0
TABLE
  2
VIEW
  5
6
330
0
100
AcDbSymbolTable
 70
     0
  0
ENDTAB
  0
TABLE
  2
UCS
  5
7
330
0
100
AcDbSymbolTable
 70
     0
  0
ENDTAB
  0
TABLE
  2
APPID
  5
9
330
0
100
AcDbSymbolTable
 70
     1
  0
APPID
  5
12
330
9
100
AcDbSymbolTableRecord
100
AcDbRegAppTableRecord
  2
ACAD
 70
     0
  0
ENDTAB
  0
TABLE
  2
DIMSTYLE
  5
A
330
0
100
AcDbSymbolTable
 70
     1
100
AcDbDimStyleTable
  0
DIMSTYLE
105
27
330
A
100
AcDbSymbolTableRecord
100
AcDbDimStyleTableRecord
  2
ISO-25
 70
     0
 41
2.5
 42
0.625
 43
3.75
 44
1.25
 73
     0
 74
     0
 77
     1
 78
     8
140
2.5
141
2.5
143
0.0393700787
147
0.625
171
     3
172
     1
178
     0
271
     2
272
     2
274
     3
278
    44
283
     0
284
     8
340
11
  0
ENDTAB
  0
TABLE
  2
BLOCK_RECORD
  5
1
330
0
100
AcDbSymbolTable
 70
     1
  0
BLOCK_RECORD
  5
1F
330
1
100
AcDbSymbolTableRecord
100
AcDbBlockTableRecord
  2
*Model_Space
340
22
  0
BLOCK_RECORD
  5
1B
330
1
100
AcDbSymbolTableRecord
100
AcDbBlockTableRecord
  2
*Paper_Space
340
1E
  0
BLOCK_RECORD
  5
23
330
1
100
AcDbSymbolTableRecord
100
AcDbBlockTableRecord
  2
*Paper_Space0
340
26
  0
ENDTAB
  0
ENDSEC
  0
SECTION
  2
BLOCKS
  0
BLOCK
  5
20
330
1F
100
AcDbEntity
  8
0
100
AcDbBlockBegin
  2
*Model_Space
 70
     0
 10
0.0
 20
0.0
 30
0.0
  3
*Model_Space
  1

  0
ENDBLK
  5
21
330
1F
100
AcDbEntity
  8
0
100
AcDbBlockEnd
  0
BLOCK
  5
1C
330
1B
100
AcDbEntity
 67
     1
  8
0
100
AcDbBlockBegin
  2
*Paper_Space
 70
     0
 10
0.0
 20
0.0
 30
0.0
  3
*Paper_Space
  1

  0
ENDBLK
  5
1D
330
1B
100
AcDbEntity
 67
     1
  8
0
100
AcDbBlockEnd
  0
BLOCK
  5
24
330
23
100
AcDbEntity
  8
0
100
AcDbBlockBegin
  2
*Paper_Space0
 70
     0
 10
0.0
 20
0.0
 30
0.0
  3
*Paper_Space0
  1

  0
ENDBLK
  5
25
330
23
100
AcDbEntity
  8
0
100
AcDbBlockEnd
  0
ENDSEC
  0
SECTION
  2
ENTITIES
  0
LINE
  5
65
330
1F
100
AcDbEntity
  8
0
  6
Continuous
 62
     7
100
AcDbLine
 10
1110.6979294361
 20
100.2522883411
 30
0.0
 11
1110.6979294361
 21
111.5765027052
 31
0.0
  0
LINE
  5
66
330
1F
100
AcDbEntity
  8
0
  6
Continuous
 62
     7
100
AcDbLine
 10
1149.6979294361
 20
111.5765027052
 30
0.0
 11
1110.6979294361
 21
111.5765027052
 31
0.0
  0
LINE
  5
67
330
1F
100
AcDbEntity
  8
0
  6
Continuous
 62
     7
100
AcDbLine
 10
1149.6979294361
 20
111.5765027052
 30
0.0
 11
1149.6979294361
 21
100.2522883411
 31
0.0
  0
LINE
  5
68
330
1F
100
AcDbEntity
  8
0
  6
Continuous
 62
     7
100
AcDbLine
 10
1110.6979294361
 20
100.2522883411
 30
0.0
 11
1149.6979294361
 21
100.2522883411
 31
0.0
  0
ARC
  5
69
330
1F
100
AcDbEntity
  8
0
  6
Continuous
 62
     7
100
AcDbCircle
 10
1149.6979294361
 20
100.2522883411
 30
0.0
 40
11.32421436405707
100
AcDbArc
 50
0.0
 51
90.0
  0
LINE
  5
6A
330
1F
100
AcDbEntity
  8
0
  6
Continuous
 62
     7
100
AcDbLine
 10
1161.0221438001
 20
100.2522883411
 30
0.0
 11
1149.6979294361
 21
100.2522883411
 31
0.0
  0
LINE
  5
6B
330
1F
100
AcDbEntity
  8
0
  6
Continuous
 62
     7
100
AcDbLine
 10
1110.6979294361
 20
120.2522883411
 30
0.0
 11
1149.6979294361
 21
120.2522883411
 31
0.0
  0
LINE
  5
6C
330
1F
100
AcDbEntity
  8
0
  6
Continuous
 62
     7
100
AcDbLine
 10
1110.6979294361
 20
120.2522883411
 30
0.0
 11
1110.6979294361
 21
131.5765027052
 31
0.0
  0
LINE
  5
6D
330
1F
100
AcDbEntity
  8
0
  6
Continuous
 62
     7
100
AcDbLine
 10
1149.6979294361
 20
131.5765027052
 30
0.0
 11
1110.6979294361
 21
131.5765027052
 31
0.0
  0
LINE
  5
6E
330
1F
100
AcDbEntity
  8
0
  6
Continuous
 62
     7
100
AcDbLine
 10
1149.6979294361
 20
131.5765027052
 30
0.0
 11
1149.6979294361
 21
120.2522883411
 31
0.0
  0
ARC
  5
6F
330
1F
100
AcDbEntity
  8
0
  6
Continuous
 62
     7
100
AcDbCircle
 10
1149.6979294361
 20
120.2522883411
 30
0.0
 40
11.32421436405708
100
AcDbArc
 50
0.0
 51
90.0
  0
LINE
  5
70
330
1F
100
AcDbEntity
  8
0
  6
Continuous
 62
     7
100
AcDbLine
 10
1161.0221438001
 20
120.2522883411
 30
0.0
 11
1149.6979294361
 21
120.2522883411
 31
0.0
  0
LINE
  5
71
330
1F
100
AcDbEntity
  8
0
  6
Continuous
 62
     7
100
AcDbLine
 10
1149.6979294361
 20
151.5765027052
 30
0.0
 11
1149.6979294361
 21
140.2522883411
 31
0.0
  0
ARC
  5
72
330
1F
100
AcDbEntity
  8
0
  6
Continuous
 62
     7
100
AcDbCircle
 10
1149.6979294361
 20
140.2522883411
 30
0.0
 40
11.32421436405713
100
AcDbArc
 50
0.0
 51
90.0
  0
LINE
  5
73
330
1F
100
AcDbEntity
  8
0
  6
Continuous
 62
     7
100
AcDbLine
 10
1161.0221438001
 20
140.2522883411
 30
0.0
 11
1149.6979294361
 21
140.2522883411
 31
0.0
  0
LINE
  5
74
330
1F
100
AcDbEntity
  8
0
  6
Continuous
 62
     7
100
AcDbLine
 10
1110.6979294361
 20
140.2522883411
 30
0.0
 11
1110.6979294361
 21
151.5765027052
 31
0.0
  0
LINE
  5
75
330
1F
100
AcDbEntity
  8
0
  6
Continuous
 62
     7
100
AcDbLine
 10
1149.6979294361
 20
151.5765027052
 30
0.0
 11
1110.6979294361
 21
151.5765027052
 31
0.0
  0
LINE
  5
76
330
1F
100
AcDbEntity
  8
0
  6
Continuous
 62
     7
100
AcDbLine
 10
1110.6979294361
 20
140.2522883411
 30
0.0
 11
1149.6979294361
 21
140.2522883411
 31
0.0
  0
ARC
  5
77
330
1F
100
AcDbEntity
  8
0
  6
Continuous
 62
     7
100
AcDbCircle
 10
1110.6979294361
 20
100.2522883411
 30
0.0
 40
11.32421436405753
100
AcDbArc
 50
90.0
 51
180.0
  0
LINE
  5
78
330
1F
100
AcDbEntity
  8
0
  6
Continuous
 62
     7
100
AcDbLine
 10
1110.6979294361
 20
100.2522883411
 30
0.0
 11
1099.373715072
 21
100.2522883411
 31
0.0
  0
LINE
  5
79
330
1F
100
AcDbEntity
  8
0
  6
Continuous
 62
     7
100
AcDbLine
 10
1110.6979294361
 20
160.2522883411
 30
0.0
 11
1149.6979294361
 21
160.2522883411
 31
0.0
  0
LINE
  5
7A
330
1F
100
AcDbEntity
  8
0
  6
Continuous
 62
     7
100
AcDbLine
 10
1110.6979294361
 20
160.2522883411
 30
0.0
 11
1110.6979294361
 21
171.5765027052
 31
0.0
  0
LINE
  5
7B
330
1F
100
AcDbEntity
  8
0
  6
Continuous
 62
     7
100
AcDbLine
 10
1149.6979294361
 20
171.5765027052
 30
0.0
 11
1110.6979294361
 21
171.5765027052
 31
0.0
  0
LINE
  5
7C
330
1F
100
AcDbEntity
  8
0
  6
Continuous
 62
     7
100
AcDbLine
 10
1149.6979294361
 20
171.5765027052
 30
0.0
 11
1149.6979294361
 21
160.2522883411
 31
0.0
  0
ARC
  5
7D
330
1F
100
AcDbEntity
  8
0
  6
Continuous
 62
     7
100
AcDbCircle
 10
1149.6979294361
 20
160.2522883411
 30
0.0
 40
11.3242143640571
100
AcDbArc
 50
0.0
 51
90.0
  0
LINE
  5
7E
330
1F
100
AcDbEntity
  8
0
  6
Continuous
 62
     7
100
AcDbLine
 10
1161.0221438001
 20
160.2522883411
 30
0.0
 11
1149.6979294361
 21
160.2522883411
 31
0.0
  0
ARC
  5
7F
330
1F
100
AcDbEntity
  8
0
  6
Continuous
 62
     7
100
AcDbCircle
 10
1110.6979294361
 20
120.2522883411
 30
0.0
 40
11.32421436405753
100
AcDbArc
 50
90.0
 51
180.0
  0
LINE
  5
80
330
1F
100
AcDbEntity
  8
0
  6
Continuous
 62
     7
100
AcDbLine
 10
1110.6979294361
 20
120.2522883411
 30
0.0
 11
1099.373715072
 21
120.2522883411
 31
0.0
  0
LINE
  5
81
330
1F
100
AcDbEntity
  8
0
  6
Continuous
 62
     7
100
AcDbLine
 10
1110.6979294361
 20
180.2522883411
 30
0.0
 11
1149.6979294361
 21
180.2522883411
 31
0.0
  0
LINE
  5
82
330
1F
100
AcDbEntity
  8
0
  6
Continuous
 62
     7
100
AcDbLine
 10
1110.6979294361
 20
180.2522883411
 30
0.0
 11
1110.6979294361
 21
191.5765027052
 31
0.0
  0
LINE
  5
83
330
1F
100
AcDbEntity
  8
0
  6
Continuous
 62
     7
100
AcDbLine
 10
1149.6979294361
 20
191.5765027052
 30
0.0
 11
1110.6979294361
 21
191.5765027052
 31
0.0
  0
LINE
  5
84
330
1F
100
AcDbEntity
  8
0
  6
Continuous
 62
     7
100
AcDbLine
 10
1149.6979294361
 20
191.5765027052
 30
0.0
 11
1149.6979294361
 21
180.2522883411
 31
0.0
  0
ARC
  5
85
330
1F
100
AcDbEntity
  8
0
  6
Continuous
 62
     7
100
AcDbCircle
 10
1149.6979294361
 20
180.2522883411
 30
0.0
 40
11.32421436405707
100
AcDbArc
 50
0.0
 51
90.0
  0
LINE
  5
86
330
1F
100
AcDbEntity
  8
0
  6
Continuous
 62
     7
100
AcDbLine
 10
1161.0221438001
 20
180.2522883411
 30
0.0
 11
1149.6979294361
 21
180.2522883411
 31
0.0
  0
ARC
  5
87
330
1F
100
AcDbEntity
  8
0
  6
Continuous
 62
     7
100
AcDbCircle
 10
1110.6979294361
 20
140.2522883411
 30
0.0
 40
11.32421436405753
100
AcDbArc
 50
90.0
 51
180.0
  0
LINE
  5
88
330
1F
100
AcDbEntity
  8
0
  6
Continuous
 62
     7
100
AcDbLine
 10
1110.6979294361
 20
140.2522883411
 30
0.0
 11
1099.373715072
 21
140.2522883411
 31
0.0
  0
LINE
  5
89
330
1F
100
AcDbEntity
  8
0
  6
Continuous
 62
     7
100
AcDbLine
 10
1069.6979294361
 20
111.5765027052
 30
0.0
 11
1069.6979294361
 21
100.2522883411
 31
0.0
  0
ARC
  5
8A
330
1F
100
AcDbEntity
  8
0
  6
Continuous
 62
     7
100
AcDbCircle
 10
1069.6979294361
 20
100.2522883411
 30
0.0
 40
11.32421436405707
100
AcDbArc
 50
0.0
 51
90.0
  0
LINE
  5
8B
330
1F
100
AcDbEntity
  8
0
  6
Continuous
 62
     7
100
AcDbLine
 10
1081.0221438001
 20
100.2522883411
 30
0.0
 11
1069.6979294361
 21
100.2522883411
 31
0.0
  0
LINE
  5
8C
330
1F
100
AcDbEntity
  8
0
  6
Continuous
 62
     7
100
AcDbLine
 10
1030.6979294361
 20
100.2522883411
 30
0.0
 11
1030.6979294361
 21
111.5765027052
 31
0.0
  0
LINE
  5
8D
330
1F
100
AcDbEntity
  8
0
  6
Continuous
 62
     7
100
AcDbLine
 10
1069.6979294361
 20
111.5765027052
 30
0.0
 11
1030.6979294361
 21
111.5765027052
 31
0.0
  0
LINE
  5
8E
330
1F
100
AcDbEntity
  8
0
  6
Continuous
 62
     7
100
AcDbLine
 10
1030.6979294361
 20
100.2522883411
 30
0.0
 11
1069.6979294361
 21
100.2522883411
 31
0.0
  0
ARC
  5
8F
330
1F
100
AcDbEntity
  8
0
  6
Continuous
 62
     7
100
AcDbCircle
 10
1110.6979294361
 20
160.2522883411
 30
0.0
 40
11.32421436405753
100
AcDbArc
 50
90.0
 51
180.0
  0
LINE
  5
90
330
1F
100
AcDbEntity
  8
0
  6
Continuous
 62
     7
100
AcDbLine
 10
1110.6979294361
 20
160.2522883411
 30
0.0
 11
1099.373715072
 21
160.2522883411
 31
0.0
  0
LINE
  5
91
330
1F
100
AcDbEntity
  8
0
  6
Continuous
 62
     7
100
AcDbLine
 10
1030.6979294361
 20
120.2522883411
 30
0.0
 11
1069.6979294361
 21
120.2522883411
 31
0.0
  0
LINE
  5
92
330
1F
100
AcDbEntity
  8
0
  6
Continuous
 62
     7
100
AcDbLine
 10
1030.6979294361
 20
120.2522883411
 30
0.0
 11
1030.6979294361
 21
131.5765027052
 31
0.0
  0
LINE
  5
93
330
1F
100
AcDbEntity
  8
0
  6
Continuous
 62
     7
100
AcDbLine
 10
1069.6979294361
 20
131.5765027052
 30
0.0
 11
1030.6979294361
 21
131.5765027052
 31
0.0
  0
LINE
  5
94
330
1F
100
AcDbEntity
  8
0
  6
Continuous
 62
     7
100
AcDbLine
 10
1069.6979294361
 20
131.5765027052
 30
0.0
 11
1069.6979294361
 21
120.2522883411
 31
0.0
  0
ARC
  5
95
330
1F
100
AcDbEntity
  8
0
  6
Continuous
 62
     7
100
AcDbCircle
 10
1069.6979294361
 20
120.2522883411
 30
0.0
 40
11.32421436405707
100
AcDbArc
 50
0.0
 51
90.0
  0
LINE
  5
96
330
1F
100
AcDbEntity
  8
0
  6
Continuous
 62
     7
100
AcDbLine
 10
1081.0221438001
 20
120.2522883411
 30
0.0
 11
1069.6979294361
 21
120.2522883411
 31
0.0
  0
ARC
  5
97
330
1F
100
AcDbEntity
  8
0
  6
Continuous
 62
     7
100
AcDbCircle
 10
1110.6979294361
 20
180.2522883411
 30
0.0
 40
11.32421436405753
100
AcDbArc
 50
90.0
 51
180.0
  0
LINE
  5
98
330
1F
100
AcDbEntity
  8
0
  6
Continuous
 62
     7
100
AcDbLine
 10
1110.6979294361
 20
180.2522883411
 30
0.0
 11
1099.373715072
 21
180.2522883411
 31
0.0
  0
LINE
  5
99
330
1F
100
AcDbEntity
  8
0
  6
Continuous
 62
     7
100
AcDbLine
 10
1030.6979294361
 20
140.2522883411
 30
0.0
 11
1069.6979294361
 21
140.2522883411
 31
0.0
  0
LINE
  5
9A
330
1F
100
AcDbEntity
  8
0
  6
Continuous
 62
     7
100
AcDbLine
 10
1030.6979294361
 20
140.2522883411
 30
0.0
 11
1030.6979294361
 21
151.5765027052
 31
0.0
  0
LINE
  5
9B
330
1F
100
AcDbEntity
  8
0
  6
Continuous
 62
     7
100
AcDbLine
 10
1069.6979294361
 20
151.5765027052
 30
0.0
 11
1030.6979294361
 21
151.5765027052
 31
0.0
  0
LINE
  5
9C
330
1F
100
AcDbEntity
  8
0
  6
Continuous
 62
     7
100
AcDbLine
 10
1069.6979294361
 20
151.5765027052
 30
0.0
 11
1069.6979294361
 21
140.2522883411
 31
0.0
  0
ARC
  5
9D
330
1F
100
AcDbEntity
  8
0
  6
Continuous
 62
     7
100
AcDbCircle
 10
1069.6979294361
 20
140.2522883411
 30
0.0
 40
11.32421436405707
100
AcDbArc
 50
0.0
 51
90.0
  0
LINE
  5
9E
330
1F
100
AcDbEntity
  8
0
  6
Continuous
 62
     7
100
AcDbLine
 10
1081.0221438001
 20
140.2522883411
 30
0.0
 11
1069.6979294361
 21
140.2522883411
 31
0.0
  0
ARC
  5
9F
330
1F
100
AcDbEntity
  8
0
  6
Continuous
 62
     7
100
AcDbCircle
 10
1030.6979294361
 20
100.2522883411
 30
0.0
 40
11.32421436405741
100
AcDbArc
 50
90.0
 51
180.0
  0
LINE
  5
A0
330
1F
100
AcDbEntity
  8
0
  6
Continuous
 62
     7
100
AcDbLine
 10
1030.6979294361
 20
100.2522883411
 30
0.0
 11
1019.373715072
 21
100.2522883411
 31
0.0
  0
LINE
  5
A1
330
1F
100
AcDbEntity
  8
0
  6
Continuous
 62
     7
100
AcDbLine
 10
1069.6979294361
 20
171.5765027052
 30
0.0
 11
1069.6979294361
 21
160.2522883411
 31
0.0
  0
ARC
  5
A2
330
1F
100
AcDbEntity
  8
0
  6
Continuous
 62
     7
100
AcDbCircle
 10
1069.6979294361
 20
160.2522883411
 30
0.0
 40
11.32421436405707
100
AcDbArc
 50
0.0
 51
90.0
  0
LINE
  5
A3
330
1F
100
AcDbEntity
  8
0
  6
Continuous
 62
     7
100
AcDbLine
 10
1081.0221438001
 20
160.2522883411
 30
0.0
 11
1069.6979294361
 21
160.2522883411
 31
0.0
  0
LINE
  5
A4
330
1F
100
AcDbEntity
  8
0
  6
Continuous
 62
     7
100
AcDbLine
 10
1030.6979294361
 20
160.2522883411
 30
0.0
 11
1069.6979294361
 21
160.2522883411
 31
0.0
  0
LINE
  5
A5
330
1F
100
AcDbEntity
  8
0
  6
Continuous
 62
     7
100
AcDbLine
 10
1030.6979294361
 20
160.2522883411
 30
0.0
 11
1030.6979294361
 21
171.5765027052
 31
0.0
  0
LINE
  5
A6
330
1F
100
AcDbEntity
  8
0
  6
Continuous
 62
     7
100
AcDbLine
 10
1069.6979294361
 20
171.5765027052
 30
0.0
 11
1030.6979294361
 21
171.5765027052
 31
0.0
  0
ARC
  5
A7
330
1F
100
AcDbEntity
  8
0
  6
Continuous
 62
     7
100
AcDbCircle
 10
1030.6979294361
 20
120.2522883411
 30
0.0
 40
11.32421436405741
100
AcDbArc
 50
90.0
 51
180.0
  0
LINE
  5
A8
330
1F
100
AcDbEntity
  8
0
  6
Continuous
 62
     7
100
AcDbLine
 10
1030.6979294361
 20
120.2522883411
 30
0.0
 11
1019.373715072
 21
120.2522883411
 31
0.0
  0
LINE
  5
A9
330
1F
100
AcDbEntity
  8
0
  6
Continuous
 62
     7
100
AcDbLine
 10
1030.6979294361
 20
180.2522883411
 30
0.0
 11
1069.6979294361
 21
180.2522883411
 31
0.0
  0
LINE
  5
AA
330
1F
100
AcDbEntity
  8
0
  6
Continuous
 62
     7
100
AcDbLine
 10
1030.6979294361
 20
180.2522883411
 30
0.0
 11
1030.6979294361
 21
191.5765027052
 31
0.0
  0
LINE
  5
AB
330
1F
100
AcDbEntity
  8
0
  6
Continuous
 62
     7
100
AcDbLine
 10
1069.6979294361
 20
191.5765027052
 30
0.0
 11
1030.6979294361
 21
191.5765027052
 31
0.0
  0
LINE
  5
AC
330
1F
100
AcDbEntity
  8
0
  6
Continuous
 62
     7
100
AcDbLine
 10
1069.6979294361
 20
191.5765027052
 30
0.0
 11
1069.6979294361
 21
180.2522883411
 31
0.0
  0
ARC
  5
AD
330
1F
100
AcDbEntity
  8
0
  6
Continuous
 62
     7
100
AcDbCircle
 10
1069.6979294361
 20
180.2522883411
 30
0.0
 40
11.32421436405707
100
AcDbArc
 50
0.0
 51
90.0
  0
LINE
  5
AE
330
1F
100
AcDbEntity
  8
0
  6
Continuous
 62
     7
100
AcDbLine
 10
1081.0221438001
 20
180.2522883411
 30
0.0
 11
1069.6979294361
 21
180.2522883411
 31
0.0
  0
ARC
  5
AF
330
1F
100
AcDbEntity
  8
0
  6
Continuous
 62
     7
100
AcDbCircle
 10
1030.6979294361
 20
140.2522883411
 30
0.0
 40
11.32421436405741
100
AcDbArc
 50
90.0
 51
180.0
  0
LINE
  5
B0
330
1F
100
AcDbEntity
  8
0
  6
Continuous
 62
     7
100
AcDbLine
 10
1030.6979294361
 20
140.2522883411
 30
0.0
 11
1019.373715072
 21
140.2522883411
 31
0.0
  0
LINE
  5
B1
330
1F
100
AcDbEntity
  8
0
  6
Continuous
 62
     7
100
AcDbLine
 10
950.6979294361
 20
100.2522883411
 30
0.0
 11
989.6979294361
 21
100.2522883411
 31
0.0
  0
LINE
  5
B2
330
1F
100
AcDbEntity
  8
0
  6
Continuous
 62
     7
100
AcDbLine
 10
950.6979294361
 20
100.2522883411
 30
0.0
 11
950.6979294361
 21
111.5765027052
 31
0.0
  0
LINE
  5
B3
330
1F
100
AcDbEntity
  8
0
  6
Continuous
 62
     7
100
AcDbLine
 10
989.6979294361
 20
111.5765027052
 30
0.0
 11
950.6979294361
 21
111.5765027052
 31
0.0
  0
LINE
  5
B4
330
1F
100
AcDbEntity
  8
0
  6
Continuous
 62
     7
100
AcDbLine
 10
989.6979294361
 20
111.5765027052
 30
0.0
 11
989.6979294361
 21
100.2522883411
 31
0.0
  0
ARC
  5
B5
330
1F
100
AcDbEntity
  8
0
  6
Continuous
 62
     7
100
AcDbCircle
 10
989.6979294361
 20
100.2522883411
 30
0.0
 40
11.32421436405701
100
AcDbArc
 50
0.0
 51
90.0
  0
LINE
  5
B6
330
1F
100
AcDbEntity
  8
0
  6
Continuous
 62
     7
100
AcDbLine
 10
1001.0221438001
 20
100.2522883411
 30
0.0
 11
989.6979294361
 21
100.2522883411
 31
0.0
  0
ARC
  5
B7
330
1F
100
AcDbEntity
  8
0
  6
Continuous
 62
     7
100
AcDbCircle
 10
1030.6979294361
 20
160.2522883411
 30
0.0
 40
11.32421436405741
100
AcDbArc
 50
90.0
 51
180.0
  0
LINE
  5
B8
330
1F
100
AcDbEntity
  8
0
  6
Continuous
 62
     7
100
AcDbLine
 10
1030.6979294361
 20
160.2522883411
 30
0.0
 11
1019.373715072
 21
160.2522883411
 31
0.0
  0
LINE
  5
B9
330
1F
100
AcDbEntity
  8
0
  6
Continuous
 62
     7
100
AcDbLine
 10
989.6979294361
 20
131.5765027052
 30
0.0
 11
989.6979294361
 21
120.2522883411
 31
0.0
  0
ARC
  5
BA
330
1F
100
AcDbEntity
  8
0
  6
Continuous
 62
     7
100
AcDbCircle
 10
989.6979294361
 20
120.2522883411
 30
0.0
 40
11.324214364057
100
AcDbArc
 50
0.0
 51
90.0
  0
LINE
  5
BB
330
1F
100
AcDbEntity
  8
0
  6
Continuous
 62
     7
100
AcDbLine
 10
1001.0221438001
 20
120.2522883411
 30
0.0
 11
989.6979294361
 21
120.2522883411
 31
0.0
  0
LINE
  5
BC
330
1F
100
AcDbEntity
  8
0
  6
Continuous
 62
     7
100
AcDbLine
 10
950.6979294361
 20
120.2522883411
 30
0.0
 11
950.6979294361
 21
131.5765027052
 31
0.0
  0
LINE
  5
BD
330
1F
100
AcDbEntity
  8
0
  6
Continuous
 62
     7
100
AcDbLine
 10
989.6979294361
 20
131.5765027052
 30
0.0
 11
950.6979294361
 21
131.5765027052
 31
0.0
  0
LINE
  5
BE
330
1F
100
AcDbEntity
  8
0
  6
Continuous
 62
     7
100
AcDbLine
 10
950.6979294361
 20
120.2522883411
 30
0.0
 11
989.6979294361
 21
120.2522883411
 31
0.0
  0
ARC
  5
BF
330
1F
100
AcDbEntity
  8
0
  6
Continuous
 62
     7
100
AcDbCircle
 10
1030.6979294361
 20
180.2522883411
 30
0.0
 40
11.32421436405741
100
AcDbArc
 50
90.0
 51
180.0
  0
LINE
  5
C0
330
1F
100
AcDbEntity
  8
0
  6
Continuous
 62
     7
100
AcDbLine
 10
1030.6979294361
 20
180.2522883411
 30
0.0
 11
1019.373715072
 21
180.2522883411
 31
0.0
  0
LINE
  5
C1
330
1F
100
AcDbEntity
  8
0
  6
Continuous
 62
     7
100
AcDbLine
 10
950.6979294361
 20
140.2522883411
 30
0.0
 11
989.6979294361
 21
140.2522883411
 31
0.0
  0
LINE
  5
C2
330
1F
100
AcDbEntity
  8
0
  6
Continuous
 62
     7
100
AcDbLine
 10
950.6979294361
 20
140.2522883411
 30
0.0
 11
950.6979294361
 21
151.5765027052
 31
0.0
  0
LINE
  5
C3
330
1F
100
AcDbEntity
  8
0
  6
Continuous
 62
     7
100
AcDbLine
 10
989.6979294361
 20
151.5765027052
 30
0.0
 11
950.6979294361
 21
151.5765027052
 31
0.0
  0
LINE
  5
C4
330
1F
100
AcDbEntity
  8
0
  6
Continuous
 62
     7
100
AcDbLine
 10
989.6979294361
 20
151.5765027052
 30
0.0
 11
989.6979294361
 21
140.2522883411
 31
0.0
  0
ARC
  5
C5
330
1F
100
AcDbEntity
  8
0
  6
Continuous
 62
     7
100
AcDbCircle
 10
989.6979294361
 20
140.2522883411
 30
0.0
 40
11.32421436405701
100
AcDbArc
 50
0.0
 51
90.0
  0
LINE
  5
C6
330
1F
100
AcDbEntity
  8
0
  6
Continuous
 62
     7
100
AcDbLine
 10
1001.0221438001
 20
140.2522883411
 30
0.0
 11
989.6979294361
 21
140.2522883411
 31
0.0
  0
ARC
  5
C7
330
1F
100
AcDbEntity
  8
0
  6
Continuous
 62
     7
100
AcDbCircle
 10
950.6979294361
 20
100.2522883411
 30
0.0
 40
11.32421436405753
100
AcDbArc
 50
90.0
 51
180.0
  0
LINE
  5
C8
330
1F
100
AcDbEntity
  8
0
  6
Continuous
 62
     7
100
AcDbLine
 10
950.6979294361
 20
100.2522883411
 30
0.0
 11
939.373715072
 21
100.2522883411
 31
0.0
  0
LINE
  5
C9
330
1F
100
AcDbEntity
  8
0
  6
Continuous
 62
     7
100
AcDbLine
 10
950.6979294361
 20
160.2522883411
 30
0.0
 11
989.6979294361
 21
160.2522883411
 31
0.0
  0
LINE
  5
CA
330
1F
100
AcDbEntity
  8
0
  6
Continuous
 62
     7
100
AcDbLine
 10
950.6979294361
 20
160.2522883411
 30
0.0
 11
950.6979294361
 21
171.5765027052
 31
0.0
  0
LINE
  5
CB
330
1F
100
AcDbEntity
  8
0
  6
Continuous
 62
     7
100
AcDbLine
 10
989.6979294361
 20
171.5765027052
 30
0.0
 11
950.6979294361
 21
171.5765027052
 31
0.0
  0
LINE
  5
CC
330
1F
100
AcDbEntity
  8
0
  6
Continuous
 62
     7
100
AcDbLine
 10
989.6979294361
 20
171.5765027052
 30
0.0
 11
989.6979294361
 21
160.2522883411
 31
0.0
  0
ARC
  5
CD
330
1F
100
AcDbEntity
  8
0
  6
Continuous
 62
     7
100
AcDbCircle
 10
989.6979294361
 20
160.2522883411
 30
0.0
 40
11.32421436405701
100
AcDbArc
 50
0.0
 51
90.0
  0
LINE
  5
CE
330
1F
100
AcDbEntity
  8
0
  6
Continuous
 62
     7
100
AcDbLine
 10
1001.0221438001
 20
160.2522883411
 30
0.0
 11
989.6979294361
 21
160.2522883411
 31
0.0
  0
ARC
  5
CF
330
1F
100
AcDbEntity
  8
0
  6
Continuous
 62
     7
100
AcDbCircle
 10
950.6979294361
 20
120.2522883411
 30
0.0
 40
11.32421436405753
100
AcDbArc
 50
90.0
 51
180.0
  0
LINE
  5
D0
330
1F
100
AcDbEntity
  8
0
  6
Continuous
 62
     7
100
AcDbLine
 10
950.6979294361
 20
120.2522883411
 30
0.0
 11
939.373715072
 21
120.2522883411
 31
0.0
  0
LINE
  5
D1
330
1F
100
AcDbEntity
  8
0
  6
Continuous
 62
     7
100
AcDbLine
 10
950.6979294361
 20
180.2522883411
 30
0.0
 11
989.6979294361
 21
180.2522883411
 31
0.0
  0
LINE
  5
D2
330
1F
100
AcDbEntity
  8
0
  6
Continuous
 62
     7
100
AcDbLine
 10
950.6979294361
 20
180.2522883411
 30
0.0
 11
950.6979294361
 21
191.5765027052
 31
0.0
  0
LINE
  5
D3
330
1F
100
AcDbEntity
  8
0
  6
Continuous
 62
     7
100
AcDbLine
 10
989.6979294361
 20
191.5765027052
 30
0.0
 11
950.6979294361
 21
191.5765027052
 31
0.0
  0
LINE
  5
D4
330
1F
100
AcDbEntity
  8
0
  6
Continuous
 62
     7
100
AcDbLine
 10
989.6979294361
 20
191.5765027052
 30
0.0
 11
989.6979294361
 21
180.2522883411
 31
0.0
  0
ARC
  5
D5
330
1F
100
AcDbEntity
  8
0
  6
Continuous
 62
     7
100
AcDbCircle
 10
989.6979294361
 20
180.2522883411
 30
0.0
 40
11.32421436405699
100
AcDbArc
 50
0.0
 51
90.0
  0
LINE
  5
D6
330
1F
100
AcDbEntity
  8
0
  6
Continuous
 62
     7
100
AcDbLine
 10
1001.0221438001
 20
180.2522883411
 30
0.0
 11
989.6979294361
 21
180.2522883411
 31
0.0
  0
ARC
  5
D7
330
1F
100
AcDbEntity
  8
0
  6
Continuous
 62
     7
100
AcDbCircle
 10
950.6979294361
 20
140.2522883411
 30
0.0
 40
11.32421436405753
100
AcDbArc
 50
90.0
 51
180.0
  0
LINE
  5
D8
330
1F
100
AcDbEntity
  8
0
  6
Continuous
 62
     7
100
AcDbLine
 10
950.6979294361
 20
140.2522883411
 30
0.0
 11
939.373715072
 21
140.2522883411
 31
0.0
  0
LINE
  5
D9
330
1F
100
AcDbEntity
  8
0
  6
Continuous
 62
     7
100
AcDbLine
 10
909.6979294361
 20
111.5765027052
 30
0.0
 11
909.6979294361
 21
100.2522883411
 31
0.0
  0
ARC
  5
DA
330
1F
100
AcDbEntity
  8
0
  6
Continuous
 62
     7
100
AcDbCircle
 10
909.6979294361
 20
100.2522883411
 30
0.0
 40
11.32421436405701
100
AcDbArc
 50
0.0
 51
90.0
  0
LINE
  5
DB
330
1F
100
AcDbEntity
  8
0
  6
Continuous
 62
     7
100
AcDbLine
 10
921.0221438001
 20
100.2522883411
 30
0.0
 11
909.6979294361
 21
100.2522883411
 31
0.0
  0
LINE
  5
DC
330
1F
100
AcDbEntity
  8
0
  6
Continuous
 62
     7
100
AcDbLine
 10
870.6979294361
 20
100.2522883411
 30
0.0
 11
870.6979294361
 21
111.5765027052
 31
0.0
  0
LINE
  5
DD
330
1F
100
AcDbEntity
  8
0
  6
Continuous
 62
     7
100
AcDbLine
 10
909.6979294361
 20
111.5765027052
 30
0.0
 11
870.6979294361
 21
111.5765027052
 31
0.0
  0
LINE
  5
DE
330
1F
100
AcDbEntity
  8
0
  6
Continuous
 62
     7
100
AcDbLine
 10
870.6979294361
 20
100.2522883411
 30
0.0
 11
909.6979294361
 21
100.2522883411
 31
0.0
  0
ARC
  5
DF
330
1F
100
AcDbEntity
  8
0
  6
Continuous
 62
     7
100
AcDbCircle
 10
950.6979294361
 20
160.2522883411
 30
0.0
 40
11.32421436405753
100
AcDbArc
 50
90.0
 51
180.0
  0
LINE
  5
E0
330
1F
100
AcDbEntity
  8
0
  6
Continuous
 62
     7
100
AcDbLine
 10
950.6979294361
 20
160.2522883411
 30
0.0
 11
939.373715072
 21
160.2522883411
 31
0.0
  0
LINE
  5
E1
330
1F
100
AcDbEntity
  8
0
  6
Continuous
 62
     7
100
AcDbLine
 10
870.6979294361
 20
120.2522883411
 30
0.0
 11
870.6979294361
 21
131.5765027052
 31
0.0
  0
LINE
  5
E2
330
1F
100
AcDbEntity
  8
0
  6
Continuous
 62
     7
100
AcDbLine
 10
909.6979294361
 20
131.5765027052
 30
0.0
 11
870.6979294361
 21
131.5765027052
 31
0.0
  0
LINE
  5
E3
330
1F
100
AcDbEntity
  8
0
  6
Continuous
 62
     7
100
AcDbLine
 10
909.6979294361
 20
131.5765027052
 30
0.0
 11
909.6979294361
 21
120.2522883411
 31
0.0
  0
LINE
  5
E4
330
1F
100
AcDbEntity
  8
0
  6
Continuous
 62
     7
100
AcDbLine
 10
870.6979294361
 20
120.2522883411
 30
0.0
 11
909.6979294361
 21
120.2522883411
 31
0.0
  0
ARC
  5
E5
330
1F
100
AcDbEntity
  8
0
  6
Continuous
 62
     7
100
AcDbCircle
 10
909.6979294361
 20
120.2522883411
 30
0.0
 40
11.324214364057
100
AcDbArc
 50
0.0
 51
90.0
  0
LINE
  5
E6
330
1F
100
AcDbEntity
  8
0
  6
Continuous
 62
     7
100
AcDbLine
 10
921.0221438001
 20
120.2522883411
 30
0.0
 11
909.6979294361
 21
120.2522883411
 31
0.0
  0
ARC
  5
E7
330
1F
100
AcDbEntity
  8
0
  6
Continuous
 62
     7
100
AcDbCircle
 10
950.6979294361
 20
180.2522883411
 30
0.0
 40
11.32421436405753
100
AcDbArc
 50
90.0
 51
180.0
  0
LINE
  5
E8
330
1F
100
AcDbEntity
  8
0
  6
Continuous
 62
     7
100
AcDbLine
 10
950.6979294361
 20
180.2522883411
 30
0.0
 11
939.373715072
 21
180.2522883411
 31
0.0
  0
LINE
  5
E9
330
1F
100
AcDbEntity
  8
0
  6
Continuous
 62
     7
100
AcDbLine
 10
909.6979294361
 20
151.5765027052
 30
0.0
 11
909.6979294361
 21
140.2522883411
 31
0.0
  0
ARC
  5
EA
330
1F
100
AcDbEntity
  8
0
  6
Continuous
 62
     7
100
AcDbCircle
 10
909.6979294361
 20
140.2522883411
 30
0.0
 40
11.32421436405701
100
AcDbArc
 50
0.0
 51
90.0
  0
LINE
  5
EB
330
1F
100
AcDbEntity
  8
0
  6
Continuous
 62
     7
100
AcDbLine
 10
921.0221438001
 20
140.2522883411
 30
0.0
 11
909.6979294361
 21
140.2522883411
 31
0.0
  0
LINE
  5
EC
330
1F
100
AcDbEntity
  8
0
  6
Continuous
 62
     7
100
AcDbLine
 10
870.6979294361
 20
140.2522883411
 30
0.0
 11
870.6979294361
 21
151.5765027052
 31
0.0
  0
LINE
  5
ED
330
1F
100
AcDbEntity
  8
0
  6
Continuous
 62
     7
100
AcDbLine
 10
909.6979294361
 20
151.5765027052
 30
0.0
 11
870.6979294361
 21
151.5765027052
 31
0.0
  0
LINE
  5
EE
330
1F
100
AcDbEntity
  8
0
  6
Continuous
 62
     7
100
AcDbLine
 10
870.6979294361
 20
140.2522883411
 30
0.0
 11
909.6979294361
 21
140.2522883411
 31
0.0
  0
ARC
  5
EF
330
1F
100
AcDbEntity
  8
0
  6
Continuous
 62
     7
100
AcDbCircle
 10
870.6979294361
 20
100.2522883411
 30
0.0
 40
11.32421436405753
100
AcDbArc
 50
90.0
 51
180.0
  0
LINE
  5
F0
330
1F
100
AcDbEntity
  8
0
  6
Continuous
 62
     7
100
AcDbLine
 10
870.6979294361
 20
100.2522883411
 30
0.0
 11
859.373715072
 21
100.2522883411
 31
0.0
  0
LINE
  5
F1
330
1F
100
AcDbEntity
  8
0
  6
Continuous
 62
     7
100
AcDbLine
 10
870.6979294361
 20
160.2522883411
 30
0.0
 11
909.6979294361
 21
160.2522883411
 31
0.0
  0
LINE
  5
F2
330
1F
100
AcDbEntity
  8
0
  6
Continuous
 62
     7
100
AcDbLine
 10
870.6979294361
 20
160.2522883411
 30
0.0
 11
870.6979294361
 21
171.5765027052
 31
0.0
  0
LINE
  5
F3
330
1F
100
AcDbEntity
  8
0
  6
Continuous
 62
     7
100
AcDbLine
 10
909.6979294361
 20
171.5765027052
 30
0.0
 11
870.6979294361
 21
171.5765027052
 31
0.0
  0
LINE
  5
F4
330
1F
100
AcDbEntity
  8
0
  6
Continuous
 62
     7
100
AcDbLine
 10
909.6979294361
 20
171.5765027052
 30
0.0
 11
909.6979294361
 21
160.2522883411
 31
0.0
  0
ARC
  5
F5
330
1F
100
AcDbEntity
  8
0
  6
Continuous
 62
     7
100
AcDbCircle
 10
909.6979294361
 20
160.2522883411
 30
0.0
 40
11.32421436405701
100
AcDbArc
 50
0.0
 51
90.0
  0
LINE
  5
F6
330
1F
100
AcDbEntity
  8
0
  6
Continuous
 62
     7
100
AcDbLine
 10
921.0221438001
 20
160.2522883411
 30
0.0
 11
909.6979294361
 21
160.2522883411
 31
0.0
  0
ARC
  5
F7
330
1F
100
AcDbEntity
  8
0
  6
Continuous
 62
     7
100
AcDbCircle
 10
870.6979294361
 20
120.2522883411
 30
0.0
 40
11.32421436405753
100
AcDbArc
 50
90.0
 51
180.0
  0
LINE
  5
F8
330
1F
100
AcDbEntity
  8
0
  6
Continuous
 62
     7
100
AcDbLine
 10
870.6979294361
 20
120.2522883411
 30
0.0
 11
859.373715072
 21
120.2522883411
 31
0.0
  0
LINE
  5
F9
330
1F
100
AcDbEntity
  8
0
  6
Continuous
 62
     7
100
AcDbLine
 10
909.6979294361
 20
191.5765027052
 30
0.0
 11
909.6979294361
 21
180.2522883411
 31
0.0
  0
ARC
  5
FA
330
1F
100
AcDbEntity
  8
0
  6
Continuous
 62
     7
100
AcDbCircle
 10
909.6979294361
 20
180.2522883411
 30
0.0
 40
11.32421436405696
100
AcDbArc
 50
0.0
 51
90.0
  0
LINE
  5
FB
330
1F
100
AcDbEntity
  8
0
  6
Continuous
 62
     7
100
AcDbLine
 10
921.0221438001
 20
180.2522883411
 30
0.0
 11
909.6979294361
 21
180.2522883411
 31
0.0
  0
LINE
  5
FC
330
1F
100
AcDbEntity
  8
0
  6
Continuous
 62
     7
100
AcDbLine
 10
870.6979294361
 20
180.2522883411
 30
0.0
 11
870.6979294361
 21
191.5765027052
 31
0.0
  0
LINE
  5
FD
330
1F
100
AcDbEntity
  8
0
  6
Continuous
 62
     7
100
AcDbLine
 10
909.6979294361
 20
191.5765027052
 30
0.0
 11
870.6979294361
 21
191.5765027052
 31
0.0
  0
LINE
  5
FE
330
1F
100
AcDbEntity
  8
0
  6
Continuous
 62
     7
100
AcDbLine
 10
870.6979294361
 20
180.2522883411
 30
0.0
 11
909.6979294361
 21
180.2522883411
 31
0.0
  0
ARC
  5
FF
330
1F
100
AcDbEntity
  8
0
  6
Continuous
 62
     7
100
AcDbCircle
 10
870.6979294361
 20
140.2522883411
 30
0.0
 40
11.32421436405753
100
AcDbArc
 50
90.0
 51
180.0
  0
LINE
  5
100
330
1F
100
AcDbEntity
  8
0
  6
Continuous
 62
     7
100
AcDbLine
 10
870.6979294361
 20
140.2522883411
 30
0.0
 11
859.373715072
 21
140.2522883411
 31
0.0
  0
LINE
  5
101
330
1F
100
AcDbEntity
  8
0
  6
Continuous
 62
     7
100
AcDbLine
 10
829.6979294361
 20
111.5765027052
 30
0.0
 11
829.6979294361
 21
100.2522883411
 31
0.0
  0
ARC
  5
102
330
1F
100
AcDbEntity
  8
0
  6
Continuous
 62
     7
100
AcDbCircle
 10
829.6979294361
 20
100.2522883411
 30
0.0
 40
11.32421436405707
100
AcDbArc
 50
0.0
 51
90.0
  0
LINE
  5
103
330
1F
100
AcDbEntity
  8
0
  6
Continuous
 62
     7
100
AcDbLine
 10
841.0221438001
 20
100.2522883411
 30
0.0
 11
829.6979294361
 21
100.2522883411
 31
0.0
  0
LINE
  5
104
330
1F
100
AcDbEntity
  8
0
  6
Continuous
 62
     7
100
AcDbLine
 10
790.6979294361
 20
100.2522883411
 30
0.0
 11
790.6979294361
 21
111.5765027052
 31
0.0
  0
LINE
  5
105
330
1F
100
AcDbEntity
  8
0
  6
Continuous
 62
     7
100
AcDbLine
 10
829.6979294361
 20
111.5765027052
 30
0.0
 11
790.6979294361
 21
111.5765027052
 31
0.0
  0
LINE
  5
106
330
1F
100
AcDbEntity
  8
0
  6
Continuous
 62
     7
100
AcDbLine
 10
790.6979294361
 20
100.2522883411
 30
0.0
 11
829.6979294361
 21
100.2522883411
 31
0.0
  0
ARC
  5
107
330
1F
100
AcDbEntity
  8
0
  6
Continuous
 62
     7
100
AcDbCircle
 10
870.6979294361
 20
160.2522883411
 30
0.0
 40
11.32421436405753
100
AcDbArc
 50
90.0
 51
180.0
  0
LINE
  5
108
330
1F
100
AcDbEntity
  8
0
  6
Continuous
 62
     7
100
AcDbLine
 10
870.6979294361
 20
160.2522883411
 30
0.0
 11
859.373715072
 21
160.2522883411
 31
0.0
  0
LINE
  5
109
330
1F
100
AcDbEntity
  8
0
  6
Continuous
 62
     7
100
AcDbLine
 10
829.6979294361
 20
131.5765027052
 30
0.0
 11
829.6979294361
 21
120.2522883411
 31
0.0
  0
ARC
  5
10A
330
1F
100
AcDbEntity
  8
0
  6
Continuous
 62
     7
100
AcDbCircle
 10
829.6979294361
 20
120.2522883411
 30
0.0
 40
11.32421436405707
100
AcDbArc
 50
0.0
 51
90.0
  0
LINE
  5
10B
330
1F
100
AcDbEntity
  8
0
  6
Continuous
 62
     7
100
AcDbLine
 10
841.0221438001
 20
120.2522883411
 30
0.0
 11
829.6979294361
 21
120.2522883411
 31
0.0
  0
LINE
  5
10C
330
1F
100
AcDbEntity
  8
0
  6
Continuous
 62
     7
100
AcDbLine
 10
790.6979294361
 20
120.2522883411
 30
0.0
 11
790.6979294361
 21
131.5765027052
 31
0.0
  0
LINE
  5
10D
330
1F
100
AcDbEntity
  8
0
  6
Continuous
 62
     7
100
AcDbLine
 10
829.6979294361
 20
131.5765027052
 30
0.0
 11
790.6979294361
 21
131.5765027052
 31
0.0
  0
LINE
  5
10E
330
1F
100
AcDbEntity
  8
0
  6
Continuous
 62
     7
100
AcDbLine
 10
790.6979294361
 20
120.2522883411
 30
0.0
 11
829.6979294361
 21
120.2522883411
 31
0.0
  0
ARC
  5
10F
330
1F
100
AcDbEntity
  8
0
  6
Continuous
 62
     7
100
AcDbCircle
 10
870.6979294361
 20
180.2522883411
 30
0.0
 40
11.32421436405753
100
AcDbArc
 50
90.0
 51
180.0
  0
LINE
  5
110
330
1F
100
AcDbEntity
  8
0
  6
Continuous
 62
     7
100
AcDbLine
 10
870.6979294361
 20
180.2522883411
 30
0.0
 11
859.373715072
 21
180.2522883411
 31
0.0
  0
LINE
  5
111
330
1F
100
AcDbEntity
  8
0
  6
Continuous
 62
     7
100
AcDbLine
 10
829.6979294361
 20
151.5765027052
 30
0.0
 11
829.6979294361
 21
140.2522883411
 31
0.0
  0
ARC
  5
112
330
1F
100
AcDbEntity
  8
0
  6
Continuous
 62
     7
100
AcDbCircle
 10
829.6979294361
 20
140.2522883411
 30
0.0
 40
11.32421436405707
100
AcDbArc
 50
0.0
 51
90.0
  0
LINE
  5
113
330
1F
100
AcDbEntity
  8
0
  6
Continuous
 62
     7
100
AcDbLine
 10
841.0221438001
 20
140.2522883411
 30
0.0
 11
829.6979294361
 21
140.2522883411
 31
0.0
  0
LINE
  5
114
330
1F
100
AcDbEntity
  8
0
  6
Continuous
 62
     7
100
AcDbLine
 10
790.6979294361
 20
140.2522883411
 30
0.0
 11
790.6979294361
 21
151.5765027052
 31
0.0
  0
LINE
  5
115
330
1F
100
AcDbEntity
  8
0
  6
Continuous
 62
     7
100
AcDbLine
 10
829.6979294361
 20
151.5765027052
 30
0.0
 11
790.6979294361
 21
151.5765027052
 31
0.0
  0
LINE
  5
116
330
1F
100
AcDbEntity
  8
0
  6
Continuous
 62
     7
100
AcDbLine
 10
790.6979294361
 20
140.2522883411
 30
0.0
 11
829.6979294361
 21
140.2522883411
 31
0.0
  0
ARC
  5
117
330
1F
100
AcDbEntity
  8
0
  6
Continuous
 62
     7
100
AcDbCircle
 10
790.6979294361
 20
100.2522883411
 30
0.0
 40
11.32421436405701
100
AcDbArc
 50
90.0
 51
180.0
  0
LINE
  5
118
330
1F
100
AcDbEntity
  8
0
  6
Continuous
 62
     7
100
AcDbLine
 10
790.6979294361
 20
100.2522883411
 30
0.0
 11
779.373715072
 21
100.2522883411
 31
0.0
  0
LINE
  5
119
330
1F
100
AcDbEntity
  8
0
  6
Continuous
 62
     7
100
AcDbLine
 10
829.6979294361
 20
171.5765027052
 30
0.0
 11
829.6979294361
 21
160.2522883411
 31
0.0
  0
ARC
  5
11A
330
1F
100
AcDbEntity
  8
0
  6
Continuous
 62
     7
100
AcDbCircle
 10
829.6979294361
 20
160.2522883411
 30
0.0
 40
11.32421436405707
100
AcDbArc
 50
0.0
 51
90.0
  0
LINE
  5
11B
330
1F
100
AcDbEntity
  8
0
  6
Continuous
 62
     7
100
AcDbLine
 10
841.0221438001
 20
160.2522883411
 30
0.0
 11
829.6979294361
 21
160.2522883411
 31
0.0
  0
LINE
  5
11C
330
1F
100
AcDbEntity
  8
0
  6
Continuous
 62
     7
100
AcDbLine
 10
790.6979294361
 20
160.2522883411
 30
0.0
 11
790.6979294361
 21
171.5765027052
 31
0.0
  0
LINE
  5
11D
330
1F
100
AcDbEntity
  8
0
  6
Continuous
 62
     7
100
AcDbLine
 10
829.6979294361
 20
171.5765027052
 30
0.0
 11
790.6979294361
 21
171.5765027052
 31
0.0
  0
LINE
  5
11E
330
1F
100
AcDbEntity
  8
0
  6
Continuous
 62
     7
100
AcDbLine
 10
790.6979294361
 20
160.2522883411
 30
0.0
 11
829.6979294361
 21
160.2522883411
 31
0.0
  0
ARC
  5
11F
330
1F
100
AcDbEntity
  8
0
  6
Continuous
 62
     7
100
AcDbCircle
 10
790.6979294361
 20
120.2522883411
 30
0.0
 40
11.32421436405696
100
AcDbArc
 50
90.0
 51
180.0
  0
LINE
  5
120
330
1F
100
AcDbEntity
  8
0
  6
Continuous
 62
     7
100
AcDbLine
 10
790.6979294361
 20
120.2522883411
 30
0.0
 11
779.373715072
 21
120.2522883411
 31
0.0
  0
LINE
  5
121
330
1F
100
AcDbEntity
  8
0
  6
Continuous
 62
     7
100
AcDbLine
 10
829.6979294361
 20
191.5765027052
 30
0.0
 11
829.6979294361
 21
180.2522883411
 31
0.0
  0
ARC
  5
122
330
1F
100
AcDbEntity
  8
0
  6
Continuous
 62
     7
100
AcDbCircle
 10
829.6979294361
 20
180.2522883411
 30
0.0
 40
11.32421436405707
100
AcDbArc
 50
0.0
 51
90.0
  0
LINE
  5
123
330
1F
100
AcDbEntity
  8
0
  6
Continuous
 62
     7
100
AcDbLine
 10
841.0221438001
 20
180.2522883411
 30
0.0
 11
829.6979294361
 21
180.2522883411
 31
0.0
  0
LINE
  5
124
330
1F
100
AcDbEntity
  8
0
  6
Continuous
 62
     7
100
AcDbLine
 10
790.6979294361
 20
180.2522883411
 30
0.0
 11
829.6979294361
 21
180.2522883411
 31
0.0
  0
LINE
  5
125
330
1F
100
AcDbEntity
  8
0
  6
Continuous
 62
     7
100
AcDbLine
 10
790.6979294361
 20
180.2522883411
 30
0.0
 11
790.6979294361
 21
191.5765027052
 31
0.0
  0
LINE
  5
126
330
1F
100
AcDbEntity
  8
0
  6
Continuous
 62
     7
100
AcDbLine
 10
829.6979294361
 20
191.5765027052
 30
0.0
 11
790.6979294361
 21
191.5765027052
 31
0.0
  0
ARC
  5
127
330
1F
100
AcDbEntity
  8
0
  6
Continuous
 62
     7
100
AcDbCircle
 10
790.6979294361
 20
140.2522883411
 30
0.0
 40
11.32421436405696
100
AcDbArc
 50
90.0
 51
180.0
  0
LINE
  5
128
330
1F
100
AcDbEntity
  8
0
  6
Continuous
 62
     7
100
AcDbLine
 10
790.6979294361
 20
140.2522883411
 30
0.0
 11
779.373715072
 21
140.2522883411
 31
0.0
  0
ARC
  5
129
330
1F
100
AcDbEntity
  8
0
  6
Continuous
 62
     7
100
AcDbCircle
 10
790.6979294361
 20
160.2522883411
 30
0.0
 40
11.32421436405696
100
AcDbArc
 50
90.0
 51
180.0
  0
LINE
  5
12A
330
1F
100
AcDbEntity
  8
0
  6
Continuous
 62
     7
100
AcDbLine
 10
790.6979294361
 20
160.2522883411
 30
0.0
 11
779.373715072
 21
160.2522883411
 31
0.0
  0
ARC
  5
12B
330
1F
100
AcDbEntity
  8
0
  6
Continuous
 62
     7
100
AcDbCircle
 10
790.6979294361
 20
180.2522883411
 30
0.0
 40
11.32421436405696
100
AcDbArc
 50
90.0
 51
180.0
  0
LINE
  5
12C
330
1F
100
AcDbEntity
  8
0
  6
Continuous
 62
     7
100
AcDbLine
 10
790.6979294361
 20
180.2522883411
 30
0.0
 11
779.373715072
 21
180.2522883411
 31
0.0
  0
LINE
  5
12D
330
1F
100
AcDbEntity
  8
0
  6
Continuous
 62
     7
100
AcDbLine
 10
1149.6979294361
 20
111.5765027052
 30
0.0
 11
1149.6979294361
 21
112.9408658816
 31
0.0
  0
ARC
  5
12E
330
1F
100
AcDbEntity
  8
0
  6
Continuous
 62
     7
100
AcDbCircle
 10
1149.6979294361
 20
100.2522883411
 30
0.0
 40
12.68857754044984
100
AcDbArc
 50
0.0
 51
90.0
  0
LINE
  5
12F
330
1F
100
AcDbEntity
  8
0
  6
Continuous
 62
     7
100
AcDbLine
 10
1162.3865069765
 20
100.2522883411
 30
0.0
 11
1161.0221438001
 21
100.2522883411
 31
0.0
  0
LINE
  5
130
330
1F
100
AcDbEntity
  8
0
  6
Continuous
 62
     7
100
AcDbLine
 10
1149.6979294361
 20
131.5765027052
 30
0.0
 11
1149.6979294361
 21
132.9408658816
 31
0.0
  0
ARC
  5
131
330
1F
100
AcDbEntity
  8
0
  6
Continuous
 62
     7
100
AcDbCircle
 10
1149.6979294361
 20
120.2522883411
 30
0.0
 40
12.68857754044961
100
AcDbArc
 50
0.0
 51
90.0
  0
LINE
  5
132
330
1F
100
AcDbEntity
  8
0
  6
Continuous
 62
     7
100
AcDbLine
 10
1162.3865069765
 20
120.2522883411
 30
0.0
 11
1161.0221438001
 21
120.2522883411
 31
0.0
  0
LINE
  5
133
330
1F
100
AcDbEntity
  8
0
  6
Continuous
 62
     7
100
AcDbLine
 10
1110.6979294361
 20
111.5765027052
 30
0.0
 11
1110.6979294361
 21
112.9408658816
 31
0.0
  0
LINE
  5
134
330
1F
100
AcDbEntity
  8
0
  6
Continuous
 62
     7
100
AcDbLine
 10
1110.6979294361
 20
112.9408658816
 30
0.0
 11
1149.6979294361
 21
112.9408658816
 31
0.0
  0
LINE
  5
135
330
1F
100
AcDbEntity
  8
0
  6
Continuous
 62
     7
100
AcDbLine
 10
1149.6979294361
 20
151.5765027052
 30
0.0
 11
1149.6979294361
 21
152.9408658816
 31
0.0
  0
ARC
  5
136
330
1F
100
AcDbEntity
  8
0
  6
Continuous
 62
     7
100
AcDbCircle
 10
1149.6979294361
 20
140.2522883411
 30
0.0
 40
12.68857754044961
100
AcDbArc
 50
0.0
 51
90.0
  0
LINE
  5
137
330
1F
100
AcDbEntity
  8
0
  6
Continuous
 62
     7
100
AcDbLine
 10
1162.3865069765
 20
140.2522883411
 30
0.0
 11
1161.0221438001
 21
140.2522883411
 31
0.0
  0
LINE
  5
138
330
1F
100
AcDbEntity
  8
0
  6
Continuous
 62
     7
100
AcDbLine
 10
1110.6979294361
 20
131.5765027052
 30
0.0
 11
1110.6979294361
 21
132.9408658816
 31
0.0
  0
LINE
  5
139
330
1F
100
AcDbEntity
  8
0
  6
Continuous
 62
     7
100
AcDbLine
 10
1110.6979294361
 20
132.9408658816
 30
0.0
 11
1149.6979294361
 21
132.9408658816
 31
0.0
  0
LINE
  5
13A
330
1F
100
AcDbEntity
  8
0
  6
Continuous
 62
     7
100
AcDbLine
 10
1149.6979294361
 20
171.5765027052
 30
0.0
 11
1149.6979294361
 21
172.9408658816
 31
0.0
  0
ARC
  5
13B
330
1F
100
AcDbEntity
  8
0
  6
Continuous
 62
     7
100
AcDbCircle
 10
1149.6979294361
 20
160.2522883411
 30
0.0
 40
12.68857754044961
100
AcDbArc
 50
0.0
 51
90.0
  0
LINE
  5
13C
330
1F
100
AcDbEntity
  8
0
  6
Continuous
 62
     7
100
AcDbLine
 10
1162.3865069765
 20
160.2522883411
 30
0.0
 11
1161.0221438001
 21
160.2522883411
 31
0.0
  0
LINE
  5
13D
330
1F
100
AcDbEntity
  8
0
  6
Continuous
 62
     7
100
AcDbLine
 10
1110.6979294361
 20
151.5765027052
 30
0.0
 11
1110.6979294361
 21
152.9408658816
 31
0.0
  0
LINE
  5
13E
330
1F
100
AcDbEntity
  8
0
  6
Continuous
 62
     7
100
AcDbLine
 10
1110.6979294361
 20
152.9408658816
 30
0.0
 11
1149.6979294361
 21
152.9408658816
 31
0.0
  0
ARC
  5
13F
330
1F
100
AcDbEntity
  8
0
  6
Continuous
 62
     7
100
AcDbCircle
 10
1110.6979294361
 20
100.2522883411
 30
0.0
 40
12.68857754044961
100
AcDbArc
 50
90.0
 51
180.0
  0
LINE
  5
140
330
1F
100
AcDbEntity
  8
0
  6
Continuous
 62
     7
100
AcDbLine
 10
1099.373715072
 20
100.2522883411
 30
0.0
 11
1098.0093518956
 21
100.2522883411
 31
0.0
  0
LINE
  5
141
330
1F
100
AcDbEntity
  8
0
  6
Continuous
 62
     7
100
AcDbLine
 10
1149.6979294361
 20
191.5765027052
 30
0.0
 11
1149.6979294361
 21
192.9408658816
 31
0.0
  0
ARC
  5
142
330
1F
100
AcDbEntity
  8
0
  6
Continuous
 62
     7
100
AcDbCircle
 10
1149.6979294361
 20
180.2522883411
 30
0.0
 40
12.68857754044961
100
AcDbArc
 50
0.0
 51
90.0
  0
LINE
  5
143
330
1F
100
AcDbEntity
  8
0
  6
Continuous
 62
     7
100
AcDbLine
 10
1162.3865069765
 20
180.2522883411
 30
0.0
 11
1161.0221438001
 21
180.2522883411
 31
0.0
  0
LINE
  5
144
330
1F
100
AcDbEntity
  8
0
  6
Continuous
 62
     7
100
AcDbLine
 10
1110.6979294361
 20
171.5765027052
 30
0.0
 11
1110.6979294361
 21
172.9408658816
 31
0.0
  0
LINE
  5
145
330
1F
100
AcDbEntity
  8
0
  6
Continuous
 62
     7
100
AcDbLine
 10
1110.6979294361
 20
172.9408658816
 30
0.0
 11
1149.6979294361
 21
172.9408658816
 31
0.0
  0
ARC
  5
146
330
1F
100
AcDbEntity
  8
0
  6
Continuous
 62
     7
100
AcDbCircle
 10
1110.6979294361
 20
120.2522883411
 30
0.0
 40
12.68857754044961
100
AcDbArc
 50
90.0
 51
180.0
  0
LINE
  5
147
330
1F
100
AcDbEntity
  8
0
  6
Continuous
 62
     7
100
AcDbLine
 10
1099.373715072
 20
120.2522883411
 30
0.0
 11
1098.0093518956
 21
120.2522883411
 31
0.0
  0
LINE
  5
148
330
1F
100
AcDbEntity
  8
0
  6
Continuous
 62
     7
100
AcDbLine
 10
1110.6979294361
 20
191.5765027052
 30
0.0
 11
1110.6979294361
 21
192.9408658816
 31
0.0
  0
LINE
  5
149
330
1F
100
AcDbEntity
  8
0
  6
Continuous
 62
     7
100
AcDbLine
 10
1110.6979294361
 20
192.9408658816
 30
0.0
 11
1149.6979294361
 21
192.9408658816
 31
0.0
  0
LINE
  5
14A
330
1F
100
AcDbEntity
  8
0
  6
Continuous
 62
     7
100
AcDbLine
 10
1069.6979294361
 20
111.5765027052
 30
0.0
 11
1069.6979294361
 21
112.9408658816
 31
0.0
  0
ARC
  5
14B
330
1F
100
AcDbEntity
  8
0
  6
Continuous
 62
     7
100
AcDbCircle
 10
1069.6979294361
 20
100.2522883411
 30
0.0
 40
12.68857754044961
100
AcDbArc
 50
0.0
 51
90.0
  0
LINE
  5
14C
330
1F
100
AcDbEntity
  8
0
  6
Continuous
 62
     7
100
AcDbLine
 10
1082.3865069765
 20
100.2522883411
 30
0.0
 11
1081.0221438001
 21
100.2522883411
 31
0.0
  0
ARC
  5
14D
330
1F
100
AcDbEntity
  8
0
  6
Continuous
 62
     7
100
AcDbCircle
 10
1110.6979294361
 20
140.2522883411
 30
0.0
 40
12.68857754044961
100
AcDbArc
 50
90.0
 51
180.0
  0
LINE
  5
14E
330
1F
100
AcDbEntity
  8
0
  6
Continuous
 62
     7
100
AcDbLine
 10
1099.373715072
 20
140.2522883411
 30
0.0
 11
1098.0093518956
 21
140.2522883411
 31
0.0
  0
LINE
  5
14F
330
1F
100
AcDbEntity
  8
0
  6
Continuous
 62
     7
100
AcDbLine
 10
1069.6979294361
 20
131.5765027052
 30
0.0
 11
1069.6979294361
 21
132.9408658816
 31
0.0
  0
ARC
  5
150
330
1F
100
AcDbEntity
  8
0
  6
Continuous
 62
     7
100
AcDbCircle
 10
1069.6979294361
 20
120.2522883411
 30
0.0
 40
12.68857754044961
100
AcDbArc
 50
0.0
 51
90.0
  0
LINE
  5
151
330
1F
100
AcDbEntity
  8
0
  6
Continuous
 62
     7
100
AcDbLine
 10
1082.3865069765
 20
120.2522883411
 30
0.0
 11
1081.0221438001
 21
120.2522883411
 31
0.0
  0
LINE
  5
152
330
1F
100
AcDbEntity
  8
0
  6
Continuous
 62
     7
100
AcDbLine
 10
1030.6979294361
 20
111.5765027052
 30
0.0
 11
1030.6979294361
 21
112.9408658816
 31
0.0
  0
LINE
  5
153
330
1F
100
AcDbEntity
  8
0
  6
Continuous
 62
     7
100
AcDbLine
 10
1030.6979294361
 20
112.9408658816
 30
0.0
 11
1069.6979294361
 21
112.9408658816
 31
0.0
  0
ARC
  5
154
330
1F
100
AcDbEntity
  8
0
  6
Continuous
 62
     7
100
AcDbCircle
 10
1110.6979294361
 20
160.2522883411
 30
0.0
 40
12.68857754044961
100
AcDbArc
 50
90.0
 51
180.0
  0
LINE
  5
155
330
1F
100
AcDbEntity
  8
0
  6
Continuous
 62
     7
100
AcDbLine
 10
1099.373715072
 20
160.2522883411
 30
0.0
 11
1098.0093518956
 21
160.2522883411
 31
0.0
  0
LINE
  5
156
330
1F
100
AcDbEntity
  8
0
  6
Continuous
 62
     7
100
AcDbLine
 10
1069.6979294361
 20
151.5765027052
 30
0.0
 11
1069.6979294361
 21
152.9408658816
 31
0.0
  0
ARC
  5
157
330
1F
100
AcDbEntity
  8
0
  6
Continuous
 62
     7
100
AcDbCircle
 10
1069.6979294361
 20
140.2522883411
 30
0.0
 40
12.68857754044961
100
AcDbArc
 50
0.0
 51
90.0
  0
LINE
  5
158
330
1F
100
AcDbEntity
  8
0
  6
Continuous
 62
     7
100
AcDbLine
 10
1082.3865069765
 20
140.2522883411
 30
0.0
 11
1081.0221438001
 21
140.2522883411
 31
0.0
  0
LINE
  5
159
330
1F
100
AcDbEntity
  8
0
  6
Continuous
 62
     7
100
AcDbLine
 10
1030.6979294361
 20
131.5765027052
 30
0.0
 11
1030.6979294361
 21
132.9408658816
 31
0.0
  0
LINE
  5
15A
330
1F
100
AcDbEntity
  8
0
  6
Continuous
 62
     7
100
AcDbLine
 10
1030.6979294361
 20
132.9408658816
 30
0.0
 11
1069.6979294361
 21
132.9408658816
 31
0.0
  0
ARC
  5
15B
330
1F
100
AcDbEntity
  8
0
  6
Continuous
 62
     7
100
AcDbCircle
 10
1110.6979294361
 20
180.2522883411
 30
0.0
 40
12.68857754044961
100
AcDbArc
 50
90.0
 51
180.0
  0
LINE
  5
15C
330
1F
100
AcDbEntity
  8
0
  6
Continuous
 62
     7
100
AcDbLine
 10
1099.373715072
 20
180.2522883411
 30
0.0
 11
1098.0093518956
 21
180.2522883411
 31
0.0
  0
LINE
  5
15D
330
1F
100
AcDbEntity
  8
0
  6
Continuous
 62
     7
100
AcDbLine
 10
1069.6979294361
 20
171.5765027052
 30
0.0
 11
1069.6979294361
 21
172.9408658816
 31
0.0
  0
ARC
  5
15E
330
1F
100
AcDbEntity
  8
0
  6
Continuous
 62
     7
100
AcDbCircle
 10
1069.6979294361
 20
160.2522883411
 30
0.0
 40
12.68857754044961
100
AcDbArc
 50
0.0
 51
90.0
  0
LINE
  5
15F
330
1F
100
AcDbEntity
  8
0
  6
Continuous
 62
     7
100
AcDbLine
 10
1082.3865069765
 20
160.2522883411
 30
0.0
 11
1081.0221438001
 21
160.2522883411
 31
0.0
  0
LINE
  5
160
330
1F
100
AcDbEntity
  8
0
  6
Continuous
 62
     7
100
AcDbLine
 10
1030.6979294361
 20
151.5765027052
 30
0.0
 11
1030.6979294361
 21
152.9408658816
 31
0.0
  0
LINE
  5
161
330
1F
100
AcDbEntity
  8
0
  6
Continuous
 62
     7
100
AcDbLine
 10
1030.6979294361
 20
152.9408658816
 30
0.0
 11
1069.6979294361
 21
152.9408658816
 31
0.0
  0
ARC
  5
162
330
1F
100
AcDbEntity
  8
0
  6
Continuous
 62
     7
100
AcDbCircle
 10
1030.6979294361
 20
100.2522883411
 30
0.0
 40
12.6885775404494
100
AcDbArc
 50
90.0
 51
180.0
  0
LINE
  5
163
330
1F
100
AcDbEntity
  8
0
  6
Continuous
 62
     7
100
AcDbLine
 10
1019.373715072
 20
100.2522883411
 30
0.0
 11
1018.0093518956
 21
100.2522883411
 31
0.0
  0
LINE
  5
164
330
1F
100
AcDbEntity
  8
0
  6
Continuous
 62
     7
100
AcDbLine
 10
1069.6979294361
 20
191.5765027052
 30
0.0
 11
1069.6979294361
 21
192.9408658816
 31
0.0
  0
ARC
  5
165
330
1F
100
AcDbEntity
  8
0
  6
Continuous
 62
     7
100
AcDbCircle
 10
1069.6979294361
 20
180.2522883411
 30
0.0
 40
12.68857754044961
100
AcDbArc
 50
0.0
 51
90.0
  0
LINE
  5
166
330
1F
100
AcDbEntity
  8
0
  6
Continuous
 62
     7
100
AcDbLine
 10
1082.3865069765
 20
180.2522883411
 30
0.0
 11
1081.0221438001
 21
180.2522883411
 31
0.0
  0
LINE
  5
167
330
1F
100
AcDbEntity
  8
0
  6
Continuous
 62
     7
100
AcDbLine
 10
1030.6979294361
 20
171.5765027052
 30
0.0
 11
1030.6979294361
 21
172.9408658816
 31
0.0
  0
LINE
  5
168
330
1F
100
AcDbEntity
  8
0
  6
Continuous
 62
     7
100
AcDbLine
 10
1030.6979294361
 20
172.9408658816
 30
0.0
 11
1069.6979294361
 21
172.9408658816
 31
0.0
  0
ARC
  5
169
330
1F
100
AcDbEntity
  8
0
  6
Continuous
 62
     7
100
AcDbCircle
 10
1030.6979294361
 20
120.2522883411
 30
0.0
 40
12.68857754044943
100
AcDbArc
 50
90.0
 51
180.0
  0
LINE
  5
16A
330
1F
100
AcDbEntity
  8
0
  6
Continuous
 62
     7
100
AcDbLine
 10
1019.373715072
 20
120.2522883411
 30
0.0
 11
1018.0093518956
 21
120.2522883411
 31
0.0
  0
LINE
  5
16B
330
1F
100
AcDbEntity
  8
0
  6
Continuous
 62
     7
100
AcDbLine
 10
1030.6979294361
 20
191.5765027052
 30
0.0
 11
1030.6979294361
 21
192.9408658816
 31
0.0
  0
LINE
  5
16C
330
1F
100
AcDbEntity
  8
0
  6
Continuous
 62
     7
100
AcDbLine
 10
1030.6979294361
 20
192.9408658816
 30
0.0
 11
1069.6979294361
 21
192.9408658816
 31
0.0
  0
LINE
  5
16D
330
1F
100
AcDbEntity
  8
0
  6
Continuous
 62
     7
100
AcDbLine
 10
989.6979294361
 20
111.5765027052
 30
0.0
 11
989.6979294361
 21
112.9408658816
 31
0.0
  0
ARC
  5
16E
330
1F
100
AcDbEntity
  8
0
  6
Continuous
 62
     7
100
AcDbCircle
 10
989.6979294361
 20
100.2522883411
 30
0.0
 40
12.68857754044961
100
AcDbArc
 50
0.0
 51
90.0
  0
LINE
  5
16F
330
1F
100
AcDbEntity
  8
0
  6
Continuous
 62
     7
100
AcDbLine
 10
1002.3865069765
 20
100.2522883411
 30
0.0
 11
1001.0221438001
 21
100.2522883411
 31
0.0
  0
ARC
  5
170
330
1F
100
AcDbEntity
  8
0
  6
Continuous
 62
     7
100
AcDbCircle
 10
1030.6979294361
 20
140.2522883411
 30
0.0
 40
12.68857754044942
100
AcDbArc
 50
90.0
 51
180.0
  0
LINE
  5
171
330
1F
100
AcDbEntity
  8
0
  6
Continuous
 62
     7
100
AcDbLine
 10
1019.373715072
 20
140.2522883411
 30
0.0
 11
1018.0093518956
 21
140.2522883411
 31
0.0
  0
LINE
  5
172
330
1F
100
AcDbEntity
  8
0
  6
Continuous
 62
     7
100
AcDbLine
 10
989.6979294361
 20
131.5765027052
 30
0.0
 11
989.6979294361
 21
132.9408658816
 31
0.0
  0
ARC
  5
173
330
1F
100
AcDbEntity
  8
0
  6
Continuous
 62
     7
100
AcDbCircle
 10
989.6979294361
 20
120.2522883411
 30
0.0
 40
12.68857754044961
100
AcDbArc
 50
0.0
 51
90.0
  0
LINE
  5
174
330
1F
100
AcDbEntity
  8
0
  6
Continuous
 62
     7
100
AcDbLine
 10
1002.3865069765
 20
120.2522883411
 30
0.0
 11
1001.0221438001
 21
120.2522883411
 31
0.0
  0
LINE
  5
175
330
1F
100
AcDbEntity
  8
0
  6
Continuous
 62
     7
100
AcDbLine
 10
950.6979294361
 20
111.5765027052
 30
0.0
 11
950.6979294361
 21
112.9408658816
 31
0.0
  0
LINE
  5
176
330
1F
100
AcDbEntity
  8
0
  6
Continuous
 62
     7
100
AcDbLine
 10
950.6979294361
 20
112.9408658816
 30
0.0
 11
989.6979294361
 21
112.9408658816
 31
0.0
  0
ARC
  5
177
330
1F
100
AcDbEntity
  8
0
  6
Continuous
 62
     7
100
AcDbCircle
 10
1030.6979294361
 20
160.2522883411
 30
0.0
 40
12.68857754044939
100
AcDbArc
 50
90.0
 51
180.0
  0
LINE
  5
178
330
1F
100
AcDbEntity
  8
0
  6
Continuous
 62
     7
100
AcDbLine
 10
1019.373715072
 20
160.2522883411
 30
0.0
 11
1018.0093518956
 21
160.2522883411
 31
0.0
  0
LINE
  5
179
330
1F
100
AcDbEntity
  8
0
  6
Continuous
 62
     7
100
AcDbLine
 10
989.6979294361
 20
151.5765027052
 30
0.0
 11
989.6979294361
 21
152.9408658816
 31
0.0
  0
ARC
  5
17A
330
1F
100
AcDbEntity
  8
0
  6
Continuous
 62
     7
100
AcDbCircle
 10
989.6979294361
 20
140.2522883411
 30
0.0
 40
12.68857754044961
100
AcDbArc
 50
0.0
 51
90.0
  0
LINE
  5
17B
330
1F
100
AcDbEntity
  8
0
  6
Continuous
 62
     7
100
AcDbLine
 10
1002.3865069765
 20
140.2522883411
 30
0.0
 11
1001.0221438001
 21
140.2522883411
 31
0.0
  0
LINE
  5
17C
330
1F
100
AcDbEntity
  8
0
  6
Continuous
 62
     7
100
AcDbLine
 10
950.6979294361
 20
131.5765027052
 30
0.0
 11
950.6979294361
 21
132.9408658816
 31
0.0
  0
LINE
  5
17D
330
1F
100
AcDbEntity
  8
0
  6
Continuous
 62
     7
100
AcDbLine
 10
950.6979294361
 20
132.9408658816
 30
0.0
 11
989.6979294361
 21
132.9408658816
 31
0.0
  0
ARC
  5
17E
330
1F
100
AcDbEntity
  8
0
  6
Continuous
 62
     7
100
AcDbCircle
 10
1030.6979294361
 20
180.2522883411
 30
0.0
 40
12.68857754044947
100
AcDbArc
 50
90.0
 51
180.0
  0
LINE
  5
17F
330
1F
100
AcDbEntity
  8
0
  6
Continuous
 62
     7
100
AcDbLine
 10
1019.373715072
 20
180.2522883411
 30
0.0
 11
1018.0093518956
 21
180.2522883411
 31
0.0
  0
LINE
  5
180
330
1F
100
AcDbEntity
  8
0
  6
Continuous
 62
     7
100
AcDbLine
 10
989.6979294361
 20
171.5765027052
 30
0.0
 11
989.6979294361
 21
172.9408658816
 31
0.0
  0
ARC
  5
181
330
1F
100
AcDbEntity
  8
0
  6
Continuous
 62
     7
100
AcDbCircle
 10
989.6979294361
 20
160.2522883411
 30
0.0
 40
12.68857754044961
100
AcDbArc
 50
0.0
 51
90.0
  0
LINE
  5
182
330
1F
100
AcDbEntity
  8
0
  6
Continuous
 62
     7
100
AcDbLine
 10
1002.3865069765
 20
160.2522883411
 30
0.0
 11
1001.0221438001
 21
160.2522883411
 31
0.0
  0
LINE
  5
183
330
1F
100
AcDbEntity
  8
0
  6
Continuous
 62
     7
100
AcDbLine
 10
950.6979294361
 20
151.5765027052
 30
0.0
 11
950.6979294361
 21
152.9408658816
 31
0.0
  0
LINE
  5
184
330
1F
100
AcDbEntity
  8
0
  6
Continuous
 62
     7
100
AcDbLine
 10
950.6979294361
 20
152.9408658816
 30
0.0
 11
989.6979294361
 21
152.9408658816
 31
0.0
  0
ARC
  5
185
330
1F
100
AcDbEntity
  8
0
  6
Continuous
 62
     7
100
AcDbCircle
 10
950.6979294361
 20
100.2522883411
 30
0.0
 40
12.6885775404495
100
AcDbArc
 50
90.0
 51
180.0
  0
LINE
  5
186
330
1F
100
AcDbEntity
  8
0
  6
Continuous
 62
     7
100
AcDbLine
 10
939.373715072
 20
100.2522883411
 30
0.0
 11
938.0093518956
 21
100.2522883411
 31
0.0
  0
LINE
  5
187
330
1F
100
AcDbEntity
  8
0
  6
Continuous
 62
     7
100
AcDbLine
 10
989.6979294361
 20
191.5765027052
 30
0.0
 11
989.6979294361
 21
192.9408658816
 31
0.0
  0
ARC
  5
188
330
1F
100
AcDbEntity
  8
0
  6
Continuous
 62
     7
100
AcDbCircle
 10
989.6979294361
 20
180.2522883411
 30
0.0
 40
12.68857754044961
100
AcDbArc
 50
0.0
 51
90.0
  0
LINE
  5
189
330
1F
100
AcDbEntity
  8
0
  6
Continuous
 62
     7
100
AcDbLine
 10
1002.3865069765
 20
180.2522883411
 30
0.0
 11
1001.0221438001
 21
180.2522883411
 31
0.0
  0
LINE
  5
18A
330
1F
100
AcDbEntity
  8
0
  6
Continuous
 62
     7
100
AcDbLine
 10
950.6979294361
 20
171.5765027052
 30
0.0
 11
950.6979294361
 21
172.9408658816
 31
0.0
  0
LINE
  5
18B
330
1F
100
AcDbEntity
  8
0
  6
Continuous
 62
     7
100
AcDbLine
 10
950.6979294361
 20
172.9408658816
 30
0.0
 11
989.6979294361
 21
172.9408658816
 31
0.0
  0
ARC
  5
18C
330
1F
100
AcDbEntity
  8
0
  6
Continuous
 62
     7
100
AcDbCircle
 10
950.6979294361
 20
120.2522883411
 30
0.0
 40
12.6885775404495
100
AcDbArc
 50
90.0
 51
180.0
  0
LINE
  5
18D
330
1F
100
AcDbEntity
  8
0
  6
Continuous
 62
     7
100
AcDbLine
 10
939.373715072
 20
120.2522883411
 30
0.0
 11
938.0093518956
 21
120.2522883411
 31
0.0
  0
LINE
  5
18E
330
1F
100
AcDbEntity
  8
0
  6
Continuous
 62
     7
100
AcDbLine
 10
950.6979294361
 20
191.5765027052
 30
0.0
 11
950.6979294361
 21
192.9408658816
 31
0.0
  0
LINE
  5
18F
330
1F
100
AcDbEntity
  8
0
  6
Continuous
 62
     7
100
AcDbLine
 10
950.6979294361
 20
192.9408658816
 30
0.0
 11
989.6979294361
 21
192.9408658816
 31
0.0
  0
LINE
  5
190
330
1F
100
AcDbEntity
  8
0
  6
Continuous
 62
     7
100
AcDbLine
 10
909.6979294361
 20
111.5765027052
 30
0.0
 11
909.6979294361
 21
112.9408658816
 31
0.0
  0
ARC
  5
191
330
1F
100
AcDbEntity
  8
0
  6
Continuous
 62
     7
100
AcDbCircle
 10
909.6979294361
 20
100.2522883411
 30
0.0
 40
12.6885775404495
100
AcDbArc
 50
0.0
 51
90.0
  0
LINE
  5
192
330
1F
100
AcDbEntity
  8
0
  6
Continuous
 62
     7
100
AcDbLine
 10
922.3865069765
 20
100.2522883411
 30
0.0
 11
921.0221438001
 21
100.2522883411
 31
0.0
  0
ARC
  5
193
330
1F
100
AcDbEntity
  8
0
  6
Continuous
 62
     7
100
AcDbCircle
 10
950.6979294361
 20
140.2522883411
 30
0.0
 40
12.6885775404495
100
AcDbArc
 50
90.0
 51
180.0
  0
LINE
  5
194
330
1F
100
AcDbEntity
  8
0
  6
Continuous
 62
     7
100
AcDbLine
 10
939.373715072
 20
140.2522883411
 30
0.0
 11
938.0093518956
 21
140.2522883411
 31
0.0
  0
LINE
  5
195
330
1F
100
AcDbEntity
  8
0
  6
Continuous
 62
     7
100
AcDbLine
 10
909.6979294361
 20
131.5765027052
 30
0.0
 11
909.6979294361
 21
132.9408658816
 31
0.0
  0
ARC
  5
196
330
1F
100
AcDbEntity
  8
0
  6
Continuous
 62
     7
100
AcDbCircle
 10
909.6979294361
 20
120.2522883411
 30
0.0
 40
12.6885775404495
100
AcDbArc
 50
0.0
 51
90.0
  0
LINE
  5
197
330
1F
100
AcDbEntity
  8
0
  6
Continuous
 62
     7
100
AcDbLine
 10
922.3865069765
 20
120.2522883411
 30
0.0
 11
921.0221438001
 21
120.2522883411
 31
0.0
  0
LINE
  5
198
330
1F
100
AcDbEntity
  8
0
  6
Continuous
 62
     7
100
AcDbLine
 10
870.6979294361
 20
111.5765027052
 30
0.0
 11
870.6979294361
 21
112.9408658816
 31
0.0
  0
LINE
  5
199
330
1F
100
AcDbEntity
  8
0
  6
Continuous
 62
     7
100
AcDbLine
 10
870.6979294361
 20
112.9408658816
 30
0.0
 11
909.6979294361
 21
112.9408658816
 31
0.0
  0
ARC
  5
19A
330
1F
100
AcDbEntity
  8
0
  6
Continuous
 62
     7
100
AcDbCircle
 10
950.6979294361
 20
160.2522883411
 30
0.0
 40
12.6885775404495
100
AcDbArc
 50
90.0
 51
180.0
  0
LINE
  5
19B
330
1F
100
AcDbEntity
  8
0
  6
Continuous
 62
     7
100
AcDbLine
 10
939.373715072
 20
160.2522883411
 30
0.0
 11
938.0093518956
 21
160.2522883411
 31
0.0
  0
LINE
  5
19C
330
1F
100
AcDbEntity
  8
0
  6
Continuous
 62
     7
100
AcDbLine
 10
909.6979294361
 20
151.5765027052
 30
0.0
 11
909.6979294361
 21
152.9408658816
 31
0.0
  0
ARC
  5
19D
330
1F
100
AcDbEntity
  8
0
  6
Continuous
 62
     7
100
AcDbCircle
 10
909.6979294361
 20
140.2522883411
 30
0.0
 40
12.6885775404495
100
AcDbArc
 50
0.0
 51
90.0
  0
LINE
  5
19E
330
1F
100
AcDbEntity
  8
0
  6
Continuous
 62
     7
100
AcDbLine
 10
922.3865069765
 20
140.2522883411
 30
0.0
 11
921.0221438001
 21
140.2522883411
 31
0.0
  0
LINE
  5
19F
330
1F
100
AcDbEntity
  8
0
  6
Continuous
 62
     7
100
AcDbLine
 10
870.6979294361
 20
131.5765027052
 30
0.0
 11
870.6979294361
 21
132.9408658816
 31
0.0
  0
LINE
  5
1A0
330
1F
100
AcDbEntity
  8
0
  6
Continuous
 62
     7
100
AcDbLine
 10
870.6979294361
 20
132.9408658816
 30
0.0
 11
909.6979294361
 21
132.9408658816
 31
0.0
  0
ARC
  5
1A1
330
1F
100
AcDbEntity
  8
0
  6
Continuous
 62
     7
100
AcDbCircle
 10
950.6979294361
 20
180.2522883411
 30
0.0
 40
12.68857754044996
100
AcDbArc
 50
90.0
 51
180.0
  0
LINE
  5
1A2
330
1F
100
AcDbEntity
  8
0
  6
Continuous
 62
     7
100
AcDbLine
 10
939.373715072
 20
180.2522883411
 30
0.0
 11
938.0093518956
 21
180.2522883411
 31
0.0
  0
LINE
  5
1A3
330
1F
100
AcDbEntity
  8
0
  6
Continuous
 62
     7
100
AcDbLine
 10
909.6979294361
 20
171.5765027052
 30
0.0
 11
909.6979294361
 21
172.9408658816
 31
0.0
  0
ARC
  5
1A4
330
1F
100
AcDbEntity
  8
0
  6
Continuous
 62
     7
100
AcDbCircle
 10
909.6979294361
 20
160.2522883411
 30
0.0
 40
12.6885775404495
100
AcDbArc
 50
0.0
 51
90.0
  0
LINE
  5
1A5
330
1F
100
AcDbEntity
  8
0
  6
Continuous
 62
     7
100
AcDbLine
 10
922.3865069765
 20
160.2522883411
 30
0.0
 11
921.0221438001
 21
160.2522883411
 31
0.0
  0
LINE
  5
1A6
330
1F
100
AcDbEntity
  8
0
  6
Continuous
 62
     7
100
AcDbLine
 10
870.6979294361
 20
151.5765027052
 30
0.0
 11
870.6979294361
 21
152.9408658816
 31
0.0
  0
LINE
  5
1A7
330
1F
100
AcDbEntity
  8
0
  6
Continuous
 62
     7
100
AcDbLine
 10
870.6979294361
 20
152.9408658816
 30
0.0
 11
909.6979294361
 21
152.9408658816
 31
0.0
  0
ARC
  5
1A8
330
1F
100
AcDbEntity
  8
0
  6
Continuous
 62
     7
100
AcDbCircle
 10
870.6979294361
 20
100.2522883411
 30
0.0
 40
12.6885775404495
100
AcDbArc
 50
90.0
 51
180.0
  0
LINE
  5
1A9
330
1F
100
AcDbEntity
  8
0
  6
Continuous
 62
     7
100
AcDbLine
 10
859.373715072
 20
100.2522883411
 30
0.0
 11
858.0093518956
 21
100.2522883411
 31
0.0
  0
LINE
  5
1AA
330
1F
100
AcDbEntity
  8
0
  6
Continuous
 62
     7
100
AcDbLine
 10
909.6979294361
 20
191.5765027052
 30
0.0
 11
909.6979294361
 21
192.9408658816
 31
0.0
  0
ARC
  5
1AB
330
1F
100
AcDbEntity
  8
0
  6
Continuous
 62
     7
100
AcDbCircle
 10
909.6979294361
 20
180.2522883411
 30
0.0
 40
12.6885775404495
100
AcDbArc
 50
0.0
 51
90.0
  0
LINE
  5
1AC
330
1F
100
AcDbEntity
  8
0
  6
Continuous
 62
     7
100
AcDbLine
 10
922.3865069765
 20
180.2522883411
 30
0.0
 11
921.0221438001
 21
180.2522883411
 31
0.0
  0
LINE
  5
1AD
330
1F
100
AcDbEntity
  8
0
  6
Continuous
 62
     7
100
AcDbLine
 10
870.6979294361
 20
171.5765027052
 30
0.0
 11
870.6979294361
 21
172.9408658816
 31
0.0
  0
LINE
  5
1AE
330
1F
100
AcDbEntity
  8
0
  6
Continuous
 62
     7
100
AcDbLine
 10
870.6979294361
 20
172.9408658816
 30
0.0
 11
909.6979294361
 21
172.9408658816
 31
0.0
  0
ARC
  5
1AF
330
1F
100
AcDbEntity
  8
0
  6
Continuous
 62
     7
100
AcDbCircle
 10
870.6979294361
 20
120.2522883411
 30
0.0
 40
12.6885775404495
100
AcDbArc
 50
90.0
 51
180.0
  0
LINE
  5
1B0
330
1F
100
AcDbEntity
  8
0
  6
Continuous
 62
     7
100
AcDbLine
 10
859.373715072
 20
120.2522883411
 30
0.0
 11
858.0093518956
 21
120.2522883411
 31
0.0
  0
LINE
  5
1B1
330
1F
100
AcDbEntity
  8
0
  6
Continuous
 62
     7
100
AcDbLine
 10
870.6979294361
 20
191.5765027052
 30
0.0
 11
870.6979294361
 21
192.9408658816
 31
0.0
  0
LINE
  5
1B2
330
1F
100
AcDbEntity
  8
0
  6
Continuous
 62
     7
100
AcDbLine
 10
870.6979294361
 20
192.9408658816
 30
0.0
 11
909.6979294361
 21
192.9408658816
 31
0.0
  0
LINE
  5
1B3
330
1F
100
AcDbEntity
  8
0
  6
Continuous
 62
     7
100
AcDbLine
 10
829.6979294361
 20
111.5765027052
 30
0.0
 11
829.6979294361
 21
112.9408658816
 31
0.0
  0
ARC
  5
1B4
330
1F
100
AcDbEntity
  8
0
  6
Continuous
 62
     7
100
AcDbCircle
 10
829.6979294361
 20
100.2522883411
 30
0.0
 40
12.6885775404495
100
AcDbArc
 50
0.0
 51
90.0
  0
LINE
  5
1B5
330
1F
100
AcDbEntity
  8
0
  6
Continuous
 62
     7
100
AcDbLine
 10
842.3865069765
 20
100.2522883411
 30
0.0
 11
841.0221438001
 21
100.2522883411
 31
0.0
  0
ARC
  5
1B6
330
1F
100
AcDbEntity
  8
0
  6
Continuous
 62
     7
100
AcDbCircle
 10
870.6979294361
 20
140.2522883411
 30
0.0
 40
12.6885775404495
100
AcDbArc
 50
90.0
 51
180.0
  0
LINE
  5
1B7
330
1F
100
AcDbEntity
  8
0
  6
Continuous
 62
     7
100
AcDbLine
 10
859.373715072
 20
140.2522883411
 30
0.0
 11
858.0093518956
 21
140.2522883411
 31
0.0
  0
LINE
  5
1B8
330
1F
100
AcDbEntity
  8
0
  6
Continuous
 62
     7
100
AcDbLine
 10
829.6979294361
 20
131.5765027052
 30
0.0
 11
829.6979294361
 21
132.9408658816
 31
0.0
  0
ARC
  5
1B9
330
1F
100
AcDbEntity
  8
0
  6
Continuous
 62
     7
100
AcDbCircle
 10
829.6979294361
 20
120.2522883411
 30
0.0
 40
12.6885775404495
100
AcDbArc
 50
0.0
 51
90.0
  0
LINE
  5
1BA
330
1F
100
AcDbEntity
  8
0
  6
Continuous
 62
     7
100
AcDbLine
 10
842.3865069765
 20
120.2522883411
 30
0.0
 11
841.0221438001
 21
120.2522883411
 31
0.0
  0
LINE
  5
1BB
330
1F
100
AcDbEntity
  8
0
  6
Continuous
 62
     7
100
AcDbLine
 10
790.6979294361
 20
111.5765027052
 30
0.0
 11
790.6979294361
 21
112.9408658816
 31
0.0
  0
LINE
  5
1BC
330
1F
100
AcDbEntity
  8
0
  6
Continuous
 62
     7
100
AcDbLine
 10
790.6979294361
 20
112.9408658816
 30
0.0
 11
829.6979294361
 21
112.9408658816
 31
0.0
  0
ARC
  5
1BD
330
1F
100
AcDbEntity
  8
0
  6
Continuous
 62
     7
100
AcDbCircle
 10
870.6979294361
 20
160.2522883411
 30
0.0
 40
12.6885775404495
100
AcDbArc
 50
90.0
 51
180.0
  0
LINE
  5
1BE
330
1F
100
AcDbEntity
  8
0
  6
Continuous
 62
     7
100
AcDbLine
 10
859.373715072
 20
160.2522883411
 30
0.0
 11
858.0093518956
 21
160.2522883411
 31
0.0
  0
LINE
  5
1BF
330
1F
100
AcDbEntity
  8
0
  6
Continuous
 62
     7
100
AcDbLine
 10
829.6979294361
 20
151.5765027052
 30
0.0
 11
829.6979294361
 21
152.9408658816
 31
0.0
  0
ARC
  5
1C0
330
1F
100
AcDbEntity
  8
0
  6
Continuous
 62
     7
100
AcDbCircle
 10
829.6979294361
 20
140.2522883411
 30
0.0
 40
12.6885775404495
100
AcDbArc
 50
0.0
 51
90.0
  0
LINE
  5
1C1
330
1F
100
AcDbEntity
  8
0
  6
Continuous
 62
     7
100
AcDbLine
 10
842.3865069765
 20
140.2522883411
 30
0.0
 11
841.0221438001
 21
140.2522883411
 31
0.0
  0
LINE
  5
1C2
330
1F
100
AcDbEntity
  8
0
  6
Continuous
 62
     7
100
AcDbLine
 10
790.6979294361
 20
131.5765027052
 30
0.0
 11
790.6979294361
 21
132.9408658816
 31
0.0
  0
LINE
  5
1C3
330
1F
100
AcDbEntity
  8
0
  6
Continuous
 62
     7
100
AcDbLine
 10
790.6979294361
 20
132.9408658816
 30
0.0
 11
829.6979294361
 21
132.9408658816
 31
0.0
  0
ARC
  5
1C4
330
1F
100
AcDbEntity
  8
0
  6
Continuous
 62
     7
100
AcDbCircle
 10
870.6979294361
 20
180.2522883411
 30
0.0
 40
12.68857754045007
100
AcDbArc
 50
90.0
 51
180.0
  0
LINE
  5
1C5
330
1F
100
AcDbEntity
  8
0
  6
Continuous
 62
     7
100
AcDbLine
 10
859.373715072
 20
180.2522883411
 30
0.0
 11
858.0093518956
 21
180.2522883411
 31
0.0
  0
LINE
  5
1C6
330
1F
100
AcDbEntity
  8
0
  6
Continuous
 62
     7
100
AcDbLine
 10
829.6979294361
 20
171.5765027052
 30
0.0
 11
829.6979294361
 21
172.9408658816
 31
0.0
  0
ARC
  5
1C7
330
1F
100
AcDbEntity
  8
0
  6
Continuous
 62
     7
100
AcDbCircle
 10
829.6979294361
 20
160.2522883411
 30
0.0
 40
12.6885775404495
100
AcDbArc
 50
0.0
 51
90.0
  0
LINE
  5
1C8
330
1F
100
AcDbEntity
  8
0
  6
Continuous
 62
     7
100
AcDbLine
 10
842.3865069765
 20
160.2522883411
 30
0.0
 11
841.0221438001
 21
160.2522883411
 31
0.0
  0
LINE
  5
1C9
330
1F
100
AcDbEntity
  8
0
  6
Continuous
 62
     7
100
AcDbLine
 10
790.6979294361
 20
151.5765027052
 30
0.0
 11
790.6979294361
 21
152.9408658816
 31
0.0
  0
LINE
  5
1CA
330
1F
100
AcDbEntity
  8
0
  6
Continuous
 62
     7
100
AcDbLine
 10
790.6979294361
 20
152.9408658816
 30
0.0
 11
829.6979294361
 21
152.9408658816
 31
0.0
  0
ARC
  5
1CB
330
1F
100
AcDbEntity
  8
0
  6
Continuous
 62
     7
100
AcDbCircle
 10
790.6979294361
 20
100.2522883411
 30
0.0
 40
12.6885775404494
100
AcDbArc
 50
90.0
 51
180.0
  0
LINE
  5
1CC
330
1F
100
AcDbEntity
  8
0
  6
Continuous
 62
     7
100
AcDbLine
 10
779.373715072
 20
100.2522883411
 30
0.0
 11
778.0093518956
 21
100.2522883411
 31
0.0
  0
LINE
  5
1CD
330
1F
100
AcDbEntity
  8
0
  6
Continuous
 62
     7
100
AcDbLine
 10
829.6979294361
 20
191.5765027052
 30
0.0
 11
829.6979294361
 21
192.9408658816
 31
0.0
  0
ARC
  5
1CE
330
1F
100
AcDbEntity
  8
0
  6
Continuous
 62
     7
100
AcDbCircle
 10
829.6979294361
 20
180.2522883411
 30
0.0
 40
12.6885775404495
100
AcDbArc
 50
0.0
 51
90.0
  0
LINE
  5
1CF
330
1F
100
AcDbEntity
  8
0
  6
Continuous
 62
     7
100
AcDbLine
 10
842.3865069765
 20
180.2522883411
 30
0.0
 11
841.0221438001
 21
180.2522883411
 31
0.0
  0
LINE
  5
1D0
330
1F
100
AcDbEntity
  8
0
  6
Continuous
 62
     7
100
AcDbLine
 10
790.6979294361
 20
171.5765027052
 30
0.0
 11
790.6979294361
 21
172.9408658816
 31
0.0
  0
LINE
  5
1D1
330
1F
100
AcDbEntity
  8
0
  6
Continuous
 62
     7
100
AcDbLine
 10
790.6979294361
 20
172.9408658816
 30
0.0
 11
829.6979294361
 21
172.9408658816
 31
0.0
  0
ARC
  5
1D2
330
1F
100
AcDbEntity
  8
0
  6
Continuous
 62
     7
100
AcDbCircle
 10
790.6979294361
 20
120.2522883411
 30
0.0
 40
12.68857754044943
100
AcDbArc
 50
90.0
 51
180.0
  0
LINE
  5
1D3
330
1F
100
AcDbEntity
  8
0
  6
Continuous
 62
     7
100
AcDbLine
 10
779.373715072
 20
120.2522883411
 30
0.0
 11
778.0093518956
 21
120.2522883411
 31
0.0
  0
LINE
  5
1D4
330
1F
100
AcDbEntity
  8
0
  6
Continuous
 62
     7
100
AcDbLine
 10
790.6979294361
 20
191.5765027052
 30
0.0
 11
790.6979294361
 21
192.9408658816
 31
0.0
  0
LINE
  5
1D5
330
1F
100
AcDbEntity
  8
0
  6
Continuous
 62
     7
100
AcDbLine
 10
790.6979294361
 20
192.9408658816
 30
0.0
 11
829.6979294361
 21
192.9408658816
 31
0.0
  0
ARC
  5
1D6
330
1F
100
AcDbEntity
  8
0
  6
Continuous
 62
     7
100
AcDbCircle
 10
790.6979294361
 20
140.2522883411
 30
0.0
 40
12.68857754044933
100
AcDbArc
 50
90.0
 51
180.0
  0
LINE
  5
1D7
330
1F
100
AcDbEntity
  8
0
  6
Continuous
 62
     7
100
AcDbLine
 10
779.373715072
 20
140.2522883411
 30
0.0
 11
778.0093518956
 21
140.2522883411
 31
0.0
  0
ARC
  5
1D8
330
1F
100
AcDbEntity
  8
0
  6
Continuous
 62
     7
100
AcDbCircle
 10
790.6979294361
 20
160.2522883411
 30
0.0
 40
12.6885775404493
100
AcDbArc
 50
90.0
 51
180.0
  0
LINE
  5
1D9
330
1F
100
AcDbEntity
  8
0
  6
Continuous
 62
     7
100
AcDbLine
 10
779.373715072
 20
160.2522883411
 30
0.0
 11
778.0093518956
 21
160.2522883411
 31
0.0
  0
ARC
  5
1DA
330
1F
100
AcDbEntity
  8
0
  6
Continuous
 62
     7
100
AcDbCircle
 10
790.6979294361
 20
180.2522883411
 30
0.0
 40
12.68857754044936
100
AcDbArc
 50
90.0
 51
180.0
  0
LINE
  5
1DB
330
1F
100
AcDbEntity
  8
0
  6
Continuous
 62
     7
100
AcDbLine
 10
779.373715072
 20
180.2522883411
 30
0.0
 11
778.0093518956
 21
180.2522883411
 31
0.0
  0
ARC
  5
1DC
330
1F
100
AcDbEntity
  8
0
  6
Continuous
 62
     7
100
AcDbCircle
 10
1207.4002476418
 20
146.6522883411
 30
0.0
 40
8.24264068711932
100
AcDbArc
 50
90.0
 51
270.0
  0
ARC
  5
1DD
330
1F
100
AcDbEntity
  8
0
  6
Continuous
 62
     7
100
AcDbCircle
 10
1207.4002476418
 20
146.6522883411
 30
0.0
 40
8.24264068711932
100
AcDbArc
 50
270.0
 51
90.0
  0
ARC
  5
1DE
330
1F
100
AcDbEntity
  8
0
  6
Continuous
 62
     7
100
AcDbCircle
 10
724.4002476418
 20
146.6522883411
 30
0.0
 40
8.242640687119405
100
AcDbArc
 50
90.0
 51
270.0
  0
ARC
  5
1DF
330
1F
100
AcDbEntity
  8
0
  6
Continuous
 62
     7
100
AcDbCircle
 10
724.4002476418
 20
146.6522883411
 30
0.0
 40
8.242640687119405
100
AcDbArc
 50
270.0
 51
90.0
  0
LINE
  5
1E0
330
1F
100
AcDbEntity
  8
0
  6
Continuous
 62
     7
100
AcDbLine
 10
1263.4002476418
 20
73.6522883411
 30
0.0
 11
668.4002476418
 21
73.6522883411
 31
0.0
  0
LINE
  5
1E1
330
1F
100
AcDbEntity
  8
0
  6
Continuous
 62
     7
100
AcDbLine
 10
668.4002476418
 20
73.6522883411
 30
0.0
 11
668.4002476418
 21
219.6522883411
 31
0.0
  0
LINE
  5
1E2
330
1F
100
AcDbEntity
  8
0
  6
Continuous
 62
     7
100
AcDbLine
 10
668.4002476418
 20
219.6522883411
 30
0.0
 11
1263.4002476418
 21
219.6522883411
 31
0.0
  0
LINE
  5
1E3
330
1F
100
AcDbEntity
  8
0
  6
Continuous
 62
     7
100
AcDbLine
 10
1263.4002476418
 20
219.6522883411
 30
0.0
 11
1263.4002476418
 21
73.6522883411
 31
0.0
  0
ARC
  5
1E4
330
1F
100
AcDbEntity
  8
0
  6
Continuous
 62
     7
100
AcDbCircle
 10
1207.4002476418
 20
146.6522883411
 30
0.0
 40
6.121320343559773
100
AcDbArc
 50
180.0
 51
270.0
  0
LINE
  5
1E5
330
1F
100
AcDbEntity
  8
0
  6
Continuous
 62
     7
100
AcDbLine
 10
1207.4002476418
 20
140.5309679976
 30
0.0
 11
1207.4002476418
 21
138.409647654
 31
0.0
  0
LINE
  5
1E6
330
1F
100
AcDbEntity
  8
0
  6
Continuous
 62
     7
100
AcDbLine
 10
1207.4002476418
 20
152.7736086847
 30
0.0
 11
1207.4002476418
 21
154.8949290283
 31
0.0
  0
ARC
  5
1E7
330
1F
100
AcDbEntity
  8
0
  6
Continuous
 62
     7
100
AcDbCircle
 10
1207.4002476418
 20
146.6522883411
 30
0.0
 40
6.121320343559773
100
AcDbArc
 50
90.0
 51
180.0
  0
ARC
  5
1E8
330
1F
100
AcDbEntity
  8
0
  6
Continuous
 62
     7
100
AcDbCircle
 10
1207.4002476418
 20
146.6522883411
 30
0.0
 40
6.121320343559773
100
AcDbArc
 50
270.0
 51
0.0
  0
ARC
  5
1E9
330
1F
100
AcDbEntity
  8
0
  6
Continuous
 62
     7
100
AcDbCircle
 10
1207.4002476418
 20
146.6522883411
 30
0.0
 40
6.121320343559773
100
AcDbArc
 50
0.0
 51
90.0
  0
ARC
  5
1EA
330
1F
100
AcDbEntity
  8
0
  6
Continuous
 62
     7
100
AcDbCircle
 10
724.4002476418
 20
146.6522883411
 30
0.0
 40
6.121320343559887
100
AcDbArc
 50
180.0
 51
270.0
  0
LINE
  5
1EB
330
1F
100
AcDbEntity
  8
0
  6
Continuous
 62
     7
100
AcDbLine
 10
724.4002476418
 20
140.5309679976
 30
0.0
 11
724.4002476418
 21
138.409647654
 31
0.0
  0
LINE
  5
1EC
330
1F
100
AcDbEntity
  8
0
  6
Continuous
 62
     7
100
AcDbLine
 10
724.4002476418
 20
152.7736086847
 30
0.0
 11
724.4002476418
 21
154.8949290283
 31
0.0
  0
ARC
  5
1ED
330
1F
100
AcDbEntity
  8
0
  6
Continuous
 62
     7
100
AcDbCircle
 10
724.4002476418
 20
146.6522883411
 30
0.0
 40
6.121320343559887
100
AcDbArc
 50
90.0
 51
180.0
  0
ARC
  5
1EE
330
1F
100
AcDbEntity
  8
0
  6
Continuous
 62
     7
100
AcDbCircle
 10
724.4002476418
 20
146.6522883411
 30
0.0
 40
6.121320343560228
100
AcDbArc
 50
270.0
 51
0.0
  0
ARC
  5
1EF
330
1F
100
AcDbEntity
  8
0
  6
Continuous
 62
     7
100
AcDbCircle
 10
724.4002476418
 20
146.6522883411
 30
0.0
 40
6.121320343560228
100
AcDbArc
 50
0.0
 51
90.0
  0
ARC
  5
1F0
330
1F
100
AcDbEntity
  8
0
  6
Continuous
 62
     7
100
AcDbCircle
 10
720.2291972841
 20
151.5119319992
 30
0.0
 40
4.154201555955886
100
AcDbArc
 50
310.6396160529
 51
326.6028955147
  0
ARC
  5
1F1
330
1F
100
AcDbEntity
  8
0
  6
Continuous
 62
     7
100
AcDbCircle
 10
720.2291972841
 20
151.5119319992
 30
0.0
 40
4.154201555955992
100
AcDbArc
 50
294.6763365912
 51
310.6396160529
  0
ARC
  5
1F2
330
1F
100
AcDbEntity
  8
0
  6
Continuous
 62
     7
100
AcDbCircle
 10
722.0887899997
 20
147.4644850961
 30
0.0
 40
0.3000000000004692
100
AcDbArc
 50
114.6763365912
 51
206.6028955147
  0
ARC
  5
1F3
330
1F
100
AcDbEntity
  8
0
  6
Continuous
 62
     7
100
AcDbCircle
 10
718.1061476018
 20
145.4698745999
 30
0.0
 40
4.154201555956171
100
AcDbArc
 50
354.6763365912
 51
26.6028955147
  0
ARC
  5
1F4
330
1F
100
AcDbEntity
  8
0
  6
Continuous
 62
     7
100
AcDbCircle
 10
722.5411357981
 20
145.0566056808
 30
0.0
 40
0.3000000000006436
100
AcDbArc
 50
174.6763365912
 51
266.6028955147
  0
ARC
  5
1F5
330
1F
100
AcDbEntity
  8
0
  6
Continuous
 62
     7
100
AcDbCircle
 10
726.7117052839
 20
145.8400915862
 30
0.0
 40
0.3000000000011575
100
AcDbArc
 50
294.6763365912
 51
310.639616053
  0
ARC
  5
1F6
330
1F
100
AcDbEntity
  8
0
  6
Continuous
 62
     7
100
AcDbCircle
 10
730.6943476818
 20
147.8347020824
 30
0.0
 40
4.154201555955663
100
AcDbArc
 50
174.6763365912
 51
206.6028955147
  0
ARC
  5
1F7
330
1F
100
AcDbEntity
  8
0
  6
Continuous
 62
     7
100
AcDbCircle
 10
726.5232973241
 20
152.6943457404
 30
0.0
 40
4.154201555956123
100
AcDbArc
 50
234.6763365912
 51
266.6028955147
  0
ARC
  5
1F8
330
1F
100
AcDbEntity
  8
0
  6
Continuous
 62
     7
100
AcDbCircle
 10
723.9479018434
 20
149.0601677565
 30
0.0
 40
0.3000000000008013
100
AcDbArc
 50
54.6763365912
 51
146.6028955147
  0
ARC
  5
1F9
330
1F
100
AcDbEntity
  8
0
  6
Continuous
 62
     7
100
AcDbCircle
 10
724.4002476418
 20
146.6522883411
 30
0.0
 40
5.400000000000563
100
AcDbArc
 50
310.6396160529
 51
130.6396160529
  0
ARC
  5
1FA
330
1F
100
AcDbEntity
  8
0
  6
Continuous
 62
     7
100
AcDbCircle
 10
728.5712979995
 20
141.7926446831
 30
0.0
 40
4.154201555956711
100
AcDbArc
 50
114.6763365912
 51
146.6028955147
  0
ARC
  5
1FB
330
1F
100
AcDbEntity
  8
0
  6
Continuous
 62
     7
100
AcDbCircle
 10
724.4002476418
 20
146.6522883411
 30
0.0
 40
5.400000000000563
100
AcDbArc
 50
130.6396160529
 51
310.6396160529
  0
ARC
  5
1FC
330
1F
100
AcDbEntity
  8
0
  6
Continuous
 62
     7
100
AcDbCircle
 10
724.8525934402
 20
144.2444089258
 30
0.0
 40
0.3000000000006439
100
AcDbArc
 50
310.6396160529
 51
326.6028955147
  0
ARC
  5
1FD
330
1F
100
AcDbEntity
  8
0
  6
Continuous
 62
     7
100
AcDbCircle
 10
726.2593594855
 20
148.2479710015
 30
0.0
 40
0.3000000000006172
100
AcDbArc
 50
354.6763365912
 51
86.6028955146
  0
ARC
  5
1FE
330
1F
100
AcDbEntity
  8
0
  6
Continuous
 62
     7
100
AcDbCircle
 10
726.7117052839
 20
145.8400915862
 30
0.0
 40
0.3000000000012449
100
AcDbArc
 50
310.639616053
 51
26.6028955146
  0
ARC
  5
1FF
330
1F
100
AcDbEntity
  8
0
  6
Continuous
 62
     7
100
AcDbCircle
 10
724.8525934402
 20
144.2444089258
 30
0.0
 40
0.3000000000005744
100
AcDbArc
 50
234.6763365912
 51
310.6396160529
  0
ARC
  5
200
330
1F
100
AcDbEntity
  8
0
  6
Continuous
 62
     7
100
AcDbCircle
 10
722.2771979595
 20
140.6102309419
 30
0.0
 40
4.154201555956142
100
AcDbArc
 50
54.6763365912
 51
86.6028955147
  0
ARC
  5
201
330
1F
100
AcDbEntity
  8
0
  6
Continuous
 62
     7
100
AcDbCircle
 10
1203.2291972841
 20
141.7926446831
 30
0.0
 40
4.154201555956136
100
AcDbArc
 50
49.3603839471
 51
65.3236634088
  0
ARC
  5
202
330
1F
100
AcDbEntity
  8
0
  6
Continuous
 62
     7
100
AcDbCircle
 10
1203.2291972841
 20
141.7926446831
 30
0.0
 40
4.154201555956328
100
AcDbArc
 50
33.3971044853
 51
49.3603839471
  0
ARC
  5
203
330
1F
100
AcDbEntity
  8
0
  6
Continuous
 62
     7
100
AcDbCircle
 10
1206.9479018434
 20
144.2444089258
 30
0.0
 40
0.3000000000005899
100
AcDbArc
 50
213.3971044854
 51
305.3236634088
  0
ARC
  5
204
330
1F
100
AcDbEntity
  8
0
  6
Continuous
 62
     7
100
AcDbCircle
 10
1207.8525934402
 20
149.0601677565
 30
0.0
 40
0.3000000000006115
100
AcDbArc
 50
33.3971044853
 51
49.3603839471
  0
ARC
  5
205
330
1F
100
AcDbEntity
  8
0
  6
Continuous
 62
     7
100
AcDbCircle
 10
1207.8525934402
 20
149.0601677565
 30
0.0
 40
0.3000000000006363
100
AcDbArc
 50
49.3603839471
 51
125.3236634088
  0
ARC
  5
206
330
1F
100
AcDbEntity
  8
0
  6
Continuous
 62
     7
100
AcDbCircle
 10
1205.2771979595
 20
152.6943457404
 30
0.0
 40
4.154201555956039
100
AcDbArc
 50
273.3971044853
 51
305.3236634088
  0
ARC
  5
207
330
1F
100
AcDbEntity
  8
0
  6
Continuous
 62
     7
100
AcDbCircle
 10
1205.5411357981
 20
148.2479710015
 30
0.0
 40
0.300000000000304
100
AcDbArc
 50
93.3971044854
 51
185.3236634088
  0
ARC
  5
208
330
1F
100
AcDbEntity
  8
0
  6
Continuous
 62
     7
100
AcDbCircle
 10
1201.1061476018
 20
147.8347020824
 30
0.0
 40
4.154201555956121
100
AcDbArc
 50
333.3971044853
 51
5.3236634088
  0
ARC
  5
209
330
1F
100
AcDbEntity
  8
0
  6
Continuous
 62
     7
100
AcDbCircle
 10
1205.0887899997
 20
145.8400915862
 30
0.0
 40
0.3000000000007239
100
AcDbArc
 50
153.3971044853
 51
245.3236634088
  0
ARC
  5
20A
330
1F
100
AcDbEntity
  8
0
  6
Continuous
 62
     7
100
AcDbCircle
 10
1207.4002476418
 20
146.6522883411
 30
0.0
 40
5.400000000000041
100
AcDbArc
 50
229.3603839471
 51
49.3603839471
  0
ARC
  5
20B
330
1F
100
AcDbEntity
  8
0
  6
Continuous
 62
     7
100
AcDbCircle
 10
1207.4002476418
 20
146.6522883411
 30
0.0
 40
5.400000000000041
100
AcDbArc
 50
49.3603839471
 51
229.3603839471
  0
ARC
  5
20C
330
1F
100
AcDbEntity
  8
0
  6
Continuous
 62
     7
100
AcDbCircle
 10
1209.2593594855
 20
145.0566056808
 30
0.0
 40
0.3000000000004978
100
AcDbArc
 50
273.3971044853
 51
5.3236634089
  0
ARC
  5
20D
330
1F
100
AcDbEntity
  8
0
  6
Continuous
 62
     7
100
AcDbCircle
 10
1209.7117052839
 20
147.4644850961
 30
0.0
 40
0.3000000000007133
100
AcDbArc
 50
49.3603839471
 51
65.3236634088
  0
ARC
  5
20E
330
1F
100
AcDbEntity
  8
0
  6
Continuous
 62
     7
100
AcDbCircle
 10
1209.7117052839
 20
147.4644850961
 30
0.0
 40
0.3000000000008635
100
AcDbArc
 50
333.3971044854
 51
49.3603839471
  0
ARC
  5
20F
330
1F
100
AcDbEntity
  8
0
  6
Continuous
 62
     7
100
AcDbCircle
 10
1209.5232973241
 20
140.6102309419
 30
0.0
 40
4.15420155595627
100
AcDbArc
 50
93.3971044853
 51
125.3236634088
  0
ARC
  5
210
330
1F
100
AcDbEntity
  8
0
  6
Continuous
 62
     7
100
AcDbCircle
 10
1213.6943476818
 20
145.4698745999
 30
0.0
 40
4.154201555956087
100
AcDbArc
 50
153.3971044853
 51
185.3236634088
  0
ARC
  5
211
330
1F
100
AcDbEntity
  8
0
  6
Continuous
 62
     7
100
AcDbCircle
 10
1211.5712979995
 20
151.5119319992
 30
0.0
 40
4.154201555956328
100
AcDbArc
 50
213.3971044853
 51
245.3236634088
  0
LINE
  5
212
330
1F
100
AcDbEntity
  8
0
  6
Continuous
 62
     7
100
AcDbLine
 10
1212.8002476418
 20
146.6522883411
 30
0.0
 11
1213.5215679853
 21
146.6522883411
 31
0.0
  0
LINE
  5
213
330
1F
100
AcDbEntity
  8
0
  6
Continuous
 62
     7
100
AcDbLine
 10
1202.0002476418
 20
146.6522883411
 30
0.0
 11
1201.2789272982
 21
146.6522883411
 31
0.0
  0
LINE
  5
214
330
1F
100
AcDbEntity
  8
0
  6
Continuous
 62
     7
100
AcDbLine
 10
729.8002476418
 20
146.6522883411
 30
0.0
 11
730.5215679853
 21
146.6522883411
 31
0.0
  0
LINE
  5
215
330
1F
100
AcDbEntity
  8
0
  6
Continuous
 62
     7
100
AcDbLine
 10
719.0002476418
 20
146.6522883411
 30
0.0
 11
718.2789272982
 21
146.6522883411
 31
0.0
  0
LINE
  5
216
330
1F
100
AcDbEntity
  8
0
  6
Continuous
 62
     7
100
AcDbLine
 10
621.05690869
 20
192.1522883411
 30
0.0
 11
620.55690869
 21
192.6522883411
 31
0.0
  0
LINE
  5
217
330
1F
100
AcDbEntity
  8
0
  6
Continuous
 62
     7
100
AcDbLine
 10
620.55690869
 20
192.6522883411
 30
0.0
 11
615.05690869
 21
192.6522883411
 31
0.0
  0
LINE
  5
218
330
1F
100
AcDbEntity
  8
0
  6
Continuous
 62
     7
100
AcDbLine
 10
615.05690869
 20
186.6522883411
 30
0.0
 11
620.55690869
 21
186.6522883411
 31
0.0
  0
LINE
  5
219
330
1F
100
AcDbEntity
  8
0
  6
Continuous
 62
     7
100
AcDbLine
 10
620.55690869
 20
186.6522883411
 30
0.0
 11
621.05690869
 21
187.1522883411
 31
0.0
  0
LINE
  5
21A
330
1F
100
AcDbEntity
  8
0
  6
Continuous
 62
     7
100
AcDbLine
 10
615.05690869
 20
73.6522883411
 30
0.0
 11
615.05690869
 21
219.6522883411
 31
0.0
  0
LINE
  5
21B
330
1F
100
AcDbEntity
  8
0
  6
Continuous
 62
     7
100
AcDbLine
 10
602.55690869
 20
73.6522883411
 30
0.0
 11
615.05690869
 21
73.6522883411
 31
0.0
  0
LINE
  5
21C
330
1F
100
AcDbEntity
  8
0
  6
Continuous
 62
     7
100
AcDbLine
 10
602.55690869
 20
219.6522883411
 30
0.0
 11
602.55690869
 21
73.6522883411
 31
0.0
  0
LINE
  5
21D
330
1F
100
AcDbEntity
  8
0
  6
Continuous
 62
     7
100
AcDbLine
 10
602.55690869
 20
219.6522883411
 30
0.0
 11
615.05690869
 21
219.6522883411
 31
0.0
  0
ARC
  5
21E
330
1F
100
AcDbEntity
  8
0
  6
Continuous
 62
     7
100
AcDbCircle
 10
633.15690869
 20
146.6522883411
 30
0.0
 40
3.000000000000008
100
AcDbArc
 50
8.8147129304
 51
188.8147129304
  0
LINE
  5
21F
330
1F
100
AcDbEntity
  8
0
  6
Continuous
 62
     7
100
AcDbLine
 10
635.6273813494
 20
147.0353873349
 30
0.0
 11
636.1214758813
 21
147.1120071336
 31
0.0
  0
ARC
  5
220
330
1F
100
AcDbEntity
  8
0
  6
Continuous
 62
     7
100
AcDbCircle
 10
633.15690869
 20
146.6522883411
 30
0.0
 40
2.500000000000016
100
AcDbArc
 50
8.8147129304
 51
188.8147129304
  0
LINE
  5
221
330
1F
100
AcDbEntity
  8
0
  6
Continuous
 62
     7
100
AcDbLine
 10
630.6864360305
 20
146.2691893474
 30
0.0
 11
630.1923414986
 21
146.1925695487
 31
0.0
  0
ARC
  5
222
330
1F
100
AcDbEntity
  8
0
  6
Continuous
 62
     7
100
AcDbCircle
 10
633.15690869
 20
146.6522883411
 30
0.0
 40
2.500000000000016
100
AcDbArc
 50
188.8147129304
 51
8.8147129304
  0
ARC
  5
223
330
1F
100
AcDbEntity
  8
0
  6
Continuous
 62
     7
100
AcDbCircle
 10
633.15690869
 20
146.6522883411
 30
0.0
 40
3.000000000000008
100
AcDbArc
 50
188.8147129304
 51
8.8147129304
  0
LINE
  5
224
330
1F
100
AcDbEntity
  8
0
  6
Continuous
 62
     7
100
AcDbLine
 10
625.05690869
 20
138.9865951785
 30
0.0
 11
625.05690869
 21
139.1522883411
 31
0.0
  0
LINE
  5
225
330
1F
100
AcDbEntity
  8
0
  6
Continuous
 62
     7
100
AcDbLine
 10
625.05690869
 20
139.1522883411
 30
0.0
 11
641.05690869
 21
139.1522883411
 31
0.0
  0
LINE
  5
226
330
1F
100
AcDbEntity
  8
0
  6
Continuous
 62
     7
100
AcDbLine
 10
641.05690869
 20
138.9865951785
 30
0.0
 11
641.05690869
 21
139.1522883411
 31
0.0
  0
LINE
  5
227
330
1F
100
AcDbEntity
  8
0
  6
Continuous
 62
     7
100
AcDbLine
 10
641.05690869
 20
138.9865951785
 30
0.0
 11
641.05690869
 21
133.8455189417
 31
0.0
  0
ARC
  5
228
330
1F
100
AcDbEntity
  8
0
  6
Continuous
 62
     7
100
AcDbCircle
 10
639.1153975792
 20
133.9077615175
 30
0.0
 40
1.942508566655413
100
AcDbArc
 50
268.2745645851
 51
358.1637932023
  0
LINE
  5
229
330
1F
100
AcDbEntity
  8
0
  6
Continuous
 62
     7
100
AcDbLine
 10
639.05690869
 20
131.9661337001
 30
0.0
 11
627.05690869
 21
131.9661337001
 31
0.0
  0
ARC
  5
22A
330
1F
100
AcDbEntity
  8
0
  6
Continuous
 62
     7
100
AcDbCircle
 10
626.9984198007
 20
133.9077615175
 30
0.0
 40
1.942508566655125
100
AcDbArc
 50
181.8362067977
 51
271.7254354149
  0
LINE
  5
22B
330
1F
100
AcDbEntity
  8
0
  6
Continuous
 62
     7
100
AcDbLine
 10
625.05690869
 20
133.8455189417
 30
0.0
 11
625.05690869
 21
138.9865951785
 31
0.0
  0
LINE
  5
22C
330
1F
100
AcDbEntity
  8
0
  6
Continuous
 62
     7
100
AcDbLine
 10
639.05690869
 20
131.2820934134
 30
0.0
 11
639.05690869
 21
131.9661337001
 31
0.0
  0
LINE
  5
22D
330
1F
100
AcDbEntity
  8
0
  6
Continuous
 62
     7
100
AcDbLine
 10
641.05690869
 20
133.8455189417
 30
0.0
 11
641.05690869
 21
133.161478655
 31
0.0
  0
ARC
  5
22E
330
1F
100
AcDbEntity
  8
0
  6
Continuous
 62
     7
100
AcDbCircle
 10
639.1153975792
 20
133.2237212309
 30
0.0
 40
1.942508566655357
100
AcDbArc
 50
268.2745645851
 51
358.1637932023
  0
LINE
  5
22F
330
1F
100
AcDbEntity
  8
0
  6
Continuous
 62
     7
100
AcDbLine
 10
639.05690869
 20
131.2820934134
 30
0.0
 11
627.05690869
 21
131.2820934134
 31
0.0
  0
LINE
  5
230
330
1F
100
AcDbEntity
  8
0
  6
Continuous
 62
     7
100
AcDbLine
 10
627.05690869
 20
131.9661337001
 30
0.0
 11
627.05690869
 21
131.2820934134
 31
0.0
  0
LINE
  5
231
330
1F
100
AcDbEntity
  8
0
  6
Continuous
 62
     7
100
AcDbLine
 10
625.05690869
 20
133.161478655
 30
0.0
 11
625.05690869
 21
133.8455189417
 31
0.0
  0
ARC
  5
232
330
1F
100
AcDbEntity
  8
0
  6
Continuous
 62
     7
100
AcDbCircle
 10
626.9984198007
 20
133.2237212309
 30
0.0
 40
1.942508566655243
100
AcDbArc
 50
181.8362067977
 51
271.7254354149
  0
ARC
  5
233
330
1F
100
AcDbEntity
  8
0
  6
Continuous
 62
     7
100
AcDbCircle
 10
633.15690869
 20
146.6522883411
 30
0.0
 40
3.5
100
AcDbArc
 50
0.0
 51
180.0
  0
ARC
  5
234
330
1F
100
AcDbEntity
  8
0
  6
Continuous
 62
     7
100
AcDbCircle
 10
633.15690869
 20
146.6522883411
 30
0.0
 40
3.5
100
AcDbArc
 50
180.0
 51
0.0
  0
LINE
  5
235
330
1F
100
AcDbEntity
  8
0
  6
Continuous
 62
     7
100
AcDbLine
 10
639.05690869
 20
154.1522883411
 30
0.0
 11
615.05690869
 21
154.1522883411
 31
0.0
  0
LINE
  5
236
330
1F
100
AcDbEntity
  8
0
  6
Continuous
 62
     7
100
AcDbLine
 10
615.05690869
 20
139.1522883411
 30
0.0
 11
625.05690869
 21
139.1522883411
 31
0.0
  0
LINE
  5
237
330
1F
100
AcDbEntity
  8
0
  6
Continuous
 62
     7
100
AcDbLine
 10
641.05690869
 20
139.3286153219
 30
0.0
 11
641.05690869
 21
152.1522883411
 31
0.0
  0
ARC
  5
238
330
1F
100
AcDbEntity
  8
0
  6
Continuous
 62
     7
100
AcDbCircle
 10
639.05690869
 20
152.1522883411
 30
0.0
 40
2.0
100
AcDbArc
 50
0.0
 51
90.0
  0
LINE
  5
239
330
1F
100
AcDbEntity
  8
0
  6
Continuous
 62
     7
100
AcDbLine
 10
641.05690869
 20
139.3286153219
 30
0.0
 11
641.05690869
 21
139.1522883411
 31
0.0
  0
LINE
  5
23A
330
1F
100
AcDbEntity
  8
0
  6
Continuous
 62
     7
100
AcDbLine
 10
602.0192742814
 20
100.2522883411
 30
0.0
 11
602.0192742814
 21
111.5765027052
 31
0.0
  0
ARC
  5
23B
330
1F
100
AcDbEntity
  8
0
  6
Continuous
 62
     7
100
AcDbCircle
 10
600.55690869
 20
112.9408658816
 30
0.0
 40
2.000000000000138
100
AcDbArc
 50
316.9856438472
 51
0.0
  0
LINE
  5
23C
330
1F
100
AcDbEntity
  8
0
  6
Continuous
 62
     7
100
AcDbLine
 10
602.55690869
 20
100.2522883411
 30
0.0
 11
602.0192742814
 21
100.2522883411
 31
0.0
  0
LINE
  5
23D
330
1F
100
AcDbEntity
  8
0
  6
Continuous
 62
     7
100
AcDbLine
 10
602.0192742814
 20
140.2522883411
 30
0.0
 11
602.0192742814
 21
151.5765027052
 31
0.0
  0
ARC
  5
23E
330
1F
100
AcDbEntity
  8
0
  6
Continuous
 62
     7
100
AcDbCircle
 10
600.55690869
 20
152.9408658816
 30
0.0
 40
2.000000000000012
100
AcDbArc
 50
316.9856438472
 51
0.0
  0
LINE
  5
23F
330
1F
100
AcDbEntity
  8
0
  6
Continuous
 62
     7
100
AcDbLine
 10
602.55690869
 20
140.2522883411
 30
0.0
 11
602.0192742814
 21
140.2522883411
 31
0.0
  0
LINE
  5
240
330
1F
100
AcDbEntity
  8
0
  6
Continuous
 62
     7
100
AcDbLine
 10
602.0192742814
 20
120.2522883411
 30
0.0
 11
602.0192742814
 21
131.5765027052
 31
0.0
  0
ARC
  5
241
330
1F
100
AcDbEntity
  8
0
  6
Continuous
 62
     7
100
AcDbCircle
 10
600.55690869
 20
132.9408658816
 30
0.0
 40
2.0
100
AcDbArc
 50
316.9856438472
 51
0.0
  0
LINE
  5
242
330
1F
100
AcDbEntity
  8
0
  6
Continuous
 62
     7
100
AcDbLine
 10
602.55690869
 20
120.2522883411
 30
0.0
 11
602.0192742814
 21
120.2522883411
 31
0.0
  0
LINE
  5
243
330
1F
100
AcDbEntity
  8
0
  6
Continuous
 62
     7
100
AcDbLine
 10
602.0192742814
 20
160.2522883411
 30
0.0
 11
602.0192742814
 21
171.5765027052
 31
0.0
  0
ARC
  5
244
330
1F
100
AcDbEntity
  8
0
  6
Continuous
 62
     7
100
AcDbCircle
 10
600.55690869
 20
172.9408658816
 30
0.0
 40
2.000000000000012
100
AcDbArc
 50
316.9856438472
 51
0.0
  0
LINE
  5
245
330
1F
100
AcDbEntity
  8
0
  6
Continuous
 62
     7
100
AcDbLine
 10
602.55690869
 20
160.2522883411
 30
0.0
 11
602.0192742814
 21
160.2522883411
 31
0.0
  0
LINE
  5
246
330
1F
100
AcDbEntity
  8
0
  6
Continuous
 62
     7
100
AcDbLine
 10
602.0192742814
 20
180.2522883411
 30
0.0
 11
602.0192742814
 21
191.5765027052
 31
0.0
  0
ARC
  5
247
330
1F
100
AcDbEntity
  8
0
  6
Continuous
 62
     7
100
AcDbCircle
 10
600.55690869
 20
192.9408658816
 30
0.0
 40
2.0
100
AcDbArc
 50
316.9856438472
 51
0.0
  0
LINE
  5
248
330
1F
100
AcDbEntity
  8
0
  6
Continuous
 62
     7
100
AcDbLine
 10
602.55690869
 20
180.2522883411
 30
0.0
 11
602.0192742814
 21
180.2522883411
 31
0.0
  0
ARC
  5
249
330
1F
100
AcDbEntity
  8
0
  6
Continuous
 62
     7
100
AcDbCircle
 10
614.15690869
 20
120.2522883411
 30
0.0
 40
16.60000000000014
100
AcDbArc
 50
136.9856438472
 51
180.0
  0
LINE
  5
24A
330
1F
100
AcDbEntity
  8
0
  6
Continuous
 62
     7
100
AcDbLine
 10
602.0192742814
 20
120.2522883411
 30
0.0
 11
597.55690869
 21
120.2522883411
 31
0.0
  0
ARC
  5
24B
330
1F
100
AcDbEntity
  8
0
  6
Continuous
 62
     7
100
AcDbCircle
 10
614.15690869
 20
160.2522883411
 30
0.0
 40
16.60000000000002
100
AcDbArc
 50
136.9856438472
 51
180.0
  0
LINE
  5
24C
330
1F
100
AcDbEntity
  8
0
  6
Continuous
 62
     7
100
AcDbLine
 10
602.0192742814
 20
160.2522883411
 30
0.0
 11
597.55690869
 21
160.2522883411
 31
0.0
  0
ARC
  5
24D
330
1F
100
AcDbEntity
  8
0
  6
Continuous
 62
     7
100
AcDbCircle
 10
614.15690869
 20
140.2522883411
 30
0.0
 40
16.60000000000014
100
AcDbArc
 50
136.9856438472
 51
180.0
  0
LINE
  5
24E
330
1F
100
AcDbEntity
  8
0
  6
Continuous
 62
     7
100
AcDbLine
 10
602.0192742814
 20
140.2522883411
 30
0.0
 11
597.55690869
 21
140.2522883411
 31
0.0
  0
ARC
  5
24F
330
1F
100
AcDbEntity
  8
0
  6
Continuous
 62
     7
100
AcDbCircle
 10
614.15690869
 20
180.2522883411
 30
0.0
 40
16.60000000000014
100
AcDbArc
 50
136.9856438472
 51
180.0
  0
LINE
  5
250
330
1F
100
AcDbEntity
  8
0
  6
Continuous
 62
     7
100
AcDbLine
 10
602.0192742814
 20
180.2522883411
 30
0.0
 11
597.55690869
 21
180.2522883411
 31
0.0
  0
ARC
  5
251
330
1F
100
AcDbEntity
  8
0
  6
Continuous
 62
     7
100
AcDbCircle
 10
614.15690869
 20
100.2522883411
 30
0.0
 40
16.60000000000002
100
AcDbArc
 50
136.9856438472
 51
180.0
  0
LINE
  5
252
330
1F
100
AcDbEntity
  8
0
  6
Continuous
 62
     7
100
AcDbLine
 10
602.0192742814
 20
100.2522883411
 30
0.0
 11
597.55690869
 21
100.2522883411
 31
0.0
  0
LINE
  5
253
330
1F
100
AcDbEntity
  8
0
  6
Continuous
 62
     7
100
AcDbLine
 10
620.55690869
 20
186.693549102
 30
0.0
 11
620.55690869
 21
192.6522883411
 31
0.0
  0
LINE
  5
254
330
1F
100
AcDbEntity
  8
0
  6
Continuous
 62
     7
100
AcDbLine
 10
621.05690869
 20
192.1522883411
 30
0.0
 11
621.05690869
 21
187.1866723085
 31
0.0
  0
LINE
  5
255
330
1F
100
AcDbEntity
  8
0
  6
Continuous
 62
     7
100
AcDbLine
 10
621.05690869
 20
187.1866723085
 30
0.0
 11
620.55690869
 21
186.693549102
 31
0.0
  0
LINE
  5
256
330
1F
100
AcDbEntity
  8
0
  6
Continuous
 62
     7
100
AcDbLine
 10
620.55690869
 20
186.6522883411
 30
0.0
 11
620.55690869
 21
186.693549102
 31
0.0
  0
LINE
  5
257
330
1F
100
AcDbEntity
  8
0
  6
Continuous
 62
     7
100
AcDbLine
 10
621.05690869
 20
187.1866723085
 30
0.0
 11
621.05690869
 21
187.1522883411
 31
0.0
  0
LINE
  5
258
330
1F
100
AcDbEntity
  8
0
  6
Continuous
 62
     7
100
AcDbLine
 10
620.55690869
 20
186.693549102
 30
0.0
 11
615.05690869
 21
186.693549102
 31
0.0
  0
LINE
  5
259
330
1F
100
AcDbEntity
  8
0
  6
Continuous
 62
     7
100
AcDbLine
 10
1318.7782243969
 20
186.6522883411
 30
0.0
 11
1324.2782243969
 21
186.6522883411
 31
0.0
  0
LINE
  5
25A
330
1F
100
AcDbEntity
  8
0
  6
Continuous
 62
     7
100
AcDbLine
 10
1318.2782243969
 20
187.1522883411
 30
0.0
 11
1318.7782243969
 21
186.6522883411
 31
0.0
  0
LINE
  5
25B
330
1F
100
AcDbEntity
  8
0
  6
Continuous
 62
     7
100
AcDbLine
 10
1318.7782243969
 20
192.6522883411
 30
0.0
 11
1318.2782243969
 21
192.1522883411
 31
0.0
  0
LINE
  5
25C
330
1F
100
AcDbEntity
  8
0
  6
Continuous
 62
     7
100
AcDbLine
 10
1324.2782243969
 20
192.6522883411
 30
0.0
 11
1318.7782243969
 21
192.6522883411
 31
0.0
  0
LINE
  5
25D
330
1F
100
AcDbEntity
  8
0
  6
Continuous
 62
     7
100
AcDbLine
 10
1336.7782243969
 20
73.6522883411
 30
0.0
 11
1324.2782243969
 21
73.6522883411
 31
0.0
  0
LINE
  5
25E
330
1F
100
AcDbEntity
  8
0
  6
Continuous
 62
     7
100
AcDbLine
 10
1324.2782243969
 20
219.6522883411
 30
0.0
 11
1324.2782243969
 21
73.6522883411
 31
0.0
  0
LINE
  5
25F
330
1F
100
AcDbEntity
  8
0
  6
Continuous
 62
     7
100
AcDbLine
 10
1336.7782243969
 20
219.6522883411
 30
0.0
 11
1324.2782243969
 21
219.6522883411
 31
0.0
  0
LINE
  5
260
330
1F
100
AcDbEntity
  8
0
  6
Continuous
 62
     7
100
AcDbLine
 10
1336.7782243969
 20
73.6522883411
 30
0.0
 11
1336.7782243969
 21
219.6522883411
 31
0.0
  0
ARC
  5
261
330
1F
100
AcDbEntity
  8
0
  6
Continuous
 62
     7
100
AcDbCircle
 10
1306.1782243969
 20
146.6522883412
 30
0.0
 40
2.500000000000109
100
AcDbArc
 50
177.1910593368
 51
357.1910593368
  0
ARC
  5
262
330
1F
100
AcDbEntity
  8
0
  6
Continuous
 62
     7
100
AcDbCircle
 10
1306.1782243969
 20
146.6522883412
 30
0.0
 40
2.500000000000109
100
AcDbArc
 50
357.1910593368
 51
177.1910593368
  0
ARC
  5
263
330
1F
100
AcDbEntity
  8
0
  6
Continuous
 62
     7
100
AcDbCircle
 10
1306.1782243969
 20
146.6522883412
 30
0.0
 40
2.999999999999956
100
AcDbArc
 50
357.1910593367
 51
177.1910593368
  0
LINE
  5
264
330
1F
100
AcDbEntity
  8
0
  6
Continuous
 62
     7
100
AcDbLine
 10
1308.6752206531
 20
146.5297742739
 30
0.0
 11
1309.1746199043
 21
146.5052714604
 31
0.0
  0
LINE
  5
265
330
1F
100
AcDbEntity
  8
0
  6
Continuous
 62
     7
100
AcDbLine
 10
1303.6812281407
 20
146.7748024084
 30
0.0
 11
1303.1818288895
 21
146.7993052219
 31
0.0
  0
ARC
  5
266
330
1F
100
AcDbEntity
  8
0
  6
Continuous
 62
     7
100
AcDbCircle
 10
1306.1782243969
 20
146.6522883412
 30
0.0
 40
2.999999999999956
100
AcDbArc
 50
177.1910593368
 51
357.1910593367
  0
LINE
  5
267
330
1F
100
AcDbEntity
  8
0
  6
Continuous
 62
     7
100
AcDbLine
 10
1312.2782243969
 20
131.2820934134
 30
0.0
 11
1312.2782243969
 21
131.9661337001
 31
0.0
  0
ARC
  5
268
330
1F
100
AcDbEntity
  8
0
  6
Continuous
 62
     7
100
AcDbCircle
 10
1312.3367132861
 20
133.9077615175
 30
0.0
 40
1.94250856665536
100
AcDbArc
 50
268.2745645851
 51
358.1637932023
  0
LINE
  5
269
330
1F
100
AcDbEntity
  8
0
  6
Continuous
 62
     7
100
AcDbLine
 10
1314.2782243969
 20
133.8455189417
 30
0.0
 11
1314.2782243969
 21
133.161478655
 31
0.0
  0
ARC
  5
26A
330
1F
100
AcDbEntity
  8
0
  6
Continuous
 62
     7
100
AcDbCircle
 10
1312.3367132861
 20
133.2237212309
 30
0.0
 40
1.942508566655524
100
AcDbArc
 50
268.2745645851
 51
358.1637932023
  0
ARC
  5
26B
330
1F
100
AcDbEntity
  8
0
  6
Continuous
 62
     7
100
AcDbCircle
 10
1300.2197355077
 20
133.9077615175
 30
0.0
 40
1.942508566655438
100
AcDbArc
 50
181.8362067977
 51
271.7254354149
  0
LINE
  5
26C
330
1F
100
AcDbEntity
  8
0
  6
Continuous
 62
     7
100
AcDbLine
 10
1298.2782243969
 20
133.8455189417
 30
0.0
 11
1298.2782243969
 21
138.9865951785
 31
0.0
  0
LINE
  5
26D
330
1F
100
AcDbEntity
  8
0
  6
Continuous
 62
     7
100
AcDbLine
 10
1298.2782243969
 20
138.9865951785
 30
0.0
 11
1298.2782243969
 21
139.1522883411
 31
0.0
  0
LINE
  5
26E
330
1F
100
AcDbEntity
  8
0
  6
Continuous
 62
     7
100
AcDbLine
 10
1298.2782243969
 20
139.1522883411
 30
0.0
 11
1314.2782243969
 21
139.1522883411
 31
0.0
  0
LINE
  5
26F
330
1F
100
AcDbEntity
  8
0
  6
Continuous
 62
     7
100
AcDbLine
 10
1314.2782243969
 20
138.9865951785
 30
0.0
 11
1314.2782243969
 21
139.1522883411
 31
0.0
  0
LINE
  5
270
330
1F
100
AcDbEntity
  8
0
  6
Continuous
 62
     7
100
AcDbLine
 10
1314.2782243969
 20
138.9865951785
 30
0.0
 11
1314.2782243969
 21
133.8455189417
 31
0.0
  0
LINE
  5
271
330
1F
100
AcDbEntity
  8
0
  6
Continuous
 62
     7
100
AcDbLine
 10
1312.2782243969
 20
131.9661337001
 30
0.0
 11
1300.2782243969
 21
131.9661337001
 31
0.0
  0
LINE
  5
272
330
1F
100
AcDbEntity
  8
0
  6
Continuous
 62
     7
100
AcDbLine
 10
1298.2782243969
 20
133.161478655
 30
0.0
 11
1298.2782243969
 21
133.8455189417
 31
0.0
  0
LINE
  5
273
330
1F
100
AcDbEntity
  8
0
  6
Continuous
 62
     7
100
AcDbLine
 10
1300.2782243969
 20
131.9661337001
 30
0.0
 11
1300.2782243969
 21
131.2820934134
 31
0.0
  0
ARC
  5
274
330
1F
100
AcDbEntity
  8
0
  6
Continuous
 62
     7
100
AcDbCircle
 10
1300.2197355077
 20
133.2237212309
 30
0.0
 40
1.942508566655524
100
AcDbArc
 50
181.8362067977
 51
271.7254354149
  0
LINE
  5
275
330
1F
100
AcDbEntity
  8
0
  6
Continuous
 62
     7
100
AcDbLine
 10
1312.2782243969
 20
131.2820934134
 30
0.0
 11
1300.2782243969
 21
131.2820934134
 31
0.0
  0
ARC
  5
276
330
1F
100
AcDbEntity
  8
0
  6
Continuous
 62
     7
100
AcDbCircle
 10
1300.2782243969
 20
152.1522883411
 30
0.0
 40
2.0
100
AcDbArc
 50
90.0
 51
180.0
  0
LINE
  5
277
330
1F
100
AcDbEntity
  8
0
  6
Continuous
 62
     7
100
AcDbLine
 10
1324.2782243969
 20
154.1522883411
 30
0.0
 11
1300.2782243969
 21
154.1522883411
 31
0.0
  0
LINE
  5
278
330
1F
100
AcDbEntity
  8
0
  6
Continuous
 62
     7
100
AcDbLine
 10
1298.2782243969
 20
152.1522883411
 30
0.0
 11
1298.2782243969
 21
139.3286153219
 31
0.0
  0
ARC
  5
279
330
1F
100
AcDbEntity
  8
0
  6
Continuous
 62
     7
100
AcDbCircle
 10
1306.1782243969
 20
146.6522883411
 30
0.0
 40
3.500000000000227
100
AcDbArc
 50
180.0
 51
0.0
  0
ARC
  5
27A
330
1F
100
AcDbEntity
  8
0
  6
Continuous
 62
     7
100
AcDbCircle
 10
1306.1782243969
 20
146.6522883411
 30
0.0
 40
3.500000000000227
100
AcDbArc
 50
0.0
 51
180.0
  0
LINE
  5
27B
330
1F
100
AcDbEntity
  8
0
  6
Continuous
 62
     7
100
AcDbLine
 10
1314.2782243969
 20
139.1522883411
 30
0.0
 11
1324.2782243969
 21
139.1522883411
 31
0.0
  0
LINE
  5
27C
330
1F
100
AcDbEntity
  8
0
  6
Continuous
 62
     7
100
AcDbLine
 10
1298.2782243969
 20
139.3286153219
 30
0.0
 11
1298.2782243969
 21
139.1522883411
 31
0.0
  0
LINE
  5
27D
330
1F
100
AcDbEntity
  8
0
  6
Continuous
 62
     7
100
AcDbLine
 10
1318.7782243969
 20
192.6110275803
 30
0.0
 11
1318.7782243969
 21
186.6522883411
 31
0.0
  0
LINE
  5
27E
330
1F
100
AcDbEntity
  8
0
  6
Continuous
 62
     7
100
AcDbLine
 10
1318.2782243969
 20
192.1179043738
 30
0.0
 11
1318.7782243969
 21
192.6110275803
 31
0.0
  0
LINE
  5
27F
330
1F
100
AcDbEntity
  8
0
  6
Continuous
 62
     7
100
AcDbLine
 10
1318.2782243969
 20
187.1522883411
 30
0.0
 11
1318.2782243969
 21
192.1179043738
 31
0.0
  0
LINE
  5
280
330
1F
100
AcDbEntity
  8
0
  6
Continuous
 62
     7
100
AcDbLine
 10
1318.7782243969
 20
192.6522883411
 30
0.0
 11
1318.7782243969
 21
192.6110275803
 31
0.0
  0
LINE
  5
281
330
1F
100
AcDbEntity
  8
0
  6
Continuous
 62
     7
100
AcDbLine
 10
1318.2782243969
 20
192.1179043738
 30
0.0
 11
1318.2782243969
 21
192.1522883411
 31
0.0
  0
ARC
  5
282
330
1F
100
AcDbEntity
  8
0
  6
Continuous
 62
     7
100
AcDbCircle
 10
1338.7782243969
 20
192.9408658816
 30
0.0
 40
2.000000000000031
100
AcDbArc
 50
180.0
 51
223.0143561528
  0
LINE
  5
283
330
1F
100
AcDbEntity
  8
0
  6
Continuous
 62
     7
100
AcDbLine
 10
1337.3158588055
 20
191.5765027052
 30
0.0
 11
1337.3158588055
 21
180.2522883411
 31
0.0
  0
LINE
  5
284
330
1F
100
AcDbEntity
  8
0
  6
Continuous
 62
     7
100
AcDbLine
 10
1337.3158588055
 20
180.2522883411
 30
0.0
 11
1336.7782243969
 21
180.2522883411
 31
0.0
  0
ARC
  5
285
330
1F
100
AcDbEntity
  8
0
  6
Continuous
 62
     7
100
AcDbCircle
 10
1338.7782243969
 20
172.9408658816
 30
0.0
 40
2.00000000000007
100
AcDbArc
 50
180.0
 51
223.0143561528
  0
LINE
  5
286
330
1F
100
AcDbEntity
  8
0
  6
Continuous
 62
     7
100
AcDbLine
 10
1337.3158588055
 20
171.5765027052
 30
0.0
 11
1337.3158588055
 21
160.2522883411
 31
0.0
  0
LINE
  5
287
330
1F
100
AcDbEntity
  8
0
  6
Continuous
 62
     7
100
AcDbLine
 10
1337.3158588055
 20
160.2522883411
 30
0.0
 11
1336.7782243969
 21
160.2522883411
 31
0.0
  0
ARC
  5
288
330
1F
100
AcDbEntity
  8
0
  6
Continuous
 62
     7
100
AcDbCircle
 10
1338.7782243969
 20
132.9408658816
 30
0.0
 40
2.00000000000007
100
AcDbArc
 50
180.0
 51
223.0143561528
  0
LINE
  5
289
330
1F
100
AcDbEntity
  8
0
  6
Continuous
 62
     7
100
AcDbLine
 10
1337.3158588055
 20
131.5765027052
 30
0.0
 11
1337.3158588055
 21
120.2522883411
 31
0.0
  0
LINE
  5
28A
330
1F
100
AcDbEntity
  8
0
  6
Continuous
 62
     7
100
AcDbLine
 10
1337.3158588055
 20
120.2522883411
 30
0.0
 11
1336.7782243969
 21
120.2522883411
 31
0.0
  0
ARC
  5
28B
330
1F
100
AcDbEntity
  8
0
  6
Continuous
 62
     7
100
AcDbCircle
 10
1338.7782243969
 20
112.9408658816
 30
0.0
 40
2.000000000000002
100
AcDbArc
 50
180.0
 51
223.0143561528
  0
LINE
  5
28C
330
1F
100
AcDbEntity
  8
0
  6
Continuous
 62
     7
100
AcDbLine
 10
1337.3158588055
 20
111.5765027052
 30
0.0
 11
1337.3158588055
 21
100.2522883411
 31
0.0
  0
LINE
  5
28D
330
1F
100
AcDbEntity
  8
0
  6
Continuous
 62
     7
100
AcDbLine
 10
1337.3158588055
 20
100.2522883411
 30
0.0
 11
1336.7782243969
 21
100.2522883411
 31
0.0
  0
ARC
  5
28E
330
1F
100
AcDbEntity
  8
0
  6
Continuous
 62
     7
100
AcDbCircle
 10
1338.7782243969
 20
152.9408658816
 30
0.0
 40
2.0
100
AcDbArc
 50
180.0
 51
223.0143561528
  0
LINE
  5
28F
330
1F
100
AcDbEntity
  8
0
  6
Continuous
 62
     7
100
AcDbLine
 10
1337.3158588055
 20
151.5765027052
 30
0.0
 11
1337.3158588055
 21
140.2522883411
 31
0.0
  0
LINE
  5
290
330
1F
100
AcDbEntity
  8
0
  6
Continuous
 62
     7
100
AcDbLine
 10
1337.3158588055
 20
140.2522883411
 30
0.0
 11
1336.7782243969
 21
140.2522883411
 31
0.0
  0
ARC
  5
291
330
1F
100
AcDbEntity
  8
0
  6
Continuous
 62
     7
100
AcDbCircle
 10
1325.1782243969
 20
180.2522883411
 30
0.0
 40
16.59999999999996
100
AcDbArc
 50
0.0
 51
43.0143561528
  0
LINE
  5
292
330
1F
100
AcDbEntity
  8
0
  6
Continuous
 62
     7
100
AcDbLine
 10
1341.7782243969
 20
180.2522883411
 30
0.0
 11
1337.3158588055
 21
180.2522883411
 31
0.0
  0
ARC
  5
293
330
1F
100
AcDbEntity
  8
0
  6
Continuous
 62
     7
100
AcDbCircle
 10
1325.1782243969
 20
160.2522883411
 30
0.0
 40
16.59999999999991
100
AcDbArc
 50
0.0
 51
43.0143561528
  0
LINE
  5
294
330
1F
100
AcDbEntity
  8
0
  6
Continuous
 62
     7
100
AcDbLine
 10
1341.7782243969
 20
160.2522883411
 30
0.0
 11
1337.3158588055
 21
160.2522883411
 31
0.0
  0
ARC
  5
295
330
1F
100
AcDbEntity
  8
0
  6
Continuous
 62
     7
100
AcDbCircle
 10
1325.1782243969
 20
120.2522883411
 30
0.0
 40
16.60000000000014
100
AcDbArc
 50
0.0
 51
43.0143561528
  0
LINE
  5
296
330
1F
100
AcDbEntity
  8
0
  6
Continuous
 62
     7
100
AcDbLine
 10
1341.7782243969
 20
120.2522883411
 30
0.0
 11
1337.3158588055
 21
120.2522883411
 31
0.0
  0
ARC
  5
297
330
1F
100
AcDbEntity
  8
0
  6
Continuous
 62
     7
100
AcDbCircle
 10
1325.1782243969
 20
140.2522883411
 30
0.0
 40
16.59999999999994
100
AcDbArc
 50
0.0
 51
43.0143561528
  0
LINE
  5
298
330
1F
100
AcDbEntity
  8
0
  6
Continuous
 62
     7
100
AcDbLine
 10
1341.7782243969
 20
140.2522883411
 30
0.0
 11
1337.3158588055
 21
140.2522883411
 31
0.0
  0
ARC
  5
299
330
1F
100
AcDbEntity
  8
0
  6
Continuous
 62
     7
100
AcDbCircle
 10
1325.1782243969
 20
100.2522883411
 30
0.0
 40
16.59999999999991
100
AcDbArc
 50
0.0
 51
43.0143561528
  0
LINE
  5
29A
330
1F
100
AcDbEntity
  8
0
  6
Continuous
 62
     7
100
AcDbLine
 10
1341.7782243969
 20
100.2522883411
 30
0.0
 11
1337.3158588055
 21
100.2522883411
 31
0.0
  0
LINE
  5
29B
330
1F
100
AcDbEntity
  8
0
  6
Continuous
 62
     7
100
AcDbLine
 10
1318.7782243969
 20
192.6110275803
 30
0.0
 11
1324.2782243969
 21
192.6110275803
 31
0.0
  0
LINE
  5
29C
330
1F
100
AcDbEntity
  8
0
  6
Continuous
 62
     7
100
AcDbLine
 10
705.4002476418
 20
286.0026769317
 30
0.0
 11
713.4002476418
 21
286.0026769317
 31
0.0
  0
LINE
  5
29D
330
1F
100
AcDbEntity
  8
0
  6
Continuous
 62
     7
100
AcDbLine
 10
713.4002476418
 20
286.0026769317
 30
0.0
 11
713.9002476418
 21
286.0026769317
 31
0.0
  0
LINE
  5
29E
330
1F
100
AcDbEntity
  8
0
  6
Continuous
 62
     7
100
AcDbLine
 10
1217.9002476418
 20
286.0026769317
 30
0.0
 11
1218.4002476418
 21
286.0026769317
 31
0.0
  0
LINE
  5
29F
330
1F
100
AcDbEntity
  8
0
  6
Continuous
 62
     7
100
AcDbLine
 10
1218.4002476418
 20
286.0026769317
 30
0.0
 11
1226.4002476418
 21
286.0026769317
 31
0.0
  0
LINE
  5
2A0
330
1F
100
AcDbEntity
  8
0
  6
Continuous
 62
     7
100
AcDbLine
 10
1215.0602550327
 20
257.5026769317
 30
0.0
 11
1217.9002476418
 21
257.5026769317
 31
0.0
  0
ARC
  5
2A1
330
1F
100
AcDbEntity
  8
0
  6
Continuous
 62
     7
100
AcDbCircle
 10
1215.0602550327
 20
259.0026769317
 30
0.0
 40
1.5
100
AcDbArc
 50
207.5120026239
 51
270.0
  0
ARC
  5
2A2
330
1F
100
AcDbEntity
  8
0
  6
Continuous
 62
     7
100
AcDbCircle
 10
716.7402402508
 20
259.0026769317
 30
0.0
 40
1.499999999999943
100
AcDbArc
 50
270.0
 51
332.4879973761
  0
LINE
  5
2A3
330
1F
100
AcDbEntity
  8
0
  6
Continuous
 62
     7
100
AcDbLine
 10
713.9002476418
 20
257.5026769317
 30
0.0
 11
716.7402402508
 21
257.5026769317
 31
0.0
  0
LINE
  5
2A4
330
1F
100
AcDbEntity
  8
0
  6
Continuous
 62
     7
100
AcDbLine
 10
1213.0698765155
 20
259.5769894941
 30
0.0
 11
1213.7298839065
 21
258.3097753034
 31
0.0
  0
LINE
  5
2A5
330
1F
100
AcDbEntity
  8
0
  6
Continuous
 62
     7
100
AcDbLine
 10
718.0706113771
 20
258.3097753034
 30
0.0
 11
718.730618768
 21
259.5769894941
 31
0.0
  0
ARC
  5
2A6
330
1F
100
AcDbEntity
  8
0
  6
Continuous
 62
     7
100
AcDbCircle
 10
1214.4002476418
 20
260.2698911224
 30
0.0
 40
1.500000000000227
100
AcDbArc
 50
180.0
 51
207.5120026239
  0
ARC
  5
2A7
330
1F
100
AcDbEntity
  8
0
  6
Continuous
 62
     7
100
AcDbCircle
 10
717.4002476418
 20
260.2698911224
 30
0.0
 40
1.500000000000114
100
AcDbArc
 50
332.4879973761
 51
360.0
  0
LINE
  5
2A8
330
1F
100
AcDbEntity
  8
0
  6
Continuous
 62
     7
100
AcDbLine
 10
1222.51579403
 20
260.4026769317
 30
0.0
 11
1226.6002476418
 21
260.4026769317
 31
0.0
  0
LINE
  5
2A9
330
1F
100
AcDbEntity
  8
0
  6
Continuous
 62
     7
100
AcDbLine
 10
1226.6002476418
 20
260.4026769317
 30
0.0
 11
1227.1002476418
 21
260.9026769317
 31
0.0
  0
LINE
  5
2AA
330
1F
100
AcDbEntity
  8
0
  6
Continuous
 62
     7
100
AcDbLine
 10
721.4002476418
 20
281.5026769317
 30
0.0
 11
721.9002476418
 21
281.0026769317
 31
0.0
  0
LINE
  5
2AB
330
1F
100
AcDbEntity
  8
0
  6
Continuous
 62
     7
100
AcDbLine
 10
1209.9002476418
 20
281.0026769317
 30
0.0
 11
1210.4002476418
 21
281.5026769317
 31
0.0
  0
LINE
  5
2AC
330
1F
100
AcDbEntity
  8
0
  6
Continuous
 62
     7
100
AcDbLine
 10
705.2002476418
 20
260.4026769317
 30
0.0
 11
709.2847012536
 21
260.4026769317
 31
0.0
  0
LINE
  5
2AD
330
1F
100
AcDbEntity
  8
0
  6
Continuous
 62
     7
100
AcDbLine
 10
704.7002476418
 20
260.9026769317
 30
0.0
 11
705.2002476418
 21
260.4026769317
 31
0.0
  0
LINE
  5
2AE
330
1F
100
AcDbEntity
  8
0
  6
Continuous
 62
     7
100
AcDbLine
 10
1204.4002476418
 20
281.5026769317
 30
0.0
 11
1204.9002476418
 21
281.0026769317
 31
0.0
  0
LINE
  5
2AF
330
1F
100
AcDbEntity
  8
0
  6
Continuous
 62
     7
100
AcDbLine
 10
726.9002476418
 20
281.0026769317
 30
0.0
 11
727.4002476418
 21
281.5026769317
 31
0.0
  0
ARC
  5
2B0
330
1F
100
AcDbEntity
  8
0
  6
Continuous
 62
     7
100
AcDbCircle
 10
1215.0602550327
 20
267.8026769317
 30
0.0
 40
1.5
100
AcDbArc
 50
90.0
 51
152.4879973761
  0
LINE
  5
2B1
330
1F
100
AcDbEntity
  8
0
  6
Continuous
 62
     7
100
AcDbLine
 10
1217.9002476418
 20
269.3026769317
 30
0.0
 11
1215.0602550327
 21
269.3026769317
 31
0.0
  0
LINE
  5
2B2
330
1F
100
AcDbEntity
  8
0
  6
Continuous
 62
     7
100
AcDbLine
 10
1213.7298839065
 20
268.4955785599
 30
0.0
 11
1213.0698765155
 21
267.2283643693
 31
0.0
  0
ARC
  5
2B3
330
1F
100
AcDbEntity
  8
0
  6
Continuous
 62
     7
100
AcDbCircle
 10
1214.4002476418
 20
266.535462741
 30
0.0
 40
1.500000000000227
100
AcDbArc
 50
152.4879973761
 51
180.0
  0
LINE
  5
2B4
330
1F
100
AcDbEntity
  8
0
  6
Continuous
 62
     7
100
AcDbLine
 10
1226.6002476418
 20
266.4026769317
 30
0.0
 11
1222.51579403
 21
266.4026769317
 31
0.0
  0
LINE
  5
2B5
330
1F
100
AcDbEntity
  8
0
  6
Continuous
 62
     7
100
AcDbLine
 10
1227.1002476418
 20
265.9026769317
 30
0.0
 11
1226.6002476418
 21
266.4026769317
 31
0.0
  0
ARC
  5
2B6
330
1F
100
AcDbEntity
  8
0
  6
Continuous
 62
     7
100
AcDbCircle
 10
716.7402402508
 20
267.8026769317
 30
0.0
 40
1.5
100
AcDbArc
 50
27.5120026239
 51
90.0
  0
LINE
  5
2B7
330
1F
100
AcDbEntity
  8
0
  6
Continuous
 62
     7
100
AcDbLine
 10
716.7402402508
 20
269.3026769317
 30
0.0
 11
713.9002476418
 21
269.3026769317
 31
0.0
  0
LINE
  5
2B8
330
1F
100
AcDbEntity
  8
0
  6
Continuous
 62
     7
100
AcDbLine
 10
718.730618768
 20
267.2283643693
 30
0.0
 11
718.0706113771
 21
268.49557856
 31
0.0
  0
ARC
  5
2B9
330
1F
100
AcDbEntity
  8
0
  6
Continuous
 62
     7
100
AcDbCircle
 10
717.4002476418
 20
266.535462741
 30
0.0
 40
1.500000000000114
100
AcDbArc
 50
0.0
 51
27.5120026239
  0
LINE
  5
2BA
330
1F
100
AcDbEntity
  8
0
  6
Continuous
 62
     7
100
AcDbLine
 10
709.2847012536
 20
266.4026769317
 30
0.0
 11
705.2002476418
 21
266.4026769317
 31
0.0
  0
LINE
  5
2BB
330
1F
100
AcDbEntity
  8
0
  6
Continuous
 62
     7
100
AcDbLine
 10
705.2002476418
 20
266.4026769317
 30
0.0
 11
704.7002476418
 21
265.9026769317
 31
0.0
  0
LINE
  5
2BC
330
1F
100
AcDbEntity
  8
0
  6
Continuous
 62
     7
100
AcDbLine
 10
765.4002476418
 20
276.0026769317
 30
0.0
 11
765.9002476418
 21
275.5026769317
 31
0.0
  0
LINE
  5
2BD
330
1F
100
AcDbEntity
  8
0
  6
Continuous
 62
     7
100
AcDbLine
 10
765.4002476418
 20
281.5026769317
 30
0.0
 11
765.4002476418
 21
276.0026769317
 31
0.0
  0
LINE
  5
2BE
330
1F
100
AcDbEntity
  8
0
  6
Continuous
 62
     7
100
AcDbLine
 10
770.9002476418
 20
275.5026769317
 30
0.0
 11
771.4002476418
 21
276.0026769317
 31
0.0
  0
LINE
  5
2BF
330
1F
100
AcDbEntity
  8
0
  6
Continuous
 62
     7
100
AcDbLine
 10
771.4002476418
 20
276.0026769317
 30
0.0
 11
771.4002476418
 21
281.5026769317
 31
0.0
  0
LINE
  5
2C0
330
1F
100
AcDbEntity
  8
0
  6
Continuous
 62
     7
100
AcDbLine
 10
1239.9002476418
 20
281.5026769317
 30
0.0
 11
1263.4002476418
 21
281.5026769317
 31
0.0
  0
ARC
  5
2C1
330
1F
100
AcDbEntity
  8
0
  6
Continuous
 62
     7
100
AcDbCircle
 10
1239.9002476418
 20
284.5026769317
 30
0.0
 40
3.0
100
AcDbArc
 50
180.0
 51
270.0
  0
LINE
  5
2C2
330
1F
100
AcDbEntity
  8
0
  6
Continuous
 62
     7
100
AcDbLine
 10
1236.9002476418
 20
286.0026769317
 30
0.0
 11
1236.9002476418
 21
284.5026769317
 31
0.0
  0
ARC
  5
2C3
330
1F
100
AcDbEntity
  8
0
  6
Continuous
 62
     7
100
AcDbCircle
 10
1233.9002476418
 20
286.0026769317
 30
0.0
 40
3.0
100
AcDbArc
 50
0.0
 51
90.0
  0
LINE
  5
2C4
330
1F
100
AcDbEntity
  8
0
  6
Continuous
 62
     7
100
AcDbLine
 10
1220.9002476418
 20
289.0026769317
 30
0.0
 11
1233.9002476418
 21
289.0026769317
 31
0.0
  0
ARC
  5
2C5
330
1F
100
AcDbEntity
  8
0
  6
Continuous
 62
     7
100
AcDbCircle
 10
1220.9002476418
 20
286.0026769317
 30
0.0
 40
3.0
100
AcDbArc
 50
90.0
 51
180.0
  0
LINE
  5
2C6
330
1F
100
AcDbEntity
  8
0
  6
Continuous
 62
     7
100
AcDbLine
 10
1217.9002476418
 20
284.5026769317
 30
0.0
 11
1217.9002476418
 21
286.0026769317
 31
0.0
  0
ARC
  5
2C7
330
1F
100
AcDbEntity
  8
0
  6
Continuous
 62
     7
100
AcDbCircle
 10
1214.9002476418
 20
284.5026769317
 30
0.0
 40
3.000000000000227
100
AcDbArc
 50
270.0
 51
0.0
  0
LINE
  5
2C8
330
1F
100
AcDbEntity
  8
0
  6
Continuous
 62
     7
100
AcDbLine
 10
716.9002476418
 20
281.5026769317
 30
0.0
 11
1214.9002476418
 21
281.5026769317
 31
0.0
  0
LINE
  5
2C9
330
1F
100
AcDbEntity
  8
0
  6
Continuous
 62
     7
100
AcDbLine
 10
713.9002476418
 20
286.0026769317
 30
0.0
 11
713.9002476418
 21
284.5026769317
 31
0.0
  0
ARC
  5
2CA
330
1F
100
AcDbEntity
  8
0
  6
Continuous
 62
     7
100
AcDbCircle
 10
710.9002476418
 20
286.0026769317
 30
0.0
 40
3.000000000000114
100
AcDbArc
 50
0.0
 51
90.0
  0
LINE
  5
2CB
330
1F
100
AcDbEntity
  8
0
  6
Continuous
 62
     7
100
AcDbLine
 10
697.9002476418
 20
289.0026769317
 30
0.0
 11
710.9002476418
 21
289.0026769317
 31
0.0
  0
ARC
  5
2CC
330
1F
100
AcDbEntity
  8
0
  6
Continuous
 62
     7
100
AcDbCircle
 10
697.9002476418
 20
286.0026769317
 30
0.0
 40
3.000000000000114
100
AcDbArc
 50
90.0
 51
180.0
  0
LINE
  5
2CD
330
1F
100
AcDbEntity
  8
0
  6
Continuous
 62
     7
100
AcDbLine
 10
694.9002476418
 20
284.5026769317
 30
0.0
 11
694.9002476418
 21
286.0026769317
 31
0.0
  0
LINE
  5
2CE
330
1F
100
AcDbEntity
  8
0
  6
Continuous
 62
     7
100
AcDbLine
 10
668.4002476418
 20
281.5026769317
 30
0.0
 11
691.9002476418
 21
281.5026769317
 31
0.0
  0
LINE
  5
2CF
330
1F
100
AcDbEntity
  8
0
  6
Continuous
 62
     7
100
AcDbLine
 10
1263.4002476418
 20
294.0026769317
 30
0.0
 11
668.4002476418
 21
294.0026769317
 31
0.0
  0
LINE
  5
2D0
330
1F
100
AcDbEntity
  8
0
  6
Continuous
 62
     7
100
AcDbLine
 10
1263.4002476418
 20
294.0026769317
 30
0.0
 11
1263.4002476418
 21
281.5026769317
 31
0.0
  0
ARC
  5
2D1
330
1F
100
AcDbEntity
  8
0
  6
Continuous
 62
     7
100
AcDbCircle
 10
691.9002476418
 20
284.5026769317
 30
0.0
 40
3.0
100
AcDbArc
 50
270.0
 51
0.0
  0
ARC
  5
2D2
330
1F
100
AcDbEntity
  8
0
  6
Continuous
 62
     7
100
AcDbCircle
 10
716.9002476418
 20
284.5026769317
 30
0.0
 40
3.0
100
AcDbArc
 50
180.0
 51
270.0
  0
LINE
  5
2D3
330
1F
100
AcDbEntity
  8
0
  6
Continuous
 62
     7
100
AcDbLine
 10
668.4002476418
 20
294.0026769317
 30
0.0
 11
668.4002476418
 21
281.5026769317
 31
0.0
  0
ARC
  5
2D4
330
1F
100
AcDbEntity
  8
0
  6
Continuous
 62
     7
100
AcDbCircle
 10
705.4002476418
 20
292.0026769317
 30
0.0
 40
6.0
100
AcDbArc
 50
210.0
 51
270.0
  0
ARC
  5
2D5
330
1F
100
AcDbEntity
  8
0
  6
Continuous
 62
     7
100
AcDbCircle
 10
1226.4002476418
 20
292.0026769317
 30
0.0
 40
6.0
100
AcDbArc
 50
270.0
 51
330.0
  0
ARC
  5
2D6
330
1F
100
AcDbEntity
  8
0
  6
Continuous
 62
     7
100
AcDbCircle
 10
1110.6979294361
 20
282.4026769317
 30
0.0
 40
16.60000000000024
100
AcDbArc
 50
90.0
 51
133.0143561528
  0
LINE
  5
2D7
330
1F
100
AcDbEntity
  8
0
  6
Continuous
 62
     7
100
AcDbLine
 10
1110.6979294361
 20
299.0026769317
 30
0.0
 11
1149.6979294361
 21
299.0026769317
 31
0.0
  0
LINE
  5
2D8
330
1F
100
AcDbEntity
  8
0
  6
Continuous
 62
     7
100
AcDbLine
 10
870.6979294361
 20
299.0026769317
 30
0.0
 11
909.6979294361
 21
299.0026769317
 31
0.0
  0
ARC
  5
2D9
330
1F
100
AcDbEntity
  8
0
  6
Continuous
 62
     7
100
AcDbCircle
 10
1002.3865069765
 20
296.0026769317
 30
0.0
 40
2.000000000000031
100
AcDbArc
 50
226.9856438472
 51
270.0
  0
ARC
  5
2DA
330
1F
100
AcDbEntity
  8
0
  6
Continuous
 62
     7
100
AcDbCircle
 10
790.6979294361
 20
282.4026769317
 30
0.0
 40
14.59999999999997
100
AcDbArc
 50
90.0
 51
127.3900063757
  0
ARC
  5
2DB
330
1F
100
AcDbEntity
  8
0
  6
Continuous
 62
     7
100
AcDbCircle
 10
1098.0093518956
 20
296.0026769317
 30
0.0
 40
2.0
100
AcDbArc
 50
270.0
 51
313.0143561528
  0
ARC
  5
2DC
330
1F
100
AcDbEntity
  8
0
  6
Continuous
 62
     7
100
AcDbCircle
 10
909.6979294361
 20
282.4026769317
 30
0.0
 40
14.60000000000002
100
AcDbArc
 50
52.6099936242
 51
90.0
  0
ARC
  5
2DD
330
1F
100
AcDbEntity
  8
0
  6
Continuous
 62
     7
100
AcDbCircle
 10
989.6979294361
 20
282.4026769317
 30
0.0
 40
14.60000000000002
100
AcDbArc
 50
52.6099936242
 51
90.0
  0
LINE
  5
2DE
330
1F
100
AcDbEntity
  8
0
  6
Continuous
 62
     7
100
AcDbLine
 10
950.6979294361
 20
297.0026769317
 30
0.0
 11
989.6979294361
 21
297.0026769317
 31
0.0
  0
ARC
  5
2DF
330
1F
100
AcDbEntity
  8
0
  6
Continuous
 62
     7
100
AcDbCircle
 10
950.6979294361
 20
282.4026769317
 30
0.0
 40
14.6000000000002
100
AcDbArc
 50
90.0
 51
127.3900063758
  0
ARC
  5
2E0
330
1F
100
AcDbEntity
  8
0
  6
Continuous
 62
     7
100
AcDbCircle
 10
938.0093518956
 20
296.0026769317
 30
0.0
 40
2.000000000000057
100
AcDbArc
 50
270.0
 51
313.0143561528
  0
ARC
  5
2E1
330
1F
100
AcDbEntity
  8
0
  6
Continuous
 62
     7
100
AcDbCircle
 10
950.6979294361
 20
282.4026769317
 30
0.0
 40
16.60000000000024
100
AcDbArc
 50
90.0
 51
133.0143561528
  0
LINE
  5
2E2
330
1F
100
AcDbEntity
  8
0
  6
Continuous
 62
     7
100
AcDbLine
 10
950.6979294361
 20
299.0026769317
 30
0.0
 11
989.6979294361
 21
299.0026769317
 31
0.0
  0
ARC
  5
2E3
330
1F
100
AcDbEntity
  8
0
  6
Continuous
 62
     7
100
AcDbCircle
 10
989.6979294361
 20
282.4026769317
 30
0.0
 40
16.60000000000005
100
AcDbArc
 50
46.9856438472
 51
90.0
  0
ARC
  5
2E4
330
1F
100
AcDbEntity
  8
0
  6
Continuous
 62
     7
100
AcDbCircle
 10
790.6979294361
 20
282.4026769317
 30
0.0
 40
16.59999999999997
100
AcDbArc
 50
90.0
 51
133.0143561528
  0
ARC
  5
2E5
330
1F
100
AcDbEntity
  8
0
  6
Continuous
 62
     7
100
AcDbCircle
 10
1149.6979294361
 20
282.4026769317
 30
0.0
 40
16.59999999999997
100
AcDbArc
 50
46.9856438472
 51
90.0
  0
ARC
  5
2E6
330
1F
100
AcDbEntity
  8
0
  6
Continuous
 62
     7
100
AcDbCircle
 10
1030.6979294361
 20
282.4026769317
 30
0.0
 40
14.6000000000002
100
AcDbArc
 50
90.0
 51
127.3900063758
  0
ARC
  5
2E7
330
1F
100
AcDbEntity
  8
0
  6
Continuous
 62
     7
100
AcDbCircle
 10
870.6979294361
 20
282.4026769317
 30
0.0
 40
16.60000000000016
100
AcDbArc
 50
90.0
 51
133.0143561528
  0
ARC
  5
2E8
330
1F
100
AcDbEntity
  8
0
  6
Continuous
 62
     7
100
AcDbCircle
 10
1149.6979294361
 20
282.4026769317
 30
0.0
 40
14.60000000000006
100
AcDbArc
 50
52.6099936242
 51
90.0
  0
ARC
  5
2E9
330
1F
100
AcDbEntity
  8
0
  6
Continuous
 62
     7
100
AcDbCircle
 10
922.3865069765
 20
296.0026769317
 30
0.0
 40
2.0
100
AcDbArc
 50
226.9856438472
 51
270.0
  0
ARC
  5
2EA
330
1F
100
AcDbEntity
  8
0
  6
Continuous
 62
     7
100
AcDbCircle
 10
1018.0093518956
 20
296.0026769317
 30
0.0
 40
2.0
100
AcDbArc
 50
270.0
 51
313.0143561528
  0
ARC
  5
2EB
330
1F
100
AcDbEntity
  8
0
  6
Continuous
 62
     7
100
AcDbCircle
 10
1162.3865069765
 20
296.0026769317
 30
0.0
 40
2.0
100
AcDbArc
 50
226.9856438472
 51
270.0
  0
LINE
  5
2EC
330
1F
100
AcDbEntity
  8
0
  6
Continuous
 62
     7
100
AcDbLine
 10
1030.6979294361
 20
297.0026769317
 30
0.0
 11
1069.6979294361
 21
297.0026769317
 31
0.0
  0
ARC
  5
2ED
330
1F
100
AcDbEntity
  8
0
  6
Continuous
 62
     7
100
AcDbCircle
 10
1030.6979294361
 20
282.4026769317
 30
0.0
 40
16.6000000000002
100
AcDbArc
 50
90.0
 51
133.0143561528
  0
LINE
  5
2EE
330
1F
100
AcDbEntity
  8
0
  6
Continuous
 62
     7
100
AcDbLine
 10
1030.6979294361
 20
299.0026769317
 30
0.0
 11
1069.6979294361
 21
299.0026769317
 31
0.0
  0
ARC
  5
2EF
330
1F
100
AcDbEntity
  8
0
  6
Continuous
 62
     7
100
AcDbCircle
 10
829.6979294361
 20
282.4026769317
 30
0.0
 40
16.59999999999997
100
AcDbArc
 50
46.9856438472
 51
90.0
  0
ARC
  5
2F0
330
1F
100
AcDbEntity
  8
0
  6
Continuous
 62
     7
100
AcDbCircle
 10
1069.6979294361
 20
282.4026769317
 30
0.0
 40
14.60000000000002
100
AcDbArc
 50
52.6099936243
 51
90.0
  0
ARC
  5
2F1
330
1F
100
AcDbEntity
  8
0
  6
Continuous
 62
     7
100
AcDbCircle
 10
909.6979294361
 20
282.4026769317
 30
0.0
 40
16.60000000000005
100
AcDbArc
 50
46.9856438472
 51
90.0
  0
ARC
  5
2F2
330
1F
100
AcDbEntity
  8
0
  6
Continuous
 62
     7
100
AcDbCircle
 10
858.0093518956
 20
296.0026769317
 30
0.0
 40
2.0
100
AcDbArc
 50
270.0
 51
313.0143561528
  0
ARC
  5
2F3
330
1F
100
AcDbEntity
  8
0
  6
Continuous
 62
     7
100
AcDbCircle
 10
1110.6979294361
 20
282.4026769317
 30
0.0
 40
14.60000000000034
100
AcDbArc
 50
90.0
 51
127.3900063758
  0
ARC
  5
2F4
330
1F
100
AcDbEntity
  8
0
  6
Continuous
 62
     7
100
AcDbCircle
 10
870.6979294361
 20
282.4026769317
 30
0.0
 40
14.60000000000015
100
AcDbArc
 50
90.0
 51
127.3900063758
  0
ARC
  5
2F5
330
1F
100
AcDbEntity
  8
0
  6
Continuous
 62
     7
100
AcDbCircle
 10
1082.3865069765
 20
296.0026769317
 30
0.0
 40
2.000000000000264
100
AcDbArc
 50
226.9856438472
 51
270.0
  0
LINE
  5
2F6
330
1F
100
AcDbEntity
  8
0
  6
Continuous
 62
     7
100
AcDbLine
 10
1110.6979294361
 20
297.0026769317
 30
0.0
 11
1149.6979294361
 21
297.0026769317
 31
0.0
  0
LINE
  5
2F7
330
1F
100
AcDbEntity
  8
0
  6
Continuous
 62
     7
100
AcDbLine
 10
870.6979294361
 20
297.0026769317
 30
0.0
 11
909.6979294361
 21
297.0026769317
 31
0.0
  0
ARC
  5
2F8
330
1F
100
AcDbEntity
  8
0
  6
Continuous
 62
     7
100
AcDbCircle
 10
829.6979294361
 20
282.4026769317
 30
0.0
 40
14.59999999999997
100
AcDbArc
 50
52.6099936242
 51
90.0
  0
LINE
  5
2F9
330
1F
100
AcDbEntity
  8
0
  6
Continuous
 62
     7
100
AcDbLine
 10
790.6979294361
 20
297.0026769317
 30
0.0
 11
829.6979294361
 21
297.0026769317
 31
0.0
  0
ARC
  5
2FA
330
1F
100
AcDbEntity
  8
0
  6
Continuous
 62
     7
100
AcDbCircle
 10
778.0093518956
 20
296.0026769317
 30
0.0
 40
2.0
100
AcDbArc
 50
270.0
 51
313.0143561528
  0
LINE
  5
2FB
330
1F
100
AcDbEntity
  8
0
  6
Continuous
 62
     7
100
AcDbLine
 10
790.6979294361
 20
299.0026769317
 30
0.0
 11
829.6979294361
 21
299.0026769317
 31
0.0
  0
ARC
  5
2FC
330
1F
100
AcDbEntity
  8
0
  6
Continuous
 62
     7
100
AcDbCircle
 10
842.3865069765
 20
296.0026769317
 30
0.0
 40
2.000000000000067
100
AcDbArc
 50
226.9856438472
 51
270.0
  0
ARC
  5
2FD
330
1F
100
AcDbEntity
  8
0
  6
Continuous
 62
     7
100
AcDbCircle
 10
1069.6979294361
 20
282.4026769317
 30
0.0
 40
16.60000000000002
100
AcDbArc
 50
46.9856438472
 51
90.0
  0
LINE
  5
2FE
330
1F
100
AcDbEntity
  8
0
  6
Continuous
 62
     7
100
AcDbLine
 10
713.7193255041
 20
271.5026769317
 30
0.0
 11
713.7193255041
 21
255.5026769317
 31
0.0
  0
LINE
  5
2FF
330
1F
100
AcDbEntity
  8
0
  6
Continuous
 62
     7
100
AcDbLine
 10
711.8481267818
 20
255.5026769317
 30
0.0
 11
713.7193255041
 21
255.5026769317
 31
0.0
  0
LWPOLYLINE
  5
300
330
1F
100
AcDbEntity
  8
0
  6
Continuous
 62
     7
100
AcDbPolyline
 90
        9
 70
   128
 43
0.0
 10
711.1640864952
 20
257.5026769317
 10
711.1772301375
 20
257.1124962877
 10
711.2161559616
 20
256.737310067
 10
711.2793680699
 20
256.3915364657
 10
711.3644372565
 20
256.0884633693
 10
711.4680943604
 20
255.8397377071
 10
711.5863558971
 20
255.6549178667
 10
711.714677142
 20
255.5411063709
 10
711.8481267818
 20
255.5026769317
  0
LINE
  5
301
330
1F
100
AcDbEntity
  8
0
  6
Continuous
 62
     7
100
AcDbLine
 10
711.1640864952
 20
269.5026769317
 30
0.0
 11
711.1640864952
 21
257.5026769317
 31
0.0
  0
LWPOLYLINE
  5
302
330
1F
100
AcDbEntity
  8
0
  6
Continuous
 62
     7
100
AcDbPolyline
 90
        9
 70
   128
 43
0.0
 10
711.8481267818
 20
271.5026769317
 10
711.714677142
 20
271.4642474925
 10
711.5863558971
 20
271.3504359967
 10
711.4680943604
 20
271.1656161563
 10
711.3644372565
 20
270.9168904941
 10
711.2793680699
 20
270.6138173977
 10
711.2161559616
 20
270.2680437964
 10
711.1772301375
 20
269.8928575757
 10
711.1640864952
 20
269.5026769317
  0
LINE
  5
303
330
1F
100
AcDbEntity
  8
0
  6
Continuous
 62
     7
100
AcDbLine
 10
713.7193255041
 20
271.5026769317
 30
0.0
 11
711.8481267818
 21
271.5026769317
 31
0.0
  0
LINE
  5
304
330
1F
100
AcDbEntity
  8
0
  6
Continuous
 62
     7
100
AcDbLine
 10
711.8481267818
 20
255.5026769317
 30
0.0
 11
709.9687415403
 21
255.5026769317
 31
0.0
  0
LWPOLYLINE
  5
305
330
1F
100
AcDbEntity
  8
0
  6
Continuous
 62
     7
100
AcDbPolyline
 90
        9
 70
   128
 43
0.0
 10
709.9687415403
 20
255.5026769317
 10
709.8352919005
 20
255.5411063709
 10
709.7069706555
 20
255.6549178667
 10
709.5887091188
 20
255.8397377071
 10
709.485052015
 20
256.0884633693
 10
709.3999828283
 20
256.3915364657
 10
709.33677072
 20
256.737310067
 10
709.2978448959
 20
257.1124962877
 10
709.2847012536
 20
257.5026769317
  0
LINE
  5
306
330
1F
100
AcDbEntity
  8
0
  6
Continuous
 62
     7
100
AcDbLine
 10
709.2847012536
 20
257.5026769317
 30
0.0
 11
711.1640864952
 21
257.5026769317
 31
0.0
  0
LINE
  5
307
330
1F
100
AcDbEntity
  8
0
  6
Continuous
 62
     7
100
AcDbLine
 10
709.2847012536
 20
269.5026769317
 30
0.0
 11
709.2847012536
 21
257.5026769317
 31
0.0
  0
LINE
  5
308
330
1F
100
AcDbEntity
  8
0
  6
Continuous
 62
     7
100
AcDbLine
 10
711.1640864952
 20
269.5026769317
 30
0.0
 11
709.2847012536
 21
269.5026769317
 31
0.0
  0
LWPOLYLINE
  5
309
330
1F
100
AcDbEntity
  8
0
  6
Continuous
 62
     7
100
AcDbPolyline
 90
        9
 70
   128
 43
0.0
 10
709.2847012536
 20
269.5026769317
 10
709.2978448959
 20
269.8928575757
 10
709.33677072
 20
270.2680437964
 10
709.3999828283
 20
270.6138173977
 10
709.485052015
 20
270.9168904941
 10
709.5887091188
 20
271.1656161563
 10
709.7069706555
 20
271.3504359967
 10
709.8352919005
 20
271.4642474925
 10
709.9687415403
 20
271.5026769317
  0
LINE
  5
30A
330
1F
100
AcDbEntity
  8
0
  6
Continuous
 62
     7
100
AcDbLine
 10
709.9687415403
 20
271.5026769317
 30
0.0
 11
711.8481267818
 21
271.5026769317
 31
0.0
  0
LINE
  5
30B
330
1F
100
AcDbEntity
  8
0
  6
Continuous
 62
     7
100
AcDbLine
 10
1220.6364087884
 20
257.5026769317
 30
0.0
 11
1222.51579403
 21
257.5026769317
 31
0.0
  0
LWPOLYLINE
  5
30C
330
1F
100
AcDbEntity
  8
0
  6
Continuous
 62
     7
100
AcDbPolyline
 90
        9
 70
   128
 43
0.0
 10
1222.51579403
 20
257.5026769317
 10
1222.5026503877
 20
257.1124962877
 10
1222.4637245636
 20
256.737310067
 10
1222.4005124552
 20
256.3915364657
 10
1222.3154432686
 20
256.0884633693
 10
1222.2117861648
 20
255.8397377071
 10
1222.0935246281
 20
255.6549178667
 10
1221.9652033831
 20
255.5411063709
 10
1221.8317537433
 20
255.5026769317
  0
LINE
  5
30D
330
1F
100
AcDbEntity
  8
0
  6
Continuous
 62
     7
100
AcDbLine
 10
1221.8317537433
 20
255.5026769317
 30
0.0
 11
1219.9523685017
 21
255.5026769317
 31
0.0
  0
LWPOLYLINE
  5
30E
330
1F
100
AcDbEntity
  8
0
  6
Continuous
 62
     7
100
AcDbPolyline
 90
        9
 70
   128
 43
0.0
 10
1219.9523685017
 20
255.5026769317
 10
1220.0858181415
 20
255.5411063709
 10
1220.2141393865
 20
255.6549178667
 10
1220.3324009232
 20
255.8397377071
 10
1220.436058027
 20
256.0884633693
 10
1220.5211272137
 20
256.3915364657
 10
1220.584339322
 20
256.737310067
 10
1220.6232651461
 20
257.1124962877
 10
1220.6364087884
 20
257.5026769317
  0
LINE
  5
30F
330
1F
100
AcDbEntity
  8
0
  6
Continuous
 62
     7
100
AcDbLine
 10
1218.0811697794
 20
255.5026769317
 30
0.0
 11
1219.9523685017
 21
255.5026769317
 31
0.0
  0
LINE
  5
310
330
1F
100
AcDbEntity
  8
0
  6
Continuous
 62
     7
100
AcDbLine
 10
1218.0811697794
 20
255.5026769317
 30
0.0
 11
1218.0811697794
 21
271.5026769317
 31
0.0
  0
LINE
  5
311
330
1F
100
AcDbEntity
  8
0
  6
Continuous
 62
     7
100
AcDbLine
 10
1219.9523685017
 20
271.5026769317
 30
0.0
 11
1218.0811697794
 21
271.5026769317
 31
0.0
  0
LWPOLYLINE
  5
312
330
1F
100
AcDbEntity
  8
0
  6
Continuous
 62
     7
100
AcDbPolyline
 90
        9
 70
   128
 43
0.0
 10
1220.6364087884
 20
269.5026769317
 10
1220.6232651461
 20
269.8928575757
 10
1220.584339322
 20
270.2680437964
 10
1220.5211272137
 20
270.6138173977
 10
1220.436058027
 20
270.9168904941
 10
1220.3324009232
 20
271.1656161563
 10
1220.2141393865
 20
271.3504359967
 10
1220.0858181415
 20
271.4642474925
 10
1219.9523685017
 20
271.5026769317
  0
LINE
  5
313
330
1F
100
AcDbEntity
  8
0
  6
Continuous
 62
     7
100
AcDbLine
 10
1220.6364087884
 20
257.5026769317
 30
0.0
 11
1220.6364087884
 21
269.5026769317
 31
0.0
  0
LINE
  5
314
330
1F
100
AcDbEntity
  8
0
  6
Continuous
 62
     7
100
AcDbLine
 10
1222.51579403
 20
269.5026769317
 30
0.0
 11
1220.6364087884
 21
269.5026769317
 31
0.0
  0
LINE
  5
315
330
1F
100
AcDbEntity
  8
0
  6
Continuous
 62
     7
100
AcDbLine
 10
1222.51579403
 20
257.5026769317
 30
0.0
 11
1222.51579403
 21
269.5026769317
 31
0.0
  0
LINE
  5
316
330
1F
100
AcDbEntity
  8
0
  6
Continuous
 62
     7
100
AcDbLine
 10
1219.9523685017
 20
271.5026769317
 30
0.0
 11
1221.8317537433
 21
271.5026769317
 31
0.0
  0
LWPOLYLINE
  5
317
330
1F
100
AcDbEntity
  8
0
  6
Continuous
 62
     7
100
AcDbPolyline
 90
        9
 70
   128
 43
0.0
 10
1221.8317537433
 20
271.5026769317
 10
1221.9652033831
 20
271.4642474925
 10
1222.0935246281
 20
271.3504359967
 10
1222.2117861648
 20
271.1656161563
 10
1222.3154432686
 20
270.9168904941
 10
1222.4005124552
 20
270.6138173977
 10
1222.4637245636
 20
270.2680437964
 10
1222.5026503877
 20
269.8928575757
 10
1222.51579403
 20
269.5026769317
  0
LINE
  5
318
330
1F
100
AcDbEntity
  8
0
  6
Continuous
 62
     7
100
AcDbLine
 10
713.9002476418
 20
255.5026769317
 30
0.0
 11
713.7193255041
 21
255.5026769317
 31
0.0
  0
LINE
  5
319
330
1F
100
AcDbEntity
  8
0
  6
Continuous
 62
     7
100
AcDbLine
 10
713.7193255041
 20
271.5026769317
 30
0.0
 11
713.8950612914
 21
271.5026769317
 31
0.0
  0
LINE
  5
31A
330
1F
100
AcDbEntity
  8
0
  6
Continuous
 62
     7
100
AcDbLine
 10
713.9002476418
 20
271.5026769317
 30
0.0
 11
713.9002476418
 21
255.5026769317
 31
0.0
  0
LINE
  5
31B
330
1F
100
AcDbEntity
  8
0
  6
Continuous
 62
     7
100
AcDbLine
 10
1217.9054339922
 20
271.5026769317
 30
0.0
 11
1218.0811697794
 21
271.5026769317
 31
0.0
  0
LINE
  5
31C
330
1F
100
AcDbEntity
  8
0
  6
Continuous
 62
     7
100
AcDbLine
 10
1218.0811697794
 20
255.5026769317
 30
0.0
 11
1217.9002476418
 21
255.5026769317
 31
0.0
  0
LINE
  5
31D
330
1F
100
AcDbEntity
  8
0
  6
Continuous
 62
     7
100
AcDbLine
 10
1217.9002476418
 20
255.5026769317
 30
0.0
 11
1217.9002476418
 21
271.5026769317
 31
0.0
  0
LINE
  5
31E
330
1F
100
AcDbEntity
  8
0
  6
Continuous
 62
     7
100
AcDbLine
 10
1217.9054339922
 20
271.5026769317
 30
0.0
 11
1217.9002476418
 21
271.5026769317
 31
0.0
  0
LINE
  5
31F
330
1F
100
AcDbEntity
  8
0
  6
Continuous
 62
     7
100
AcDbLine
 10
1219.9002476418
 20
286.0026769317
 30
0.0
 11
1219.9002476418
 21
271.5026769317
 31
0.0
  0
LINE
  5
320
330
1F
100
AcDbEntity
  8
0
  6
Continuous
 62
     7
100
AcDbLine
 10
1217.9002476418
 20
284.5026769317
 30
0.0
 11
1217.9002476418
 21
271.5026769317
 31
0.0
  0
LINE
  5
321
330
1F
100
AcDbEntity
  8
0
  6
Continuous
 62
     7
100
AcDbLine
 10
713.8950612914
 20
271.5026769317
 30
0.0
 11
713.9002476418
 21
271.5026769317
 31
0.0
  0
LINE
  5
322
330
1F
100
AcDbEntity
  8
0
  6
Continuous
 62
     7
100
AcDbLine
 10
711.9002476418
 20
271.5026769317
 30
0.0
 11
711.9002476418
 21
286.0026769317
 31
0.0
  0
LINE
  5
323
330
1F
100
AcDbEntity
  8
0
  6
Continuous
 62
     7
100
AcDbLine
 10
713.9002476418
 20
271.5026769317
 30
0.0
 11
713.9002476418
 21
284.5026769317
 31
0.0
  0
LINE
  5
324
330
1F
100
AcDbEntity
  8
0
  6
Continuous
 62
     7
100
AcDbLine
 10
1215.0602550327
 20
269.232992408
 30
0.0
 11
1217.9002476418
 21
269.232992408
 31
0.0
  0
ARC
  5
325
330
1F
100
AcDbEntity
  8
0
  6
Continuous
 62
     7
100
AcDbCircle
 10
1215.0565607891
 20
267.7308159538
 30
0.0
 40
1.502180996726913
100
AcDbArc
 50
89.8590950211
 51
152.0268050375
  0
ARC
  5
326
330
1F
100
AcDbEntity
  8
0
  6
Continuous
 62
     7
100
AcDbCircle
 10
716.7406180625
 20
267.7953775026
 30
0.0
 40
1.500210641247784
100
AcDbArc
 50
27.5586488616
 51
90.0144293185
  0
LINE
  5
327
330
1F
100
AcDbEntity
  8
0
  6
Continuous
 62
     7
100
AcDbLine
 10
716.7402402508
 20
269.2955880963
 30
0.0
 11
713.9002476418
 21
269.2955880963
 31
0.0
  0
LINE
  5
328
330
1F
100
AcDbEntity
  8
0
  6
Continuous
 62
     7
100
AcDbLine
 10
1213.0698765155
 20
267.1831794189
 30
0.0
 11
1213.7298839065
 21
268.4354266236
 31
0.0
  0
LINE
  5
329
330
1F
100
AcDbEntity
  8
0
  6
Continuous
 62
     7
100
AcDbLine
 10
718.730618768
 20
267.2237678153
 30
0.0
 11
718.0706113771
 21
268.4894594512
 31
0.0
  0
LINE
  5
32A
330
1F
100
AcDbEntity
  8
0
  6
Continuous
 62
     7
100
AcDbLine
 10
1212.9002476418
 20
266.4984616076
 30
0.0
 11
1212.9002476418
 21
260.2698911224
 31
0.0
  0
ARC
  5
32B
330
1F
100
AcDbEntity
  8
0
  6
Continuous
 62
     7
100
AcDbCircle
 10
1214.3685323684
 20
266.4980858812
 30
0.0
 40
1.468284774736326
100
AcDbArc
 50
152.1865385127
 51
179.9853383093
  0
ARC
  5
32C
330
1F
100
AcDbEntity
  8
0
  6
Continuous
 62
     7
100
AcDbCircle
 10
717.403491175
 20
266.5316606891
 30
0.0
 40
1.496756467238359
100
AcDbArc
 50
0.0014553091
 51
27.5423833082
  0
LINE
  5
32D
330
1F
100
AcDbEntity
  8
0
  6
Continuous
 62
     7
100
AcDbLine
 10
718.9002476418
 20
260.2698911224
 30
0.0
 11
718.9002476418
 21
266.5316987066
 31
0.0
  0
LINE
  5
32E
330
1F
100
AcDbEntity
  8
0
  6
Continuous
 62
     7
100
AcDbLine
 10
1226.6002476418
 20
266.367244123
 30
0.0
 11
1226.6002476418
 21
260.4026769317
 31
0.0
  0
LINE
  5
32F
330
1F
100
AcDbEntity
  8
0
  6
Continuous
 62
     7
100
AcDbLine
 10
1227.1002476418
 20
265.8731495911
 30
0.0
 11
1226.6002476418
 21
266.367244123
 31
0.0
  0
LINE
  5
330
330
1F
100
AcDbEntity
  8
0
  6
Continuous
 62
     7
100
AcDbLine
 10
1227.1002476418
 20
265.8731495911
 30
0.0
 11
1227.1002476418
 21
260.9026769317
 31
0.0
  0
LINE
  5
331
330
1F
100
AcDbEntity
  8
0
  6
Continuous
 62
     7
100
AcDbLine
 10
726.0284952544
 20
281.0026769317
 30
0.0
 11
726.3541447769
 21
281.5026769317
 31
0.0
  0
LINE
  5
332
330
1F
100
AcDbEntity
  8
0
  6
Continuous
 62
     7
100
AcDbLine
 10
726.0284952544
 20
281.0026769317
 30
0.0
 11
721.9002476418
 21
281.0026769317
 31
0.0
  0
LINE
  5
333
330
1F
100
AcDbEntity
  8
0
  6
Continuous
 62
     7
100
AcDbLine
 10
1209.9002476418
 20
281.0026769317
 30
0.0
 11
1205.7720000292
 21
281.0026769317
 31
0.0
  0
LINE
  5
334
330
1F
100
AcDbEntity
  8
0
  6
Continuous
 62
     7
100
AcDbLine
 10
1205.7720000292
 20
281.0026769317
 30
0.0
 11
1205.4463505066
 21
281.5026769317
 31
0.0
  0
LINE
  5
335
330
1F
100
AcDbEntity
  8
0
  6
Continuous
 62
     7
100
AcDbLine
 10
705.2002476418
 20
260.4026769317
 30
0.0
 11
705.2002476418
 21
266.3990724391
 31
0.0
  0
LINE
  5
336
330
1F
100
AcDbEntity
  8
0
  6
Continuous
 62
     7
100
AcDbLine
 10
704.7002476418
 20
265.8996731879
 30
0.0
 11
705.2002476418
 21
266.3990724391
 31
0.0
  0
LINE
  5
337
330
1F
100
AcDbEntity
  8
0
  6
Continuous
 62
     7
100
AcDbLine
 10
704.7002476418
 20
260.9026769317
 30
0.0
 11
704.7002476418
 21
265.8996731879
 31
0.0
  0
LINE
  5
338
330
1F
100
AcDbEntity
  8
0
  6
Continuous
 62
     7
100
AcDbLine
 10
1205.7720000292
 20
281.0026769317
 30
0.0
 11
1204.9002476418
 21
281.0026769317
 31
0.0
  0
LINE
  5
339
330
1F
100
AcDbEntity
  8
0
  6
Continuous
 62
     7
100
AcDbLine
 10
726.9002476418
 20
281.0026769317
 30
0.0
 11
726.0284952544
 21
281.0026769317
 31
0.0
  0
LINE
  5
33A
330
1F
100
AcDbEntity
  8
0
  6
Continuous
 62
     7
100
AcDbLine
 10
1212.9002476418
 20
266.535462741
 30
0.0
 11
1212.9002476418
 21
266.4984616076
 31
0.0
  0
LINE
  5
33B
330
1F
100
AcDbEntity
  8
0
  6
Continuous
 62
     7
100
AcDbLine
 10
1226.6002476418
 20
266.4026769317
 30
0.0
 11
1226.6002476418
 21
266.367244123
 31
0.0
  0
LINE
  5
33C
330
1F
100
AcDbEntity
  8
0
  6
Continuous
 62
     7
100
AcDbLine
 10
1227.1002476418
 20
265.9026769317
 30
0.0
 11
1227.1002476418
 21
265.8731495911
 31
0.0
  0
LINE
  5
33D
330
1F
100
AcDbEntity
  8
0
  6
Continuous
 62
     7
100
AcDbLine
 10
705.2002476418
 20
266.3990724391
 30
0.0
 11
705.2002476418
 21
266.4026769317
 31
0.0
  0
LINE
  5
33E
330
1F
100
AcDbEntity
  8
0
  6
Continuous
 62
     7
100
AcDbLine
 10
704.7002476418
 20
265.8996731879
 30
0.0
 11
704.7002476418
 21
265.9026769317
 31
0.0
  0
LINE
  5
33F
330
1F
100
AcDbEntity
  8
0
  6
Continuous
 62
     7
100
AcDbLine
 10
765.4002476418
 20
276.0026769317
 30
0.0
 11
768.8960924913
 21
276.0026769317
 31
0.0
  0
LINE
  5
340
330
1F
100
AcDbEntity
  8
0
  6
Continuous
 62
     7
100
AcDbLine
 10
768.8134516831
 20
275.5026769317
 30
0.0
 11
768.8960924913
 21
276.0026769317
 31
0.0
  0
LINE
  5
341
330
1F
100
AcDbEntity
  8
0
  6
Continuous
 62
     7
100
AcDbLine
 10
768.8134516831
 20
275.5026769317
 30
0.0
 11
765.9002476418
 21
275.5026769317
 31
0.0
  0
LINE
  5
342
330
1F
100
AcDbEntity
  8
0
  6
Continuous
 62
     7
100
AcDbLine
 10
768.8960924913
 20
276.0026769317
 30
0.0
 11
771.4002476418
 21
276.0026769317
 31
0.0
  0
LINE
  5
343
330
1F
100
AcDbEntity
  8
0
  6
Continuous
 62
     7
100
AcDbLine
 10
770.9002476418
 20
275.5026769317
 30
0.0
 11
768.8134516831
 21
275.5026769317
 31
0.0
  0
LINE
  5
344
330
1F
100
AcDbEntity
  8
0
  6
Continuous
 62
     7
100
AcDbLine
 10
713.4002476418
 20
287.6609893269
 30
0.0
 11
713.4002476418
 21
286.0026769317
 31
0.0
  0
LINE
  5
345
330
1F
100
AcDbEntity
  8
0
  6
Continuous
 62
     7
100
AcDbLine
 10
1218.4002476418
 20
287.6609893269
 30
0.0
 11
1218.4002476418
 21
286.0026769317
 31
0.0
  0
LINE
  5
346
330
1F
100
AcDbEntity
  8
0
  6
Continuous
 62
     7
100
AcDbLine
 10
790.6979294361
 20
297.0026769317
 30
0.0
 11
790.6979294361
 21
294.0026769317
 31
0.0
  0
LINE
  5
347
330
1F
100
AcDbEntity
  8
0
  6
Continuous
 62
     7
100
AcDbLine
 10
909.6979294361
 20
294.0026769317
 30
0.0
 11
909.6979294361
 21
297.0026769317
 31
0.0
  0
LINE
  5
348
330
1F
100
AcDbEntity
  8
0
  6
Continuous
 62
     7
100
AcDbLine
 10
1030.6979294361
 20
297.0026769317
 30
0.0
 11
1030.6979294361
 21
294.0026769317
 31
0.0
  0
LINE
  5
349
330
1F
100
AcDbEntity
  8
0
  6
Continuous
 62
     7
100
AcDbLine
 10
1149.6979294361
 20
294.0026769317
 30
0.0
 11
1149.6979294361
 21
297.0026769317
 31
0.0
  0
LINE
  5
34A
330
1F
100
AcDbEntity
  8
0
  6
Continuous
 62
     7
100
AcDbLine
 10
1069.6979294361
 20
294.0026769317
 30
0.0
 11
1069.6979294361
 21
297.0026769317
 31
0.0
  0
LINE
  5
34B
330
1F
100
AcDbEntity
  8
0
  6
Continuous
 62
     7
100
AcDbLine
 10
950.6979294361
 20
297.0026769317
 30
0.0
 11
950.6979294361
 21
294.0026769317
 31
0.0
  0
LINE
  5
34C
330
1F
100
AcDbEntity
  8
0
  6
Continuous
 62
     7
100
AcDbLine
 10
1110.6979294361
 20
297.0026769317
 30
0.0
 11
1110.6979294361
 21
294.0026769317
 31
0.0
  0
LINE
  5
34D
330
1F
100
AcDbEntity
  8
0
  6
Continuous
 62
     7
100
AcDbLine
 10
870.6979294361
 20
297.0026769317
 30
0.0
 11
870.6979294361
 21
294.0026769317
 31
0.0
  0
LINE
  5
34E
330
1F
100
AcDbEntity
  8
0
  6
Continuous
 62
     7
100
AcDbLine
 10
989.6979294361
 20
294.0026769317
 30
0.0
 11
989.6979294361
 21
297.0026769317
 31
0.0
  0
LINE
  5
34F
330
1F
100
AcDbEntity
  8
0
  6
Continuous
 62
     7
100
AcDbLine
 10
829.6979294361
 20
294.0026769317
 30
0.0
 11
829.6979294361
 21
297.0026769317
 31
0.0
  0
LINE
  5
350
330
1F
100
AcDbEntity
  8
0
  6
Continuous
 62
     7
100
AcDbLine
 10
1215.0602550327
 20
269.232992408
 30
0.0
 11
1215.0602550327
 21
257.5026769317
 31
0.0
  0
LINE
  5
351
330
1F
100
AcDbEntity
  8
0
  6
Continuous
 62
     7
100
AcDbLine
 10
1213.7298839065
 20
268.4354266236
 30
0.0
 11
1213.7298839065
 21
258.3097753034
 31
0.0
  0
LINE
  5
352
330
1F
100
AcDbEntity
  8
0
  6
Continuous
 62
     7
100
AcDbLine
 10
716.7402402508
 20
257.5026769317
 30
0.0
 11
716.7402402508
 21
269.2955880963
 31
0.0
  0
LINE
  5
353
330
1F
100
AcDbEntity
  8
0
  6
Continuous
 62
     7
100
AcDbLine
 10
718.0706113771
 20
258.3097753034
 30
0.0
 11
718.0706113771
 21
268.4894594512
 31
0.0
  0
LINE
  5
354
330
1F
100
AcDbEntity
  8
0
  6
Continuous
 62
     7
100
AcDbLine
 10
1213.0698765155
 20
267.1831794189
 30
0.0
 11
1213.0698765155
 21
259.5769894941
 31
0.0
  0
LINE
  5
355
330
1F
100
AcDbEntity
  8
0
  6
Continuous
 62
     7
100
AcDbLine
 10
718.730618768
 20
259.5769894941
 30
0.0
 11
718.730618768
 21
267.2237678153
 31
0.0
  0
LINE
  5
356
330
1F
100
AcDbEntity
  8
0
  6
Continuous
 62
     7
100
AcDbLine
 10
1226.6002476418
 20
266.367244123
 30
0.0
 11
1222.51579403
 21
266.367244123
 31
0.0
  0
LINE
  5
357
330
1F
100
AcDbEntity
  8
0
  6
Continuous
 62
     7
100
AcDbLine
 10
705.2002476418
 20
266.3990724391
 30
0.0
 11
709.2847012536
 21
266.3990724391
 31
0.0
  0
LINE
  5
358
330
1F
100
AcDbEntity
  8
0
  6
Continuous
 62
     7
100
AcDbLine
 10
1215.0602550327
 20
269.3026769317
 30
0.0
 11
1215.0602550327
 21
269.232992408
 31
0.0
  0
LINE
  5
359
330
1F
100
AcDbEntity
  8
0
  6
Continuous
 62
     7
100
AcDbLine
 10
1213.7298839065
 20
268.4955785599
 30
0.0
 11
1213.7298839065
 21
268.4354266236
 31
0.0
  0
LINE
  5
35A
330
1F
100
AcDbEntity
  8
0
  6
Continuous
 62
     7
100
AcDbLine
 10
1213.0698765155
 20
267.2283643693
 30
0.0
 11
1213.0698765155
 21
267.1831794189
 31
0.0
  0
LINE
  5
35B
330
1F
100
AcDbEntity
  8
0
  6
Continuous
 62
     7
100
AcDbLine
 10
716.7402402508
 20
269.2955880963
 30
0.0
 11
716.7402402508
 21
269.3026769317
 31
0.0
  0
LINE
  5
35C
330
1F
100
AcDbEntity
  8
0
  6
Continuous
 62
     7
100
AcDbLine
 10
718.0706113771
 20
268.4894594512
 30
0.0
 11
718.0706113771
 21
268.49557856
 31
0.0
  0
LINE
  5
35D
330
1F
100
AcDbEntity
  8
0
  6
Continuous
 62
     7
100
AcDbLine
 10
718.730618768
 20
267.2237678153
 30
0.0
 11
718.730618768
 21
267.2283643693
 31
0.0
  0
LINE
  5
35E
330
1F
100
AcDbEntity
  8
0
  6
Continuous
 62
     7
100
AcDbLine
 10
768.8960924913
 20
276.0026769317
 30
0.0
 11
768.8960924913
 21
281.5026769317
 31
0.0
  0
LINE
  5
35F
330
1F
100
AcDbEntity
  8
0
  6
Continuous
 62
     7
100
AcDbLine
 10
713.4002476418
 20
2.2788078817
 30
0.0
 11
705.4002476418
 21
2.2788078817
 31
0.0
  0
LINE
  5
360
330
1F
100
AcDbEntity
  8
0
  6
Continuous
 62
     7
100
AcDbLine
 10
1226.4002476418
 20
2.2788078817
 30
0.0
 11
1218.4002476418
 21
2.2788078817
 31
0.0
  0
LINE
  5
361
330
1F
100
AcDbEntity
  8
0
  6
Continuous
 62
     7
100
AcDbLine
 10
1218.4002476418
 20
2.2788078817
 30
0.0
 11
1217.9002476418
 21
2.2788078817
 31
0.0
  0
LINE
  5
362
330
1F
100
AcDbEntity
  8
0
  6
Continuous
 62
     7
100
AcDbLine
 10
713.9002476418
 20
2.2788078817
 30
0.0
 11
713.4002476418
 21
2.2788078817
 31
0.0
  0
LINE
  5
363
330
1F
100
AcDbEntity
  8
0
  6
Continuous
 62
     7
100
AcDbLine
 10
771.4002476418
 20
12.2788078817
 30
0.0
 11
770.9002476418
 21
12.7788078817
 31
0.0
  0
LINE
  5
364
330
1F
100
AcDbEntity
  8
0
  6
Continuous
 62
     7
100
AcDbLine
 10
771.4002476418
 20
6.7788078817
 30
0.0
 11
771.4002476418
 21
12.2788078817
 31
0.0
  0
LINE
  5
365
330
1F
100
AcDbEntity
  8
0
  6
Continuous
 62
     7
100
AcDbLine
 10
765.4002476418
 20
12.2788078817
 30
0.0
 11
765.4002476418
 21
6.7788078817
 31
0.0
  0
LINE
  5
366
330
1F
100
AcDbEntity
  8
0
  6
Continuous
 62
     7
100
AcDbLine
 10
765.9002476418
 20
12.7788078817
 30
0.0
 11
765.4002476418
 21
12.2788078817
 31
0.0
  0
ARC
  5
367
330
1F
100
AcDbEntity
  8
0
  6
Continuous
 62
     7
100
AcDbCircle
 10
716.7402402508
 20
20.4788078817
 30
0.0
 40
1.5
100
AcDbArc
 50
270.0
 51
332.4879973761
  0
LINE
  5
368
330
1F
100
AcDbEntity
  8
0
  6
Continuous
 62
     7
100
AcDbLine
 10
713.9002476418
 20
18.9788078817
 30
0.0
 11
716.7402402508
 21
18.9788078817
 31
0.0
  0
ARC
  5
369
330
1F
100
AcDbEntity
  8
0
  6
Continuous
 62
     7
100
AcDbCircle
 10
1215.0602550327
 20
20.4788078817
 30
0.0
 40
1.5
100
AcDbArc
 50
207.5120026239
 51
270.0
  0
LINE
  5
36A
330
1F
100
AcDbEntity
  8
0
  6
Continuous
 62
     7
100
AcDbLine
 10
1215.0602550327
 20
18.9788078817
 30
0.0
 11
1217.9002476418
 21
18.9788078817
 31
0.0
  0
LINE
  5
36B
330
1F
100
AcDbEntity
  8
0
  6
Continuous
 62
     7
100
AcDbLine
 10
718.0706113771
 20
19.7859062535
 30
0.0
 11
718.730618768
 21
21.0531204441
 31
0.0
  0
LINE
  5
36C
330
1F
100
AcDbEntity
  8
0
  6
Continuous
 62
     7
100
AcDbLine
 10
1213.0698765155
 20
21.0531204441
 30
0.0
 11
1213.7298839065
 21
19.7859062535
 31
0.0
  0
ARC
  5
36D
330
1F
100
AcDbEntity
  8
0
  6
Continuous
 62
     7
100
AcDbCircle
 10
717.4002476418
 20
21.7460220724
 30
0.0
 40
1.500000000000114
100
AcDbArc
 50
332.4879973761
 51
0.0
  0
ARC
  5
36E
330
1F
100
AcDbEntity
  8
0
  6
Continuous
 62
     7
100
AcDbCircle
 10
1214.4002476418
 20
21.7460220724
 30
0.0
 40
1.500000000000227
100
AcDbArc
 50
180.0
 51
207.5120026239
  0
LINE
  5
36F
330
1F
100
AcDbEntity
  8
0
  6
Continuous
 62
     7
100
AcDbLine
 10
704.7002476418
 20
22.3788078817
 30
0.0
 11
705.2002476418
 21
21.8788078817
 31
0.0
  0
LINE
  5
370
330
1F
100
AcDbEntity
  8
0
  6
Continuous
 62
     7
100
AcDbLine
 10
705.2002476418
 20
21.8788078817
 30
0.0
 11
711.9002476418
 21
21.8788078817
 31
0.0
  0
LINE
  5
371
330
1F
100
AcDbEntity
  8
0
  6
Continuous
 62
     7
100
AcDbLine
 10
1219.9002476418
 20
21.8788078817
 30
0.0
 11
1226.6002476418
 21
21.8788078817
 31
0.0
  0
LINE
  5
372
330
1F
100
AcDbEntity
  8
0
  6
Continuous
 62
     7
100
AcDbLine
 10
1226.6002476418
 20
21.8788078817
 30
0.0
 11
1227.1002476418
 21
22.3788078817
 31
0.0
  0
LINE
  5
373
330
1F
100
AcDbEntity
  8
0
  6
Continuous
 62
     7
100
AcDbLine
 10
1204.9002476418
 20
7.2788078817
 30
0.0
 11
1204.4002476418
 21
6.7788078817
 31
0.0
  0
LINE
  5
374
330
1F
100
AcDbEntity
  8
0
  6
Continuous
 62
     7
100
AcDbLine
 10
727.4002476418
 20
6.7788078817
 30
0.0
 11
726.9002476418
 21
7.2788078817
 31
0.0
  0
LINE
  5
375
330
1F
100
AcDbEntity
  8
0
  6
Continuous
 62
     7
100
AcDbLine
 10
1210.4002476418
 20
6.7788078817
 30
0.0
 11
1209.9002476418
 21
7.2788078817
 31
0.0
  0
LINE
  5
376
330
1F
100
AcDbEntity
  8
0
  6
Continuous
 62
     7
100
AcDbLine
 10
721.9002476418
 20
7.2788078817
 30
0.0
 11
721.4002476418
 21
6.7788078817
 31
0.0
  0
LINE
  5
377
330
1F
100
AcDbEntity
  8
0
  6
Continuous
 62
     7
100
AcDbLine
 10
1217.9002476418
 20
30.7788078817
 30
0.0
 11
1215.0602550327
 21
30.7788078817
 31
0.0
  0
ARC
  5
378
330
1F
100
AcDbEntity
  8
0
  6
Continuous
 62
     7
100
AcDbCircle
 10
1215.0602550327
 20
29.2788078817
 30
0.0
 40
1.5
100
AcDbArc
 50
90.0
 51
152.4879973761
  0
LINE
  5
379
330
1F
100
AcDbEntity
  8
0
  6
Continuous
 62
     7
100
AcDbLine
 10
1213.7298839065
 20
29.97170951
 30
0.0
 11
1213.0698765155
 21
28.7044953193
 31
0.0
  0
ARC
  5
37A
330
1F
100
AcDbEntity
  8
0
  6
Continuous
 62
     7
100
AcDbCircle
 10
1214.4002476418
 20
28.0115936911
 30
0.0
 40
1.500000000000227
100
AcDbArc
 50
152.4879973761
 51
180.0
  0
LINE
  5
37B
330
1F
100
AcDbEntity
  8
0
  6
Continuous
 62
     7
100
AcDbLine
 10
1226.6002476418
 20
27.8788078817
 30
0.0
 11
1219.9002476418
 21
27.8788078817
 31
0.0
  0
LINE
  5
37C
330
1F
100
AcDbEntity
  8
0
  6
Continuous
 62
     7
100
AcDbLine
 10
1227.1002476418
 20
27.3788078817
 30
0.0
 11
1226.6002476418
 21
27.8788078817
 31
0.0
  0
ARC
  5
37D
330
1F
100
AcDbEntity
  8
0
  6
Continuous
 62
     7
100
AcDbCircle
 10
716.7402402508
 20
29.2788078817
 30
0.0
 40
1.5
100
AcDbArc
 50
27.5120026239
 51
90.0
  0
LINE
  5
37E
330
1F
100
AcDbEntity
  8
0
  6
Continuous
 62
     7
100
AcDbLine
 10
716.7402402508
 20
30.7788078817
 30
0.0
 11
713.9002476418
 21
30.7788078817
 31
0.0
  0
LINE
  5
37F
330
1F
100
AcDbEntity
  8
0
  6
Continuous
 62
     7
100
AcDbLine
 10
718.730618768
 20
28.7044953193
 30
0.0
 11
718.0706113771
 21
29.97170951
 31
0.0
  0
ARC
  5
380
330
1F
100
AcDbEntity
  8
0
  6
Continuous
 62
     7
100
AcDbCircle
 10
717.4002476418
 20
28.0115936911
 30
0.0
 40
1.500000000000114
100
AcDbArc
 50
0.0
 51
27.5120026239
  0
LINE
  5
381
330
1F
100
AcDbEntity
  8
0
  6
Continuous
 62
     7
100
AcDbLine
 10
705.2002476418
 20
27.8788078817
 30
0.0
 11
704.7002476418
 21
27.3788078817
 31
0.0
  0
LINE
  5
382
330
1F
100
AcDbEntity
  8
0
  6
Continuous
 62
     7
100
AcDbLine
 10
711.9002476418
 20
27.8788078817
 30
0.0
 11
705.2002476418
 21
27.8788078817
 31
0.0
  0
LINE
  5
383
330
1F
100
AcDbEntity
  8
0
  6
Continuous
 62
     7
100
AcDbLine
 10
691.9002476418
 20
6.7788078817
 30
0.0
 11
668.4002476418
 21
6.7788078817
 31
0.0
  0
ARC
  5
384
330
1F
100
AcDbEntity
  8
0
  6
Continuous
 62
     7
100
AcDbCircle
 10
691.9002476418
 20
3.7788078817
 30
0.0
 40
3.000000000000001
100
AcDbArc
 50
0.0
 51
90.0
  0
LINE
  5
385
330
1F
100
AcDbEntity
  8
0
  6
Continuous
 62
     7
100
AcDbLine
 10
694.9002476418
 20
3.7788078817
 30
0.0
 11
694.9002476418
 21
2.2788078817
 31
0.0
  0
ARC
  5
386
330
1F
100
AcDbEntity
  8
0
  6
Continuous
 62
     7
100
AcDbCircle
 10
697.9002476418
 20
2.2788078817
 30
0.0
 40
3.000000000000114
100
AcDbArc
 50
180.0
 51
270.0
  0
LINE
  5
387
330
1F
100
AcDbEntity
  8
0
  6
Continuous
 62
     7
100
AcDbLine
 10
697.9002476418
 20
-0.7211921183
 30
0.0
 11
710.9002476418
 21
-0.7211921183
 31
0.0
  0
ARC
  5
388
330
1F
100
AcDbEntity
  8
0
  6
Continuous
 62
     7
100
AcDbCircle
 10
710.9002476418
 20
2.2788078817
 30
0.0
 40
3.000000000000114
100
AcDbArc
 50
270.0
 51
0.0
  0
LINE
  5
389
330
1F
100
AcDbEntity
  8
0
  6
Continuous
 62
     7
100
AcDbLine
 10
713.9002476418
 20
2.2788078817
 30
0.0
 11
713.9002476418
 21
3.7788078817
 31
0.0
  0
ARC
  5
38A
330
1F
100
AcDbEntity
  8
0
  6
Continuous
 62
     7
100
AcDbCircle
 10
716.9002476418
 20
3.7788078817
 30
0.0
 40
2.99999999999999
100
AcDbArc
 50
90.0
 51
180.0
  0
LINE
  5
38B
330
1F
100
AcDbEntity
  8
0
  6
Continuous
 62
     7
100
AcDbLine
 10
1214.9002476418
 20
6.7788078817
 30
0.0
 11
716.9002476418
 21
6.7788078817
 31
0.0
  0
ARC
  5
38C
330
1F
100
AcDbEntity
  8
0
  6
Continuous
 62
     7
100
AcDbCircle
 10
1214.9002476418
 20
3.7788078817
 30
0.0
 40
3.000000000000227
100
AcDbArc
 50
0.0
 51
90.0
  0
LINE
  5
38D
330
1F
100
AcDbEntity
  8
0
  6
Continuous
 62
     7
100
AcDbLine
 10
1217.9002476418
 20
3.7788078817
 30
0.0
 11
1217.9002476418
 21
2.2788078817
 31
0.0
  0
ARC
  5
38E
330
1F
100
AcDbEntity
  8
0
  6
Continuous
 62
     7
100
AcDbCircle
 10
1220.9002476418
 20
2.2788078817
 30
0.0
 40
3.000000000000001
100
AcDbArc
 50
180.0
 51
270.0
  0
LINE
  5
38F
330
1F
100
AcDbEntity
  8
0
  6
Continuous
 62
     7
100
AcDbLine
 10
1220.9002476418
 20
-0.7211921183
 30
0.0
 11
1233.9002476418
 21
-0.7211921183
 31
0.0
  0
ARC
  5
390
330
1F
100
AcDbEntity
  8
0
  6
Continuous
 62
     7
100
AcDbCircle
 10
1233.9002476418
 20
2.2788078817
 30
0.0
 40
3.000000000000001
100
AcDbArc
 50
270.0
 51
0.0
  0
LINE
  5
391
330
1F
100
AcDbEntity
  8
0
  6
Continuous
 62
     7
100
AcDbLine
 10
1236.9002476418
 20
2.2788078817
 30
0.0
 11
1236.9002476418
 21
3.7788078817
 31
0.0
  0
ARC
  5
392
330
1F
100
AcDbEntity
  8
0
  6
Continuous
 62
     7
100
AcDbCircle
 10
1239.9002476418
 20
3.7788078817
 30
0.0
 40
3.000000000000001
100
AcDbArc
 50
90.0
 51
180.0
  0
LINE
  5
393
330
1F
100
AcDbEntity
  8
0
  6
Continuous
 62
     7
100
AcDbLine
 10
1263.4002476418
 20
6.7788078817
 30
0.0
 11
1239.9002476418
 21
6.7788078817
 31
0.0
  0
LINE
  5
394
330
1F
100
AcDbEntity
  8
0
  6
Continuous
 62
     7
100
AcDbLine
 10
668.4002476418
 20
-5.7211921183
 30
0.0
 11
1263.4002476418
 21
-5.7211921183
 31
0.0
  0
LINE
  5
395
330
1F
100
AcDbEntity
  8
0
  6
Continuous
 62
     7
100
AcDbLine
 10
668.4002476418
 20
-5.7211921183
 30
0.0
 11
668.4002476418
 21
6.7788078817
 31
0.0
  0
LINE
  5
396
330
1F
100
AcDbEntity
  8
0
  6
Continuous
 62
     7
100
AcDbLine
 10
1263.4002476418
 20
-5.7211921183
 30
0.0
 11
1263.4002476418
 21
6.7788078817
 31
0.0
  0
ARC
  5
397
330
1F
100
AcDbEntity
  8
0
  6
Continuous
 62
     7
100
AcDbCircle
 10
705.4002476418
 20
-3.7211921183
 30
0.0
 40
6.0
100
AcDbArc
 50
90.0
 51
150.0
  0
ARC
  5
398
330
1F
100
AcDbEntity
  8
0
  6
Continuous
 62
     7
100
AcDbCircle
 10
1226.4002476418
 20
-3.7211921183
 30
0.0
 40
5.999999999999998
100
AcDbArc
 50
30.0
 51
90.0
  0
LINE
  5
399
330
1F
100
AcDbEntity
  8
0
  6
Continuous
 62
     7
100
AcDbLine
 10
1081.0221438001
 20
-6.2588265269
 30
0.0
 11
1069.6979294361
 21
-6.2588265269
 31
0.0
  0
LINE
  5
39A
330
1F
100
AcDbEntity
  8
0
  6
Continuous
 62
     7
100
AcDbLine
 10
1069.6979294361
 20
-6.2588265269
 30
0.0
 11
1069.6979294361
 21
-5.7211921183
 31
0.0
  0
ARC
  5
39B
330
1F
100
AcDbEntity
  8
0
  6
Continuous
 62
     7
100
AcDbCircle
 10
1082.3865069765
 20
-7.7211921183
 30
0.0
 40
2.000000000000245
100
AcDbArc
 50
90.0
 51
133.0143561528
  0
LINE
  5
39C
330
1F
100
AcDbEntity
  8
0
  6
Continuous
 62
     7
100
AcDbLine
 10
1161.0221438001
 20
-6.2588265269
 30
0.0
 11
1149.6979294361
 21
-6.2588265269
 31
0.0
  0
LINE
  5
39D
330
1F
100
AcDbEntity
  8
0
  6
Continuous
 62
     7
100
AcDbLine
 10
1149.6979294361
 20
-6.2588265269
 30
0.0
 11
1149.6979294361
 21
-5.7211921183
 31
0.0
  0
ARC
  5
39E
330
1F
100
AcDbEntity
  8
0
  6
Continuous
 62
     7
100
AcDbCircle
 10
1162.3865069765
 20
-7.7211921183
 30
0.0
 40
2.000000000000002
100
AcDbArc
 50
90.0
 51
133.0143561528
  0
LINE
  5
39F
330
1F
100
AcDbEntity
  8
0
  6
Continuous
 62
     7
100
AcDbLine
 10
1030.6979294361
 20
-6.2588265269
 30
0.0
 11
1030.6979294361
 21
-5.7211921183
 31
0.0
  0
LINE
  5
3A0
330
1F
100
AcDbEntity
  8
0
  6
Continuous
 62
     7
100
AcDbLine
 10
1030.6979294361
 20
-6.2588265269
 30
0.0
 11
1019.373715072
 21
-6.2588265269
 31
0.0
  0
ARC
  5
3A1
330
1F
100
AcDbEntity
  8
0
  6
Continuous
 62
     7
100
AcDbCircle
 10
1018.0093518956
 20
-7.7211921183
 30
0.0
 40
1.999999999999998
100
AcDbArc
 50
46.9856438472
 51
90.0
  0
LINE
  5
3A2
330
1F
100
AcDbEntity
  8
0
  6
Continuous
 62
     7
100
AcDbLine
 10
1110.6979294361
 20
-6.2588265269
 30
0.0
 11
1110.6979294361
 21
-5.7211921183
 31
0.0
  0
LINE
  5
3A3
330
1F
100
AcDbEntity
  8
0
  6
Continuous
 62
     7
100
AcDbLine
 10
1110.6979294361
 20
-6.2588265269
 30
0.0
 11
1099.373715072
 21
-6.2588265269
 31
0.0
  0
ARC
  5
3A4
330
1F
100
AcDbEntity
  8
0
  6
Continuous
 62
     7
100
AcDbCircle
 10
1098.0093518956
 20
-7.7211921183
 30
0.0
 40
2.000000000000002
100
AcDbArc
 50
46.9856438472
 51
90.0
  0
LINE
  5
3A5
330
1F
100
AcDbEntity
  8
0
  6
Continuous
 62
     7
100
AcDbLine
 10
1001.0221438001
 20
-6.2588265269
 30
0.0
 11
989.6979294361
 21
-6.2588265269
 31
0.0
  0
LINE
  5
3A6
330
1F
100
AcDbEntity
  8
0
  6
Continuous
 62
     7
100
AcDbLine
 10
989.6979294361
 20
-6.2588265269
 30
0.0
 11
989.6979294361
 21
-5.7211921183
 31
0.0
  0
ARC
  5
3A7
330
1F
100
AcDbEntity
  8
0
  6
Continuous
 62
     7
100
AcDbCircle
 10
1002.3865069765
 20
-7.7211921183
 30
0.0
 40
2.000000000000012
100
AcDbArc
 50
90.0
 51
133.0143561528
  0
LINE
  5
3A8
330
1F
100
AcDbEntity
  8
0
  6
Continuous
 62
     7
100
AcDbLine
 10
921.0221438001
 20
-6.2588265269
 30
0.0
 11
909.6979294361
 21
-6.2588265269
 31
0.0
  0
LINE
  5
3A9
330
1F
100
AcDbEntity
  8
0
  6
Continuous
 62
     7
100
AcDbLine
 10
909.6979294361
 20
-6.2588265269
 30
0.0
 11
909.6979294361
 21
-5.7211921183
 31
0.0
  0
ARC
  5
3AA
330
1F
100
AcDbEntity
  8
0
  6
Continuous
 62
     7
100
AcDbCircle
 10
922.3865069765
 20
-7.7211921183
 30
0.0
 40
2.00000000000001
100
AcDbArc
 50
90.0
 51
133.0143561528
  0
LINE
  5
3AB
330
1F
100
AcDbEntity
  8
0
  6
Continuous
 62
     7
100
AcDbLine
 10
841.0221438001
 20
-6.2588265269
 30
0.0
 11
829.6979294361
 21
-6.2588265269
 31
0.0
  0
LINE
  5
3AC
330
1F
100
AcDbEntity
  8
0
  6
Continuous
 62
     7
100
AcDbLine
 10
829.6979294361
 20
-6.2588265269
 30
0.0
 11
829.6979294361
 21
-5.7211921183
 31
0.0
  0
ARC
  5
3AD
330
1F
100
AcDbEntity
  8
0
  6
Continuous
 62
     7
100
AcDbCircle
 10
842.3865069765
 20
-7.7211921183
 30
0.0
 40
2.000000000000092
100
AcDbArc
 50
90.0
 51
133.0143561528
  0
LINE
  5
3AE
330
1F
100
AcDbEntity
  8
0
  6
Continuous
 62
     7
100
AcDbLine
 10
790.6979294361
 20
-6.2588265269
 30
0.0
 11
790.6979294361
 21
-5.7211921183
 31
0.0
  0
LINE
  5
3AF
330
1F
100
AcDbEntity
  8
0
  6
Continuous
 62
     7
100
AcDbLine
 10
790.6979294361
 20
-6.2588265269
 30
0.0
 11
779.373715072
 21
-6.2588265269
 31
0.0
  0
ARC
  5
3B0
330
1F
100
AcDbEntity
  8
0
  6
Continuous
 62
     7
100
AcDbCircle
 10
778.0093518956
 20
-7.7211921183
 30
0.0
 40
2.000000000000002
100
AcDbArc
 50
46.9856438472
 51
90.0
  0
LINE
  5
3B1
330
1F
100
AcDbEntity
  8
0
  6
Continuous
 62
     7
100
AcDbLine
 10
870.6979294361
 20
-6.2588265269
 30
0.0
 11
870.6979294361
 21
-5.7211921183
 31
0.0
  0
LINE
  5
3B2
330
1F
100
AcDbEntity
  8
0
  6
Continuous
 62
     7
100
AcDbLine
 10
870.6979294361
 20
-6.2588265269
 30
0.0
 11
859.373715072
 21
-6.2588265269
 31
0.0
  0
ARC
  5
3B3
330
1F
100
AcDbEntity
  8
0
  6
Continuous
 62
     7
100
AcDbCircle
 10
858.0093518956
 20
-7.7211921183
 30
0.0
 40
2.000000000000002
100
AcDbArc
 50
46.9856438472
 51
90.0
  0
LINE
  5
3B4
330
1F
100
AcDbEntity
  8
0
  6
Continuous
 62
     7
100
AcDbLine
 10
950.6979294361
 20
-6.2588265269
 30
0.0
 11
950.6979294361
 21
-5.7211921183
 31
0.0
  0
LINE
  5
3B5
330
1F
100
AcDbEntity
  8
0
  6
Continuous
 62
     7
100
AcDbLine
 10
950.6979294361
 20
-6.2588265269
 30
0.0
 11
939.373715072
 21
-6.2588265269
 31
0.0
  0
ARC
  5
3B6
330
1F
100
AcDbEntity
  8
0
  6
Continuous
 62
     7
100
AcDbCircle
 10
938.0093518956
 20
-7.7211921183
 30
0.0
 40
2.000000000000157
100
AcDbArc
 50
46.9856438472
 51
90.0
  0
LINE
  5
3B7
330
1F
100
AcDbEntity
  8
0
  6
Continuous
 62
     7
100
AcDbLine
 10
1149.6979294361
 20
-6.2588265269
 30
0.0
 11
1110.6979294361
 21
-6.2588265269
 31
0.0
  0
LINE
  5
3B8
330
1F
100
AcDbEntity
  8
0
  6
Continuous
 62
     7
100
AcDbLine
 10
1069.6979294361
 20
-6.2588265269
 30
0.0
 11
1030.6979294361
 21
-6.2588265269
 31
0.0
  0
LINE
  5
3B9
330
1F
100
AcDbEntity
  8
0
  6
Continuous
 62
     7
100
AcDbLine
 10
989.6979294361
 20
-6.2588265269
 30
0.0
 11
950.6979294361
 21
-6.2588265269
 31
0.0
  0
LINE
  5
3BA
330
1F
100
AcDbEntity
  8
0
  6
Continuous
 62
     7
100
AcDbLine
 10
909.6979294361
 20
-6.2588265269
 30
0.0
 11
870.6979294361
 21
-6.2588265269
 31
0.0
  0
LINE
  5
3BB
330
1F
100
AcDbEntity
  8
0
  6
Continuous
 62
     7
100
AcDbLine
 10
829.6979294361
 20
-6.2588265269
 30
0.0
 11
790.6979294361
 21
-6.2588265269
 31
0.0
  0
LINE
  5
3BC
330
1F
100
AcDbEntity
  8
0
  6
Continuous
 62
     7
100
AcDbLine
 10
771.4002476418
 20
12.2788078817
 30
0.0
 11
767.9044027923
 21
12.2788078817
 31
0.0
  0
LINE
  5
3BD
330
1F
100
AcDbEntity
  8
0
  6
Continuous
 62
     7
100
AcDbLine
 10
767.9870436005
 20
12.7788078817
 30
0.0
 11
767.9044027923
 21
12.2788078817
 31
0.0
  0
LINE
  5
3BE
330
1F
100
AcDbEntity
  8
0
  6
Continuous
 62
     7
100
AcDbLine
 10
767.9870436005
 20
12.7788078817
 30
0.0
 11
770.9002476418
 21
12.7788078817
 31
0.0
  0
LINE
  5
3BF
330
1F
100
AcDbEntity
  8
0
  6
Continuous
 62
     7
100
AcDbLine
 10
767.9044027923
 20
12.2788078817
 30
0.0
 11
765.4002476418
 21
12.2788078817
 31
0.0
  0
LINE
  5
3C0
330
1F
100
AcDbEntity
  8
0
  6
Continuous
 62
     7
100
AcDbLine
 10
765.9002476418
 20
12.7788078817
 30
0.0
 11
767.9870436005
 21
12.7788078817
 31
0.0
  0
ARC
  5
3C1
330
1F
100
AcDbEntity
  8
0
  6
Continuous
 62
     7
100
AcDbCircle
 10
790.6979294361
 20
5.8788078817
 30
0.0
 40
16.59999999999999
100
AcDbArc
 50
226.9856438472
 51
270.0
  0
LINE
  5
3C2
330
1F
100
AcDbEntity
  8
0
  6
Continuous
 62
     7
100
AcDbLine
 10
790.6979294361
 20
-10.7211921183
 30
0.0
 11
790.6979294361
 21
-6.2588265269
 31
0.0
  0
ARC
  5
3C3
330
1F
100
AcDbEntity
  8
0
  6
Continuous
 62
     7
100
AcDbCircle
 10
950.6979294361
 20
5.8788078817
 30
0.0
 40
16.60000000000025
100
AcDbArc
 50
226.9856438472
 51
270.0
  0
LINE
  5
3C4
330
1F
100
AcDbEntity
  8
0
  6
Continuous
 62
     7
100
AcDbLine
 10
950.6979294361
 20
-10.7211921183
 30
0.0
 11
950.6979294361
 21
-6.2588265269
 31
0.0
  0
ARC
  5
3C5
330
1F
100
AcDbEntity
  8
0
  6
Continuous
 62
     7
100
AcDbCircle
 10
870.6979294361
 20
5.8788078817
 30
0.0
 40
16.60000000000017
100
AcDbArc
 50
226.9856438472
 51
270.0
  0
LINE
  5
3C6
330
1F
100
AcDbEntity
  8
0
  6
Continuous
 62
     7
100
AcDbLine
 10
870.6979294361
 20
-10.7211921183
 30
0.0
 11
870.6979294361
 21
-6.2588265269
 31
0.0
  0
LINE
  5
3C7
330
1F
100
AcDbEntity
  8
0
  6
Continuous
 62
     7
100
AcDbLine
 10
909.6979294361
 20
-6.2588265269
 30
0.0
 11
909.6979294361
 21
-10.7211921183
 31
0.0
  0
ARC
  5
3C8
330
1F
100
AcDbEntity
  8
0
  6
Continuous
 62
     7
100
AcDbCircle
 10
909.6979294361
 20
5.8788078817
 30
0.0
 40
16.60000000000003
100
AcDbArc
 50
270.0
 51
313.0143561528
  0
LINE
  5
3C9
330
1F
100
AcDbEntity
  8
0
  6
Continuous
 62
     7
100
AcDbLine
 10
829.6979294361
 20
-6.2588265269
 30
0.0
 11
829.6979294361
 21
-10.7211921183
 31
0.0
  0
ARC
  5
3CA
330
1F
100
AcDbEntity
  8
0
  6
Continuous
 62
     7
100
AcDbCircle
 10
829.6979294361
 20
5.8788078817
 30
0.0
 40
16.6
100
AcDbArc
 50
270.0
 51
313.0143561528
  0
ARC
  5
3CB
330
1F
100
AcDbEntity
  8
0
  6
Continuous
 62
     7
100
AcDbCircle
 10
1110.6979294361
 20
5.8788078817
 30
0.0
 40
16.60000000000025
100
AcDbArc
 50
226.9856438472
 51
270.0
  0
LINE
  5
3CC
330
1F
100
AcDbEntity
  8
0
  6
Continuous
 62
     7
100
AcDbLine
 10
1110.6979294361
 20
-10.7211921183
 30
0.0
 11
1110.6979294361
 21
-6.2588265269
 31
0.0
  0
LINE
  5
3CD
330
1F
100
AcDbEntity
  8
0
  6
Continuous
 62
     7
100
AcDbLine
 10
1069.6979294361
 20
-6.2588265269
 30
0.0
 11
1069.6979294361
 21
-10.7211921183
 31
0.0
  0
ARC
  5
3CE
330
1F
100
AcDbEntity
  8
0
  6
Continuous
 62
     7
100
AcDbCircle
 10
1069.6979294361
 20
5.8788078817
 30
0.0
 40
16.60000000000001
100
AcDbArc
 50
270.0
 51
313.0143561528
  0
LINE
  5
3CF
330
1F
100
AcDbEntity
  8
0
  6
Continuous
 62
     7
100
AcDbLine
 10
1149.6979294361
 20
-6.2588265269
 30
0.0
 11
1149.6979294361
 21
-10.7211921183
 31
0.0
  0
ARC
  5
3D0
330
1F
100
AcDbEntity
  8
0
  6
Continuous
 62
     7
100
AcDbCircle
 10
1149.6979294361
 20
5.8788078817
 30
0.0
 40
16.60000000000003
100
AcDbArc
 50
270.0
 51
313.0143561528
  0
ARC
  5
3D1
330
1F
100
AcDbEntity
  8
0
  6
Continuous
 62
     7
100
AcDbCircle
 10
1030.6979294361
 20
5.8788078817
 30
0.0
 40
16.60000000000017
100
AcDbArc
 50
226.9856438472
 51
270.0
  0
LINE
  5
3D2
330
1F
100
AcDbEntity
  8
0
  6
Continuous
 62
     7
100
AcDbLine
 10
1030.6979294361
 20
-10.7211921183
 30
0.0
 11
1030.6979294361
 21
-6.2588265269
 31
0.0
  0
LINE
  5
3D3
330
1F
100
AcDbEntity
  8
0
  6
Continuous
 62
     7
100
AcDbLine
 10
989.6979294361
 20
-6.2588265269
 30
0.0
 11
989.6979294361
 21
-10.7211921183
 31
0.0
  0
ARC
  5
3D4
330
1F
100
AcDbEntity
  8
0
  6
Continuous
 62
     7
100
AcDbCircle
 10
989.6979294361
 20
5.8788078817
 30
0.0
 40
16.60000000000001
100
AcDbArc
 50
270.0
 51
313.0143561528
  0
LINE
  5
3D5
330
1F
100
AcDbEntity
  8
0
  6
Continuous
 62
     7
100
AcDbLine
 10
1030.6979294361
 20
-10.7211921183
 30
0.0
 11
1069.6979294361
 21
-10.7211921183
 31
0.0
  0
LINE
  5
3D6
330
1F
100
AcDbEntity
  8
0
  6
Continuous
 62
     7
100
AcDbLine
 10
1110.6979294361
 20
-10.7211921183
 30
0.0
 11
1149.6979294361
 21
-10.7211921183
 31
0.0
  0
LINE
  5
3D7
330
1F
100
AcDbEntity
  8
0
  6
Continuous
 62
     7
100
AcDbLine
 10
950.6979294361
 20
-10.7211921183
 30
0.0
 11
989.6979294361
 21
-10.7211921183
 31
0.0
  0
LINE
  5
3D8
330
1F
100
AcDbEntity
  8
0
  6
Continuous
 62
     7
100
AcDbLine
 10
870.6979294361
 20
-10.7211921183
 30
0.0
 11
909.6979294361
 21
-10.7211921183
 31
0.0
  0
LINE
  5
3D9
330
1F
100
AcDbEntity
  8
0
  6
Continuous
 62
     7
100
AcDbLine
 10
790.6979294361
 20
-10.7211921183
 30
0.0
 11
829.6979294361
 21
-10.7211921183
 31
0.0
  0
LINE
  5
3DA
330
1F
100
AcDbEntity
  8
0
  6
Continuous
 62
     7
100
AcDbLine
 10
1219.9002476418
 20
30.7788078817
 30
0.0
 11
1217.9002476418
 21
30.7788078817
 31
0.0
  0
LINE
  5
3DB
330
1F
100
AcDbEntity
  8
0
  6
Continuous
 62
     7
100
AcDbLine
 10
1217.9002476418
 20
30.7788078817
 30
0.0
 11
1217.9002476418
 21
32.7788078817
 31
0.0
  0
LINE
  5
3DC
330
1F
100
AcDbEntity
  8
0
  6
Continuous
 62
     7
100
AcDbLine
 10
1217.9002476418
 20
32.7788078817
 30
0.0
 11
1219.9002476418
 21
32.7788078817
 31
0.0
  0
LINE
  5
3DD
330
1F
100
AcDbEntity
  8
0
  6
Continuous
 62
     7
100
AcDbLine
 10
1219.9002476418
 20
32.7788078817
 30
0.0
 11
1219.9002476418
 21
30.7788078817
 31
0.0
  0
LINE
  5
3DE
330
1F
100
AcDbEntity
  8
0
  6
Continuous
 62
     7
100
AcDbLine
 10
711.9002476418
 20
32.7788078817
 30
0.0
 11
713.9002476418
 21
32.7788078817
 31
0.0
  0
LINE
  5
3DF
330
1F
100
AcDbEntity
  8
0
  6
Continuous
 62
     7
100
AcDbLine
 10
713.9002476418
 20
30.7788078817
 30
0.0
 11
711.9002476418
 21
30.7788078817
 31
0.0
  0
LINE
  5
3E0
330
1F
100
AcDbEntity
  8
0
  6
Continuous
 62
     7
100
AcDbLine
 10
711.9002476418
 20
30.7788078817
 30
0.0
 11
711.9002476418
 21
32.7788078817
 31
0.0
  0
LINE
  5
3E1
330
1F
100
AcDbEntity
  8
0
  6
Continuous
 62
     7
100
AcDbLine
 10
713.9002476418
 20
32.7788078817
 30
0.0
 11
713.9002476418
 21
30.7788078817
 31
0.0
  0
LINE
  5
3E2
330
1F
100
AcDbEntity
  8
0
  6
Continuous
 62
     7
100
AcDbLine
 10
1217.9002476418
 20
30.7788078817
 30
0.0
 11
1217.9002476418
 21
3.7788078817
 31
0.0
  0
LINE
  5
3E3
330
1F
100
AcDbEntity
  8
0
  6
Continuous
 62
     7
100
AcDbLine
 10
1219.9002476418
 20
30.7788078817
 30
0.0
 11
1219.9002476418
 21
2.2788078817
 31
0.0
  0
LINE
  5
3E4
330
1F
100
AcDbEntity
  8
0
  6
Continuous
 62
     7
100
AcDbLine
 10
711.9002476418
 20
2.2788078817
 30
0.0
 11
711.9002476418
 21
30.7788078817
 31
0.0
  0
LINE
  5
3E5
330
1F
100
AcDbEntity
  8
0
  6
Continuous
 62
     7
100
AcDbLine
 10
713.9002476418
 20
3.7788078817
 30
0.0
 11
713.9002476418
 21
30.7788078817
 31
0.0
  0
ARC
  5
3E6
330
1F
100
AcDbEntity
  8
0
  6
Continuous
 62
     7
100
AcDbCircle
 10
716.7406180625
 20
29.2715084526
 30
0.0
 40
1.500210641247983
100
AcDbArc
 50
27.5586488616
 51
90.0144293185
  0
LINE
  5
3E7
330
1F
100
AcDbEntity
  8
0
  6
Continuous
 62
     7
100
AcDbLine
 10
716.7402402508
 20
30.7717190463
 30
0.0
 11
713.9002476418
 21
30.7717190463
 31
0.0
  0
ARC
  5
3E8
330
1F
100
AcDbEntity
  8
0
  6
Continuous
 62
     7
100
AcDbCircle
 10
1215.0565607891
 20
29.2069469038
 30
0.0
 40
1.5021809967268
100
AcDbArc
 50
89.8590950211
 51
152.0268050375
  0
LINE
  5
3E9
330
1F
100
AcDbEntity
  8
0
  6
Continuous
 62
     7
100
AcDbLine
 10
1215.0602550327
 20
30.709123358
 30
0.0
 11
1217.9002476418
 21
30.709123358
 31
0.0
  0
LINE
  5
3EA
330
1F
100
AcDbEntity
  8
0
  6
Continuous
 62
     7
100
AcDbLine
 10
718.730618768
 20
28.6998987653
 30
0.0
 11
718.0706113771
 21
29.9655904012
 31
0.0
  0
LINE
  5
3EB
330
1F
100
AcDbEntity
  8
0
  6
Continuous
 62
     7
100
AcDbLine
 10
1213.0698765155
 20
28.659310369
 30
0.0
 11
1213.7298839065
 21
29.9115575737
 31
0.0
  0
ARC
  5
3EC
330
1F
100
AcDbEntity
  8
0
  6
Continuous
 62
     7
100
AcDbCircle
 10
717.403491175
 20
28.0077916391
 30
0.0
 40
1.496756467238349
100
AcDbArc
 50
0.0014553091
 51
27.5423833082
  0
LINE
  5
3ED
330
1F
100
AcDbEntity
  8
0
  6
Continuous
 62
     7
100
AcDbLine
 10
718.9002476418
 20
21.7460220724
 30
0.0
 11
718.9002476418
 21
28.0078296567
 31
0.0
  0
ARC
  5
3EE
330
1F
100
AcDbEntity
  8
0
  6
Continuous
 62
     7
100
AcDbCircle
 10
1214.3685323684
 20
27.9742168313
 30
0.0
 40
1.468284774731097
100
AcDbArc
 50
152.1865385126
 51
179.9853383093
  0
LINE
  5
3EF
330
1F
100
AcDbEntity
  8
0
  6
Continuous
 62
     7
100
AcDbLine
 10
1212.9002476418
 20
27.9745925577
 30
0.0
 11
1212.9002476418
 21
21.7460220724
 31
0.0
  0
LINE
  5
3F0
330
1F
100
AcDbEntity
  8
0
  6
Continuous
 62
     7
100
AcDbLine
 10
705.2002476418
 20
21.8788078817
 30
0.0
 11
705.2002476418
 21
27.8752033891
 31
0.0
  0
LINE
  5
3F1
330
1F
100
AcDbEntity
  8
0
  6
Continuous
 62
     7
100
AcDbLine
 10
704.7002476418
 20
22.3788078817
 30
0.0
 11
704.7002476418
 21
27.3758041379
 31
0.0
  0
LINE
  5
3F2
330
1F
100
AcDbEntity
  8
0
  6
Continuous
 62
     7
100
AcDbLine
 10
704.7002476418
 20
27.3758041379
 30
0.0
 11
705.2002476418
 21
27.8752033891
 31
0.0
  0
LINE
  5
3F3
330
1F
100
AcDbEntity
  8
0
  6
Continuous
 62
     7
100
AcDbLine
 10
1226.6002476418
 20
27.8433750731
 30
0.0
 11
1226.6002476418
 21
21.8788078817
 31
0.0
  0
LINE
  5
3F4
330
1F
100
AcDbEntity
  8
0
  6
Continuous
 62
     7
100
AcDbLine
 10
1227.1002476418
 20
27.3492805412
 30
0.0
 11
1226.6002476418
 21
27.8433750731
 31
0.0
  0
LINE
  5
3F5
330
1F
100
AcDbEntity
  8
0
  6
Continuous
 62
     7
100
AcDbLine
 10
1227.1002476418
 20
27.3492805412
 30
0.0
 11
1227.1002476418
 21
22.3788078817
 31
0.0
  0
LINE
  5
3F6
330
1F
100
AcDbEntity
  8
0
  6
Continuous
 62
     7
100
AcDbLine
 10
1209.0284952544
 20
7.2788078817
 30
0.0
 11
1209.3541447769
 21
6.7788078817
 31
0.0
  0
LINE
  5
3F7
330
1F
100
AcDbEntity
  8
0
  6
Continuous
 62
     7
100
AcDbLine
 10
1204.9002476418
 20
7.2788078817
 30
0.0
 11
1209.0284952544
 21
7.2788078817
 31
0.0
  0
LINE
  5
3F8
330
1F
100
AcDbEntity
  8
0
  6
Continuous
 62
     7
100
AcDbLine
 10
722.7720000292
 20
7.2788078817
 30
0.0
 11
722.4463505066
 21
6.7788078817
 31
0.0
  0
LINE
  5
3F9
330
1F
100
AcDbEntity
  8
0
  6
Continuous
 62
     7
100
AcDbLine
 10
722.7720000292
 20
7.2788078817
 30
0.0
 11
726.9002476418
 21
7.2788078817
 31
0.0
  0
LINE
  5
3FA
330
1F
100
AcDbEntity
  8
0
  6
Continuous
 62
     7
100
AcDbLine
 10
1209.0284952544
 20
7.2788078817
 30
0.0
 11
1209.9002476418
 21
7.2788078817
 31
0.0
  0
LINE
  5
3FB
330
1F
100
AcDbEntity
  8
0
  6
Continuous
 62
     7
100
AcDbLine
 10
721.9002476418
 20
7.2788078817
 30
0.0
 11
722.7720000292
 21
7.2788078817
 31
0.0
  0
LINE
  5
3FC
330
1F
100
AcDbEntity
  8
0
  6
Continuous
 62
     7
100
AcDbLine
 10
1212.9002476418
 20
28.0115936911
 30
0.0
 11
1212.9002476418
 21
27.9745925577
 31
0.0
  0
LINE
  5
3FD
330
1F
100
AcDbEntity
  8
0
  6
Continuous
 62
     7
100
AcDbLine
 10
1226.6002476418
 20
27.8788078817
 30
0.0
 11
1226.6002476418
 21
27.8433750731
 31
0.0
  0
LINE
  5
3FE
330
1F
100
AcDbEntity
  8
0
  6
Continuous
 62
     7
100
AcDbLine
 10
1227.1002476418
 20
27.3788078817
 30
0.0
 11
1227.1002476418
 21
27.3492805412
 31
0.0
  0
LINE
  5
3FF
330
1F
100
AcDbEntity
  8
0
  6
Continuous
 62
     7
100
AcDbLine
 10
705.2002476418
 20
27.8752033891
 30
0.0
 11
705.2002476418
 21
27.8788078817
 31
0.0
  0
LINE
  5
400
330
1F
100
AcDbEntity
  8
0
  6
Continuous
 62
     7
100
AcDbLine
 10
704.7002476418
 20
27.3758041379
 30
0.0
 11
704.7002476418
 21
27.3788078817
 31
0.0
  0
LINE
  5
401
330
1F
100
AcDbEntity
  8
0
  6
Continuous
 62
     7
100
AcDbLine
 10
1219.960555021
 20
16.7788078817
 30
0.0
 11
1219.9002476418
 21
16.7788078817
 31
0.0
  0
LINE
  5
402
330
1F
100
AcDbEntity
  8
0
  6
Continuous
 62
     7
100
AcDbLine
 10
1219.960555021
 20
32.7788078817
 30
0.0
 11
1221.8317537433
 21
32.7788078817
 31
0.0
  0
LWPOLYLINE
  5
403
330
1F
100
AcDbEntity
  8
0
  6
Continuous
 62
     7
100
AcDbPolyline
 90
        9
 70
   128
 43
0.0
 10
1222.51579403
 20
30.7788078817
 10
1222.5026503877
 20
31.1689885258
 10
1222.4637245636
 20
31.5441747465
 10
1222.4005124552
 20
31.8899483478
 10
1222.3154432686
 20
32.1930214441
 10
1222.2117861648
 20
32.4417471063
 10
1222.0935246281
 20
32.6265669468
 10
1221.9652033831
 20
32.7403784425
 10
1221.8317537433
 20
32.7788078817
  0
LINE
  5
404
330
1F
100
AcDbEntity
  8
0
  6
Continuous
 62
     7
100
AcDbLine
 10
1222.51579403
 20
30.7788078817
 30
0.0
 11
1222.51579403
 21
27.8788078817
 31
0.0
  0
LINE
  5
405
330
1F
100
AcDbEntity
  8
0
  6
Continuous
 62
     7
100
AcDbLine
 10
1222.51579403
 20
21.8788078817
 30
0.0
 11
1222.51579403
 21
18.7788078817
 31
0.0
  0
LWPOLYLINE
  5
406
330
1F
100
AcDbEntity
  8
0
  6
Continuous
 62
     7
100
AcDbPolyline
 90
        9
 70
   128
 43
0.0
 10
1221.8317537433
 20
16.7788078817
 10
1221.9652033831
 20
16.8172373209
 10
1222.0935246281
 20
16.9310488167
 10
1222.2117861648
 20
17.1158686571
 10
1222.3154432686
 20
17.3645943194
 10
1222.4005124552
 20
17.6676674157
 10
1222.4637245636
 20
18.013441017
 10
1222.5026503877
 20
18.3886272377
 10
1222.51579403
 20
18.7788078817
  0
LINE
  5
407
330
1F
100
AcDbEntity
  8
0
  6
Continuous
 62
     7
100
AcDbLine
 10
1221.8317537433
 20
16.7788078817
 30
0.0
 11
1219.960555021
 21
16.7788078817
 31
0.0
  0
LINE
  5
408
330
1F
100
AcDbEntity
  8
0
  6
Continuous
 62
     7
100
AcDbLine
 10
1219.960555021
 20
32.7788078817
 30
0.0
 11
1219.9002476418
 21
32.7788078817
 31
0.0
  0
LWPOLYLINE
  5
409
330
1F
100
AcDbEntity
  8
0
  6
Continuous
 62
     7
100
AcDbPolyline
 90
        9
 70
   128
 43
0.0
 10
709.9687415403
 20
32.7788078817
 10
709.8352919005
 20
32.7403784425
 10
709.7069706555
 20
32.6265669468
 10
709.5887091188
 20
32.4417471063
 10
709.485052015
 20
32.1930214441
 10
709.3999828283
 20
31.8899483478
 10
709.33677072
 20
31.5441747465
 10
709.2978448959
 20
31.1689885258
 10
709.2847012536
 20
30.7788078817
  0
LINE
  5
40A
330
1F
100
AcDbEntity
  8
0
  6
Continuous
 62
     7
100
AcDbLine
 10
709.9687415403
 20
32.7788078817
 30
0.0
 11
711.8399402626
 21
32.7788078817
 31
0.0
  0
LINE
  5
40B
330
1F
100
AcDbEntity
  8
0
  6
Continuous
 62
     7
100
AcDbLine
 10
711.8399402626
 20
16.7788078817
 30
0.0
 11
711.9002476418
 21
16.7788078817
 31
0.0
  0
LINE
  5
40C
330
1F
100
AcDbEntity
  8
0
  6
Continuous
 62
     7
100
AcDbLine
 10
711.8399402626
 20
16.7788078817
 30
0.0
 11
709.9687415403
 21
16.7788078817
 31
0.0
  0
LWPOLYLINE
  5
40D
330
1F
100
AcDbEntity
  8
0
  6
Continuous
 62
     7
100
AcDbPolyline
 90
        9
 70
   128
 43
0.0
 10
709.2847012536
 20
18.7788078817
 10
709.2978448959
 20
18.3886272377
 10
709.33677072
 20
18.013441017
 10
709.3999828283
 20
17.6676674157
 10
709.485052015
 20
17.3645943194
 10
709.5887091188
 20
17.1158686571
 10
709.7069706555
 20
16.9310488167
 10
709.8352919005
 20
16.8172373209
 10
709.9687415403
 20
16.7788078817
  0
LINE
  5
40E
330
1F
100
AcDbEntity
  8
0
  6
Continuous
 62
     7
100
AcDbLine
 10
709.2847012536
 20
18.7788078817
 30
0.0
 11
709.2847012536
 21
21.8788078817
 31
0.0
  0
LINE
  5
40F
330
1F
100
AcDbEntity
  8
0
  6
Continuous
 62
     7
100
AcDbLine
 10
709.2847012536
 20
27.8788078817
 30
0.0
 11
709.2847012536
 21
30.7788078817
 31
0.0
  0
LINE
  5
410
330
1F
100
AcDbEntity
  8
0
  6
Continuous
 62
     7
100
AcDbLine
 10
711.8399402626
 20
32.7788078817
 30
0.0
 11
711.9002476418
 21
32.7788078817
 31
0.0
  0
LINE
  5
411
330
1F
100
AcDbEntity
  8
0
  6
Continuous
 62
     7
100
AcDbLine
 10
713.4002476418
 20
2.2788078817
 30
0.0
 11
713.4002476418
 21
0.6204954866
 31
0.0
  0
LINE
  5
412
330
1F
100
AcDbEntity
  8
0
  6
Continuous
 62
     7
100
AcDbLine
 10
1218.4002476418
 20
2.2788078817
 30
0.0
 11
1218.4002476418
 21
0.6204954866
 31
0.0
  0
LINE
  5
413
330
1F
100
AcDbEntity
  8
0
  6
Continuous
 62
     7
100
AcDbLine
 10
767.9044027923
 20
12.2788078817
 30
0.0
 11
767.9044027923
 21
6.7788078817
 31
0.0
  0
LINE
  5
414
330
1F
100
AcDbEntity
  8
0
  6
Continuous
 62
     7
100
AcDbLine
 10
716.7402402508
 20
18.9788078817
 30
0.0
 11
716.7402402508
 21
30.7717190463
 31
0.0
  0
LINE
  5
415
330
1F
100
AcDbEntity
  8
0
  6
Continuous
 62
     7
100
AcDbLine
 10
718.0706113771
 20
19.7859062535
 30
0.0
 11
718.0706113771
 21
29.9655904012
 31
0.0
  0
LINE
  5
416
330
1F
100
AcDbEntity
  8
0
  6
Continuous
 62
     7
100
AcDbLine
 10
1215.0602550327
 20
30.709123358
 30
0.0
 11
1215.0602550327
 21
18.9788078817
 31
0.0
  0
LINE
  5
417
330
1F
100
AcDbEntity
  8
0
  6
Continuous
 62
     7
100
AcDbLine
 10
1213.7298839065
 20
29.9115575737
 30
0.0
 11
1213.7298839065
 21
19.7859062535
 31
0.0
  0
LINE
  5
418
330
1F
100
AcDbEntity
  8
0
  6
Continuous
 62
     7
100
AcDbLine
 10
718.730618768
 20
21.0531204441
 30
0.0
 11
718.730618768
 21
28.6998987653
 31
0.0
  0
LINE
  5
419
330
1F
100
AcDbEntity
  8
0
  6
Continuous
 62
     7
100
AcDbLine
 10
1213.0698765155
 20
28.659310369
 30
0.0
 11
1213.0698765155
 21
21.0531204441
 31
0.0
  0
LINE
  5
41A
330
1F
100
AcDbEntity
  8
0
  6
Continuous
 62
     7
100
AcDbLine
 10
705.2002476418
 20
27.8752033891
 30
0.0
 11
711.9002476418
 21
27.8752033891
 31
0.0
  0
LINE
  5
41B
330
1F
100
AcDbEntity
  8
0
  6
Continuous
 62
     7
100
AcDbLine
 10
1226.6002476418
 20
27.8433750731
 30
0.0
 11
1219.9002476418
 21
27.8433750731
 31
0.0
  0
LINE
  5
41C
330
1F
100
AcDbEntity
  8
0
  6
Continuous
 62
     7
100
AcDbLine
 10
1215.0602550327
 20
30.7788078817
 30
0.0
 11
1215.0602550327
 21
30.709123358
 31
0.0
  0
LINE
  5
41D
330
1F
100
AcDbEntity
  8
0
  6
Continuous
 62
     7
100
AcDbLine
 10
1213.7298839065
 20
29.97170951
 30
0.0
 11
1213.7298839065
 21
29.9115575737
 31
0.0
  0
LINE
  5
41E
330
1F
100
AcDbEntity
  8
0
  6
Continuous
 62
     7
100
AcDbLine
 10
1213.0698765155
 20
28.7044953193
 30
0.0
 11
1213.0698765155
 21
28.659310369
 31
0.0
  0
LINE
  5
41F
330
1F
100
AcDbEntity
  8
0
  6
Continuous
 62
     7
100
AcDbLine
 10
716.7402402508
 20
30.7717190463
 30
0.0
 11
716.7402402508
 21
30.7788078817
 31
0.0
  0
LINE
  5
420
330
1F
100
AcDbEntity
  8
0
  6
Continuous
 62
     7
100
AcDbLine
 10
718.0706113771
 20
29.9655904012
 30
0.0
 11
718.0706113771
 21
29.97170951
 31
0.0
  0
LINE
  5
421
330
1F
100
AcDbEntity
  8
0
  6
Continuous
 62
     7
100
AcDbLine
 10
718.730618768
 20
28.6998987653
 30
0.0
 11
718.730618768
 21
28.7044953193
 31
0.0
  0
LINE
  5
422
330
1F
100
AcDbEntity
  8
0
  6
Continuous
 62
     7
100
AcDbLine
 10
1442.2485686275
 20
140.7522883411
 30
0.0
 11
1445.0885612365
 21
140.7522883411
 31
0.0
  0
ARC
  5
423
330
1F
100
AcDbEntity
  8
0
  6
Continuous
 62
     7
100
AcDbCircle
 10
1445.0885612365
 20
142.2522883411
 30
0.0
 40
1.500000000000134
100
AcDbArc
 50
270.0
 51
332.4879973762
  0
ARC
  5
424
330
1F
100
AcDbEntity
  8
0
  6
Continuous
 62
     7
100
AcDbCircle
 10
1943.4085760185
 20
142.2522883412
 30
0.0
 40
1.500000000000226
100
AcDbArc
 50
207.5120026239
 51
270.0
  0
LINE
  5
425
330
1F
100
AcDbEntity
  8
0
  6
Continuous
 62
     7
100
AcDbLine
 10
1943.4085760185
 20
140.7522883412
 30
0.0
 11
1946.2485686275
 21
140.7522883412
 31
0.0
  0
ARC
  5
426
330
1F
100
AcDbEntity
  8
0
  6
Continuous
 62
     7
100
AcDbCircle
 10
1943.4085760185
 20
151.0522883412
 30
0.0
 40
1.500000000000226
100
AcDbArc
 50
90.0
 51
152.4879973761
  0
LINE
  5
427
330
1F
100
AcDbEntity
  8
0
  6
Continuous
 62
     7
100
AcDbLine
 10
1946.2485686275
 20
152.5522883412
 30
0.0
 11
1943.4085760185
 21
152.5522883412
 31
0.0
  0
LINE
  5
428
330
1F
100
AcDbEntity
  8
0
  6
Continuous
 62
     7
100
AcDbLine
 10
1445.0885612365
 20
152.5522883411
 30
0.0
 11
1442.2485686275
 21
152.5522883411
 31
0.0
  0
ARC
  5
429
330
1F
100
AcDbEntity
  8
0
  6
Continuous
 62
     7
100
AcDbCircle
 10
1445.0885612365
 20
151.0522883411
 30
0.0
 40
1.500000000000134
100
AcDbArc
 50
27.5120026238
 51
90.0
  0
LINE
  5
42A
330
1F
100
AcDbEntity
  8
0
  6
Continuous
 62
     7
100
AcDbLine
 10
1446.4189323628
 20
141.5593867129
 30
0.0
 11
1447.0789397537
 21
142.8266009036
 31
0.0
  0
LINE
  5
42B
330
1F
100
AcDbEntity
  8
0
  6
Continuous
 62
     7
100
AcDbLine
 10
1941.4181975012
 20
142.8266009036
 30
0.0
 11
1942.0782048922
 21
141.5593867129
 31
0.0
  0
LINE
  5
42C
330
1F
100
AcDbEntity
  8
0
  6
Continuous
 62
     7
100
AcDbLine
 10
1942.0782048922
 20
151.7451899694
 30
0.0
 11
1941.4181975012
 21
150.4779757787
 31
0.0
  0
LINE
  5
42D
330
1F
100
AcDbEntity
  8
0
  6
Continuous
 62
     7
100
AcDbLine
 10
1447.0789397537
 20
150.4779757787
 30
0.0
 11
1446.4189323628
 21
151.7451899694
 31
0.0
  0
ARC
  5
42E
330
1F
100
AcDbEntity
  8
0
  6
Continuous
 62
     7
100
AcDbCircle
 10
1445.7485686275
 20
143.5195025318
 30
0.0
 40
1.499999999999958
100
AcDbArc
 50
332.4879973761
 51
0.0
  0
ARC
  5
42F
330
1F
100
AcDbEntity
  8
0
  6
Continuous
 62
     7
100
AcDbCircle
 10
1942.7485686275
 20
143.5195025318
 30
0.0
 40
1.499999999999796
100
AcDbArc
 50
180.0
 51
207.5120026239
  0
ARC
  5
430
330
1F
100
AcDbEntity
  8
0
  6
Continuous
 62
     7
100
AcDbCircle
 10
1942.7485686275
 20
149.7850741505
 30
0.0
 40
1.499999999999796
100
AcDbArc
 50
152.4879973761
 51
180.0
  0
ARC
  5
431
330
1F
100
AcDbEntity
  8
0
  6
Continuous
 62
     7
100
AcDbCircle
 10
1445.7485686275
 20
149.7850741505
 30
0.0
 40
1.499999999999958
100
AcDbArc
 50
0.0
 51
27.5120026239
  0
LINE
  5
432
330
1F
100
AcDbEntity
  8
0
  6
Continuous
 62
     7
100
AcDbLine
 10
1433.0485686275
 20
144.1522883411
 30
0.0
 11
1433.5485686275
 21
143.6522883411
 31
0.0
  0
LINE
  5
433
330
1F
100
AcDbEntity
  8
0
  6
Continuous
 62
     7
100
AcDbLine
 10
1433.5485686275
 20
143.6522883411
 30
0.0
 11
1440.2485686275
 21
143.6522883411
 31
0.0
  0
LINE
  5
434
330
1F
100
AcDbEntity
  8
0
  6
Continuous
 62
     7
100
AcDbLine
 10
1948.2485686275
 20
143.6522883412
 30
0.0
 11
1954.9485686275
 21
143.6522883412
 31
0.0
  0
LINE
  5
435
330
1F
100
AcDbEntity
  8
0
  6
Continuous
 62
     7
100
AcDbLine
 10
1954.9485686275
 20
143.6522883412
 30
0.0
 11
1955.4485686275
 21
144.1522883412
 31
0.0
  0
LINE
  5
436
330
1F
100
AcDbEntity
  8
0
  6
Continuous
 62
     7
100
AcDbLine
 10
1954.9485686275
 20
149.6522883412
 30
0.0
 11
1948.2485686275
 21
149.6522883412
 31
0.0
  0
LINE
  5
437
330
1F
100
AcDbEntity
  8
0
  6
Continuous
 62
     7
100
AcDbLine
 10
1955.4485686275
 20
149.1522883412
 30
0.0
 11
1954.9485686275
 21
149.6522883412
 31
0.0
  0
LINE
  5
438
330
1F
100
AcDbEntity
  8
0
  6
Continuous
 62
     7
100
AcDbLine
 10
1440.2485686275
 20
149.6522883411
 30
0.0
 11
1433.5485686275
 21
149.6522883411
 31
0.0
  0
LINE
  5
439
330
1F
100
AcDbEntity
  8
0
  6
Continuous
 62
     7
100
AcDbLine
 10
1433.5485686275
 20
149.6522883411
 30
0.0
 11
1433.0485686275
 21
149.1522883411
 31
0.0
  0
LINE
  5
43A
330
1F
100
AcDbEntity
  8
0
  6
Continuous
 62
     7
100
AcDbLine
 10
1439.5124074809
 20
131.2820934134
 30
0.0
 11
1437.6330222393
 21
131.9661337001
 31
0.0
  0
LINE
  5
43B
330
1F
100
AcDbEntity
  8
0
  6
Continuous
 62
     7
100
AcDbLine
 10
1438.317062526
 20
133.8455189417
 30
0.0
 11
1440.1964477675
 21
133.161478655
 31
0.0
  0
LINE
  5
43C
330
1F
100
AcDbEntity
  8
0
  6
Continuous
 62
     7
100
AcDbLine
 10
1440.1964477675
 20
133.161478655
 30
0.0
 11
1439.5124074809
 21
131.2820934134
 31
0.0
  0
LINE
  5
43D
330
1F
100
AcDbEntity
  8
0
  6
Continuous
 62
     7
100
AcDbLine
 10
1437.6330222393
 20
131.9661337001
 30
0.0
 11
1438.317062526
 21
133.8455189417
 31
0.0
  0
LINE
  5
43E
330
1F
100
AcDbEntity
  8
0
  6
Continuous
 62
     7
100
AcDbLine
 10
1440.1882612483
 20
138.9865951785
 30
0.0
 11
1442.0676464899
 21
138.3025548919
 31
0.0
  0
LINE
  5
43F
330
1F
100
AcDbEntity
  8
0
  6
Continuous
 62
     7
100
AcDbLine
 10
1442.0676464899
 20
138.3025548919
 30
0.0
 11
1440.1964477675
 21
133.161478655
 31
0.0
  0
LINE
  5
440
330
1F
100
AcDbEntity
  8
0
  6
Continuous
 62
     7
100
AcDbLine
 10
1440.1882612483
 20
138.9865951785
 30
0.0
 11
1438.317062526
 21
133.8455189417
 31
0.0
  0
LINE
  5
441
330
1F
100
AcDbEntity
  8
0
  6
Continuous
 62
     7
100
AcDbLine
 10
1440.2485686275
 20
154.1522883411
 30
0.0
 11
1442.2485686275
 21
154.1522883411
 31
0.0
  0
LINE
  5
442
330
1F
100
AcDbEntity
  8
0
  6
Continuous
 62
     7
100
AcDbLine
 10
1442.2485686275
 20
154.1522883411
 30
0.0
 11
1442.2485686275
 21
152.1522883411
 31
0.0
  0
LINE
  5
443
330
1F
100
AcDbEntity
  8
0
  6
Continuous
 62
     7
100
AcDbLine
 10
1442.2485686275
 20
152.1522883411
 30
0.0
 11
1440.2485686275
 21
152.1522883411
 31
0.0
  0
LINE
  5
444
330
1F
100
AcDbEntity
  8
0
  6
Continuous
 62
     7
100
AcDbLine
 10
1440.2485686275
 20
152.1522883411
 30
0.0
 11
1440.2485686275
 21
154.1522883411
 31
0.0
  0
LINE
  5
445
330
1F
100
AcDbEntity
  8
0
  6
Continuous
 62
     7
100
AcDbLine
 10
1440.2485686275
 20
139.3286153219
 30
0.0
 11
1442.2485686275
 21
139.3286153219
 31
0.0
  0
ARC
  5
446
330
1F
100
AcDbEntity
  8
0
  6
Continuous
 62
     7
100
AcDbCircle
 10
1439.2485686275
 20
139.3286153219
 30
0.0
 40
3.000000000000227
100
AcDbArc
 50
340.0
 51
0.0
  0
LINE
  5
447
330
1F
100
AcDbEntity
  8
0
  6
Continuous
 62
     7
100
AcDbLine
 10
1440.2485686275
 20
139.3286153219
 30
0.0
 11
1440.2485686275
 21
139.1522883411
 31
0.0
  0
LINE
  5
448
330
1F
100
AcDbEntity
  8
0
  6
Continuous
 62
     7
100
AcDbLine
 10
1440.1882612483
 20
138.9865951785
 30
0.0
 11
1440.2485686275
 21
139.1522883411
 31
0.0
  0
LINE
  5
449
330
1F
100
AcDbEntity
  8
0
  6
Continuous
 62
     7
100
AcDbLine
 10
1442.2485686275
 20
139.3286153219
 30
0.0
 11
1442.2485686275
 21
152.1522883411
 31
0.0
  0
LINE
  5
44A
330
1F
100
AcDbEntity
  8
0
  6
Continuous
 62
     7
100
AcDbLine
 10
1440.2485686275
 20
139.3286153219
 30
0.0
 11
1440.2485686275
 21
152.1522883411
 31
0.0
  0
LINE
  5
44B
330
1F
100
AcDbEntity
  8
0
  6
Continuous
 62
     7
100
AcDbLine
 10
1948.2485686275
 20
152.1522883411
 30
0.0
 11
1946.2485686275
 21
152.1522883411
 31
0.0
  0
LINE
  5
44C
330
1F
100
AcDbEntity
  8
0
  6
Continuous
 62
     7
100
AcDbLine
 10
1946.2485686275
 20
152.1522883411
 30
0.0
 11
1946.2485686275
 21
154.1522883411
 31
0.0
  0
LINE
  5
44D
330
1F
100
AcDbEntity
  8
0
  6
Continuous
 62
     7
100
AcDbLine
 10
1946.2485686275
 20
154.1522883411
 30
0.0
 11
1948.2485686275
 21
154.1522883411
 31
0.0
  0
LINE
  5
44E
330
1F
100
AcDbEntity
  8
0
  6
Continuous
 62
     7
100
AcDbLine
 10
1948.2485686275
 20
154.1522883411
 30
0.0
 11
1948.2485686275
 21
152.1522883411
 31
0.0
  0
LINE
  5
44F
330
1F
100
AcDbEntity
  8
0
  6
Continuous
 62
     7
100
AcDbLine
 10
1948.2485686275
 20
139.3286153219
 30
0.0
 11
1946.2485686275
 21
139.3286153219
 31
0.0
  0
LINE
  5
450
330
1F
100
AcDbEntity
  8
0
  6
Continuous
 62
     7
100
AcDbLine
 10
1946.2485686275
 20
152.1522883411
 30
0.0
 11
1946.2485686275
 21
139.3286153219
 31
0.0
  0
LINE
  5
451
330
1F
100
AcDbEntity
  8
0
  6
Continuous
 62
     7
100
AcDbLine
 10
1948.2485686275
 20
152.1522883411
 30
0.0
 11
1948.2485686275
 21
139.3286153219
 31
0.0
  0
LINE
  5
452
330
1F
100
AcDbEntity
  8
0
  6
Continuous
 62
     7
100
AcDbLine
 10
1948.3088760067
 20
138.9865951785
 30
0.0
 11
1946.4294907651
 21
138.3025548919
 31
0.0
  0
LINE
  5
453
330
1F
100
AcDbEntity
  8
0
  6
Continuous
 62
     7
100
AcDbLine
 10
1950.180074729
 20
133.8455189417
 30
0.0
 11
1948.3088760067
 21
138.9865951785
 31
0.0
  0
LINE
  5
454
330
1F
100
AcDbEntity
  8
0
  6
Continuous
 62
     7
100
AcDbLine
 10
1948.3006894874
 20
133.161478655
 30
0.0
 11
1950.180074729
 21
133.8455189417
 31
0.0
  0
LINE
  5
455
330
1F
100
AcDbEntity
  8
0
  6
Continuous
 62
     7
100
AcDbLine
 10
1948.3006894874
 20
133.161478655
 30
0.0
 11
1946.4294907651
 21
138.3025548919
 31
0.0
  0
ARC
  5
456
330
1F
100
AcDbEntity
  8
0
  6
Continuous
 62
     7
100
AcDbCircle
 10
1949.2485686275
 20
139.3286153219
 30
0.0
 40
3.000000000000232
100
AcDbArc
 50
180.0
 51
200.0
  0
LINE
  5
457
330
1F
100
AcDbEntity
  8
0
  6
Continuous
 62
     7
100
AcDbLine
 10
1948.2485686275
 20
139.3286153219
 30
0.0
 11
1948.2485686275
 21
139.1522883411
 31
0.0
  0
LINE
  5
458
330
1F
100
AcDbEntity
  8
0
  6
Continuous
 62
     7
100
AcDbLine
 10
1948.3088760067
 20
138.9865951785
 30
0.0
 11
1948.2485686275
 21
139.1522883411
 31
0.0
  0
LINE
  5
459
330
1F
100
AcDbEntity
  8
0
  6
Continuous
 62
     7
100
AcDbLine
 10
1950.180074729
 20
133.8455189417
 30
0.0
 11
1950.8641150157
 21
131.9661337001
 31
0.0
  0
LINE
  5
45A
330
1F
100
AcDbEntity
  8
0
  6
Continuous
 62
     7
100
AcDbLine
 10
1950.8641150157
 20
131.9661337001
 30
0.0
 11
1948.9847297741
 21
131.2820934134
 31
0.0
  0
LINE
  5
45B
330
1F
100
AcDbEntity
  8
0
  6
Continuous
 62
     7
100
AcDbLine
 10
1948.9847297741
 20
131.2820934134
 30
0.0
 11
1948.3006894874
 21
133.161478655
 31
0.0
  0
LINE
  5
45C
330
1F
100
AcDbEntity
  8
0
  6
Continuous
 62
     7
100
AcDbLine
 10
1445.0885612365
 20
147.5564019663
 30
0.0
 11
1442.2485686275
 21
147.5564019663
 31
0.0
  0
ARC
  5
45D
330
1F
100
AcDbEntity
  8
0
  6
Continuous
 62
     7
100
AcDbCircle
 10
1445.2421868444
 20
141.9919124095
 30
0.0
 40
5.566609817057651
100
AcDbArc
 50
77.795968526
 51
91.5814323177
  0
ARC
  5
45E
330
1F
100
AcDbEntity
  8
0
  6
Continuous
 62
     7
100
AcDbCircle
 10
1943.2516339787
 20
129.8265218387
 30
0.0
 40
17.11561925806633
100
AcDbArc
 50
89.4746177521
 51
93.931222944
  0
LINE
  5
45F
330
1F
100
AcDbEntity
  8
0
  6
Continuous
 62
     7
100
AcDbLine
 10
1943.4085760185
 20
146.94142154
 30
0.0
 11
1946.2485686275
 21
146.94142154
 31
0.0
  0
LINE
  5
460
330
1F
100
AcDbEntity
  8
0
  6
Continuous
 62
     7
100
AcDbLine
 10
1447.0789397537
 20
147.2385351442
 30
0.0
 11
1446.4189323628
 21
147.4327225367
 31
0.0
  0
LINE
  5
461
330
1F
100
AcDbEntity
  8
0
  6
Continuous
 62
     7
100
AcDbLine
 10
1941.4181975012
 20
146.8397685524
 30
0.0
 11
1942.0782048922
 21
146.9018691783
 31
0.0
  0
LWPOLYLINE
  5
462
330
1F
100
AcDbEntity
  8
0
  6
Continuous
 62
     7
100
AcDbPolyline
 90
        9
 70
   128
 43
0.0
 10
1447.2485686275
 20
147.1323551776
 10
1447.2458674691
 20
147.1461434879
 10
1447.2377737224
 20
147.159882139
 10
1447.2243165373
 20
147.1735216505
 10
1447.2055443804
 20
147.1870128991
 10
1447.1815248606
 20
147.2003072955
 10
1447.1523444852
 20
147.2133569594
 10
1447.1181083486
 20
147.2261148917
 10
1447.0789397537
 20
147.2385351442
  0
LINE
  5
463
330
1F
100
AcDbEntity
  8
0
  6
Continuous
 62
     7
100
AcDbLine
 10
1447.2485686275
 20
143.5195025318
 30
0.0
 11
1447.2485686275
 21
147.1323551776
 31
0.0
  0
LINE
  5
464
330
1F
100
AcDbEntity
  8
0
  6
Continuous
 62
     7
100
AcDbLine
 10
1941.2485686275
 20
146.8058124737
 30
0.0
 11
1941.2485686275
 21
143.5195025318
 31
0.0
  0
ARC
  5
465
330
1F
100
AcDbEntity
  8
0
  6
Continuous
 62
     7
100
AcDbCircle
 10
1941.4012130679
 20
146.4839431682
 30
0.0
 40
0.3562305082492716
100
AcDbArc
 50
87.2672036934
 51
115.3723448122
  0
LINE
  5
466
330
1F
100
AcDbEntity
  8
0
  6
Continuous
 62
     7
100
AcDbLine
 10
1941.2485686275
 20
149.7850741505
 30
0.0
 11
1941.2485686275
 21
146.8058124737
 31
0.0
  0
LINE
  5
467
330
1F
100
AcDbEntity
  8
0
  6
Continuous
 62
     7
100
AcDbLine
 10
1447.2485686275
 20
147.1323551776
 30
0.0
 11
1447.2485686275
 21
149.7850741505
 31
0.0
  0
LINE
  5
468
330
1F
100
AcDbEntity
  8
0
  6
Continuous
 62
     7
100
AcDbLine
 10
1433.0485686275
 20
147.0353873349
 30
0.0
 11
1433.5485686275
 21
147.1120071336
 31
0.0
  0
LINE
  5
469
330
1F
100
AcDbEntity
  8
0
  6
Continuous
 62
     7
100
AcDbLine
 10
1433.5485686275
 20
143.6522883411
 30
0.0
 11
1433.5485686275
 21
147.1120071336
 31
0.0
  0
LINE
  5
46A
330
1F
100
AcDbEntity
  8
0
  6
Continuous
 62
     7
100
AcDbLine
 10
1433.0485686275
 20
144.1522883411
 30
0.0
 11
1433.0485686275
 21
147.0353873349
 31
0.0
  0
LINE
  5
46B
330
1F
100
AcDbEntity
  8
0
  6
Continuous
 62
     7
100
AcDbLine
 10
1954.9485686275
 20
146.7993052219
 30
0.0
 11
1954.9485686275
 21
143.6522883412
 31
0.0
  0
LINE
  5
46C
330
1F
100
AcDbEntity
  8
0
  6
Continuous
 62
     7
100
AcDbLine
 10
1955.4485686275
 20
146.7748024084
 30
0.0
 11
1954.9485686275
 21
146.7993052219
 31
0.0
  0
LINE
  5
46D
330
1F
100
AcDbEntity
  8
0
  6
Continuous
 62
     7
100
AcDbLine
 10
1955.4485686275
 20
146.7748024084
 30
0.0
 11
1955.4485686275
 21
144.1522883412
 31
0.0
  0
LINE
  5
46E
330
1F
100
AcDbEntity
  8
0
  6
Continuous
 62
     7
100
AcDbLine
 10
1954.9485686275
 20
149.6522883412
 30
0.0
 11
1954.9485686275
 21
146.7993052219
 31
0.0
  0
LINE
  5
46F
330
1F
100
AcDbEntity
  8
0
  6
Continuous
 62
     7
100
AcDbLine
 10
1955.4485686275
 20
149.1522883412
 30
0.0
 11
1955.4485686275
 21
146.7748024084
 31
0.0
  0
LINE
  5
470
330
1F
100
AcDbEntity
  8
0
  6
Continuous
 62
     7
100
AcDbLine
 10
1433.5485686275
 20
147.1120071336
 30
0.0
 11
1433.5485686275
 21
149.6522883411
 31
0.0
  0
LINE
  5
471
330
1F
100
AcDbEntity
  8
0
  6
Continuous
 62
     7
100
AcDbLine
 10
1433.0485686275
 20
147.0353873349
 30
0.0
 11
1433.0485686275
 21
149.1522883411
 31
0.0
  0
LINE
  5
472
330
1F
100
AcDbEntity
  8
0
  6
Continuous
 62
     7
100
AcDbLine
 10
1442.2433822771
 20
139.1522883411
 30
0.0
 11
1442.2485686275
 21
139.1522883411
 31
0.0
  0
LINE
  5
473
330
1F
100
AcDbEntity
  8
0
  6
Continuous
 62
     7
100
AcDbLine
 10
1442.2485686275
 20
139.3286153219
 30
0.0
 11
1442.2485686275
 21
139.1522883411
 31
0.0
  0
LINE
  5
474
330
1F
100
AcDbEntity
  8
0
  6
Continuous
 62
     7
100
AcDbLine
 10
1946.2537549779
 20
139.1522883411
 30
0.0
 11
1946.2485686275
 21
139.1522883411
 31
0.0
  0
LINE
  5
475
330
1F
100
AcDbEntity
  8
0
  6
Continuous
 62
     7
100
AcDbLine
 10
1946.2485686275
 20
139.1522883411
 30
0.0
 11
1946.2485686275
 21
139.3286153219
 31
0.0
  0
ARC
  5
476
330
1F
100
AcDbEntity
  8
0
  6
Continuous
 62
     7
100
AcDbCircle
 10
1891.7485686275
 20
189.6522883411
 30
0.0
 40
3.000000000000203
100
AcDbArc
 50
80.4864054705
 51
260.4864054705
  0
LINE
  5
477
330
1F
100
AcDbEntity
  8
0
  6
Continuous
 62
     7
100
AcDbLine
 10
1892.1617726688
 20
192.1179043738
 30
0.0
 11
1892.244413477
 21
192.6110275803
 31
0.0
  0
ARC
  5
478
330
1F
100
AcDbEntity
  8
0
  6
Continuous
 62
     7
100
AcDbCircle
 10
1891.7485686275
 20
189.6522883411
 30
0.0
 40
2.500000000000306
100
AcDbArc
 50
80.4864054705
 51
260.4864054704
  0
LINE
  5
479
330
1F
100
AcDbEntity
  8
0
  6
Continuous
 62
     7
100
AcDbLine
 10
1891.3353645862
 20
187.1866723085
 30
0.0
 11
1891.252723778
 21
186.693549102
 31
0.0
  0
ARC
  5
47A
330
1F
100
AcDbEntity
  8
0
  6
Continuous
 62
     7
100
AcDbCircle
 10
1891.7485686275
 20
189.6522883411
 30
0.0
 40
2.500000000000306
100
AcDbArc
 50
260.4864054704
 51
80.4864054705
  0
ARC
  5
47B
330
1F
100
AcDbEntity
  8
0
  6
Continuous
 62
     7
100
AcDbCircle
 10
1891.7485686275
 20
189.6522883411
 30
0.0
 40
3.000000000000203
100
AcDbArc
 50
260.4864054705
 51
80.4864054705
  0
ARC
  5
47C
330
1F
100
AcDbEntity
  8
0
  6
Continuous
 62
     7
100
AcDbCircle
 10
1452.7485686275
 20
146.6522883411
 30
0.0
 40
2.999999999997409
100
AcDbArc
 50
130.6396160529
 51
310.6396160529
  0
LINE
  5
47D
330
1F
100
AcDbEntity
  8
0
  6
Continuous
 62
     7
100
AcDbLine
 10
1451.1203210149
 20
148.5493412429
 30
0.0
 11
1450.7946714923
 21
148.9287518232
 31
0.0
  0
ARC
  5
47E
330
1F
100
AcDbEntity
  8
0
  6
Continuous
 62
     7
100
AcDbCircle
 10
1452.7485686275
 20
146.6522883411
 30
0.0
 40
2.500000000000004
100
AcDbArc
 50
130.6396160529
 51
310.6396160529
  0
LINE
  5
47F
330
1F
100
AcDbEntity
  8
0
  6
Continuous
 62
     7
100
AcDbLine
 10
1454.3768162401
 20
144.7552354394
 30
0.0
 11
1454.7024657626
 21
144.3758248591
 31
0.0
  0
ARC
  5
480
330
1F
100
AcDbEntity
  8
0
  6
Continuous
 62
     7
100
AcDbCircle
 10
1452.7485686275
 20
146.6522883411
 30
0.0
 40
2.500000000000004
100
AcDbArc
 50
310.6396160529
 51
130.6396160529
  0
ARC
  5
481
330
1F
100
AcDbEntity
  8
0
  6
Continuous
 62
     7
100
AcDbCircle
 10
1452.7485686275
 20
146.6522883411
 30
0.0
 40
2.999999999997409
100
AcDbArc
 50
310.6396160529
 51
130.6396160529
  0
LINE
  5
482
330
1F
100
AcDbEntity
  8
0
  6
Continuous
 62
     7
100
AcDbLine
 10
1934.1203210149
 20
144.7552354394
 30
0.0
 11
1933.7946714924
 21
144.3758248591
 31
0.0
  0
ARC
  5
483
330
1F
100
AcDbEntity
  8
0
  6
Continuous
 62
     7
100
AcDbCircle
 10
1935.7485686275
 20
146.6522883411
 30
0.0
 40
2.999999999994948
100
AcDbArc
 50
49.3603839471
 51
229.3603839471
  0
LINE
  5
484
330
1F
100
AcDbEntity
  8
0
  6
Continuous
 62
     7
100
AcDbLine
 10
1937.3768162401
 20
148.5493412429
 30
0.0
 11
1937.7024657626
 21
148.9287518232
 31
0.0
  0
ARC
  5
485
330
1F
100
AcDbEntity
  8
0
  6
Continuous
 62
     7
100
AcDbCircle
 10
1935.7485686275
 20
146.6522883411
 30
0.0
 40
2.500000000000389
100
AcDbArc
 50
49.3603839471
 51
229.3603839471
  0
ARC
  5
486
330
1F
100
AcDbEntity
  8
0
  6
Continuous
 62
     7
100
AcDbCircle
 10
1935.7485686275
 20
146.6522883411
 30
0.0
 40
2.500000000000389
100
AcDbArc
 50
229.3603839471
 51
49.3603839471
  0
ARC
  5
487
330
1F
100
AcDbEntity
  8
0
  6
Continuous
 62
     7
100
AcDbCircle
 10
1935.7485686275
 20
146.6522883411
 30
0.0
 40
2.999999999994948
100
AcDbArc
 50
229.3603839471
 51
49.3603839471
  0
LINE
  5
488
330
1F
100
AcDbEntity
  8
0
  6
Continuous
 62
     7
100
AcDbLine
 10
1943.2485686275
 20
217.6522883411
 30
0.0
 11
1943.2485686275
 21
219.6522883411
 31
0.0
  0
LINE
  5
489
330
1F
100
AcDbEntity
  8
0
  6
Continuous
 62
     7
100
AcDbLine
 10
1445.2485686275
 20
219.6522883411
 30
0.0
 11
1445.2485686275
 21
217.6522883411
 31
0.0
  0
LINE
  5
48A
330
1F
100
AcDbEntity
  8
0
  6
Continuous
 62
     7
100
AcDbLine
 10
1445.2485686275
 20
217.6522883411
 30
0.0
 11
1943.2485686275
 21
217.6522883411
 31
0.0
  0
LINE
  5
48B
330
1F
100
AcDbEntity
  8
0
  6
Continuous
 62
     7
100
AcDbLine
 10
1445.2485686275
 20
219.6522883411
 30
0.0
 11
1943.2485686275
 21
219.6522883411
 31
0.0
  0
LINE
  5
48C
330
1F
100
AcDbEntity
  8
0
  6
Continuous
 62
     7
100
AcDbLine
 10
1445.2485686275
 20
75.6522883411
 30
0.0
 11
1445.2485686275
 21
73.6522883411
 31
0.0
  0
LINE
  5
48D
330
1F
100
AcDbEntity
  8
0
  6
Continuous
 62
     7
100
AcDbLine
 10
1943.2485686275
 20
73.6522883411
 30
0.0
 11
1943.2485686275
 21
75.6522883411
 31
0.0
  0
LINE
  5
48E
330
1F
100
AcDbEntity
  8
0
  6
Continuous
 62
     7
100
AcDbLine
 10
1943.2485686275
 20
75.6522883411
 30
0.0
 11
1445.2485686275
 21
75.6522883411
 31
0.0
  0
LINE
  5
48F
330
1F
100
AcDbEntity
  8
0
  6
Continuous
 62
     7
100
AcDbLine
 10
1943.2485686275
 20
73.6522883411
 30
0.0
 11
1445.2485686275
 21
73.6522883411
 31
0.0
  0
LINE
  5
490
330
1F
100
AcDbEntity
  8
0
  6
Continuous
 62
     7
100
AcDbLine
 10
1420.2485686275
 20
217.6522883411
 30
0.0
 11
1420.2485686275
 21
219.6522883411
 31
0.0
  0
LINE
  5
491
330
1F
100
AcDbEntity
  8
0
  6
Continuous
 62
     7
100
AcDbLine
 10
1398.7485686275
 20
75.6522883411
 30
0.0
 11
1398.7485686275
 21
217.6522883411
 31
0.0
  0
LINE
  5
492
330
1F
100
AcDbEntity
  8
0
  6
Continuous
 62
     7
100
AcDbLine
 10
1420.2485686275
 20
73.6522883411
 30
0.0
 11
1420.2485686275
 21
75.6522883411
 31
0.0
  0
LINE
  5
493
330
1F
100
AcDbEntity
  8
0
  6
Continuous
 62
     7
100
AcDbLine
 10
1396.7485686275
 20
73.6522883411
 30
0.0
 11
1396.7485686275
 21
219.6522883411
 31
0.0
  0
LINE
  5
494
330
1F
100
AcDbEntity
  8
0
  6
Continuous
 62
     7
100
AcDbLine
 10
1420.2485686275
 20
75.6522883411
 30
0.0
 11
1398.7485686275
 21
75.6522883411
 31
0.0
  0
LINE
  5
495
330
1F
100
AcDbEntity
  8
0
  6
Continuous
 62
     7
100
AcDbLine
 10
1420.2485686275
 20
73.6522883411
 30
0.0
 11
1396.7485686275
 21
73.6522883411
 31
0.0
  0
LINE
  5
496
330
1F
100
AcDbEntity
  8
0
  6
Continuous
 62
     7
100
AcDbLine
 10
1398.7485686275
 20
217.6522883411
 30
0.0
 11
1420.2485686275
 21
217.6522883411
 31
0.0
  0
LINE
  5
497
330
1F
100
AcDbEntity
  8
0
  6
Continuous
 62
     7
100
AcDbLine
 10
1396.7485686275
 20
219.6522883411
 30
0.0
 11
1420.2485686275
 21
219.6522883411
 31
0.0
  0
LINE
  5
498
330
1F
100
AcDbEntity
  8
0
  6
Continuous
 62
     7
100
AcDbLine
 10
1423.2485686275
 20
219.6522883411
 30
0.0
 11
1423.2485686275
 21
217.6522883411
 31
0.0
  0
LINE
  5
499
330
1F
100
AcDbEntity
  8
0
  6
Continuous
 62
     7
100
AcDbLine
 10
1423.2485686275
 20
217.6522883411
 30
0.0
 11
1420.2485686275
 21
217.6522883411
 31
0.0
  0
LINE
  5
49A
330
1F
100
AcDbEntity
  8
0
  6
Continuous
 62
     7
100
AcDbLine
 10
1420.2485686275
 20
219.6522883411
 30
0.0
 11
1423.2485686275
 21
219.6522883411
 31
0.0
  0
LINE
  5
49B
330
1F
100
AcDbEntity
  8
0
  6
Continuous
 62
     7
100
AcDbLine
 10
1442.2485686275
 20
217.6522883411
 30
0.0
 11
1442.2485686275
 21
219.6522883411
 31
0.0
  0
LINE
  5
49C
330
1F
100
AcDbEntity
  8
0
  6
Continuous
 62
     7
100
AcDbLine
 10
1445.2485686275
 20
217.6522883411
 30
0.0
 11
1442.2485686275
 21
217.6522883411
 31
0.0
  0
LINE
  5
49D
330
1F
100
AcDbEntity
  8
0
  6
Continuous
 62
     7
100
AcDbLine
 10
1442.2485686275
 20
219.6522883411
 30
0.0
 11
1445.2485686275
 21
219.6522883411
 31
0.0
  0
LINE
  5
49E
330
1F
100
AcDbEntity
  8
0
  6
Continuous
 62
     7
100
AcDbLine
 10
1446.9485686275
 20
142.0022883411
 30
0.0
 11
1446.6496102942
 21
142.0022883411
 31
0.0
  0
LINE
  5
49F
330
1F
100
AcDbEntity
  8
0
  6
Continuous
 62
     7
100
AcDbLine
 10
1446.6496102942
 20
151.3022883411
 30
0.0
 11
1446.9485686275
 21
151.3022883411
 31
0.0
  0
LINE
  5
4A0
330
1F
100
AcDbEntity
  8
0
  6
Continuous
 62
     7
100
AcDbLine
 10
1457.3985686275
 20
141.1522883411
 30
0.0
 11
1457.3985686275
 21
142.0022883411
 31
0.0
  0
LINE
  5
4A1
330
1F
100
AcDbEntity
  8
0
  6
Continuous
 62
     7
100
AcDbLine
 10
1448.0985686275
 20
141.1522883411
 30
0.0
 11
1457.3985686275
 21
141.1522883411
 31
0.0
  0
LINE
  5
4A2
330
1F
100
AcDbEntity
  8
0
  6
Continuous
 62
     7
100
AcDbLine
 10
1448.0985686275
 20
142.0022883411
 30
0.0
 11
1448.0985686275
 21
141.1522883411
 31
0.0
  0
LINE
  5
4A3
330
1F
100
AcDbEntity
  8
0
  6
Continuous
 62
     7
100
AcDbLine
 10
1448.0985686275
 20
152.1522883411
 30
0.0
 11
1448.0985686275
 21
151.3022883411
 31
0.0
  0
LINE
  5
4A4
330
1F
100
AcDbEntity
  8
0
  6
Continuous
 62
     7
100
AcDbLine
 10
1457.3985686275
 20
152.1522883411
 30
0.0
 11
1448.0985686275
 21
152.1522883411
 31
0.0
  0
LINE
  5
4A5
330
1F
100
AcDbEntity
  8
0
  6
Continuous
 62
     7
100
AcDbLine
 10
1457.3985686275
 20
151.3022883411
 30
0.0
 11
1457.3985686275
 21
152.1522883411
 31
0.0
  0
LINE
  5
4A6
330
1F
100
AcDbEntity
  8
0
  6
Continuous
 62
     7
100
AcDbLine
 10
1458.5485686275
 20
151.3022883411
 30
0.0
 11
1457.3985686275
 21
151.3022883411
 31
0.0
  0
LINE
  5
4A7
330
1F
100
AcDbEntity
  8
0
  6
Continuous
 62
     7
100
AcDbLine
 10
1458.5485686275
 20
142.0022883411
 30
0.0
 11
1458.5485686275
 21
151.3022883411
 31
0.0
  0
LINE
  5
4A8
330
1F
100
AcDbEntity
  8
0
  6
Continuous
 62
     7
100
AcDbLine
 10
1457.3985686275
 20
142.0022883411
 30
0.0
 11
1458.5485686275
 21
142.0022883411
 31
0.0
  0
LINE
  5
4A9
330
1F
100
AcDbEntity
  8
0
  6
Continuous
 62
     7
100
AcDbLine
 10
1446.9485686275
 20
142.0022883411
 30
0.0
 11
1448.0985686275
 21
142.0022883411
 31
0.0
  0
LINE
  5
4AA
330
1F
100
AcDbEntity
  8
0
  6
Continuous
 62
     7
100
AcDbLine
 10
1448.0985686275
 20
151.3022883411
 30
0.0
 11
1446.9485686275
 21
151.3022883411
 31
0.0
  0
LINE
  5
4AB
330
1F
100
AcDbEntity
  8
0
  6
Continuous
 62
     7
100
AcDbLine
 10
1448.0985686275
 20
152.1522883411
 30
0.0
 11
1448.0985686275
 21
153.1522883411
 31
0.0
  0
LINE
  5
4AC
330
1F
100
AcDbEntity
  8
0
  6
Continuous
 62
     7
100
AcDbLine
 10
1457.3985686275
 20
153.1522883411
 30
0.0
 11
1448.0985686275
 21
153.1522883411
 31
0.0
  0
LINE
  5
4AD
330
1F
100
AcDbEntity
  8
0
  6
Continuous
 62
     7
100
AcDbLine
 10
1457.3985686275
 20
153.1522883411
 30
0.0
 11
1457.3985686275
 21
152.1522883411
 31
0.0
  0
LINE
  5
4AE
330
1F
100
AcDbEntity
  8
0
  6
Continuous
 62
     7
100
AcDbLine
 10
1457.3985686275
 20
141.1522883411
 30
0.0
 11
1457.3985686275
 21
140.1522883411
 31
0.0
  0
LINE
  5
4AF
330
1F
100
AcDbEntity
  8
0
  6
Continuous
 62
     7
100
AcDbLine
 10
1448.0985686275
 20
140.1522883411
 30
0.0
 11
1457.3985686275
 21
140.1522883411
 31
0.0
  0
LINE
  5
4B0
330
1F
100
AcDbEntity
  8
0
  6
Continuous
 62
     7
100
AcDbLine
 10
1448.0985686275
 20
140.1522883411
 30
0.0
 11
1448.0985686275
 21
141.1522883411
 31
0.0
  0
LINE
  5
4B1
330
1F
100
AcDbEntity
  8
0
  6
Continuous
 62
     7
100
AcDbLine
 10
1459.5485686275
 20
151.3022883411
 30
0.0
 11
1459.5485686275
 21
142.0022883411
 31
0.0
  0
LINE
  5
4B2
330
1F
100
AcDbEntity
  8
0
  6
Continuous
 62
     7
100
AcDbLine
 10
1459.5485686275
 20
142.0022883411
 30
0.0
 11
1458.5485686275
 21
142.0022883411
 31
0.0
  0
LINE
  5
4B3
330
1F
100
AcDbEntity
  8
0
  6
Continuous
 62
     7
100
AcDbLine
 10
1458.5485686275
 20
151.3022883411
 30
0.0
 11
1459.5485686275
 21
151.3022883411
 31
0.0
  0
LINE
  5
4B4
330
1F
100
AcDbEntity
  8
0
  6
Continuous
 62
     7
100
AcDbLine
 10
1423.2485686275
 20
75.6522883411
 30
0.0
 11
1423.2485686275
 21
73.6522883411
 31
0.0
  0
LINE
  5
4B5
330
1F
100
AcDbEntity
  8
0
  6
Continuous
 62
     7
100
AcDbLine
 10
1420.2485686275
 20
75.6522883411
 30
0.0
 11
1423.2485686275
 21
75.6522883411
 31
0.0
  0
LINE
  5
4B6
330
1F
100
AcDbEntity
  8
0
  6
Continuous
 62
     7
100
AcDbLine
 10
1423.2485686275
 20
73.6522883411
 30
0.0
 11
1420.2485686275
 21
73.6522883411
 31
0.0
  0
LINE
  5
4B7
330
1F
100
AcDbEntity
  8
0
  6
Continuous
 62
     7
100
AcDbLine
 10
1442.2485686275
 20
73.6522883411
 30
0.0
 11
1442.2485686275
 21
75.6522883411
 31
0.0
  0
LINE
  5
4B8
330
1F
100
AcDbEntity
  8
0
  6
Continuous
 62
     7
100
AcDbLine
 10
1442.2485686275
 20
75.6522883411
 30
0.0
 11
1445.2485686275
 21
75.6522883411
 31
0.0
  0
LINE
  5
4B9
330
1F
100
AcDbEntity
  8
0
  6
Continuous
 62
     7
100
AcDbLine
 10
1445.2485686275
 20
73.6522883411
 30
0.0
 11
1442.2485686275
 21
73.6522883411
 31
0.0
  0
LINE
  5
4BA
330
1F
100
AcDbEntity
  8
0
  6
Continuous
 62
     7
100
AcDbLine
 10
1968.2485686275
 20
75.6522883411
 30
0.0
 11
1968.2485686275
 21
73.6522883411
 31
0.0
  0
LINE
  5
4BB
330
1F
100
AcDbEntity
  8
0
  6
Continuous
 62
     7
100
AcDbLine
 10
1989.7485686275
 20
217.6522883411
 30
0.0
 11
1989.7485686275
 21
75.6522883411
 31
0.0
  0
LINE
  5
4BC
330
1F
100
AcDbEntity
  8
0
  6
Continuous
 62
     7
100
AcDbLine
 10
1968.2485686275
 20
219.6522883411
 30
0.0
 11
1968.2485686275
 21
217.6522883411
 31
0.0
  0
LINE
  5
4BD
330
1F
100
AcDbEntity
  8
0
  6
Continuous
 62
     7
100
AcDbLine
 10
1991.7485686275
 20
219.6522883411
 30
0.0
 11
1991.7485686275
 21
73.6522883411
 31
0.0
  0
LINE
  5
4BE
330
1F
100
AcDbEntity
  8
0
  6
Continuous
 62
     7
100
AcDbLine
 10
1989.7485686275
 20
75.6522883411
 30
0.0
 11
1968.2485686275
 21
75.6522883411
 31
0.0
  0
LINE
  5
4BF
330
1F
100
AcDbEntity
  8
0
  6
Continuous
 62
     7
100
AcDbLine
 10
1991.7485686275
 20
73.6522883411
 30
0.0
 11
1968.2485686275
 21
73.6522883411
 31
0.0
  0
LINE
  5
4C0
330
1F
100
AcDbEntity
  8
0
  6
Continuous
 62
     7
100
AcDbLine
 10
1968.2485686275
 20
217.6522883411
 30
0.0
 11
1989.7485686275
 21
217.6522883411
 31
0.0
  0
LINE
  5
4C1
330
1F
100
AcDbEntity
  8
0
  6
Continuous
 62
     7
100
AcDbLine
 10
1968.2485686275
 20
219.6522883411
 30
0.0
 11
1991.7485686275
 21
219.6522883411
 31
0.0
  0
LINE
  5
4C2
330
1F
100
AcDbEntity
  8
0
  6
Continuous
 62
     7
100
AcDbLine
 10
1946.2485686275
 20
219.6522883411
 30
0.0
 11
1946.2485686275
 21
217.6522883411
 31
0.0
  0
LINE
  5
4C3
330
1F
100
AcDbEntity
  8
0
  6
Continuous
 62
     7
100
AcDbLine
 10
1946.2485686275
 20
217.6522883411
 30
0.0
 11
1943.2485686275
 21
217.6522883411
 31
0.0
  0
LINE
  5
4C4
330
1F
100
AcDbEntity
  8
0
  6
Continuous
 62
     7
100
AcDbLine
 10
1943.2485686275
 20
219.6522883411
 30
0.0
 11
1946.2485686275
 21
219.6522883411
 31
0.0
  0
LINE
  5
4C5
330
1F
100
AcDbEntity
  8
0
  6
Continuous
 62
     7
100
AcDbLine
 10
1965.2485686275
 20
217.6522883411
 30
0.0
 11
1965.2485686275
 21
219.6522883411
 31
0.0
  0
LINE
  5
4C6
330
1F
100
AcDbEntity
  8
0
  6
Continuous
 62
     7
100
AcDbLine
 10
1968.2485686275
 20
217.6522883411
 30
0.0
 11
1965.2485686275
 21
217.6522883411
 31
0.0
  0
LINE
  5
4C7
330
1F
100
AcDbEntity
  8
0
  6
Continuous
 62
     7
100
AcDbLine
 10
1965.2485686275
 20
219.6522883411
 30
0.0
 11
1968.2485686275
 21
219.6522883411
 31
0.0
  0
LINE
  5
4C8
330
1F
100
AcDbEntity
  8
0
  6
Continuous
 62
     7
100
AcDbLine
 10
1946.2485686275
 20
75.6522883411
 30
0.0
 11
1946.2485686275
 21
73.6522883411
 31
0.0
  0
LINE
  5
4C9
330
1F
100
AcDbEntity
  8
0
  6
Continuous
 62
     7
100
AcDbLine
 10
1943.2485686275
 20
75.6522883411
 30
0.0
 11
1946.2485686275
 21
75.6522883411
 31
0.0
  0
LINE
  5
4CA
330
1F
100
AcDbEntity
  8
0
  6
Continuous
 62
     7
100
AcDbLine
 10
1946.2485686275
 20
73.6522883411
 30
0.0
 11
1943.2485686275
 21
73.6522883411
 31
0.0
  0
LINE
  5
4CB
330
1F
100
AcDbEntity
  8
0
  6
Continuous
 62
     7
100
AcDbLine
 10
1965.2485686275
 20
73.6522883411
 30
0.0
 11
1965.2485686275
 21
75.6522883411
 31
0.0
  0
LINE
  5
4CC
330
1F
100
AcDbEntity
  8
0
  6
Continuous
 62
     7
100
AcDbLine
 10
1965.2485686275
 20
75.6522883411
 30
0.0
 11
1968.2485686275
 21
75.6522883411
 31
0.0
  0
LINE
  5
4CD
330
1F
100
AcDbEntity
  8
0
  6
Continuous
 62
     7
100
AcDbLine
 10
1968.2485686275
 20
73.6522883411
 30
0.0
 11
1965.2485686275
 21
73.6522883411
 31
0.0
  0
LINE
  5
4CE
330
1F
100
AcDbEntity
  8
0
  6
Continuous
 62
     7
100
AcDbLine
 10
1929.9485686275
 20
142.0022883411
 30
0.0
 11
1928.9485686275
 21
142.0022883411
 31
0.0
  0
LINE
  5
4CF
330
1F
100
AcDbEntity
  8
0
  6
Continuous
 62
     7
100
AcDbLine
 10
1928.9485686275
 20
142.0022883411
 30
0.0
 11
1928.9485686275
 21
151.3022883411
 31
0.0
  0
LINE
  5
4D0
330
1F
100
AcDbEntity
  8
0
  6
Continuous
 62
     7
100
AcDbLine
 10
1928.9485686275
 20
151.3022883411
 30
0.0
 11
1929.9485686275
 21
151.3022883411
 31
0.0
  0
LINE
  5
4D1
330
1F
100
AcDbEntity
  8
0
  6
Continuous
 62
     7
100
AcDbLine
 10
1929.9485686275
 20
151.3022883411
 30
0.0
 11
1929.9485686275
 21
142.0022883411
 31
0.0
  0
LINE
  5
4D2
330
1F
100
AcDbEntity
  8
0
  6
Continuous
 62
     7
100
AcDbLine
 10
1931.0985686275
 20
152.1522883411
 30
0.0
 11
1931.0985686275
 21
151.3022883411
 31
0.0
  0
LINE
  5
4D3
330
1F
100
AcDbEntity
  8
0
  6
Continuous
 62
     7
100
AcDbLine
 10
1940.3985686275
 20
152.1522883411
 30
0.0
 11
1931.0985686275
 21
152.1522883411
 31
0.0
  0
LINE
  5
4D4
330
1F
100
AcDbEntity
  8
0
  6
Continuous
 62
     7
100
AcDbLine
 10
1940.3985686275
 20
151.3022883411
 30
0.0
 11
1940.3985686275
 21
152.1522883411
 31
0.0
  0
LINE
  5
4D5
330
1F
100
AcDbEntity
  8
0
  6
Continuous
 62
     7
100
AcDbLine
 10
1941.5485686275
 20
151.3022883411
 30
0.0
 11
1940.3985686275
 21
151.3022883411
 31
0.0
  0
LINE
  5
4D6
330
1F
100
AcDbEntity
  8
0
  6
Continuous
 62
     7
100
AcDbLine
 10
1940.3985686275
 20
142.0022883411
 30
0.0
 11
1941.5485686275
 21
142.0022883411
 31
0.0
  0
LINE
  5
4D7
330
1F
100
AcDbEntity
  8
0
  6
Continuous
 62
     7
100
AcDbLine
 10
1940.3985686275
 20
141.1522883411
 30
0.0
 11
1940.3985686275
 21
142.0022883411
 31
0.0
  0
LINE
  5
4D8
330
1F
100
AcDbEntity
  8
0
  6
Continuous
 62
     7
100
AcDbLine
 10
1931.0985686275
 20
141.1522883411
 30
0.0
 11
1940.3985686275
 21
141.1522883411
 31
0.0
  0
LINE
  5
4D9
330
1F
100
AcDbEntity
  8
0
  6
Continuous
 62
     7
100
AcDbLine
 10
1931.0985686275
 20
142.0022883411
 30
0.0
 11
1931.0985686275
 21
141.1522883411
 31
0.0
  0
LINE
  5
4DA
330
1F
100
AcDbEntity
  8
0
  6
Continuous
 62
     7
100
AcDbLine
 10
1929.9485686275
 20
142.0022883411
 30
0.0
 11
1931.0985686275
 21
142.0022883411
 31
0.0
  0
LINE
  5
4DB
330
1F
100
AcDbEntity
  8
0
  6
Continuous
 62
     7
100
AcDbLine
 10
1931.0985686275
 20
151.3022883411
 30
0.0
 11
1929.9485686275
 21
151.3022883411
 31
0.0
  0
LINE
  5
4DC
330
1F
100
AcDbEntity
  8
0
  6
Continuous
 62
     7
100
AcDbLine
 10
1940.3985686275
 20
153.1522883411
 30
0.0
 11
1931.0985686275
 21
153.1522883411
 31
0.0
  0
LINE
  5
4DD
330
1F
100
AcDbEntity
  8
0
  6
Continuous
 62
     7
100
AcDbLine
 10
1940.3985686275
 20
153.1522883411
 30
0.0
 11
1940.3985686275
 21
152.1522883411
 31
0.0
  0
LINE
  5
4DE
330
1F
100
AcDbEntity
  8
0
  6
Continuous
 62
     7
100
AcDbLine
 10
1931.0985686275
 20
152.1522883411
 30
0.0
 11
1931.0985686275
 21
153.1522883411
 31
0.0
  0
LINE
  5
4DF
330
1F
100
AcDbEntity
  8
0
  6
Continuous
 62
     7
100
AcDbLine
 10
1940.3985686275
 20
141.1522883411
 30
0.0
 11
1940.3985686275
 21
140.1522883411
 31
0.0
  0
LINE
  5
4E0
330
1F
100
AcDbEntity
  8
0
  6
Continuous
 62
     7
100
AcDbLine
 10
1931.0985686275
 20
140.1522883411
 30
0.0
 11
1940.3985686275
 21
140.1522883411
 31
0.0
  0
LINE
  5
4E1
330
1F
100
AcDbEntity
  8
0
  6
Continuous
 62
     7
100
AcDbLine
 10
1931.0985686275
 20
140.1522883411
 30
0.0
 11
1931.0985686275
 21
141.1522883411
 31
0.0
  0
LINE
  5
4E2
330
1F
100
AcDbEntity
  8
0
  6
Continuous
 62
     7
100
AcDbLine
 10
1941.5485686275
 20
151.3022883411
 30
0.0
 11
1941.8475269608
 21
151.3022883411
 31
0.0
  0
LINE
  5
4E3
330
1F
100
AcDbEntity
  8
0
  6
Continuous
 62
     7
100
AcDbLine
 10
1941.8475269608
 20
142.0022883411
 30
0.0
 11
1941.5485686275
 21
142.0022883411
 31
0.0
  0
LINE
  5
4E4
330
1F
100
AcDbEntity
  8
0
  6
Continuous
 62
     7
100
AcDbLine
 10
1447.2485686275
 20
142.0022883411
 30
0.0
 11
1447.2485686275
 21
141.1522883411
 31
0.0
  0
LINE
  5
4E5
330
1F
100
AcDbEntity
  8
0
  6
Continuous
 62
     7
100
AcDbLine
 10
1447.2485686275
 20
141.1522883411
 30
0.0
 11
1448.0985686275
 21
141.1522883411
 31
0.0
  0
LINE
  5
4E6
330
1F
100
AcDbEntity
  8
0
  6
Continuous
 62
     7
100
AcDbLine
 10
1447.2485686275
 20
152.1522883411
 30
0.0
 11
1447.2485686275
 21
151.3022883411
 31
0.0
  0
LINE
  5
4E7
330
1F
100
AcDbEntity
  8
0
  6
Continuous
 62
     7
100
AcDbLine
 10
1448.0985686275
 20
152.1522883411
 30
0.0
 11
1447.2485686275
 21
152.1522883411
 31
0.0
  0
LINE
  5
4E8
330
1F
100
AcDbEntity
  8
0
  6
Continuous
 62
     7
100
AcDbLine
 10
1458.2485686275
 20
141.1522883411
 30
0.0
 11
1458.2485686275
 21
142.0022883411
 31
0.0
  0
LINE
  5
4E9
330
1F
100
AcDbEntity
  8
0
  6
Continuous
 62
     7
100
AcDbLine
 10
1457.3985686275
 20
141.1522883411
 30
0.0
 11
1458.2485686275
 21
141.1522883411
 31
0.0
  0
LINE
  5
4EA
330
1F
100
AcDbEntity
  8
0
  6
Continuous
 62
     7
100
AcDbLine
 10
1458.2485686275
 20
151.3022883411
 30
0.0
 11
1458.2485686275
 21
152.1522883411
 31
0.0
  0
LINE
  5
4EB
330
1F
100
AcDbEntity
  8
0
  6
Continuous
 62
     7
100
AcDbLine
 10
1458.2485686275
 20
152.1522883411
 30
0.0
 11
1457.3985686275
 21
152.1522883411
 31
0.0
  0
LINE
  5
4EC
330
1F
100
AcDbEntity
  8
0
  6
Continuous
 62
     7
100
AcDbLine
 10
1930.2485686275
 20
152.1522883411
 30
0.0
 11
1930.2485686275
 21
151.3022883411
 31
0.0
  0
LINE
  5
4ED
330
1F
100
AcDbEntity
  8
0
  6
Continuous
 62
     7
100
AcDbLine
 10
1931.0985686275
 20
152.1522883411
 30
0.0
 11
1930.2485686275
 21
152.1522883411
 31
0.0
  0
LINE
  5
4EE
330
1F
100
AcDbEntity
  8
0
  6
Continuous
 62
     7
100
AcDbLine
 10
1930.2485686275
 20
141.1522883411
 30
0.0
 11
1931.0985686275
 21
141.1522883411
 31
0.0
  0
LINE
  5
4EF
330
1F
100
AcDbEntity
  8
0
  6
Continuous
 62
     7
100
AcDbLine
 10
1930.2485686275
 20
142.0022883411
 30
0.0
 11
1930.2485686275
 21
141.1522883411
 31
0.0
  0
LINE
  5
4F0
330
1F
100
AcDbEntity
  8
0
  6
Continuous
 62
     7
100
AcDbLine
 10
1941.2485686275
 20
151.3022883411
 30
0.0
 11
1941.2485686275
 21
152.1522883411
 31
0.0
  0
LINE
  5
4F1
330
1F
100
AcDbEntity
  8
0
  6
Continuous
 62
     7
100
AcDbLine
 10
1941.2485686275
 20
152.1522883411
 30
0.0
 11
1940.3985686275
 21
152.1522883411
 31
0.0
  0
LINE
  5
4F2
330
1F
100
AcDbEntity
  8
0
  6
Continuous
 62
     7
100
AcDbLine
 10
1941.2485686275
 20
141.1522883411
 30
0.0
 11
1941.2485686275
 21
142.0022883411
 31
0.0
  0
LINE
  5
4F3
330
1F
100
AcDbEntity
  8
0
  6
Continuous
 62
     7
100
AcDbLine
 10
1940.3985686275
 20
141.1522883411
 30
0.0
 11
1941.2485686275
 21
141.1522883411
 31
0.0
  0
LINE
  5
4F4
330
1F
100
AcDbEntity
  8
0
  6
Continuous
 62
     7
100
AcDbLine
 10
1441.7485686275
 20
201.6522883411
 30
0.0
 11
1441.7485686275
 21
213.6522883411
 31
0.0
  0
ARC
  5
4F5
330
1F
100
AcDbEntity
  8
0
  6
Continuous
 62
     7
100
AcDbCircle
 10
1441.7485686275
 20
199.6522883411
 30
0.0
 40
2.000000000000227
100
AcDbArc
 50
90.0
 51
180.0
  0
LINE
  5
4F6
330
1F
100
AcDbEntity
  8
0
  6
Continuous
 62
     7
100
AcDbLine
 10
1439.7485686275
 20
199.6522883411
 30
0.0
 11
1427.7485686275
 21
199.6522883411
 31
0.0
  0
ARC
  5
4F7
330
1F
100
AcDbEntity
  8
0
  6
Continuous
 62
     7
100
AcDbCircle
 10
1441.7485686275
 20
199.6522883411
 30
0.0
 40
14.00000000000023
100
AcDbArc
 50
90.0
 51
180.0
  0
LINE
  5
4F8
330
1F
100
AcDbEntity
  8
0
  6
Continuous
 62
     7
100
AcDbLine
 10
1441.7485686275
 20
79.6522883411
 30
0.0
 11
1441.7485686275
 21
91.6522883411
 31
0.0
  0
ARC
  5
4F9
330
1F
100
AcDbEntity
  8
0
  6
Continuous
 62
     7
100
AcDbCircle
 10
1441.7485686275
 20
93.6522883411
 30
0.0
 40
14.00000000000023
100
AcDbArc
 50
180.0
 51
270.0
  0
LINE
  5
4FA
330
1F
100
AcDbEntity
  8
0
  6
Continuous
 62
     7
100
AcDbLine
 10
1427.7485686275
 20
93.6522883411
 30
0.0
 11
1439.7485686275
 21
93.6522883411
 31
0.0
  0
ARC
  5
4FB
330
1F
100
AcDbEntity
  8
0
  6
Continuous
 62
     7
100
AcDbCircle
 10
1441.7485686275
 20
93.6522883411
 30
0.0
 40
2.000000000000227
100
AcDbArc
 50
180.0
 51
270.0
  0
LINE
  5
4FC
330
1F
100
AcDbEntity
  8
0
  6
Continuous
 62
     7
100
AcDbLine
 10
1439.7485686275
 20
93.6522883411
 30
0.0
 11
1439.7485686275
 21
131.9309408311
 31
0.0
  0
LINE
  5
4FD
330
1F
100
AcDbEntity
  8
0
  6
Continuous
 62
     7
100
AcDbLine
 10
1439.7485686275
 20
137.7785496314
 30
0.0
 11
1439.7485686275
 21
143.6522883411
 31
0.0
  0
LINE
  5
4FE
330
1F
100
AcDbEntity
  8
0
  6
Continuous
 62
     7
100
AcDbLine
 10
1439.7485686275
 20
149.6522883411
 30
0.0
 11
1439.7485686275
 21
199.6522883411
 31
0.0
  0
LINE
  5
4FF
330
1F
100
AcDbEntity
  8
0
  6
Continuous
 62
     7
100
AcDbLine
 10
1427.7485686275
 20
93.6522883411
 30
0.0
 11
1427.7485686275
 21
199.6522883411
 31
0.0
  0
LINE
  5
500
330
1F
100
AcDbEntity
  8
0
  6
Continuous
 62
     7
100
AcDbLine
 10
1946.7485686275
 20
201.6522883411
 30
0.0
 11
1946.7485686275
 21
213.6522883411
 31
0.0
  0
LINE
  5
501
330
1F
100
AcDbEntity
  8
0
  6
Continuous
 62
     7
100
AcDbLine
 10
1441.7485686275
 20
201.6522883411
 30
0.0
 11
1946.7485686275
 21
201.6522883411
 31
0.0
  0
LINE
  5
502
330
1F
100
AcDbEntity
  8
0
  6
Continuous
 62
     7
100
AcDbLine
 10
1441.7485686275
 20
213.6522883411
 30
0.0
 11
1946.7485686275
 21
213.6522883411
 31
0.0
  0
LINE
  5
503
330
1F
100
AcDbEntity
  8
0
  6
Continuous
 62
     7
100
AcDbLine
 10
1946.7485686275
 20
79.6522883411
 30
0.0
 11
1946.7485686275
 21
91.6522883411
 31
0.0
  0
LINE
  5
504
330
1F
100
AcDbEntity
  8
0
  6
Continuous
 62
     7
100
AcDbLine
 10
1441.7485686275
 20
79.6522883411
 30
0.0
 11
1946.7485686275
 21
79.6522883411
 31
0.0
  0
LINE
  5
505
330
1F
100
AcDbEntity
  8
0
  6
Continuous
 62
     7
100
AcDbLine
 10
1441.7485686275
 20
91.6522883411
 30
0.0
 11
1946.7485686275
 21
91.6522883411
 31
0.0
  0
LINE
  5
506
330
1F
100
AcDbEntity
  8
0
  6
Continuous
 62
     7
100
AcDbLine
 10
1426.2485686275
 20
75.6522883411
 30
0.0
 11
1426.2485686275
 21
73.6522883411
 31
0.0
  0
LINE
  5
507
330
1F
100
AcDbEntity
  8
0
  6
Continuous
 62
     7
100
AcDbLine
 10
1423.2485686275
 20
75.6522883411
 30
0.0
 11
1426.2485686275
 21
75.6522883411
 31
0.0
  0
LINE
  5
508
330
1F
100
AcDbEntity
  8
0
  6
Continuous
 62
     7
100
AcDbLine
 10
1426.2485686275
 20
73.6522883411
 30
0.0
 11
1423.2485686275
 21
73.6522883411
 31
0.0
  0
LINE
  5
509
330
1F
100
AcDbEntity
  8
0
  6
Continuous
 62
     7
100
AcDbLine
 10
1426.2485686275
 20
219.6522883411
 30
0.0
 11
1426.2485686275
 21
217.6522883411
 31
0.0
  0
LINE
  5
50A
330
1F
100
AcDbEntity
  8
0
  6
Continuous
 62
     7
100
AcDbLine
 10
1426.2485686275
 20
217.6522883411
 30
0.0
 11
1423.2485686275
 21
217.6522883411
 31
0.0
  0
LINE
  5
50B
330
1F
100
AcDbEntity
  8
0
  6
Continuous
 62
     7
100
AcDbLine
 10
1423.2485686275
 20
219.6522883411
 30
0.0
 11
1426.2485686275
 21
219.6522883411
 31
0.0
  0
LINE
  5
50C
330
1F
100
AcDbEntity
  8
0
  6
Continuous
 62
     7
100
AcDbLine
 10
1439.2485686275
 20
73.6522883411
 30
0.0
 11
1439.2485686275
 21
75.6522883411
 31
0.0
  0
LINE
  5
50D
330
1F
100
AcDbEntity
  8
0
  6
Continuous
 62
     7
100
AcDbLine
 10
1439.2485686275
 20
75.6522883411
 30
0.0
 11
1442.2485686275
 21
75.6522883411
 31
0.0
  0
LINE
  5
50E
330
1F
100
AcDbEntity
  8
0
  6
Continuous
 62
     7
100
AcDbLine
 10
1442.2485686275
 20
73.6522883411
 30
0.0
 11
1439.2485686275
 21
73.6522883411
 31
0.0
  0
LINE
  5
50F
330
1F
100
AcDbEntity
  8
0
  6
Continuous
 62
     7
100
AcDbLine
 10
1439.2485686275
 20
217.6522883411
 30
0.0
 11
1439.2485686275
 21
219.6522883411
 31
0.0
  0
LINE
  5
510
330
1F
100
AcDbEntity
  8
0
  6
Continuous
 62
     7
100
AcDbLine
 10
1442.2485686275
 20
217.6522883411
 30
0.0
 11
1439.2485686275
 21
217.6522883411
 31
0.0
  0
LINE
  5
511
330
1F
100
AcDbEntity
  8
0
  6
Continuous
 62
     7
100
AcDbLine
 10
1439.2485686275
 20
219.6522883411
 30
0.0
 11
1442.2485686275
 21
219.6522883411
 31
0.0
  0
LINE
  5
512
330
1F
100
AcDbEntity
  8
0
  6
Continuous
 62
     7
100
AcDbLine
 10
1949.2485686275
 20
75.6522883411
 30
0.0
 11
1949.2485686275
 21
73.6522883411
 31
0.0
  0
LINE
  5
513
330
1F
100
AcDbEntity
  8
0
  6
Continuous
 62
     7
100
AcDbLine
 10
1946.2485686275
 20
75.6522883411
 30
0.0
 11
1949.2485686275
 21
75.6522883411
 31
0.0
  0
LINE
  5
514
330
1F
100
AcDbEntity
  8
0
  6
Continuous
 62
     7
100
AcDbLine
 10
1949.2485686275
 20
73.6522883411
 30
0.0
 11
1946.2485686275
 21
73.6522883411
 31
0.0
  0
LINE
  5
515
330
1F
100
AcDbEntity
  8
0
  6
Continuous
 62
     7
100
AcDbLine
 10
1949.2485686275
 20
219.6522883411
 30
0.0
 11
1949.2485686275
 21
217.6522883411
 31
0.0
  0
LINE
  5
516
330
1F
100
AcDbEntity
  8
0
  6
Continuous
 62
     7
100
AcDbLine
 10
1949.2485686275
 20
217.6522883411
 30
0.0
 11
1946.2485686275
 21
217.6522883411
 31
0.0
  0
LINE
  5
517
330
1F
100
AcDbEntity
  8
0
  6
Continuous
 62
     7
100
AcDbLine
 10
1946.2485686275
 20
219.6522883411
 30
0.0
 11
1949.2485686275
 21
219.6522883411
 31
0.0
  0
LINE
  5
518
330
1F
100
AcDbEntity
  8
0
  6
Continuous
 62
     7
100
AcDbLine
 10
1962.2485686275
 20
73.6522883411
 30
0.0
 11
1962.2485686275
 21
75.6522883411
 31
0.0
  0
LINE
  5
519
330
1F
100
AcDbEntity
  8
0
  6
Continuous
 62
     7
100
AcDbLine
 10
1962.2485686275
 20
75.6522883411
 30
0.0
 11
1965.2485686275
 21
75.6522883411
 31
0.0
  0
LINE
  5
51A
330
1F
100
AcDbEntity
  8
0
  6
Continuous
 62
     7
100
AcDbLine
 10
1965.2485686275
 20
73.6522883411
 30
0.0
 11
1962.2485686275
 21
73.6522883411
 31
0.0
  0
LINE
  5
51B
330
1F
100
AcDbEntity
  8
0
  6
Continuous
 62
     7
100
AcDbLine
 10
1962.2485686275
 20
217.6522883411
 30
0.0
 11
1962.2485686275
 21
219.6522883411
 31
0.0
  0
LINE
  5
51C
330
1F
100
AcDbEntity
  8
0
  6
Continuous
 62
     7
100
AcDbLine
 10
1965.2485686275
 20
217.6522883411
 30
0.0
 11
1962.2485686275
 21
217.6522883411
 31
0.0
  0
LINE
  5
51D
330
1F
100
AcDbEntity
  8
0
  6
Continuous
 62
     7
100
AcDbLine
 10
1962.2485686275
 20
219.6522883411
 30
0.0
 11
1965.2485686275
 21
219.6522883411
 31
0.0
  0
LINE
  5
51E
330
1F
100
AcDbEntity
  8
0
  6
Continuous
 62
     7
100
AcDbLine
 10
1954.7485686275
 20
199.6522883411
 30
0.0
 11
1960.7485686275
 21
199.6522883411
 31
0.0
  0
LINE
  5
51F
330
1F
100
AcDbEntity
  8
0
  6
Continuous
 62
     7
100
AcDbLine
 10
1948.7485686275
 20
199.6522883411
 30
0.0
 11
1954.7485686275
 21
199.6522883411
 31
0.0
  0
ARC
  5
520
330
1F
100
AcDbEntity
  8
0
  6
Continuous
 62
     7
100
AcDbCircle
 10
1946.7485686275
 20
199.6522883411
 30
0.0
 40
2.000000000000028
100
AcDbArc
 50
0.0
 51
90.0
  0
ARC
  5
521
330
1F
100
AcDbEntity
  8
0
  6
Continuous
 62
     7
100
AcDbCircle
 10
1946.7485686275
 20
199.6522883411
 30
0.0
 40
14.0
100
AcDbArc
 50
0.0
 51
90.0
  0
LINE
  5
522
330
1F
100
AcDbEntity
  8
0
  6
Continuous
 62
     7
100
AcDbLine
 10
1954.7485686275
 20
93.6522883411
 30
0.0
 11
1948.7485686275
 21
93.6522883411
 31
0.0
  0
LINE
  5
523
330
1F
100
AcDbEntity
  8
0
  6
Continuous
 62
     7
100
AcDbLine
 10
1960.7485686275
 20
93.6522883411
 30
0.0
 11
1954.7485686275
 21
93.6522883411
 31
0.0
  0
ARC
  5
524
330
1F
100
AcDbEntity
  8
0
  6
Continuous
 62
     7
100
AcDbCircle
 10
1946.7485686275
 20
93.6522883411
 30
0.0
 40
14.00000000000001
100
AcDbArc
 50
270.0
 51
0.0
  0
ARC
  5
525
330
1F
100
AcDbEntity
  8
0
  6
Continuous
 62
     7
100
AcDbCircle
 10
1946.7485686275
 20
93.6522883411
 30
0.0
 40
2.0
100
AcDbArc
 50
270.0
 51
0.0
  0
LINE
  5
526
330
1F
100
AcDbEntity
  8
0
  6
Continuous
 62
     7
100
AcDbLine
 10
1948.7485686275
 20
199.6522883411
 30
0.0
 11
1948.7485686275
 21
149.6522883412
 31
0.0
  0
LINE
  5
527
330
1F
100
AcDbEntity
  8
0
  6
Continuous
 62
     7
100
AcDbLine
 10
1948.7485686275
 20
143.6522883412
 30
0.0
 11
1948.7485686275
 21
137.7785496314
 31
0.0
  0
LINE
  5
528
330
1F
100
AcDbEntity
  8
0
  6
Continuous
 62
     7
100
AcDbLine
 10
1948.7485686275
 20
131.9309408311
 30
0.0
 11
1948.7485686275
 21
93.6522883411
 31
0.0
  0
LINE
  5
529
330
1F
100
AcDbEntity
  8
0
  6
Continuous
 62
     7
100
AcDbLine
 10
1960.7485686275
 20
199.6522883411
 30
0.0
 11
1960.7485686275
 21
93.6522883411
 31
0.0
  0
ARC
  5
52A
330
1F
100
AcDbEntity
  8
0
  6
Continuous
 62
     7
100
AcDbCircle
 10
1459.2485686275
 20
141.1522883411
 30
0.0
 40
2.0
100
AcDbArc
 50
270.0
 51
0.0
  0
LINE
  5
52B
330
1F
100
AcDbEntity
  8
0
  6
Continuous
 62
     7
100
AcDbLine
 10
1459.2485686275
 20
139.1522883411
 30
0.0
 11
1443.2485686275
 21
139.1522883411
 31
0.0
  0
LINE
  5
52C
330
1F
100
AcDbEntity
  8
0
  6
Continuous
 62
     7
100
AcDbLine
 10
1443.2485686275
 20
154.1522883411
 30
0.0
 11
1459.2485686275
 21
154.1522883411
 31
0.0
  0
ARC
  5
52D
330
1F
100
AcDbEntity
  8
0
  6
Continuous
 62
     7
100
AcDbCircle
 10
1459.2485686275
 20
152.1522883411
 30
0.0
 40
2.0
100
AcDbArc
 50
0.0
 51
90.0
  0
LINE
  5
52E
330
1F
100
AcDbEntity
  8
0
  6
Continuous
 62
     7
100
AcDbLine
 10
1461.2485686275
 20
152.1522883411
 30
0.0
 11
1461.2485686275
 21
141.1522883411
 31
0.0
  0
LINE
  5
52F
330
1F
100
AcDbEntity
  8
0
  6
Continuous
 62
     7
100
AcDbLine
 10
1443.2485686275
 20
154.1522883411
 30
0.0
 11
1442.2485686275
 21
154.1522883411
 31
0.0
  0
LINE
  5
530
330
1F
100
AcDbEntity
  8
0
  6
Continuous
 62
     7
100
AcDbLine
 10
1443.2485686275
 20
139.1522883411
 30
0.0
 11
1442.2485686275
 21
139.1522883411
 31
0.0
  0
LINE
  5
531
330
1F
100
AcDbEntity
  8
0
  6
Continuous
 62
     7
100
AcDbLine
 10
1929.2485686275
 20
154.1522883411
 30
0.0
 11
1945.2485686275
 21
154.1522883411
 31
0.0
  0
LINE
  5
532
330
1F
100
AcDbEntity
  8
0
  6
Continuous
 62
     7
100
AcDbLine
 10
1945.2485686275
 20
139.1522883411
 30
0.0
 11
1929.2485686275
 21
139.1522883411
 31
0.0
  0
ARC
  5
533
330
1F
100
AcDbEntity
  8
0
  6
Continuous
 62
     7
100
AcDbCircle
 10
1929.2485686275
 20
141.1522883411
 30
0.0
 40
2.0
100
AcDbArc
 50
180.0
 51
270.0
  0
ARC
  5
534
330
1F
100
AcDbEntity
  8
0
  6
Continuous
 62
     7
100
AcDbCircle
 10
1929.2485686275
 20
152.1522883411
 30
0.0
 40
2.0
100
AcDbArc
 50
90.0
 51
180.0
  0
LINE
  5
535
330
1F
100
AcDbEntity
  8
0
  6
Continuous
 62
     7
100
AcDbLine
 10
1927.2485686275
 20
141.1522883411
 30
0.0
 11
1927.2485686275
 21
152.1522883411
 31
0.0
  0
LINE
  5
536
330
1F
100
AcDbEntity
  8
0
  6
Continuous
 62
     7
100
AcDbLine
 10
1945.2485686275
 20
154.1522883411
 30
0.0
 11
1946.2485686275
 21
154.1522883411
 31
0.0
  0
LINE
  5
537
330
1F
100
AcDbEntity
  8
0
  6
Continuous
 62
     7
100
AcDbLine
 10
1945.2485686275
 20
139.1522883411
 30
0.0
 11
1946.2485686275
 21
139.1522883411
 31
0.0
  0
LINE
  5
538
330
1F
100
AcDbEntity
  8
0
  6
Continuous
 62
     7
100
AcDbLine
 10
1439.2485686275
 20
75.6522883411
 30
0.0
 11
1426.2485686275
 21
75.6522883411
 31
0.0
  0
LINE
  5
539
330
1F
100
AcDbEntity
  8
0
  6
Continuous
 62
     7
100
AcDbLine
 10
1439.2485686275
 20
73.6522883411
 30
0.0
 11
1426.2485686275
 21
73.6522883411
 31
0.0
  0
LINE
  5
53A
330
1F
100
AcDbEntity
  8
0
  6
Continuous
 62
     7
100
AcDbLine
 10
1426.2485686275
 20
217.6522883411
 30
0.0
 11
1439.2485686275
 21
217.6522883411
 31
0.0
  0
LINE
  5
53B
330
1F
100
AcDbEntity
  8
0
  6
Continuous
 62
     7
100
AcDbLine
 10
1439.2485686275
 20
219.6522883411
 30
0.0
 11
1426.2485686275
 21
219.6522883411
 31
0.0
  0
LINE
  5
53C
330
1F
100
AcDbEntity
  8
0
  6
Continuous
 62
     7
100
AcDbLine
 10
1962.2485686275
 20
75.6522883411
 30
0.0
 11
1949.2485686275
 21
75.6522883411
 31
0.0
  0
LINE
  5
53D
330
1F
100
AcDbEntity
  8
0
  6
Continuous
 62
     7
100
AcDbLine
 10
1962.2485686275
 20
73.6522883411
 30
0.0
 11
1949.2485686275
 21
73.6522883411
 31
0.0
  0
LINE
  5
53E
330
1F
100
AcDbEntity
  8
0
  6
Continuous
 62
     7
100
AcDbLine
 10
1949.2485686275
 20
217.6522883411
 30
0.0
 11
1962.2485686275
 21
217.6522883411
 31
0.0
  0
LINE
  5
53F
330
1F
100
AcDbEntity
  8
0
  6
Continuous
 62
     7
100
AcDbLine
 10
1962.2485686275
 20
219.6522883411
 30
0.0
 11
1949.2485686275
 21
219.6522883411
 31
0.0
  0
ARC
  5
540
330
1F
100
AcDbEntity
  8
0
  6
Continuous
 62
     7
100
AcDbCircle
 10
1891.7485686275
 20
189.6522883411
 30
0.0
 40
5.75000000000021
100
AcDbArc
 50
80.4864054705
 51
260.4864054704
  0
ARC
  5
541
330
1F
100
AcDbEntity
  8
0
  6
Continuous
 62
     7
100
AcDbCircle
 10
1891.7485686275
 20
189.6522883411
 30
0.0
 40
5.75000000000021
100
AcDbArc
 50
260.4864054704
 51
80.4864054705
  0
LINE
  5
542
330
1F
100
AcDbEntity
  8
0
  6
Continuous
 62
     7
100
AcDbLine
 10
1452.7485686275
 20
139.1167544352
 30
0.0
 11
1452.7485686275
 21
138.409647654
 31
0.0
  0
LINE
  5
543
330
1F
100
AcDbEntity
  8
0
  6
Continuous
 62
     7
100
AcDbLine
 10
1452.7485686275
 20
154.1878222471
 30
0.0
 11
1452.7485686275
 21
154.8949290283
 31
0.0
  0
LINE
  5
544
330
1F
100
AcDbEntity
  8
0
  6
Continuous
 62
     7
100
AcDbLine
 10
1935.7485686275
 20
139.1167544352
 30
0.0
 11
1935.7485686275
 21
138.409647654
 31
0.0
  0
LINE
  5
545
330
1F
100
AcDbEntity
  8
0
  6
Continuous
 62
     7
100
AcDbLine
 10
1935.7485686275
 20
154.1878222471
 30
0.0
 11
1935.7485686275
 21
154.8949290283
 31
0.0
  0
ARC
  5
546
330
1F
100
AcDbEntity
  8
0
  6
Continuous
 62
     7
100
AcDbCircle
 10
1906.7485686275
 20
164.6522883411
 30
0.0
 40
13.20000000000005
100
AcDbArc
 50
0.0
 51
180.0
  0
ARC
  5
547
330
1F
100
AcDbEntity
  8
0
  6
Continuous
 62
     7
100
AcDbCircle
 10
1906.7485686275
 20
164.6522883411
 30
0.0
 40
13.20000000000005
100
AcDbArc
 50
180.0
 51
0.0
  0
ARC
  5
548
330
1F
100
AcDbEntity
  8
0
  6
Continuous
 62
     7
100
AcDbCircle
 10
1906.7485686275
 20
164.6522883411
 30
0.0
 40
15.00000000000023
100
AcDbArc
 50
0.0
 51
180.0
  0
ARC
  5
549
330
1F
100
AcDbEntity
  8
0
  6
Continuous
 62
     7
100
AcDbCircle
 10
1906.7485686275
 20
164.6522883411
 30
0.0
 40
15.00000000000023
100
AcDbArc
 50
180.0
 51
0.0
  0
LINE
  5
54A
330
1F
100
AcDbEntity
  8
0
  6
Continuous
 62
     7
100
AcDbLine
 10
1907.6485686275
 20
167.1522883411
 30
0.0
 11
1907.6485686275
 21
171.2522883411
 31
0.0
  0
LINE
  5
54B
330
1F
100
AcDbEntity
  8
0
  6
Continuous
 62
     7
100
AcDbLine
 10
1907.6485686275
 20
167.1522883411
 30
0.0
 11
1915.3757762033
 21
167.1522883411
 31
0.0
  0
ARC
  5
54C
330
1F
100
AcDbEntity
  8
0
  6
Continuous
 62
     7
100
AcDbCircle
 10
1915.3757764214
 20
166.2522883411
 30
0.0
 40
0.9000000000000321
100
AcDbArc
 50
270.0
 51
90.0000138801
  0
LINE
  5
54D
330
1F
100
AcDbEntity
  8
0
  6
Continuous
 62
     7
100
AcDbLine
 10
1898.1213607121
 20
165.3522883411
 30
0.0
 11
1915.3757764214
 21
165.3522883411
 31
0.0
  0
ARC
  5
54E
330
1F
100
AcDbEntity
  8
0
  6
Continuous
 62
     7
100
AcDbCircle
 10
1898.1213608336
 20
166.2522883411
 30
0.0
 40
0.8999999999999855
100
AcDbArc
 50
180.0
 51
269.9999922617
  0
ARC
  5
54F
330
1F
100
AcDbEntity
  8
0
  6
Continuous
 62
     7
100
AcDbCircle
 10
1898.1213608336
 20
166.2522883411
 30
0.0
 40
0.9000000000000057
100
AcDbArc
 50
90.0
 51
180.0
  0
LINE
  5
550
330
1F
100
AcDbEntity
  8
0
  6
Continuous
 62
     7
100
AcDbLine
 10
1898.1213608336
 20
167.1522883411
 30
0.0
 11
1905.8485686275
 21
167.1522883411
 31
0.0
  0
LINE
  5
551
330
1F
100
AcDbEntity
  8
0
  6
Continuous
 62
     7
100
AcDbLine
 10
1905.8485686275
 20
171.2522883411
 30
0.0
 11
1905.8485686275
 21
167.1522883411
 31
0.0
  0
ARC
  5
552
330
1F
100
AcDbEntity
  8
0
  6
Continuous
 62
     7
100
AcDbCircle
 10
1906.7485686275
 20
171.2522883411
 30
0.0
 40
0.900000000000091
100
AcDbArc
 50
0.0
 51
180.0
  0
LINE
  5
553
330
1F
100
AcDbEntity
  8
0
  6
Continuous
 62
     7
100
AcDbLine
 10
1911.7757764214
 20
161.7522883411
 30
0.0
 11
1901.7213608336
 21
161.7522883411
 31
0.0
  0
ARC
  5
554
330
1F
100
AcDbEntity
  8
0
  6
Continuous
 62
     7
100
AcDbCircle
 10
1901.7213608336
 20
162.6522883411
 30
0.0
 40
0.8999999999999773
100
AcDbArc
 50
180.0
 51
270.0
  0
ARC
  5
555
330
1F
100
AcDbEntity
  8
0
  6
Continuous
 62
     7
100
AcDbCircle
 10
1901.7213608336
 20
162.6522883411
 30
0.0
 40
0.9000000000000341
100
AcDbArc
 50
90.0
 51
180.0
  0
LINE
  5
556
330
1F
100
AcDbEntity
  8
0
  6
Continuous
 62
     7
100
AcDbLine
 10
1911.7757764214
 20
163.5522883411
 30
0.0
 11
1901.7213608336
 21
163.5522883411
 31
0.0
  0
ARC
  5
557
330
1F
100
AcDbEntity
  8
0
  6
Continuous
 62
     7
100
AcDbCircle
 10
1911.7757764214
 20
162.6522883411
 30
0.0
 40
0.9000000000000341
100
AcDbArc
 50
270.0
 51
90.0
  0
LINE
  5
558
330
1F
100
AcDbEntity
  8
0
  6
Continuous
 62
     7
100
AcDbLine
 10
1905.3213608336
 20
159.9522883411
 30
0.0
 11
1908.1757764214
 21
159.9522883411
 31
0.0
  0
ARC
  5
559
330
1F
100
AcDbEntity
  8
0
  6
Continuous
 62
     7
100
AcDbCircle
 10
1908.1757764214
 20
159.0522883411
 30
0.0
 40
0.9000000000000341
100
AcDbArc
 50
270.0
 51
90.0
  0
LINE
  5
55A
330
1F
100
AcDbEntity
  8
0
  6
Continuous
 62
     7
100
AcDbLine
 10
1905.3213608336
 20
158.1522883411
 30
0.0
 11
1908.1757764214
 21
158.1522883411
 31
0.0
  0
ARC
  5
55B
330
1F
100
AcDbEntity
  8
0
  6
Continuous
 62
     7
100
AcDbCircle
 10
1905.3213608336
 20
159.0522883411
 30
0.0
 40
0.9000000000000057
100
AcDbArc
 50
180.0
 51
270.0
  0
ARC
  5
55C
330
1F
100
AcDbEntity
  8
0
  6
Continuous
 62
     7
100
AcDbCircle
 10
1905.3213608336
 20
159.0522883411
 30
0.0
 40
0.9000000000000341
100
AcDbArc
 50
90.0
 51
180.0
  0
ARC
  5
55D
330
1F
100
AcDbEntity
  8
0
  6
Continuous
 62
     7
100
AcDbCircle
 10
1869.4508868332
 20
180.2522883411
 30
0.0
 40
12.68857754044936
100
AcDbArc
 50
0.0
 51
90.0
  0
LINE
  5
55E
330
1F
100
AcDbEntity
  8
0
  6
Continuous
 62
     7
100
AcDbLine
 10
1869.4508868332
 20
192.9408658816
 30
0.0
 11
1830.4508868332
 21
192.9408658816
 31
0.0
  0
ARC
  5
55F
330
1F
100
AcDbEntity
  8
0
  6
Continuous
 62
     7
100
AcDbCircle
 10
1830.4508868332
 20
180.2522883411
 30
0.0
 40
12.68857754044939
100
AcDbArc
 50
90.0
 51
180.0
  0
LINE
  5
560
330
1F
100
AcDbEntity
  8
0
  6
Continuous
 62
     7
100
AcDbLine
 10
1817.7623092928
 20
180.2522883411
 30
0.0
 11
1882.1394643737
 21
180.2522883411
 31
0.0
  0
ARC
  5
561
330
1F
100
AcDbEntity
  8
0
  6
Continuous
 62
     7
100
AcDbCircle
 10
1869.4508868332
 20
160.2522883411
 30
0.0
 40
12.6885775404493
100
AcDbArc
 50
0.0
 51
90.0
  0
LINE
  5
562
330
1F
100
AcDbEntity
  8
0
  6
Continuous
 62
     7
100
AcDbLine
 10
1869.4508868332
 20
172.9408658816
 30
0.0
 11
1830.4508868332
 21
172.9408658816
 31
0.0
  0
ARC
  5
563
330
1F
100
AcDbEntity
  8
0
  6
Continuous
 62
     7
100
AcDbCircle
 10
1830.4508868332
 20
160.2522883411
 30
0.0
 40
12.68857754044939
100
AcDbArc
 50
90.0
 51
180.0
  0
LINE
  5
564
330
1F
100
AcDbEntity
  8
0
  6
Continuous
 62
     7
100
AcDbLine
 10
1817.7623092928
 20
160.2522883411
 30
0.0
 11
1882.1394643737
 21
160.2522883411
 31
0.0
  0
ARC
  5
565
330
1F
100
AcDbEntity
  8
0
  6
Continuous
 62
     7
100
AcDbCircle
 10
1869.4508868332
 20
140.2522883411
 30
0.0
 40
12.68857754044927
100
AcDbArc
 50
0.0
 51
90.0
  0
LINE
  5
566
330
1F
100
AcDbEntity
  8
0
  6
Continuous
 62
     7
100
AcDbLine
 10
1869.4508868332
 20
152.9408658816
 30
0.0
 11
1830.4508868332
 21
152.9408658816
 31
0.0
  0
ARC
  5
567
330
1F
100
AcDbEntity
  8
0
  6
Continuous
 62
     7
100
AcDbCircle
 10
1830.4508868332
 20
140.2522883411
 30
0.0
 40
12.68857754044939
100
AcDbArc
 50
90.0
 51
180.0
  0
LINE
  5
568
330
1F
100
AcDbEntity
  8
0
  6
Continuous
 62
     7
100
AcDbLine
 10
1817.7623092928
 20
140.2522883411
 30
0.0
 11
1882.1394643737
 21
140.2522883411
 31
0.0
  0
ARC
  5
569
330
1F
100
AcDbEntity
  8
0
  6
Continuous
 62
     7
100
AcDbCircle
 10
1869.4508868332
 20
120.2522883411
 30
0.0
 40
12.68857754044932
100
AcDbArc
 50
0.0
 51
90.0
  0
LINE
  5
56A
330
1F
100
AcDbEntity
  8
0
  6
Continuous
 62
     7
100
AcDbLine
 10
1869.4508868332
 20
132.9408658816
 30
0.0
 11
1830.4508868332
 21
132.9408658816
 31
0.0
  0
ARC
  5
56B
330
1F
100
AcDbEntity
  8
0
  6
Continuous
 62
     7
100
AcDbCircle
 10
1830.4508868332
 20
120.2522883411
 30
0.0
 40
12.6885775404494
100
AcDbArc
 50
90.0
 51
180.0
  0
LINE
  5
56C
330
1F
100
AcDbEntity
  8
0
  6
Continuous
 62
     7
100
AcDbLine
 10
1817.7623092928
 20
120.2522883411
 30
0.0
 11
1882.1394643737
 21
120.2522883411
 31
0.0
  0
ARC
  5
56D
330
1F
100
AcDbEntity
  8
0
  6
Continuous
 62
     7
100
AcDbCircle
 10
1869.4508868332
 20
100.2522883411
 30
0.0
 40
12.6885775404494
100
AcDbArc
 50
0.0
 51
90.0
  0
LINE
  5
56E
330
1F
100
AcDbEntity
  8
0
  6
Continuous
 62
     7
100
AcDbLine
 10
1869.4508868332
 20
112.9408658816
 30
0.0
 11
1830.4508868332
 21
112.9408658816
 31
0.0
  0
ARC
  5
56F
330
1F
100
AcDbEntity
  8
0
  6
Continuous
 62
     7
100
AcDbCircle
 10
1830.4508868332
 20
100.2522883411
 30
0.0
 40
12.6885775404494
100
AcDbArc
 50
90.0
 51
180.0
  0
LINE
  5
570
330
1F
100
AcDbEntity
  8
0
  6
Continuous
 62
     7
100
AcDbLine
 10
1817.7623092928
 20
100.2522883411
 30
0.0
 11
1882.1394643737
 21
100.2522883411
 31
0.0
  0
ARC
  5
571
330
1F
100
AcDbEntity
  8
0
  6
Continuous
 62
     7
100
AcDbCircle
 10
1789.4508868332
 20
180.2522883411
 30
0.0
 40
12.68857754044939
100
AcDbArc
 50
0.0
 51
90.0
  0
LINE
  5
572
330
1F
100
AcDbEntity
  8
0
  6
Continuous
 62
     7
100
AcDbLine
 10
1789.4508868332
 20
192.9408658816
 30
0.0
 11
1750.4508868332
 21
192.9408658816
 31
0.0
  0
ARC
  5
573
330
1F
100
AcDbEntity
  8
0
  6
Continuous
 62
     7
100
AcDbCircle
 10
1750.4508868332
 20
180.2522883411
 30
0.0
 40
12.68857754044939
100
AcDbArc
 50
90.0
 51
180.0
  0
LINE
  5
574
330
1F
100
AcDbEntity
  8
0
  6
Continuous
 62
     7
100
AcDbLine
 10
1737.7623092928
 20
180.2522883411
 30
0.0
 11
1802.1394643737
 21
180.2522883411
 31
0.0
  0
ARC
  5
575
330
1F
100
AcDbEntity
  8
0
  6
Continuous
 62
     7
100
AcDbCircle
 10
1789.4508868332
 20
160.2522883411
 30
0.0
 40
12.68857754044939
100
AcDbArc
 50
0.0
 51
90.0
  0
LINE
  5
576
330
1F
100
AcDbEntity
  8
0
  6
Continuous
 62
     7
100
AcDbLine
 10
1789.4508868332
 20
172.9408658816
 30
0.0
 11
1750.4508868332
 21
172.9408658816
 31
0.0
  0
ARC
  5
577
330
1F
100
AcDbEntity
  8
0
  6
Continuous
 62
     7
100
AcDbCircle
 10
1750.4508868332
 20
160.2522883411
 30
0.0
 40
12.68857754044939
100
AcDbArc
 50
90.0
 51
180.0
  0
LINE
  5
578
330
1F
100
AcDbEntity
  8
0
  6
Continuous
 62
     7
100
AcDbLine
 10
1737.7623092928
 20
160.2522883411
 30
0.0
 11
1802.1394643737
 21
160.2522883411
 31
0.0
  0
ARC
  5
579
330
1F
100
AcDbEntity
  8
0
  6
Continuous
 62
     7
100
AcDbCircle
 10
1789.4508868332
 20
140.2522883411
 30
0.0
 40
12.68857754044939
100
AcDbArc
 50
0.0
 51
90.0
  0
LINE
  5
57A
330
1F
100
AcDbEntity
  8
0
  6
Continuous
 62
     7
100
AcDbLine
 10
1789.4508868332
 20
152.9408658816
 30
0.0
 11
1750.4508868332
 21
152.9408658816
 31
0.0
  0
ARC
  5
57B
330
1F
100
AcDbEntity
  8
0
  6
Continuous
 62
     7
100
AcDbCircle
 10
1750.4508868332
 20
140.2522883411
 30
0.0
 40
12.68857754044939
100
AcDbArc
 50
90.0
 51
180.0
  0
LINE
  5
57C
330
1F
100
AcDbEntity
  8
0
  6
Continuous
 62
     7
100
AcDbLine
 10
1737.7623092928
 20
140.2522883411
 30
0.0
 11
1802.1394643737
 21
140.2522883411
 31
0.0
  0
ARC
  5
57D
330
1F
100
AcDbEntity
  8
0
  6
Continuous
 62
     7
100
AcDbCircle
 10
1789.4508868332
 20
120.2522883411
 30
0.0
 40
12.6885775404494
100
AcDbArc
 50
0.0
 51
90.0
  0
LINE
  5
57E
330
1F
100
AcDbEntity
  8
0
  6
Continuous
 62
     7
100
AcDbLine
 10
1789.4508868332
 20
132.9408658816
 30
0.0
 11
1750.4508868332
 21
132.9408658816
 31
0.0
  0
ARC
  5
57F
330
1F
100
AcDbEntity
  8
0
  6
Continuous
 62
     7
100
AcDbCircle
 10
1750.4508868332
 20
120.2522883411
 30
0.0
 40
12.6885775404494
100
AcDbArc
 50
90.0
 51
180.0
  0
LINE
  5
580
330
1F
100
AcDbEntity
  8
0
  6
Continuous
 62
     7
100
AcDbLine
 10
1737.7623092928
 20
120.2522883411
 30
0.0
 11
1802.1394643737
 21
120.2522883411
 31
0.0
  0
ARC
  5
581
330
1F
100
AcDbEntity
  8
0
  6
Continuous
 62
     7
100
AcDbCircle
 10
1789.4508868332
 20
100.2522883411
 30
0.0
 40
12.6885775404494
100
AcDbArc
 50
0.0
 51
90.0
  0
LINE
  5
582
330
1F
100
AcDbEntity
  8
0
  6
Continuous
 62
     7
100
AcDbLine
 10
1789.4508868332
 20
112.9408658816
 30
0.0
 11
1750.4508868332
 21
112.9408658816
 31
0.0
  0
ARC
  5
583
330
1F
100
AcDbEntity
  8
0
  6
Continuous
 62
     7
100
AcDbCircle
 10
1750.4508868332
 20
100.2522883411
 30
0.0
 40
12.6885775404494
100
AcDbArc
 50
90.0
 51
180.0
  0
LINE
  5
584
330
1F
100
AcDbEntity
  8
0
  6
Continuous
 62
     7
100
AcDbLine
 10
1737.7623092928
 20
100.2522883411
 30
0.0
 11
1802.1394643737
 21
100.2522883411
 31
0.0
  0
ARC
  5
585
330
1F
100
AcDbEntity
  8
0
  6
Continuous
 62
     7
100
AcDbCircle
 10
1549.4508868332
 20
180.2522883411
 30
0.0
 40
12.68857754044944
100
AcDbArc
 50
0.0
 51
90.0
  0
LINE
  5
586
330
1F
100
AcDbEntity
  8
0
  6
Continuous
 62
     7
100
AcDbLine
 10
1549.4508868332
 20
192.9408658816
 30
0.0
 11
1510.4508868332
 21
192.9408658816
 31
0.0
  0
ARC
  5
587
330
1F
100
AcDbEntity
  8
0
  6
Continuous
 62
     7
100
AcDbCircle
 10
1510.4508868332
 20
180.2522883411
 30
0.0
 40
12.68857754044961
100
AcDbArc
 50
90.0
 51
180.0
  0
LINE
  5
588
330
1F
100
AcDbEntity
  8
0
  6
Continuous
 62
     7
100
AcDbLine
 10
1497.7623092928
 20
180.2522883411
 30
0.0
 11
1562.1394643737
 21
180.2522883411
 31
0.0
  0
ARC
  5
589
330
1F
100
AcDbEntity
  8
0
  6
Continuous
 62
     7
100
AcDbCircle
 10
1549.4508868332
 20
160.2522883411
 30
0.0
 40
12.68857754044939
100
AcDbArc
 50
0.0
 51
90.0
  0
LINE
  5
58A
330
1F
100
AcDbEntity
  8
0
  6
Continuous
 62
     7
100
AcDbLine
 10
1549.4508868332
 20
172.9408658816
 30
0.0
 11
1510.4508868332
 21
172.9408658816
 31
0.0
  0
ARC
  5
58B
330
1F
100
AcDbEntity
  8
0
  6
Continuous
 62
     7
100
AcDbCircle
 10
1510.4508868332
 20
160.2522883411
 30
0.0
 40
12.68857754044961
100
AcDbArc
 50
90.0
 51
180.0
  0
LINE
  5
58C
330
1F
100
AcDbEntity
  8
0
  6
Continuous
 62
     7
100
AcDbLine
 10
1497.7623092928
 20
160.2522883411
 30
0.0
 11
1562.1394643737
 21
160.2522883411
 31
0.0
  0
ARC
  5
58D
330
1F
100
AcDbEntity
  8
0
  6
Continuous
 62
     7
100
AcDbCircle
 10
1549.4508868332
 20
140.2522883411
 30
0.0
 40
12.6885775404495
100
AcDbArc
 50
0.0
 51
90.0
  0
LINE
  5
58E
330
1F
100
AcDbEntity
  8
0
  6
Continuous
 62
     7
100
AcDbLine
 10
1549.4508868332
 20
152.9408658816
 30
0.0
 11
1510.4508868332
 21
152.9408658816
 31
0.0
  0
ARC
  5
58F
330
1F
100
AcDbEntity
  8
0
  6
Continuous
 62
     7
100
AcDbCircle
 10
1510.4508868332
 20
140.2522883411
 30
0.0
 40
12.68857754044961
100
AcDbArc
 50
90.0
 51
180.0
  0
LINE
  5
590
330
1F
100
AcDbEntity
  8
0
  6
Continuous
 62
     7
100
AcDbLine
 10
1497.7623092928
 20
140.2522883411
 30
0.0
 11
1562.1394643737
 21
140.2522883411
 31
0.0
  0
ARC
  5
591
330
1F
100
AcDbEntity
  8
0
  6
Continuous
 62
     7
100
AcDbCircle
 10
1549.4508868332
 20
120.2522883411
 30
0.0
 40
12.6885775404494
100
AcDbArc
 50
0.0
 51
90.0
  0
LINE
  5
592
330
1F
100
AcDbEntity
  8
0
  6
Continuous
 62
     7
100
AcDbLine
 10
1549.4508868332
 20
132.9408658816
 30
0.0
 11
1510.4508868332
 21
132.9408658816
 31
0.0
  0
ARC
  5
593
330
1F
100
AcDbEntity
  8
0
  6
Continuous
 62
     7
100
AcDbCircle
 10
1510.4508868332
 20
120.2522883411
 30
0.0
 40
12.68857754044961
100
AcDbArc
 50
90.0
 51
180.0
  0
LINE
  5
594
330
1F
100
AcDbEntity
  8
0
  6
Continuous
 62
     7
100
AcDbLine
 10
1497.7623092928
 20
120.2522883411
 30
0.0
 11
1562.1394643737
 21
120.2522883411
 31
0.0
  0
ARC
  5
595
330
1F
100
AcDbEntity
  8
0
  6
Continuous
 62
     7
100
AcDbCircle
 10
1549.4508868332
 20
100.2522883411
 30
0.0
 40
12.6885775404496
100
AcDbArc
 50
0.0
 51
90.0
  0
LINE
  5
596
330
1F
100
AcDbEntity
  8
0
  6
Continuous
 62
     7
100
AcDbLine
 10
1549.4508868332
 20
112.9408658816
 30
0.0
 11
1510.4508868332
 21
112.9408658816
 31
0.0
  0
ARC
  5
597
330
1F
100
AcDbEntity
  8
0
  6
Continuous
 62
     7
100
AcDbCircle
 10
1510.4508868332
 20
100.2522883411
 30
0.0
 40
12.68857754044961
100
AcDbArc
 50
90.0
 51
180.0
  0
LINE
  5
598
330
1F
100
AcDbEntity
  8
0
  6
Continuous
 62
     7
100
AcDbLine
 10
1497.7623092928
 20
100.2522883411
 30
0.0
 11
1562.1394643737
 21
100.2522883411
 31
0.0
  0
ARC
  5
599
330
1F
100
AcDbEntity
  8
0
  6
Continuous
 62
     7
100
AcDbCircle
 10
1629.4508868332
 20
180.2522883411
 30
0.0
 40
12.68857754044961
100
AcDbArc
 50
0.0
 51
90.0
  0
LINE
  5
59A
330
1F
100
AcDbEntity
  8
0
  6
Continuous
 62
     7
100
AcDbLine
 10
1629.4508868332
 20
192.9408658816
 30
0.0
 11
1590.4508868332
 21
192.9408658816
 31
0.0
  0
ARC
  5
59B
330
1F
100
AcDbEntity
  8
0
  6
Continuous
 62
     7
100
AcDbCircle
 10
1590.4508868332
 20
180.2522883411
 30
0.0
 40
12.68857754044944
100
AcDbArc
 50
90.0
 51
180.0
  0
LINE
  5
59C
330
1F
100
AcDbEntity
  8
0
  6
Continuous
 62
     7
100
AcDbLine
 10
1577.7623092928
 20
180.2522883411
 30
0.0
 11
1642.1394643737
 21
180.2522883411
 31
0.0
  0
ARC
  5
59D
330
1F
100
AcDbEntity
  8
0
  6
Continuous
 62
     7
100
AcDbCircle
 10
1629.4508868332
 20
160.2522883411
 30
0.0
 40
12.68857754044961
100
AcDbArc
 50
0.0
 51
90.0
  0
LINE
  5
59E
330
1F
100
AcDbEntity
  8
0
  6
Continuous
 62
     7
100
AcDbLine
 10
1629.4508868332
 20
172.9408658816
 30
0.0
 11
1590.4508868332
 21
172.9408658816
 31
0.0
  0
ARC
  5
59F
330
1F
100
AcDbEntity
  8
0
  6
Continuous
 62
     7
100
AcDbCircle
 10
1590.4508868332
 20
160.2522883411
 30
0.0
 40
12.68857754044939
100
AcDbArc
 50
90.0
 51
180.0
  0
LINE
  5
5A0
330
1F
100
AcDbEntity
  8
0
  6
Continuous
 62
     7
100
AcDbLine
 10
1577.7623092928
 20
160.2522883411
 30
0.0
 11
1642.1394643737
 21
160.2522883411
 31
0.0
  0
ARC
  5
5A1
330
1F
100
AcDbEntity
  8
0
  6
Continuous
 62
     7
100
AcDbCircle
 10
1629.4508868332
 20
140.2522883411
 30
0.0
 40
12.68857754044961
100
AcDbArc
 50
0.0
 51
90.0
  0
LINE
  5
5A2
330
1F
100
AcDbEntity
  8
0
  6
Continuous
 62
     7
100
AcDbLine
 10
1629.4508868332
 20
152.9408658816
 30
0.0
 11
1590.4508868332
 21
152.9408658816
 31
0.0
  0
ARC
  5
5A3
330
1F
100
AcDbEntity
  8
0
  6
Continuous
 62
     7
100
AcDbCircle
 10
1590.4508868332
 20
140.2522883411
 30
0.0
 40
12.68857754044939
100
AcDbArc
 50
90.0
 51
180.0
  0
LINE
  5
5A4
330
1F
100
AcDbEntity
  8
0
  6
Continuous
 62
     7
100
AcDbLine
 10
1577.7623092928
 20
140.2522883411
 30
0.0
 11
1642.1394643737
 21
140.2522883411
 31
0.0
  0
ARC
  5
5A5
330
1F
100
AcDbEntity
  8
0
  6
Continuous
 62
     7
100
AcDbCircle
 10
1629.4508868332
 20
120.2522883411
 30
0.0
 40
12.68857754044961
100
AcDbArc
 50
0.0
 51
90.0
  0
LINE
  5
5A6
330
1F
100
AcDbEntity
  8
0
  6
Continuous
 62
     7
100
AcDbLine
 10
1629.4508868332
 20
132.9408658816
 30
0.0
 11
1590.4508868332
 21
132.9408658816
 31
0.0
  0
ARC
  5
5A7
330
1F
100
AcDbEntity
  8
0
  6
Continuous
 62
     7
100
AcDbCircle
 10
1590.4508868332
 20
120.2522883411
 30
0.0
 40
12.6885775404494
100
AcDbArc
 50
90.0
 51
180.0
  0
LINE
  5
5A8
330
1F
100
AcDbEntity
  8
0
  6
Continuous
 62
     7
100
AcDbLine
 10
1577.7623092928
 20
120.2522883411
 30
0.0
 11
1642.1394643737
 21
120.2522883411
 31
0.0
  0
ARC
  5
5A9
330
1F
100
AcDbEntity
  8
0
  6
Continuous
 62
     7
100
AcDbCircle
 10
1629.4508868332
 20
100.2522883411
 30
0.0
 40
12.68857754044961
100
AcDbArc
 50
0.0
 51
90.0
  0
LINE
  5
5AA
330
1F
100
AcDbEntity
  8
0
  6
Continuous
 62
     7
100
AcDbLine
 10
1629.4508868332
 20
112.9408658816
 30
0.0
 11
1590.4508868332
 21
112.9408658816
 31
0.0
  0
ARC
  5
5AB
330
1F
100
AcDbEntity
  8
0
  6
Continuous
 62
     7
100
AcDbCircle
 10
1590.4508868332
 20
100.2522883411
 30
0.0
 40
12.6885775404494
100
AcDbArc
 50
90.0
 51
180.0
  0
LINE
  5
5AC
330
1F
100
AcDbEntity
  8
0
  6
Continuous
 62
     7
100
AcDbLine
 10
1577.7623092928
 20
100.2522883411
 30
0.0
 11
1642.1394643737
 21
100.2522883411
 31
0.0
  0
ARC
  5
5AD
330
1F
100
AcDbEntity
  8
0
  6
Continuous
 62
     7
100
AcDbCircle
 10
1709.4508868332
 20
180.2522883411
 30
0.0
 40
12.68857754044961
100
AcDbArc
 50
0.0
 51
90.0
  0
LINE
  5
5AE
330
1F
100
AcDbEntity
  8
0
  6
Continuous
 62
     7
100
AcDbLine
 10
1709.4508868332
 20
192.9408658816
 30
0.0
 11
1670.4508868332
 21
192.9408658816
 31
0.0
  0
ARC
  5
5AF
330
1F
100
AcDbEntity
  8
0
  6
Continuous
 62
     7
100
AcDbCircle
 10
1670.4508868332
 20
180.2522883411
 30
0.0
 40
12.68857754044961
100
AcDbArc
 50
90.0
 51
180.0
  0
LINE
  5
5B0
330
1F
100
AcDbEntity
  8
0
  6
Continuous
 62
     7
100
AcDbLine
 10
1657.7623092928
 20
180.2522883411
 30
0.0
 11
1722.1394643737
 21
180.2522883411
 31
0.0
  0
ARC
  5
5B1
330
1F
100
AcDbEntity
  8
0
  6
Continuous
 62
     7
100
AcDbCircle
 10
1709.4508868332
 20
160.2522883411
 30
0.0
 40
12.68857754044961
100
AcDbArc
 50
0.0
 51
90.0
  0
LINE
  5
5B2
330
1F
100
AcDbEntity
  8
0
  6
Continuous
 62
     7
100
AcDbLine
 10
1709.4508868332
 20
172.9408658816
 30
0.0
 11
1670.4508868332
 21
172.9408658816
 31
0.0
  0
ARC
  5
5B3
330
1F
100
AcDbEntity
  8
0
  6
Continuous
 62
     7
100
AcDbCircle
 10
1670.4508868332
 20
160.2522883411
 30
0.0
 40
12.68857754044961
100
AcDbArc
 50
90.0
 51
180.0
  0
LINE
  5
5B4
330
1F
100
AcDbEntity
  8
0
  6
Continuous
 62
     7
100
AcDbLine
 10
1657.7623092928
 20
160.2522883411
 30
0.0
 11
1722.1394643737
 21
160.2522883411
 31
0.0
  0
ARC
  5
5B5
330
1F
100
AcDbEntity
  8
0
  6
Continuous
 62
     7
100
AcDbCircle
 10
1709.4508868332
 20
140.2522883411
 30
0.0
 40
12.68857754044961
100
AcDbArc
 50
0.0
 51
90.0
  0
LINE
  5
5B6
330
1F
100
AcDbEntity
  8
0
  6
Continuous
 62
     7
100
AcDbLine
 10
1709.4508868332
 20
152.9408658816
 30
0.0
 11
1670.4508868332
 21
152.9408658816
 31
0.0
  0
ARC
  5
5B7
330
1F
100
AcDbEntity
  8
0
  6
Continuous
 62
     7
100
AcDbCircle
 10
1670.4508868332
 20
140.2522883411
 30
0.0
 40
12.68857754044961
100
AcDbArc
 50
90.0
 51
180.0
  0
LINE
  5
5B8
330
1F
100
AcDbEntity
  8
0
  6
Continuous
 62
     7
100
AcDbLine
 10
1657.7623092928
 20
140.2522883411
 30
0.0
 11
1722.1394643737
 21
140.2522883411
 31
0.0
  0
ARC
  5
5B9
330
1F
100
AcDbEntity
  8
0
  6
Continuous
 62
     7
100
AcDbCircle
 10
1709.4508868332
 20
120.2522883411
 30
0.0
 40
12.68857754044961
100
AcDbArc
 50
0.0
 51
90.0
  0
LINE
  5
5BA
330
1F
100
AcDbEntity
  8
0
  6
Continuous
 62
     7
100
AcDbLine
 10
1709.4508868332
 20
132.9408658816
 30
0.0
 11
1670.4508868332
 21
132.9408658816
 31
0.0
  0
ARC
  5
5BB
330
1F
100
AcDbEntity
  8
0
  6
Continuous
 62
     7
100
AcDbCircle
 10
1670.4508868332
 20
120.2522883411
 30
0.0
 40
12.68857754044961
100
AcDbArc
 50
90.0
 51
180.0
  0
LINE
  5
5BC
330
1F
100
AcDbEntity
  8
0
  6
Continuous
 62
     7
100
AcDbLine
 10
1657.7623092928
 20
120.2522883411
 30
0.0
 11
1722.1394643737
 21
120.2522883411
 31
0.0
  0
ARC
  5
5BD
330
1F
100
AcDbEntity
  8
0
  6
Continuous
 62
     7
100
AcDbCircle
 10
1709.4508868332
 20
100.2522883411
 30
0.0
 40
12.68857754044961
100
AcDbArc
 50
0.0
 51
90.0
  0
LINE
  5
5BE
330
1F
100
AcDbEntity
  8
0
  6
Continuous
 62
     7
100
AcDbLine
 10
1709.4508868332
 20
112.9408658816
 30
0.0
 11
1670.4508868332
 21
112.9408658816
 31
0.0
  0
ARC
  5
5BF
330
1F
100
AcDbEntity
  8
0
  6
Continuous
 62
     7
100
AcDbCircle
 10
1670.4508868332
 20
100.2522883411
 30
0.0
 40
12.68857754044961
100
AcDbArc
 50
90.0
 51
180.0
  0
LINE
  5
5C0
330
1F
100
AcDbEntity
  8
0
  6
Continuous
 62
     7
100
AcDbLine
 10
1657.7623092928
 20
100.2522883411
 30
0.0
 11
1722.1394643737
 21
100.2522883411
 31
0.0
  0
LINE
  5
5C1
330
1F
100
AcDbEntity
  8
0
  6
Continuous
 62
     7
100
AcDbLine
 10
1549.4508868332
 20
190.2121395288
 30
0.0
 11
1549.4508868332
 21
192.9408658816
 31
0.0
  0
LINE
  5
5C2
330
1F
100
AcDbEntity
  8
0
  6
Continuous
 62
     7
100
AcDbLine
 10
1510.4508868332
 20
190.2121395288
 30
0.0
 11
1549.4508868332
 21
190.2121395288
 31
0.0
  0
LINE
  5
5C3
330
1F
100
AcDbEntity
  8
0
  6
Continuous
 62
     7
100
AcDbLine
 10
1510.4508868332
 20
190.2121395288
 30
0.0
 11
1510.4508868332
 21
192.9408658816
 31
0.0
  0
LINE
  5
5C4
330
1F
100
AcDbEntity
  8
0
  6
Continuous
 62
     7
100
AcDbLine
 10
1549.4508868332
 20
170.2121395288
 30
0.0
 11
1549.4508868332
 21
172.9408658816
 31
0.0
  0
LINE
  5
5C5
330
1F
100
AcDbEntity
  8
0
  6
Continuous
 62
     7
100
AcDbLine
 10
1510.4508868332
 20
170.2121395288
 30
0.0
 11
1549.4508868332
 21
170.2121395288
 31
0.0
  0
LINE
  5
5C6
330
1F
100
AcDbEntity
  8
0
  6
Continuous
 62
     7
100
AcDbLine
 10
1510.4508868332
 20
170.2121395288
 30
0.0
 11
1510.4508868332
 21
172.9408658816
 31
0.0
  0
ARC
  5
5C7
330
1F
100
AcDbEntity
  8
0
  6
Continuous
 62
     7
100
AcDbCircle
 10
1510.4508868332
 20
180.2522883411
 30
0.0
 40
9.95985118766464
100
AcDbArc
 50
90.0
 51
180.0
  0
LINE
  5
5C8
330
1F
100
AcDbEntity
  8
0
  6
Continuous
 62
     7
100
AcDbLine
 10
1629.4508868332
 20
190.2121395288
 30
0.0
 11
1629.4508868332
 21
192.9408658816
 31
0.0
  0
LINE
  5
5C9
330
1F
100
AcDbEntity
  8
0
  6
Continuous
 62
     7
100
AcDbLine
 10
1590.4508868332
 20
190.2121395288
 30
0.0
 11
1629.4508868332
 21
190.2121395288
 31
0.0
  0
LINE
  5
5CA
330
1F
100
AcDbEntity
  8
0
  6
Continuous
 62
     7
100
AcDbLine
 10
1590.4508868332
 20
190.2121395288
 30
0.0
 11
1590.4508868332
 21
192.9408658816
 31
0.0
  0
LINE
  5
5CB
330
1F
100
AcDbEntity
  8
0
  6
Continuous
 62
     7
100
AcDbLine
 10
1549.4508868332
 20
150.2121395288
 30
0.0
 11
1549.4508868332
 21
152.9408658816
 31
0.0
  0
LINE
  5
5CC
330
1F
100
AcDbEntity
  8
0
  6
Continuous
 62
     7
100
AcDbLine
 10
1510.4508868332
 20
150.2121395288
 30
0.0
 11
1549.4508868332
 21
150.2121395288
 31
0.0
  0
LINE
  5
5CD
330
1F
100
AcDbEntity
  8
0
  6
Continuous
 62
     7
100
AcDbLine
 10
1510.4508868332
 20
150.2121395288
 30
0.0
 11
1510.4508868332
 21
152.9408658816
 31
0.0
  0
ARC
  5
5CE
330
1F
100
AcDbEntity
  8
0
  6
Continuous
 62
     7
100
AcDbCircle
 10
1510.4508868332
 20
160.2522883411
 30
0.0
 40
9.959851187664611
100
AcDbArc
 50
90.0
 51
180.0
  0
LINE
  5
5CF
330
1F
100
AcDbEntity
  8
0
  6
Continuous
 62
     7
100
AcDbLine
 10
1629.4508868332
 20
170.2121395288
 30
0.0
 11
1629.4508868332
 21
172.9408658816
 31
0.0
  0
LINE
  5
5D0
330
1F
100
AcDbEntity
  8
0
  6
Continuous
 62
     7
100
AcDbLine
 10
1590.4508868332
 20
170.2121395288
 30
0.0
 11
1629.4508868332
 21
170.2121395288
 31
0.0
  0
LINE
  5
5D1
330
1F
100
AcDbEntity
  8
0
  6
Continuous
 62
     7
100
AcDbLine
 10
1590.4508868332
 20
170.2121395288
 30
0.0
 11
1590.4508868332
 21
172.9408658816
 31
0.0
  0
LINE
  5
5D2
330
1F
100
AcDbEntity
  8
0
  6
Continuous
 62
     7
100
AcDbLine
 10
1549.4508868332
 20
130.2121395288
 30
0.0
 11
1549.4508868332
 21
132.9408658816
 31
0.0
  0
LINE
  5
5D3
330
1F
100
AcDbEntity
  8
0
  6
Continuous
 62
     7
100
AcDbLine
 10
1510.4508868332
 20
130.2121395288
 30
0.0
 11
1549.4508868332
 21
130.2121395288
 31
0.0
  0
LINE
  5
5D4
330
1F
100
AcDbEntity
  8
0
  6
Continuous
 62
     7
100
AcDbLine
 10
1510.4508868332
 20
130.2121395288
 30
0.0
 11
1510.4508868332
 21
132.9408658816
 31
0.0
  0
ARC
  5
5D5
330
1F
100
AcDbEntity
  8
0
  6
Continuous
 62
     7
100
AcDbCircle
 10
1590.4508868332
 20
180.2522883411
 30
0.0
 40
9.959851187664583
100
AcDbArc
 50
90.0
 51
180.0
  0
ARC
  5
5D6
330
1F
100
AcDbEntity
  8
0
  6
Continuous
 62
     7
100
AcDbCircle
 10
1549.4508868332
 20
180.2522883411
 30
0.0
 40
9.959851187664981
100
AcDbArc
 50
0.0
 51
90.0
  0
ARC
  5
5D7
330
1F
100
AcDbEntity
  8
0
  6
Continuous
 62
     7
100
AcDbCircle
 10
1510.4508868332
 20
140.2522883411
 30
0.0
 40
9.959851187664583
100
AcDbArc
 50
90.0
 51
180.0
  0
LINE
  5
5D8
330
1F
100
AcDbEntity
  8
0
  6
Continuous
 62
     7
100
AcDbLine
 10
1709.4508868332
 20
190.2121395288
 30
0.0
 11
1709.4508868332
 21
192.9408658816
 31
0.0
  0
LINE
  5
5D9
330
1F
100
AcDbEntity
  8
0
  6
Continuous
 62
     7
100
AcDbLine
 10
1670.4508868332
 20
190.2121395288
 30
0.0
 11
1709.4508868332
 21
190.2121395288
 31
0.0
  0
LINE
  5
5DA
330
1F
100
AcDbEntity
  8
0
  6
Continuous
 62
     7
100
AcDbLine
 10
1670.4508868332
 20
190.2121395288
 30
0.0
 11
1670.4508868332
 21
192.9408658816
 31
0.0
  0
LINE
  5
5DB
330
1F
100
AcDbEntity
  8
0
  6
Continuous
 62
     7
100
AcDbLine
 10
1629.4508868332
 20
150.2121395288
 30
0.0
 11
1629.4508868332
 21
152.9408658816
 31
0.0
  0
LINE
  5
5DC
330
1F
100
AcDbEntity
  8
0
  6
Continuous
 62
     7
100
AcDbLine
 10
1590.4508868332
 20
150.2121395288
 30
0.0
 11
1629.4508868332
 21
150.2121395288
 31
0.0
  0
LINE
  5
5DD
330
1F
100
AcDbEntity
  8
0
  6
Continuous
 62
     7
100
AcDbLine
 10
1590.4508868332
 20
150.2121395288
 30
0.0
 11
1590.4508868332
 21
152.9408658816
 31
0.0
  0
LINE
  5
5DE
330
1F
100
AcDbEntity
  8
0
  6
Continuous
 62
     7
100
AcDbLine
 10
1549.4508868332
 20
110.2121395288
 30
0.0
 11
1549.4508868332
 21
112.9408658816
 31
0.0
  0
LINE
  5
5DF
330
1F
100
AcDbEntity
  8
0
  6
Continuous
 62
     7
100
AcDbLine
 10
1510.4508868332
 20
110.2121395288
 30
0.0
 11
1549.4508868332
 21
110.2121395288
 31
0.0
  0
LINE
  5
5E0
330
1F
100
AcDbEntity
  8
0
  6
Continuous
 62
     7
100
AcDbLine
 10
1510.4508868332
 20
110.2121395288
 30
0.0
 11
1510.4508868332
 21
112.9408658816
 31
0.0
  0
ARC
  5
5E1
330
1F
100
AcDbEntity
  8
0
  6
Continuous
 62
     7
100
AcDbCircle
 10
1549.4508868332
 20
160.2522883411
 30
0.0
 40
9.959851187664981
100
AcDbArc
 50
0.0
 51
90.0
  0
ARC
  5
5E2
330
1F
100
AcDbEntity
  8
0
  6
Continuous
 62
     7
100
AcDbCircle
 10
1590.4508868332
 20
160.2522883411
 30
0.0
 40
9.959851187664611
100
AcDbArc
 50
90.0
 51
180.0
  0
ARC
  5
5E3
330
1F
100
AcDbEntity
  8
0
  6
Continuous
 62
     7
100
AcDbCircle
 10
1510.4508868332
 20
120.2522883411
 30
0.0
 40
9.959851187664626
100
AcDbArc
 50
90.0
 51
180.0
  0
LINE
  5
5E4
330
1F
100
AcDbEntity
  8
0
  6
Continuous
 62
     7
100
AcDbLine
 10
1709.4508868332
 20
170.2121395288
 30
0.0
 11
1709.4508868332
 21
172.9408658816
 31
0.0
  0
LINE
  5
5E5
330
1F
100
AcDbEntity
  8
0
  6
Continuous
 62
     7
100
AcDbLine
 10
1670.4508868332
 20
170.2121395288
 30
0.0
 11
1709.4508868332
 21
170.2121395288
 31
0.0
  0
LINE
  5
5E6
330
1F
100
AcDbEntity
  8
0
  6
Continuous
 62
     7
100
AcDbLine
 10
1670.4508868332
 20
170.2121395288
 30
0.0
 11
1670.4508868332
 21
172.9408658816
 31
0.0
  0
LINE
  5
5E7
330
1F
100
AcDbEntity
  8
0
  6
Continuous
 62
     7
100
AcDbLine
 10
1629.4508868332
 20
130.2121395288
 30
0.0
 11
1629.4508868332
 21
132.9408658816
 31
0.0
  0
LINE
  5
5E8
330
1F
100
AcDbEntity
  8
0
  6
Continuous
 62
     7
100
AcDbLine
 10
1590.4508868332
 20
130.2121395288
 30
0.0
 11
1629.4508868332
 21
130.2121395288
 31
0.0
  0
LINE
  5
5E9
330
1F
100
AcDbEntity
  8
0
  6
Continuous
 62
     7
100
AcDbLine
 10
1590.4508868332
 20
130.2121395288
 30
0.0
 11
1590.4508868332
 21
132.9408658816
 31
0.0
  0
ARC
  5
5EA
330
1F
100
AcDbEntity
  8
0
  6
Continuous
 62
     7
100
AcDbCircle
 10
1629.4508868332
 20
180.2522883411
 30
0.0
 40
9.959851187664981
100
AcDbArc
 50
0.0
 51
90.0
  0
ARC
  5
5EB
330
1F
100
AcDbEntity
  8
0
  6
Continuous
 62
     7
100
AcDbCircle
 10
1670.4508868332
 20
180.2522883411
 30
0.0
 40
9.959851187664583
100
AcDbArc
 50
90.0
 51
180.0
  0
ARC
  5
5EC
330
1F
100
AcDbEntity
  8
0
  6
Continuous
 62
     7
100
AcDbCircle
 10
1549.4508868332
 20
140.2522883411
 30
0.0
 40
9.959851187664981
100
AcDbArc
 50
0.0
 51
90.0
  0
ARC
  5
5ED
330
1F
100
AcDbEntity
  8
0
  6
Continuous
 62
     7
100
AcDbCircle
 10
1590.4508868332
 20
140.2522883411
 30
0.0
 40
9.959851187664583
100
AcDbArc
 50
90.0
 51
180.0
  0
ARC
  5
5EE
330
1F
100
AcDbEntity
  8
0
  6
Continuous
 62
     7
100
AcDbCircle
 10
1510.4508868332
 20
100.2522883411
 30
0.0
 40
9.959851187664611
100
AcDbArc
 50
90.0
 51
180.0
  0
LINE
  5
5EF
330
1F
100
AcDbEntity
  8
0
  6
Continuous
 62
     7
100
AcDbLine
 10
1789.4508868332
 20
190.2121395288
 30
0.0
 11
1789.4508868332
 21
192.9408658816
 31
0.0
  0
LINE
  5
5F0
330
1F
100
AcDbEntity
  8
0
  6
Continuous
 62
     7
100
AcDbLine
 10
1750.4508868332
 20
190.2121395288
 30
0.0
 11
1789.4508868332
 21
190.2121395288
 31
0.0
  0
LINE
  5
5F1
330
1F
100
AcDbEntity
  8
0
  6
Continuous
 62
     7
100
AcDbLine
 10
1750.4508868332
 20
190.2121395288
 30
0.0
 11
1750.4508868332
 21
192.9408658816
 31
0.0
  0
LINE
  5
5F2
330
1F
100
AcDbEntity
  8
0
  6
Continuous
 62
     7
100
AcDbLine
 10
1709.4508868332
 20
150.2121395288
 30
0.0
 11
1709.4508868332
 21
152.9408658816
 31
0.0
  0
LINE
  5
5F3
330
1F
100
AcDbEntity
  8
0
  6
Continuous
 62
     7
100
AcDbLine
 10
1670.4508868332
 20
150.2121395288
 30
0.0
 11
1709.4508868332
 21
150.2121395288
 31
0.0
  0
LINE
  5
5F4
330
1F
100
AcDbEntity
  8
0
  6
Continuous
 62
     7
100
AcDbLine
 10
1670.4508868332
 20
150.2121395288
 30
0.0
 11
1670.4508868332
 21
152.9408658816
 31
0.0
  0
LINE
  5
5F5
330
1F
100
AcDbEntity
  8
0
  6
Continuous
 62
     7
100
AcDbLine
 10
1629.4508868332
 20
110.2121395288
 30
0.0
 11
1629.4508868332
 21
112.9408658816
 31
0.0
  0
LINE
  5
5F6
330
1F
100
AcDbEntity
  8
0
  6
Continuous
 62
     7
100
AcDbLine
 10
1590.4508868332
 20
110.2121395288
 30
0.0
 11
1629.4508868332
 21
110.2121395288
 31
0.0
  0
LINE
  5
5F7
330
1F
100
AcDbEntity
  8
0
  6
Continuous
 62
     7
100
AcDbLine
 10
1590.4508868332
 20
110.2121395288
 30
0.0
 11
1590.4508868332
 21
112.9408658816
 31
0.0
  0
ARC
  5
5F8
330
1F
100
AcDbEntity
  8
0
  6
Continuous
 62
     7
100
AcDbCircle
 10
1629.4508868332
 20
160.2522883411
 30
0.0
 40
9.959851187664981
100
AcDbArc
 50
0.0
 51
90.0
  0
ARC
  5
5F9
330
1F
100
AcDbEntity
  8
0
  6
Continuous
 62
     7
100
AcDbCircle
 10
1670.4508868332
 20
160.2522883411
 30
0.0
 40
9.959851187664611
100
AcDbArc
 50
90.0
 51
180.0
  0
ARC
  5
5FA
330
1F
100
AcDbEntity
  8
0
  6
Continuous
 62
     7
100
AcDbCircle
 10
1590.4508868332
 20
120.2522883411
 30
0.0
 40
9.959851187664626
100
AcDbArc
 50
90.0
 51
180.0
  0
ARC
  5
5FB
330
1F
100
AcDbEntity
  8
0
  6
Continuous
 62
     7
100
AcDbCircle
 10
1549.4508868332
 20
120.2522883411
 30
0.0
 40
9.959851187664981
100
AcDbArc
 50
0.0
 51
90.0
  0
LINE
  5
5FC
330
1F
100
AcDbEntity
  8
0
  6
Continuous
 62
     7
100
AcDbLine
 10
1789.4508868332
 20
170.2121395288
 30
0.0
 11
1789.4508868332
 21
172.9408658816
 31
0.0
  0
LINE
  5
5FD
330
1F
100
AcDbEntity
  8
0
  6
Continuous
 62
     7
100
AcDbLine
 10
1750.4508868332
 20
170.2121395288
 30
0.0
 11
1789.4508868332
 21
170.2121395288
 31
0.0
  0
LINE
  5
5FE
330
1F
100
AcDbEntity
  8
0
  6
Continuous
 62
     7
100
AcDbLine
 10
1750.4508868332
 20
170.2121395288
 30
0.0
 11
1750.4508868332
 21
172.9408658816
 31
0.0
  0
LINE
  5
5FF
330
1F
100
AcDbEntity
  8
0
  6
Continuous
 62
     7
100
AcDbLine
 10
1709.4508868332
 20
130.2121395288
 30
0.0
 11
1709.4508868332
 21
132.9408658816
 31
0.0
  0
LINE
  5
600
330
1F
100
AcDbEntity
  8
0
  6
Continuous
 62
     7
100
AcDbLine
 10
1670.4508868332
 20
130.2121395288
 30
0.0
 11
1709.4508868332
 21
130.2121395288
 31
0.0
  0
LINE
  5
601
330
1F
100
AcDbEntity
  8
0
  6
Continuous
 62
     7
100
AcDbLine
 10
1670.4508868332
 20
130.2121395288
 30
0.0
 11
1670.4508868332
 21
132.9408658816
 31
0.0
  0
ARC
  5
602
330
1F
100
AcDbEntity
  8
0
  6
Continuous
 62
     7
100
AcDbCircle
 10
1750.4508868332
 20
180.2522883411
 30
0.0
 40
9.959851187664555
100
AcDbArc
 50
90.0
 51
180.0
  0
ARC
  5
603
330
1F
100
AcDbEntity
  8
0
  6
Continuous
 62
     7
100
AcDbCircle
 10
1709.4508868332
 20
180.2522883411
 30
0.0
 40
9.959851187665208
100
AcDbArc
 50
0.0
 51
90.0
  0
ARC
  5
604
330
1F
100
AcDbEntity
  8
0
  6
Continuous
 62
     7
100
AcDbCircle
 10
1670.4508868332
 20
140.2522883411
 30
0.0
 40
9.959851187664583
100
AcDbArc
 50
90.0
 51
180.0
  0
ARC
  5
605
330
1F
100
AcDbEntity
  8
0
  6
Continuous
 62
     7
100
AcDbCircle
 10
1629.4508868332
 20
140.2522883411
 30
0.0
 40
9.959851187664981
100
AcDbArc
 50
0.0
 51
90.0
  0
ARC
  5
606
330
1F
100
AcDbEntity
  8
0
  6
Continuous
 62
     7
100
AcDbCircle
 10
1549.4508868332
 20
100.2522883411
 30
0.0
 40
9.959851187664981
100
AcDbArc
 50
0.0
 51
90.0
  0
LINE
  5
607
330
1F
100
AcDbEntity
  8
0
  6
Continuous
 62
     7
100
AcDbLine
 10
1869.4508868332
 20
190.2121395288
 30
0.0
 11
1869.4508868332
 21
192.9408658816
 31
0.0
  0
LINE
  5
608
330
1F
100
AcDbEntity
  8
0
  6
Continuous
 62
     7
100
AcDbLine
 10
1830.4508868332
 20
190.2121395288
 30
0.0
 11
1869.4508868332
 21
190.2121395288
 31
0.0
  0
LINE
  5
609
330
1F
100
AcDbEntity
  8
0
  6
Continuous
 62
     7
100
AcDbLine
 10
1830.4508868332
 20
190.2121395288
 30
0.0
 11
1830.4508868332
 21
192.9408658816
 31
0.0
  0
ARC
  5
60A
330
1F
100
AcDbEntity
  8
0
  6
Continuous
 62
     7
100
AcDbCircle
 10
1590.4508868332
 20
100.2522883411
 30
0.0
 40
9.959851187664611
100
AcDbArc
 50
90.0
 51
180.0
  0
LINE
  5
60B
330
1F
100
AcDbEntity
  8
0
  6
Continuous
 62
     7
100
AcDbLine
 10
1789.4508868332
 20
150.2121395288
 30
0.0
 11
1789.4508868332
 21
152.9408658816
 31
0.0
  0
LINE
  5
60C
330
1F
100
AcDbEntity
  8
0
  6
Continuous
 62
     7
100
AcDbLine
 10
1750.4508868332
 20
150.2121395288
 30
0.0
 11
1789.4508868332
 21
150.2121395288
 31
0.0
  0
LINE
  5
60D
330
1F
100
AcDbEntity
  8
0
  6
Continuous
 62
     7
100
AcDbLine
 10
1750.4508868332
 20
150.2121395288
 30
0.0
 11
1750.4508868332
 21
152.9408658816
 31
0.0
  0
LINE
  5
60E
330
1F
100
AcDbEntity
  8
0
  6
Continuous
 62
     7
100
AcDbLine
 10
1709.4508868332
 20
110.2121395288
 30
0.0
 11
1709.4508868332
 21
112.9408658816
 31
0.0
  0
LINE
  5
60F
330
1F
100
AcDbEntity
  8
0
  6
Continuous
 62
     7
100
AcDbLine
 10
1670.4508868332
 20
110.2121395288
 30
0.0
 11
1709.4508868332
 21
110.2121395288
 31
0.0
  0
LINE
  5
610
330
1F
100
AcDbEntity
  8
0
  6
Continuous
 62
     7
100
AcDbLine
 10
1670.4508868332
 20
110.2121395288
 30
0.0
 11
1670.4508868332
 21
112.9408658816
 31
0.0
  0
ARC
  5
611
330
1F
100
AcDbEntity
  8
0
  6
Continuous
 62
     7
100
AcDbCircle
 10
1750.4508868332
 20
160.2522883411
 30
0.0
 40
9.959851187664611
100
AcDbArc
 50
90.0
 51
180.0
  0
ARC
  5
612
330
1F
100
AcDbEntity
  8
0
  6
Continuous
 62
     7
100
AcDbCircle
 10
1709.4508868332
 20
160.2522883411
 30
0.0
 40
9.959851187665208
100
AcDbArc
 50
0.0
 51
90.0
  0
ARC
  5
613
330
1F
100
AcDbEntity
  8
0
  6
Continuous
 62
     7
100
AcDbCircle
 10
1629.4508868332
 20
120.2522883411
 30
0.0
 40
9.959851187664981
100
AcDbArc
 50
0.0
 51
90.0
  0
ARC
  5
614
330
1F
100
AcDbEntity
  8
0
  6
Continuous
 62
     7
100
AcDbCircle
 10
1670.4508868332
 20
120.2522883411
 30
0.0
 40
9.959851187664626
100
AcDbArc
 50
90.0
 51
180.0
  0
LINE
  5
615
330
1F
100
AcDbEntity
  8
0
  6
Continuous
 62
     7
100
AcDbLine
 10
1869.4508868332
 20
170.2121395288
 30
0.0
 11
1869.4508868332
 21
172.9408658816
 31
0.0
  0
LINE
  5
616
330
1F
100
AcDbEntity
  8
0
  6
Continuous
 62
     7
100
AcDbLine
 10
1830.4508868332
 20
170.2121395288
 30
0.0
 11
1869.4508868332
 21
170.2121395288
 31
0.0
  0
LINE
  5
617
330
1F
100
AcDbEntity
  8
0
  6
Continuous
 62
     7
100
AcDbLine
 10
1830.4508868332
 20
170.2121395288
 30
0.0
 11
1830.4508868332
 21
172.9408658816
 31
0.0
  0
LINE
  5
618
330
1F
100
AcDbEntity
  8
0
  6
Continuous
 62
     7
100
AcDbLine
 10
1789.4508868332
 20
130.2121395288
 30
0.0
 11
1789.4508868332
 21
132.9408658816
 31
0.0
  0
LINE
  5
619
330
1F
100
AcDbEntity
  8
0
  6
Continuous
 62
     7
100
AcDbLine
 10
1750.4508868332
 20
130.2121395288
 30
0.0
 11
1789.4508868332
 21
130.2121395288
 31
0.0
  0
LINE
  5
61A
330
1F
100
AcDbEntity
  8
0
  6
Continuous
 62
     7
100
AcDbLine
 10
1750.4508868332
 20
130.2121395288
 30
0.0
 11
1750.4508868332
 21
132.9408658816
 31
0.0
  0
ARC
  5
61B
330
1F
100
AcDbEntity
  8
0
  6
Continuous
 62
     7
100
AcDbCircle
 10
1789.4508868332
 20
180.2522883411
 30
0.0
 40
9.959851187664754
100
AcDbArc
 50
0.0
 51
90.0
  0
ARC
  5
61C
330
1F
100
AcDbEntity
  8
0
  6
Continuous
 62
     7
100
AcDbCircle
 10
1830.4508868332
 20
180.2522883411
 30
0.0
 40
9.959851187664555
100
AcDbArc
 50
90.0
 51
180.0
  0
ARC
  5
61D
330
1F
100
AcDbEntity
  8
0
  6
Continuous
 62
     7
100
AcDbCircle
 10
1709.4508868332
 20
140.2522883411
 30
0.0
 40
9.959851187665208
100
AcDbArc
 50
0.0
 51
90.0
  0
ARC
  5
61E
330
1F
100
AcDbEntity
  8
0
  6
Continuous
 62
     7
100
AcDbCircle
 10
1750.4508868332
 20
140.2522883411
 30
0.0
 40
9.959851187664583
100
AcDbArc
 50
90.0
 51
180.0
  0
ARC
  5
61F
330
1F
100
AcDbEntity
  8
0
  6
Continuous
 62
     7
100
AcDbCircle
 10
1629.4508868332
 20
100.2522883411
 30
0.0
 40
9.959851187664981
100
AcDbArc
 50
0.0
 51
90.0
  0
ARC
  5
620
330
1F
100
AcDbEntity
  8
0
  6
Continuous
 62
     7
100
AcDbCircle
 10
1670.4508868332
 20
100.2522883411
 30
0.0
 40
9.959851187664611
100
AcDbArc
 50
90.0
 51
180.0
  0
LINE
  5
621
330
1F
100
AcDbEntity
  8
0
  6
Continuous
 62
     7
100
AcDbLine
 10
1869.4508868332
 20
150.2121395288
 30
0.0
 11
1869.4508868332
 21
152.9408658816
 31
0.0
  0
LINE
  5
622
330
1F
100
AcDbEntity
  8
0
  6
Continuous
 62
     7
100
AcDbLine
 10
1830.4508868332
 20
150.2121395288
 30
0.0
 11
1869.4508868332
 21
150.2121395288
 31
0.0
  0
LINE
  5
623
330
1F
100
AcDbEntity
  8
0
  6
Continuous
 62
     7
100
AcDbLine
 10
1830.4508868332
 20
150.2121395288
 30
0.0
 11
1830.4508868332
 21
152.9408658816
 31
0.0
  0
LINE
  5
624
330
1F
100
AcDbEntity
  8
0
  6
Continuous
 62
     7
100
AcDbLine
 10
1789.4508868332
 20
110.2121395288
 30
0.0
 11
1789.4508868332
 21
112.9408658816
 31
0.0
  0
LINE
  5
625
330
1F
100
AcDbEntity
  8
0
  6
Continuous
 62
     7
100
AcDbLine
 10
1750.4508868332
 20
110.2121395288
 30
0.0
 11
1789.4508868332
 21
110.2121395288
 31
0.0
  0
LINE
  5
626
330
1F
100
AcDbEntity
  8
0
  6
Continuous
 62
     7
100
AcDbLine
 10
1750.4508868332
 20
110.2121395288
 30
0.0
 11
1750.4508868332
 21
112.9408658816
 31
0.0
  0
ARC
  5
627
330
1F
100
AcDbEntity
  8
0
  6
Continuous
 62
     7
100
AcDbCircle
 10
1789.4508868332
 20
160.2522883411
 30
0.0
 40
9.959851187664754
100
AcDbArc
 50
0.0
 51
90.0
  0
ARC
  5
628
330
1F
100
AcDbEntity
  8
0
  6
Continuous
 62
     7
100
AcDbCircle
 10
1830.4508868332
 20
160.2522883411
 30
0.0
 40
9.959851187664526
100
AcDbArc
 50
90.0
 51
180.0
  0
ARC
  5
629
330
1F
100
AcDbEntity
  8
0
  6
Continuous
 62
     7
100
AcDbCircle
 10
1709.4508868332
 20
120.2522883411
 30
0.0
 40
9.959851187665208
100
AcDbArc
 50
0.0
 51
90.0
  0
ARC
  5
62A
330
1F
100
AcDbEntity
  8
0
  6
Continuous
 62
     7
100
AcDbCircle
 10
1750.4508868332
 20
120.2522883411
 30
0.0
 40
9.959851187664512
100
AcDbArc
 50
90.0
 51
180.0
  0
LINE
  5
62B
330
1F
100
AcDbEntity
  8
0
  6
Continuous
 62
     7
100
AcDbLine
 10
1869.4508868332
 20
130.2121395288
 30
0.0
 11
1869.4508868332
 21
132.9408658816
 31
0.0
  0
LINE
  5
62C
330
1F
100
AcDbEntity
  8
0
  6
Continuous
 62
     7
100
AcDbLine
 10
1830.4508868332
 20
130.2121395288
 30
0.0
 11
1869.4508868332
 21
130.2121395288
 31
0.0
  0
LINE
  5
62D
330
1F
100
AcDbEntity
  8
0
  6
Continuous
 62
     7
100
AcDbLine
 10
1830.4508868332
 20
130.2121395288
 30
0.0
 11
1830.4508868332
 21
132.9408658816
 31
0.0
  0
ARC
  5
62E
330
1F
100
AcDbEntity
  8
0
  6
Continuous
 62
     7
100
AcDbCircle
 10
1869.4508868332
 20
180.2522883411
 30
0.0
 40
9.959851187664498
100
AcDbArc
 50
0.0
 51
90.0
  0
ARC
  5
62F
330
1F
100
AcDbEntity
  8
0
  6
Continuous
 62
     7
100
AcDbCircle
 10
1789.4508868332
 20
140.2522883411
 30
0.0
 40
9.959851187664754
100
AcDbArc
 50
0.0
 51
90.0
  0
ARC
  5
630
330
1F
100
AcDbEntity
  8
0
  6
Continuous
 62
     7
100
AcDbCircle
 10
1830.4508868332
 20
140.2522883411
 30
0.0
 40
9.959851187664526
100
AcDbArc
 50
90.0
 51
180.0
  0
ARC
  5
631
330
1F
100
AcDbEntity
  8
0
  6
Continuous
 62
     7
100
AcDbCircle
 10
1750.4508868332
 20
100.2522883411
 30
0.0
 40
9.959851187664611
100
AcDbArc
 50
90.0
 51
180.0
  0
ARC
  5
632
330
1F
100
AcDbEntity
  8
0
  6
Continuous
 62
     7
100
AcDbCircle
 10
1709.4508868332
 20
100.2522883411
 30
0.0
 40
9.959851187665208
100
AcDbArc
 50
0.0
 51
90.0
  0
LINE
  5
633
330
1F
100
AcDbEntity
  8
0
  6
Continuous
 62
     7
100
AcDbLine
 10
1869.4508868332
 20
110.2121395288
 30
0.0
 11
1869.4508868332
 21
112.9408658816
 31
0.0
  0
LINE
  5
634
330
1F
100
AcDbEntity
  8
0
  6
Continuous
 62
     7
100
AcDbLine
 10
1830.4508868332
 20
110.2121395288
 30
0.0
 11
1869.4508868332
 21
110.2121395288
 31
0.0
  0
LINE
  5
635
330
1F
100
AcDbEntity
  8
0
  6
Continuous
 62
     7
100
AcDbLine
 10
1830.4508868332
 20
110.2121395288
 30
0.0
 11
1830.4508868332
 21
112.9408658816
 31
0.0
  0
ARC
  5
636
330
1F
100
AcDbEntity
  8
0
  6
Continuous
 62
     7
100
AcDbCircle
 10
1869.4508868332
 20
160.2522883411
 30
0.0
 40
9.959851187664498
100
AcDbArc
 50
0.0
 51
90.0
  0
ARC
  5
637
330
1F
100
AcDbEntity
  8
0
  6
Continuous
 62
     7
100
AcDbCircle
 10
1830.4508868332
 20
120.2522883411
 30
0.0
 40
9.959851187664526
100
AcDbArc
 50
90.0
 51
180.0
  0
ARC
  5
638
330
1F
100
AcDbEntity
  8
0
  6
Continuous
 62
     7
100
AcDbCircle
 10
1789.4508868332
 20
120.2522883411
 30
0.0
 40
9.959851187664754
100
AcDbArc
 50
0.0
 51
90.0
  0
ARC
  5
639
330
1F
100
AcDbEntity
  8
0
  6
Continuous
 62
     7
100
AcDbCircle
 10
1869.4508868332
 20
140.2522883411
 30
0.0
 40
9.959851187664498
100
AcDbArc
 50
0.0
 51
90.0
  0
ARC
  5
63A
330
1F
100
AcDbEntity
  8
0
  6
Continuous
 62
     7
100
AcDbCircle
 10
1789.4508868332
 20
100.2522883411
 30
0.0
 40
9.959851187664754
100
AcDbArc
 50
0.0
 51
90.0
  0
ARC
  5
63B
330
1F
100
AcDbEntity
  8
0
  6
Continuous
 62
     7
100
AcDbCircle
 10
1830.4508868332
 20
100.2522883411
 30
0.0
 40
9.959851187664611
100
AcDbArc
 50
90.0
 51
180.0
  0
ARC
  5
63C
330
1F
100
AcDbEntity
  8
0
  6
Continuous
 62
     7
100
AcDbCircle
 10
1869.4508868332
 20
120.2522883411
 30
0.0
 40
9.959851187664512
100
AcDbArc
 50
0.0
 51
90.0
  0
ARC
  5
63D
330
1F
100
AcDbEntity
  8
0
  6
Continuous
 62
     7
100
AcDbCircle
 10
1869.4508868332
 20
100.2522883411
 30
0.0
 40
9.959851187664611
100
AcDbArc
 50
0.0
 51
90.0
  0
LINE
  5
63E
330
1F
100
AcDbEntity
  8
0
  6
Continuous
 62
     7
100
AcDbLine
 10
1549.4508868332
 20
180.2522883411
 30
0.0
 11
1549.4508868332
 21
190.2121395288
 31
0.0
  0
LINE
  5
63F
330
1F
100
AcDbEntity
  8
0
  6
Continuous
 62
     7
100
AcDbLine
 10
1510.4508868332
 20
190.2121395288
 30
0.0
 11
1510.4508868332
 21
180.2522883411
 31
0.0
  0
LINE
  5
640
330
1F
100
AcDbEntity
  8
0
  6
Continuous
 62
     7
100
AcDbLine
 10
1549.4508868332
 20
160.2522883411
 30
0.0
 11
1549.4508868332
 21
170.2121395288
 31
0.0
  0
LINE
  5
641
330
1F
100
AcDbEntity
  8
0
  6
Continuous
 62
     7
100
AcDbLine
 10
1510.4508868332
 20
170.2121395288
 30
0.0
 11
1510.4508868332
 21
160.2522883411
 31
0.0
  0
LINE
  5
642
330
1F
100
AcDbEntity
  8
0
  6
Continuous
 62
     7
100
AcDbLine
 10
1629.4508868332
 20
180.2522883411
 30
0.0
 11
1629.4508868332
 21
190.2121395288
 31
0.0
  0
LINE
  5
643
330
1F
100
AcDbEntity
  8
0
  6
Continuous
 62
     7
100
AcDbLine
 10
1590.4508868332
 20
190.2121395288
 30
0.0
 11
1590.4508868332
 21
180.2522883411
 31
0.0
  0
LINE
  5
644
330
1F
100
AcDbEntity
  8
0
  6
Continuous
 62
     7
100
AcDbLine
 10
1549.4508868332
 20
140.2522883411
 30
0.0
 11
1549.4508868332
 21
150.2121395288
 31
0.0
  0
LINE
  5
645
330
1F
100
AcDbEntity
  8
0
  6
Continuous
 62
     7
100
AcDbLine
 10
1510.4508868332
 20
150.2121395288
 30
0.0
 11
1510.4508868332
 21
140.2522883411
 31
0.0
  0
LINE
  5
646
330
1F
100
AcDbEntity
  8
0
  6
Continuous
 62
     7
100
AcDbLine
 10
1629.4508868332
 20
160.2522883411
 30
0.0
 11
1629.4508868332
 21
170.2121395288
 31
0.0
  0
LINE
  5
647
330
1F
100
AcDbEntity
  8
0
  6
Continuous
 62
     7
100
AcDbLine
 10
1590.4508868332
 20
170.2121395288
 30
0.0
 11
1590.4508868332
 21
160.2522883411
 31
0.0
  0
LINE
  5
648
330
1F
100
AcDbEntity
  8
0
  6
Continuous
 62
     7
100
AcDbLine
 10
1549.4508868332
 20
120.2522883411
 30
0.0
 11
1549.4508868332
 21
130.2121395288
 31
0.0
  0
LINE
  5
649
330
1F
100
AcDbEntity
  8
0
  6
Continuous
 62
     7
100
AcDbLine
 10
1510.4508868332
 20
130.2121395288
 30
0.0
 11
1510.4508868332
 21
120.2522883411
 31
0.0
  0
LINE
  5
64A
330
1F
100
AcDbEntity
  8
0
  6
Continuous
 62
     7
100
AcDbLine
 10
1709.4508868332
 20
180.2522883411
 30
0.0
 11
1709.4508868332
 21
190.2121395288
 31
0.0
  0
LINE
  5
64B
330
1F
100
AcDbEntity
  8
0
  6
Continuous
 62
     7
100
AcDbLine
 10
1670.4508868332
 20
190.2121395288
 30
0.0
 11
1670.4508868332
 21
180.2522883411
 31
0.0
  0
LINE
  5
64C
330
1F
100
AcDbEntity
  8
0
  6
Continuous
 62
     7
100
AcDbLine
 10
1629.4508868332
 20
140.2522883411
 30
0.0
 11
1629.4508868332
 21
150.2121395288
 31
0.0
  0
LINE
  5
64D
330
1F
100
AcDbEntity
  8
0
  6
Continuous
 62
     7
100
AcDbLine
 10
1590.4508868332
 20
150.2121395288
 30
0.0
 11
1590.4508868332
 21
140.2522883411
 31
0.0
  0
LINE
  5
64E
330
1F
100
AcDbEntity
  8
0
  6
Continuous
 62
     7
100
AcDbLine
 10
1549.4508868332
 20
100.2522883411
 30
0.0
 11
1549.4508868332
 21
110.2121395288
 31
0.0
  0
LINE
  5
64F
330
1F
100
AcDbEntity
  8
0
  6
Continuous
 62
     7
100
AcDbLine
 10
1510.4508868332
 20
110.2121395288
 30
0.0
 11
1510.4508868332
 21
100.2522883411
 31
0.0
  0
LINE
  5
650
330
1F
100
AcDbEntity
  8
0
  6
Continuous
 62
     7
100
AcDbLine
 10
1709.4508868332
 20
160.2522883411
 30
0.0
 11
1709.4508868332
 21
170.2121395288
 31
0.0
  0
LINE
  5
651
330
1F
100
AcDbEntity
  8
0
  6
Continuous
 62
     7
100
AcDbLine
 10
1670.4508868332
 20
170.2121395288
 30
0.0
 11
1670.4508868332
 21
160.2522883411
 31
0.0
  0
LINE
  5
652
330
1F
100
AcDbEntity
  8
0
  6
Continuous
 62
     7
100
AcDbLine
 10
1629.4508868332
 20
120.2522883411
 30
0.0
 11
1629.4508868332
 21
130.2121395288
 31
0.0
  0
LINE
  5
653
330
1F
100
AcDbEntity
  8
0
  6
Continuous
 62
     7
100
AcDbLine
 10
1590.4508868332
 20
130.2121395288
 30
0.0
 11
1590.4508868332
 21
120.2522883411
 31
0.0
  0
LINE
  5
654
330
1F
100
AcDbEntity
  8
0
  6
Continuous
 62
     7
100
AcDbLine
 10
1789.4508868332
 20
180.2522883411
 30
0.0
 11
1789.4508868332
 21
190.2121395288
 31
0.0
  0
LINE
  5
655
330
1F
100
AcDbEntity
  8
0
  6
Continuous
 62
     7
100
AcDbLine
 10
1750.4508868332
 20
190.2121395288
 30
0.0
 11
1750.4508868332
 21
180.2522883411
 31
0.0
  0
LINE
  5
656
330
1F
100
AcDbEntity
  8
0
  6
Continuous
 62
     7
100
AcDbLine
 10
1709.4508868332
 20
140.2522883411
 30
0.0
 11
1709.4508868332
 21
150.2121395288
 31
0.0
  0
LINE
  5
657
330
1F
100
AcDbEntity
  8
0
  6
Continuous
 62
     7
100
AcDbLine
 10
1670.4508868332
 20
150.2121395288
 30
0.0
 11
1670.4508868332
 21
140.2522883411
 31
0.0
  0
LINE
  5
658
330
1F
100
AcDbEntity
  8
0
  6
Continuous
 62
     7
100
AcDbLine
 10
1629.4508868332
 20
100.2522883411
 30
0.0
 11
1629.4508868332
 21
110.2121395288
 31
0.0
  0
LINE
  5
659
330
1F
100
AcDbEntity
  8
0
  6
Continuous
 62
     7
100
AcDbLine
 10
1590.4508868332
 20
110.2121395288
 30
0.0
 11
1590.4508868332
 21
100.2522883411
 31
0.0
  0
LINE
  5
65A
330
1F
100
AcDbEntity
  8
0
  6
Continuous
 62
     7
100
AcDbLine
 10
1789.4508868332
 20
160.2522883411
 30
0.0
 11
1789.4508868332
 21
170.2121395288
 31
0.0
  0
LINE
  5
65B
330
1F
100
AcDbEntity
  8
0
  6
Continuous
 62
     7
100
AcDbLine
 10
1750.4508868332
 20
170.2121395288
 30
0.0
 11
1750.4508868332
 21
160.2522883411
 31
0.0
  0
LINE
  5
65C
330
1F
100
AcDbEntity
  8
0
  6
Continuous
 62
     7
100
AcDbLine
 10
1709.4508868332
 20
120.2522883411
 30
0.0
 11
1709.4508868332
 21
130.2121395288
 31
0.0
  0
LINE
  5
65D
330
1F
100
AcDbEntity
  8
0
  6
Continuous
 62
     7
100
AcDbLine
 10
1670.4508868332
 20
130.2121395288
 30
0.0
 11
1670.4508868332
 21
120.2522883411
 31
0.0
  0
LINE
  5
65E
330
1F
100
AcDbEntity
  8
0
  6
Continuous
 62
     7
100
AcDbLine
 10
1869.4508868332
 20
180.2522883411
 30
0.0
 11
1869.4508868332
 21
190.2121395288
 31
0.0
  0
LINE
  5
65F
330
1F
100
AcDbEntity
  8
0
  6
Continuous
 62
     7
100
AcDbLine
 10
1830.4508868332
 20
190.2121395288
 30
0.0
 11
1830.4508868332
 21
180.2522883411
 31
0.0
  0
LINE
  5
660
330
1F
100
AcDbEntity
  8
0
  6
Continuous
 62
     7
100
AcDbLine
 10
1789.4508868332
 20
140.2522883411
 30
0.0
 11
1789.4508868332
 21
150.2121395288
 31
0.0
  0
LINE
  5
661
330
1F
100
AcDbEntity
  8
0
  6
Continuous
 62
     7
100
AcDbLine
 10
1750.4508868332
 20
150.2121395288
 30
0.0
 11
1750.4508868332
 21
140.2522883411
 31
0.0
  0
LINE
  5
662
330
1F
100
AcDbEntity
  8
0
  6
Continuous
 62
     7
100
AcDbLine
 10
1709.4508868332
 20
100.2522883411
 30
0.0
 11
1709.4508868332
 21
110.2121395288
 31
0.0
  0
LINE
  5
663
330
1F
100
AcDbEntity
  8
0
  6
Continuous
 62
     7
100
AcDbLine
 10
1670.4508868332
 20
110.2121395288
 30
0.0
 11
1670.4508868332
 21
100.2522883411
 31
0.0
  0
LINE
  5
664
330
1F
100
AcDbEntity
  8
0
  6
Continuous
 62
     7
100
AcDbLine
 10
1869.4508868332
 20
160.2522883411
 30
0.0
 11
1869.4508868332
 21
170.2121395288
 31
0.0
  0
LINE
  5
665
330
1F
100
AcDbEntity
  8
0
  6
Continuous
 62
     7
100
AcDbLine
 10
1830.4508868332
 20
170.2121395288
 30
0.0
 11
1830.4508868332
 21
160.2522883411
 31
0.0
  0
LINE
  5
666
330
1F
100
AcDbEntity
  8
0
  6
Continuous
 62
     7
100
AcDbLine
 10
1789.4508868332
 20
120.2522883411
 30
0.0
 11
1789.4508868332
 21
130.2121395288
 31
0.0
  0
LINE
  5
667
330
1F
100
AcDbEntity
  8
0
  6
Continuous
 62
     7
100
AcDbLine
 10
1750.4508868332
 20
130.2121395288
 30
0.0
 11
1750.4508868332
 21
120.2522883411
 31
0.0
  0
LINE
  5
668
330
1F
100
AcDbEntity
  8
0
  6
Continuous
 62
     7
100
AcDbLine
 10
1869.4508868332
 20
140.2522883411
 30
0.0
 11
1869.4508868332
 21
150.2121395288
 31
0.0
  0
LINE
  5
669
330
1F
100
AcDbEntity
  8
0
  6
Continuous
 62
     7
100
AcDbLine
 10
1830.4508868332
 20
150.2121395288
 30
0.0
 11
1830.4508868332
 21
140.2522883411
 31
0.0
  0
LINE
  5
66A
330
1F
100
AcDbEntity
  8
0
  6
Continuous
 62
     7
100
AcDbLine
 10
1789.4508868332
 20
100.2522883411
 30
0.0
 11
1789.4508868332
 21
110.2121395288
 31
0.0
  0
LINE
  5
66B
330
1F
100
AcDbEntity
  8
0
  6
Continuous
 62
     7
100
AcDbLine
 10
1750.4508868332
 20
110.2121395288
 30
0.0
 11
1750.4508868332
 21
100.2522883411
 31
0.0
  0
LINE
  5
66C
330
1F
100
AcDbEntity
  8
0
  6
Continuous
 62
     7
100
AcDbLine
 10
1869.4508868332
 20
120.2522883411
 30
0.0
 11
1869.4508868332
 21
130.2121395288
 31
0.0
  0
LINE
  5
66D
330
1F
100
AcDbEntity
  8
0
  6
Continuous
 62
     7
100
AcDbLine
 10
1830.4508868332
 20
130.2121395288
 30
0.0
 11
1830.4508868332
 21
120.2522883411
 31
0.0
  0
LINE
  5
66E
330
1F
100
AcDbEntity
  8
0
  6
Continuous
 62
     7
100
AcDbLine
 10
1869.4508868332
 20
100.2522883411
 30
0.0
 11
1869.4508868332
 21
110.2121395288
 31
0.0
  0
LINE
  5
66F
330
1F
100
AcDbEntity
  8
0
  6
Continuous
 62
     7
100
AcDbLine
 10
1830.4508868332
 20
110.2121395288
 30
0.0
 11
1830.4508868332
 21
100.2522883411
 31
0.0
  0
LINE
  5
670
330
1F
100
AcDbEntity
  8
0
  6
Continuous
 62
     7
100
AcDbLine
 10
1445.0885612365
 20
140.7522883411
 30
0.0
 11
1445.0885612365
 21
147.5564019663
 31
0.0
  0
LINE
  5
671
330
1F
100
AcDbEntity
  8
0
  6
Continuous
 62
     7
100
AcDbLine
 10
1446.4189323628
 20
141.5593867129
 30
0.0
 11
1446.4189323628
 21
147.4327225367
 31
0.0
  0
LINE
  5
672
330
1F
100
AcDbEntity
  8
0
  6
Continuous
 62
     7
100
AcDbLine
 10
1943.4085760185
 20
146.94142154
 30
0.0
 11
1943.4085760185
 21
140.7522883412
 31
0.0
  0
LINE
  5
673
330
1F
100
AcDbEntity
  8
0
  6
Continuous
 62
     7
100
AcDbLine
 10
1942.0782048922
 20
146.9018691783
 30
0.0
 11
1942.0782048922
 21
141.5593867129
 31
0.0
  0
LINE
  5
674
330
1F
100
AcDbEntity
  8
0
  6
Continuous
 62
     7
100
AcDbLine
 10
1943.4085760185
 20
152.5522883412
 30
0.0
 11
1943.4085760185
 21
146.94142154
 31
0.0
  0
LINE
  5
675
330
1F
100
AcDbEntity
  8
0
  6
Continuous
 62
     7
100
AcDbLine
 10
1942.0782048922
 20
151.7451899694
 30
0.0
 11
1942.0782048922
 21
146.9018691783
 31
0.0
  0
LINE
  5
676
330
1F
100
AcDbEntity
  8
0
  6
Continuous
 62
     7
100
AcDbLine
 10
1445.0885612365
 20
147.5564019663
 30
0.0
 11
1445.0885612365
 21
152.5522883411
 31
0.0
  0
LINE
  5
677
330
1F
100
AcDbEntity
  8
0
  6
Continuous
 62
     7
100
AcDbLine
 10
1446.4189323628
 20
147.4327225367
 30
0.0
 11
1446.4189323628
 21
151.7451899694
 31
0.0
  0
LINE
  5
678
330
1F
100
AcDbEntity
  8
0
  6
Continuous
 62
     7
100
AcDbLine
 10
1447.0789397537
 20
142.8266009036
 30
0.0
 11
1447.0789397537
 21
147.2385351442
 31
0.0
  0
LINE
  5
679
330
1F
100
AcDbEntity
  8
0
  6
Continuous
 62
     7
100
AcDbLine
 10
1941.4181975012
 20
146.8397685524
 30
0.0
 11
1941.4181975012
 21
142.8266009036
 31
0.0
  0
LINE
  5
67A
330
1F
100
AcDbEntity
  8
0
  6
Continuous
 62
     7
100
AcDbLine
 10
1941.4181975012
 20
150.4779757787
 30
0.0
 11
1941.4181975012
 21
146.8397685524
 31
0.0
  0
LINE
  5
67B
330
1F
100
AcDbEntity
  8
0
  6
Continuous
 62
     7
100
AcDbLine
 10
1447.0789397537
 20
147.2385351442
 30
0.0
 11
1447.0789397537
 21
150.4779757787
 31
0.0
  0
LINE
  5
67C
330
1F
100
AcDbEntity
  8
0
  6
Continuous
 62
     7
100
AcDbLine
 10
1433.5485686275
 20
147.1120071336
 30
0.0
 11
1440.2485686275
 21
147.1120071336
 31
0.0
  0
LINE
  5
67D
330
1F
100
AcDbEntity
  8
0
  6
Continuous
 62
     7
100
AcDbLine
 10
1954.9485686275
 20
146.7993052219
 30
0.0
 11
1948.2485686275
 21
146.7993052219
 31
0.0
  0
LINE
  5
67E
330
1F
100
AcDbEntity
  8
0
  6
Continuous
 62
     7
100
AcDbLine
 10
1446.9485686275
 20
151.3022883411
 30
0.0
 11
1446.9485686275
 21
150.7282883411
 31
0.0
  0
LINE
  5
67F
330
1F
100
AcDbEntity
  8
0
  6
Continuous
 62
     7
100
AcDbLine
 10
1446.9485686275
 20
142.5762883411
 30
0.0
 11
1446.9485686275
 21
142.0022883411
 31
0.0
  0
LINE
  5
680
330
1F
100
AcDbEntity
  8
0
  6
Continuous
 62
     7
100
AcDbLine
 10
1941.5485686275
 20
142.0022883411
 30
0.0
 11
1941.5485686275
 21
142.5762883412
 31
0.0
  0
LINE
  5
681
330
1F
100
AcDbEntity
  8
0
  6
Continuous
 62
     7
100
AcDbLine
 10
1941.5485686275
 20
150.7282883411
 30
0.0
 11
1941.5485686275
 21
151.3022883411
 31
0.0
  0
LINE
  5
682
330
1F
100
AcDbEntity
  8
0
  6
Continuous
 62
     7
100
AcDbLine
 10
1954.7485686275
 20
199.6522883411
 30
0.0
 11
1954.7485686275
 21
149.6522883412
 31
0.0
  0
LINE
  5
683
330
1F
100
AcDbEntity
  8
0
  6
Continuous
 62
     7
100
AcDbLine
 10
1954.7485686275
 20
143.6522883412
 30
0.0
 11
1954.7485686275
 21
93.6522883411
 31
0.0
  0
LINE
  5
684
330
1F
100
AcDbEntity
  8
0
  6
Continuous
 62
     7
100
AcDbLine
 10
1452.7485686275
 20
154.1878222471
 30
0.0
 11
1452.0176300203
 21
154.1522883411
 31
0.0
  0
LINE
  5
685
330
1F
100
AcDbEntity
  8
0
  6
Continuous
 62
     7
100
AcDbLine
 10
1453.4795072347
 20
154.1522883411
 30
0.0
 11
1452.7485686275
 21
154.1878222471
 31
0.0
  0
LINE
  5
686
330
1F
100
AcDbEntity
  8
0
  6
Continuous
 62
     7
100
AcDbLine
 10
1935.7485686275
 20
154.1878222471
 30
0.0
 11
1935.0176300203
 21
154.1522883411
 31
0.0
  0
LINE
  5
687
330
1F
100
AcDbEntity
  8
0
  6
Continuous
 62
     7
100
AcDbLine
 10
1936.4795072347
 20
154.1522883411
 30
0.0
 11
1935.7485686275
 21
154.1878222471
 31
0.0
  0
LINE
  5
688
330
1F
100
AcDbEntity
  8
0
  6
Continuous
 62
     7
100
AcDbLine
 10
1935.7485686275
 20
139.1167544352
 30
0.0
 11
1936.4795072347
 21
139.1522883411
 31
0.0
  0
LINE
  5
689
330
1F
100
AcDbEntity
  8
0
  6
Continuous
 62
     7
100
AcDbLine
 10
1935.0176300203
 20
139.1522883411
 30
0.0
 11
1935.7485686275
 21
139.1167544352
 31
0.0
  0
LINE
  5
68A
330
1F
100
AcDbEntity
  8
0
  6
Continuous
 62
     7
100
AcDbLine
 10
1452.7485686275
 20
139.1167544352
 30
0.0
 11
1453.4795072347
 21
139.1522883411
 31
0.0
  0
LINE
  5
68B
330
1F
100
AcDbEntity
  8
0
  6
Continuous
 62
     7
100
AcDbLine
 10
1452.0176300203
 20
139.1522883411
 30
0.0
 11
1452.7485686275
 21
139.1167544352
 31
0.0
  0
ARC
  5
68C
330
1F
100
AcDbEntity
  8
0
  6
Continuous
 62
     7
100
AcDbCircle
 10
1452.7485686275
 20
146.6522883411
 30
0.0
 40
8.242640687119291
100
AcDbArc
 50
90.0
 51
114.5081081782
  0
ARC
  5
68D
330
1F
100
AcDbEntity
  8
0
  6
Continuous
 62
     7
100
AcDbCircle
 10
1452.7485686275
 20
146.6522883411
 30
0.0
 40
8.24264068711932
100
AcDbArc
 50
245.4918918218
 51
270.0
  0
ARC
  5
68E
330
1F
100
AcDbEntity
  8
0
  6
Continuous
 62
     7
100
AcDbCircle
 10
1452.7485686275
 20
146.6522883411
 30
0.0
 40
8.24264068711932
100
AcDbArc
 50
270.0
 51
294.5081081782
  0
ARC
  5
68F
330
1F
100
AcDbEntity
  8
0
  6
Continuous
 62
     7
100
AcDbCircle
 10
1452.7485686275
 20
146.6522883411
 30
0.0
 40
8.242640687119291
100
AcDbArc
 50
65.4918918218
 51
90.0
  0
ARC
  5
690
330
1F
100
AcDbEntity
  8
0
  6
Continuous
 62
     7
100
AcDbCircle
 10
1935.7485686275
 20
146.6522883411
 30
0.0
 40
8.242640687119382
100
AcDbArc
 50
90.0
 51
114.5081081782
  0
ARC
  5
691
330
1F
100
AcDbEntity
  8
0
  6
Continuous
 62
     7
100
AcDbCircle
 10
1935.7485686275
 20
146.6522883411
 30
0.0
 40
8.242640687119518
100
AcDbArc
 50
245.4918918218
 51
270.0
  0
ARC
  5
692
330
1F
100
AcDbEntity
  8
0
  6
Continuous
 62
     7
100
AcDbCircle
 10
1935.7485686275
 20
146.6522883411
 30
0.0
 40
8.242640687119518
100
AcDbArc
 50
270.0
 51
294.5081081782
  0
ARC
  5
693
330
1F
100
AcDbEntity
  8
0
  6
Continuous
 62
     7
100
AcDbCircle
 10
1935.7485686275
 20
146.6522883411
 30
0.0
 40
8.242640687119287
100
AcDbArc
 50
65.4918918218
 51
90.0
  0
ENDSEC
  0
SECTION
  2
OBJECTS
  0
DICTIONARY
  5
C
330
0
100
AcDbDictionary
281
     1
  3
ACAD_GROUP
350
D
  3
ACAD_LAYOUT
350
1A
  3
ACAD_MLINESTYLE
350
17
  3
ACAD_PLOTSETTINGS
350
19
  3
ACAD_PLOTSTYLENAME
350
E
  3
ACAD_SCALELIST
350
47
  3
DWGPROPS
350
694
  0
DICTIONARY
  5
D
102
{ACAD_REACTORS
330
C
102
}
330
C
100
AcDbDictionary
281
     1
  0
DICTIONARY
  5
1A
102
{ACAD_REACTORS
330
C
102
}
330
C
100
AcDbDictionary
281
     1
  3
Layout1
350
1E
  3
Layout2
350
26
  3
Model
350
22
  0
DICTIONARY
  5
17
102
{ACAD_REACTORS
330
C
102
}
330
C
100
AcDbDictionary
281
     1
  3
Standard
350
18
  0
DICTIONARY
  5
19
102
{ACAD_REACTORS
330
C
102
}
330
C
100
AcDbDictionary
281
     1
  0
ACDBDICTIONARYWDFLT
  5
E
102
{ACAD_REACTORS
330
C
102
}
330
C
100
AcDbDictionary
281
     1
  3
Normal
350
F
100
AcDbDictionaryWithDefault
340
F
  0
DICTIONARY
  5
47
102
{ACAD_REACTORS
330
C
102
}
330
C
100
AcDbDictionary
281
     1
  3
A0
350
48
  3
A1
350
49
  3
A2
350
4A
  3
A3
350
4B
  3
A4
350
4C
  3
A5
350
4D
  3
A6
350
4E
  3
A7
350
4F
  3
A8
350
50
  3
A9
350
51
  3
B0
350
52
  3
B1
350
53
  3
B2
350
54
  3
B3
350
55
  3
B4
350
56
  3
B5
350
57
  3
B6
350
58
  0
XRECORD
  5
694
102
{ACAD_REACTORS
330
C
102
}
330
C
100
AcDbXrecord
280
     1
  1
DWGPROPS COOKIE
  2

  3

  4

  6

  7

  8
moskovchenkovapa
  9

300
=
301
=
302
=
303
=
304
=
305
=
306
=
307
=
308
=
309
=
 40
0.0
 41
2460697.556090787
 42
2460697.556091285
  1

 90
        0
  0
LAYOUT
  5
1E
102
{ACAD_REACTORS
330
1A
102
}
330
1A
100
AcDbPlotSettings
  1

  2
none_device
  4

  6

 40
0.0
 41
0.0
 42
0.0
 43
0.0
 44
0.0
 45
0.0
 46
0.0
 47
0.0
 48
0.0
 49
0.0
140
0.0
141
0.0
142
1.0
143
1.0
 70
   688
 72
     1
 73
     0
 74
     5
  7

 75
    16
147
1.0
148
0.0
149
0.0
100
AcDbLayout
  1
Layout1
 70
     1
 71
     1
 10
0.0
 20
0.0
 11
420.0
 21
297.0
 12
0.0
 22
0.0
 32
0.0
 14
1.0000000000E+20
 24
1.0000000000E+20
 34
1.0000000000E+20
 15
-1.0000000000E+20
 25
-1.0000000000E+20
 35
-1.0000000000E+20
146
0.0
 13
0.0
 23
0.0
 33
0.0
 16
1.0
 26
0.0
 36
0.0
 17
0.0
 27
1.0
 37
0.0
 76
     0
330
1B
  0
LAYOUT
  5
26
102
{ACAD_REACTORS
330
1A
102
}
330
1A
100
AcDbPlotSettings
  1

  2
none_device
  4

  6

 40
0.0
 41
0.0
 42
0.0
 43
0.0
 44
0.0
 45
0.0
 46
0.0
 47
0.0
 48
0.0
 49
0.0
140
0.0
141
0.0
142
1.0
143
1.0
 70
   688
 72
     1
 73
     0
 74
     5
  7

 75
    16
147
1.0
148
0.0
149
0.0
100
AcDbLayout
  1
Layout2
 70
     1
 71
     2
 10
0.0
 20
0.0
 11
0.0
 21
0.0
 12
0.0
 22
0.0
 32
0.0
 14
0.0
 24
0.0
 34
0.0
 15
0.0
 25
0.0
 35
0.0
146
0.0
 13
0.0
 23
0.0
 33
0.0
 16
1.0
 26
0.0
 36
0.0
 17
0.0
 27
1.0
 37
0.0
 76
     0
330
23
  0
LAYOUT
  5
22
102
{ACAD_REACTORS
330
1A
102
}
330
1A
100
AcDbPlotSettings
  1

  2
none_device
  4
Letter_(8.50_x_11.00_Inches)
  6

 40
6.35
 41
6.35
 42
6.35000508
 43
6.35000508
 44
215.9
 45
279.4
 46
0.0
 47
0.0
 48
0.0
 49
0.0
140
0.0
141
0.0
142
1.0
143
1.0
 70
  1712
 72
     1
 73
     0
 74
     0
  7

 75
     0
147
1.0
148
0.0
149
0.0
100
AcDbLayout
  1
Model
 70
     1
 71
     0
 10
0.0
 20
0.0
 11
420.0
 21
297.0
 12
0.0
 22
0.0
 32
0.0
 14
0.0
 24
0.0
 34
0.0
 15
420.0
 25
297.0
 35
0.0
146
0.0
 13
0.0
 23
0.0
 33
0.0
 16
1.0
 26
0.0
 36
0.0
 17
0.0
 27
1.0
 37
0.0
 76
     0
330
1F
331
29
  0
MLINESTYLE
  5
18
102
{ACAD_REACTORS
330
17
102
}
330
17
100
AcDbMlineStyle
  2
Standard
 70
     0
  3

 62
   256
 51
90.0
 52
90.0
 71
     2
 49
0.5
 62
   256
  6
BYLAYER
 49
-0.5
 62
   256
  6
BYLAYER
  0
ACDBPLACEHOLDER
  5
F
102
{ACAD_REACTORS
330
E
102
}
330
E
  0
SCALE
  5
48
102
{ACAD_REACTORS
330
47
102
}
330
47
100
AcDbScale
 70
     0
300
1:1
140
1.0
141
1.0
290
     1
  0
SCALE
  5
49
102
{ACAD_REACTORS
330
47
102
}
330
47
100
AcDbScale
 70
     0
300
1:2
140
1.0
141
2.0
290
     0
  0
SCALE
  5
4A
102
{ACAD_REACTORS
330
47
102
}
330
47
100
AcDbScale
 70
     0
300
1:4
140
1.0
141
4.0
290
     0
  0
SCALE
  5
4B
102
{ACAD_REACTORS
330
47
102
}
330
47
100
AcDbScale
 70
     0
300
1:5
140
1.0
141
5.0
290
     0
  0
SCALE
  5
4C
102
{ACAD_REACTORS
330
47
102
}
330
47
100
AcDbScale
 70
     0
300
1:8
140
1.0
141
8.0
290
     0
  0
SCALE
  5
4D
102
{ACAD_REACTORS
330
47
102
}
330
47
100
AcDbScale
 70
     0
300
1:10
140
1.0
141
10.0
290
     0
  0
SCALE
  5
4E
102
{ACAD_REACTORS
330
47
102
}
330
47
100
AcDbScale
 70
     0
300
1:16
140
1.0
141
16.0
290
     0
  0
SCALE
  5
4F
102
{ACAD_REACTORS
330
47
102
}
330
47
100
AcDbScale
 70
     0
300
1:20
140
1.0
141
20.0
290
     0
  0
SCALE
  5
50
102
{ACAD_REACTORS
330
47
102
}
330
47
100
AcDbScale
 70
     0
300
1:30
140
1.0
141
30.0
290
     0
  0
SCALE
  5
51
102
{ACAD_REACTORS
330
47
102
}
330
47
100
AcDbScale
 70
     0
300
1:40
140
1.0
141
40.0
290
     0
  0
SCALE
  5
52
102
{ACAD_REACTORS
330
47
102
}
330
47
100
AcDbScale
 70
     0
300
1:50
140
1.0
141
50.0
290
     0
  0
SCALE
  5
53
102
{ACAD_REACTORS
330
47
102
}
330
47
100
AcDbScale
 70
     0
300
1:100
140
1.0
141
100.0
290
     0
  0
SCALE
  5
54
102
{ACAD_REACTORS
330
47
102
}
330
47
100
AcDbScale
 70
     0
300
2:1
140
2.0
141
1.0
290
     0
  0
SCALE
  5
55
102
{ACAD_REACTORS
330
47
102
}
330
47
100
AcDbScale
 70
     0
300
4:1
140
4.0
141
1.0
290
     0
  0
SCALE
  5
56
102
{ACAD_REACTORS
330
47
102
}
330
47
100
AcDbScale
 70
     0
300
8:1
140
8.0
141
1.0
290
     0
  0
SCALE
  5
57
102
{ACAD_REACTORS
330
47
102
}
330
47
100
AcDbScale
 70
     0
300
10:1
140
10.0
141
1.0
290
     0
  0
SCALE
  5
58
102
{ACAD_REACTORS
330
47
102
}
330
47
100
AcDbScale
 70
     0
300
100:1
140
100.0
141
1.0
290
     0
  0
ENDSEC
  0
EOF
