  0
SECTION
  2
HEADER
  9
$ACADVER
  1
AC1027
  9
$ACADMAINTVER
 70
   105
  9
$DWGCODEPAGE
  3
ANSI_1251
  9
$REQUIREDVERSIONS
160
                 0
  9
$INSBASE
 10
0.0
 20
0.0
 30
0.0
  9
$EXTMIN
 10
0.0
 20
0.0
 30
0.0
  9
$EXTMAX
 10
1420.0
 20
1297.0
 30
0.0
  9
$LIMMIN
 10
0.0
 20
0.0
  9
$LIMMAX
 10
1420.0
 20
1297.0
  9
$ORTHOMODE
 70
     0
  9
$REGENMODE
 70
     1
  9
$FILLMODE
 70
     1
  9
$QTEXTMODE
 70
     0
  9
$MIRRTEXT
 70
     1
  9
$LTSCALE
 40
1.0
  9
$ATTMODE
 70
     1
  9
$TEXTSIZE
 40
5.0
  9
$TRACEWID
 40
1.0
  9
$TEXTSTYLE
  7
Standard
  9
$CLAYER
  8
0
  9
$CELTYPE
  6
ByLayer
  9
$CECOLOR
 62
   256
  9
$CELTSCALE
 40
1.0
  9
$DISPSILH
 70
     0
  9
$DIMSCALE
 40
1.0
  9
$DIMASZ
 40
5.0
  9
$DIMEXO
 40
0.0
  9
$DIMDLI
 40
3.75
  9
$DIMRND
 40
0.0
  9
$DIMDLE
 40
0.0
  9
$DIMEXE
 40
1.0
  9
$DIMTP
 40
0.0
  9
$DIMTM
 40
0.0
  9
$DIMTXT
 40
3.5
  9
$DIMCEN
 40
2.5
  9
$DIMTSZ
 40
0.0
  9
$DIMTOL
 70
     0
  9
$DIMLIM
 70
     0
  9
$DIMTIH
 70
     1
  9
$DIMTOH
 70
     1
  9
$DIMSE1
 70
     0
  9
$DIMSE2
 70
     0
  9
$DIMTAD
 70
     1
  9
$DIMZIN
 70
     0
  9
$DIMBLK
  1

  9
$DIMASO
 70
     1
  9
$DIMSHO
 70
     1
  9
$DIMPOST
  1

  9
$DIMAPOST
  1

  9
$DIMALT
 70
     0
  9
$DIMALTD
 70
     3
  9
$DIMALTF
 40
0.0393700787
  9
$DIMLFAC
 40
1.0
  9
$DIMTOFL
 70
     1
  9
$DIMTVP
 40
0.0
  9
$DIMTIX
 70
     0
  9
$DIMSOXD
 70
     0
  9
$DIMSAH
 70
     0
  9
$DIMBLK1
  1

  9
$DIMBLK2
  1

  9
$DIMSTYLE
  2
ISO-25
  9
$DIMCLRD
 70
     0
  9
$DIMCLRE
 70
     0
  9
$DIMCLRT
 70
     0
  9
$DIMTFAC
 40
1.0
  9
$DIMGAP
 40
1.5
  9
$DIMJUST
 70
     0
  9
$DIMSD1
 70
     0
  9
$DIMSD2
 70
     0
  9
$DIMTOLJ
 70
     0
  9
$DIMTZIN
 70
     0
  9
$DIMALTZ
 70
     0
  9
$DIMALTTZ
 70
     0
  9
$DIMUPT
 70
     0
  9
$DIMDEC
 70
     1
  9
$DIMTDEC
 70
     1
  9
$DIMALTU
 70
     2
  9
$DIMALTTD
 70
     3
  9
$DIMTXSTY
  7
Standard
  9
$DIMAUNIT
 70
     0
  9
$DIMADEC
 70
     2
  9
$DIMALTRND
 40
0.0
  9
$DIMAZIN
 70
     0
  9
$DIMDSEP
 70
    44
  9
$DIMATFIT
 70
     3
  9
$DIMFRAC
 70
     0
  9
$DIMLDRBLK
  1

  9
$DIMLUNIT
 70
     2
  9
$DIMLWD
 70
    -2
  9
$DIMLWE
 70
    -2
  9
$DIMTMOVE
 70
     0
  9
$DIMFXL
 40
1.0
  9
$DIMFXLON
 70
     0
  9
$DIMJOGANG
 40
0.7853981634
  9
$DIMTFILL
 70
     0
  9
$DIMTFILLCLR
 70
     0
  9
$DIMARCSYM
 70
     0
  9
$DIMLTYPE
  6

  9
$DIMLTEX1
  6

  9
$DIMLTEX2
  6

  9
$DIMTXTDIRECTION
 70
     0
  9
$LUNITS
 70
     2
  9
$LUPREC
 70
     1
  9
$SKETCHINC
 40
1.0
  9
$FILLETRAD
 40
10.0
  9
$AUNITS
 70
     0
  9
$AUPREC
 70
     2
  9
$MENU
  1
.
  9
$ELEVATION
 40
0.0
  9
$PELEVATION
 40
0.0
  9
$THICKNESS
 40
0.0
  9
$LIMCHECK
 70
     0
  9
$CHAMFERA
 40
0.0
  9
$CHAMFERB
 40
0.0
  9
$CHAMFERC
 40
0.0
  9
$CHAMFERD
 40
0.0
  9
$SKPOLY
 70
     0
  9
$TDCREATE
 40
2459760.582540452
  9
$TDUCREATE
 40
2459760.457540452
  9
$TDUPDATE
 40
2459760.582540695
  9
$TDUUPDATE
 40
2459760.457540695
  9
$TDINDWG
 40
0.0000000116
  9
$TDUSRTIMER
 40
0.0000000116
  9
$USRTIMER
 70
     1
  9
$ANGBASE
 50
0.0
  9
$ANGDIR
 70
     0
  9
$PDMODE
 70
     0
  9
$PDSIZE
 40
-1.0
  9
$PLINEWID
 40
0.0
  9
$SPLFRAME
 70
     0
  9
$SPLINETYPE
 70
     6
  9
$SPLINESEGS
 70
     8
  9
$HANDSEED
  5
DB
  9
$SURFTAB1
 70
     6
  9
$SURFTAB2
 70
     6
  9
$SURFTYPE
 70
     6
  9
$SURFU
 70
     6
  9
$SURFV
 70
     6
  9
$UCSBASE
  2

  9
$UCSNAME
  2

  9
$UCSORG
 10
0.0
 20
0.0
 30
0.0
  9
$UCSXDIR
 10
1.0
 20
0.0
 30
0.0
  9
$UCSYDIR
 10
0.0
 20
1.0
 30
0.0
  9
$UCSORTHOREF
  2

  9
$UCSORTHOVIEW
 70
     0
  9
$UCSORGTOP
 10
0.0
 20
0.0
 30
0.0
  9
$UCSORGBOTTOM
 10
0.0
 20
0.0
 30
0.0
  9
$UCSORGLEFT
 10
0.0
 20
0.0
 30
0.0
  9
$UCSORGRIGHT
 10
0.0
 20
0.0
 30
0.0
  9
$UCSORGFRONT
 10
0.0
 20
0.0
 30
0.0
  9
$UCSORGBACK
 10
0.0
 20
0.0
 30
0.0
  9
$PUCSBASE
  2

  9
$PUCSNAME
  2

  9
$PUCSORG
 10
0.0
 20
0.0
 30
0.0
  9
$PUCSXDIR
 10
1.0
 20
0.0
 30
0.0
  9
$PUCSYDIR
 10
0.0
 20
1.0
 30
0.0
  9
$PUCSORTHOREF
  2

  9
$PUCSORTHOVIEW
 70
     0
  9
$PUCSORGTOP
 10
0.0
 20
0.0
 30
0.0
  9
$PUCSORGBOTTOM
 10
0.0
 20
0.0
 30
0.0
  9
$PUCSORGLEFT
 10
0.0
 20
0.0
 30
0.0
  9
$PUCSORGRIGHT
 10
0.0
 20
0.0
 30
0.0
  9
$PUCSORGFRONT
 10
0.0
 20
0.0
 30
0.0
  9
$PUCSORGBACK
 10
0.0
 20
0.0
 30
0.0
  9
$USERI1
 70
     0
  9
$USERI2
 70
     0
  9
$USERI3
 70
     0
  9
$USERI4
 70
     0
  9
$USERI5
 70
     0
  9
$USERR1
 40
0.0
  9
$USERR2
 40
0.0
  9
$USERR3
 40
0.0
  9
$USERR4
 40
0.0
  9
$USERR5
 40
0.0
  9
$WORLDVIEW
 70
     1
  9
$SHADEDGE
 70
     3
  9
$SHADEDIF
 70
    70
  9
$TILEMODE
 70
     1
  9
$MAXACTVP
 70
    64
  9
$PINSBASE
 10
0.0
 20
0.0
 30
0.0
  9
$PLIMCHECK
 70
     0
  9
$PEXTMIN
 10
1.0000000000E+20
 20
1.0000000000E+20
 30
1.0000000000E+20
  9
$PEXTMAX
 10
-1.0000000000E+20
 20
-1.0000000000E+20
 30
-1.0000000000E+20
  9
$PLIMMIN
 10
0.0
 20
0.0
  9
$PLIMMAX
 10
420.0
 20
297.0
  9
$UNITMODE
 70
     0
  9
$VISRETAIN
 70
     1
  9
$PLINEGEN
 70
     0
  9
$PSLTSCALE
 70
     1
  9
$TREEDEPTH
 70
  3020
  9
$CMLSTYLE
  2
Standard
  9
$CMLJUST
 70
     0
  9
$CMLSCALE
 40
20.0
  9
$PROXYGRAPHICS
 70
     1
  9
$MEASUREMENT
 70
     1
  9
$CELWEIGHT
370
    -1
  9
$ENDCAPS
280
     0
  9
$JOINSTYLE
280
     0
  9
$LWDISPLAY
290
     1
  9
$INSUNITS
 70
     4
  9
$HYPERLINKBASE
  1

  9
$STYLESHEET
  1

  9
$XEDIT
290
     1
  9
$CEPSNTYPE
380
     0
  9
$PSTYLEMODE
290
     1
  9
$FINGERPRINTGUID
  2
{4F00DC39-FA7A-4702-AF0B-805CE398E942}
  9
$VERSIONGUID
  2
{FAEB1C32-E019-11D5-929B-00C0DF256EC4}
  9
$EXTNAMES
290
     1
  9
$PSVPSCALE
 40
0.0
  9
$OLESTARTUP
290
     0
  9
$SORTENTS
280
   127
  9
$INDEXCTL
280
     0
  9
$HIDETEXT
280
     1
  9
$XCLIPFRAME
280
     2
  9
$HALOGAP
280
     0
  9
$OBSCOLOR
 70
   257
  9
$OBSLTYPE
280
     0
  9
$INTERSECTIONDISPLAY
280
     0
  9
$INTERSECTIONCOLOR
 70
   257
  9
$DIMASSOC
280
     2
  9
$PROJECTNAME
  1

  9
$CAMERADISPLAY
290
     0
  9
$LENSLENGTH
 40
50.0
  9
$CAMERAHEIGHT
 40
0.0
  9
$STEPSPERSEC
 40
2.0
  9
$STEPSIZE
 40
6.0
  9
$3DDWFPREC
 40
2.0
  9
$PSOLWIDTH
 40
5.0
  9
$PSOLHEIGHT
 40
80.0
  9
$LOFTANG1
 40
1.5707963268
  9
$LOFTANG2
 40
1.5707963268
  9
$LOFTMAG1
 40
0.0
  9
$LOFTMAG2
 40
0.0
  9
$LOFTPARAM
 70
     7
  9
$LOFTNORMALS
280
     1
  9
$LATITUDE
 40
37.795
  9
$LONGITUDE
 40
-122.394
  9
$NORTHDIRECTION
 40
0.0
  9
$TIMEZONE
 70
 -8000
  9
$LIGHTGLYPHDISPLAY
280
     1
  9
$TILEMODELIGHTSYNCH
280
     1
  9
$CMATERIAL
347
44
  9
$SOLIDHIST
280
     0
  9
$SHOWHIST
280
     1
  9
$DWFFRAME
280
     2
  9
$DGNFRAME
280
     2
  9
$REALWORLDSCALE
290
     1
  9
$INTERFERECOLOR
 62
   256
  9
$CSHADOW
280
     0
  9
$SHADOWPLANELOCATION
 40
0.0
  0
ENDSEC
  0
SECTION
  2
CLASSES
  0
CLASS
  1
ACDBDICTIONARYWDFLT
  2
AcDbDictionaryWithDefault
  3
ObjectDBX Classes
 90
        0
 91
        4
280
     0
281
     0
  0
CLASS
  1
VISUALSTYLE
  2
AcDbVisualStyle
  3
ObjectDBX Classes
 90
     4095
 91
        4
280
     0
281
     0
  0
CLASS
  1
MATERIAL
  2
AcDbMaterial
  3
ObjectDBX Classes
 90
     1153
 91
        4
280
     0
281
     0
  0
CLASS
  1
SCALE
  2
AcDbScale
  3
ObjectDBX Classes
 90
     1153
 91
        4
280
     0
281
     0
  0
CLASS
  1
TABLESTYLE
  2
AcDbTableStyle
  3
ObjectDBX Classes
 90
     4095
 91
        4
280
     0
281
     0
  0
CLASS
  1
MLEADERSTYLE
  2
AcDbMLeaderStyle
  3
ACDB_MLEADERSTYLE_CLASS
 90
     4095
 91
        4
280
     0
281
     0
  0
CLASS
  1
SUN
  2
AcDbSun
  3
SCENEOE
 90
     1153
 91
        4
280
     0
281
     0
  0
CLASS
  1
DICTIONARYVAR
  2
AcDbDictionaryVar
  3
ObjectDBX Classes
 90
        0
 91
        4
280
     0
281
     0
  0
CLASS
  1
CELLSTYLEMAP
  2
AcDbCellStyleMap
  3
ObjectDBX Classes
 90
     1152
 91
        4
280
     0
281
     0
  0
ENDSEC
  0
SECTION
  2
TABLES
  0
TABLE
  2
VPORT
  5
8
330
0
100
AcDbSymbolTable
 70
     1
  0
VPORT
  5
29
330
8
100
AcDbSymbolTableRecord
100
AcDbViewportTableRecord
  2
*Active
 70
     0
 10
0.0
 20
0.0
 11
1.0
 21
1.0
 12
710.0
 22
648.5
 13
0.0
 23
0.0
 14
10.0
 24
10.0
 15
10.0
 25
10.0
 16
0.0
 26
0.0
 36
1.0
 17
0.0
 27
0.0
 37
0.0
 40
1297.0
 41
1.0948342328
 42
50.0
 43
0.0
 44
0.0
 50
0.0
 51
0.0
 71
     0
 72
  2000
 73
     1
 74
     3
 75
     0
 76
     0
 77
     0
 78
     0
281
     0
 65
     1
110
0.0
120
0.0
130
0.0
111
1.0
121
0.0
131
0.0
112
0.0
122
1.0
132
0.0
 79
     0
146
0.0
348
2F
 60
     3
 61
     5
292
     1
282
     1
141
0.0
142
0.0
 63
   250
361
6D
  0
ENDTAB
  0
TABLE
  2
LTYPE
  5
5
330
0
100
AcDbSymbolTable
 70
     8
  0
LTYPE
  5
14
330
5
100
AcDbSymbolTableRecord
100
AcDbLinetypeTableRecord
  2
ByBlock
 70
     0
  3

 72
    65
 73
     0
 40
0.0
  0
LTYPE
  5
15
330
5
100
AcDbSymbolTableRecord
100
AcDbLinetypeTableRecord
  2
ByLayer
 70
     0
  3

 72
    65
 73
     0
 40
0.0
  0
LTYPE
  5
16
330
5
100
AcDbSymbolTableRecord
100
AcDbLinetypeTableRecord
  2
Continuous
 70
     0
  3
Solid line
 72
    65
 73
     0
 40
0.0
  0
LTYPE
  5
6E
330
5
100
AcDbSymbolTableRecord
100
AcDbLinetypeTableRecord
  2
SLD-Сплошная
 70
     0
  3
SolidWorks Line Style
 72
    65
 73
     0
 40
0.0
  0
LTYPE
  5
6F
330
5
100
AcDbSymbolTableRecord
100
AcDbLinetypeTableRecord
  2
SLD-Штриховая
 70
     0
  3
SolidWorks Line Style
 72
    65
 73
     2
 40
1.905
 49
1.27
 74
     0
 49
-0.635
 74
     0
  0
LTYPE
  5
70
330
5
100
AcDbSymbolTableRecord
100
AcDbLinetypeTableRecord
  2
SLD-Штрихпункт.-с-двумя-точками
 70
     0
  3
SolidWorks Line Style
 72
    65
 73
     6
 40
12.7
 49
6.35
 74
     0
 49
-1.27
 74
     0
 49
1.27
 74
     0
 49
-1.27
 74
     0
 49
1.27
 74
     0
 49
-1.27
 74
     0
  0
LTYPE
  5
71
330
5
100
AcDbSymbolTableRecord
100
AcDbLinetypeTableRecord
  2
SLD-Штрихпункт.-утолщ.
 70
     0
  3
SolidWorks Line Style
 72
    65
 73
     4
 40
10.16
 49
6.35
 74
     0
 49
-1.27
 74
     0
 49
1.27
 74
     0
 49
-1.27
 74
     0
  0
LTYPE
  5
72
330
5
100
AcDbSymbolTableRecord
100
AcDbLinetypeTableRecord
  2
SLD-Осевая
 70
     0
  3
SolidWorks Line Style
 72
    65
 73
     4
 40
19.05
 49
15.24
 74
     0
 49
-1.27
 74
     0
 49
1.27
 74
     0
 49
-1.27
 74
     0
  0
LTYPE
  5
73
330
5
100
AcDbSymbolTableRecord
100
AcDbLinetypeTableRecord
  2
SLD-Сшитая
 70
     0
  3
SolidWorks Line Style
 72
    65
 73
     2
 40
0.635
 49
0.0
 74
     0
 49
-0.635
 74
     0
  0
LTYPE
  5
74
330
5
100
AcDbSymbolTableRecord
100
AcDbLinetypeTableRecord
  2
SLD-Тонкая-Толстая
 70
     0
  3
SolidWorks Line Style
 72
    65
 73
     2
 40
5.080508
 49
0.000508
 74
     0
 49
-5.08
 74
     0
  0
ENDTAB
  0
TABLE
  2
LAYER
  5
2
330
0
100
AcDbSymbolTable
 70
     5
  0
LAYER
  5
10
330
2
100
AcDbSymbolTableRecord
100
AcDbLayerTableRecord
  2
0
 70
     0
 62
     7
  6
Continuous
370
    -3
390
F
347
46
348
0
  0
LAYER
  5
75
330
2
100
AcDbSymbolTableRecord
100
AcDbLayerTableRecord
  2
ОСНОВНОЙ
 70
     0
 62
   236
  6
SLD-Сплошная
370
    35
390
F
347
46
348
0
  0
LAYER
  5
76
330
2
100
AcDbSymbolTableRecord
100
AcDbLayerTableRecord
  2
HELP
 70
     0
 62
   -57
  6
SLD-Сплошная
290
     0
370
    -3
390
F
347
46
348
0
  0
LAYER
  5
77
330
2
100
AcDbSymbolTableRecord
100
AcDbLayerTableRecord
  2
ТЕКСТ
 70
     0
 62
   150
  6
SLD-Сплошная
370
    -3
390
F
347
46
348
0
  0
LAYER
  5
78
330
2
100
AcDbSymbolTableRecord
100
AcDbLayerTableRecord
  2
ТОНКИЙ
 70
     0
 62
   174
  6
SLD-Сплошная
370
    -3
390
F
347
46
348
0
  0
ENDTAB
  0
TABLE
  2
STYLE
  5
3
330
0
100
AcDbSymbolTable
 70
     1
  0
STYLE
  5
11
330
3
100
AcDbSymbolTableRecord
100
AcDbTextStyleTableRecord
  2
Standard
 70
     0
 40
0.0
 41
1.0
 50
0.0
 71
     0
 42
5.0
  3
txt
  4

  0
ENDTAB
  0
TABLE
  2
VIEW
  5
6
330
0
100
AcDbSymbolTable
 70
     0
  0
ENDTAB
  0
TABLE
  2
UCS
  5
7
330
0
100
AcDbSymbolTable
 70
     0
  0
ENDTAB
  0
TABLE
  2
APPID
  5
9
330
0
100
AcDbSymbolTable
 70
     1
  0
APPID
  5
12
330
9
100
AcDbSymbolTableRecord
100
AcDbRegAppTableRecord
  2
ACAD
 70
     0
  0
ENDTAB
  0
TABLE
  2
DIMSTYLE
  5
A
330
0
100
AcDbSymbolTable
 70
     1
100
AcDbDimStyleTable
  0
DIMSTYLE
105
27
330
A
100
AcDbSymbolTableRecord
100
AcDbDimStyleTableRecord
  2
ISO-25
 70
     0
 41
2.5
 42
0.625
 43
3.75
 44
1.25
 73
     0
 74
     0
 77
     1
 78
     8
140
2.5
141
2.5
143
0.0393700787
147
0.625
171
     3
172
     1
178
     0
271
     2
272
     2
274
     3
278
    44
283
     0
284
     8
340
11
  0
ENDTAB
  0
TABLE
  2
BLOCK_RECORD
  5
1
330
0
100
AcDbSymbolTable
 70
     1
  0
BLOCK_RECORD
  5
1F
330
1
100
AcDbSymbolTableRecord
100
AcDbBlockTableRecord
  2
*Model_Space
340
22
 70
     0
280
     1
281
     0
  0
BLOCK_RECORD
  5
1B
330
1
100
AcDbSymbolTableRecord
100
AcDbBlockTableRecord
  2
*Paper_Space
340
1E
 70
     0
280
     1
281
     0
  0
BLOCK_RECORD
  5
23
330
1
100
AcDbSymbolTableRecord
100
AcDbBlockTableRecord
  2
*Paper_Space0
340
26
 70
     0
280
     1
281
     0
  0
ENDTAB
  0
ENDSEC
  0
SECTION
  2
BLOCKS
  0
BLOCK
  5
20
330
1F
100
AcDbEntity
  8
0
100
AcDbBlockBegin
  2
*Model_Space
 70
     0
 10
0.0
 20
0.0
 30
0.0
  3
*Model_Space
  1

  0
ENDBLK
  5
21
330
1F
100
AcDbEntity
  8
0
100
AcDbBlockEnd
  0
BLOCK
  5
1C
330
1B
100
AcDbEntity
 67
     1
  8
0
100
AcDbBlockBegin
  2
*Paper_Space
 70
     0
 10
0.0
 20
0.0
 30
0.0
  3
*Paper_Space
  1

  0
ENDBLK
  5
1D
330
1B
100
AcDbEntity
 67
     1
  8
0
100
AcDbBlockEnd
  0
BLOCK
  5
24
330
23
100
AcDbEntity
  8
0
100
AcDbBlockBegin
  2
*Paper_Space0
 70
     0
 10
0.0
 20
0.0
 30
0.0
  3
*Paper_Space0
  1

  0
ENDBLK
  5
25
330
23
100
AcDbEntity
  8
0
100
AcDbBlockEnd
  0
ENDSEC
  0
SECTION
  2
ENTITIES
  0
LINE
  5
79
330
1F
100
AcDbEntity
  8
0
  6
SLD-Сплошная
 62
     7
370
    35
100
AcDbLine
 10
6.1082081225
 20
3.5000002978
 30
0.0
 11
6.1082081225
 21
10.0000002476
 31
0.0
  0
LINE
  5
7A
330
1F
100
AcDbEntity
  8
0
  6
SLD-Сплошная
 62
     7
370
    35
100
AcDbLine
 10
6.1082081225
 20
-9.9999992584
 30
0.0
 11
6.1082081225
 21
-3.4999998025
 31
0.0
  0
LINE
  5
7B
330
1F
100
AcDbEntity
  8
0
  6
SLD-Сплошная
 62
     7
370
    35
100
AcDbLine
 10
-1.90255723
 20
-3.4999997779
 30
0.0
 11
-0.4516699457
 21
-3.4999997775
 31
0.0
  0
SPLINE
  5
7C
330
1F
100
AcDbEntity
  8
0
  6
SLD-Сплошная
 62
     7
370
    35
100
AcDbSpline
210
0.0
220
0.0
230
1.0
 70
     8
 71
     3
 72
    38
 73
    34
 74
     0
 42
0.000000001
 43
0.00000001
 40
0.0
 40
0.0
 40
0.0
 40
0.0
 40
0.0625
 40
0.0625
 40
0.125
 40
0.125
 40
0.1875
 40
0.1875
 40
0.25
 40
0.25
 40
0.3125
 40
0.3125
 40
0.375
 40
0.375
 40
0.4375
 40
0.4375
 40
0.5
 40
0.5
 40
0.5625
 40
0.5625
 40
0.625
 40
0.625
 40
0.6875
 40
0.6875
 40
0.75
 40
0.75
 40
0.8125
 40
0.8125
 40
0.875
 40
0.875
 40
0.9375
 40
0.9375
 40
1.0
 40
1.0
 40
1.0
 40
1.0
 10
-0.4516699514078076
 20
-3.499999802519539
 30
0.0
 10
-0.4198225984669186
 20
-3.500031314848699
 30
0.0
 10
-0.3886223333622093
 20
-3.477373766042414
 30
0.0
 10
-0.3274503843036835
 20
-3.388536372907652
 30
0.0
 10
-0.2971648388180037
 20
-3.321278540581298
 30
0.0
 10
-0.2396000966343346
 20
-3.145661176322982
 30
0.0
 10
-0.2123940973681069
 20
-3.038185489264811
 30
0.0
 10
-0.1610519004349746
 20
-2.784252518043823
 30
0.0
 10
-0.1368224322502252
 20
-2.636443543906661
 30
0.0
 10
-0.0934962307863694
 20
-2.313557709163512
 30
0.0
 10
-0.0741098320043536
 20
-2.137374954172605
 30
0.0
 10
-0.0399333755097282
 20
-1.754826059026153
 30
0.0
 10
-0.0254437356867572
 20
-1.551118072228708
 30
0.0
 10
-0.002206409482548
 20
-1.129994288195753
 30
0.0
 10
0.0067216790488192
 20
-0.9094793509796582
 30
0.0
 10
0.0186688698724886
 20
-0.4577088839379886
 30
0.0
 10
0.0216224193481749
 20
-0.2306234638200929
 30
0.0
 10
0.0216634404263663
 20
0.2258836907015897
 30
0.0
 10
0.0186555949304211
 20
0.4577239962294837
 30
0.0
 10
0.0068100495194253
 20
0.9066224939656108
 30
0.0
 10
-0.0019601676258555
 20
1.124806214165123
 30
0.0
 10
-0.0252639329311145
 20
1.548572911619099
 30
0.0
 10
-0.0398590484492929
 20
1.753589551367084
 30
0.0
 10
-0.0736799362972777
 20
2.132962523032815
 30
0.0
 10
-0.0930213223039825
 20
2.309780741015624
 30
0.0
 10
-0.1368220672092685
 20
2.636676985822281
 30
0.0
 10
-0.1606439888662045
 20
2.781868805805693
 30
0.0
 10
-0.2117764936490681
 20
3.035490825220329
 30
0.0
 10
-0.2394416287813247
 20
3.145096116359997
 30
0.0
 10
-0.2970373290234222
 20
3.32097172949612
 30
0.0
 10
-0.3267603800365185
 20
3.387221224079971
 30
0.0
 10
-0.3880705694716347
 20
3.476880252224634
 30
0.0
 10
-0.4198225869314421
 20
3.500031804571409
 30
0.0
 10
-0.4516699398891483
 20
3.500000297767279
 30
0.0
  0
LINE
  5
7D
330
1F
100
AcDbEntity
  8
0
  6
SLD-Сплошная
 62
     7
370
    35
100
AcDbLine
 10
-0.4516699399
 20
3.5000002727
 30
0.0
 11
-1.9025567059
 21
3.5000002727
 31
0.0
  0
SPLINE
  5
7E
330
1F
100
AcDbEntity
  8
0
  6
SLD-Сплошная
 62
     7
370
    35
100
AcDbSpline
210
0.0
220
0.0
230
1.0
 70
     8
 71
     3
 72
    38
 73
    34
 74
     0
 42
0.000000001
 43
0.00000001
 40
0.0
 40
0.0
 40
0.0
 40
0.0
 40
0.0625000000000001
 40
0.0625000000000001
 40
0.1250000000000001
 40
0.1250000000000001
 40
0.1875000000000002
 40
0.1875000000000002
 40
0.2500000000000003
 40
0.2500000000000003
 40
0.3125000000000003
 40
0.3125000000000003
 40
0.3750000000000003
 40
0.3750000000000003
 40
0.4375000000000004
 40
0.4375000000000004
 40
0.5000000000000003
 40
0.5000000000000003
 40
0.5625000000000004
 40
0.5625000000000004
 40
0.6250000000000003
 40
0.6250000000000003
 40
0.6875000000000003
 40
0.6875000000000003
 40
0.7500000000000002
 40
0.7500000000000002
 40
0.8125000000000002
 40
0.8125000000000002
 40
0.8750000000000002
 40
0.8750000000000002
 40
0.9375000000000001
 40
0.9375000000000001
 40
1.0
 40
1.0
 40
1.0
 40
1.0
 10
-1.902556705905929
 20
3.500000297767237
 30
0.0
 10
-1.937731542872193
 20
3.500031804571198
 30
0.0
 10
-1.972434126166231
 20
3.477374283839364
 30
0.0
 10
-2.040920748700111
 20
3.388536996007231
 30
0.0
 10
-2.075062238268992
 20
3.321279247584791
 30
0.0
 10
-2.140360027230212
 20
3.14566208744022
 30
0.0
 10
-2.17142691803048
 20
3.038186525371412
 30
0.0
 10
-2.230370501044708
 20
2.784253856691127
 30
0.0
 10
-2.258358812641824
 20
2.636445048806936
 30
0.0
 10
-2.308629985579711
 20
2.313559561242481
 30
0.0
 10
-2.331244253035924
 20
2.137376997188458
 30
0.0
 10
-2.371244233602122
 20
1.754828529987194
 30
0.0
 10
-2.388278387912675
 20
1.551120707253214
 30
0.0
 10
-2.415651821555743
 20
1.12999731206773
 30
0.0
 10
-2.426203273155004
 20
0.9094826243350613
 30
0.0
 10
-2.440333232035033
 20
0.4577124595744214
 30
0.0
 10
-2.443833511652893
 20
0.2306271921749813
 30
0.0
 10
-2.443882161953475
 20
-0.2258796525852143
 30
0.0
 10
-2.44031771136354
 20
-0.4577198171684488
 30
0.0
 10
-2.426308026839895
 20
-0.9066181758140115
 30
0.0
 10
-2.415942676747761
 20
-1.124801831859206
 30
0.0
 10
-2.388490232352455
 20
-1.548568420647663
 30
0.0
 10
-2.371332512463093
 20
-1.753585112869237
 30
0.0
 10
-2.331747304454864
 20
-2.132958202118718
 30
0.0
 10
-2.309182619185109
 20
-2.309776492532392
 30
0.0
 10
-2.258359151261113
 20
-2.63667293394038
 30
0.0
 10
-2.230841886823548
 20
-2.781865021946458
 30
0.0
 10
-2.172134667757937
 20
-3.035487472006761
 30
0.0
 10
-2.140541421157003
 20
-3.145092998066301
 30
0.0
 10
-2.075207182454502
 20
-3.320969264094986
 30
0.0
 10
-2.041697396801217
 20
-3.387219098462125
 30
0.0
 10
-1.973049832714463
 20
-3.476878877511052
 30
0.0
 10
-1.937732593361207
 20
-3.500030855077396
 30
0.0
 10
-1.902557754048682
 20
-3.499999803462959
 30
0.0
  0
LINE
  5
7F
330
1F
100
AcDbEntity
  8
0
  6
SLD-Сплошная
 62
     7
370
    35
100
AcDbLine
 10
1.4541741232
 20
-3.4999998025
 30
0.0
 11
2.544020819
 21
-3.4999998025
 31
0.0
  0
SPLINE
  5
80
330
1F
100
AcDbEntity
  8
0
  6
SLD-Сплошная
 62
     7
370
    35
100
AcDbSpline
210
0.0
220
0.0
230
1.0
 70
     8
 71
     3
 72
    38
 73
    34
 74
     0
 42
0.000000001
 43
0.00000001
 40
0.0
 40
0.0
 40
0.0
 40
0.0
 40
0.0625
 40
0.0625
 40
0.125
 40
0.125
 40
0.1875
 40
0.1875
 40
0.25
 40
0.25
 40
0.3125
 40
0.3125
 40
0.375
 40
0.375
 40
0.4375
 40
0.4375
 40
0.5
 40
0.5
 40
0.5625
 40
0.5625
 40
0.625
 40
0.625
 40
0.6875
 40
0.6875
 40
0.75
 40
0.75
 40
0.8125
 40
0.8125
 40
0.875
 40
0.875
 40
0.9375
 40
0.9375
 40
1.0
 40
1.0
 40
1.0
 40
1.0
 10
2.544020818992627
 20
-3.499999802530894
 30
0.0
 10
2.567521476062685
 20
-3.500031309354399
 30
0.0
 10
2.590513901288385
 20
-3.477373761205472
 30
0.0
 10
2.635536604777118
 20
-3.388536363859527
 30
0.0
 10
2.657797112463728
 20
-3.32127852980278
 30
0.0
 10
2.700057201230702
 20
-3.145661161881256
 30
0.0
 10
2.720003853716742
 20
-3.038185473291114
 30
0.0
 10
2.757606510581851
 20
-2.784252499936969
 30
0.0
 10
2.775330250621405
 20
-2.636443524722901
 30
0.0
 10
2.806994824714891
 20
-2.31355768819511
 30
0.0
 10
2.821147952691707
 20
-2.137374932766724
 30
0.0
 10
2.846081761114077
 20
-1.754826037966702
 30
0.0
 10
2.856643263058193
 20
-1.551118050198499
 30
0.0
 10
2.873573932199017
 20
-1.129994266434559
 30
0.0
 10
2.880074583385174
 20
-0.9094793307734669
 30
0.0
 10
2.888772158946794
 20
-0.4577088636088084
 30
0.0
 10
2.890921448562665
 20
-0.2306234439694565
 30
0.0
 10
2.890951303453955
 20
0.2258837085189766
 30
0.0
 10
2.888762489263336
 20
0.457724012796751
 30
0.0
 10
2.880138921319459
 20
0.9066225093113158
 30
0.0
 10
2.873753286202825
 20
1.124806228401384
 30
0.0
 10
2.856774320513239
 20
1.548572922778781
 30
0.0
 10
2.846135890207192
 20
1.753589562062706
 30
0.0
 10
2.821461679407144
 20
2.132962531813545
 30
0.0
 10
2.807341790541963
 20
2.30978074847219
 30
0.0
 10
2.775330627949538
 20
2.636676990205495
 30
0.0
 10
2.757904974500065
 20
2.78186881055003
 30
0.0
 10
2.720456458009457
 20
3.035490828205547
 30
0.0
 10
2.700173447140028
 20
3.145096118210203
 30
0.0
 10
2.657890804506975
 20
3.320971730721519
 30
0.0
 10
2.636044048825071
 20
3.387221224822855
 30
0.0
 10
2.590920386252175
 20
3.476880252244553
 30
0.0
 10
2.567521476125476
 20
3.500031804571316
 30
0.0
 10
2.544020819022649
 20
3.500000297767283
 30
0.0
  0
LWPOLYLINE
  5
81
330
1F
100
AcDbEntity
  8
0
  6
SLD-Сплошная
 62
     7
370
    35
100
AcDbPolyline
 90
        9
 70
   128
 43
0.0
 10
2.544020819
 20
3.5000002476
 10
2.4157068271
 20
3.5000002476
 10
2.2851299976
 20
3.5000002476
 10
2.1522907621
 20
3.5000002476
 10
2.0171895596
 20
3.5000002476
 10
1.8798268367
 20
3.5000002476
 10
1.7402030474
 20
3.5000002476
 10
1.5983186533
 20
3.5000002476
 10
1.4541741232
 20
3.5000002978
  0
SPLINE
  5
82
330
1F
100
AcDbEntity
  8
0
  6
SLD-Сплошная
 62
     7
370
    35
100
AcDbSpline
210
0.0
220
0.0
230
1.0
 70
     8
 71
     3
 72
    38
 73
    34
 74
     0
 42
0.000000001
 43
0.00000001
 40
0.0
 40
0.0
 40
0.0
 40
0.0
 40
0.0625
 40
0.0625
 40
0.125
 40
0.125
 40
0.1875
 40
0.1875
 40
0.25
 40
0.25
 40
0.3125
 40
0.3125
 40
0.375
 40
0.375
 40
0.4375
 40
0.4375
 40
0.5
 40
0.5
 40
0.5625
 40
0.5625
 40
0.625
 40
0.625
 40
0.6875
 40
0.6875
 40
0.75
 40
0.75
 40
0.8125
 40
0.8125
 40
0.875
 40
0.875
 40
0.9375
 40
0.9375
 40
1.0
 40
1.0
 40
1.0
 40
1.0
 10
1.454174123235603
 20
3.500000297767236
 30
0.0
 10
1.42733045750385
 20
3.500031804571142
 30
0.0
 10
1.4008193685952
 20
3.477374284371845
 30
0.0
 10
1.348447866102207
 20
3.388536997012892
 30
0.0
 10
1.322313425178787
 20
3.32127924882364
 30
0.0
 10
1.272284215052628
 20
3.145662089039351
 30
0.0
 10
1.248458660410931
 20
3.03818652712863
 30
0.0
 10
1.203219158708031
 20
2.784253858744394
 30
0.0
 10
1.181719042290828
 20
2.636445050967882
 30
0.0
 10
1.143077103960361
 20
2.313559563554085
 30
0.0
 10
1.125681052470156
 20
2.137376999561777
 30
0.0
 10
1.094896560725659
 20
1.754828532471349
 30
0.0
 10
1.081778679927812
 20
1.551120709699664
 30
0.0
 10
1.060692619561584
 20
1.129997314482523
 30
0.0
 10
1.052561038110511
 20
0.9094826267603938
 30
0.0
 10
1.041670526391142
 20
0.4577124618427232
 30
0.0
 10
1.03897196353597
 20
0.2306271943635082
 30
0.0
 10
1.038934459796323
 20
-0.2258796505577776
 30
0.0
 10
1.041682484437582
 20
-0.4577198152342095
 30
0.0
 10
1.052480304464524
 20
-0.9066181741206392
 30
0.0
 10
1.060468522678736
 20
-1.124801830280603
 30
0.0
 10
1.08161554043847
 20
-1.548568419290824
 30
0.0
 10
1.094828538390821
 20
-1.753585111651211
 30
0.0
 10
1.125293977755687
 20
-2.132958201146673
 30
0.0
 10
1.142652211911544
 20
-2.309776491673009
 30
0.0
 10
1.181718879440088
 20
-2.636672933289893
 30
0.0
 10
1.202857118989986
 20
-2.781865021416178
 30
0.0
 10
1.247915701819874
 20
-3.035487471658335
 30
0.0
 10
1.272145158809479
 20
-3.145092997795548
 30
0.0
 10
1.322202449625924
 20
-3.320969263959365
 30
0.0
 10
1.347853610082493
 20
-3.387219098376367
 30
0.0
 10
1.400348887342322
 20
-3.476878877493129
 30
0.0
 10
1.427329655270489
 20
-3.500030855077375
 30
0.0
 10
1.454173323345923
 20
-3.499999803462961
 30
0.0
  0
LINE
  5
83
330
1F
100
AcDbEntity
  8
0
  6
SLD-Сплошная
 62
     7
370
    35
100
AcDbLine
 10
3.9071404988
 20
-3.4999998025
 30
0.0
 11
4.6345063704
 21
-3.4999998025
 31
0.0
  0
SPLINE
  5
84
330
1F
100
AcDbEntity
  8
0
  6
SLD-Сплошная
 62
     7
370
    35
100
AcDbSpline
210
0.0
220
0.0
230
1.0
 70
     8
 71
     3
 72
    38
 73
    34
 74
     0
 42
0.000000001
 43
0.00000001
 40
0.0
 40
0.0
 40
0.0
 40
0.0
 40
0.0625
 40
0.0625
 40
0.125
 40
0.125
 40
0.1875000000000001
 40
0.1875000000000001
 40
0.2500000000000001
 40
0.2500000000000001
 40
0.3125000000000001
 40
0.3125000000000001
 40
0.375
 40
0.375
 40
0.4375
 40
0.4375
 40
0.4999999999999999
 40
0.4999999999999999
 40
0.5624999999999999
 40
0.5624999999999999
 40
0.6249999999999999
 40
0.6249999999999999
 40
0.6874999999999999
 40
0.6874999999999999
 40
0.7499999999999999
 40
0.7499999999999999
 40
0.8125
 40
0.8125
 40
0.875
 40
0.875
 40
0.9375
 40
0.9375
 40
1.0
 40
1.0
 40
1.0
 40
1.0
 10
4.634506370425806
 20
-3.499999802530893
 30
0.0
 10
4.6496292643993
 20
-3.50003130935441
 30
0.0
 10
4.664383460620155
 20
-3.477373761205494
 30
0.0
 10
4.693197399873557
 20
-3.388536363859566
 30
0.0
 10
4.707403442127726
 20
-3.321278529802826
 30
0.0
 10
4.734303010897031
 20
-3.145661161881314
 30
0.0
 10
4.746963947789985
 20
-3.038185473291171
 30
0.0
 10
4.770777355238964
 20
-2.784252499937029
 30
0.0
 10
4.781971936965141
 20
-2.636443524722963
 30
0.0
 10
4.80193302427312
 20
-2.313557688195172
 30
0.0
 10
4.810834171585611
 20
-2.137374932766788
 30
0.0
 10
4.826492370551593
 20
-1.754826037966759
 30
0.0
 10
4.833111772707578
 20
-1.551118050198548
 30
0.0
 10
4.843713403265385
 20
-1.129994266434599
 30
0.0
 10
4.847778023643378
 20
-0.9094793307734974
 30
0.0
 10
4.853214486300101
 20
-0.4577088636088297
 30
0.0
 10
4.854556674929866
 20
-0.230623443969471
 30
0.0
 10
4.854575324492881
 20
0.2258837085189771
 30
0.0
 10
4.853208435304611
 20
0.4577240127967538
 30
0.0
 10
4.847818245255946
 20
0.9066225093113298
 30
0.0
 10
4.843825633944044
 20
1.124806228401408
 30
0.0
 10
4.833193913789995
 20
1.548572922778817
 30
0.0
 10
4.826526232558622
 20
1.753589562062748
 30
0.0
 10
4.811031317660762
 20
2.132962531813594
 30
0.0
 10
4.802151592114035
 20
2.309780748472236
 30
0.0
 10
4.781972329705369
 20
2.636676990205549
 30
0.0
 10
4.770965980955199
 20
2.781868810550082
 30
0.0
 10
4.747250958760739
 20
3.035490828205597
 30
0.0
 10
4.734376885657621
 20
3.145096118210249
 30
0.0
 10
4.707463197364844
 20
3.320971730721556
 30
0.0
 10
4.693521617879765
 20
3.387221224822885
 30
0.0
 10
4.66464413436745
 20
3.476880252244571
 30
0.0
 10
4.649629264439675
 20
3.500031804571325
 30
0.0
 10
4.634506370445128
 20
3.500000297767281
 30
0.0
  0
LWPOLYLINE
  5
85
330
1F
100
AcDbEntity
  8
0
  6
SLD-Сплошная
 62
     7
370
    35
100
AcDbPolyline
 90
        9
 70
   128
 43
0.0
 10
4.6345063704
 20
3.5000002476
 10
4.5515282386
 20
3.5000002476
 10
4.4662802095
 20
3.5000002476
 10
4.3787625651
 20
3.5000002476
 10
4.2889755945
 20
3.5000002476
 10
4.1969195946
 20
3.5000002476
 10
4.1025948696
 20
3.5000002476
 10
4.0060017312
 20
3.5000002476
 10
3.9071404988
 20
3.5000002978
  0
SPLINE
  5
86
330
1F
100
AcDbEntity
  8
0
  6
SLD-Сплошная
 62
     7
370
    35
100
AcDbSpline
210
0.0
220
0.0
230
1.0
 70
     8
 71
     3
 72
    38
 73
    34
 74
     0
 42
0.000000001
 43
0.00000001
 40
0.0
 40
0.0
 40
0.0
 40
0.0
 40
0.0625
 40
0.0625
 40
0.1250000000000001
 40
0.1250000000000001
 40
0.1875000000000001
 40
0.1875000000000001
 40
0.2500000000000002
 40
0.2500000000000002
 40
0.3125000000000002
 40
0.3125000000000002
 40
0.3750000000000002
 40
0.3750000000000002
 40
0.4375000000000003
 40
0.4375000000000003
 40
0.5000000000000003
 40
0.5000000000000003
 40
0.5625000000000003
 40
0.5625000000000003
 40
0.6250000000000004
 40
0.6250000000000004
 40
0.6875000000000004
 40
0.6875000000000004
 40
0.7500000000000003
 40
0.7500000000000003
 40
0.8125000000000003
 40
0.8125000000000003
 40
0.8750000000000002
 40
0.8750000000000002
 40
0.9375000000000002
 40
0.9375000000000002
 40
1.0
 40
1.0
 40
1.0
 40
1.0
 10
3.907140498849896
 20
3.500000297767239
 30
0.0
 10
3.888663491116664
 20
3.500031804571143
 30
0.0
 10
3.870378943059355
 20
3.477374284371835
 30
0.0
 10
3.834191794647598
 20
3.388536997012872
 30
0.0
 10
3.816098951556937
 20
3.321279248823615
 30
0.0
 10
3.781404457868378
 20
3.145662089039312
 30
0.0
 10
3.764851736285997
 20
3.038186527128589
 30
0.0
 10
3.733376121600495
 20
2.784253858744339
 30
0.0
 10
3.718392623089303
 20
2.63644505096781
 30
0.0
 10
3.691431003246475
 20
2.313559563553998
 30
0.0
 10
3.679276164960383
 20
2.137376999561686
 30
0.0
 10
3.657747858535627
 20
1.754828532471245
 30
0.0
 10
3.648563592843485
 20
1.551120709699551
 30
0.0
 10
3.633792781133717
 20
1.129997314482396
 30
0.0
 10
3.628091819634065
 20
0.9094826267602649
 30
0.0
 10
3.620455152153598
 20
0.4577124618425859
 30
0.0
 10
3.618561873527433
 20
0.230627194363368
 30
0.0
 10
3.618535565971091
 20
-0.2258796505579245
 30
0.0
 10
3.620463531853655
 20
-0.4577198152343591
 30
0.0
 10
3.628035212928518
 20
-0.9066181741207895
 30
0.0
 10
3.633635739024038
 20
-1.124801830280753
 30
0.0
 10
3.648449374264963
 20
-1.548568419290974
 30
0.0
 10
3.657700182986105
 20
-1.753585111651357
 30
0.0
 10
3.679005579056371
 20
-2.13295820114681
 30
0.0
 10
3.691134414885862
 20
-2.309776491673143
 30
0.0
 10
3.718392636720356
 20
-2.636672933290017
 30
0.0
 10
3.733123907075207
 20
-2.781865021416289
 30
0.0
 10
3.764474287175302
 20
-3.035487471658429
 30
0.0
 10
3.781307923722986
 20
-3.14509299779564
 30
0.0
 10
3.816022091965805
 20
-3.320969263959431
 30
0.0
 10
3.833780716929664
 20
-3.387219098376418
 30
0.0
 10
3.870054309706571
 20
-3.476878877493155
 30
0.0
 10
3.888662938199353
 20
-3.500030855077386
 30
0.0
 10
3.907139948270587
 20
-3.499999803462956
 30
0.0
  0
LWPOLYLINE
  5
87
330
1F
100
AcDbEntity
  8
0
  6
SLD-Сплошная
 62
     7
370
    35
100
AcDbPolyline
 90
       10
 70
   128
 43
0.0
 10
-3.4973490981
 20
-9.9999992584
 10
-1.3740304451
 20
-9.9999992584
 10
0.4856753906
 20
-9.9999992587
 10
2.0810483296
 20
-9.9999992592
 10
3.4114706425
 20
-9.9999992599
 10
4.4764271889
 20
-9.9999992607
 10
5.275505617
 20
-9.9999992618
 10
5.8083965232
 20
-9.999999263
 10
6.0748935717
 20
-9.9999992645
 10
6.1082081225
 20
-9.9999997524
  0
SPLINE
  5
88
330
1F
100
AcDbEntity
  8
0
  6
SLD-Сплошная
 62
     7
370
    35
100
AcDbSpline
210
0.0
220
0.0
230
1.0
 70
     8
 71
     3
 72
    24
 73
    20
 74
     0
 42
0.000000001
 43
0.00000001
 40
0.0
 40
0.0
 40
0.0
 40
0.0
 40
0.1249999999999991
 40
0.1249999999999991
 40
0.1874999999999982
 40
0.1874999999999982
 40
0.2499999999999973
 40
0.2499999999999973
 40
0.3749999999999977
 40
0.3749999999999977
 40
0.4999999999999982
 40
0.4999999999999982
 40
0.6249999999999987
 40
0.6249999999999987
 40
0.7499999999999991
 40
0.7499999999999991
 40
0.8749999999999997
 40
0.8749999999999997
 40
1.0
 40
1.0
 40
1.0
 40
1.0
 10
-4.348075464874423
 20
-4.999999618463361
 30
0.0
 10
-4.348075548845355
 20
-5.330236520657923
 30
0.0
 10
-4.342448160321616
 20
-5.654956342724555
 30
0.0
 10
-4.325930463083621
 20
-6.134098957180567
 30
0.0
 10
-4.319068818994632
 20
-6.292480477163276
 30
0.0
 10
-4.302580264679452
 20
-6.606517408230902
 30
0.0
 10
-4.292906768310012
 20
-6.762602054289672
 30
0.0
 10
-4.260341486690225
 20
-7.216641226798337
 30
0.0
 10
-4.23380277538585
 20
-7.50377229870004
 30
0.0
 10
-4.171266453217564
 20
-8.04719227527234
 30
0.0
 10
-4.134937890593313
 20
-8.304501722735425
 30
0.0
 10
-4.055833074799207
 20
-8.765731781404389
 30
0.0
 10
-4.01278365874465
 20
-8.972707794171974
 30
0.0
 10
-3.919658218697357
 20
-9.338260342236541
 30
0.0
 10
-3.870226278084284
 20
-9.493646820690016
 30
0.0
 10
-3.768450268707372
 20
-9.743129962334745
 30
0.0
 10
-3.715422582466942
 20
-9.839097296958144
 30
0.0
 10
-3.606942245772678
 20
-9.96791448453148
 30
0.0
 10
-3.552327561208077
 20
-10.00015707893828
 30
0.0
 10
-3.49734908571943
 20
-9.999998764287717
 30
0.0
  0
LINE
  5
89
330
1F
100
AcDbEntity
  8
0
  6
SLD-Сплошная
 62
     7
370
    35
100
AcDbLine
 10
-4.3486056674
 20
5.0000002476
 30
0.0
 11
-4.3486056674
 21
-4.9999991456
 31
0.0
  0
SPLINE
  5
8A
330
1F
100
AcDbEntity
  8
0
  6
SLD-Сплошная
 62
     7
370
    35
100
AcDbSpline
210
0.0
220
0.0
230
1.0
 70
     8
 71
     3
 72
    24
 73
    20
 74
     0
 42
0.000000001
 43
0.00000001
 40
0.0
 40
0.0
 40
0.0
 40
0.0
 40
0.1249999999999956
 40
0.1249999999999956
 40
0.1874999999999959
 40
0.1874999999999959
 40
0.2499999999999962
 40
0.2499999999999962
 40
0.3749999999999968
 40
0.3749999999999968
 40
0.4999999999999974
 40
0.4999999999999974
 40
0.624999999999998
 40
0.624999999999998
 40
0.7499999999999987
 40
0.7499999999999987
 40
0.8749999999999992
 40
0.8749999999999992
 40
1.0
 40
1.0
 40
1.0
 40
1.0
 10
-3.497348773403108
 20
9.999999588911876
 30
0.0
 10
-3.552327216055437
 20
10.00015789859182
 30
0.0
 10
-3.606624232461442
 20
9.967918017174926
 30
0.0
 10
-3.687069237006735
 20
9.872949026281479
 30
0.0
 10
-3.713715962814047
 20
9.833466685138399
 30
0.0
 10
-3.766657183091989
 20
9.738493185550116
 30
0.0
 10
-3.793024847750893
 20
9.682732808712458
 30
0.0
 10
-3.86987412203265
 20
9.494820343409602
 30
0.0
 10
-3.918672173981383
 20
9.341457624974462
 30
0.0
 10
-4.01133177634799
 20
8.979063779499558
 30
0.0
 10
-4.055371621037047
 20
8.768095941509548
 30
0.0
 10
-4.134531282262681
 20
8.307196326182831
 30
0.0
 10
-4.170170994742617
 20
8.05569134156157
 30
0.0
 10
-4.233249858052833
 20
7.509571704381076
 30
0.0
 10
-4.260138458905053
 20
7.218712866695588
 30
0.0
 10
-4.303373190053787
 20
6.617424413442871
 30
0.0
 10
-4.320043017751437
 20
6.302961686719537
 30
0.0
 10
-4.342447302135306
 20
5.656868951123565
 30
0.0
 10
-4.348075506079979
 20
5.330240533431044
 30
0.0
 10
-4.348075464875069
 20
5.000003842588185
 30
0.0
  0
LINE
  5
8B
330
1F
100
AcDbEntity
  8
0
  6
SLD-Сплошная
 62
     7
370
    35
100
AcDbLine
 10
-3.4973490981
 20
10.0000002476
 30
0.0
 11
6.1082081225
 21
10.0000002476
 31
0.0
  0
LINE
  5
8C
330
1F
100
AcDbEntity
  8
0
  6
SLD-Сплошная
 62
     7
370
    35
100
AcDbLine
 10
6.0900078578
 20
-3.4999998025
 30
0.0
 11
6.1082081225
 21
-3.4999998025
 31
0.0
  0
LINE
  5
8D
330
1F
100
AcDbEntity
  8
0
  6
SLD-Сплошная
 62
     7
370
    35
100
AcDbLine
 10
6.1082081225
 20
3.5000002978
 30
0.0
 11
6.0900078578
 21
3.5000002978
 31
0.0
  0
SPLINE
  5
8E
330
1F
100
AcDbEntity
  8
0
  6
SLD-Сплошная
 62
     7
370
    35
100
AcDbSpline
210
0.0
220
0.0
230
1.0
 70
     8
 71
     3
 72
    38
 73
    34
 74
     0
 42
0.000000001
 43
0.00000001
 40
0.0
 40
0.0
 40
0.0
 40
0.0
 40
0.0624999999999999
 40
0.0624999999999999
 40
0.1249999999999998
 40
0.1249999999999998
 40
0.1874999999999997
 40
0.1874999999999997
 40
0.2499999999999996
 40
0.2499999999999996
 40
0.3124999999999994
 40
0.3124999999999994
 40
0.3749999999999994
 40
0.3749999999999994
 40
0.4374999999999994
 40
0.4374999999999994
 40
0.4999999999999994
 40
0.4999999999999994
 40
0.5624999999999994
 40
0.5624999999999994
 40
0.6249999999999994
 40
0.6249999999999994
 40
0.6874999999999994
 40
0.6874999999999994
 40
0.7499999999999996
 40
0.7499999999999996
 40
0.8124999999999997
 40
0.8124999999999997
 40
0.8749999999999998
 40
0.8749999999999998
 40
0.9374999999999999
 40
0.9374999999999999
 40
1.0
 40
1.0
 40
1.0
 40
1.0
 10
6.090007857801468
 20
3.500000297767241
 30
0.0
 10
6.088326351855926
 20
3.500031804571151
 30
0.0
 10
6.086556493577337
 20
3.477374284371851
 30
0.0
 10
6.082860110620028
 20
3.388536997012895
 30
0.0
 10
6.080911555807489
 20
3.321279248823635
 30
0.0
 10
6.077003758324847
 20
3.145662089039329
 30
0.0
 10
6.075052706432498
 20
3.038186527128603
 30
0.0
 10
6.071211445473662
 20
2.784253858744342
 30
0.0
 10
6.069311965351027
 20
2.636445050967809
 30
0.0
 10
6.065802422283884
 20
2.31355956355398
 30
0.0
 10
6.064171265699193
 20
2.137376999561657
 30
0.0
 10
6.061228435690309
 20
1.75482853247119
 30
0.0
 10
6.059942608211023
 20
1.551120709699485
 30
0.0
 10
6.057852499466026
 20
1.129997314482306
 30
0.0
 10
6.057032164325091
 20
0.9094826267601576
 30
0.0
 10
6.055929156996028
 20
0.4577124618424563
 30
0.0
 10
6.055652887571686
 20
0.2306271943632258
 30
0.0
 10
6.055649061868936
 20
-0.2258796505580922
 30
0.0
 10
6.055930351515119
 20
-0.4577198152345381
 30
0.0
 10
6.057024004004758
 20
-0.9066181741209833
 30
0.0
 10
6.057830100802091
 20
-1.124801830280954
 30
0.0
 10
6.059926619565586
 20
-1.54856841929119
 30
0.0
 10
6.0612216158078
 20
-1.753585111651572
 30
0.0
 10
6.064134576073334
 20
-2.132958201147027
 30
0.0
 10
6.065763447416974
 20
-2.309776491673358
 30
0.0
 10
6.069312331658304
 20
-2.636672933290225
 30
0.0
 10
6.071179735973165
 20
-2.781865021416484
 30
0.0
 10
6.075007553761809
 20
-3.0354874716586
 30
0.0
 10
6.076992594840982
 20
-3.145092997795798
 30
0.0
 10
6.080903187724935
 20
-3.32096926395955
 30
0.0
 10
6.082816776937165
 20
-3.387219098376518
 30
0.0
 10
6.086524650124526
 20
-3.476878877493207
 30
0.0
 10
6.088326299432817
 20
-3.500030855077414
 30
0.0
 10
6.090007807695734
 20
-3.499999803462954
 30
0.0
  0
SPLINE
  5
8F
330
1F
100
AcDbEntity
  8
0
  6
SLD-Сплошная
 62
     7
370
    35
100
AcDbSpline
210
0.0
220
0.0
230
1.0
 70
     8
 71
     3
 72
    38
 73
    34
 74
     0
 42
0.000000001
 43
0.00000001
 40
0.0
 40
0.0
 40
0.0
 40
0.0
 40
0.0625000000000001
 40
0.0625000000000001
 40
0.1250000000000001
 40
0.1250000000000001
 40
0.1875000000000002
 40
0.1875000000000002
 40
0.2500000000000003
 40
0.2500000000000003
 40
0.3125000000000003
 40
0.3125000000000003
 40
0.3750000000000003
 40
0.3750000000000003
 40
0.4375000000000004
 40
0.4375000000000004
 40
0.5000000000000003
 40
0.5000000000000003
 40
0.5625000000000004
 40
0.5625000000000004
 40
0.6250000000000003
 40
0.6250000000000003
 40
0.6875000000000003
 40
0.6875000000000003
 40
0.7500000000000002
 40
0.7500000000000002
 40
0.8125000000000002
 40
0.8125000000000002
 40
0.8750000000000002
 40
0.8750000000000002
 40
0.9375000000000001
 40
0.9375000000000001
 40
1.0
 40
1.0
 40
1.0
 40
1.0
 10
5.817023133961825
 20
-3.499999802515258
 30
0.0
 10
5.823748268585559
 20
-3.500031316898099
 30
0.0
 10
5.830244728860476
 20
-3.477373796507208
 30
0.0
 10
5.842811805325647
 20
-3.388536515599083
 30
0.0
 10
5.84894459865043
 20
-3.321278770121467
 30
0.0
 10
5.860448081716901
 20
-3.145661615906821
 30
0.0
 10
5.865806563441192
 20
-3.03818605634449
 30
0.0
 10
5.875799237347715
 20
-2.784253391361094
 30
0.0
 10
5.880449860993142
 20
-2.636444585249149
 30
0.0
 10
5.888681073221584
 20
-2.313559100573806
 30
0.0
 10
5.892318473134483
 20
-2.137376537310502
 30
0.0
 10
5.898680364787978
 20
-1.754828069990497
 30
0.0
 10
5.901348918903251
 20
-1.551120248543741
 30
0.0
 10
5.905607500982259
 20
-1.129996853005299
 30
0.0
 10
5.907230720236821
 20
-0.9094821632146424
 30
0.0
 10
5.909398891566867
 20
-0.457711998328688
 30
0.0
 10
5.909932209516808
 20
-0.2306267301204918
 30
0.0
 10
5.909939639856289
 20
0.225880117741466
 30
0.0
 10
5.909396488933729
 20
0.4577202842298023
 30
0.0
 10
5.907246815679055
 20
0.9066186450852363
 30
0.0
 10
5.905652513460281
 20
1.124802302910014
 30
0.0
 10
5.901382110053318
 20
1.548568896425039
 30
0.0
 10
5.898694000487733
 20
1.753585589620922
 30
0.0
 10
5.892398882676982
 20
2.132958682106899
 30
0.0
 10
5.888771068589634
 20
2.309776974622897
 30
0.0
 10
5.880450404123801
 20
2.636673420794582
 30
0.0
 10
5.87587791739076
 20
2.781865508646054
 30
0.0
 10
5.865927759805198
 20
3.035487961652481
 30
0.0
 10
5.860479655330337
 20
3.145093489510576
 30
0.0
 10
5.848970517092405
 20
3.320969756866956
 30
0.0
 10
5.84295255282291
 20
3.387219592094083
 30
0.0
 10
5.830359441997082
 20
3.476879372472208
 30
0.0
 10
5.823748469977154
 20
3.500031350313953
 30
0.0
 10
5.817023337694374
 20
3.500000298699303
 30
0.0
  0
LINE
  5
90
330
1F
100
AcDbEntity
  8
0
  6
SLD-Сплошная
 62
     7
370
    35
100
AcDbLine
 10
5.8170231373
 20
3.5000002978
 30
0.0
 11
5.4530994047
 21
3.5000002978
 31
0.0
  0
SPLINE
  5
91
330
1F
100
AcDbEntity
  8
0
  6
SLD-Сплошная
 62
     7
370
    35
100
AcDbSpline
210
0.0
220
0.0
230
1.0
 70
     8
 71
     3
 72
    38
 73
    34
 74
     0
 42
0.000000001
 43
0.00000001
 40
0.0
 40
0.0
 40
0.0
 40
0.0
 40
0.0624999999999992
 40
0.0624999999999992
 40
0.1249999999999984
 40
0.1249999999999984
 40
0.1874999999999986
 40
0.1874999999999986
 40
0.2499999999999987
 40
0.2499999999999987
 40
0.3124999999999988
 40
0.3124999999999988
 40
0.3749999999999989
 40
0.3749999999999989
 40
0.437499999999999
 40
0.437499999999999
 40
0.4999999999999991
 40
0.4999999999999991
 40
0.5624999999999992
 40
0.5624999999999992
 40
0.6249999999999993
 40
0.6249999999999993
 40
0.6874999999999994
 40
0.6874999999999994
 40
0.7499999999999996
 40
0.7499999999999996
 40
0.8124999999999997
 40
0.8124999999999997
 40
0.8749999999999998
 40
0.8749999999999998
 40
0.9374999999999999
 40
0.9374999999999999
 40
1.0
 40
1.0
 40
1.0
 40
1.0
 10
5.45309965699237
 20
3.500000297751608
 30
0.0
 10
5.44301372717565
 20
3.500031812153985
 30
0.0
 10
5.432979882996467
 20
3.477374263813475
 30
0.0
 10
5.413024914886876
 20
3.388536872918311
 30
0.0
 10
5.402997581579243
 20
3.321279041573183
 30
0.0
 10
5.383683659548255
 20
3.145661679221263
 30
0.0
 10
5.374425648746718
 20
3.038185992979487
 30
0.0
 10
5.356755523105903
 20
2.784253023026156
 30
0.0
 10
5.348308447807823
 20
2.636444049476654
 30
0.0
 10
5.333062786703712
 20
2.313558215687298
 30
0.0
 10
5.326165229732839
 20
2.137375460987913
 30
0.0
 10
5.313921570415718
 20
1.754826565958315
 30
0.0
 10
5.308683065286549
 20
1.551118579515033
 30
0.0
 10
5.300247038039069
 20
1.12999479542979
 30
0.0
 10
5.296984238578028
 20
0.9094798577002041
 30
0.0
 10
5.292611527266104
 20
0.4577093905672518
 30
0.0
 10
5.291526044958113
 20
0.2306239701989196
 30
0.0
 10
5.29151098981889
 20
-0.2258831852301731
 30
0.0
 10
5.292616360775996
 20
-0.457723491319809
 30
0.0
 10
5.296951919297742
 20
-0.9066219898033792
 30
0.0
 10
5.30015736341853
 20
-1.124805710558257
 30
0.0
 10
5.308618063774518
 20
-1.548572409440436
 30
0.0
 10
5.313894468621644
 20
-1.75358904955983
 30
0.0
 10
5.32601168641067
 20
-2.132962022301179
 30
0.0
 10
5.332895105717157
 20
-2.309780240949469
 30
0.0
 10
5.348308881589753
 20
-2.636676487237549
 30
0.0
 10
5.356613718147093
 20
-2.781868307307256
 30
0.0
 10
5.374214478704491
 20
-3.035490327727038
 30
0.0
 10
5.383630057143372
 20
-3.145095619452529
 30
0.0
 10
5.402955229834057
 20
-3.320971233156422
 30
0.0
 10
5.412797851924667
 20
-3.387220728067887
 30
0.0
 10
5.432801825949853
 20
-3.476879756750944
 30
0.0
 10
5.44301372211916
 20
-3.500031309354698
 30
0.0
 10
5.453099651988532
 20
-3.499999802530894
 30
0.0
  0
LWPOLYLINE
  5
92
330
1F
100
AcDbEntity
  8
0
  6
SLD-Сплошная
 62
     7
370
    35
100
AcDbPolyline
 90
        9
 70
   128
 43
0.0
 10
5.453099652
 20
-3.4999997524
 10
5.506546894
 20
-3.4999997524
 10
5.5577210822
 20
-3.4999997524
 10
5.6066220474
 20
-3.4999997524
 10
5.6532496281
 20
-3.4999997524
 10
5.6976036701
 20
-3.4999997524
 10
5.7396840269
 20
-3.4999997524
 10
5.7794905592
 20
-3.4999997524
 10
5.8170228857
 20
-3.4999998025
  0
SPLINE
  5
93
330
1F
100
AcDbEntity
  8
0
  6
SLD-Сплошная
 62
     7
370
    35
100
AcDbSpline
210
0.0
220
0.0
230
1.0
 70
     8
 71
     3
 72
    24
 73
    20
 74
     0
 42
0.000000001
 43
0.00000001
 40
0.0
 40
0.0
 40
0.0
 40
0.0
 40
0.1249999999999987
 40
0.1249999999999987
 40
0.1874999999999985
 40
0.1874999999999985
 40
0.2499999999999984
 40
0.2499999999999984
 40
0.3749999999999984
 40
0.3749999999999984
 40
0.4999999999999988
 40
0.4999999999999988
 40
0.6249999999999991
 40
0.6249999999999991
 40
0.7499999999999994
 40
0.7499999999999994
 40
0.8749999999999998
 40
0.8749999999999998
 40
1.0
 40
1.0
 40
1.0
 40
1.0
 10
-5.826347999382445
 20
-4.999999609596021
 30
0.0
 10
-5.82634808340778
 20
-5.330034093110156
 30
0.0
 10
-5.820727240575767
 20
-5.654558193288103
 30
0.0
 10
-5.804228853400602
 20
-6.133416937352884
 30
0.0
 10
-5.797375250860222
 20
-6.291705475681034
 30
0.0
 10
-5.780906222507285
 20
-6.605559961428935
 30
0.0
 10
-5.771243869416718
 20
-6.761562277123603
 30
0.0
 10
-5.738715041097046
 20
-7.215380894913097
 30
0.0
 10
-5.71220589994771
 20
-7.50238254683094
 30
0.0
 10
-5.649740782332553
 20
-8.04558387979912
 30
0.0
 10
-5.613451240146913
 20
-8.302829389938445
 30
0.0
 10
-5.534427594958034
 20
-8.764010690350386
 30
0.0
 10
-5.491422702856413
 20
-8.970988968543226
 30
0.0
 10
-5.398396810733477
 20
-9.336616781637746
 30
0.0
 10
-5.349002988919275
 20
-9.492129616643401
 30
0.0
 10
-5.247317112378188
 20
-9.741892187120126
 30
0.0
 10
-5.194346106839248
 20
-9.838026755986437
 30
0.0
 10
-5.085940002490577
 20
-9.967323564800939
 30
0.0
 10
-5.031360623408322
 20
-9.999840224483012
 30
0.0
 10
-4.976415846932936
 20
-9.999998761962152
 30
0.0
  0
LINE
  5
94
330
1F
100
AcDbEntity
  8
0
  6
SLD-Сплошная
 62
     7
370
    35
100
AcDbLine
 10
-4.3480877142
 20
-4.9999997568
 30
0.0
 11
-5.8263357255
 21
-4.999999748
 31
0.0
  0
LINE
  5
95
330
1F
100
AcDbEntity
  8
0
  6
SLD-Сплошная
 62
     7
370
    35
100
AcDbLine
 10
-3.4973490981
 20
-9.9999992584
 30
0.0
 11
-4.9764158577
 21
-9.9999997524
 31
0.0
  0
SPLINE
  5
96
330
1F
100
AcDbEntity
  8
0
  6
SLD-Сплошная
 62
     7
370
    35
100
AcDbSpline
210
0.0
220
0.0
230
1.0
 70
     8
 71
     3
 72
    24
 73
    20
 74
     0
 42
0.000000001
 43
0.00000001
 40
0.0
 40
0.0
 40
0.0
 40
0.0
 40
0.1249999999999965
 40
0.1249999999999965
 40
0.1874999999999948
 40
0.1874999999999948
 40
0.249999999999993
 40
0.249999999999993
 40
0.3749999999999942
 40
0.3749999999999942
 40
0.4999999999999953
 40
0.4999999999999953
 40
0.6249999999999964
 40
0.6249999999999964
 40
0.7499999999999977
 40
0.7499999999999977
 40
0.8749999999999988
 40
0.8749999999999988
 40
1.0
 40
1.0
 40
1.0
 40
1.0
 10
-4.976415857625701
 20
9.9999992571677
 30
0.0
 10
-5.031360597422501
 20
9.999840715555113
 30
0.0
 10
-5.085619760994385
 20
9.967328924307271
 30
0.0
 10
-5.166002770709553
 20
9.872016224796448
 30
0.0
 10
-5.192627878320875
 20
9.83243023313515
 30
0.0
 10
-5.245523905952168
 20
9.737272704043779
 30
0.0
 10
-5.271869157206118
 20
9.681429578498236
 30
0.0
 10
-5.348652324155621
 20
9.493300970235975
 30
0.0
 10
-5.397404746282924
 20
9.339840871824881
 30
0.0
 10
-5.489970701206
 20
8.977354380411317
 30
0.0
 10
-5.533966532768279
 20
8.766375226111581
 30
0.0
 10
-5.613044994190573
 20
8.30552388237663
 30
0.0
 10
-5.648645060830043
 20
8.054089426927117
 30
0.0
 10
-5.711649293466011
 20
7.508220231675394
 30
0.0
 10
-5.73851272192105
 20
7.217444799717821
 30
0.0
 10
-5.781698004126001
 20
6.61646313623331
 30
0.0
 10
-5.798345334679019
 20
6.302250392997547
 30
0.0
 10
-5.820726382916312
 20
5.656484210255194
 30
0.0
 10
-5.826348040583
 20
5.330038112055369
 30
0.0
 10
-5.826347999383264
 20
5.000003841017633
 30
0.0
  0
LINE
  5
97
330
1F
100
AcDbEntity
  8
0
  6
SLD-Сплошная
 62
     7
370
    35
100
AcDbLine
 10
-4.9764158576
 20
9.9999997524
 30
0.0
 11
-3.4973490981
 21
10.0000002476
 31
0.0
  0
SPLINE
  5
98
330
1F
100
AcDbEntity
  8
0
  6
SLD-Сплошная
 62
     7
370
    35
100
AcDbSpline
210
0.0
220
0.0
230
1.0
 70
     8
 71
     3
 72
    38
 73
    34
 74
     0
 42
0.000000001
 43
0.00000001
 40
0.0
 40
0.0
 40
0.0
 40
0.0
 40
0.0625
 40
0.0625
 40
0.125
 40
0.125
 40
0.1875
 40
0.1875
 40
0.25
 40
0.25
 40
0.3125
 40
0.3125
 40
0.375
 40
0.375
 40
0.4375
 40
0.4375
 40
0.5
 40
0.5
 40
0.5625
 40
0.5625
 40
0.625
 40
0.625
 40
0.6875
 40
0.6875
 40
0.75
 40
0.75
 40
0.8125
 40
0.8125
 40
0.875
 40
0.875
 40
0.9375
 40
0.9375
 40
1.0
 40
1.0
 40
1.0
 40
1.0
 10
-1.937374103870751
 20
-3.499999784795866
 30
0.0
 10
-1.905532329732843
 20
-3.499967488135026
 30
0.0
 10
-1.874338544923264
 20
-3.477255081934406
 30
0.0
 10
-1.813181178486476
 20
-3.388325213982237
 30
0.0
 10
-1.782903981680883
 20
-3.321030218248112
 30
0.0
 10
-1.725355416303389
 20
-3.145354475770827
 30
0.0
 10
-1.6981578839261
 20
-3.037858970984134
 30
0.0
 10
-1.646833114274935
 20
-2.783906850158512
 30
0.0
 10
-1.622611977263607
 20
-2.636095300271709
 30
0.0
 10
-1.579301257548393
 20
-2.31321862901946
 30
0.0
 10
-1.559922402373073
 20
-2.137049773788591
 30
0.0
 10
-1.525760081415427
 20
-1.754550647266383
 30
0.0
 10
-1.51127549031788
 20
-1.550859109013221
 30
0.0
 10
-1.488047733056811
 20
-1.129796504274109
 30
0.0
 10
-1.479123916166444
 20
-0.9093328361916561
 30
0.0
 10
-1.467181281289488
 20
-0.4576226110360282
 30
0.0
 10
-1.464229111085354
 20
-0.2305738713644214
 30
0.0
 10
-1.464188210718369
 20
0.2258468094399247
 30
0.0
 10
-1.467194633135384
 20
0.4576415199752725
 30
0.0
 10
-1.479035605948464
 20
0.9064766749871277
 30
0.0
 10
-1.487802359412324
 20
1.124624470311094
 30
0.0
 10
-1.511095773829922
 20
1.548313202375699
 30
0.0
 10
-1.525685712390106
 20
1.753314489073017
 30
0.0
 10
-1.559493965839693
 20
2.132651290282567
 30
0.0
 10
-1.578827736692259
 20
2.309450408782321
 30
0.0
 10
-1.622609422312187
 20
2.636312837695058
 30
0.0
 10
-1.646426751663196
 20
2.78153108934703
 30
0.0
 10
-1.697541967078512
 20
3.035170303920774
 30
0.0
 10
-1.725195748142748
 20
3.144785582764241
 30
0.0
 10
-1.782778148186514
 20
3.320728159113774
 30
0.0
 10
-1.812493741816771
 20
3.387013244202254
 30
0.0
 10
-1.873786969958909
 20
3.476760116375962
 30
0.0
 10
-1.905531381555605
 20
3.499967535066623
 30
0.0
 10
-1.937373153535605
 20
3.500000295118705
 30
0.0
  0
LINE
  5
99
330
1F
100
AcDbEntity
  8
0
  6
SLD-Сплошная
 62
     7
370
    35
100
AcDbLine
 10
-5.8258172969
 20
5.0000002476
 30
0.0
 11
-5.8258172969
 21
-4.9999992524
 31
0.0
  0
LINE
  5
9A
330
1F
100
AcDbEntity
  8
0
  6
SLD-Сплошная
 62
     7
370
    35
100
AcDbLine
 10
414.4662497432
 20
9.9999998341
 30
0.0
 11
414.5917646314
 21
9.9999998341
 31
0.0
  0
LINE
  5
9B
330
1F
100
AcDbEntity
  8
0
  6
SLD-Сплошная
 62
     7
370
    35
100
AcDbLine
 10
414.5917644565
 20
-9.9999993388
 30
0.0
 11
414.4662495705
 21
-9.9999993388
 31
0.0
  0
LWPOLYLINE
  5
9C
330
1F
100
AcDbEntity
  8
0
  6
SLD-Сплошная
 62
     7
370
    35
100
AcDbPolyline
 90
        9
 70
   128
 43
0.0
 10
205.4052927488
 20
3.5000002961
 10
204.1687135053
 20
3.5000002961
 10
202.9324510138
 20
3.5000002961
 10
201.6965093607
 20
3.5000002961
 10
200.460892631
 20
3.5000002961
 10
199.2256049089
 20
3.5000002961
 10
197.9906502774
 20
3.5000002961
 10
196.7560328184
 20
3.5000002961
 10
195.5217566126
 20
3.5000002719
  0
SPLINE
  5
9D
330
1F
100
AcDbEntity
  8
0
  6
SLD-Сплошная
 62
     7
370
    35
100
AcDbSpline
210
0.0
220
0.0
230
1.0
 70
     8
 71
     3
 72
    38
 73
    34
 74
     0
 42
0.000000001
 43
0.00000001
 40
0.0
 40
0.0
 40
0.0
 40
0.0
 40
0.0625
 40
0.0625
 40
0.125
 40
0.125
 40
0.1875
 40
0.1875
 40
0.25
 40
0.25
 40
0.3125
 40
0.3125
 40
0.375
 40
0.375
 40
0.4375
 40
0.4375
 40
0.5
 40
0.5
 40
0.5625
 40
0.5625
 40
0.625
 40
0.625
 40
0.6875
 40
0.6875
 40
0.75
 40
0.75
 40
0.8125
 40
0.8125
 40
0.875
 40
0.875
 40
0.9375
 40
0.9375
 40
1.0
 40
1.0
 40
1.0
 40
1.0
 10
205.4052926073762
 20
-3.499999784795866
 30
0.0
 10
205.6342746250737
 20
-3.499967488135026
 30
0.0
 10
205.8594438089722
 20
-3.477255081934406
 30
0.0
 10
206.3024663550043
 20
-3.388325213982237
 30
0.0
 10
206.5226128245973
 20
-3.321030218248112
 30
0.0
 10
206.9424609991193
 20
-3.145354475770827
 30
0.0
 10
207.1416017763905
 20
-3.037858970984134
 30
0.0
 10
207.5185035010227
 20
-2.783906850158512
 30
0.0
 10
207.6969698487985
 20
-2.636095300271709
 30
0.0
 10
208.0168728884255
 20
-2.31321862901946
 30
0.0
 10
208.1604298277073
 20
-2.137049773788591
 30
0.0
 10
208.4139661425594
 20
-1.754550647266383
 30
0.0
 10
208.5217275867916
 20
-1.550859109013221
 30
0.0
 10
208.6947293385236
 20
-1.129796504274109
 30
0.0
 10
208.761313926424
 20
-0.9093328361916561
 30
0.0
 10
208.850459663622
 20
-0.4576226110360282
 30
0.0
 10
208.8725209037785
 20
-0.2305738713644214
 30
0.0
 10
208.8728264321274
 20
0.2258468094399247
 30
0.0
 10
208.850360137282
 20
0.4576415199752725
 30
0.0
 10
208.7619729800229
 20
0.9064766749871277
 30
0.0
 10
208.6965584400315
 20
1.124624470311094
 30
0.0
 10
208.5230646104125
 20
1.548313202375699
 30
0.0
 10
208.4145206916583
 20
1.753314489073017
 30
0.0
 10
208.1636068982749
 20
2.132651290282567
 30
0.0
 10
208.0203735824824
 20
2.309450408782321
 30
0.0
 10
207.6969855954442
 20
2.636312837695058
 30
0.0
 10
207.5214954320209
 20
2.78153108934703
 30
0.0
 10
207.1461170751794
 20
3.035170303920774
 30
0.0
 10
206.9436282609104
 20
3.144785582764241
 30
0.0
 10
206.5235284649558
 20
3.320728159113774
 30
0.0
 10
206.3074570503807
 20
3.387013244202254
 30
0.0
 10
205.8634287037049
 20
3.476760116375962
 30
0.0
 10
205.6342815774964
 20
3.499967535066623
 30
0.0
 10
205.4052995581714
 20
3.500000295118705
 30
0.0
  0
LWPOLYLINE
  5
9E
330
1F
100
AcDbEntity
  8
0
  6
SLD-Сплошная
 62
     7
370
    35
100
AcDbPolyline
 90
        9
 70
   128
 43
0.0
 10
195.5217532152
 20
-3.4999997761
 10
196.7560298361
 20
-3.4999997761
 10
197.9906477105
 20
-3.4999997761
 10
199.2256027577
 20
-3.4999997761
 10
200.4608908957
 20
-3.4999997761
 10
201.6965080414
 20
-3.4999997761
 10
202.9324501109
 20
-3.4999997761
 10
204.1687130189
 20
-3.4999997761
 10
205.4052926792
 20
-3.4999998009
  0
SPLINE
  5
9F
330
1F
100
AcDbEntity
  8
0
  6
SLD-Сплошная
 62
     7
370
    35
100
AcDbSpline
210
0.0
220
0.0
230
1.0
 70
     8
 71
     3
 72
    38
 73
    34
 74
     0
 42
0.000000001
 43
0.00000001
 40
0.0
 40
0.0
 40
0.0
 40
0.0
 40
0.0625
 40
0.0625
 40
0.125
 40
0.125
 40
0.1875
 40
0.1875
 40
0.25
 40
0.25
 40
0.3125
 40
0.3125
 40
0.375
 40
0.375
 40
0.4375
 40
0.4375
 40
0.5
 40
0.5
 40
0.5625
 40
0.5625
 40
0.625
 40
0.625
 40
0.6875
 40
0.6875
 40
0.75
 40
0.75
 40
0.8125
 40
0.8125
 40
0.875
 40
0.875
 40
0.9375
 40
0.9375
 40
1.0
 40
1.0
 40
1.0
 40
1.0
 10
195.5217566125871
 20
3.500000296086152
 30
0.0
 10
195.2932619182382
 20
3.49996799013968
 30
0.0
 10
195.0686057867985
 20
3.477255567441207
 30
0.0
 10
194.6266547084743
 20
3.388325690931138
 30
0.0
 10
194.4070731054252
 20
3.321030691638459
 30
0.0
 10
193.9883578486498
 20
3.145354942194778
 30
0.0
 10
193.7897827359062
 20
3.037859434545915
 30
0.0
 10
193.4139947348793
 20
2.783907309730266
 30
0.0
 10
193.2360791486696
 20
2.636095757993907
 30
0.0
 10
192.9171937445531
 20
2.313219083900516
 30
0.0
 10
192.7741097879903
 20
2.137050228093083
 30
0.0
 10
192.5214268015637
 20
1.754551102604203
 30
0.0
 10
192.4140382432909
 20
1.550859563155578
 30
0.0
 10
192.2416425902759
 20
1.129796959712176
 30
0.0
 10
192.1752958774246
 20
0.9093332946970779
 30
0.0
 10
192.0864700149083
 20
0.4576230704225209
 30
0.0
 10
192.0644888887516
 20
0.2305743321085104
 30
0.0
 10
192.0641844695929
 20
-0.225846344154603
 30
0.0
 10
192.0865691976725
 20
-0.4576410519999384
 30
0.0
 10
192.1746391994715
 20
-0.9064762039017855
 30
0.0
 10
192.2398199769769
 20
-1.124623996859335
 30
0.0
 10
192.4127058731004
 20
-1.548312722809154
 30
0.0
 10
192.5208742510233
 20
-1.753314008357706
 30
0.0
 10
192.7709433498001
 20
-2.132650805761002
 30
0.0
 10
192.9137043513094
 20
-2.309449921799337
 30
0.0
 10
193.2360633762935
 20
-2.636312345225102
 30
0.0
 10
193.4110120006704
 20
-2.781530597590542
 30
0.0
 10
193.7852805355328
 20
-3.035169809425429
 30
0.0
 10
193.9871938863739
 20
-3.144785086538863
 30
0.0
 10
194.406159901924
 20
-3.320727662637807
 30
0.0
 10
194.6216765776509
 20
-3.387012747396878
 30
0.0
 10
195.0646301675725
 20
-3.476759619557855
 30
0.0
 10
195.2932551085656
 20
-3.499967038831834
 30
0.0
 10
195.5217498028182
 20
-3.499999799880221
 30
0.0
  0
LINE
  5
A0
330
1F
100
AcDbEntity
  8
0
  6
SLD-Сплошная
 62
     7
370
    35
100
AcDbLine
 10
230.197097364
 20
3.5000002714
 30
0.0
 11
220.2674615566
 21
3.5000002719
 31
0.0
  0
SPLINE
  5
A1
330
1F
100
AcDbEntity
  8
0
  6
SLD-Сплошная
 62
     7
370
    35
100
AcDbSpline
210
0.0
220
0.0
230
1.0
 70
     8
 71
     3
 72
    38
 73
    34
 74
     0
 42
0.000000001
 43
0.00000001
 40
0.0
 40
0.0
 40
0.0
 40
0.0
 40
0.0625
 40
0.0625
 40
0.1250000000000001
 40
0.1250000000000001
 40
0.1875000000000001
 40
0.1875000000000001
 40
0.2500000000000002
 40
0.2500000000000002
 40
0.3125000000000002
 40
0.3125000000000002
 40
0.3750000000000002
 40
0.3750000000000002
 40
0.4375000000000003
 40
0.4375000000000003
 40
0.5000000000000003
 40
0.5000000000000003
 40
0.5625000000000003
 40
0.5625000000000003
 40
0.6250000000000004
 40
0.6250000000000004
 40
0.6875000000000003
 40
0.6875000000000003
 40
0.7500000000000002
 40
0.7500000000000002
 40
0.8125000000000002
 40
0.8125000000000002
 40
0.8750000000000001
 40
0.8750000000000001
 40
0.9375000000000001
 40
0.9375000000000001
 40
1.0
 40
1.0
 40
1.0
 40
1.0
 10
230.1970938304934
 20
-3.4999998008658
 30
0.0
 10
230.4270820399127
 20
-3.499967502479837
 30
0.0
 10
230.6532363088419
 20
-3.477255087204943
 30
0.0
 10
231.0981892795947
 20
-3.388325223708461
 30
0.0
 10
231.3192909029853
 20
-3.321030230293039
 30
0.0
 10
231.7409536303925
 20
-3.145354491141265
 30
0.0
 10
231.9409514918411
 20
-3.037858987835472
 30
0.0
 10
232.3194699018273
 20
-2.783906870009732
 30
0.0
 10
232.498698798789
 20
-2.636095321117676
 30
0.0
 10
232.8199648654396
 20
-2.31321865116147
 30
0.0
 10
232.9641313967894
 20
-2.137049796550857
 30
0.0
 10
233.218742033673
 20
-1.754550671492307
 30
0.0
 10
233.3269588097537
 20
-1.550859132458248
 30
0.0
 10
233.5006906118478
 20
-1.129796527386315
 30
0.0
 10
233.5675555972136
 20
-0.9093328599120397
 30
0.0
 10
233.6570765643035
 20
-0.4576226327440028
 30
0.0
 10
233.6792305439357
 20
-0.230573892219797
 30
0.0
 10
233.6795373598032
 20
0.2258467899717521
 30
0.0
 10
233.6569766236466
 20
0.4576415012797833
 30
0.0
 10
233.5682174361287
 20
0.9064766589175826
 30
0.0
 10
233.5025274372663
 20
1.124624455327222
 30
0.0
 10
233.3283015007878
 20
1.548313189196325
 30
0.0
 10
233.2192989403957
 20
1.753314477470474
 30
0.0
 10
232.9673219667294
 20
2.132651281138028
 30
0.0
 10
232.8234804858726
 20
2.309450400622316
 30
0.0
 10
232.4987146588908
 20
2.636312831163226
 30
0.0
 10
232.3224746598997
 20
2.781531084408307
 30
0.0
 10
231.9454862311707
 20
3.035170300672843
 30
0.0
 10
231.7421259613562
 20
3.144785580113038
 30
0.0
 10
231.3202105512759
 20
3.320728157915299
 30
0.0
 10
231.1032017053989
 20
3.387013243455362
 30
0.0
 10
230.6572386617727
 20
3.476760116206799
 30
0.0
 10
230.4270889935541
 20
3.499967535066478
 30
0.0
 10
230.1971007836385
 20
3.500000295118704
 30
0.0
  0
LINE
  5
A2
330
1F
100
AcDbEntity
  8
0
  6
SLD-Сплошная
 62
     7
370
    35
100
AcDbLine
 10
220.2674581424
 20
-3.4999997761
 30
0.0
 11
230.1970937736
 21
-3.4999997766
 31
0.0
  0
SPLINE
  5
A3
330
1F
100
AcDbEntity
  8
0
  6
SLD-Сплошная
 62
     7
370
    35
100
AcDbSpline
210
0.0
220
0.0
230
1.0
 70
     8
 71
     3
 72
    38
 73
    34
 74
     0
 42
0.000000001
 43
0.00000001
 40
0.0
 40
0.0
 40
0.0
 40
0.0
 40
0.0624999999999999
 40
0.0624999999999999
 40
0.1249999999999999
 40
0.1249999999999999
 40
0.1874999999999998
 40
0.1874999999999998
 40
0.2499999999999998
 40
0.2499999999999998
 40
0.3124999999999997
 40
0.3124999999999997
 40
0.3749999999999997
 40
0.3749999999999997
 40
0.4374999999999997
 40
0.4374999999999997
 40
0.4999999999999998
 40
0.4999999999999998
 40
0.5624999999999997
 40
0.5624999999999997
 40
0.6249999999999998
 40
0.6249999999999998
 40
0.6874999999999998
 40
0.6874999999999998
 40
0.7499999999999999
 40
0.7499999999999999
 40
0.8124999999999999
 40
0.8124999999999999
 40
0.875
 40
0.875
 40
0.9375
 40
0.9375
 40
1.0
 40
1.0
 40
1.0
 40
1.0
 10
220.2674615565862
 20
3.500000296086154
 30
0.0
 10
220.0378394066296
 20
3.499967990139739
 30
0.0
 10
219.812070469748
 20
3.477255567441175
 30
0.0
 10
219.3679223461356
 20
3.388325690931085
 30
0.0
 10
219.147245029228
 20
3.321030691638395
 30
0.0
 10
218.7264333088858
 20
3.145354942194712
 30
0.0
 10
218.5268603541715
 20
3.037859434545856
 30
0.0
 10
218.1491785330759
 20
2.783907309730211
 30
0.0
 10
217.9703633487535
 20
2.636095757993852
 30
0.0
 10
217.6498616943299
 20
2.313219083900486
 30
0.0
 10
217.5060504511021
 20
2.137050228093068
 30
0.0
 10
217.2520808051476
 20
1.754551102604205
 30
0.0
 10
217.1441441288645
 20
1.550859563155608
 30
0.0
 10
216.9708676086505
 20
1.129796959712242
 30
0.0
 10
216.9041813077038
 20
0.9093332946971485
 30
0.0
 10
216.8149006221505
 20
0.4576230704226413
 30
0.0
 10
216.7928068229409
 20
0.2305743321086507
 30
0.0
 10
216.7925008439242
 20
-0.2258463441544322
 30
0.0
 10
216.8150003120926
 20
-0.4576410519997544
 30
0.0
 10
216.9035212679759
 20
-0.9064762039015656
 30
0.0
 10
216.9690356750254
 20
-1.124623996859102
 30
0.0
 10
217.1428049582627
 20
-1.548312722808908
 30
0.0
 10
217.2515254281579
 20
-1.753314008357449
 30
0.0
 10
217.5028679021133
 20
-2.132650805760739
 30
0.0
 10
217.6463545997224
 20
-2.309449921799081
 30
0.0
 10
217.9703475118641
 20
-2.63631234522486
 30
0.0
 10
218.1461807282584
 20
-2.781530597590296
 30
0.0
 10
218.5223355025838
 20
-3.03516980942521
 30
0.0
 10
218.7252635068041
 20
-3.144785086538661
 30
0.0
 10
219.1463272653208
 20
-3.320727662637645
 30
0.0
 10
219.362919412891
 20
-3.387012747396744
 30
0.0
 10
219.8080751405944
 20
-3.476759619557781
 30
0.0
 10
220.0378325632696
 20
-3.499967038831795
 30
0.0
 10
220.2674547132145
 20
-3.49999979988022
 30
0.0
  0
LINE
  5
A4
330
1F
100
AcDbEntity
  8
0
  6
SLD-Сплошная
 62
     7
370
    35
100
AcDbLine
 10
255.081176515
 20
3.5000002714
 30
0.0
 11
245.1185712067
 21
3.5000002719
 31
0.0
  0
SPLINE
  5
A5
330
1F
100
AcDbEntity
  8
0
  6
SLD-Сплошная
 62
     7
370
    35
100
AcDbSpline
210
0.0
220
0.0
230
1.0
 70
     8
 71
     3
 72
    38
 73
    34
 74
     0
 42
0.000000001
 43
0.00000001
 40
0.0
 40
0.0
 40
0.0
 40
0.0
 40
0.0625
 40
0.0625
 40
0.125
 40
0.125
 40
0.1875
 40
0.1875
 40
0.25
 40
0.25
 40
0.3125
 40
0.3125
 40
0.375
 40
0.375
 40
0.4375
 40
0.4375
 40
0.5
 40
0.5
 40
0.5625
 40
0.5625
 40
0.625
 40
0.625
 40
0.6875
 40
0.6875
 40
0.75
 40
0.75
 40
0.8125
 40
0.8125
 40
0.875
 40
0.875
 40
0.9375
 40
0.9375
 40
1.0
 40
1.0
 40
1.0
 40
1.0
 10
255.0811729706807
 20
-3.499999800865798
 30
0.0
 10
255.3118633301249
 20
-3.499967502479883
 30
0.0
 10
255.5387037816335
 20
-3.477255087266299
 30
0.0
 10
255.9849989549917
 20
-3.388325224010891
 30
0.0
 10
256.2067634393998
 20
-3.321030230783636
 30
0.0
 10
256.6296832859643
 20
-3.145354492087886
 30
0.0
 10
256.8302738367008
 20
-3.03785898905962
 30
0.0
 10
257.2099085352274
 20
-2.783906871901946
 30
0.0
 10
257.3896630423392
 20
-2.636095323376753
 30
0.0
 10
257.7118674248164
 20
-2.313218654185259
 30
0.0
 10
257.8564529613168
 20
-2.137049799993957
 30
0.0
 10
258.1118013270875
 20
-1.754550675872174
 30
0.0
 10
258.2203303725065
 20
-1.550859137199756
 30
0.0
 10
258.3945625520232
 20
-1.129796532978787
 30
0.0
 10
258.4616195395225
 20
-0.9093328660479958
 30
0.0
 10
258.55139738898
 20
-0.4576226395418626
 30
0.0
 10
258.5736148199932
 20
-0.2305738993508654
 30
0.0
 10
258.57392251614
 20
0.2258467821671969
 30
0.0
 10
258.5512971628283
 20
0.4576414931687527
 30
0.0
 10
258.4622832821503
 20
0.9064766505053014
 30
0.0
 10
258.3964046650905
 20
1.124624446777207
 30
0.0
 10
258.2216769447247
 20
1.548313180415726
 30
0.0
 10
258.1123598421885
 20
1.753314468805195
 30
0.0
 10
257.8596527975147
 20
2.132651272735228
 30
0.0
 10
257.7153933076063
 20
2.309450392381384
 30
0.0
 10
257.3896789755066
 20
2.636312823360154
 30
0.0
 10
257.212922127925
 20
2.781531077190859
 30
0.0
 10
256.8348220001428
 20
3.035170294402959
 30
0.0
 10
256.6308591137113
 20
3.14478557435934
 30
0.0
 10
256.2076858554412
 20
3.320728153593537
 30
0.0
 10
255.9900264606203
 20
3.387013239879009
 30
0.0
 10
255.5427182760505
 20
3.476760114276646
 30
0.0
 10
255.3118703199661
 20
3.499967534067741
 30
0.0
 10
255.08117996011
 20
3.500000295116566
 30
0.0
  0
LINE
  5
A6
330
1F
100
AcDbEntity
  8
0
  6
SLD-Сплошная
 62
     7
370
    35
100
AcDbLine
 10
245.1185677802
 20
-3.4999997761
 30
0.0
 11
255.0811729136
 21
-3.4999997766
 31
0.0
  0
SPLINE
  5
A7
330
1F
100
AcDbEntity
  8
0
  6
SLD-Сплошная
 62
     7
370
    35
100
AcDbSpline
210
0.0
220
0.0
230
1.0
 70
     8
 71
     3
 72
    38
 73
    34
 74
     0
 42
0.000000001
 43
0.00000001
 40
0.0
 40
0.0
 40
0.0
 40
0.0
 40
0.0625
 40
0.0625
 40
0.125
 40
0.125
 40
0.1875000000000001
 40
0.1875000000000001
 40
0.2500000000000001
 40
0.2500000000000001
 40
0.3125000000000001
 40
0.3125000000000001
 40
0.3750000000000001
 40
0.3750000000000001
 40
0.4375000000000001
 40
0.4375000000000001
 40
0.5000000000000001
 40
0.5000000000000001
 40
0.5625000000000001
 40
0.5625000000000001
 40
0.6250000000000001
 40
0.6250000000000001
 40
0.6875000000000001
 40
0.6875000000000001
 40
0.75
 40
0.75
 40
0.8125000000000001
 40
0.8125000000000001
 40
0.8750000000000001
 40
0.8750000000000001
 40
0.9375000000000001
 40
0.9375000000000001
 40
1.0
 40
1.0
 40
1.0
 40
1.0
 10
245.1185712066648
 20
3.500000296086152
 30
0.0
 10
244.888125156659
 20
3.499967990139724
 30
0.0
 10
244.6615418760298
 20
3.477255567441151
 30
0.0
 10
244.2157838614244
 20
3.38832569093104
 30
0.0
 10
243.9943025613393
 20
3.321030691638343
 30
0.0
 10
243.5719506815009
 20
3.145354942194643
 30
0.0
 10
243.3716437159824
 20
3.037859434545773
 30
0.0
 10
242.9925673620868
 20
2.78390730973011
 30
0.0
 10
242.813088969491
 20
2.636095757993751
 30
0.0
 10
242.4913947610748
 20
2.313219083900372
 30
0.0
 10
242.3470463465617
 20
2.137050228092943
 30
0.0
 10
242.0921257835053
 20
1.754551102604072
 30
0.0
 10
241.9837836791833
 20
1.550859563155475
 30
0.0
 10
241.8098553596145
 20
1.129796959712104
 30
0.0
 10
241.7429176284323
 20
0.9093332946970101
 30
0.0
 10
241.6533001469938
 20
0.4576230704225023
 30
0.0
 10
241.63112288226
 20
0.2305743321085115
 30
0.0
 10
241.630815747883
 20
-0.2258463441545683
 30
0.0
 10
241.6534002123257
 20
-0.4576410519998877
 30
0.0
 10
241.7422550994881
 20
-0.9064762039016921
 30
0.0
 10
241.8080165274403
 20
-1.124623996859225
 30
0.0
 10
241.9824394785252
 20
-1.548312722809019
 30
0.0
 10
242.0915683142631
 20
-1.753314008357555
 30
0.0
 10
242.3438518940361
 20
-2.132650805760832
 30
0.0
 10
242.4878746014077
 20
-2.309449921799164
 30
0.0
 10
242.8130730890248
 20
-2.636312345224931
 30
0.0
 10
242.9895584496948
 20
-2.781530597590362
 30
0.0
 10
243.3671021949376
 20
-3.035169809425263
 30
0.0
 10
243.5707765860671
 20
-3.144785086538714
 30
0.0
 10
243.9933814502908
 20
-3.320727662637683
 30
0.0
 10
244.2107627395297
 20
-3.387012747396772
 30
0.0
 10
244.6575321186888
 20
-3.476759619557796
 30
0.0
 10
244.8881182886599
 20
-3.499967038831801
 30
0.0
 10
245.118564338739
 20
-3.49999979988022
 30
0.0
  0
SPLINE
  5
A8
330
1F
100
AcDbEntity
  8
0
  6
SLD-Сплошная
 62
     7
370
    35
100
AcDbSpline
210
0.0
220
0.0
230
1.0
 70
     8
 71
     3
 72
    24
 73
    20
 74
     0
 42
0.000000001
 43
0.00000001
 40
0.0
 40
0.0
 40
0.0
 40
0.0
 40
0.1250000000000025
 40
0.1250000000000025
 40
0.1875000000000032
 40
0.1875000000000032
 40
0.2500000000000039
 40
0.2500000000000039
 40
0.3750000000000033
 40
0.3750000000000033
 40
0.500000000000003
 40
0.500000000000003
 40
0.6250000000000022
 40
0.6250000000000022
 40
0.7500000000000014
 40
0.7500000000000014
 40
0.8750000000000008
 40
0.8750000000000008
 40
1.0
 40
1.0
 40
1.0
 40
1.0
 10
419.2644659963025
 20
5.000003840392438
 30
0.0
 10
419.2644662299924
 20
5.330038172133674
 30
0.0
 10
419.2326019225303
 20
5.654562101384451
 30
0.0
 10
419.1389607553415
 20
6.133420561561095
 30
0.0
 10
419.1000494608102
 20
6.291709000651217
 30
0.0
 10
419.0064804107208
 20
6.605563278615842
 30
0.0
 10
418.9515553014439
 20
6.76156549088225
 30
0.0
 10
418.7664804839984
 20
7.215383802885706
 30
0.0
 10
418.615466645777
 20
7.502385243195696
 30
0.0
 10
418.258667055696
 20
8.045586141546739
 30
0.0
 10
418.0509572231258
 20
8.302831446088494
 30
0.0
 10
417.5971555429662
 20
8.764012365700511
 30
0.0
 10
417.3495268659307
 20
8.970990457755885
 30
0.0
 10
416.8118215470502
 20
9.336617919422357
 30
0.0
 10
416.5253460848016
 20
9.492130631785454
 30
0.0
 10
415.9331506479032
 20
9.741892962665492
 30
0.0
 10
415.623483083333
 20
9.838027421966533
 30
0.0
 10
414.9869426173485
 20
9.967324107742572
 30
0.0
 10
414.6651069414014
 20
9.999840728916817
 30
0.0
 10
414.3396783995073
 20
9.99999925726444
 30
0.0
  0
LWPOLYLINE
  5
A9
330
1F
100
AcDbEntity
  8
0
  6
SLD-Сплошная
 62
     7
370
    35
100
AcDbPolyline
 90
       18
 70
   128
 43
0.0
 10
185.6603214018
 20
9.9999997524
 10
199.0076474013
 20
9.9999997525
 10
212.3940777036
 20
9.9999997528
 10
225.8144290744
 20
9.9999997533
 10
239.263505145
 20
9.9999997539
 10
252.7360984249
 20
9.9999997548
 10
266.2269923174
 20
9.9999997558
 10
279.7309631397
 20
9.9999997571
 10
293.242782146
 20
9.9999997585
 10
306.7572175513
 20
9.9999997601
 10
320.2690365576
 20
9.999999762
 10
333.7730073802
 20
9.9999997639
 10
347.263901273
 20
9.9999997661
 10
360.7364945534
 20
9.9999997685
 10
374.1855706246
 20
9.9999997711
 10
387.6059219961
 20
9.9999997738
 10
400.9923522992
 20
9.9999997767
 10
414.3396782996
 20
9.9999997524
  0
SPLINE
  5
AA
330
1F
100
AcDbEntity
  8
0
  6
SLD-Сплошная
 62
     7
370
    35
100
AcDbSpline
210
0.0
220
0.0
230
1.0
 70
     8
 71
     3
 72
    24
 73
    20
 74
     0
 42
0.000000001
 43
0.00000001
 40
0.0
 40
0.0
 40
0.0
 40
0.0
 40
0.1249999999999965
 40
0.1249999999999965
 40
0.1874999999999948
 40
0.1874999999999948
 40
0.249999999999993
 40
0.249999999999993
 40
0.3749999999999942
 40
0.3749999999999942
 40
0.4999999999999953
 40
0.4999999999999953
 40
0.6249999999999964
 40
0.6249999999999964
 40
0.7499999999999977
 40
0.7499999999999977
 40
0.8749999999999988
 40
0.8749999999999988
 40
1.0
 40
1.0
 40
1.0
 40
1.0
 10
185.6603214018465
 20
9.9999992571677
 30
0.0
 10
185.3348929277391
 20
9.999840715555113
 30
0.0
 10
185.0149529091406
 20
9.967328924307271
 30
0.0
 10
184.5429355446567
 20
9.872016224796448
 30
0.0
 10
184.3869215710223
 20
9.83243023313515
 30
0.0
 10
184.0776028091177
 20
9.737272704043779
 30
0.0
 10
183.9238683590121
 20
9.681429578498236
 30
0.0
 10
183.4766844111325
 20
9.493300970235975
 30
0.0
 10
183.1939284823343
 20
9.339840871824881
 30
0.0
 10
182.6588482550532
 20
8.977354380411317
 30
0.0
 10
182.4054957905338
 20
8.766375226111581
 30
0.0
 10
181.9513694099005
 20
8.30552388237663
 30
0.0
 10
181.7475978256264
 20
8.054089426927117
 30
0.0
 10
181.3877041250975
 20
7.508220231675394
 30
0.0
 10
181.2346712445867
 20
7.217444799717821
 30
0.0
 10
180.9889625070491
 20
6.61646313623331
 30
0.0
 10
180.8944325762051
 20
6.302250392997547
 30
0.0
 10
180.767401897667
 20
5.656484210255194
 30
0.0
 10
180.7355337700558
 20
5.330038112055369
 30
0.0
 10
180.7355340037051
 20
5.000003841017633
 30
0.0
  0
LINE
  5
AB
330
1F
100
AcDbEntity
  8
0
  6
SLD-Сплошная
 62
     7
370
    35
100
AcDbLine
 10
180.7385437278
 20
5.0000002476
 30
0.0
 11
180.7385437278
 21
-4.9999992524
 31
0.0
  0
SPLINE
  5
AC
330
1F
100
AcDbEntity
  8
0
  6
SLD-Сплошная
 62
     7
370
    35
100
AcDbSpline
210
0.0
220
0.0
230
1.0
 70
     8
 71
     3
 72
    24
 73
    20
 74
     0
 42
0.000000001
 43
0.00000001
 40
0.0
 40
0.0
 40
0.0
 40
0.0
 40
0.1249999999999987
 40
0.1249999999999987
 40
0.1874999999999985
 40
0.1874999999999985
 40
0.2499999999999984
 40
0.2499999999999984
 40
0.3749999999999984
 40
0.3749999999999984
 40
0.4999999999999988
 40
0.4999999999999988
 40
0.6249999999999991
 40
0.6249999999999991
 40
0.7499999999999994
 40
0.7499999999999994
 40
0.8749999999999998
 40
0.8749999999999998
 40
1.0
 40
1.0
 40
1.0
 40
1.0
 10
180.7355340037095
 20
-4.999999609596021
 30
0.0
 10
180.7355335271905
 20
-5.330034093110156
 30
0.0
 10
180.767397624906
 20
-5.654558193288103
 30
0.0
 10
180.861038525387
 20
-6.133416937352884
 30
0.0
 10
180.8999497391086
 20
-6.291705475681034
 30
0.0
 10
180.9935186448217
 20
-6.605559961428935
 30
0.0
 10
181.0484436887797
 20
-6.761562277123603
 30
0.0
 10
181.233518334307
 20
-7.215380894913097
 30
0.0
 10
181.3845320928027
 20
-7.50238254683094
 30
0.0
 10
181.7413315996114
 20
-8.04558387979912
 30
0.0
 10
181.9490414168296
 20
-8.302829389938445
 30
0.0
 10
182.4028431199264
 20
-8.764010690350386
 30
0.0
 10
182.6504718433155
 20
-8.970988968543226
 30
0.0
 10
183.1881773369864
 20
-9.336616781637746
 30
0.0
 10
183.4746528567298
 20
-9.492129616643401
 30
0.0
 10
184.0668485132442
 20
-9.741892187120126
 30
0.0
 10
184.3765162600592
 20
-9.838026755986437
 30
0.0
 10
185.0130569638293
 20
-9.967323564800939
 30
0.0
 10
185.3348927736434
 20
-9.999840224483012
 30
0.0
 10
185.6603214651773
 20
-9.999998761962152
 30
0.0
  0
LWPOLYLINE
  5
AD
330
1F
100
AcDbEntity
  8
0
  6
SLD-Сплошная
 62
     7
370
    35
100
AcDbPolyline
 90
       18
 70
   128
 43
0.0
 10
185.6603214013
 20
-9.9999997524
 10
199.0076474126
 20
-9.9999997524
 10
212.3940777267
 20
-9.9999997524
 10
225.8144291093
 20
-9.9999997524
 10
239.2635051919
 20
-9.9999997524
 10
252.7360984838
 20
-9.9999997524
 10
266.2269923882
 20
-9.9999997524
 10
279.7309632225
 20
-9.9999997524
 10
293.2427822407
 20
-9.9999997524
 10
306.7572176578
 20
-9.9999997524
 10
320.269036676
 20
-9.9999997524
 10
333.7730075104
 20
-9.9999997524
 10
347.2639014149
 20
-9.9999997524
 10
360.7364947069
 20
-9.9999997524
 10
374.1855707897
 20
-9.9999997524
 10
387.6059221726
 20
-9.9999997524
 10
400.992352487
 20
-9.9999997524
 10
414.3396785402
 20
-9.999998762
  0
SPLINE
  5
AE
330
1F
100
AcDbEntity
  8
0
  6
SLD-Сплошная
 62
     7
370
    35
100
AcDbSpline
210
0.0
220
0.0
230
1.0
 70
     8
 71
     3
 72
    24
 73
    20
 74
     0
 42
0.000000001
 43
0.00000001
 40
0.0
 40
0.0
 40
0.0
 40
0.0
 40
0.1249999999999919
 40
0.1249999999999919
 40
0.1874999999999904
 40
0.1874999999999904
 40
0.249999999999989
 40
0.249999999999989
 40
0.374999999999991
 40
0.374999999999991
 40
0.499999999999993
 40
0.499999999999993
 40
0.624999999999995
 40
0.624999999999995
 40
0.7499999999999967
 40
0.7499999999999967
 40
0.8749999999999983
 40
0.8749999999999983
 40
1.0
 40
1.0
 40
1.0
 40
1.0
 10
414.3396783579758
 20
-9.999999008796216
 30
0.0
 10
414.6651070059601
 20
-9.999840480382684
 30
0.0
 10
414.9850473273287
 20
-9.967328408209756
 30
0.0
 10
415.4570649244733
 20
-9.87201562138857
 30
0.0
 10
415.6130789735184
 20
-9.832429592828802
 30
0.0
 10
415.9223978818302
 20
-9.73727197380135
 30
0.0
 10
416.0761323961889
 20
-9.681428797213199
 30
0.0
 10
416.5233165167131
 20
-9.493300021344567
 30
0.0
 10
416.8060725480972
 20
-9.339839785703608
 30
0.0
 10
417.3411529511649
 20
-8.977352960866378
 30
0.0
 10
417.5945054676057
 20
-8.766373623448871
 30
0.0
 10
418.0486318908458
 20
-8.305521897801745
 30
0.0
 10
418.2524034766083
 20
-8.054087231808696
 30
0.0
 10
418.6122971261874
 20
-7.508217563287858
 30
0.0
 10
418.7653299104938
 20
-7.217441951217181
 30
0.0
 10
419.0110384374962
 20
-6.616459858796575
 30
0.0
 10
419.1055682425524
 20
-6.302246843349205
 30
0.0
 10
419.2325985547178
 20
-5.65648030758677
 30
0.0
 10
419.2644664727766
 20
-5.330034041406043
 30
0.0
 10
419.2644659962984
 20
-4.99999961022121
 30
0.0
  0
LINE
  5
AF
330
1F
100
AcDbEntity
  8
0
  6
SLD-Сплошная
 62
     7
370
    35
100
AcDbLine
 10
419.2614562722
 20
5.0000002476
 30
0.0
 11
419.2614562722
 21
-4.9999991456
 31
0.0
  0
LINE
  5
B0
330
1F
100
AcDbEntity
  8
0
  6
SLD-Сплошная
 62
     7
370
    35
100
AcDbLine
 10
304.9945052608
 20
3.5000002714
 30
0.0
 11
295.0054981765
 21
3.5000002719
 31
0.0
  0
SPLINE
  5
B1
330
1F
100
AcDbEntity
  8
0
  6
SLD-Сплошная
 62
     7
370
    35
100
AcDbSpline
210
0.0
220
0.0
230
1.0
 70
     8
 71
     3
 72
    38
 73
    34
 74
     0
 42
0.000000001
 43
0.00000001
 40
0.0
 40
0.0
 40
0.0
 40
0.0
 40
0.0625
 40
0.0625
 40
0.125
 40
0.125
 40
0.1874999999999999
 40
0.1874999999999999
 40
0.2499999999999999
 40
0.2499999999999999
 40
0.3124999999999999
 40
0.3124999999999999
 40
0.3749999999999999
 40
0.3749999999999999
 40
0.4374999999999998
 40
0.4374999999999998
 40
0.4999999999999997
 40
0.4999999999999997
 40
0.5624999999999997
 40
0.5624999999999997
 40
0.6249999999999997
 40
0.6249999999999997
 40
0.6874999999999997
 40
0.6874999999999997
 40
0.7499999999999998
 40
0.7499999999999998
 40
0.8124999999999998
 40
0.8124999999999998
 40
0.8749999999999999
 40
0.8749999999999999
 40
0.9375
 40
0.9375
 40
1.0
 40
1.0
 40
1.0
 40
1.0
 10
304.9945017090175
 20
-3.499999800865799
 30
0.0
 10
305.2256809412615
 20
-3.499967502479834
 30
0.0
 10
305.4529936135159
 20
-3.477255087204941
 30
0.0
 10
305.9002022214936
 20
-3.388325223708457
 30
0.0
 10
306.1224124364136
 20
-3.321030230293032
 30
0.0
 10
306.5461683269779
 20
-3.145354491141256
 30
0.0
 10
306.7471482947073
 20
-3.037858987835463
 30
0.0
 10
307.1275091522902
 20
-2.783906870009724
 30
0.0
 10
307.3076016044857
 20
-2.636095321117672
 30
0.0
 10
307.6304040996483
 20
-2.313218651161467
 30
0.0
 10
307.7752539282682
 20
-2.137049796550853
 30
0.0
 10
308.0310645272613
 20
-1.754550671492305
 30
0.0
 10
308.1397874684093
 20
-1.550859132458247
 30
0.0
 10
308.3143290508581
 20
-1.129796527386316
 30
0.0
 10
308.3815039615166
 20
-0.9093328599120427
 30
0.0
 10
308.4714393375881
 20
-0.4576226327440088
 30
0.0
 10
308.4936955121541
 20
-0.2305738922198035
 30
0.0
 10
308.4940037450205
 20
0.2258467899717431
 30
0.0
 10
308.4713389322768
 20
0.4576415012797695
 30
0.0
 10
308.3821688662036
 20
0.9064766589175667
 30
0.0
 10
308.316174415425
 20
1.12462445532721
 30
0.0
 10
308.1411364399156
 20
1.548313189196311
 30
0.0
 10
308.0316240204048
 20
1.753314477470457
 30
0.0
 10
307.7784595728179
 20
2.132651281138012
 30
0.0
 10
307.6339364868826
 20
2.309450400622299
 30
0.0
 10
307.3076175862998
 20
2.636312831163209
 30
0.0
 10
307.1305284206468
 20
2.781531084408291
 30
0.0
 10
306.7517052201542
 20
3.03517030067283
 30
0.0
 10
306.5473464418806
 20
3.144785580113025
 30
0.0
 10
306.1233366853199
 20
3.32072815791529
 30
0.0
 10
305.9052398938035
 20
3.387013243455355
 30
0.0
 10
305.4570164160412
 20
3.476760116206797
 30
0.0
 10
305.2256879306557
 20
3.499967535066475
 30
0.0
 10
304.9945086981704
 20
3.500000295118704
 30
0.0
  0
LINE
  5
B2
330
1F
100
AcDbEntity
  8
0
  6
SLD-Сплошная
 62
     7
370
    35
100
AcDbLine
 10
295.0054947392
 20
-3.4999997761
 30
0.0
 11
304.9945016518
 21
-3.4999997766
 31
0.0
  0
SPLINE
  5
B3
330
1F
100
AcDbEntity
  8
0
  6
SLD-Сплошная
 62
     7
370
    35
100
AcDbSpline
210
0.0
220
0.0
230
1.0
 70
     8
 71
     3
 72
    38
 73
    34
 74
     0
 42
0.000000001
 43
0.00000001
 40
0.0
 40
0.0
 40
0.0
 40
0.0
 40
0.0625
 40
0.0625
 40
0.1250000000000001
 40
0.1250000000000001
 40
0.1875000000000001
 40
0.1875000000000001
 40
0.2500000000000002
 40
0.2500000000000002
 40
0.3125000000000002
 40
0.3125000000000002
 40
0.3750000000000002
 40
0.3750000000000002
 40
0.4375000000000003
 40
0.4375000000000003
 40
0.5000000000000003
 40
0.5000000000000003
 40
0.5625000000000003
 40
0.5625000000000003
 40
0.6250000000000004
 40
0.6250000000000004
 40
0.6875000000000004
 40
0.6875000000000004
 40
0.7500000000000003
 40
0.7500000000000003
 40
0.8125000000000003
 40
0.8125000000000003
 40
0.8750000000000002
 40
0.8750000000000002
 40
0.9375000000000002
 40
0.9375000000000002
 40
1.0
 40
1.0
 40
1.0
 40
1.0
 10
295.0054981765265
 20
3.500000296086151
 30
0.0
 10
294.774318946761
 20
3.499967990139689
 30
0.0
 10
294.5470062736085
 20
3.477255567379822
 30
0.0
 10
294.0997976732604
 20
3.388325690628661
 30
0.0
 10
293.877587462895
 20
3.321030691147806
 30
0.0
 10
293.4538315819359
 20
3.145354941248102
 30
0.0
 10
293.2528516194317
 20
3.037859433321713
 30
0.0
 10
292.8724907730876
 20
2.783907307837999
 30
0.0
 10
292.6923983266906
 20
2.636095755734789
 30
0.0
 10
292.3695958430787
 20
2.313219080876709
 30
0.0
 10
292.2247460203862
 20
2.137050224649974
 30
0.0
 10
291.9689354333837
 20
1.754551098224341
 30
0.0
 10
291.8602124976229
 20
1.550859558414103
 30
0.0
 10
291.6856709260095
 20
1.12979695411977
 30
0.0
 10
291.6184960207549
 20
0.9093332885611876
 30
0.0
 10
291.5285606540845
 20
0.4576230636247735
 30
0.0
 10
291.5063044839089
 20
0.2305743249775727
 30
0.0
 10
291.5059962588504
 20
-0.2258463519590021
 30
0.0
 10
291.528661074983
 20
-0.457641060110799
 30
0.0
 10
291.6178311469548
 20
-0.9064762123138637
 30
0.0
 10
291.6838256001251
 20
-1.124624005409137
 30
0.0
 10
291.8588635788172
 20
-1.548312731589532
 30
0.0
 10
291.9683759998513
 20
-1.753314017022746
 30
0.0
 10
292.2215404490198
 20
-2.132650814163558
 30
0.0
 10
292.3660635349873
 20
-2.309449930040032
 30
0.0
 10
292.6923824335308
 20
-2.636312353027955
 30
0.0
 10
292.869471599989
 20
-2.781530604807766
 30
0.0
 10
293.2482947978993
 20
-3.035169815695114
 30
0.0
 10
293.452653573387
 20
-3.144785092292389
 30
0.0
 10
293.8766633276144
 20
-3.320727666959431
 30
0.0
 10
294.0947601171873
 20
-3.387012750973114
 30
0.0
 10
294.5429835893223
 20
-3.476759621487947
 30
0.0
 10
294.7743120718297
 20
-3.499967039830538
 30
0.0
 10
295.0054913018378
 20
-3.499999799882358
 30
0.0
  0
SPLINE
  5
B4
330
1F
100
AcDbEntity
  8
0
  6
SLD-Сплошная
 62
     7
370
    35
100
AcDbSpline
210
0.0
220
0.0
230
1.0
 70
     8
 71
     3
 72
    38
 73
    34
 74
     0
 42
0.000000001
 43
0.00000001
 40
0.0
 40
0.0
 40
0.0
 40
0.0
 40
0.0625
 40
0.0625
 40
0.125
 40
0.125
 40
0.1875000000000001
 40
0.1875000000000001
 40
0.2500000000000001
 40
0.2500000000000001
 40
0.3125000000000001
 40
0.3125000000000001
 40
0.375
 40
0.375
 40
0.4375
 40
0.4375
 40
0.4999999999999999
 40
0.4999999999999999
 40
0.5624999999999999
 40
0.5624999999999999
 40
0.6249999999999999
 40
0.6249999999999999
 40
0.6874999999999999
 40
0.6874999999999999
 40
0.7499999999999999
 40
0.7499999999999999
 40
0.8125
 40
0.8125
 40
0.875
 40
0.875
 40
0.9375
 40
0.9375
 40
1.0
 40
1.0
 40
1.0
 40
1.0
 10
270.0422330431184
 20
3.500000296102145
 30
0.0
 10
269.8112675915486
 20
3.499967997696134
 30
0.0
 10
269.5841693673011
 20
3.477255554495002
 30
0.0
 10
269.1373904678255
 20
3.388325581180967
 30
0.0
 10
268.9153978389269
 20
3.321030502047751
 30
0.0
 10
268.4920639213596
 20
3.145354555157785
 30
0.0
 10
268.2912876494707
 20
3.03785892542558
 30
0.0
 10
267.9113177272171
 20
2.783906503264001
 30
0.0
 10
267.731413341926
 20
2.636094787251562
 30
0.0
 10
267.4089518063913
 20
2.313217768931898
 30
0.0
 10
267.2642570418997
 20
2.137048723305075
 30
0.0
 10
267.0087226030074
 20
1.754549171503546
 30
0.0
 10
266.9001183812018
 20
1.55085746772306
 30
0.0
 10
266.7257683796938
 20
1.12979447499526
 30
0.0
 10
266.6586678216818
 20
0.9093305599361413
 30
0.0
 10
266.5688323507124
 20
0.4576200312372516
 30
0.0
 10
266.5466011252012
 20
0.2305711389192228
 30
0.0
 10
266.5462936775667
 20
-0.2258498500807533
 30
0.0
 10
266.5689335379469
 20
-0.4576447010020278
 30
0.0
 10
266.6580054255554
 20
-0.9064799958764111
 30
0.0
 10
266.7239272265545
 20
-1.124627855033195
 30
0.0
 10
266.8987739082863
 20
-1.548316693948255
 30
0.0
 10
267.0081671559588
 20
-1.753317929685106
 30
0.0
 10
267.2610589796546
 20
-2.132654613782767
 30
0.0
 10
267.4054276478931
 20
-2.309453659529737
 30
0.0
 10
267.7314025723241
 20
-2.636315890606529
 30
0.0
 10
267.9083070008912
 20
-2.781533877069788
 30
0.0
 10
268.2867412639002
 20
-3.035172661673491
 30
0.0
 10
268.490893171659
 20
-3.144787705965694
 30
0.0
 10
268.9144809473535
 20
-3.320729631450958
 30
0.0
 10
269.1323642495843
 20
-3.387014377420094
 30
0.0
 10
269.5801571717835
 20
-3.476760500246375
 30
0.0
 10
269.8112674768695
 20
-3.49996749488282
 30
0.0
 10
270.0422329287597
 20
-3.499999800849808
 30
0.0
  0
LINE
  5
B5
330
1F
100
AcDbEntity
  8
0
  6
SLD-Сплошная
 62
     7
370
    35
100
AcDbLine
 10
280.0246373873
 20
3.5000002714
 30
0.0
 11
270.0422331003
 21
3.5000002719
 31
0.0
  0
SPLINE
  5
B6
330
1F
100
AcDbEntity
  8
0
  6
SLD-Сплошная
 62
     7
370
    35
100
AcDbSpline
210
0.0
220
0.0
230
1.0
 70
     8
 71
     3
 72
    38
 73
    34
 74
     0
 42
0.000000001
 43
0.00000001
 40
0.0
 40
0.0
 40
0.0
 40
0.0
 40
0.0625
 40
0.0625
 40
0.125
 40
0.125
 40
0.1875
 40
0.1875
 40
0.25
 40
0.25
 40
0.3125
 40
0.3125
 40
0.375
 40
0.375
 40
0.4375
 40
0.4375
 40
0.5
 40
0.5
 40
0.5625
 40
0.5625
 40
0.625
 40
0.625
 40
0.6875
 40
0.6875
 40
0.75
 40
0.75
 40
0.8125
 40
0.8125
 40
0.875
 40
0.875
 40
0.9375
 40
0.9375
 40
1.0
 40
1.0
 40
1.0
 40
1.0
 10
280.0246338369868
 20
-3.499999800865798
 30
0.0
 10
280.2557213790647
 20
-3.499967502479815
 30
0.0
 10
280.4829481352469
 20
-3.477255087265447
 30
0.0
 10
280.9299955191547
 20
-3.388325224007082
 30
0.0
 10
281.1521296969845
 20
-3.321030230777556
 30
0.0
 10
281.5757475721989
 20
-3.145354492076336
 30
0.0
 10
281.7766656360195
 20
-3.037858989044758
 30
0.0
 10
282.1569147544985
 20
-2.783906871879143
 30
0.0
 10
282.3369572402564
 20
-2.636095323349595
 30
0.0
 10
282.6596739913517
 20
-2.313218654149043
 30
0.0
 10
282.8044873940201
 20
-2.137049799952781
 30
0.0
 10
283.0602359234953
 20
-1.754550675819941
 30
0.0
 10
283.1689337649829
 20
-1.550859137143255
 30
0.0
 10
283.3434359902784
 20
-1.129796532912259
 30
0.0
 10
283.4105963317497
 20
-0.9093328659750765
 30
0.0
 10
283.5005123784244
 20
-0.4576226394611583
 30
0.0
 10
283.522763889429
 20
-0.2305738992662481
 30
0.0
 10
283.5230720581069
 20
0.2258467822597091
 30
0.0
 10
283.5004119972995
 20
0.4576414932648507
 30
0.0
 10
283.4112610967118
 20
0.9064766506049042
 30
0.0
 10
283.3452809509337
 20
1.124624446878407
 30
0.0
 10
283.1702824315462
 20
1.548313180519576
 30
0.0
 10
283.0607953010391
 20
1.753314468907666
 30
0.0
 10
282.8076922572096
 20
2.132651272834547
 30
0.0
 10
282.6632054654381
 20
2.309450392478761
 30
0.0
 10
282.3369732138949
 20
2.636312823452303
 30
0.0
 10
282.1599331859681
 20
2.78153107727609
 30
0.0
 10
281.7812211979617
 20
3.035170294476973
 30
0.0
 10
281.5769253286368
 20
3.144785574427241
 30
0.0
 10
281.1530536470961
 20
3.320728153644527
 30
0.0
 10
280.9350314438485
 20
3.3870132399212
 30
0.0
 10
280.4869694490489
 20
3.476760114299407
 30
0.0
 10
280.2557283806756
 20
3.499967534079516
 30
0.0
 10
280.0246408382711
 20
3.500000295116591
 30
0.0
  0
LINE
  5
B7
330
1F
100
AcDbEntity
  8
0
  6
SLD-Сплошная
 62
     7
370
    35
100
AcDbLine
 10
270.0422329288
 20
-3.4999997766
 30
0.0
 11
280.0246337798
 21
-3.4999997766
 31
0.0
  0
LINE
  5
B8
330
1F
100
AcDbEntity
  8
0
  6
SLD-Сплошная
 62
     7
370
    35
100
AcDbLine
 10
180.4810805367
 20
-4.9999997568
 30
0.0
 11
180.735531891
 21
-4.999999748
 31
0.0
  0
SPLINE
  5
B9
330
1F
100
AcDbEntity
  8
0
  6
SLD-Сплошная
 62
     7
370
    35
100
AcDbSpline
210
0.0
220
0.0
230
1.0
 70
     8
 71
     3
 72
    24
 73
    20
 74
     0
 42
0.000000001
 43
0.00000001
 40
0.0
 40
0.0
 40
0.0
 40
0.0
 40
0.1249999999999991
 40
0.1249999999999991
 40
0.1874999999999982
 40
0.1874999999999982
 40
0.2499999999999973
 40
0.2499999999999973
 40
0.3749999999999977
 40
0.3749999999999977
 40
0.4999999999999982
 40
0.4999999999999982
 40
0.6249999999999987
 40
0.6249999999999987
 40
0.7499999999999991
 40
0.7499999999999991
 40
0.8749999999999997
 40
0.8749999999999997
 40
1.0
 40
1.0
 40
1.0
 40
1.0
 10
180.4810784282323
 20
-4.999999618463361
 30
0.0
 10
180.4810779519971
 20
-5.330236520657923
 30
0.0
 10
180.5129808256597
 20
-5.654956342724555
 30
0.0
 10
180.6067361270246
 20
-6.134098957180567
 30
0.0
 10
180.6456949807017
 20
-6.292480477163276
 30
0.0
 10
180.7393795352404
 20
-6.606517408230902
 30
0.0
 10
180.7943706642807
 20
-6.762602054289672
 30
0.0
 10
180.9796617865222
 20
-7.216641226798337
 30
0.0
 10
181.1308512117956
 20
-7.50377229870004
 30
0.0
 10
181.4880735741255
 20
-8.04719227527234
 30
0.0
 10
181.6960157528535
 20
-8.304501722735425
 30
0.0
 10
182.1503016198571
 20
-8.765731781404389
 30
0.0
 10
182.3981958144916
 20
-8.972707794171974
 30
0.0
 10
182.9364943354014
 20
-9.338260342236541
 30
0.0
 10
183.2231993206994
 20
-9.493646820690016
 30
0.0
 10
183.8159338551208
 20
-9.743129962334745
 30
0.0
 10
184.1259390604087
 20
-9.839097296958144
 30
0.0
 10
184.7629240183059
 20
-9.96791448453148
 30
0.0
 10
185.0849703018612
 20
-10.00015707893828
 30
0.0
 10
185.4105985870232
 20
-9.999998764287717
 30
0.0
  0
LINE
  5
BA
330
1F
100
AcDbEntity
  8
0
  6
SLD-Сплошная
 62
     7
370
    35
100
AcDbLine
 10
185.4105985135
 20
-9.9999992584
 30
0.0
 11
185.6603214013
 21
-9.9999997524
 31
0.0
  0
SPLINE
  5
BB
330
1F
100
AcDbEntity
  8
0
  6
SLD-Сплошная
 62
     7
370
    35
100
AcDbSpline
210
0.0
220
0.0
230
1.0
 70
     8
 71
     3
 72
    24
 73
    20
 74
     0
 42
0.000000001
 43
0.00000001
 40
0.0
 40
0.0
 40
0.0
 40
0.0
 40
0.1249999999999989
 40
0.1249999999999989
 40
0.1874999999999981
 40
0.1874999999999981
 40
0.2499999999999972
 40
0.2499999999999972
 40
0.3749999999999975
 40
0.3749999999999975
 40
0.499999999999998
 40
0.499999999999998
 40
0.6249999999999984
 40
0.6249999999999984
 40
0.749999999999999
 40
0.749999999999999
 40
0.8749999999999994
 40
0.8749999999999994
 40
1.0
 40
1.0
 40
1.0
 40
1.0
 10
419.5189215717786
 20
5.000003842588176
 30
0.0
 10
419.5189218054694
 20
5.330240589506002
 30
0.0
 10
419.4870187230301
 20
5.6549602372744
 30
0.0
 10
419.393263157409
 20
6.134102562978101
 30
0.0
 10
419.3543042239078
 20
6.292483982133872
 30
0.0
 10
419.2606195273278
 20
6.606520702309305
 30
0.0
 10
419.2056283342667
 20
6.76260524360392
 30
0.0
 10
419.0203370443734
 20
7.216644106645951
 30
0.0
 10
418.869147542768
 20
7.503774964812902
 30
0.0
 10
418.5119251052351
 20
8.047194503261153
 30
0.0
 10
418.3039829154217
 20
8.304503744380513
 30
0.0
 10
417.849697080479
 20
8.765733421856803
 30
0.0
 10
417.6018029371726
 20
8.972709248782994
 30
0.0
 10
417.0635046021465
 20
9.338261447337361
 30
0.0
 10
416.7767996782018
 20
9.493647805948083
 30
0.0
 10
416.1840653734226
 20
9.74313071362693
 30
0.0
 10
415.8740603559639
 20
9.839097942244171
 30
0.0
 10
415.2370756439587
 20
9.967915016047565
 30
0.0
 10
414.9150293458686
 20
10.00015758734449
 30
0.0
 10
414.5894012138066
 20
9.999999259427188
 30
0.0
  0
LINE
  5
BC
330
1F
100
AcDbEntity
  8
0
  6
SLD-Сплошная
 62
     7
370
    35
100
AcDbLine
 10
414.3396782996
 20
9.9999997524
 30
0.0
 11
414.4662201637
 21
9.9999995026
 31
0.0
  0
SPLINE
  5
BD
330
1F
100
AcDbEntity
  8
0
  6
SLD-Сплошная
 62
     7
370
    35
100
AcDbSpline
210
0.0
220
0.0
230
1.0
 70
     8
 71
     3
 72
    24
 73
    20
 74
     0
 42
0.000000001
 43
0.00000001
 40
0.0
 40
0.0
 40
0.0
 40
0.0
 40
0.1249999999999956
 40
0.1249999999999956
 40
0.1874999999999959
 40
0.1874999999999959
 40
0.2499999999999962
 40
0.2499999999999962
 40
0.3749999999999968
 40
0.3749999999999968
 40
0.4999999999999974
 40
0.4999999999999974
 40
0.624999999999998
 40
0.624999999999998
 40
0.7499999999999987
 40
0.7499999999999987
 40
0.8749999999999992
 40
0.8749999999999992
 40
1.0
 40
1.0
 40
1.0
 40
1.0
 10
185.4105984585134
 20
9.999999588911876
 30
0.0
 10
185.0849703680508
 20
10.00015789859182
 30
0.0
 10
184.7648067753207
 20
9.967918017174926
 30
0.0
 10
184.292419368515
 20
9.872949026281479
 30
0.0
 10
184.1362762628416
 20
9.833466685138399
 30
0.0
 10
183.8266875671275
 20
9.738493185550116
 30
0.0
 10
183.6728190919009
 20
9.682732808712458
 30
0.0
 10
183.225239614079
 20
9.494820343409602
 30
0.0
 10
182.9422108111198
 20
9.341457624974462
 30
0.0
 10
182.4065718697058
 20
8.979063779499558
 30
0.0
 10
182.1529566434527
 20
8.768095941509548
 30
0.0
 10
181.6983459204265
 20
8.307196326182831
 30
0.0
 10
181.4943385556762
 20
8.05569134156157
 30
0.0
 10
181.1340023378187
 20
7.509571704381076
 30
0.0
 10
180.9808187851741
 20
7.218712866695588
 30
0.0
 10
180.7348166584001
 20
6.617424413442871
 30
0.0
 10
180.6401541712031
 20
6.302961686719537
 30
0.0
 10
180.5129851060903
 20
5.656868951123565
 30
0.0
 10
180.481078194538
 20
5.330240533431044
 30
0.0
 10
180.4810784282286
 20
5.000003842588185
 30
0.0
  0
LINE
  5
BE
330
1F
100
AcDbEntity
  8
0
  6
SLD-Сплошная
 62
     7
370
    35
100
AcDbLine
 10
185.6603214018
 20
9.9999997524
 30
0.0
 11
185.4105985135
 21
10.0000002476
 31
0.0
  0
LINE
  5
BF
330
1F
100
AcDbEntity
  8
0
  6
SLD-Сплошная
 62
     7
370
    35
100
AcDbLine
 10
419.5219285387
 20
-4.9999997524
 30
0.0
 11
419.2614562722
 21
-4.9999997524
 31
0.0
  0
LINE
  5
C0
330
1F
100
AcDbEntity
  8
0
  6
SLD-Сплошная
 62
     7
370
    35
100
AcDbLine
 10
414.4662199909
 20
-9.9999990135
 30
0.0
 11
414.3396785402
 21
-9.999998762
 31
0.0
  0
SPLINE
  5
C1
330
1F
100
AcDbEntity
  8
0
  6
SLD-Сплошная
 62
     7
370
    35
100
AcDbSpline
210
0.0
220
0.0
230
1.0
 70
     8
 71
     3
 72
    24
 73
    20
 74
     0
 42
0.000000001
 43
0.00000001
 40
0.0
 40
0.0
 40
0.0
 40
0.0
 40
0.1249999999999992
 40
0.1249999999999992
 40
0.1875000000000012
 40
0.1875000000000012
 40
0.2500000000000033
 40
0.2500000000000033
 40
0.3750000000000028
 40
0.3750000000000028
 40
0.5000000000000023
 40
0.5000000000000023
 40
0.6250000000000018
 40
0.6250000000000018
 40
0.7500000000000011
 40
0.7500000000000011
 40
0.8750000000000006
 40
0.8750000000000006
 40
1.0
 40
1.0
 40
1.0
 40
1.0
 10
414.5894013418474
 20
-9.999999093626938
 30
0.0
 10
414.9150295958214
 20
-10.00015741675955
 30
0.0
 10
415.2351933479038
 20
-9.967917516300266
 30
0.0
 10
415.7075809877433
 20
-9.872948449857564
 30
0.0
 10
415.8637241700753
 20
-9.833466075577016
 30
0.0
 10
416.1733130168943
 20
-9.73849249267374
 30
0.0
 10
416.3271815607841
 20
-9.682732067287183
 30
0.0
 10
416.7747612241453
 20
-9.49481944059018
 30
0.0
 10
417.057790137679
 20
-9.341456587874886
 30
0.0
 10
417.5934292699991
 20
-8.979062413130231
 30
0.0
 10
417.8470445561429
 20
-8.768094392614953
 30
0.0
 10
418.3016553368468
 20
-8.3071943937625
 30
0.0
 10
418.5056627097745
 20
-8.055689196971265
 30
0.0
 10
418.8659988886292
 20
-7.509569081838315
 30
0.0
 10
419.0191823507529
 20
-7.218710060097603
 30
0.0
 10
419.265184276007
 20
-6.617421169204364
 30
0.0
 10
419.3598466406813
 20
-6.302958166239927
 30
0.0
 10
419.4870153445324
 20
-5.656865066924128
 30
0.0
 10
419.5189220479691
 20
-5.330236475743137
 30
0.0
 10
419.5189215717746
 20
-4.999999619088168
 30
0.0
  0
LINE
  5
C2
330
1F
100
AcDbEntity
  8
0
  6
SLD-Сплошная
 62
     7
370
    35
100
AcDbLine
 10
180.4780714613
 20
5.0000002476
 30
0.0
 11
180.4780714613
 21
-4.9999991456
 31
0.0
  0
LINE
  5
C3
330
1F
100
AcDbEntity
  8
0
  6
SLD-Сплошная
 62
     7
370
    35
100
AcDbLine
 10
419.5219285387
 20
5.0000002476
 30
0.0
 11
419.5219285387
 21
-4.9999992524
 31
0.0
  0
SPLINE
  5
C4
330
1F
100
AcDbEntity
  8
0
  6
SLD-Сплошная
 62
     7
370
    35
100
AcDbSpline
210
0.0
220
0.0
230
1.0
 70
     8
 71
     3
 72
    38
 73
    34
 74
     0
 42
0.000000001
 43
0.00000001
 40
0.0
 40
0.0
 40
0.0
 40
0.0
 40
0.0625
 40
0.0625
 40
0.125
 40
0.125
 40
0.1875
 40
0.1875
 40
0.25
 40
0.25
 40
0.3125
 40
0.3125
 40
0.375
 40
0.375
 40
0.4375
 40
0.4375
 40
0.5
 40
0.5
 40
0.5625
 40
0.5625
 40
0.625
 40
0.625
 40
0.6875
 40
0.6875
 40
0.75
 40
0.75
 40
0.8125
 40
0.8125
 40
0.875
 40
0.875
 40
0.9375
 40
0.9375
 40
1.0
 40
1.0
 40
1.0
 40
1.0
 10
205.1986936646543
 20
-3.499999802519539
 30
0.0
 10
205.4277158010345
 20
-3.500031314848699
 30
0.0
 10
205.6529299213829
 20
-3.477373766042414
 30
0.0
 10
206.0960516702492
 20
-3.388536372907652
 30
0.0
 10
206.3162540199131
 20
-3.321278540581298
 30
0.0
 10
206.7362082868509
 20
-3.145661176322982
 30
0.0
 10
206.9354039758236
 20
-3.038185489264811
 30
0.0
 10
207.3124181869564
 20
-2.784252518043823
 30
0.0
 10
207.4909374287501
 20
-2.636443543906661
 30
0.0
 10
207.8109380968419
 20
-2.313557709163512
 30
0.0
 10
207.9545425957254
 20
-2.137374954172605
 30
0.0
 10
208.2081682593276
 20
-1.754826059026153
 30
0.0
 10
208.3159601531216
 20
-1.551118072228708
 30
0.0
 10
208.4890213757313
 20
-1.129994288195753
 30
0.0
 10
208.5556330675456
 20
-0.9094793509796582
 30
0.0
 10
208.6448063614781
 20
-0.4577088839379886
 30
0.0
 10
208.6668762633341
 20
-0.2306234638200929
 30
0.0
 10
208.6671826708012
 20
0.2258836907015897
 30
0.0
 10
208.6447074163304
 20
0.4577239962294837
 30
0.0
 10
208.5562925232086
 20
0.9066224939656108
 30
0.0
 10
208.4908568191982
 20
1.124806214165123
 30
0.0
 10
208.317297727535
 20
1.548572911619099
 30
0.0
 10
208.2087224653568
 20
1.753589551367084
 30
0.0
 10
207.9577302977895
 20
2.132962523032815
 30
0.0
 10
207.8144488455719
 20
2.309780741015624
 30
0.0
 10
207.4909370112192
 20
2.636676985822281
 30
0.0
 10
207.3154213791766
 20
2.781868805805693
 30
0.0
 10
206.9399314668082
 20
3.035490825220329
 30
0.0
 10
206.7373667580383
 20
3.145096116359997
 30
0.0
 10
206.3171818642657
 20
3.32097172949612
 30
0.0
 10
206.1010608958888
 20
3.387221224079971
 30
0.0
 10
205.6569161239399
 20
3.476880252224634
 30
0.0
 10
205.427715884194
 20
3.500031804571409
 30
0.0
 10
205.1986937474888
 20
3.500000297767279
 30
0.0
  0
SPLINE
  5
C5
330
1F
100
AcDbEntity
  8
0
  6
SLD-Сплошная
 62
     7
370
    35
100
AcDbSpline
210
0.0
220
0.0
230
1.0
 70
     8
 71
     3
 72
    38
 73
    34
 74
     0
 42
0.000000001
 43
0.00000001
 40
0.0
 40
0.0
 40
0.0
 40
0.0
 40
0.0625
 40
0.0625
 40
0.125
 40
0.125
 40
0.1875
 40
0.1875
 40
0.25
 40
0.25
 40
0.3125
 40
0.3125
 40
0.375
 40
0.375
 40
0.4375
 40
0.4375
 40
0.5
 40
0.5
 40
0.5625
 40
0.5625
 40
0.625
 40
0.625
 40
0.6875
 40
0.6875
 40
0.75
 40
0.75
 40
0.8125
 40
0.8125
 40
0.875
 40
0.875
 40
0.9375
 40
0.9375
 40
1.0
 40
1.0
 40
1.0
 40
1.0
 10
230.0446413270795
 20
-3.499999802530894
 30
0.0
 10
230.2746698287597
 20
-3.500031309354399
 30
0.0
 10
230.50086926266
 20
-3.477373761205472
 30
0.0
 10
230.9459218949205
 20
-3.388536363859527
 30
0.0
 10
231.1670796620895
 20
-3.32127852980278
 30
0.0
 10
231.5888489932284
 20
-3.145661161881256
 30
0.0
 10
231.7889020344093
 20
-3.038185473291114
 30
0.0
 10
232.1675334828008
 20
-2.784252499936969
 30
0.0
 10
232.3468155377902
 20
-2.636443524722901
 30
0.0
 10
232.6681797234564
 20
-2.31355768819511
 30
0.0
 10
232.8123940533383
 20
-2.137374932766724
 30
0.0
 10
233.0670944860556
 20
-1.754826037966702
 30
0.0
 10
233.1753418713918
 20
-1.551118050198499
 30
0.0
 10
233.3491334458035
 20
-1.129994266434559
 30
0.0
 10
233.416025669002
 20
-0.9094793307734669
 30
0.0
 10
233.5055743340064
 20
-0.4577088636088084
 30
0.0
 10
233.5277370169068
 20
-0.2306234439694565
 30
0.0
 10
233.5280447106352
 20
0.2258837085189766
 30
0.0
 10
233.5054749668293
 20
0.457724012796751
 30
0.0
 10
233.4166878918049
 20
0.9066225093113158
 30
0.0
 10
233.3509766154923
 20
1.124806228401384
 30
0.0
 10
233.1766850817413
 20
1.548572922778781
 30
0.0
 10
233.0676510095696
 20
1.753589562062706
 30
0.0
 10
232.8155952533604
 20
2.132962531813545
 30
0.0
 10
232.6717053910767
 20
2.30978074847219
 30
0.0
 10
232.3468151069729
 20
2.636676990205495
 30
0.0
 10
232.1705494891106
 20
2.78186881055003
 30
0.0
 10
231.7934489518662
 20
3.035490828205547
 30
0.0
 10
231.5900124266362
 20
3.145096118210203
 30
0.0
 10
231.1680114933895
 20
3.320971730721519
 30
0.0
 10
230.9509528567292
 20
3.387221224822855
 30
0.0
 10
230.5048728518262
 20
3.476880252244553
 30
0.0
 10
230.2746698293752
 20
3.500031804571316
 30
0.0
 10
230.0446413273733
 20
3.500000297767283
 30
0.0
  0
SPLINE
  5
C6
330
1F
100
AcDbEntity
  8
0
  6
SLD-Сплошная
 62
     7
370
    35
100
AcDbSpline
210
0.0
220
0.0
230
1.0
 70
     8
 71
     3
 72
    38
 73
    34
 74
     0
 42
0.000000001
 43
0.00000001
 40
0.0
 40
0.0
 40
0.0
 40
0.0
 40
0.0625
 40
0.0625
 40
0.125
 40
0.125
 40
0.1875000000000001
 40
0.1875000000000001
 40
0.2500000000000001
 40
0.2500000000000001
 40
0.3125000000000001
 40
0.3125000000000001
 40
0.375
 40
0.375
 40
0.4375
 40
0.4375
 40
0.4999999999999999
 40
0.4999999999999999
 40
0.5624999999999999
 40
0.5624999999999999
 40
0.6249999999999999
 40
0.6249999999999999
 40
0.6874999999999999
 40
0.6874999999999999
 40
0.7499999999999999
 40
0.7499999999999999
 40
0.8125
 40
0.8125
 40
0.875
 40
0.875
 40
0.9375
 40
0.9375
 40
1.0
 40
1.0
 40
1.0
 40
1.0
 10
254.9830683910433
 20
-3.499999802530893
 30
0.0
 10
255.2137991660731
 20
-3.50003130935441
 30
0.0
 10
255.4406849285363
 20
-3.477373761205494
 30
0.0
 10
255.8870800967629
 20
-3.388536363859566
 30
0.0
 10
256.1089009175736
 20
-3.321278529802826
 30
0.0
 10
256.5319277453186
 20
-3.145661161881314
 30
0.0
 10
256.7325736745275
 20
-3.038185473291171
 30
0.0
 10
257.1123218215146
 20
-2.784252499937029
 30
0.0
 10
257.2921296843631
 20
-2.636443524722963
 30
0.0
 10
257.6144325544635
 20
-2.313557688195172
 30
0.0
 10
257.7590660690834
 20
-2.137374932766788
 30
0.0
 10
258.0145045666401
 20
-1.754826037966759
 30
0.0
 10
258.1230643440466
 20
-1.551118050198548
 30
0.0
 10
258.2973565249486
 20
-1.129994266434599
 30
0.0
 10
258.3644408513703
 20
-0.9094793307734974
 30
0.0
 10
258.4542465087562
 20
-0.4577088636088297
 30
0.0
 10
258.476472675517
 20
-0.230623443969471
 30
0.0
 10
258.4767812511784
 20
0.2258837085189771
 30
0.0
 10
258.4541468557376
 20
0.4577240127967538
 30
0.0
 10
258.365104975329
 20
0.9066225093113298
 30
0.0
 10
258.2992049963806
 20
1.124806228401408
 30
0.0
 10
258.1244114308819
 20
1.548572922778817
 30
0.0
 10
258.0150626900538
 20
1.753589562062748
 30
0.0
 10
257.7622765580585
 20
2.132962531813594
 30
0.0
 10
257.617968504909
 20
2.309780748472236
 30
0.0
 10
257.2921292675477
 20
2.636676990205549
 30
0.0
 10
257.1153466843396
 20
2.781868810550082
 30
0.0
 10
256.7371340400511
 20
3.035490828205597
 30
0.0
 10
256.5330946355986
 20
3.145096118210249
 30
0.0
 10
256.1098355389313
 20
3.320971730721556
 30
0.0
 10
255.8921261802806
 20
3.387221224822885
 30
0.0
 10
255.4447006483267
 20
3.476880252244571
 30
0.0
 10
255.2137991666906
 20
3.500031804571325
 30
0.0
 10
254.9830683913382
 20
3.500000297767281
 30
0.0
  0
SPLINE
  5
C7
330
1F
100
AcDbEntity
  8
0
  6
SLD-Сплошная
 62
     7
370
    35
100
AcDbSpline
210
0.0
220
0.0
230
1.0
 70
     8
 71
     3
 72
    38
 73
    34
 74
     0
 42
0.000000001
 43
0.00000001
 40
0.0
 40
0.0
 40
0.0
 40
0.0
 40
0.0625000000000001
 40
0.0625000000000001
 40
0.1250000000000001
 40
0.1250000000000001
 40
0.1875000000000002
 40
0.1875000000000002
 40
0.2500000000000003
 40
0.2500000000000003
 40
0.3125000000000003
 40
0.3125000000000003
 40
0.3750000000000003
 40
0.3750000000000003
 40
0.4375000000000004
 40
0.4375000000000004
 40
0.5000000000000003
 40
0.5000000000000003
 40
0.5625000000000004
 40
0.5625000000000004
 40
0.6250000000000003
 40
0.6250000000000003
 40
0.6875000000000003
 40
0.6875000000000003
 40
0.7500000000000002
 40
0.7500000000000002
 40
0.8125000000000002
 40
0.8125000000000002
 40
0.8750000000000002
 40
0.8750000000000002
 40
0.9375000000000001
 40
0.9375000000000001
 40
1.0
 40
1.0
 40
1.0
 40
1.0
 10
279.9810067586063
 20
-3.499999802515258
 30
0.0
 10
280.2121346432154
 20
-3.500031316898099
 30
0.0
 10
280.4394067152364
 20
-3.477373796507208
 30
0.0
 10
280.8865540295388
 20
-3.388536515599083
 30
0.0
 10
281.1087445297724
 20
-3.321278770121467
 30
0.0
 10
281.5324694166225
 20
-3.145661615906821
 30
0.0
 10
281.7334428948109
 20
-3.03818605634449
 30
0.0
 10
282.1138055721529
 20
-2.784253391361094
 30
0.0
 10
282.2939014981138
 20
-2.636444585249149
 30
0.0
 10
282.6167169459482
 20
-2.313559100573806
 30
0.0
 10
282.7615784476159
 20
-2.137376537310502
 30
0.0
 10
283.0174173859062
 20
-1.754828069990497
 30
0.0
 10
283.1261461338576
 20
-1.551120248543741
 30
0.0
 10
283.3007087148888
 20
-1.129996853005299
 30
0.0
 10
283.367896582139
 20
-0.9094821632146424
 30
0.0
 10
283.457840858703
 20
-0.457711998328688
 30
0.0
 10
283.4801013204374
 20
-0.2306267301204918
 30
0.0
 10
283.4804108182515
 20
0.225880117741466
 30
0.0
 10
283.4577419543925
 20
0.4577202842298023
 30
0.0
 10
283.3685635228959
 20
0.9066186450852363
 30
0.0
 10
283.3025622509177
 20
1.124802302910014
 30
0.0
 10
283.1274983783136
 20
1.548568896425039
 30
0.0
 10
283.0179798401368
 20
1.753585589620922
 30
0.0
 10
282.76479816491
 20
2.132958682106899
 30
0.0
 10
282.6202630393589
 20
2.309776974622897
 30
0.0
 10
282.2939063647736
 20
2.636673420794582
 30
0.0
 10
282.1168407543664
 20
2.781865508646054
 30
0.0
 10
281.7380166401743
 20
3.035487961652481
 30
0.0
 10
281.5336444697328
 20
3.145093489510576
 30
0.0
 10
281.1096872270531
 20
3.320969756866956
 30
0.0
 10
280.8916151955723
 20
3.387219592094083
 30
0.0
 10
280.4434361259817
 20
3.476879372472208
 30
0.0
 10
280.212141645505
 20
3.500031350313953
 30
0.0
 10
279.9810137604417
 20
3.500000298699303
 30
0.0
  0
SPLINE
  5
C8
330
1F
100
AcDbEntity
  8
0
  6
SLD-Сплошная
 62
     7
370
    35
100
AcDbSpline
210
0.0
220
0.0
230
1.0
 70
     8
 71
     3
 72
    24
 73
    20
 74
     0
 42
0.000000001
 43
0.00000001
 40
0.0
 40
0.0
 40
0.0
 40
0.0
 40
0.1249999999999989
 40
0.1249999999999989
 40
0.1874999999999981
 40
0.1874999999999981
 40
0.2499999999999972
 40
0.2499999999999972
 40
0.3749999999999975
 40
0.3749999999999975
 40
0.499999999999998
 40
0.499999999999998
 40
0.6249999999999984
 40
0.6249999999999984
 40
0.749999999999999
 40
0.749999999999999
 40
0.8749999999999994
 40
0.8749999999999994
 40
1.0
 40
1.0
 40
1.0
 40
1.0
 10
-4.34807546487497
 20
-419.5189215717786
 30
0.0
 10
-4.348075506079891
 20
-419.5189218054694
 30
0.0
 10
-4.34244808074943
 20
-419.4870187230301
 30
0.0
 10
-4.325930337044584
 20
-419.393263157409
 30
0.0
 10
-4.319068678942151
 20
-419.3543042239079
 30
0.0
 10
-4.302580099751027
 20
-419.2606195273278
 30
0.0
 10
-4.292906592202207
 20
-419.2056283342667
 30
0.0
 10
-4.260341281415197
 20
-419.0203370443734
 30
0.0
 10
-4.233802557006621
 20
-418.869147542768
 30
0.0
 10
-4.171266222369855
 20
-418.5119251052352
 30
0.0
 10
-4.134937658244674
 20
-418.3039829154217
 30
0.0
 10
-4.055832848941522
 20
-417.849697080479
 30
0.0
 10
-4.012783442309466
 20
-417.6018029371726
 30
0.0
 10
-3.91965803536447
 20
-417.0635046021465
 30
0.0
 10
-3.870226105789881
 20
-416.7767996782019
 30
0.0
 10
-3.768450136641122
 20
-416.1840653734226
 30
0.0
 10
-3.715422482849793
 20
-415.8740603559639
 30
0.0
 10
-3.606942188476656
 20
-415.2370756439587
 30
0.0
 10
-3.552327501631963
 20
-414.9150293458686
 30
0.0
 10
-3.497349052090745
 20
-414.5894012138067
 30
0.0
  0
LINE
  5
C9
330
1F
100
AcDbEntity
  8
0
  6
SLD-Сплошная
 62
     7
370
    35
100
AcDbLine
 10
-4.9764158072
 20
-414.3396782996
 30
0.0
 11
-3.4973490814
 21
-414.5894013872
 31
0.0
  0
SPLINE
  5
CA
330
1F
100
AcDbEntity
  8
0
  6
SLD-Сплошная
 62
     7
370
    35
100
AcDbSpline
210
0.0
220
0.0
230
1.0
 70
     8
 71
     3
 72
    24
 73
    20
 74
     0
 42
0.000000001
 43
0.00000001
 40
0.0
 40
0.0
 40
0.0
 40
0.0
 40
0.1250000000000025
 40
0.1250000000000025
 40
0.1875000000000032
 40
0.1875000000000032
 40
0.2500000000000039
 40
0.2500000000000039
 40
0.3750000000000033
 40
0.3750000000000033
 40
0.500000000000003
 40
0.500000000000003
 40
0.6250000000000022
 40
0.6250000000000022
 40
0.7500000000000014
 40
0.7500000000000014
 40
0.8750000000000008
 40
0.8750000000000008
 40
1.0
 40
1.0
 40
1.0
 40
1.0
 10
-5.826347999383251
 20
-419.2644659963025
 30
0.0
 10
-5.82634804059016
 20
-419.2644662299924
 30
0.0
 10
-5.820727160778367
 20
-419.2326019225303
 30
0.0
 10
-5.804228726702542
 20
-419.1389607553415
 30
0.0
 10
-5.797375109974681
 20
-419.1000494608102
 30
0.0
 10
-5.780906056334535
 20
-419.0064804107208
 30
0.0
 10
-5.771243691836148
 20
-418.9515553014439
 30
0.0
 10
-5.738714833601025
 20
-418.7664804839984
 30
0.0
 10
-5.712205678754589
 20
-418.6154666457771
 30
0.0
 10
-5.649740547269203
 20
-418.258667055696
 30
0.0
 10
-5.613451002845653
 20
-418.0509572231258
 30
0.0
 10
-5.534427362582896
 20
-417.5971555429662
 30
0.0
 10
-5.491422479055616
 20
-417.3495268659308
 30
0.0
 10
-5.398396618157074
 20
-416.8118215470503
 30
0.0
 10
-5.349002806741152
 20
-416.5253460848017
 30
0.0
 10
-5.247316968764721
 20
-415.9331506479032
 30
0.0
 10
-5.194345994754244
 20
-415.623483083333
 30
0.0
 10
-5.085939931421882
 20
-414.9869426173486
 30
0.0
 10
-5.031360575228986
 20
-414.6651069414015
 30
0.0
 10
-4.976415824085385
 20
-414.3396783995073
 30
0.0
  0
LINE
  5
CB
330
1F
100
AcDbEntity
  8
0
  6
SLD-Сплошная
 62
     7
370
    35
100
AcDbLine
 10
-5.8258172969
 20
-419.2614562722
 30
0.0
 11
-4.3486056674
 21
-419.5219285387
 31
0.0
  0
LINE
  5
CC
330
1F
100
AcDbEntity
  8
0
  6
SLD-Сплошная
 62
     7
370
    35
100
AcDbLine
 10
-5.8258172969
 20
-180.7385437278
 30
0.0
 11
-4.3486056674
 21
-180.4780714613
 31
0.0
  0
LINE
  5
CD
330
1F
100
AcDbEntity
  8
0
  6
SLD-Сплошная
 62
     7
370
    35
100
AcDbLine
 10
-4.9764158576
 20
-185.6603214018
 30
0.0
 11
-3.4973490981
 21
-185.4105985135
 31
0.0
  0
SPLINE
  5
CE
330
1F
100
AcDbEntity
  8
0
  6
SLD-Сплошная
 62
     7
370
    35
100
AcDbSpline
210
0.0
220
0.0
230
1.0
 70
     8
 71
     3
 72
    24
 73
    20
 74
     0
 42
0.000000001
 43
0.00000001
 40
0.0
 40
0.0
 40
0.0
 40
0.0
 40
0.1249999999999956
 40
0.1249999999999956
 40
0.1874999999999959
 40
0.1874999999999959
 40
0.2499999999999962
 40
0.2499999999999962
 40
0.3749999999999968
 40
0.3749999999999968
 40
0.4999999999999974
 40
0.4999999999999974
 40
0.624999999999998
 40
0.624999999999998
 40
0.7499999999999987
 40
0.7499999999999987
 40
0.8749999999999992
 40
0.8749999999999992
 40
1.0
 40
1.0
 40
1.0
 40
1.0
 10
-3.497348773403108
 20
-185.4105984585135
 30
0.0
 10
-3.552327216055437
 20
-185.0849703680508
 30
0.0
 10
-3.606624232461442
 20
-184.7648067753207
 30
0.0
 10
-3.687069237006735
 20
-184.2924193685151
 30
0.0
 10
-3.713715962814047
 20
-184.1362762628417
 30
0.0
 10
-3.766657183091989
 20
-183.8266875671275
 30
0.0
 10
-3.793024847750893
 20
-183.6728190919009
 30
0.0
 10
-3.86987412203265
 20
-183.225239614079
 30
0.0
 10
-3.918672173981383
 20
-182.9422108111198
 30
0.0
 10
-4.01133177634799
 20
-182.4065718697059
 30
0.0
 10
-4.055371621037047
 20
-182.1529566434527
 30
0.0
 10
-4.134531282262681
 20
-181.6983459204265
 30
0.0
 10
-4.170170994742617
 20
-181.4943385556762
 30
0.0
 10
-4.233249858052833
 20
-181.1340023378188
 30
0.0
 10
-4.260138458905053
 20
-180.9808187851741
 30
0.0
 10
-4.303373190053787
 20
-180.7348166584001
 30
0.0
 10
-4.320043017751437
 20
-180.6401541712031
 30
0.0
 10
-4.342447302135306
 20
-180.5129851060904
 30
0.0
 10
-4.348075506079979
 20
-180.481078194538
 30
0.0
 10
-4.348075464875069
 20
-180.4810784282287
 30
0.0
  0
SPLINE
  5
CF
330
1F
100
AcDbEntity
  8
0
  6
SLD-Сплошная
 62
     7
370
    35
100
AcDbSpline
210
0.0
220
0.0
230
1.0
 70
     8
 71
     3
 72
    24
 73
    20
 74
     0
 42
0.000000001
 43
0.00000001
 40
0.0
 40
0.0
 40
0.0
 40
0.0
 40
0.1249999999999965
 40
0.1249999999999965
 40
0.1874999999999948
 40
0.1874999999999948
 40
0.249999999999993
 40
0.249999999999993
 40
0.3749999999999942
 40
0.3749999999999942
 40
0.4999999999999953
 40
0.4999999999999953
 40
0.6249999999999964
 40
0.6249999999999964
 40
0.7499999999999977
 40
0.7499999999999977
 40
0.8749999999999988
 40
0.8749999999999988
 40
1.0
 40
1.0
 40
1.0
 40
1.0
 10
-4.976415857625701
 20
-185.6603214018466
 30
0.0
 10
-5.031360597422501
 20
-185.3348929277392
 30
0.0
 10
-5.085619760994385
 20
-185.0149529091406
 30
0.0
 10
-5.166002770709553
 20
-184.5429355446567
 30
0.0
 10
-5.192627878320875
 20
-184.3869215710223
 30
0.0
 10
-5.245523905952168
 20
-184.0776028091178
 30
0.0
 10
-5.271869157206118
 20
-183.9238683590121
 30
0.0
 10
-5.348652324155621
 20
-183.4766844111325
 30
0.0
 10
-5.397404746282924
 20
-183.1939284823343
 30
0.0
 10
-5.489970701206
 20
-182.6588482550532
 30
0.0
 10
-5.533966532768279
 20
-182.4054957905338
 30
0.0
 10
-5.613044994190573
 20
-181.9513694099005
 30
0.0
 10
-5.648645060830043
 20
-181.7475978256264
 30
0.0
 10
-5.711649293466011
 20
-181.3877041250975
 30
0.0
 10
-5.73851272192105
 20
-181.2346712445867
 30
0.0
 10
-5.781698004126001
 20
-180.9889625070491
 30
0.0
 10
-5.798345334679019
 20
-180.8944325762052
 30
0.0
 10
-5.820726382916312
 20
-180.767401897667
 30
0.0
 10
-5.826348040583
 20
-180.7355337700558
 30
0.0
 10
-5.826347999383264
 20
-180.7355340037051
 30
0.0
  0
ARC
  5
D0
330
1F
100
AcDbEntity
  8
0
  6
SLD-Сплошная
 62
     7
370
    35
100
AcDbCircle
 10
-682.1911460345
 20
-300.0
 30
0.0
 40
688.2993541569863
100
AcDbArc
 50
350.416666675
 51
9.5833333334
  0
ARC
  5
D1
330
1F
100
AcDbEntity
  8
0
  6
SLD-Сплошная
 62
     7
370
    35
100
AcDbCircle
 10
-682.1911460345
 20
-300.0
 30
0.0
 40
686.7993541569872
100
AcDbArc
 50
350.416666692
 51
9.5833333333
  0
ENDSEC
  0
SECTION
  2
OBJECTS
  0
DICTIONARY
  5
C
330
0
100
AcDbDictionary
281
     1
  3
ACAD_DETAILVIEWSTYLE
350
D9
  3
ACAD_GROUP
350
D
  3
ACAD_LAYOUT
350
1A
  3
ACAD_MATERIAL
350
43
  3
ACAD_MLEADERSTYLE
350
6B
  3
ACAD_MLINESTYLE
350
17
  3
ACAD_PLOTSETTINGS
350
19
  3
ACAD_PLOTSTYLENAME
350
E
  3
ACAD_SCALELIST
350
47
  3
ACAD_SECTIONVIEWSTYLE
350
DA
  3
ACAD_TABLESTYLE
350
69
  3
ACAD_VISUALSTYLE
350
2A
  3
ACDB_RECOMPOSE_DATA
350
D6
  3
AcDbVariableDictionary
350
D2
  0
SUN
  5
6D
330
29
100
AcDbSun
 90
        1
290
     0
 63
     7
421
 16777215
 40
1.0
291
     1
 91
  2455826
 92
 54000000
292
     0
 70
     2
 71
   256
280
     1
  0
DICTIONARY
  5
D9
102
{ACAD_REACTORS
330
C
102
}
330
C
100
AcDbDictionary
281
     1
  0
DICTIONARY
  5
D
102
{ACAD_REACTORS
330
C
102
}
330
C
100
AcDbDictionary
281
     1
  0
DICTIONARY
  5
1A
102
{ACAD_REACTORS
330
C
102
}
330
C
100
AcDbDictionary
281
     1
  3
Layout1
350
1E
  3
Layout2
350
26
  3
Model
350
22
  0
DICTIONARY
  5
43
102
{ACAD_REACTORS
330
C
102
}
330
C
100
AcDbDictionary
281
     1
  3
ByBlock
350
45
  3
ByLayer
350
44
  3
Global
350
46
  0
DICTIONARY
  5
6B
102
{ACAD_REACTORS
330
C
102
}
330
C
100
AcDbDictionary
281
     1
  3
Standard
350
6C
  0
DICTIONARY
  5
17
102
{ACAD_REACTORS
330
C
102
}
330
C
100
AcDbDictionary
281
     1
  3
Standard
350
18
  0
DICTIONARY
  5
19
102
{ACAD_REACTORS
330
C
102
}
330
C
100
AcDbDictionary
281
     1
  0
ACDBDICTIONARYWDFLT
  5
E
102
{ACAD_REACTORS
330
C
102
}
330
C
100
AcDbDictionary
281
     1
  3
Normal
350
F
100
AcDbDictionaryWithDefault
340
F
  0
DICTIONARY
  5
47
102
{ACAD_REACTORS
330
C
102
}
330
C
100
AcDbDictionary
281
     1
  3
A0
350
48
  3
A1
350
49
  3
A2
350
4A
  3
A3
350
4B
  3
A4
350
4C
  3
A5
350
4D
  3
A6
350
4E
  3
A7
350
4F
  3
A8
350
50
  3
A9
350
51
  3
B0
350
52
  3
B1
350
53
  3
B2
350
54
  3
B3
350
55
  3
B4
350
56
  3
B5
350
57
  3
B6
350
58
  3
B7
350
59
  3
B8
350
5A
  3
B9
350
5B
  3
C0
350
5C
  3
C1
350
5D
  3
C2
350
5E
  3
C3
350
5F
  3
C4
350
60
  3
C5
350
61
  3
C6
350
62
  3
C7
350
63
  3
C8
350
64
  3
C9
350
65
  3
D0
350
66
  3
D1
350
67
  3
D2
350
68
  0
DICTIONARY
  5
DA
102
{ACAD_REACTORS
330
C
102
}
330
C
100
AcDbDictionary
281
     1
  0
DICTIONARY
  5
69
102
{ACAD_REACTORS
330
C
102
}
330
C
100
AcDbDictionary
281
     1
  3
Standard
350
6A
  0
DICTIONARY
  5
2A
102
{ACAD_REACTORS
330
C
102
}
330
C
100
AcDbDictionary
281
     1
  3
2dWireframe
350
2F
  3
Basic
350
32
  3
Brighten
350
36
  3
ColorChange
350
3A
  3
Conceptual
350
34
  3
Dim
350
35
  3
EdgeColorOff
350
3D
  3
Facepattern
350
39
  3
Flat
350
2B
  3
FlatWithEdges
350
2C
  3
Gouraud
350
2D
  3
GouraudWithEdges
350
2E
  3
Hidden
350
31
  3
JitterOff
350
3B
  3
Linepattern
350
38
  3
OverhangOff
350
3C
  3
Realistic
350
33
  3
Shaded
350
42
  3
Shaded with edges
350
41
  3
Shades of Gray
350
3E
  3
Sketchy
350
3F
  3
Thicken
350
37
  3
Wireframe
350
30
  3
X-Ray
350
40
  0
XRECORD
  5
D6
102
{ACAD_REACTORS
330
C
102
}
330
C
100
AcDbXrecord
280
     1
 90
        1
330
6A
  0
DICTIONARY
  5
D2
102
{ACAD_REACTORS
330
C
102
}
330
C
100
AcDbDictionary
281
     1
  3
CANNOSCALE
350
D3
  3
CMLEADERSTYLE
350
D8
  3
CTABLESTYLE
350
D7
  0
LAYOUT
  5
1E
102
{ACAD_REACTORS
330
1A
102
}
330
1A
100
AcDbPlotSettings
  1

  2
none_device
  4

  6

 40
0.0
 41
0.0
 42
0.0
 43
0.0
 44
0.0
 45
0.0
 46
0.0
 47
0.0
 48
0.0
 49
0.0
140
0.0
141
0.0
142
1.0
143
1.0
 70
   688
 72
     1
 73
     0
 74
     5
  7

 75
    16
 76
     0
 77
     2
 78
   300
147
1.0
148
0.0
149
0.0
100
AcDbLayout
  1
Layout1
 70
     1
 71
     1
 10
0.0
 20
0.0
 11
420.0
 21
297.0
 12
0.0
 22
0.0
 32
0.0
 14
1.0000000000E+20
 24
1.0000000000E+20
 34
1.0000000000E+20
 15
-1.0000000000E+20
 25
-1.0000000000E+20
 35
-1.0000000000E+20
146
0.0
 13
0.0
 23
0.0
 33
0.0
 16
1.0
 26
0.0
 36
0.0
 17
0.0
 27
1.0
 37
0.0
 76
     0
330
1B
  0
LAYOUT
  5
26
102
{ACAD_REACTORS
330
1A
102
}
330
1A
100
AcDbPlotSettings
  1

  2
none_device
  4

  6

 40
0.0
 41
0.0
 42
0.0
 43
0.0
 44
0.0
 45
0.0
 46
0.0
 47
0.0
 48
0.0
 49
0.0
140
0.0
141
0.0
142
1.0
143
1.0
 70
   688
 72
     1
 73
     0
 74
     5
  7

 75
    16
 76
     0
 77
     2
 78
   300
147
1.0
148
0.0
149
0.0
100
AcDbLayout
  1
Layout2
 70
     1
 71
     2
 10
0.0
 20
0.0
 11
0.0
 21
0.0
 12
0.0
 22
0.0
 32
0.0
 14
0.0
 24
0.0
 34
0.0
 15
0.0
 25
0.0
 35
0.0
146
0.0
 13
0.0
 23
0.0
 33
0.0
 16
1.0
 26
0.0
 36
0.0
 17
0.0
 27
1.0
 37
0.0
 76
     0
330
23
  0
LAYOUT
  5
22
102
{ACAD_REACTORS
330
1A
102
}
330
1A
100
AcDbPlotSettings
  1

  2
none_device
  4
Letter_(8.50_x_11.00_Inches)
  6

 40
6.35
 41
6.35
 42
6.35000508
 43
6.35000508
 44
215.9
 45
279.4
 46
0.0
 47
0.0
 48
0.0
 49
0.0
140
0.0
141
0.0
142
1.0
143
1.0
 70
  1712
 72
     1
 73
     0
 74
     0
  7

 75
     0
 76
     0
 77
     2
 78
   300
147
1.0
148
0.0
149
0.0
100
AcDbLayout
  1
Model
 70
     1
 71
     0
 10
0.0
 20
0.0
 11
1420.0
 21
1297.0
 12
0.0
 22
0.0
 32
0.0
 14
0.0
 24
0.0
 34
0.0
 15
1420.0
 25
1297.0
 35
0.0
146
0.0
 13
0.0
 23
0.0
 33
0.0
 16
1.0
 26
0.0
 36
0.0
 17
0.0
 27
1.0
 37
0.0
 76
     0
330
1F
331
29
  0
MATERIAL
  5
45
102
{ACAD_REACTORS
330
43
102
}
330
43
100
AcDbMaterial
  1
ByBlock
 72
     1
 94
      127
  0
MATERIAL
  5
44
102
{ACAD_REACTORS
330
43
102
}
330
43
100
AcDbMaterial
  1
ByLayer
 72
     1
 94
      127
  0
MATERIAL
  5
46
102
{ACAD_REACTORS
330
43
102
}
330
43
100
AcDbMaterial
  1
Global
 72
     1
 94
      127
  0
MLEADERSTYLE
  5
6C
102
{ACAD_REACTORS
330
6B
102
}
330
6B
100
AcDbMLeaderStyle
179
     2
170
     2
171
     1
172
     0
 90
        2
 40
0.0
 41
0.0
173
     1
 91
-1056964608
340
14
 92
       -2
290
     1
 42
2.0
291
     1
 43
8.0
  3
Standard
341
0
 44
4.0
300

342
11
174
     1
178
     6
175
     1
176
     0
 93
-1056964608
 45
4.0
292
     0
297
     0
 46
4.0
343
0
 94
-1056964608
 47
1.0
 49
1.0
140
1.0
293
     1
141
0.0
294
     1
177
     0
142
1.0
295
     0
296
     0
143
3.75
271
     0
272
     9
273
     9
298
     0
  0
MLINESTYLE
  5
18
102
{ACAD_REACTORS
330
17
102
}
330
17
100
AcDbMlineStyle
  2
Standard
 70
     0
  3

 62
   256
 51
90.0
 52
90.0
 71
     2
 49
0.5
 62
   256
  6
BYLAYER
 49
-0.5
 62
   256
  6
BYLAYER
  0
ACDBPLACEHOLDER
  5
F
102
{ACAD_REACTORS
330
E
102
}
330
E
  0
SCALE
  5
48
102
{ACAD_REACTORS
330
47
102
}
330
47
100
AcDbScale
 70
     0
300
1:1
140
1.0
141
1.0
290
     1
  0
SCALE
  5
49
102
{ACAD_REACTORS
330
47
102
}
330
47
100
AcDbScale
 70
     0
300
1:2
140
1.0
141
2.0
290
     0
  0
SCALE
  5
4A
102
{ACAD_REACTORS
330
47
102
}
330
47
100
AcDbScale
 70
     0
300
1:4
140
1.0
141
4.0
290
     0
  0
SCALE
  5
4B
102
{ACAD_REACTORS
330
47
102
}
330
47
100
AcDbScale
 70
     0
300
1:5
140
1.0
141
5.0
290
     0
  0
SCALE
  5
4C
102
{ACAD_REACTORS
330
47
102
}
330
47
100
AcDbScale
 70
     0
300
1:8
140
1.0
141
8.0
290
     0
  0
SCALE
  5
4D
102
{ACAD_REACTORS
330
47
102
}
330
47
100
AcDbScale
 70
     0
300
1:10
140
1.0
141
10.0
290
     0
  0
SCALE
  5
4E
102
{ACAD_REACTORS
330
47
102
}
330
47
100
AcDbScale
 70
     0
300
1:16
140
1.0
141
16.0
290
     0
  0
SCALE
  5
4F
102
{ACAD_REACTORS
330
47
102
}
330
47
100
AcDbScale
 70
     0
300
1:20
140
1.0
141
20.0
290
     0
  0
SCALE
  5
50
102
{ACAD_REACTORS
330
47
102
}
330
47
100
AcDbScale
 70
     0
300
1:30
140
1.0
141
30.0
290
     0
  0
SCALE
  5
51
102
{ACAD_REACTORS
330
47
102
}
330
47
100
AcDbScale
 70
     0
300
1:40
140
1.0
141
40.0
290
     0
  0
SCALE
  5
52
102
{ACAD_REACTORS
330
47
102
}
330
47
100
AcDbScale
 70
     0
300
1:50
140
1.0
141
50.0
290
     0
  0
SCALE
  5
53
102
{ACAD_REACTORS
330
47
102
}
330
47
100
AcDbScale
 70
     0
300
1:100
140
1.0
141
100.0
290
     0
  0
SCALE
  5
54
102
{ACAD_REACTORS
330
47
102
}
330
47
100
AcDbScale
 70
     0
300
2:1
140
2.0
141
1.0
290
     0
  0
SCALE
  5
55
102
{ACAD_REACTORS
330
47
102
}
330
47
100
AcDbScale
 70
     0
300
4:1
140
4.0
141
1.0
290
     0
  0
SCALE
  5
56
102
{ACAD_REACTORS
330
47
102
}
330
47
100
AcDbScale
 70
     0
300
8:1
140
8.0
141
1.0
290
     0
  0
SCALE
  5
57
102
{ACAD_REACTORS
330
47
102
}
330
47
100
AcDbScale
 70
     0
300
10:1
140
10.0
141
1.0
290
     0
  0
SCALE
  5
58
102
{ACAD_REACTORS
330
47
102
}
330
47
100
AcDbScale
 70
     0
300
100:1
140
100.0
141
1.0
290
     0
  0
SCALE
  5
59
102
{ACAD_REACTORS
330
47
102
}
330
47
100
AcDbScale
 70
     0
300
1/128" = 1'-0"
140
0.0078125
141
12.0
290
     0
  0
SCALE
  5
5A
102
{ACAD_REACTORS
330
47
102
}
330
47
100
AcDbScale
 70
     0
300
1/64" = 1'-0"
140
0.015625
141
12.0
290
     0
  0
SCALE
  5
5B
102
{ACAD_REACTORS
330
47
102
}
330
47
100
AcDbScale
 70
     0
300
1/32" = 1'-0"
140
0.03125
141
12.0
290
     0
  0
SCALE
  5
5C
102
{ACAD_REACTORS
330
47
102
}
330
47
100
AcDbScale
 70
     0
300
1/16" = 1'-0"
140
0.0625
141
12.0
290
     0
  0
SCALE
  5
5D
102
{ACAD_REACTORS
330
47
102
}
330
47
100
AcDbScale
 70
     0
300
3/32" = 1'-0"
140
0.09375
141
12.0
290
     0
  0
SCALE
  5
5E
102
{ACAD_REACTORS
330
47
102
}
330
47
100
AcDbScale
 70
     0
300
1/8" = 1'-0"
140
0.125
141
12.0
290
     0
  0
SCALE
  5
5F
102
{ACAD_REACTORS
330
47
102
}
330
47
100
AcDbScale
 70
     0
300
3/16" = 1'-0"
140
0.1875
141
12.0
290
     0
  0
SCALE
  5
60
102
{ACAD_REACTORS
330
47
102
}
330
47
100
AcDbScale
 70
     0
300
1/4" = 1'-0"
140
0.25
141
12.0
290
     0
  0
SCALE
  5
61
102
{ACAD_REACTORS
330
47
102
}
330
47
100
AcDbScale
 70
     0
300
3/8" = 1'-0"
140
0.375
141
12.0
290
     0
  0
SCALE
  5
62
102
{ACAD_REACTORS
330
47
102
}
330
47
100
AcDbScale
 70
     0
300
1/2" = 1'-0"
140
0.5
141
12.0
290
     0
  0
SCALE
  5
63
102
{ACAD_REACTORS
330
47
102
}
330
47
100
AcDbScale
 70
     0
300
3/4" = 1'-0"
140
0.75
141
12.0
290
     0
  0
SCALE
  5
64
102
{ACAD_REACTORS
330
47
102
}
330
47
100
AcDbScale
 70
     0
300
1" = 1'-0"
140
1.0
141
12.0
290
     0
  0
SCALE
  5
65
102
{ACAD_REACTORS
330
47
102
}
330
47
100
AcDbScale
 70
     0
300
1-1/2" = 1'-0"
140
1.5
141
12.0
290
     0
  0
SCALE
  5
66
102
{ACAD_REACTORS
330
47
102
}
330
47
100
AcDbScale
 70
     0
300
3" = 1'-0"
140
3.0
141
12.0
290
     0
  0
SCALE
  5
67
102
{ACAD_REACTORS
330
47
102
}
330
47
100
AcDbScale
 70
     0
300
6" = 1'-0"
140
6.0
141
12.0
290
     0
  0
SCALE
  5
68
102
{ACAD_REACTORS
330
47
102
}
330
47
100
AcDbScale
 70
     0
300
1'-0" = 1'-0"
140
12.0
141
12.0
290
     0
  0
TABLESTYLE
  5
6A
102
{ACAD_REACTORS
330
69
102
}
102
{ACAD_XDICTIONARY
360
D4
102
}
330
69
100
AcDbTableStyle
  3
Standard
 70
     0
 71
     0
 40
0.06
 41
0.06
280
     0
281
     0
  7
Standard
140
4.5
170
     2
 62
     0
 63
   257
283
     0
 90
        4
 91
        0
  1

274
    -2
284
     1
 64
     0
275
    -2
285
     1
 65
     0
276
    -2
286
     1
 66
     0
277
    -2
287
     1
 67
     0
278
    -2
288
     1
 68
     0
279
    -2
289
     1
 69
     0
  7
Standard
140
6.0
170
     5
 62
     0
 63
   257
283
     0
 90
        4
 91
        0
  1

274
    -2
284
     1
 64
     0
275
    -2
285
     1
 65
     0
276
    -2
286
     1
 66
     0
277
    -2
287
     1
 67
     0
278
    -2
288
     1
 68
     0
279
    -2
289
     1
 69
     0
  7
Standard
140
4.5
170
     5
 62
     0
 63
   257
283
     0
 90
        4
 91
        0
  1

274
    -2
284
     1
 64
     0
275
    -2
285
     1
 65
     0
276
    -2
286
     1
 66
     0
277
    -2
287
     1
 67
     0
278
    -2
288
     1
 68
     0
279
    -2
289
     1
 69
     0
  0
VISUALSTYLE
  5
2F
102
{ACAD_REACTORS
330
2A
102
}
330
2A
100
AcDbVisualStyle
  2
2dWireframe
 70
     4
177
     3
291
     0
 70
    58
 90
        0
176
     1
 90
        2
176
     1
 90
        0
176
     1
 90
        0
176
     1
 40
0.6
176
     1
 40
30.0
176
     1
 62
     7
420
 16777215
176
     1
 90
        1
176
     1
 90
        4
176
     1
 62
     7
176
     1
 62
   257
176
     1
 90
        1
176
     1
 90
        1
176
     1
 40
1.0
176
     1
 90
        0
176
     1
 62
   257
176
     1
 40
1.0
176
     1
 90
        1
176
     1
 90
        6
176
     1
 90
        2
176
     1
 62
     7
176
     1
 90
        5
176
     1
 90
        0
176
     1
 90
        0
176
     1
290
     0
176
     1
 90
        1
176
     1
 40
0.0
176
     1
 90
        0
176
     1
290
     1
176
     1
290
     1
176
     1
290
     0
176
     1
290
     0
176
     1
290
     0
176
     1
290
     0
176
     1
290
     0
176
     1
290
     0
176
     1
290
     0
176
     1
 90
       50
176
     1
 40
0.0
176
     1
 40
1.0
176
     1
 90
        0
176
     1
 62
    18
420
        0
176
     1
 90
       50
176
     1
 90
        3
176
     1
 62
     5
420
      255
176
     1
290
     0
176
     1
 90
       50
176
     1
 90
       50
176
     1
 90
       50
176
     1
290
     0
176
     1
 90
       50
176
     1
 62
   256
176
     0
 40
1.0
176
     0
 90
        2
176
     1
  1
strokes_ogs.tif
176
     1
290
     0
176
     1
 40
1.0
176
     1
 40
1.0
176
     1
  0
VISUALSTYLE
  5
32
102
{ACAD_REACTORS
330
2A
102
}
330
2A
100
AcDbVisualStyle
  2
Basic
 70
     7
177
     3
291
     1
 70
    58
 90
        1
176
     1
 90
        0
176
     1
 90
        1
176
     1
 90
        0
176
     1
 40
0.6
176
     1
 40
30.0
176
     1
 62
     7
420
 16777215
176
     1
 90
        0
176
     1
 90
        4
176
     1
 62
     7
176
     1
 62
   257
176
     1
 90
        1
176
     1
 90
        1
176
     1
 40
1.0
176
     1
 90
        8
176
     1
 62
     7
176
     1
 40
1.0
176
     1
 90
        1
176
     1
 90
        6
176
     1
 90
        2
176
     1
 62
     7
176
     1
 90
        5
176
     1
 90
        0
176
     1
 90
        0
176
     1
290
     0
176
     1
 90
        1
176
     1
 40
0.0
176
     1
 90
        0
176
     1
290
     0
176
     1
290
     1
176
     1
290
     1
176
     1
290
     0
176
     1
290
     0
176
     1
290
     0
176
     1
290
     0
176
     1
290
     0
176
     1
290
     0
176
     1
 90
       50
176
     1
 40
0.0
176
     1
 40
1.0
176
     1
 90
        0
176
     1
 62
    18
420
        0
176
     1
 90
       50
176
     1
 90
        3
176
     1
 62
     5
420
      255
176
     1
290
     0
176
     1
 90
       50
176
     1
 90
       50
176
     1
 90
       50
176
     1
290
     0
176
     1
 90
       50
176
     1
 62
   256
176
     0
 40
1.0
176
     0
 90
        2
176
     1
  1
strokes_ogs.tif
176
     1
290
     0
176
     1
 40
1.0
176
     1
 40
1.0
176
     1
  0
VISUALSTYLE
  5
36
102
{ACAD_REACTORS
330
2A
102
}
330
2A
100
AcDbVisualStyle
  2
Brighten
 70
    12
177
     3
291
     1
 70
    58
 90
        2
176
     1
 90
        2
176
     1
 90
        0
176
     1
 90
        0
176
     1
 40
0.6
176
     1
 40
30.0
176
     1
 62
     7
420
 16777215
176
     1
 90
        1
176
     1
 90
        4
176
     1
 62
     7
176
     1
 62
   257
176
     1
 90
        1
176
     1
 90
        1
176
     1
 40
1.0
176
     1
 90
        8
176
     1
 62
     7
176
     1
 40
1.0
176
     1
 90
        1
176
     1
 90
        6
176
     1
 90
        2
176
     1
 62
     7
176
     1
 90
        5
176
     1
 90
        0
176
     1
 90
        0
176
     1
290
     0
176
     1
 90
        1
176
     1
 40
50.0
176
     1
 90
        0
176
     1
290
     0
176
     1
290
     1
176
     1
290
     1
176
     1
290
     0
176
     1
290
     0
176
     1
290
     0
176
     1
290
     0
176
     1
290
     0
176
     1
290
     0
176
     1
 90
       50
176
     1
 40
0.0
176
     1
 40
1.0
176
     1
 90
        0
176
     1
 62
    18
420
        0
176
     1
 90
       50
176
     1
 90
        3
176
     1
 62
     5
420
      255
176
     1
290
     0
176
     1
 90
       50
176
     1
 90
       50
176
     1
 90
       50
176
     1
290
     0
176
     1
 90
       50
176
     1
 62
   256
176
     0
 40
1.0
176
     0
 90
        2
176
     1
  1
strokes_ogs.tif
176
     1
290
     0
176
     1
 40
1.0
176
     1
 40
1.0
176
     1
  0
VISUALSTYLE
  5
3A
102
{ACAD_REACTORS
330
2A
102
}
330
2A
100
AcDbVisualStyle
  2
ColorChange
 70
    16
177
     3
291
     1
 70
    58
 90
        2
176
     1
 90
        2
176
     1
 90
        3
176
     1
 90
        0
176
     1
 40
0.6
176
     1
 40
30.0
176
     1
 62
     8
420
  8421504
176
     1
 90
        1
176
     1
 90
        4
176
     1
 62
     7
176
     1
 62
   257
176
     1
 90
        1
176
     1
 90
        1
176
     1
 40
1.0
176
     1
 90
        8
176
     1
 62
     8
420
  8421504
176
     1
 40
1.0
176
     1
 90
        1
176
     1
 90
        6
176
     1
 90
        2
176
     1
 62
     7
176
     1
 90
        5
176
     1
 90
        0
176
     1
 90
        0
176
     1
290
     0
176
     1
 90
        1
176
     1
 40
0.0
176
     1
 90
        0
176
     1
290
     0
176
     1
290
     1
176
     1
290
     1
176
     1
290
     0
176
     1
290
     0
176
     1
290
     0
176
     1
290
     0
176
     1
290
     0
176
     1
290
     0
176
     1
 90
       50
176
     1
 40
0.0
176
     1
 40
1.0
176
     1
 90
        0
176
     1
 62
    18
420
        0
176
     1
 90
       50
176
     1
 90
        3
176
     1
 62
     5
420
      255
176
     1
290
     0
176
     1
 90
       50
176
     1
 90
       50
176
     1
 90
       50
176
     1
290
     0
176
     1
 90
       50
176
     1
 62
   256
176
     0
 40
1.0
176
     0
 90
        2
176
     1
  1
strokes_ogs.tif
176
     1
290
     0
176
     1
 40
1.0
176
     1
 40
1.0
176
     1
  0
VISUALSTYLE
  5
34
102
{ACAD_REACTORS
330
2A
102
}
330
2A
100
AcDbVisualStyle
  2
Conceptual
 70
     9
177
     3
291
     0
 70
    58
 90
        3
176
     1
 90
        2
176
     1
 90
        0
176
     1
 90
        0
176
     1
 40
0.6
176
     1
 40
30.0
176
     1
 62
     7
420
 16777215
176
     1
 90
        2
176
     1
 90
        2
176
     1
 62
     7
176
     1
 62
   257
176
     1
 90
        1
176
     1
 90
        1
176
     1
 40
179.0
176
     1
 90
        8
176
     1
 62
     7
176
     1
 40
1.0
176
     1
 90
        1
176
     1
 90
        6
176
     1
 90
        2
176
     1
 62
     7
176
     1
 90
        3
176
     1
 90
        0
176
     1
 90
        0
176
     1
290
     0
176
     1
 90
        1
176
     1
 40
0.0
176
     1
 90
        0
176
     1
290
     0
176
     1
290
     1
176
     1
290
     1
176
     1
290
     0
176
     1
290
     0
176
     1
290
     0
176
     1
290
     0
176
     1
290
     0
176
     1
290
     0
176
     1
 90
       50
176
     1
 40
0.0
176
     1
 40
1.0
176
     1
 90
        0
176
     1
 62
    18
420
        0
176
     1
 90
       50
176
     1
 90
        3
176
     1
 62
     5
420
      255
176
     1
290
     0
176
     1
 90
       50
176
     1
 90
       50
176
     1
 90
       50
176
     1
290
     0
176
     1
 90
       50
176
     1
 62
   256
176
     0
 40
1.0
176
     0
 90
        2
176
     1
  1
strokes_ogs.tif
176
     1
290
     0
176
     1
 40
1.0
176
     1
 40
1.0
176
     1
  0
VISUALSTYLE
  5
35
102
{ACAD_REACTORS
330
2A
102
}
330
2A
100
AcDbVisualStyle
  2
Dim
 70
    11
177
     3
291
     1
 70
    58
 90
        2
176
     1
 90
        2
176
     1
 90
        0
176
     1
 90
        0
176
     1
 40
0.6
176
     1
 40
30.0
176
     1
 62
     7
420
 16777215
176
     1
 90
        1
176
     1
 90
        4
176
     1
 62
     7
176
     1
 62
   257
176
     1
 90
        1
176
     1
 90
        1
176
     1
 40
1.0
176
     1
 90
        8
176
     1
 62
     7
176
     1
 40
1.0
176
     1
 90
        1
176
     1
 90
        6
176
     1
 90
        2
176
     1
 62
     7
176
     1
 90
        5
176
     1
 90
        0
176
     1
 90
        0
176
     1
290
     0
176
     1
 90
        1
176
     1
 40
-50.0
176
     1
 90
        0
176
     1
290
     0
176
     1
290
     1
176
     1
290
     1
176
     1
290
     0
176
     1
290
     0
176
     1
290
     0
176
     1
290
     0
176
     1
290
     0
176
     1
290
     0
176
     1
 90
       50
176
     1
 40
0.0
176
     1
 40
1.0
176
     1
 90
        0
176
     1
 62
    18
420
        0
176
     1
 90
       50
176
     1
 90
        3
176
     1
 62
     5
420
      255
176
     1
290
     0
176
     1
 90
       50
176
     1
 90
       50
176
     1
 90
       50
176
     1
290
     0
176
     1
 90
       50
176
     1
 62
   256
176
     0
 40
1.0
176
     0
 90
        2
176
     1
  1
strokes_ogs.tif
176
     1
290
     0
176
     1
 40
1.0
176
     1
 40
1.0
176
     1
  0
VISUALSTYLE
  5
3D
102
{ACAD_REACTORS
330
2A
102
}
330
2A
100
AcDbVisualStyle
  2
EdgeColorOff
 70
    22
177
     3
291
     1
 70
    58
 90
        2
176
     0
 90
        2
176
     0
 90
        0
176
     0
 90
        0
176
     0
 40
0.6
176
     0
 40
30.0
176
     0
 62
     7
420
 16777215
176
     0
 90
        1
176
     0
 90
        4
176
     0
 62
     7
176
     0
 62
   257
176
     0
 90
        1
176
     0
 90
        1
176
     0
 40
1.0
176
     0
 90
        8
176
     2
 62
     7
176
     0
 40
1.0
176
     0
 90
        1
176
     0
 90
        6
176
     0
 90
        2
176
     0
 62
     7
176
     0
 90
        5
176
     0
 90
        0
176
     0
 90
        0
176
     0
290
     0
176
     0
 90
        1
176
     0
 40
0.0
176
     0
 90
        0
176
     0
290
     0
176
     0
290
     1
176
     0
290
     1
176
     0
290
     0
176
     0
290
     0
176
     0
290
     0
176
     0
290
     0
176
     0
290
     0
176
     0
290
     0
176
     0
 90
       50
176
     0
 40
0.0
176
     0
 40
1.0
176
     0
 90
        0
176
     0
 62
    18
420
        0
176
     0
 90
       50
176
     0
 90
        3
176
     0
 62
     5
420
      255
176
     0
290
     0
176
     0
 90
       50
176
     0
 90
       50
176
     0
 90
       50
176
     0
290
     0
176
     0
 90
       50
176
     0
 62
   256
176
     0
 40
1.0
176
     0
 90
        2
176
     0
  1
strokes_ogs.tif
176
     0
290
     0
176
     0
 40
1.0
176
     0
 40
1.0
176
     0
  0
VISUALSTYLE
  5
39
102
{ACAD_REACTORS
330
2A
102
}
330
2A
100
AcDbVisualStyle
  2
Facepattern
 70
    15
177
     3
291
     1
 70
    58
 90
        2
176
     1
 90
        2
176
     1
 90
        0
176
     1
 90
        0
176
     1
 40
0.6
176
     1
 40
30.0
176
     1
 62
     7
420
 16777215
176
     1
 90
        1
176
     1
 90
        4
176
     1
 62
     7
176
     1
 62
   257
176
     1
 90
        1
176
     1
 90
        1
176
     1
 40
1.0
176
     1
 90
        8
176
     1
 62
     7
176
     1
 40
1.0
176
     1
 90
        1
176
     1
 90
        6
176
     1
 90
        2
176
     1
 62
     7
176
     1
 90
        5
176
     1
 90
        0
176
     1
 90
        0
176
     1
290
     0
176
     1
 90
        1
176
     1
 40
0.0
176
     1
 90
        0
176
     1
290
     0
176
     1
290
     1
176
     1
290
     1
176
     1
290
     0
176
     1
290
     0
176
     1
290
     0
176
     1
290
     0
176
     1
290
     0
176
     1
290
     0
176
     1
 90
       50
176
     1
 40
0.0
176
     1
 40
1.0
176
     1
 90
        0
176
     1
 62
    18
420
        0
176
     1
 90
       50
176
     1
 90
        3
176
     1
 62
     5
420
      255
176
     1
290
     0
176
     1
 90
       50
176
     1
 90
       50
176
     1
 90
       50
176
     1
290
     0
176
     1
 90
       50
176
     1
 62
   256
176
     0
 40
1.0
176
     0
 90
        2
176
     1
  1
strokes_ogs.tif
176
     1
290
     0
176
     1
 40
1.0
176
     1
 40
1.0
176
     1
  0
VISUALSTYLE
  5
2B
102
{ACAD_REACTORS
330
2A
102
}
330
2A
100
AcDbVisualStyle
  2
Flat
 70
     0
177
     3
291
     1
 70
    58
 90
        2
176
     1
 90
        1
176
     1
 90
        1
176
     1
 90
        2
176
     1
 40
0.6
176
     1
 40
30.0
176
     1
 62
     7
420
 16777215
176
     1
 90
        0
176
     1
 90
        0
176
     1
 62
     7
176
     1
 62
   257
176
     1
 90
        1
176
     1
 90
        1
176
     1
 40
1.0
176
     1
 90
        8
176
     1
 62
     7
176
     1
 40
1.0
176
     1
 90
        1
176
     1
 90
        6
176
     1
 90
        2
176
     1
 62
     7
176
     1
 90
        5
176
     1
 90
        0
176
     1
 90
        0
176
     1
290
     0
176
     1
 90
       13
176
     1
 40
0.0
176
     1
 90
        0
176
     1
290
     0
176
     1
290
     1
176
     1
290
     1
176
     1
290
     0
176
     1
290
     0
176
     1
290
     0
176
     1
290
     0
176
     1
290
     0
176
     1
290
     0
176
     1
 90
       50
176
     1
 40
0.0
176
     1
 40
1.0
176
     1
 90
        0
176
     1
 62
    18
420
        0
176
     1
 90
       50
176
     1
 90
        3
176
     1
 62
     5
420
      255
176
     1
290
     0
176
     1
 90
       50
176
     1
 90
       50
176
     1
 90
       50
176
     1
290
     0
176
     1
 90
       50
176
     1
 62
   256
176
     0
 40
1.0
176
     0
 90
        2
176
     1
  1
strokes_ogs.tif
176
     1
290
     0
176
     1
 40
1.0
176
     1
 40
1.0
176
     1
  0
VISUALSTYLE
  5
2C
102
{ACAD_REACTORS
330
2A
102
}
330
2A
100
AcDbVisualStyle
  2
FlatWithEdges
 70
     1
177
     3
291
     1
 70
    58
 90
        2
176
     1
 90
        1
176
     1
 90
        1
176
     1
 90
        2
176
     1
 40
0.6
176
     1
 40
30.0
176
     1
 62
     7
420
 16777215
176
     1
 90
        1
176
     1
 90
        0
176
     1
 62
     7
176
     1
 62
   257
176
     1
 90
        1
176
     1
 90
        1
176
     1
 40
1.0
176
     1
 90
        0
176
     1
 62
   257
176
     1
 40
1.0
176
     1
 90
        1
176
     1
 90
        6
176
     1
 90
        2
176
     1
 62
     7
176
     1
 90
        5
176
     1
 90
        0
176
     1
 90
        0
176
     1
290
     0
176
     1
 90
       13
176
     1
 40
0.0
176
     1
 90
        0
176
     1
290
     0
176
     1
290
     1
176
     1
290
     1
176
     1
290
     0
176
     1
290
     0
176
     1
290
     0
176
     1
290
     0
176
     1
290
     0
176
     1
290
     0
176
     1
 90
       50
176
     1
 40
0.0
176
     1
 40
1.0
176
     1
 90
        0
176
     1
 62
    18
420
        0
176
     1
 90
       50
176
     1
 90
        3
176
     1
 62
     5
420
      255
176
     1
290
     0
176
     1
 90
       50
176
     1
 90
       50
176
     1
 90
       50
176
     1
290
     0
176
     1
 90
       50
176
     1
 62
   256
176
     0
 40
1.0
176
     0
 90
        2
176
     1
  1
strokes_ogs.tif
176
     1
290
     0
176
     1
 40
1.0
176
     1
 40
1.0
176
     1
  0
VISUALSTYLE
  5
2D
102
{ACAD_REACTORS
330
2A
102
}
330
2A
100
AcDbVisualStyle
  2
Gouraud
 70
     2
177
     3
291
     1
 70
    58
 90
        2
176
     1
 90
        2
176
     1
 90
        1
176
     1
 90
        2
176
     1
 40
0.6
176
     1
 40
30.0
176
     1
 62
     7
420
 16777215
176
     1
 90
        0
176
     1
 90
        0
176
     1
 62
     7
176
     1
 62
   257
176
     1
 90
        1
176
     1
 90
        1
176
     1
 40
1.0
176
     1
 90
        0
176
     1
 62
     7
176
     1
 40
1.0
176
     1
 90
        1
176
     1
 90
        6
176
     1
 90
        2
176
     1
 62
     7
176
     1
 90
        5
176
     1
 90
        0
176
     1
 90
        0
176
     1
290
     0
176
     1
 90
       13
176
     1
 40
0.0
176
     1
 90
        0
176
     1
290
     0
176
     1
290
     1
176
     1
290
     1
176
     1
290
     0
176
     1
290
     0
176
     1
290
     0
176
     1
290
     0
176
     1
290
     0
176
     1
290
     0
176
     1
 90
       50
176
     1
 40
0.0
176
     1
 40
1.0
176
     1
 90
        0
176
     1
 62
    18
420
        0
176
     1
 90
       50
176
     1
 90
        3
176
     1
 62
     5
420
      255
176
     1
290
     0
176
     1
 90
       50
176
     1
 90
       50
176
     1
 90
       50
176
     1
290
     0
176
     1
 90
       50
176
     1
 62
   256
176
     0
 40
1.0
176
     0
 90
        2
176
     1
  1
strokes_ogs.tif
176
     1
290
     0
176
     1
 40
1.0
176
     1
 40
1.0
176
     1
  0
VISUALSTYLE
  5
2E
102
{ACAD_REACTORS
330
2A
102
}
330
2A
100
AcDbVisualStyle
  2
GouraudWithEdges
 70
     3
177
     3
291
     1
 70
    58
 90
        2
176
     1
 90
        2
176
     1
 90
        1
176
     1
 90
        2
176
     1
 40
0.6
176
     1
 40
30.0
176
     1
 62
     7
420
 16777215
176
     1
 90
        1
176
     1
 90
        0
176
     1
 62
     7
176
     1
 62
   257
176
     1
 90
        1
176
     1
 90
        1
176
     1
 40
1.0
176
     1
 90
        0
176
     1
 62
   257
176
     1
 40
1.0
176
     1
 90
        1
176
     1
 90
        6
176
     1
 90
        2
176
     1
 62
     7
176
     1
 90
        5
176
     1
 90
        0
176
     1
 90
        0
176
     1
290
     0
176
     1
 90
       13
176
     1
 40
0.0
176
     1
 90
        0
176
     1
290
     0
176
     1
290
     1
176
     1
290
     1
176
     1
290
     0
176
     1
290
     0
176
     1
290
     0
176
     1
290
     0
176
     1
290
     0
176
     1
290
     0
176
     1
 90
       50
176
     1
 40
0.0
176
     1
 40
1.0
176
     1
 90
        0
176
     1
 62
    18
420
        0
176
     1
 90
       50
176
     1
 90
        3
176
     1
 62
     5
420
      255
176
     1
290
     0
176
     1
 90
       50
176
     1
 90
       50
176
     1
 90
       50
176
     1
290
     0
176
     1
 90
       50
176
     1
 62
   256
176
     0
 40
1.0
176
     0
 90
        2
176
     1
  1
strokes_ogs.tif
176
     1
290
     0
176
     1
 40
1.0
176
     1
 40
1.0
176
     1
  0
VISUALSTYLE
  5
31
102
{ACAD_REACTORS
330
2A
102
}
330
2A
100
AcDbVisualStyle
  2
Hidden
 70
     6
177
     3
291
     0
 70
    58
 90
        1
176
     1
 90
        2
176
     1
 90
        2
176
     1
 90
        0
176
     1
 40
0.6
176
     1
 40
30.0
176
     1
 62
     7
420
 16777215
176
     1
 90
        2
176
     1
 90
        2
176
     1
 62
     7
176
     1
 62
   257
176
     1
 90
        2
176
     1
 90
        1
176
     1
 40
40.0
176
     1
 90
        0
176
     1
 62
   257
176
     1
 40
1.0
176
     1
 90
        1
176
     1
 90
        6
176
     1
 90
        2
176
     1
 62
     7
176
     1
 90
        3
176
     1
 90
        0
176
     1
 90
        0
176
     1
290
     0
176
     1
 90
        1
176
     1
 40
0.0
176
     1
 90
        0
176
     1
290
     0
176
     1
290
     1
176
     1
290
     1
176
     1
290
     0
176
     1
290
     0
176
     1
290
     0
176
     1
290
     0
176
     1
290
     0
176
     1
290
     0
176
     1
 90
       50
176
     1
 40
0.0
176
     1
 40
1.0
176
     1
 90
        0
176
     1
 62
    18
420
        0
176
     1
 90
       50
176
     1
 90
        3
176
     1
 62
     5
420
      255
176
     1
290
     0
176
     1
 90
       50
176
     1
 90
       50
176
     1
 90
       50
176
     1
290
     0
176
     1
 90
       50
176
     1
 62
   256
176
     0
 40
1.0
176
     0
 90
        2
176
     1
  1
strokes_ogs.tif
176
     1
290
     0
176
     1
 40
1.0
176
     1
 40
1.0
176
     1
  0
VISUALSTYLE
  5
3B
102
{ACAD_REACTORS
330
2A
102
}
330
2A
100
AcDbVisualStyle
  2
JitterOff
 70
    20
177
     3
291
     1
 70
    58
 90
        2
176
     0
 90
        2
176
     0
 90
        0
176
     0
 90
        0
176
     0
 40
0.6
176
     0
 40
30.0
176
     0
 62
     7
420
 16777215
176
     0
 90
        1
176
     0
 90
        4
176
     0
 62
     7
176
     0
 62
   257
176
     0
 90
        1
176
     0
 90
        1
176
     0
 40
1.0
176
     0
 90
       10
176
     2
 62
     7
176
     0
 40
1.0
176
     0
 90
        1
176
     0
 90
        6
176
     0
 90
        2
176
     0
 62
     7
176
     0
 90
        5
176
     0
 90
        0
176
     0
 90
        0
176
     0
290
     0
176
     0
 90
        1
176
     0
 40
0.0
176
     0
 90
        0
176
     0
290
     0
176
     0
290
     1
176
     0
290
     1
176
     0
290
     0
176
     0
290
     0
176
     0
290
     0
176
     0
290
     0
176
     0
290
     0
176
     0
290
     0
176
     0
 90
       50
176
     0
 40
0.0
176
     0
 40
1.0
176
     0
 90
        0
176
     0
 62
    18
420
        0
176
     0
 90
       50
176
     0
 90
        3
176
     0
 62
     5
420
      255
176
     0
290
     0
176
     0
 90
       50
176
     0
 90
       50
176
     0
 90
       50
176
     0
290
     0
176
     0
 90
       50
176
     0
 62
   256
176
     0
 40
1.0
176
     0
 90
        2
176
     0
  1
strokes_ogs.tif
176
     0
290
     0
176
     0
 40
1.0
176
     0
 40
1.0
176
     0
  0
VISUALSTYLE
  5
38
102
{ACAD_REACTORS
330
2A
102
}
330
2A
100
AcDbVisualStyle
  2
Linepattern
 70
    14
177
     3
291
     1
 70
    58
 90
        2
176
     1
 90
        2
176
     1
 90
        0
176
     1
 90
        0
176
     1
 40
0.6
176
     1
 40
30.0
176
     1
 62
     7
420
 16777215
176
     1
 90
        1
176
     1
 90
        4
176
     1
 62
     7
176
     1
 62
   257
176
     1
 90
        7
176
     1
 90
        7
176
     1
 40
1.0
176
     1
 90
        8
176
     1
 62
     7
176
     1
 40
1.0
176
     1
 90
        1
176
     1
 90
        6
176
     1
 90
        2
176
     1
 62
     7
176
     1
 90
        5
176
     1
 90
        0
176
     1
 90
        0
176
     1
290
     0
176
     1
 90
        1
176
     1
 40
0.0
176
     1
 90
        0
176
     1
290
     0
176
     1
290
     1
176
     1
290
     1
176
     1
290
     0
176
     1
290
     0
176
     1
290
     0
176
     1
290
     0
176
     1
290
     0
176
     1
290
     0
176
     1
 90
       50
176
     1
 40
0.0
176
     1
 40
1.0
176
     1
 90
        0
176
     1
 62
    18
420
        0
176
     1
 90
       50
176
     1
 90
        3
176
     1
 62
     5
420
      255
176
     1
290
     0
176
     1
 90
       50
176
     1
 90
       50
176
     1
 90
       50
176
     1
290
     0
176
     1
 90
       50
176
     1
 62
   256
176
     0
 40
1.0
176
     0
 90
        2
176
     1
  1
strokes_ogs.tif
176
     1
290
     0
176
     1
 40
1.0
176
     1
 40
1.0
176
     1
  0
VISUALSTYLE
  5
3C
102
{ACAD_REACTORS
330
2A
102
}
330
2A
100
AcDbVisualStyle
  2
OverhangOff
 70
    21
177
     3
291
     1
 70
    58
 90
        2
176
     0
 90
        2
176
     0
 90
        0
176
     0
 90
        0
176
     0
 40
0.6
176
     0
 40
30.0
176
     0
 62
     7
420
 16777215
176
     0
 90
        1
176
     0
 90
        4
176
     0
 62
     7
176
     0
 62
   257
176
     0
 90
        1
176
     0
 90
        1
176
     0
 40
1.0
176
     0
 90
        9
176
     2
 62
     7
176
     0
 40
1.0
176
     0
 90
        1
176
     0
 90
        6
176
     0
 90
        2
176
     0
 62
     7
176
     0
 90
        5
176
     0
 90
        0
176
     0
 90
        0
176
     0
290
     0
176
     0
 90
        1
176
     0
 40
0.0
176
     0
 90
        0
176
     0
290
     0
176
     0
290
     1
176
     0
290
     1
176
     0
290
     0
176
     0
290
     0
176
     0
290
     0
176
     0
290
     0
176
     0
290
     0
176
     0
290
     0
176
     0
 90
       50
176
     0
 40
0.0
176
     0
 40
1.0
176
     0
 90
        0
176
     0
 62
    18
420
        0
176
     0
 90
       50
176
     0
 90
        3
176
     0
 62
     5
420
      255
176
     0
290
     0
176
     0
 90
       50
176
     0
 90
       50
176
     0
 90
       50
176
     0
290
     0
176
     0
 90
       50
176
     0
 62
   256
176
     0
 40
1.0
176
     0
 90
        2
176
     0
  1
strokes_ogs.tif
176
     0
290
     0
176
     0
 40
1.0
176
     0
 40
1.0
176
     0
  0
VISUALSTYLE
  5
33
102
{ACAD_REACTORS
330
2A
102
}
330
2A
100
AcDbVisualStyle
  2
Realistic
 70
     8
177
     3
291
     0
 70
    58
 90
        2
176
     1
 90
        3
176
     1
 90
        0
176
     1
 90
        2
176
     1
 40
0.6
176
     1
 40
30.0
176
     1
 62
     7
420
 16777215
176
     1
 90
        0
176
     1
 90
        0
176
     1
 62
     7
176
     1
 62
   257
176
     1
 90
        1
176
     1
 90
        1
176
     1
 40
1.0
176
     1
 90
        8
176
     1
 62
   257
176
     1
 40
1.0
176
     1
 90
        1
176
     1
 90
        6
176
     1
 90
        2
176
     1
 62
     7
176
     1
 90
        3
176
     1
 90
        0
176
     1
 90
        0
176
     1
290
     0
176
     1
 90
       13
176
     1
 40
0.0
176
     1
 90
        0
176
     1
290
     0
176
     1
290
     1
176
     1
290
     1
176
     1
290
     0
176
     1
290
     0
176
     1
290
     0
176
     1
290
     0
176
     1
290
     0
176
     1
290
     0
176
     1
 90
       50
176
     1
 40
0.0
176
     1
 40
1.0
176
     1
 90
        0
176
     1
 62
    18
420
        0
176
     1
 90
       50
176
     1
 90
        3
176
     1
 62
     5
420
      255
176
     1
290
     0
176
     1
 90
       50
176
     1
 90
       50
176
     1
 90
       50
176
     1
290
     0
176
     1
 90
       50
176
     1
 62
   256
176
     0
 40
1.0
176
     0
 90
        2
176
     1
  1
strokes_ogs.tif
176
     1
290
     0
176
     1
 40
1.0
176
     1
 40
1.0
176
     1
  0
VISUALSTYLE
  5
42
102
{ACAD_REACTORS
330
2A
102
}
330
2A
100
AcDbVisualStyle
  2
Shaded
 70
    27
177
     3
291
     0
 70
    58
 90
        2
176
     1
 90
        2
176
     1
 90
        1
176
     1
 90
        2
176
     1
 40
0.6
176
     1
 40
30.0
176
     1
 62
     7
420
 16777215
176
     1
 90
        0
176
     1
 90
        4
176
     1
 62
     7
176
     1
 62
   257
176
     1
 90
        1
176
     1
 90
        1
176
     1
 40
1.0
176
     1
 90
        8
176
     1
 62
   257
176
     1
 40
1.0
176
     1
 90
        1
176
     1
 90
        6
176
     1
 90
        2
176
     1
 62
     8
420
  7895160
176
     1
 90
        3
176
     1
 90
        0
176
     1
 90
        0
176
     1
290
     0
176
     1
 90
        5
176
     1
 40
0.0
176
     1
 90
        0
176
     1
290
     0
176
     1
290
     1
176
     1
290
     1
176
     1
290
     0
176
     1
290
     0
176
     1
290
     0
176
     1
290
     0
176
     1
290
     0
176
     1
290
     0
176
     1
 90
       50
176
     1
 40
0.0
176
     1
 40
1.0
176
     1
 90
        0
176
     1
 62
    18
420
        0
176
     1
 90
       50
176
     1
 90
        3
176
     1
 62
     5
420
      255
176
     1
290
     0
176
     1
 90
       50
176
     1
 90
       50
176
     1
 90
       50
176
     1
290
     0
176
     1
 90
       50
176
     1
 62
   256
176
     0
 40
1.0
176
     0
 90
        2
176
     1
  1
strokes_ogs.tif
176
     1
290
     0
176
     1
 40
1.0
176
     1
 40
1.0
176
     1
  0
VISUALSTYLE
  5
41
102
{ACAD_REACTORS
330
2A
102
}
330
2A
100
AcDbVisualStyle
  2
Shaded with edges
 70
    26
177
     3
291
     0
 70
    58
 90
        2
176
     1
 90
        2
176
     1
 90
        1
176
     1
 90
        2
176
     1
 40
0.6
176
     1
 40
30.0
176
     1
 62
     7
420
 16777215
176
     1
 90
        1
176
     1
 90
       10
176
     1
 62
     7
176
     1
 62
   257
176
     1
 90
        2
176
     1
 90
        1
176
     1
 40
1.0
176
     1
 90
        8
176
     1
 62
   257
176
     1
 40
1.0
176
     1
 90
        1
176
     1
 90
        6
176
     1
 90
        2
176
     1
 62
     7
176
     1
 90
        3
176
     1
 90
        0
176
     1
 90
        0
176
     1
290
     0
176
     1
 90
        5
176
     1
 40
0.0
176
     1
 90
        0
176
     1
290
     0
176
     1
290
     1
176
     1
290
     1
176
     1
290
     0
176
     1
290
     0
176
     1
290
     0
176
     1
290
     0
176
     1
290
     0
176
     1
290
     0
176
     1
 90
       50
176
     1
 40
0.0
176
     1
 40
1.0
176
     1
 90
        0
176
     1
 62
    18
420
        0
176
     1
 90
       50
176
     1
 90
        3
176
     1
 62
     5
420
      255
176
     1
290
     0
176
     1
 90
       50
176
     1
 90
       50
176
     1
 90
       50
176
     1
290
     0
176
     1
 90
       50
176
     1
 62
   256
176
     0
 40
1.0
176
     0
 90
        2
176
     1
  1
strokes_ogs.tif
176
     1
290
     0
176
     1
 40
1.0
176
     1
 40
1.0
176
     1
  0
VISUALSTYLE
  5
3E
102
{ACAD_REACTORS
330
2A
102
}
330
2A
100
AcDbVisualStyle
  2
Shades of Gray
 70
    23
177
     3
291
     0
 70
    58
 90
        2
176
     1
 90
        2
176
     1
 90
        3
176
     1
 90
        0
176
     1
 40
0.6
176
     1
 40
30.0
176
     1
 62
     7
420
 16777215
176
     1
 90
        2
176
     1
 90
        2
176
     1
 62
     7
176
     1
 62
     7
176
     1
 90
        1
176
     1
 90
        1
176
     1
 40
40.0
176
     1
 90
        8
176
     1
 62
     7
176
     1
 40
1.0
176
     1
 90
        1
176
     1
 90
        6
176
     1
 90
        2
176
     1
 62
     7
176
     1
 90
        3
176
     1
 90
        0
176
     1
 90
        0
176
     1
290
     0
176
     1
 90
        1
176
     1
 40
0.0
176
     1
 90
        0
176
     1
290
     0
176
     1
290
     1
176
     1
290
     1
176
     1
290
     0
176
     1
290
     0
176
     1
290
     0
176
     1
290
     0
176
     1
290
     0
176
     1
290
     0
176
     1
 90
       50
176
     1
 40
0.0
176
     1
 40
1.0
176
     1
 90
        0
176
     1
 62
    18
420
        0
176
     1
 90
       50
176
     1
 90
        3
176
     1
 62
     5
420
      255
176
     1
290
     0
176
     1
 90
       50
176
     1
 90
       50
176
     1
 90
       50
176
     1
290
     0
176
     1
 90
       50
176
     1
 62
   256
176
     0
 40
1.0
176
     0
 90
        2
176
     1
  1
strokes_ogs.tif
176
     1
290
     0
176
     1
 40
1.0
176
     1
 40
1.0
176
     1
  0
VISUALSTYLE
  5
3F
102
{ACAD_REACTORS
330
2A
102
}
330
2A
100
AcDbVisualStyle
  2
Sketchy
 70
    24
177
     3
291
     0
 70
    58
 90
        1
176
     1
 90
        2
176
     1
 90
        2
176
     1
 90
        0
176
     1
 40
0.6
176
     1
 40
30.0
176
     1
 62
     7
420
 16777215
176
     1
 90
        2
176
     1
 90
        2
176
     1
 62
     7
176
     1
 62
     7
176
     1
 90
        1
176
     1
 90
        1
176
     1
 40
40.0
176
     1
 90
       11
176
     1
 62
     7
176
     1
 40
1.0
176
     1
 90
        1
176
     1
 90
        6
176
     1
 90
        2
176
     1
 62
     7
176
     1
 90
        6
176
     1
 90
        0
176
     1
 90
        0
176
     1
290
     0
176
     1
 90
        1
176
     1
 40
0.0
176
     1
 90
        0
176
     1
290
     0
176
     1
290
     1
176
     1
290
     1
176
     1
290
     0
176
     1
290
     0
176
     1
290
     0
176
     1
290
     0
176
     1
290
     0
176
     1
290
     0
176
     1
 90
       50
176
     1
 40
0.0
176
     1
 40
1.0
176
     1
 90
        0
176
     1
 62
    18
420
        0
176
     1
 90
       50
176
     1
 90
        3
176
     1
 62
     5
420
      255
176
     1
290
     0
176
     1
 90
       50
176
     1
 90
       50
176
     1
 90
       50
176
     1
290
     0
176
     1
 90
       50
176
     1
 62
   256
176
     0
 40
1.0
176
     0
 90
        2
176
     1
  1
strokes_ogs.tif
176
     1
290
     0
176
     1
 40
1.0
176
     1
 40
1.0
176
     1
  0
VISUALSTYLE
  5
37
102
{ACAD_REACTORS
330
2A
102
}
330
2A
100
AcDbVisualStyle
  2
Thicken
 70
    13
177
     3
291
     1
 70
    58
 90
        2
176
     1
 90
        2
176
     1
 90
        0
176
     1
 90
        0
176
     1
 40
0.6
176
     1
 40
30.0
176
     1
 62
     7
420
 16777215
176
     1
 90
        1
176
     1
 90
        4
176
     1
 62
     7
176
     1
 62
   257
176
     1
 90
        1
176
     1
 90
        1
176
     1
 40
1.0
176
     1
 90
       12
176
     1
 62
     7
176
     1
 40
1.0
176
     1
 90
        1
176
     1
 90
        6
176
     1
 90
        2
176
     1
 62
     7
176
     1
 90
        5
176
     1
 90
        0
176
     1
 90
        0
176
     1
290
     0
176
     1
 90
        1
176
     1
 40
0.0
176
     1
 90
        0
176
     1
290
     0
176
     1
290
     1
176
     1
290
     1
176
     1
290
     0
176
     1
290
     0
176
     1
290
     0
176
     1
290
     0
176
     1
290
     0
176
     1
290
     0
176
     1
 90
       50
176
     1
 40
0.0
176
     1
 40
1.0
176
     1
 90
        0
176
     1
 62
    18
420
        0
176
     1
 90
       50
176
     1
 90
        3
176
     1
 62
     5
420
      255
176
     1
290
     0
176
     1
 90
       50
176
     1
 90
       50
176
     1
 90
       50
176
     1
290
     0
176
     1
 90
       50
176
     1
 62
   256
176
     0
 40
1.0
176
     0
 90
        2
176
     1
  1
strokes_ogs.tif
176
     1
290
     0
176
     1
 40
1.0
176
     1
 40
1.0
176
     1
  0
VISUALSTYLE
  5
30
102
{ACAD_REACTORS
330
2A
102
}
330
2A
100
AcDbVisualStyle
  2
Wireframe
 70
     5
177
     3
291
     0
 70
    58
 90
        0
176
     1
 90
        2
176
     1
 90
        0
176
     1
 90
        0
176
     1
 40
0.6
176
     1
 40
30.0
176
     1
 62
     7
420
 16777215
176
     1
 90
        1
176
     1
 90
        4
176
     1
 62
     7
176
     1
 62
   257
176
     1
 90
        1
176
     1
 90
        1
176
     1
 40
1.0
176
     1
 90
        0
176
     1
 62
   257
176
     1
 40
1.0
176
     1
 90
        1
176
     1
 90
        6
176
     1
 90
        2
176
     1
 62
     7
176
     1
 90
        3
176
     1
 90
        0
176
     1
 90
        0
176
     1
290
     0
176
     1
 90
        1
176
     1
 40
0.0
176
     1
 90
        0
176
     1
290
     0
176
     1
290
     1
176
     1
290
     1
176
     1
290
     0
176
     1
290
     0
176
     1
290
     0
176
     1
290
     0
176
     1
290
     0
176
     1
290
     0
176
     1
 90
       50
176
     1
 40
0.0
176
     1
 40
1.0
176
     1
 90
        0
176
     1
 62
    18
420
        0
176
     1
 90
       50
176
     1
 90
        3
176
     1
 62
     5
420
      255
176
     1
290
     0
176
     1
 90
       50
176
     1
 90
       50
176
     1
 90
       50
176
     1
290
     0
176
     1
 90
       50
176
     1
 62
   256
176
     0
 40
1.0
176
     0
 90
        2
176
     1
  1
strokes_ogs.tif
176
     1
290
     0
176
     1
 40
1.0
176
     1
 40
1.0
176
     1
  0
VISUALSTYLE
  5
40
102
{ACAD_REACTORS
330
2A
102
}
330
2A
100
AcDbVisualStyle
  2
X-Ray
 70
    25
177
     3
291
     0
 70
    58
 90
        2
176
     1
 90
        2
176
     1
 90
        1
176
     1
 90
        1
176
     1
 40
0.5
176
     1
 40
30.0
176
     1
 62
     7
420
 16777215
176
     1
 90
        1
176
     1
 90
        0
176
     1
 62
     7
176
     1
 62
   257
176
     1
 90
        1
176
     1
 90
        1
176
     1
 40
1.0
176
     1
 90
        8
176
     1
 62
     7
176
     1
 40
1.0
176
     1
 90
        1
176
     1
 90
        6
176
     1
 90
        2
176
     1
 62
     7
176
     1
 90
        3
176
     1
 90
        0
176
     1
 90
        0
176
     1
290
     0
176
     1
 90
       13
176
     1
 40
0.0
176
     1
 90
        0
176
     1
290
     0
176
     1
290
     1
176
     1
290
     1
176
     1
290
     0
176
     1
290
     0
176
     1
290
     0
176
     1
290
     0
176
     1
290
     0
176
     1
290
     0
176
     1
 90
       50
176
     1
 40
0.0
176
     1
 40
1.0
176
     1
 90
        0
176
     1
 62
    18
420
        0
176
     1
 90
       50
176
     1
 90
        3
176
     1
 62
     5
420
      255
176
     1
290
     0
176
     1
 90
       50
176
     1
 90
       50
176
     1
 90
       50
176
     1
290
     0
176
     1
 90
       50
176
     1
 62
   256
176
     0
 40
1.0
176
     0
 90
        2
176
     1
  1
strokes_ogs.tif
176
     1
290
     0
176
     1
 40
1.0
176
     1
 40
1.0
176
     1
  0
DICTIONARYVAR
  5
D3
102
{ACAD_REACTORS
330
D2
102
}
330
D2
100
DictionaryVariables
280
     0
  1
1:1
  0
DICTIONARYVAR
  5
D8
102
{ACAD_REACTORS
330
D2
102
}
330
D2
100
DictionaryVariables
280
     0
  1
Standard
  0
DICTIONARYVAR
  5
D7
102
{ACAD_REACTORS
330
D2
102
}
330
D2
100
DictionaryVariables
280
     0
  1
Standard
  0
DICTIONARY
  5
D4
330
6A
100
AcDbDictionary
280
     1
281
     1
  3
ACAD_ROUNDTRIP_2008_TABLESTYLE_CELLSTYLEMAP
360
D5
  0
CELLSTYLEMAP
  5
D5
102
{ACAD_REACTORS
330
D4
102
}
330
D4
100
AcDbCellStyleMap
 90
        3
300
CELLSTYLE
  1
TABLEFORMAT_BEGIN
 90
        5
170
     1
 91
        0
 92
    32768
 62
   257
 93
        1
300
CONTENTFORMAT
  1
CONTENTFORMAT_BEGIN
 90
        0
 91
        0
 92
        4
 93
        0
300

 40
0.0
140
1.0
 94
        5
 62
     0
340
11
144
6.0
309
CONTENTFORMAT_END
171
     1
301
MARGIN
  1
CELLMARGIN_BEGIN
 40
1.5
 40
1.5
 40
1.5
 40
1.5
 40
1.5
 40
1.5
309
CELLMARGIN_END
 94
        6
 95
        1
302
GRIDFORMAT
  1
GRIDFORMAT_BEGIN
 90
        0
 91
        1
 62
     0
 92
       -2
340
14
 93
        0
 40
0.045
309
GRIDFORMAT_END
 95
        2
302
GRIDFORMAT
  1
GRIDFORMAT_BEGIN
 90
        0
 91
        1
 62
     0
 92
       -2
340
14
 93
        0
 40
0.045
309
GRIDFORMAT_END
 95
        4
302
GRIDFORMAT
  1
GRIDFORMAT_BEGIN
 90
        0
 91
        1
 62
     0
 92
       -2
340
14
 93
        0
 40
0.045
309
GRIDFORMAT_END
 95
        8
302
GRIDFORMAT
  1
GRIDFORMAT_BEGIN
 90
        0
 91
        1
 62
     0
 92
       -2
340
14
 93
        0
 40
0.045
309
GRIDFORMAT_END
 95
       16
302
GRIDFORMAT
  1
GRIDFORMAT_BEGIN
 90
        0
 91
        1
 62
     0
 92
       -2
340
14
 93
        0
 40
0.045
309
GRIDFORMAT_END
 95
       32
302
GRIDFORMAT
  1
GRIDFORMAT_BEGIN
 90
        0
 91
        1
 62
     0
 92
       -2
340
14
 93
        0
 40
0.045
309
GRIDFORMAT_END
309
TABLEFORMAT_END
  1
CELLSTYLE_BEGIN
 90
        1
 91
        1
300
_TITLE
309
CELLSTYLE_END
300
CELLSTYLE
  1
TABLEFORMAT_BEGIN
 90
        5
170
     1
 91
        0
 92
        0
 62
   257
 93
        1
300
CONTENTFORMAT
  1
CONTENTFORMAT_BEGIN
 90
        0
 91
        0
 92
        4
 93
        0
300

 40
0.0
140
1.0
 94
        5
 62
     0
340
11
144
4.5
309
CONTENTFORMAT_END
171
     1
301
MARGIN
  1
CELLMARGIN_BEGIN
 40
1.5
 40
1.5
 40
1.5
 40
1.5
 40
1.5
 40
1.5
309
CELLMARGIN_END
 94
        6
 95
        1
302
GRIDFORMAT
  1
GRIDFORMAT_BEGIN
 90
        0
 91
        1
 62
     0
 92
       -2
340
14
 93
        0
 40
0.045
309
GRIDFORMAT_END
 95
        2
302
GRIDFORMAT
  1
GRIDFORMAT_BEGIN
 90
        0
 91
        1
 62
     0
 92
       -2
340
14
 93
        0
 40
0.045
309
GRIDFORMAT_END
 95
        4
302
GRIDFORMAT
  1
GRIDFORMAT_BEGIN
 90
        0
 91
        1
 62
     0
 92
       -2
340
14
 93
        0
 40
0.045
309
GRIDFORMAT_END
 95
        8
302
GRIDFORMAT
  1
GRIDFORMAT_BEGIN
 90
        0
 91
        1
 62
     0
 92
       -2
340
14
 93
        0
 40
0.045
309
GRIDFORMAT_END
 95
       16
302
GRIDFORMAT
  1
GRIDFORMAT_BEGIN
 90
        0
 91
        1
 62
     0
 92
       -2
340
14
 93
        0
 40
0.045
309
GRIDFORMAT_END
 95
       32
302
GRIDFORMAT
  1
GRIDFORMAT_BEGIN
 90
        0
 91
        1
 62
     0
 92
       -2
340
14
 93
        0
 40
0.045
309
GRIDFORMAT_END
309
TABLEFORMAT_END
  1
CELLSTYLE_BEGIN
 90
        2
 91
        1
300
_HEADER
309
CELLSTYLE_END
300
CELLSTYLE
  1
TABLEFORMAT_BEGIN
 90
        5
170
     1
 91
        0
 92
        0
 62
   257
 93
        1
300
CONTENTFORMAT
  1
CONTENTFORMAT_BEGIN
 90
        0
 91
        0
 92
        4
 93
        0
300

 40
0.0
140
1.0
 94
        2
 62
     0
340
11
144
4.5
309
CONTENTFORMAT_END
171
     1
301
MARGIN
  1
CELLMARGIN_BEGIN
 40
1.5
 40
1.5
 40
1.5
 40
1.5
 40
1.5
 40
1.5
309
CELLMARGIN_END
 94
        6
 95
        1
302
GRIDFORMAT
  1
GRIDFORMAT_BEGIN
 90
        0
 91
        1
 62
     0
 92
       -2
340
14
 93
        0
 40
0.045
309
GRIDFORMAT_END
 95
        2
302
GRIDFORMAT
  1
GRIDFORMAT_BEGIN
 90
        0
 91
        1
 62
     0
 92
       -2
340
14
 93
        0
 40
0.045
309
GRIDFORMAT_END
 95
        4
302
GRIDFORMAT
  1
GRIDFORMAT_BEGIN
 90
        0
 91
        1
 62
     0
 92
       -2
340
14
 93
        0
 40
0.045
309
GRIDFORMAT_END
 95
        8
302
GRIDFORMAT
  1
GRIDFORMAT_BEGIN
 90
        0
 91
        1
 62
     0
 92
       -2
340
14
 93
        0
 40
0.045
309
GRIDFORMAT_END
 95
       16
302
GRIDFORMAT
  1
GRIDFORMAT_BEGIN
 90
        0
 91
        1
 62
     0
 92
       -2
340
14
 93
        0
 40
0.045
309
GRIDFORMAT_END
 95
       32
302
GRIDFORMAT
  1
GRIDFORMAT_BEGIN
 90
        0
 91
        1
 62
     0
 92
       -2
340
14
 93
        0
 40
0.045
309
GRIDFORMAT_END
309
TABLEFORMAT_END
  1
CELLSTYLE_BEGIN
 90
        3
 91
        2
300
_DATA
309
CELLSTYLE_END
  0
ENDSEC
  0
EOF
