  0
SECTION
  2
HEADER
  9
$ACADVER
  1
AC1015
  9
$ACADMAINTVER
 70
     6
  9
$DWGCODEPAGE
  3
ANSI_1251
  9
$INSBASE
 10
0.0
 20
0.0
 30
0.0
  9
$EXTMIN
 10
0.0
 20
0.0
 30
0.0
  9
$EXTMAX
 10
841.0
 20
594.0
 30
0.0
  9
$LIMMIN
 10
0.0
 20
0.0
  9
$LIMMAX
 10
841.0
 20
594.0
  9
$ORTHOMODE
 70
     0
  9
$REGENMODE
 70
     1
  9
$FILLMODE
 70
     1
  9
$QTEXTMODE
 70
     0
  9
$MIRRTEXT
 70
     1
  9
$LTSCALE
 40
1.0
  9
$ATTMODE
 70
     1
  9
$TEXTSIZE
 40
3.5
  9
$TRACEWID
 40
1.0
  9
$TEXTSTYLE
  7
Standard
  9
$CLAYER
  8
0
  9
$CELTYPE
  6
ByLayer
  9
$CECOLOR
 62
   256
  9
$CELTSCALE
 40
1.0
  9
$DISPSILH
 70
     0
  9
$DIMSCALE
 40
1.0
  9
$DIMASZ
 40
3.5
  9
$DIMEXO
 40
0.01
  9
$DIMDLI
 40
3.75
  9
$DIMRND
 40
0.0
  9
$DIMDLE
 40
0.0
  9
$DIMEXE
 40
1.0
  9
$DIMTP
 40
0.0
  9
$DIMTM
 40
0.0
  9
$DIMTXT
 40
3.5
  9
$DIMCEN
 40
2.5
  9
$DIMTSZ
 40
0.0
  9
$DIMTOL
 70
     0
  9
$DIMLIM
 70
     0
  9
$DIMTIH
 70
     1
  9
$DIMTOH
 70
     1
  9
$DIMSE1
 70
     0
  9
$DIMSE2
 70
     0
  9
$DIMTAD
 70
     1
  9
$DIMZIN
 70
     0
  9
$DIMBLK
  1

  9
$DIMASO
 70
     1
  9
$DIMSHO
 70
     1
  9
$DIMPOST
  1

  9
$DIMAPOST
  1

  9
$DIMALT
 70
     0
  9
$DIMALTD
 70
     3
  9
$DIMALTF
 40
0.0393700787
  9
$DIMLFAC
 40
1.0
  9
$DIMTOFL
 70
     1
  9
$DIMTVP
 40
0.0
  9
$DIMTIX
 70
     0
  9
$DIMSOXD
 70
     0
  9
$DIMSAH
 70
     0
  9
$DIMBLK1
  1

  9
$DIMBLK2
  1

  9
$DIMSTYLE
  2
ISO-25
  9
$DIMCLRD
 70
     0
  9
$DIMCLRE
 70
     0
  9
$DIMCLRT
 70
     0
  9
$DIMTFAC
 40
1.0
  9
$DIMGAP
 40
3.0
  9
$DIMJUST
 70
     0
  9
$DIMSD1
 70
     0
  9
$DIMSD2
 70
     0
  9
$DIMTOLJ
 70
     0
  9
$DIMTZIN
 70
     0
  9
$DIMALTZ
 70
     0
  9
$DIMALTTZ
 70
     0
  9
$DIMUPT
 70
     0
  9
$DIMDEC
 70
     2
  9
$DIMTDEC
 70
     3
  9
$DIMALTU
 70
     2
  9
$DIMALTTD
 70
     3
  9
$DIMTXSTY
  7
Standard
  9
$DIMAUNIT
 70
     0
  9
$DIMADEC
 70
     2
  9
$DIMALTRND
 40
0.0
  9
$DIMAZIN
 70
     0
  9
$DIMDSEP
 70
    44
  9
$DIMATFIT
 70
     3
  9
$DIMFRAC
 70
     0
  9
$DIMLDRBLK
  1

  9
$DIMLUNIT
 70
     2
  9
$DIMLWD
 70
    -2
  9
$DIMLWE
 70
    -2
  9
$DIMTMOVE
 70
     0
  9
$LUNITS
 70
     2
  9
$LUPREC
 70
     2
  9
$SKETCHINC
 40
1.0
  9
$FILLETRAD
 40
10.0
  9
$AUNITS
 70
     0
  9
$AUPREC
 70
     2
  9
$MENU
  1
.
  9
$ELEVATION
 40
0.0
  9
$PELEVATION
 40
0.0
  9
$THICKNESS
 40
0.0
  9
$LIMCHECK
 70
     0
  9
$CHAMFERA
 40
0.0
  9
$CHAMFERB
 40
0.0
  9
$CHAMFERC
 40
0.0
  9
$CHAMFERD
 40
0.0
  9
$SKPOLY
 70
     0
  9
$TDCREATE
 40
2459732.594394109
  9
$TDUCREATE
 40
2459732.469394109
  9
$TDUPDATE
 40
2459732.594395231
  9
$TDUUPDATE
 40
2459732.469395231
  9
$TDINDWG
 40
0.0000000116
  9
$TDUSRTIMER
 40
0.0000000116
  9
$USRTIMER
 70
     1
  9
$ANGBASE
 50
0.0
  9
$ANGDIR
 70
     0
  9
$PDMODE
 70
     0
  9
$PDSIZE
 40
-1.0
  9
$PLINEWID
 40
0.0
  9
$SPLFRAME
 70
     0
  9
$SPLINETYPE
 70
     6
  9
$SPLINESEGS
 70
     8
  9
$HANDSEED
  5
453
  9
$SURFTAB1
 70
     6
  9
$SURFTAB2
 70
     6
  9
$SURFTYPE
 70
     6
  9
$SURFU
 70
     6
  9
$SURFV
 70
     6
  9
$UCSBASE
  2

  9
$UCSNAME
  2

  9
$UCSORG
 10
0.0
 20
0.0
 30
0.0
  9
$UCSXDIR
 10
1.0
 20
0.0
 30
0.0
  9
$UCSYDIR
 10
0.0
 20
1.0
 30
0.0
  9
$UCSORTHOREF
  2

  9
$UCSORTHOVIEW
 70
     0
  9
$UCSORGTOP
 10
0.0
 20
0.0
 30
0.0
  9
$UCSORGBOTTOM
 10
0.0
 20
0.0
 30
0.0
  9
$UCSORGLEFT
 10
0.0
 20
0.0
 30
0.0
  9
$UCSORGRIGHT
 10
0.0
 20
0.0
 30
0.0
  9
$UCSORGFRONT
 10
0.0
 20
0.0
 30
0.0
  9
$UCSORGBACK
 10
0.0
 20
0.0
 30
0.0
  9
$PUCSBASE
  2

  9
$PUCSNAME
  2

  9
$PUCSORG
 10
0.0
 20
0.0
 30
0.0
  9
$PUCSXDIR
 10
1.0
 20
0.0
 30
0.0
  9
$PUCSYDIR
 10
0.0
 20
1.0
 30
0.0
  9
$PUCSORTHOREF
  2

  9
$PUCSORTHOVIEW
 70
     0
  9
$PUCSORGTOP
 10
0.0
 20
0.0
 30
0.0
  9
$PUCSORGBOTTOM
 10
0.0
 20
0.0
 30
0.0
  9
$PUCSORGLEFT
 10
0.0
 20
0.0
 30
0.0
  9
$PUCSORGRIGHT
 10
0.0
 20
0.0
 30
0.0
  9
$PUCSORGFRONT
 10
0.0
 20
0.0
 30
0.0
  9
$PUCSORGBACK
 10
0.0
 20
0.0
 30
0.0
  9
$USERI1
 70
     0
  9
$USERI2
 70
     0
  9
$USERI3
 70
     0
  9
$USERI4
 70
     0
  9
$USERI5
 70
     0
  9
$USERR1
 40
0.0
  9
$USERR2
 40
0.0
  9
$USERR3
 40
0.0
  9
$USERR4
 40
0.0
  9
$USERR5
 40
0.0
  9
$WORLDVIEW
 70
     1
  9
$SHADEDGE
 70
     3
  9
$SHADEDIF
 70
    70
  9
$TILEMODE
 70
     1
  9
$MAXACTVP
 70
    64
  9
$PINSBASE
 10
0.0
 20
0.0
 30
0.0
  9
$PLIMCHECK
 70
     0
  9
$PEXTMIN
 10
1.0000000000E+20
 20
1.0000000000E+20
 30
1.0000000000E+20
  9
$PEXTMAX
 10
-1.0000000000E+20
 20
-1.0000000000E+20
 30
-1.0000000000E+20
  9
$PLIMMIN
 10
0.0
 20
0.0
  9
$PLIMMAX
 10
420.0
 20
297.0
  9
$UNITMODE
 70
     0
  9
$VISRETAIN
 70
     1
  9
$PLINEGEN
 70
     0
  9
$PSLTSCALE
 70
     1
  9
$TREEDEPTH
 70
  3020
  9
$CMLSTYLE
  2
Standard
  9
$CMLJUST
 70
     0
  9
$CMLSCALE
 40
20.0
  9
$PROXYGRAPHICS
 70
     1
  9
$MEASUREMENT
 70
     1
  9
$CELWEIGHT
370
    -1
  9
$ENDCAPS
280
     0
  9
$JOINSTYLE
280
     0
  9
$LWDISPLAY
290
     1
  9
$INSUNITS
 70
     4
  9
$HYPERLINKBASE
  1

  9
$STYLESHEET
  1

  9
$XEDIT
290
     1
  9
$CEPSNTYPE
380
     0
  9
$PSTYLEMODE
290
     1
  9
$FINGERPRINTGUID
  2
{A4DCEC9C-9DD2-48DF-866B-03CEF761FB56}
  9
$VERSIONGUID
  2
{FAEB1C32-E019-11D5-929B-00C0DF256EC4}
  9
$EXTNAMES
290
     1
  9
$PSVPSCALE
 40
0.0
  9
$OLESTARTUP
290
     0
  0
ENDSEC
  0
SECTION
  2
CLASSES
  0
CLASS
  1
ACDBDICTIONARYWDFLT
  2
AcDbDictionaryWithDefault
  3
ObjectDBX Classes
 90
        0
280
     0
281
     0
  0
CLASS
  1
VISUALSTYLE
  2
AcDbVisualStyle
  3
ObjectDBX Classes
 90
     4095
280
     0
281
     0
  0
CLASS
  1
MATERIAL
  2
AcDbMaterial
  3
ObjectDBX Classes
 90
     1153
280
     0
281
     0
  0
CLASS
  1
SCALE
  2
AcDbScale
  3
ObjectDBX Classes
 90
     1153
280
     0
281
     0
  0
CLASS
  1
TABLESTYLE
  2
AcDbTableStyle
  3
ObjectDBX Classes
 90
     4095
280
     0
281
     0
  0
CLASS
  1
MLEADERSTYLE
  2
AcDbMLeaderStyle
  3
ACDB_MLEADERSTYLE_CLASS
 90
     4095
280
     0
281
     0
  0
CLASS
  1
SUN
  2
AcDbSun
  3
SCENEOE
 90
     1153
280
     0
281
     0
  0
CLASS
  1
ACDBPLACEHOLDER
  2
AcDbPlaceHolder
  3
ObjectDBX Classes
 90
        0
280
     0
281
     0
  0
CLASS
  1
LAYOUT
  2
AcDbLayout
  3
ObjectDBX Classes
 90
        0
280
     0
281
     0
  0
ENDSEC
  0
SECTION
  2
TABLES
  0
TABLE
  2
VPORT
  5
8
330
0
100
AcDbSymbolTable
 70
     1
  0
VPORT
  5
29
330
8
100
AcDbSymbolTableRecord
100
AcDbViewportTableRecord
  2
*Active
 70
     0
 10
0.0
 20
0.0
 11
1.0
 21
1.0
 12
420.5
 22
297.0
 13
0.0
 23
0.0
 14
10.0
 24
10.0
 15
10.0
 25
10.0
 16
0.0
 26
0.0
 36
1.0
 17
0.0
 27
0.0
 37
0.0
 40
594.0
 41
1.4158249158
 42
50.0
 43
0.0
 44
0.0
 50
0.0
 51
0.0
 71
     0
 72
  2000
 73
     1
 74
     3
 75
     0
 76
     0
 77
     0
 78
     0
281
     0
 65
     1
110
0.0
120
0.0
130
0.0
111
1.0
121
0.0
131
0.0
112
0.0
122
1.0
132
0.0
 79
     0
146
0.0
  0
ENDTAB
  0
TABLE
  2
LTYPE
  5
5
330
0
100
AcDbSymbolTable
 70
     6
  0
LTYPE
  5
14
330
5
100
AcDbSymbolTableRecord
100
AcDbLinetypeTableRecord
  2
ByBlock
 70
     0
  3

 72
    65
 73
     0
 40
0.0
  0
LTYPE
  5
15
330
5
100
AcDbSymbolTableRecord
100
AcDbLinetypeTableRecord
  2
ByLayer
 70
     0
  3

 72
    65
 73
     0
 40
0.0
  0
LTYPE
  5
16
330
5
100
AcDbSymbolTableRecord
100
AcDbLinetypeTableRecord
  2
Continuous
 70
     0
  3
Solid line
 72
    65
 73
     0
 40
0.0
  0
LTYPE
  5
6E
330
5
100
AcDbSymbolTableRecord
100
AcDbLinetypeTableRecord
  2
HIDDEN
 70
     0
  3
Hidden __ __ __ __ __ __ __ __ __ __ __ __ __ __
 72
    65
 73
     2
 40
1.905
 49
1.27
 74
     0
 49
-0.635
 74
     0
  0
LTYPE
  5
6F
330
5
100
AcDbSymbolTableRecord
100
AcDbLinetypeTableRecord
  2
PHANTOM
 70
     0
  3
Phantom ______  __  __  ______  __  __  ______
 72
    65
 73
     6
 40
12.7
 49
6.35
 74
     0
 49
-1.27
 74
     0
 49
1.27
 74
     0
 49
-1.27
 74
     0
 49
1.27
 74
     0
 49
-1.27
 74
     0
  0
LTYPE
  5
70
330
5
100
AcDbSymbolTableRecord
100
AcDbLinetypeTableRecord
  2
CENTER
 70
     0
  3
Center ____ _ ____ _ ____ _ ____ _ ____ _ ____
 72
    65
 73
     4
 40
10.16
 49
6.35
 74
     0
 49
-1.27
 74
     0
 49
1.27
 74
     0
 49
-1.27
 74
     0
  0
LTYPE
  5
71
330
5
100
AcDbSymbolTableRecord
100
AcDbLinetypeTableRecord
  2
CENTERX2
 70
     0
  3
Center (2x) ________  __  ________  __  _____
 72
    65
 73
     4
 40
20.32
 49
12.7
 74
     0
 49
-2.54
 74
     0
 49
2.54
 74
     0
 49
-2.54
 74
     0
  0
LTYPE
  5
72
330
5
100
AcDbSymbolTableRecord
100
AcDbLinetypeTableRecord
  2
DOT2
 70
     0
  3
Dot (.5x) ........................................
 72
    65
 73
     2
 40
0.635
 49
0.0
 74
     0
 49
-0.635
 74
     0
  0
ENDTAB
  0
TABLE
  2
LAYER
  5
2
330
0
100
AcDbSymbolTable
 70
     1
  0
LAYER
  5
10
330
2
100
AcDbSymbolTableRecord
100
AcDbLayerTableRecord
  2
0
 70
     0
 62
     7
  6
Continuous
370
    -3
390
F
  0
ENDTAB
  0
TABLE
  2
STYLE
  5
3
330
0
100
AcDbSymbolTable
 70
     1
  0
STYLE
  5
11
330
3
100
AcDbSymbolTableRecord
100
AcDbTextStyleTableRecord
  2
Standard
 70
     0
 40
0.0
 41
1.0
 50
0.0
 71
     0
 42
3.5
  3
txt
  4

  0
ENDTAB
  0
TABLE
  2
VIEW
  5
6
330
0
100
AcDbSymbolTable
 70
     0
  0
ENDTAB
  0
TABLE
  2
UCS
  5
7
330
0
100
AcDbSymbolTable
 70
     0
  0
ENDTAB
  0
TABLE
  2
APPID
  5
9
330
0
100
AcDbSymbolTable
 70
     1
  0
APPID
  5
12
330
9
100
AcDbSymbolTableRecord
100
AcDbRegAppTableRecord
  2
ACAD
 70
     0
  0
ENDTAB
  0
TABLE
  2
DIMSTYLE
  5
A
330
0
100
AcDbSymbolTable
 70
     1
100
AcDbDimStyleTable
  0
DIMSTYLE
105
27
330
A
100
AcDbSymbolTableRecord
100
AcDbDimStyleTableRecord
  2
ISO-25
 70
     0
 41
2.5
 42
0.625
 43
3.75
 44
1.25
 73
     0
 74
     0
 77
     1
 78
     8
140
2.5
141
2.5
143
0.0393700787
147
0.625
171
     3
172
     1
178
     0
271
     2
272
     2
274
     3
278
    44
283
     0
284
     8
340
11
  0
ENDTAB
  0
TABLE
  2
BLOCK_RECORD
  5
1
330
0
100
AcDbSymbolTable
 70
     1
  0
BLOCK_RECORD
  5
1F
330
1
100
AcDbSymbolTableRecord
100
AcDbBlockTableRecord
  2
*Model_Space
340
22
  0
BLOCK_RECORD
  5
1B
330
1
100
AcDbSymbolTableRecord
100
AcDbBlockTableRecord
  2
*Paper_Space
340
1E
  0
BLOCK_RECORD
  5
23
330
1
100
AcDbSymbolTableRecord
100
AcDbBlockTableRecord
  2
*Paper_Space0
340
26
  0
ENDTAB
  0
ENDSEC
  0
SECTION
  2
BLOCKS
  0
BLOCK
  5
20
330
1F
100
AcDbEntity
  8
0
100
AcDbBlockBegin
  2
*Model_Space
 70
     0
 10
0.0
 20
0.0
 30
0.0
  3
*Model_Space
  1

  0
ENDBLK
  5
21
330
1F
100
AcDbEntity
  8
0
100
AcDbBlockEnd
  0
BLOCK
  5
1C
330
1B
100
AcDbEntity
 67
     1
  8
0
100
AcDbBlockBegin
  2
*Paper_Space
 70
     0
 10
0.0
 20
0.0
 30
0.0
  3
*Paper_Space
  1

  0
ENDBLK
  5
1D
330
1B
100
AcDbEntity
 67
     1
  8
0
100
AcDbBlockEnd
  0
BLOCK
  5
24
330
23
100
AcDbEntity
  8
0
100
AcDbBlockBegin
  2
*Paper_Space0
 70
     0
 10
0.0
 20
0.0
 30
0.0
  3
*Paper_Space0
  1

  0
ENDBLK
  5
25
330
23
100
AcDbEntity
  8
0
100
AcDbBlockEnd
  0
ENDSEC
  0
SECTION
  2
ENTITIES
  0
ARC
  5
73
330
1F
100
AcDbEntity
  8
0
  6
Continuous
 62
     7
370
    25
100
AcDbCircle
 10
564.4433501725
 20
438.028893827
 30
0.0
 40
0.5000000000001137
100
AcDbArc
 50
180.0
 51
0.0
  0
ARC
  5
74
330
1F
100
AcDbEntity
  8
0
  6
Continuous
 62
     7
370
    25
100
AcDbCircle
 10
564.4433501725
 20
449.6288938272
 30
0.0
 40
0.5
100
AcDbArc
 50
0.0
 51
180.0
  0
LINE
  5
75
330
1F
100
AcDbEntity
  8
0
  6
Continuous
 62
     7
370
    25
100
AcDbLine
 10
559.9433501725
 20
438.8288938271
 30
0.0
 11
560.1539292275
 21
438.4641602049
 31
0.0
  0
LINE
  5
76
330
1F
100
AcDbEntity
  8
0
  6
Continuous
 62
     7
370
    25
100
AcDbLine
 10
574.4021001725
 20
446.8288938271
 30
0.0
 11
565.7433501725
 21
446.8288938271
 31
0.0
  0
LINE
  5
77
330
1F
100
AcDbEntity
  8
0
  6
Continuous
 62
     7
370
    25
100
AcDbLine
 10
565.7433501725
 20
440.8288938271
 30
0.0
 11
574.4021001725
 21
440.8288938271
 31
0.0
  0
LINE
  5
78
330
1F
100
AcDbEntity
  8
0
  6
Continuous
 62
     7
370
    25
100
AcDbLine
 10
574.4021001725
 20
440.8288938271
 30
0.0
 11
574.9433501725
 21
441.3701438271
 31
0.0
  0
LINE
  5
79
330
1F
100
AcDbEntity
  8
0
  6
Continuous
 62
     7
370
    25
100
AcDbLine
 10
574.9433501725
 20
446.2876438271
 30
0.0
 11
574.4021001725
 21
446.8288938271
 31
0.0
  0
LINE
  5
7A
330
1F
100
AcDbEntity
  8
0
  6
Continuous
 62
     7
370
    25
100
AcDbLine
 10
560.1539292275
 20
449.1936274493
 30
0.0
 11
559.9433501725
 21
448.8288938271
 31
0.0
  0
ARC
  5
7B
330
1F
100
AcDbEntity
  8
0
  6
Continuous
 62
     7
370
    25
100
AcDbCircle
 10
564.4433501725
 20
424.6288938272
 30
0.0
 40
0.5000000000000007
100
AcDbArc
 50
360.0
 51
113.5781784782
  0
LINE
  5
7C
330
1F
100
AcDbEntity
  8
0
  6
Continuous
 62
     7
370
    25
100
AcDbLine
 10
574.4021001725
 20
421.8288938271
 30
0.0
 11
565.7433501725
 21
421.8288938271
 31
0.0
  0
LINE
  5
7D
330
1F
100
AcDbEntity
  8
0
  6
Continuous
 62
     7
370
    25
100
AcDbLine
 10
574.4021001725
 20
415.8288938271
 30
0.0
 11
574.9433501725
 21
416.3701438271
 31
0.0
  0
LINE
  5
7E
330
1F
100
AcDbEntity
  8
0
  6
Continuous
 62
     7
370
    25
100
AcDbLine
 10
574.9433501725
 20
421.2876438271
 30
0.0
 11
574.4021001725
 21
421.8288938271
 31
0.0
  0
ARC
  5
7F
330
1F
100
AcDbEntity
  8
0
  6
Continuous
 62
     7
370
    25
100
AcDbCircle
 10
261.0433501725
 20
424.6288938272
 30
0.0
 40
0.5
100
AcDbArc
 50
66.4218215219
 51
180.0
  0
LINE
  5
80
330
1F
100
AcDbEntity
  8
0
  6
Continuous
 62
     7
370
    25
100
AcDbLine
 10
259.7433501725
 20
421.8288938271
 30
0.0
 11
251.0846001725
 21
421.8288938271
 31
0.0
  0
LINE
  5
81
330
1F
100
AcDbEntity
  8
0
  6
Continuous
 62
     7
370
    25
100
AcDbLine
 10
251.0846001725
 20
421.8288938271
 30
0.0
 11
250.5433501725
 21
421.2876438271
 31
0.0
  0
LINE
  5
82
330
1F
100
AcDbEntity
  8
0
  6
Continuous
 62
     7
370
    25
100
AcDbLine
 10
250.5433501725
 20
416.3701438271
 30
0.0
 11
251.0846001725
 21
415.8288938271
 31
0.0
  0
ARC
  5
83
330
1F
100
AcDbEntity
  8
0
  6
Continuous
 62
     7
370
    25
100
AcDbCircle
 10
261.0433501725
 20
449.6288938272
 30
0.0
 40
0.5000000000000568
100
AcDbArc
 50
0.0
 51
180.0
  0
ARC
  5
84
330
1F
100
AcDbEntity
  8
0
  6
Continuous
 62
     7
370
    25
100
AcDbCircle
 10
261.0433501725
 20
438.028893827
 30
0.0
 40
0.5
100
AcDbArc
 50
180.0
 51
0.0
  0
LINE
  5
85
330
1F
100
AcDbEntity
  8
0
  6
Continuous
 62
     7
370
    25
100
AcDbLine
 10
251.0846001725
 20
446.8288938271
 30
0.0
 11
250.5433501725
 21
446.2876438271
 31
0.0
  0
LINE
  5
86
330
1F
100
AcDbEntity
  8
0
  6
Continuous
 62
     7
370
    25
100
AcDbLine
 10
250.5433501725
 20
441.3701438271
 30
0.0
 11
251.0846001725
 21
440.8288938271
 31
0.0
  0
LINE
  5
87
330
1F
100
AcDbEntity
  8
0
  6
Continuous
 62
     7
370
    25
100
AcDbLine
 10
251.0846001725
 20
440.8288938271
 30
0.0
 11
259.7433501725
 21
440.8288938271
 31
0.0
  0
LINE
  5
88
330
1F
100
AcDbEntity
  8
0
  6
Continuous
 62
     7
370
    25
100
AcDbLine
 10
259.7433501725
 20
446.8288938271
 30
0.0
 11
251.0846001725
 21
446.8288938271
 31
0.0
  0
SPLINE
  5
89
330
1F
100
AcDbEntity
  8
0
  6
Continuous
 62
     7
370
    25
100
AcDbSpline
210
0.0
220
0.0
230
1.0
 70
    24
 71
     3
 72
    16
 73
    12
 74
     0
 42
0.000000001
 43
0.00000001
 40
0.0
 40
0.0
 40
0.0
 40
0.0
 40
0.1658292928977489
 40
0.2550981074401226
 40
0.3462613343064169
 40
0.4374245611727098
 40
0.5266933757150838
 40
0.692522668612833
 40
0.8583519615105835
 40
0.9476207760529559
 40
0.9999999999999999
 40
0.9999999999999999
 40
0.9999999999999999
 40
0.9999999999999999
 10
563.9433501724775
 20
447.5545834517293
 30
0.0
 10
563.9433501724775
 20
446.9456756540543
 30
0.0
 10
563.9433501724775
 20
446.0089821177187
 30
0.0
 10
563.9433501724775
 20
444.5091834264827
 30
0.0
 10
563.9433501724775
 20
443.3172263466676
 30
0.0
 10
563.9433501724776
 20
442.1427980724613
 30
0.0
 10
563.9433501724775
 20
440.739184779174
 30
0.0
 10
563.9433501724776
 20
439.2718416983919
 30
0.0
 10
563.9433501724775
 20
438.3726543475711
 30
0.0
 10
563.9433501724775
 20
438.0448230204568
 30
0.0
 10
563.9433501724775
 20
438.0552134358971
 30
0.0
 10
563.9433501724775
 20
438.0590556486313
 30
0.0
  0
SPLINE
  5
8A
330
1F
100
AcDbEntity
  8
0
  6
Continuous
 62
     7
370
    25
100
AcDbSpline
210
0.0
220
0.0
230
1.0
 70
     8
 71
     3
 72
     8
 73
     4
 74
     0
 42
0.000000001
 43
0.00000001
 40
0.0
 40
0.0
 40
0.0
 40
0.0
 40
1.0
 40
1.0
 40
1.0
 40
1.0
 10
559.9433501724847
 20
444.6943883977127
 30
0.0
 10
559.9433501724847
 20
443.7239824618224
 30
0.0
 10
560.1176654728641
 20
442.7801361198913
 30
0.0
 10
560.389932159876
 20
441.8512141652647
 30
0.0
  0
SPLINE
  5
8B
330
1F
100
AcDbEntity
  8
0
  6
Continuous
 62
     7
370
    25
100
AcDbSpline
210
0.0
220
0.0
230
1.0
 70
     8
 71
     3
 72
     8
 73
     4
 74
     0
 42
0.000000001
 43
0.00000001
 40
0.0
 40
0.0
 40
0.0
 40
0.0
 40
1.0
 40
1.0
 40
1.0
 40
1.0
 10
560.389932159876
 20
447.5375626301606
 30
0.0
 10
560.1176654728646
 20
446.6086406755356
 30
0.0
 10
559.9433501724847
 20
445.6647943336011
 30
0.0
 10
559.9433501724847
 20
444.6943883977127
 30
0.0
  0
LINE
  5
8C
330
1F
100
AcDbEntity
  8
0
  6
Continuous
 62
     7
370
    25
100
AcDbLine
 10
563.9433501725
 20
447.5375626302
 30
0.0
 11
560.3899321599
 21
447.5375626302
 31
0.0
  0
LINE
  5
8D
330
1F
100
AcDbEntity
  8
0
  6
Continuous
 62
     7
370
    25
100
AcDbLine
 10
563.9433501725
 20
441.8512141653
 30
0.0
 11
560.3899321599
 21
441.8512141653
 31
0.0
  0
LINE
  5
8E
330
1F
100
AcDbEntity
  8
0
  6
Continuous
 62
     7
370
    25
100
AcDbLine
 10
559.9433501725
 20
444.6943883977
 30
0.0
 11
559.9433501725
 21
439.9968797637
 31
0.0
  0
SPLINE
  5
8F
330
1F
100
AcDbEntity
  8
0
  6
Continuous
 62
     7
370
    25
100
AcDbSpline
210
0.0
220
0.0
230
1.0
 70
     8
 71
     3
 72
     8
 73
     4
 74
     0
 42
0.000000001
 43
0.00000001
 40
0.0
 40
0.0
 40
0.0
 40
0.0
 40
1.0
 40
1.0
 40
1.0
 40
1.0
 10
560.389932159876
 20
441.8512141652583
 30
0.0
 10
560.1176654728647
 20
441.2453659843272
 30
0.0
 10
559.9433501724848
 20
440.6297840331283
 30
0.0
 10
559.9433501724848
 20
439.9968797637269
 30
0.0
  0
SPLINE
  5
90
330
1F
100
AcDbEntity
  8
0
  6
Continuous
 62
     7
370
    25
100
AcDbSpline
210
0.0
220
0.0
230
1.0
 70
     8
 71
     3
 72
     8
 73
     4
 74
     0
 42
0.000000001
 43
0.00000001
 40
0.0
 40
0.0
 40
0.0
 40
0.0
 40
1.0
 40
1.0
 40
1.0
 40
1.0
 10
559.9433501724848
 20
439.9968797637269
 30
0.0
 10
559.9433501724848
 20
439.3639754943244
 30
0.0
 10
560.1176654728641
 20
438.7483935431278
 30
0.0
 10
560.389932159876
 20
438.1425453621956
 30
0.0
  0
LINE
  5
91
330
1F
100
AcDbEntity
  8
0
  6
Continuous
 62
     7
370
    25
100
AcDbLine
 10
563.9433501725
 20
438.1425453622
 30
0.0
 11
560.3899321599
 21
438.1425453622
 31
0.0
  0
LINE
  5
92
330
1F
100
AcDbEntity
  8
0
  6
Continuous
 62
     7
370
    25
100
AcDbLine
 10
559.9433501725
 20
448.5264024611
 30
0.0
 11
559.9433501725
 21
444.6943883977
 31
0.0
  0
SPLINE
  5
93
330
1F
100
AcDbEntity
  8
0
  6
Continuous
 62
     7
370
    25
100
AcDbSpline
210
0.0
220
0.0
230
1.0
 70
     8
 71
     3
 72
     8
 73
     4
 74
     0
 42
0.000000001
 43
0.00000001
 40
0.0
 40
0.0
 40
0.0
 40
0.0
 40
1.0
 40
1.0
 40
1.0
 40
1.0
 10
559.9433501724845
 20
448.5264024610821
 30
0.0
 10
559.9433501724845
 20
448.1889007945945
 30
0.0
 10
560.117665472864
 20
447.8606364038601
 30
0.0
 10
560.389932159876
 20
447.5375626301657
 30
0.0
  0
SPLINE
  5
94
330
1F
100
AcDbEntity
  8
0
  6
Continuous
 62
     7
370
    25
100
AcDbSpline
210
0.0
220
0.0
230
1.0
 70
     8
 71
     3
 72
     8
 73
     4
 74
     0
 42
0.000000001
 43
0.00000001
 40
0.0
 40
0.0
 40
0.0
 40
0.0
 40
1.0
 40
1.0
 40
1.0
 40
1.0
 10
560.3899321598759
 20
449.5152422919985
 30
0.0
 10
560.1176654728645
 20
449.1921685183048
 30
0.0
 10
559.9433501724845
 20
448.8639041275692
 30
0.0
 10
559.9433501724845
 20
448.5264024610821
 30
0.0
  0
LINE
  5
95
330
1F
100
AcDbEntity
  8
0
  6
Continuous
 62
     7
370
    25
100
AcDbLine
 10
563.9433501725
 20
449.515242292
 30
0.0
 11
560.3899321599
 21
449.515242292
 31
0.0
  0
LINE
  5
96
330
1F
100
AcDbEntity
  8
0
  6
Continuous
 62
     7
370
    25
100
AcDbLine
 10
560.3899321599
 20
438.1425453622
 30
0.0
 11
560.2259141247
 21
438.5057207047
 31
0.0
  0
LINE
  5
97
330
1F
100
AcDbEntity
  8
0
  6
Continuous
 62
     7
370
    25
100
AcDbLine
 10
559.9433501725
 20
439.9968797637
 30
0.0
 11
559.9433501725
 21
438.8288938271
 31
0.0
  0
LINE
  5
98
330
1F
100
AcDbEntity
  8
0
  6
Continuous
 62
     7
370
    25
100
AcDbLine
 10
574.4021001725
 20
440.8288938271
 30
0.0
 11
574.4021001725
 21
446.8288938271
 31
0.0
  0
LINE
  5
99
330
1F
100
AcDbEntity
  8
0
  6
Continuous
 62
     7
370
    25
100
AcDbLine
 10
574.9433501725
 20
441.9445009114
 30
0.0
 11
574.9433501725
 21
446.2876438271
 31
0.0
  0
LINE
  5
9A
330
1F
100
AcDbEntity
  8
0
  6
Continuous
 62
     7
370
    25
100
AcDbLine
 10
574.9433501725
 20
441.3701438271
 30
0.0
 11
574.9433501725
 21
441.9445009114
 31
0.0
  0
LINE
  5
9B
330
1F
100
AcDbEntity
  8
0
  6
Continuous
 62
     7
370
    25
100
AcDbLine
 10
559.9433501725
 20
448.8288938271
 30
0.0
 11
559.9433501725
 21
448.5264024611
 31
0.0
  0
CIRCLE
  5
9C
330
1F
100
AcDbEntity
  8
0
  6
Continuous
 62
     7
370
    25
100
AcDbCircle
 10
315.2433501725
 20
390.8288938271
 30
0.0
 40
0.5000000000000568
  0
SPLINE
  5
9D
330
1F
100
AcDbEntity
  8
0
  6
Continuous
 62
     7
370
    25
100
AcDbSpline
210
0.0
220
0.0
230
1.0
 70
     8
 71
     3
 72
    20
 73
    16
 74
     0
 42
0.000000001
 43
0.00000001
 40
0.0
 40
0.0
 40
0.0
 40
0.0
 40
0.1250000000000007
 40
0.1250000000000007
 40
0.2500000000000013
 40
0.2500000000000013
 40
0.375000000000002
 40
0.375000000000002
 40
0.5000000000000027
 40
0.5000000000000027
 40
0.750000000000004
 40
0.750000000000004
 40
0.875000000000002
 40
0.875000000000002
 40
1.0
 40
1.0
 40
1.0
 40
1.0
 10
607.8433501724775
 20
413.4288938270943
 30
0.0
 10
608.0017293601281
 20
413.4679345579488
 30
0.0
 10
608.1579750848199
 20
413.5064532621485
 30
0.0
 10
608.4659669342365
 20
413.5838600134565
 30
0.0
 10
608.6186110417077
 20
413.6230044314432
 30
0.0
 10
608.9076953308946
 20
413.7001551853584
 30
0.0
 10
609.0454998690788
 20
413.7384827670995
 30
0.0
 10
609.3071185447177
 20
413.816029087576
 30
0.0
 10
609.4298648514002
 20
413.8550052952447
 30
0.0
 10
609.761189228348
 20
413.9705001516898
 30
0.0
 10
609.9402003523762
 20
414.0484125953598
 30
0.0
 10
610.1198154517571
 20
414.1638925207605
 30
0.0
 10
610.1660598006248
 20
414.2027583166256
 30
0.0
 10
610.2278131066361
 20
414.2805326502942
 30
0.0
 10
610.2433501724776
 20
414.319142417249
 30
0.0
 10
610.2433501724776
 20
414.3581831489756
 30
0.0
  0
SPLINE
  5
9E
330
1F
100
AcDbEntity
  8
0
  6
Continuous
 62
     7
370
    25
100
AcDbSpline
210
0.0
220
0.0
230
1.0
 70
     8
 71
     3
 72
    14
 73
    10
 74
     0
 42
0.000000001
 43
0.00000001
 40
0.0
 40
0.0
 40
0.0
 40
0.0
 40
0.2500000000000001
 40
0.2500000000000001
 40
0.5000000000000001
 40
0.5000000000000001
 40
0.7500000000000002
 40
0.7500000000000002
 40
1.0
 40
1.0
 40
1.0
 40
1.0
 10
607.8433501724775
 20
413.4288938270943
 30
0.0
 10
607.9755355883365
 20
413.507095242116
 30
0.0
 10
608.1035176068699
 20
413.5828051894128
 30
0.0
 10
608.3461416318172
 20
413.7380856010598
 30
0.0
 10
608.4565838962272
 20
413.8150954506428
 30
0.0
 10
608.6425807934207
 20
413.9705189366703
 30
0.0
 10
608.716381772259
 20
414.0474686535887
 30
0.0
 10
608.8172003566541
 20
414.2028986328378
 30
0.0
 10
608.8433501724775
 20
414.2799817414106
 30
0.0
 10
608.8433501724775
 20
414.3581831489756
 30
0.0
  0
LINE
  5
9F
330
1F
100
AcDbEntity
  8
0
  6
Continuous
 62
     7
370
    25
100
AcDbLine
 10
610.2433501725
 20
414.358183149
 30
0.0
 11
608.8433501725
 21
414.358183149
 31
0.0
  0
SPLINE
  5
A0
330
1F
100
AcDbEntity
  8
0
  6
Continuous
 62
     7
370
    25
100
AcDbSpline
210
0.0
220
0.0
230
1.0
 70
     8
 71
     3
 72
    20
 73
    16
 74
     0
 42
0.000000001
 43
0.00000001
 40
0.0
 40
0.0
 40
0.0
 40
0.0
 40
0.125
 40
0.125
 40
0.25
 40
0.25
 40
0.375
 40
0.375
 40
0.5
 40
0.5
 40
0.75
 40
0.75
 40
0.875
 40
0.875
 40
1.0
 40
1.0
 40
1.0
 40
1.0
 10
610.2433501724776
 20
121.2996045052127
 30
0.0
 10
610.2433501724776
 20
121.3386452360673
 30
0.0
 10
610.2278136120026
 20
121.377163940267
 30
0.0
 10
610.166495260042
 20
121.454570691575
 30
0.0
 10
610.1200715144553
 20
121.4937151095617
 30
0.0
 10
610.0001206443011
 20
121.5708658634768
 30
0.0
 10
609.9265160000177
 20
121.6091934452179
 30
0.0
 10
609.751785633922
 20
121.6867397656944
 30
0.0
 10
609.6509350050204
 20
121.7257159733631
 30
0.0
 10
609.3196497250366
 20
121.8412108298082
 30
0.0
 10
609.0519695636527
 20
121.9191232734782
 30
0.0
 10
608.6192955375973
 20
122.034603198879
 30
0.0
 10
608.4677774507461
 20
122.0734689947441
 30
0.0
 10
608.15835169336
 20
122.1512433284127
 30
0.0
 10
608.0017293636663
 20
122.1898530953675
 30
0.0
 10
607.8433501724775
 20
122.2288938270941
 30
0.0
  0
LINE
  5
A1
330
1F
100
AcDbEntity
  8
0
  6
Continuous
 62
     7
370
    25
100
AcDbLine
 10
610.2433501725
 20
121.2996045052
 30
0.0
 11
608.8433501725
 21
121.2996045052
 31
0.0
  0
SPLINE
  5
A2
330
1F
100
AcDbEntity
  8
0
  6
Continuous
 62
     7
370
    25
100
AcDbSpline
210
0.0
220
0.0
230
1.0
 70
     8
 71
     3
 72
    14
 73
    10
 74
     0
 42
0.000000001
 43
0.00000001
 40
0.0
 40
0.0
 40
0.0
 40
0.0
 40
0.25
 40
0.25
 40
0.5
 40
0.5
 40
0.75
 40
0.75
 40
1.0
 40
1.0
 40
1.0
 40
1.0
 10
608.8433501724775
 20
121.2996045052127
 30
0.0
 10
608.8433501724775
 20
121.3778059202344
 30
0.0
 10
608.8177915077972
 20
121.4535158675313
 30
0.0
 10
608.7176634792005
 20
121.6087962791783
 30
0.0
 10
608.6440992998963
 20
121.6858061287614
 30
0.0
 10
608.4585616642045
 20
121.8412296147887
 30
0.0
 10
608.3483967432448
 20
121.9181793317072
 30
0.0
 10
608.1057849865555
 20
122.0736093109564
 30
0.0
 10
607.9755355757324
 20
122.150692419529
 30
0.0
 10
607.8433501724775
 20
122.2288938270941
 30
0.0
  0
LINE
  5
A3
330
1F
100
AcDbEntity
  8
0
  6
Continuous
 62
     7
370
    25
100
AcDbLine
 10
610.2433501725
 20
121.2996045052
 30
0.0
 11
610.2433501725
 21
414.358183149
 31
0.0
  0
SPLINE
  5
A4
330
1F
100
AcDbEntity
  8
0
  6
Continuous
 62
     7
370
    25
100
AcDbSpline
210
0.0
220
0.0
230
1.0
 70
     8
 71
     3
 72
    20
 73
    16
 74
     0
 42
0.000000001
 43
0.00000001
 40
0.0
 40
0.0
 40
0.0
 40
0.0
 40
0.1250000000000021
 40
0.1250000000000021
 40
0.250000000000004
 40
0.250000000000004
 40
0.3750000000000059
 40
0.3750000000000059
 40
0.5000000000000078
 40
0.5000000000000078
 40
0.7500000000000064
 40
0.7500000000000064
 40
0.8750000000000032
 40
0.8750000000000032
 40
1.0
 40
1.0
 40
1.0
 40
1.0
 10
215.2433501724775
 20
414.3581831489756
 30
0.0
 10
215.2433501724774
 20
414.3191424181211
 30
0.0
 10
215.2588867329524
 20
414.2806237139213
 30
0.0
 10
215.3202050849129
 20
414.2032169626133
 30
0.0
 10
215.3666288304999
 20
414.1640725446266
 30
0.0
 10
215.4865797006539
 20
414.0869217907115
 30
0.0
 10
215.5601843449373
 20
414.0485942089704
 30
0.0
 10
215.7349147110329
 20
413.9710478884939
 30
0.0
 10
215.8357653399345
 20
413.9320716808252
 30
0.0
 10
216.1670506199184
 20
413.8165768243801
 30
0.0
 10
216.4347307813023
 20
413.7386643807101
 30
0.0
 10
216.8674048073577
 20
413.6231844553092
 30
0.0
 10
217.0189228942089
 20
413.5843186594442
 30
0.0
 10
217.328348651595
 20
413.5065443257756
 30
0.0
 10
217.4849709812887
 20
413.4679345588208
 30
0.0
 10
217.6433501724775
 20
413.4288938270943
 30
0.0
  0
LINE
  5
A5
330
1F
100
AcDbEntity
  8
0
  6
Continuous
 62
     7
370
    25
100
AcDbLine
 10
215.2433501725
 20
414.358183149
 30
0.0
 11
216.6433501725
 21
414.358183149
 31
0.0
  0
SPLINE
  5
A6
330
1F
100
AcDbEntity
  8
0
  6
Continuous
 62
     7
370
    25
100
AcDbSpline
210
0.0
220
0.0
230
1.0
 70
     8
 71
     3
 72
    14
 73
    10
 74
     0
 42
0.000000001
 43
0.00000001
 40
0.0
 40
0.0
 40
0.0
 40
0.0
 40
0.25
 40
0.25
 40
0.5
 40
0.5
 40
0.75
 40
0.75
 40
1.0
 40
1.0
 40
1.0
 40
1.0
 10
216.6433501724775
 20
414.3581831489756
 30
0.0
 10
216.6433501724775
 20
414.2799817339539
 30
0.0
 10
216.6689088371576
 20
414.2042717866571
 30
0.0
 10
216.7690368657543
 20
414.04899137501
 30
0.0
 10
216.8426010450588
 20
413.971981525427
 30
0.0
 10
217.0281386807507
 20
413.8165580393995
 30
0.0
 10
217.1383036017101
 20
413.7396083224812
 30
0.0
 10
217.3809153583994
 20
413.5841783432319
 30
0.0
 10
217.5111647692225
 20
413.5070952346593
 30
0.0
 10
217.6433501724775
 20
413.4288938270943
 30
0.0
  0
SPLINE
  5
A7
330
1F
100
AcDbEntity
  8
0
  6
Continuous
 62
     7
370
    25
100
AcDbSpline
210
0.0
220
0.0
230
1.0
 70
     8
 71
     3
 72
    20
 73
    16
 74
     0
 42
0.000000001
 43
0.00000001
 40
0.0
 40
0.0
 40
0.0
 40
0.0
 40
0.1250000000000007
 40
0.1250000000000007
 40
0.2500000000000013
 40
0.2500000000000013
 40
0.375000000000002
 40
0.375000000000002
 40
0.5000000000000027
 40
0.5000000000000027
 40
0.750000000000004
 40
0.750000000000004
 40
0.8750000000000021
 40
0.8750000000000021
 40
1.0
 40
1.0
 40
1.0
 40
1.0
 10
607.8433501724775
 20
122.2288938270941
 30
0.0
 10
607.882390903332
 20
122.0705146394434
 30
0.0
 10
607.9209096075318
 20
121.9142689147517
 30
0.0
 10
607.9983163588396
 20
121.6062770653351
 30
0.0
 10
608.0374607768265
 20
121.4536329578639
 30
0.0
 10
608.1146115307416
 20
121.164548668677
 30
0.0
 10
608.1529391124827
 20
121.0267441304928
 30
0.0
 10
608.2304854329592
 20
120.765125454854
 30
0.0
 10
608.2694616406279
 20
120.6423791481713
 30
0.0
 10
608.3849564970731
 20
120.3110547712236
 30
0.0
 10
608.462868940743
 20
120.1320436471954
 30
0.0
 10
608.5783488661439
 20
119.9524285478145
 30
0.0
 10
608.617214662009
 20
119.9061841989467
 30
0.0
 10
608.6949889956775
 20
119.8444308929355
 30
0.0
 10
608.7335987626323
 20
119.828893827094
 30
0.0
 10
608.7726394943589
 20
119.8288938270941
 30
0.0
  0
SPLINE
  5
A8
330
1F
100
AcDbEntity
  8
0
  6
Continuous
 62
     7
370
    25
100
AcDbSpline
210
0.0
220
0.0
230
1.0
 70
     8
 71
     3
 72
    14
 73
    10
 74
     0
 42
0.000000001
 43
0.00000001
 40
0.0
 40
0.0
 40
0.0
 40
0.0
 40
0.25
 40
0.25
 40
0.5
 40
0.5
 40
0.75
 40
0.75
 40
1.0
 40
1.0
 40
1.0
 40
1.0
 10
607.8433501724775
 20
122.2288938270941
 30
0.0
 10
607.9215515874992
 20
122.0967084112351
 30
0.0
 10
607.9972615347962
 20
121.9687263927016
 30
0.0
 10
608.152541946443
 20
121.7261023677543
 30
0.0
 10
608.2295517960262
 20
121.6156601033443
 30
0.0
 10
608.3849752820536
 20
121.4296632061509
 30
0.0
 10
608.461924998972
 20
121.3558622273127
 30
0.0
 10
608.6173549782212
 20
121.2550436429176
 30
0.0
 10
608.6944380867938
 20
121.2288938270941
 30
0.0
 10
608.7726394943589
 20
121.2288938270941
 30
0.0
  0
LINE
  5
A9
330
1F
100
AcDbEntity
  8
0
  6
Continuous
 62
     7
370
    25
100
AcDbLine
 10
608.7726394944
 20
119.8288938271
 30
0.0
 11
608.7726394944
 21
121.2288938271
 31
0.0
  0
SPLINE
  5
AA
330
1F
100
AcDbEntity
  8
0
  6
Continuous
 62
     7
370
    25
100
AcDbSpline
210
0.0
220
0.0
230
1.0
 70
     8
 71
     3
 72
    20
 73
    16
 74
     0
 42
0.000000001
 43
0.00000001
 40
0.0
 40
0.0
 40
0.0
 40
0.0
 40
0.1250000000000006
 40
0.1250000000000006
 40
0.2500000000000013
 40
0.2500000000000013
 40
0.3750000000000019
 40
0.3750000000000019
 40
0.5000000000000026
 40
0.5000000000000026
 40
0.7500000000000038
 40
0.7500000000000038
 40
0.8750000000000019
 40
0.8750000000000019
 40
1.0
 40
1.0
 40
1.0
 40
1.0
 10
217.6433501724775
 20
122.2288938270941
 30
0.0
 10
217.4849709848267
 20
122.1898530962395
 30
0.0
 10
217.3287252601352
 20
122.1513343920398
 30
0.0
 10
217.0207334107186
 20
122.0739276407319
 30
0.0
 10
216.8680893032473
 20
122.034783222745
 30
0.0
 10
216.5790050140603
 20
121.95763246883
 30
0.0
 10
216.4412004758762
 20
121.9193048870889
 30
0.0
 10
216.1795818002373
 20
121.8417585666124
 30
0.0
 10
216.0568354935547
 20
121.8027823589437
 30
0.0
 10
215.725511116607
 20
121.6872875024987
 30
0.0
 10
215.5464999925787
 20
121.6093750588286
 30
0.0
 10
215.3668848931979
 20
121.4938951334277
 30
0.0
 10
215.3206405443302
 20
121.4550293375627
 30
0.0
 10
215.258887238319
 20
121.3772550038941
 30
0.0
 10
215.2433501724775
 20
121.3386452369394
 30
0.0
 10
215.2433501724775
 20
121.2996045052127
 30
0.0
  0
SPLINE
  5
AB
330
1F
100
AcDbEntity
  8
0
  6
Continuous
 62
     7
370
    25
100
AcDbSpline
210
0.0
220
0.0
230
1.0
 70
     8
 71
     3
 72
    14
 73
    10
 74
     0
 42
0.000000001
 43
0.00000001
 40
0.0
 40
0.0
 40
0.0
 40
0.0
 40
0.25
 40
0.25
 40
0.5
 40
0.5
 40
0.75
 40
0.75
 40
1.0
 40
1.0
 40
1.0
 40
1.0
 10
217.6433501724775
 20
122.2288938270941
 30
0.0
 10
217.5111647566185
 20
122.1506924120724
 30
0.0
 10
217.383182738085
 20
122.0749824647755
 30
0.0
 10
217.1405587131377
 20
121.9197020531285
 30
0.0
 10
217.0301164487277
 20
121.8426922035455
 30
0.0
 10
216.8441195515344
 20
121.6872687175181
 30
0.0
 10
216.7703185726961
 20
121.6103190005997
 30
0.0
 10
216.669499988301
 20
121.4548890213505
 30
0.0
 10
216.6433501724774
 20
121.3778059127777
 30
0.0
 10
216.6433501724775
 20
121.2996045052127
 30
0.0
  0
LINE
  5
AC
330
1F
100
AcDbEntity
  8
0
  6
Continuous
 62
     7
370
    25
100
AcDbLine
 10
215.2433501725
 20
121.2996045052
 30
0.0
 11
216.6433501725
 21
121.2996045052
 31
0.0
  0
LINE
  5
AD
330
1F
100
AcDbEntity
  8
0
  6
Continuous
 62
     7
370
    25
100
AcDbLine
 10
216.7140608506
 20
119.8288938271
 30
0.0
 11
608.7726394944
 21
119.8288938271
 31
0.0
  0
SPLINE
  5
AE
330
1F
100
AcDbEntity
  8
0
  6
Continuous
 62
     7
370
    25
100
AcDbSpline
210
0.0
220
0.0
230
1.0
 70
     8
 71
     3
 72
    20
 73
    16
 74
     0
 42
0.000000001
 43
0.00000001
 40
0.0
 40
0.0
 40
0.0
 40
0.0
 40
0.1250000000000044
 40
0.1250000000000044
 40
0.2500000000000087
 40
0.2500000000000087
 40
0.3750000000000131
 40
0.3750000000000131
 40
0.5000000000000174
 40
0.5000000000000174
 40
0.7500000000000112
 40
0.7500000000000112
 40
0.8750000000000057
 40
0.8750000000000057
 40
1.0
 40
1.0
 40
1.0
 40
1.0
 10
216.7140608505961
 20
119.8288938270941
 30
0.0
 10
216.7531015814506
 20
119.8288938270941
 30
0.0
 10
216.7916202856504
 20
119.844430387569
 30
0.0
 10
216.8690270369583
 20
119.9057487395296
 30
0.0
 10
216.9081714549451
 20
119.9521724851163
 30
0.0
 10
216.9853222088602
 20
120.0721233552704
 30
0.0
 10
217.0236497906012
 20
120.1457279995539
 30
0.0
 10
217.1011961110777
 20
120.3204583656496
 30
0.0
 10
217.1401723187465
 20
120.421308994551
 30
0.0
 10
217.2556671751914
 20
120.7525942745351
 30
0.0
 10
217.3335796188615
 20
121.0202744359189
 30
0.0
 10
217.4490595442625
 20
121.4529484619744
 30
0.0
 10
217.4879253401275
 20
121.6044665488255
 30
0.0
 10
217.565699673796
 20
121.9138923062116
 30
0.0
 10
217.6043094407508
 20
122.0705146359053
 30
0.0
 10
217.6433501724775
 20
122.2288938270941
 30
0.0
  0
LINE
  5
AF
330
1F
100
AcDbEntity
  8
0
  6
Continuous
 62
     7
370
    25
100
AcDbLine
 10
215.2433501725
 20
414.358183149
 30
0.0
 11
215.2433501725
 21
121.2996045052
 31
0.0
  0
SPLINE
  5
B0
330
1F
100
AcDbEntity
  8
0
  6
Continuous
 62
     7
370
    25
100
AcDbSpline
210
0.0
220
0.0
230
1.0
 70
     8
 71
     3
 72
    20
 73
    16
 74
     0
 42
0.000000001
 43
0.00000001
 40
0.0
 40
0.0
 40
0.0
 40
0.0
 40
0.125
 40
0.125
 40
0.2500000000000001
 40
0.2500000000000001
 40
0.3750000000000001
 40
0.3750000000000001
 40
0.5000000000000001
 40
0.5000000000000001
 40
0.7500000000000002
 40
0.7500000000000002
 40
0.8750000000000001
 40
0.8750000000000001
 40
1.0
 40
1.0
 40
1.0
 40
1.0
 10
217.6433501724775
 20
413.4288938270942
 30
0.0
 10
217.6043094416229
 20
413.5872730147449
 30
0.0
 10
217.5657907374231
 20
413.7435187394366
 30
0.0
 10
217.4883839861153
 20
414.0515105888532
 30
0.0
 10
217.4492395681285
 20
414.2041546963244
 30
0.0
 10
217.3720888142133
 20
414.4932389855114
 30
0.0
 10
217.3337612324723
 20
414.6310435236954
 30
0.0
 10
217.2562149119958
 20
414.8926621993343
 30
0.0
 10
217.2172387043271
 20
415.0154085060169
 30
0.0
 10
217.101743847882
 20
415.3467328829647
 30
0.0
 10
217.0238314042119
 20
415.5257440069929
 30
0.0
 10
216.908351478811
 20
415.7053591063739
 30
0.0
 10
216.869485682946
 20
415.7516034552415
 30
0.0
 10
216.7917113492774
 20
415.8133567612527
 30
0.0
 10
216.7531015823227
 20
415.8288938270942
 30
0.0
 10
216.7140608505961
 20
415.8288938270942
 30
0.0
  0
LINE
  5
B1
330
1F
100
AcDbEntity
  8
0
  6
Continuous
 62
     7
370
    25
100
AcDbLine
 10
608.7726394944
 20
415.8288938271
 30
0.0
 11
216.7140608506
 21
415.8288938271
 31
0.0
  0
SPLINE
  5
B2
330
1F
100
AcDbEntity
  8
0
  6
Continuous
 62
     7
370
    25
100
AcDbSpline
210
0.0
220
0.0
230
1.0
 70
     8
 71
     3
 72
    20
 73
    16
 74
     0
 42
0.000000001
 43
0.00000001
 40
0.0
 40
0.0
 40
0.0
 40
0.0
 40
0.1250000000000019
 40
0.1250000000000019
 40
0.2500000000000038
 40
0.2500000000000038
 40
0.3750000000000058
 40
0.3750000000000058
 40
0.5000000000000077
 40
0.5000000000000077
 40
0.7500000000000063
 40
0.7500000000000063
 40
0.8750000000000032
 40
0.8750000000000032
 40
1.0
 40
1.0
 40
1.0
 40
1.0
 10
608.7726394943589
 20
415.8288938270942
 30
0.0
 10
608.7335987635045
 20
415.8288938270942
 30
0.0
 10
608.6950800593045
 20
415.8133572666194
 30
0.0
 10
608.6176733079966
 20
415.7520389146587
 30
0.0
 10
608.5785288900098
 20
415.705615169072
 30
0.0
 10
608.5013781360948
 20
415.5856642989178
 30
0.0
 10
608.4630505543537
 20
415.5120596546344
 30
0.0
 10
608.3855042338772
 20
415.3373292885387
 30
0.0
 10
608.3465280262085
 20
415.2364786596372
 30
0.0
 10
608.2310331697634
 20
414.9051933796532
 30
0.0
 10
608.1531207260934
 20
414.6375132182694
 30
0.0
 10
608.0376408006925
 20
414.204839192214
 30
0.0
 10
607.9987750048275
 20
414.0533211053628
 30
0.0
 10
607.9210006711588
 20
413.7438953479766
 30
0.0
 10
607.8823909042042
 20
413.5872730182829
 30
0.0
 10
607.8433501724775
 20
413.4288938270942
 30
0.0
  0
SPLINE
  5
B3
330
1F
100
AcDbEntity
  8
0
  6
Continuous
 62
     7
370
    25
100
AcDbSpline
210
0.0
220
0.0
230
1.0
 70
     8
 71
     3
 72
    14
 73
    10
 74
     0
 42
0.000000001
 43
0.00000001
 40
0.0
 40
0.0
 40
0.0
 40
0.0
 40
0.25
 40
0.25
 40
0.5
 40
0.5
 40
0.75
 40
0.75
 40
1.0
 40
1.0
 40
1.0
 40
1.0
 10
217.6433501724775
 20
413.4288938270942
 30
0.0
 10
217.5651487574558
 20
413.5610792429532
 30
0.0
 10
217.4894388101589
 20
413.6890612614868
 30
0.0
 10
217.334158398512
 20
413.9316852864341
 30
0.0
 10
217.2571485489289
 20
414.042127550844
 30
0.0
 10
217.1017250629014
 20
414.2281244480373
 30
0.0
 10
217.024775345983
 20
414.3019254268756
 30
0.0
 10
216.8693453667338
 20
414.4027440112707
 30
0.0
 10
216.7922622581611
 20
414.4288938270942
 30
0.0
 10
216.7140608505961
 20
414.4288938270942
 30
0.0
  0
LINE
  5
B4
330
1F
100
AcDbEntity
  8
0
  6
Continuous
 62
     7
370
    25
100
AcDbLine
 10
216.7140608506
 20
415.8288938271
 30
0.0
 11
216.7140608506
 21
414.4288938271
 31
0.0
  0
LINE
  5
B5
330
1F
100
AcDbEntity
  8
0
  6
Continuous
 62
     7
370
    25
100
AcDbLine
 10
216.7140608506
 20
119.8288938271
 30
0.0
 11
216.7140608506
 21
121.2288938271
 31
0.0
  0
SPLINE
  5
B6
330
1F
100
AcDbEntity
  8
0
  6
Continuous
 62
     7
370
    25
100
AcDbSpline
210
0.0
220
0.0
230
1.0
 70
     8
 71
     3
 72
    14
 73
    10
 74
     0
 42
0.000000001
 43
0.00000001
 40
0.0
 40
0.0
 40
0.0
 40
0.0
 40
0.2500000000000003
 40
0.2500000000000003
 40
0.5000000000000002
 40
0.5000000000000002
 40
0.7500000000000001
 40
0.7500000000000001
 40
1.0
 40
1.0
 40
1.0
 40
1.0
 10
216.7140608505961
 20
121.2288938270941
 30
0.0
 10
216.7922622656177
 20
121.2288938270941
 30
0.0
 10
216.8679722129147
 20
121.2544524917744
 30
0.0
 10
217.0232526245617
 20
121.354580520371
 30
0.0
 10
217.1002624741446
 20
121.4281446996754
 30
0.0
 10
217.2556859601721
 20
121.6136823353672
 30
0.0
 10
217.3326356770906
 20
121.7238472563269
 30
0.0
 10
217.4880656563398
 20
121.9664590130162
 30
0.0
 10
217.5651487649124
 20
122.0967084238392
 30
0.0
 10
217.6433501724775
 20
122.2288938270941
 30
0.0
  0
LINE
  5
B7
330
1F
100
AcDbEntity
  8
0
  6
Continuous
 62
     7
370
    25
100
AcDbLine
 10
608.7726394944
 20
415.8288938271
 30
0.0
 11
608.7726394944
 21
414.4288938271
 31
0.0
  0
SPLINE
  5
B8
330
1F
100
AcDbEntity
  8
0
  6
Continuous
 62
     7
370
    25
100
AcDbSpline
210
0.0
220
0.0
230
1.0
 70
     8
 71
     3
 72
    14
 73
    10
 74
     0
 42
0.000000001
 43
0.00000001
 40
0.0
 40
0.0
 40
0.0
 40
0.0
 40
0.2500000000000002
 40
0.2500000000000002
 40
0.5000000000000001
 40
0.5000000000000001
 40
0.7500000000000001
 40
0.7500000000000001
 40
1.0
 40
1.0
 40
1.0
 40
1.0
 10
608.7726394943589
 20
414.4288938270942
 30
0.0
 10
608.6944380793374
 20
414.4288938270943
 30
0.0
 10
608.6187281320404
 20
414.4033351624139
 30
0.0
 10
608.4634477203932
 20
414.3032071338172
 30
0.0
 10
608.3864378708103
 20
414.2296429545129
 30
0.0
 10
608.2310143847828
 20
414.0441053188211
 30
0.0
 10
608.1540646678645
 20
413.9339403978615
 30
0.0
 10
607.9986346886153
 20
413.6913286411721
 30
0.0
 10
607.9215515800425
 20
413.5610792303491
 30
0.0
 10
607.8433501724775
 20
413.4288938270942
 30
0.0
  0
CIRCLE
  5
B9
330
1F
100
AcDbEntity
  8
0
  6
Continuous
 62
     7
370
    25
100
AcDbCircle
 10
271.2433501725
 20
367.8288938271
 30
0.0
 40
5.50000000000004
  0
ARC
  5
BA
330
1F
100
AcDbEntity
  8
0
  6
Continuous
 62
     7
370
    25
100
AcDbCircle
 10
273.4233600741
 20
368.8858299419
 30
0.0
 40
0.5050994627335197
100
AcDbArc
 50
298.8005827702
 51
112.9304972368
  0
ARC
  5
BB
330
1F
100
AcDbEntity
  8
0
  6
Continuous
 62
     7
370
    25
100
AcDbCircle
 10
271.2433501725
 20
367.8288938271
 30
0.0
 40
2.499999999999928
100
AcDbArc
 50
37.506301084
 51
74.2247789229
  0
ARC
  5
BC
330
1F
100
AcDbEntity
  8
0
  6
Continuous
 62
     7
370
    25
100
AcDbCircle
 10
271.4180215977
 20
370.2453058398
 30
0.0
 40
0.5050994627349649
100
AcDbArc
 50
358.800582771
 51
172.930497236
  0
ARC
  5
BD
330
1F
100
AcDbEntity
  8
0
  6
Continuous
 62
     7
370
    25
100
AcDbCircle
 10
271.2433501725
 20
367.8288938271
 30
0.0
 40
2.499999999999938
100
AcDbArc
 50
97.5063010841
 51
134.2247789229
  0
ARC
  5
BE
330
1F
100
AcDbEntity
  8
0
  6
Continuous
 62
     7
370
    25
100
AcDbCircle
 10
269.2380116961
 20
369.188369725
 30
0.0
 40
0.5050994627351901
100
AcDbArc
 50
58.8005827697
 51
232.9304972372
  0
ARC
  5
BF
330
1F
100
AcDbEntity
  8
0
  6
Continuous
 62
     7
370
    25
100
AcDbCircle
 10
271.2433501725
 20
367.8288938271
 30
0.0
 40
2.499999999999968
100
AcDbArc
 50
157.5063010841
 51
194.2247789229
  0
ARC
  5
C0
330
1F
100
AcDbEntity
  8
0
  6
Continuous
 62
     7
370
    25
100
AcDbCircle
 10
269.0633402709
 20
366.7719577123
 30
0.0
 40
0.5050994627332872
100
AcDbArc
 50
118.8005827707
 51
292.9304972361
  0
ARC
  5
C1
330
1F
100
AcDbEntity
  8
0
  6
Continuous
 62
     7
370
    25
100
AcDbCircle
 10
271.2433501725
 20
367.8288938271
 30
0.0
 40
2.500000000000016
100
AcDbArc
 50
217.506301084
 51
254.2247789229
  0
ARC
  5
C2
330
1F
100
AcDbEntity
  8
0
  6
Continuous
 62
     7
370
    25
100
AcDbCircle
 10
271.0686787473
 20
365.4124818144
 30
0.0
 40
0.5050994627366077
100
AcDbArc
 50
178.8005827716
 51
352.9304972354
  0
ARC
  5
C3
330
1F
100
AcDbEntity
  8
0
  6
Continuous
 62
     7
370
    25
100
AcDbCircle
 10
271.2433501725
 20
367.8288938271
 30
0.0
 40
2.499999999999988
100
AcDbArc
 50
277.5063010841
 51
314.2247789229
  0
ARC
  5
C4
330
1F
100
AcDbEntity
  8
0
  6
Continuous
 62
     7
370
    25
100
AcDbCircle
 10
273.2486886489
 20
366.4694179292
 30
0.0
 40
0.5050994627354977
100
AcDbArc
 50
238.8005827701
 51
52.9304972368
  0
ARC
  5
C5
330
1F
100
AcDbEntity
  8
0
  6
Continuous
 62
     7
370
    25
100
AcDbCircle
 10
271.2433501725
 20
367.8288938271
 30
0.0
 40
2.499999999999916
100
AcDbArc
 50
337.5063010841
 51
14.2247789229
  0
CIRCLE
  5
C6
330
1F
100
AcDbEntity
  8
0
  6
Continuous
 62
     7
370
    25
100
AcDbCircle
 10
554.2433501725
 20
367.8288938271
 30
0.0
 40
5.500000000000139
  0
ARC
  5
C7
330
1F
100
AcDbEntity
  8
0
  6
Continuous
 62
     7
370
    25
100
AcDbCircle
 10
554.27601703
 20
370.2513904728
 30
0.0
 40
0.5050994627336001
100
AcDbArc
 50
2.1624680629
 51
176.2923825295
  0
ARC
  5
C8
330
1F
100
AcDbEntity
  8
0
  6
Continuous
 62
     7
370
    25
100
AcDbCircle
 10
554.2433501725
 20
367.8288938271
 30
0.0
 40
2.50000000000002
100
AcDbArc
 50
100.8681863767
 51
137.5866642156
  0
ARC
  5
C9
330
1F
100
AcDbEntity
  8
0
  6
Continuous
 62
     7
370
    25
100
AcDbCircle
 10
552.1617399655
 20
369.0684324784
 30
0.0
 40
0.5050994627349845
100
AcDbArc
 50
62.1624680637
 51
236.2923825287
  0
ARC
  5
CA
330
1F
100
AcDbEntity
  8
0
  6
Continuous
 62
     7
370
    25
100
AcDbCircle
 10
554.2433501725
 20
367.8288938271
 30
0.0
 40
2.499999999999921
100
AcDbArc
 50
160.8681863768
 51
197.5866642156
  0
ARC
  5
CB
330
1F
100
AcDbEntity
  8
0
  6
Continuous
 62
     7
370
    25
100
AcDbCircle
 10
552.129073108
 20
366.6459358327
 30
0.0
 40
0.5050994627352281
100
AcDbArc
 50
122.1624680624
 51
296.2923825299
  0
ARC
  5
CC
330
1F
100
AcDbEntity
  8
0
  6
Continuous
 62
     7
370
    25
100
AcDbCircle
 10
554.2433501725
 20
367.8288938271
 30
0.0
 40
2.499999999999941
100
AcDbArc
 50
220.8681863768
 51
257.5866642156
  0
ARC
  5
CD
330
1F
100
AcDbEntity
  8
0
  6
Continuous
 62
     7
370
    25
100
AcDbCircle
 10
554.210683315
 20
365.4063971814
 30
0.0
 40
0.5050994627333365
100
AcDbArc
 50
182.1624680634
 51
356.2923825288
  0
ARC
  5
CE
330
1F
100
AcDbEntity
  8
0
  6
Continuous
 62
     7
370
    25
100
AcDbCircle
 10
554.2433501725
 20
367.8288938271
 30
0.0
 40
2.499999999999967
100
AcDbArc
 50
280.8681863767
 51
317.5866642156
  0
ARC
  5
CF
330
1F
100
AcDbEntity
  8
0
  6
Continuous
 62
     7
370
    25
100
AcDbCircle
 10
556.3249603795
 20
366.5893551758
 30
0.0
 40
0.50509946273661
100
AcDbArc
 50
242.1624680643
 51
56.2923825281
  0
ARC
  5
D0
330
1F
100
AcDbEntity
  8
0
  6
Continuous
 62
     7
370
    25
100
AcDbCircle
 10
554.2433501725
 20
367.8288938271
 30
0.0
 40
2.49999999999998
100
AcDbArc
 50
340.8681863768
 51
17.5866642156
  0
ARC
  5
D1
330
1F
100
AcDbEntity
  8
0
  6
Continuous
 62
     7
370
    25
100
AcDbCircle
 10
556.357627237
 20
369.0118518215
 30
0.0
 40
0.5050994627355148
100
AcDbArc
 50
302.1624680628
 51
116.2923825295
  0
ARC
  5
D2
330
1F
100
AcDbEntity
  8
0
  6
Continuous
 62
     7
370
    25
100
AcDbCircle
 10
554.2433501725
 20
367.8288938271
 30
0.0
 40
2.499999999999985
100
AcDbArc
 50
40.8681863768
 51
77.5866642156
  0
CIRCLE
  5
D3
330
1F
100
AcDbEntity
  8
0
  6
Continuous
 62
     7
370
    25
100
AcDbCircle
 10
554.2433501725
 20
167.8288938271
 30
0.0
 40
5.500000000000113
  0
ARC
  5
D4
330
1F
100
AcDbEntity
  8
0
  6
Continuous
 62
     7
370
    25
100
AcDbCircle
 10
554.2433501725
 20
167.8288938271
 30
0.0
 40
2.499999999999928
100
AcDbArc
 50
214.8915298906
 51
251.6100077295
  0
ARC
  5
D5
330
1F
100
AcDbEntity
  8
0
  6
Continuous
 62
     7
370
    25
100
AcDbCircle
 10
554.2433501725
 20
167.8288938271
 30
0.0
 40
2.499999999999956
100
AcDbArc
 50
274.8915298907
 51
311.6100077294
  0
ARC
  5
D6
330
1F
100
AcDbEntity
  8
0
  6
Continuous
 62
     7
370
    25
100
AcDbCircle
 10
556.184580767
 20
166.3793487603
 30
0.0
 40
0.5050994627351889
100
AcDbArc
 50
236.1858115763
 51
50.3157260438
  0
ARC
  5
D7
330
1F
100
AcDbEntity
  8
0
  6
Continuous
 62
     7
370
    25
100
AcDbCircle
 10
554.2433501725
 20
167.8288938271
 30
0.0
 40
2.499999999999981
100
AcDbArc
 50
334.8915298906
 51
11.6100077295
  0
ARC
  5
D8
330
1F
100
AcDbEntity
  8
0
  6
Continuous
 62
     7
370
    25
100
AcDbCircle
 10
556.4693083215
 20
168.7852763032
 30
0.0
 40
0.5050994627332718
100
AcDbArc
 50
296.1858115773
 51
110.3157260427
  0
ARC
  5
D9
330
1F
100
AcDbEntity
  8
0
  6
Continuous
 62
     7
370
    25
100
AcDbCircle
 10
554.2433501725
 20
167.8288938271
 30
0.0
 40
2.499999999999961
100
AcDbArc
 50
94.8915298907
 51
131.6100077294
  0
ARC
  5
DA
330
1F
100
AcDbEntity
  8
0
  6
Continuous
 62
     7
370
    25
100
AcDbCircle
 10
554.2433501725
 20
167.8288938271
 30
0.0
 40
2.499999999999944
100
AcDbArc
 50
154.8915298906
 51
191.6100077295
  0
ARC
  5
DB
330
1F
100
AcDbEntity
  8
0
  6
Continuous
 62
     7
370
    25
100
AcDbCircle
 10
552.3021195779
 20
169.2784388939
 30
0.0
 40
0.505099462735553
100
AcDbArc
 50
56.1858115767
 51
230.3157260434
  0
ARC
  5
DC
330
1F
100
AcDbEntity
  8
0
  6
Continuous
 62
     7
370
    25
100
AcDbCircle
 10
554.2433501725
 20
167.8288938271
 30
0.0
 40
2.500000000000019
100
AcDbArc
 50
34.8915298906
 51
71.6100077295
  0
ARC
  5
DD
330
1F
100
AcDbEntity
  8
0
  6
Continuous
 62
     7
370
    25
100
AcDbCircle
 10
553.958622618
 20
165.4229662842
 30
0.0
 40
0.5050994627349252
100
AcDbArc
 50
176.1858115776
 51
350.3157260426
  0
ARC
  5
DE
330
1F
100
AcDbEntity
  8
0
  6
Continuous
 62
     7
370
    25
100
AcDbCircle
 10
552.0173920234
 20
166.872511351
 30
0.0
 40
0.5050994627335086
100
AcDbArc
 50
116.1858115767
 51
290.3157260434
  0
ARC
  5
DF
330
1F
100
AcDbEntity
  8
0
  6
Continuous
 62
     7
370
    25
100
AcDbCircle
 10
554.528077727
 20
170.23482137
 30
0.0
 40
0.5050994627367118
100
AcDbArc
 50
356.1858115782
 51
170.315726042
  0
ARC
  5
E0
330
1F
100
AcDbEntity
  8
0
  6
Continuous
 62
     7
370
    25
100
AcDbCircle
 10
273.4233600741
 20
168.8858299419
 30
0.0
 40
0.505099462733482
100
AcDbArc
 50
298.8005827702
 51
112.9304972368
  0
ARC
  5
E1
330
1F
100
AcDbEntity
  8
0
  6
Continuous
 62
     7
370
    25
100
AcDbCircle
 10
271.2433501725
 20
167.8288938271
 30
0.0
 40
2.49999999999999
100
AcDbArc
 50
37.506301084
 51
74.2247789229
  0
ARC
  5
E2
330
1F
100
AcDbEntity
  8
0
  6
Continuous
 62
     7
370
    25
100
AcDbCircle
 10
271.4180215977
 20
170.2453058398
 30
0.0
 40
0.5050994627349643
100
AcDbArc
 50
358.800582771
 51
172.930497236
  0
ARC
  5
E3
330
1F
100
AcDbEntity
  8
0
  6
Continuous
 62
     7
370
    25
100
AcDbCircle
 10
271.2433501725
 20
167.8288938271
 30
0.0
 40
2.499999999999938
100
AcDbArc
 50
97.5063010841
 51
134.2247789229
  0
ARC
  5
E4
330
1F
100
AcDbEntity
  8
0
  6
Continuous
 62
     7
370
    25
100
AcDbCircle
 10
269.2380116961
 20
169.188369725
 30
0.0
 40
0.5050994627351659
100
AcDbArc
 50
58.8005827697
 51
232.9304972372
  0
ARC
  5
E5
330
1F
100
AcDbEntity
  8
0
  6
Continuous
 62
     7
370
    25
100
AcDbCircle
 10
271.2433501725
 20
167.8288938271
 30
0.0
 40
2.499999999999907
100
AcDbArc
 50
157.5063010841
 51
194.2247789229
  0
ARC
  5
E6
330
1F
100
AcDbEntity
  8
0
  6
Continuous
 62
     7
370
    25
100
AcDbCircle
 10
269.0633402709
 20
166.7719577123
 30
0.0
 40
0.5050994627332688
100
AcDbArc
 50
118.8005827707
 51
292.9304972361
  0
ARC
  5
E7
330
1F
100
AcDbEntity
  8
0
  6
Continuous
 62
     7
370
    25
100
AcDbCircle
 10
271.2433501725
 20
167.8288938271
 30
0.0
 40
2.499999999999974
100
AcDbArc
 50
217.506301084
 51
254.2247789229
  0
ARC
  5
E8
330
1F
100
AcDbEntity
  8
0
  6
Continuous
 62
     7
370
    25
100
AcDbCircle
 10
271.0686787473
 20
165.4124818144
 30
0.0
 40
0.5050994627366077
100
AcDbArc
 50
178.8005827716
 51
352.9304972354
  0
ARC
  5
E9
330
1F
100
AcDbEntity
  8
0
  6
Continuous
 62
     7
370
    25
100
AcDbCircle
 10
271.2433501725
 20
167.8288938271
 30
0.0
 40
2.499999999999981
100
AcDbArc
 50
277.5063010841
 51
314.2247789229
  0
ARC
  5
EA
330
1F
100
AcDbEntity
  8
0
  6
Continuous
 62
     7
370
    25
100
AcDbCircle
 10
273.2486886489
 20
166.4694179292
 30
0.0
 40
0.5050994627355284
100
AcDbArc
 50
238.8005827701
 51
52.9304972368
  0
ARC
  5
EB
330
1F
100
AcDbEntity
  8
0
  6
Continuous
 62
     7
370
    25
100
AcDbCircle
 10
271.2433501725
 20
167.8288938271
 30
0.0
 40
2.499999999999957
100
AcDbArc
 50
337.5063010841
 51
14.2247789229
  0
CIRCLE
  5
EC
330
1F
100
AcDbEntity
  8
0
  6
Continuous
 62
     7
370
    25
100
AcDbCircle
 10
271.2433501725
 20
167.8288938271
 30
0.0
 40
5.500000000000071
  0
LINE
  5
ED
330
1F
100
AcDbEntity
  8
0
  6
Continuous
 62
     7
370
    25
100
AcDbLine
 10
259.7433501725
 20
450.3288938271
 30
0.0
 11
260.5433501725
 21
450.3288938271
 31
0.0
  0
LINE
  5
EE
330
1F
100
AcDbEntity
  8
0
  6
Continuous
 62
     7
370
    25
100
AcDbLine
 10
260.5433501725
 20
450.3288938271
 30
0.0
 11
260.5433501725
 21
447.3288938271
 31
0.0
  0
LINE
  5
EF
330
1F
100
AcDbEntity
  8
0
  6
Continuous
 62
     7
370
    25
100
AcDbLine
 10
259.7433501725
 20
447.3288938271
 30
0.0
 11
259.7433501725
 21
450.3288938271
 31
0.0
  0
LINE
  5
F0
330
1F
100
AcDbEntity
  8
0
  6
Continuous
 62
     7
370
    25
100
AcDbLine
 10
259.7433501725
 20
430.3288938271
 30
0.0
 11
260.5433501725
 21
430.3288938271
 31
0.0
  0
LINE
  5
F1
330
1F
100
AcDbEntity
  8
0
  6
Continuous
 62
     7
370
    25
100
AcDbLine
 10
259.7433501725
 20
430.3288938271
 30
0.0
 11
259.7433501725
 21
447.3288938271
 31
0.0
  0
LINE
  5
F2
330
1F
100
AcDbEntity
  8
0
  6
Continuous
 62
     7
370
    25
100
AcDbLine
 10
260.5433501725
 20
430.3288938271
 30
0.0
 11
260.5433501725
 21
447.3288938271
 31
0.0
  0
LINE
  5
F3
330
1F
100
AcDbEntity
  8
0
  6
Continuous
 62
     7
370
    25
100
AcDbLine
 10
565.7433501725
 20
430.3288938271
 30
0.0
 11
564.9433501725
 21
430.3288938271
 31
0.0
  0
LINE
  5
F4
330
1F
100
AcDbEntity
  8
0
  6
Continuous
 62
     7
370
    25
100
AcDbLine
 10
565.7433501725
 20
447.3288938271
 30
0.0
 11
565.7433501725
 21
430.3288938271
 31
0.0
  0
LINE
  5
F5
330
1F
100
AcDbEntity
  8
0
  6
Continuous
 62
     7
370
    25
100
AcDbLine
 10
564.9433501725
 20
447.3288938271
 30
0.0
 11
564.9433501725
 21
430.3288938271
 31
0.0
  0
LINE
  5
F6
330
1F
100
AcDbEntity
  8
0
  6
Continuous
 62
     7
370
    25
100
AcDbLine
 10
564.9433501725
 20
450.3288938271
 30
0.0
 11
565.7433501725
 21
450.3288938271
 31
0.0
  0
LINE
  5
F7
330
1F
100
AcDbEntity
  8
0
  6
Continuous
 62
     7
370
    25
100
AcDbLine
 10
565.7433501725
 20
450.3288938271
 30
0.0
 11
565.7433501725
 21
447.3288938271
 31
0.0
  0
LINE
  5
F8
330
1F
100
AcDbEntity
  8
0
  6
Continuous
 62
     7
370
    25
100
AcDbLine
 10
564.9433501725
 20
447.3288938271
 30
0.0
 11
564.9433501725
 21
450.3288938271
 31
0.0
  0
LINE
  5
F9
330
1F
100
AcDbEntity
  8
0
  6
Continuous
 62
     7
370
    25
100
AcDbLine
 10
260.5433501725
 20
415.8288938271
 30
0.0
 11
260.5433501725
 21
427.1288938271
 31
0.0
  0
LINE
  5
FA
330
1F
100
AcDbEntity
  8
0
  6
Continuous
 62
     7
370
    25
100
AcDbLine
 10
260.5433501725
 20
428.8288938271
 30
0.0
 11
260.5433501725
 21
430.3288938271
 31
0.0
  0
LINE
  5
FB
330
1F
100
AcDbEntity
  8
0
  6
Continuous
 62
     7
370
    25
100
AcDbLine
 10
259.7433501725
 20
415.8288938271
 30
0.0
 11
259.7433501725
 21
430.3288938271
 31
0.0
  0
LINE
  5
FC
330
1F
100
AcDbEntity
  8
0
  6
Continuous
 62
     7
370
    25
100
AcDbLine
 10
565.7433501725
 20
430.3288938271
 30
0.0
 11
565.7433501725
 21
415.8288938271
 31
0.0
  0
LINE
  5
FD
330
1F
100
AcDbEntity
  8
0
  6
Continuous
 62
     7
370
    25
100
AcDbLine
 10
564.9433501725
 20
430.3288938271
 30
0.0
 11
564.9433501725
 21
428.8288938271
 31
0.0
  0
LINE
  5
FE
330
1F
100
AcDbEntity
  8
0
  6
Continuous
 62
     7
370
    25
100
AcDbLine
 10
564.9433501725
 20
427.1288938271
 30
0.0
 11
564.9433501725
 21
415.8288938271
 31
0.0
  0
LINE
  5
FF
330
1F
100
AcDbEntity
  8
0
  6
Continuous
 62
     7
370
    25
100
AcDbLine
 10
574.4021001725
 20
415.8288938271
 30
0.0
 11
574.4021001725
 21
421.8288938271
 31
0.0
  0
LINE
  5
100
330
1F
100
AcDbEntity
  8
0
  6
Continuous
 62
     7
370
    25
100
AcDbLine
 10
574.9433501725
 20
416.9445009114
 30
0.0
 11
574.9433501725
 21
421.2876438271
 31
0.0
  0
LINE
  5
101
330
1F
100
AcDbEntity
  8
0
  6
Continuous
 62
     7
370
    25
100
AcDbLine
 10
574.9433501725
 20
416.3701438271
 30
0.0
 11
574.9433501725
 21
416.9445009114
 31
0.0
  0
LINE
  5
102
330
1F
100
AcDbEntity
  8
0
  6
Continuous
 62
     7
370
    25
100
AcDbLine
 10
260.3224199399
 20
428.8288938271
 30
0.0
 11
565.164280405
 21
428.8288938271
 31
0.0
  0
LINE
  5
103
330
1F
100
AcDbEntity
  8
0
  6
Continuous
 62
     7
370
    25
100
AcDbLine
 10
260.3224199399
 20
427.1288938271
 30
0.0
 11
565.164280405
 21
427.1288938271
 31
0.0
  0
ELLIPSE
  5
104
330
1F
100
AcDbEntity
  8
0
  6
Continuous
 62
     7
370
    25
100
AcDbEllipse
 10
260.3224199399
 20
427.9788938271
 30
0.0
 11
0.0
 21
0.8499999999999658
 31
0.0
210
0.0
220
0.0
230
1.0
 40
0.0930232558
 41
0.0
 42
3.141592653589792
  0
ELLIPSE
  5
105
330
1F
100
AcDbEntity
  8
0
  6
Continuous
 62
     7
370
    25
100
AcDbEllipse
 10
565.164280405
 20
427.9788938271
 30
0.0
 11
0.0
 21
0.8499999999999658
 31
0.0
210
0.0
220
0.0
230
1.0
 40
0.0930232558
 41
3.141592653589792
 42
6.283185307179586
  0
LINE
  5
106
330
1F
100
AcDbEntity
  8
0
  6
Continuous
 62
     7
370
    25
100
AcDbLine
 10
564.2433501725
 20
427.0288938271
 30
0.0
 11
564.2433501725
 21
427.1288938271
 31
0.0
  0
LINE
  5
107
330
1F
100
AcDbEntity
  8
0
  6
Continuous
 62
     7
370
    25
100
AcDbLine
 10
261.2433501725
 20
427.1288938271
 30
0.0
 11
261.2433501725
 21
427.0288938271
 31
0.0
  0
LINE
  5
108
330
1F
100
AcDbEntity
  8
0
  6
Continuous
 62
     7
370
    25
100
AcDbLine
 10
564.2433501725
 20
415.8288938271
 30
0.0
 11
564.2433501725
 21
427.0288938271
 31
0.0
  0
LINE
  5
109
330
1F
100
AcDbEntity
  8
0
  6
Continuous
 62
     7
370
    25
100
AcDbLine
 10
261.2433501725
 20
427.0288938271
 30
0.0
 11
261.2433501725
 21
415.8288938271
 31
0.0
  0
LINE
  5
10A
330
1F
100
AcDbEntity
  8
0
  6
Continuous
 62
     7
370
    25
100
AcDbLine
 10
251.0846001725
 20
420.1252596734
 30
0.0
 11
251.0846001725
 21
415.8288938271
 31
0.0
  0
LINE
  5
10B
330
1F
100
AcDbEntity
  8
0
  6
Continuous
 62
     7
370
    25
100
AcDbLine
 10
251.0846001725
 20
421.8288938271
 30
0.0
 11
251.0846001725
 21
420.1252596734
 31
0.0
  0
LINE
  5
10C
330
1F
100
AcDbEntity
  8
0
  6
Continuous
 62
     7
370
    25
100
AcDbLine
 10
250.5433501725
 20
421.2876438271
 30
0.0
 11
250.5433501725
 21
416.3701438271
 31
0.0
  0
ARC
  5
10D
330
1F
100
AcDbEntity
  8
0
  6
Continuous
 62
     7
370
    25
100
AcDbCircle
 10
554.0688164876
 20
420.4051078377
 30
0.0
 40
12.03669752941115
100
AcDbArc
 50
186.2565722694
 51
191.9710500657
  0
ARC
  5
10E
330
1F
100
AcDbEntity
  8
0
  6
Continuous
 62
     7
370
    25
100
AcDbCircle
 10
542.6671361618
 20
428.6543601421
 30
0.0
 40
12.03669752934395
100
AcDbArc
 50
276.2565722693
 51
281.9710500657
  0
ARC
  5
10F
330
1F
100
AcDbEntity
  8
0
  6
Continuous
 62
     7
370
    25
100
AcDbCircle
 10
534.4178838575
 20
417.2526798165
 30
0.0
 40
12.03669752930639
100
AcDbArc
 50
6.2565722693
 51
11.9710500657
  0
ARC
  5
110
330
1F
100
AcDbEntity
  8
0
  6
Continuous
 62
     7
370
    25
100
AcDbCircle
 10
545.8195641831
 20
409.0034275121
 30
0.0
 40
12.03669752932947
100
AcDbArc
 50
96.2565722694
 51
101.9710500657
  0
ARC
  5
111
330
1F
100
AcDbEntity
  8
0
  6
Continuous
 62
     7
370
    25
100
AcDbCircle
 10
544.2433501725
 20
418.8288938271
 30
0.0
 40
4.000000000000036
100
AcDbArc
 50
311.4096221093
 51
99.1138111675
  0
ARC
  5
112
330
1F
100
AcDbEntity
  8
0
  6
Continuous
 62
     7
370
    25
100
AcDbCircle
 10
544.2433501725
 20
418.8288938271
 30
0.0
 40
4.000000000000036
100
AcDbArc
 50
99.1138111675
 51
228.5903778907
  0
LINE
  5
113
330
1F
100
AcDbEntity
  8
0
  6
Continuous
 62
     7
370
    25
100
AcDbLine
 10
542.1038114087
 20
419.0933377069
 30
0.0
 11
543.5558871326
 21
419.326281572
 31
0.0
  0
LINE
  5
114
330
1F
100
AcDbEntity
  8
0
  6
Continuous
 62
     7
370
    25
100
AcDbLine
 10
542.2938867036
 20
417.9084869221
 30
0.0
 11
543.7459624275
 21
418.1414307872
 31
0.0
  0
LINE
  5
115
330
1F
100
AcDbEntity
  8
0
  6
Continuous
 62
     7
370
    25
100
AcDbLine
 10
543.7459624275
 20
418.1414307872
 30
0.0
 11
543.9789062927
 21
416.6893550633
 31
0.0
  0
LINE
  5
116
330
1F
100
AcDbEntity
  8
0
  6
Continuous
 62
     7
370
    25
100
AcDbLine
 10
544.5077940522
 20
420.9684325909
 30
0.0
 11
544.7407379174
 21
419.516356867
 31
0.0
  0
LINE
  5
117
330
1F
100
AcDbEntity
  8
0
  6
Continuous
 62
     7
370
    25
100
AcDbLine
 10
544.9308132123
 20
418.3315060821
 30
0.0
 11
546.3828889363
 21
418.5644499473
 31
0.0
  0
LINE
  5
118
330
1F
100
AcDbEntity
  8
0
  6
Continuous
 62
     7
370
    25
100
AcDbLine
 10
543.3229432674
 20
420.778357296
 30
0.0
 11
543.5558871326
 21
419.326281572
 31
0.0
  0
LINE
  5
119
330
1F
100
AcDbEntity
  8
0
  6
Continuous
 62
     7
370
    25
100
AcDbLine
 10
544.9308132123
 20
418.3315060821
 30
0.0
 11
545.1637570775
 21
416.8794303582
 31
0.0
  0
LINE
  5
11A
330
1F
100
AcDbEntity
  8
0
  6
Continuous
 62
     7
370
    25
100
AcDbLine
 10
544.7407379174
 20
419.516356867
 30
0.0
 11
546.1928136414
 21
419.7493007321
 31
0.0
  0
LINE
  5
11B
330
1F
100
AcDbEntity
  8
0
  6
Continuous
 62
     7
370
    25
100
AcDbLine
 10
544.8888442655
 20
419.5401162788
 30
0.0
 11
545.0789195604
 21
418.355265494
 31
0.0
  0
LINE
  5
11C
330
1F
100
AcDbEntity
  8
0
  6
Continuous
 62
     7
370
    25
100
AcDbLine
 10
544.7169785056
 20
419.6644632151
 30
0.0
 11
543.5321277208
 21
419.4743879201
 31
0.0
  0
LINE
  5
11D
330
1F
100
AcDbEntity
  8
0
  6
Continuous
 62
     7
370
    25
100
AcDbLine
 10
544.9545726242
 20
418.183399734
 30
0.0
 11
543.7697218394
 21
417.9933244391
 31
0.0
  0
LINE
  5
11E
330
1F
100
AcDbEntity
  8
0
  6
Continuous
 62
     7
370
    25
100
AcDbLine
 10
543.4077807845
 20
419.3025221602
 30
0.0
 11
543.5978560794
 21
418.1176713754
 31
0.0
  0
ARC
  5
11F
330
1F
100
AcDbEntity
  8
0
  6
Continuous
 62
     7
370
    25
100
AcDbCircle
 10
422.0688164875
 20
420.4051078377
 30
0.0
 40
12.03669752935359
100
AcDbArc
 50
186.2565722694
 51
191.9710500657
  0
ARC
  5
120
330
1F
100
AcDbEntity
  8
0
  6
Continuous
 62
     7
370
    25
100
AcDbCircle
 10
410.6671361618
 20
428.6543601421
 30
0.0
 40
12.03669752934358
100
AcDbArc
 50
276.2565722693
 51
281.9710500657
  0
LINE
  5
121
330
1F
100
AcDbEntity
  8
0
  6
Continuous
 62
     7
370
    25
100
AcDbLine
 10
412.9308132123
 20
418.3315060821
 30
0.0
 11
414.3828889363
 21
418.5644499473
 31
0.0
  0
ARC
  5
122
330
1F
100
AcDbEntity
  8
0
  6
Continuous
 62
     7
370
    25
100
AcDbCircle
 10
402.4178838575
 20
417.2526798165
 30
0.0
 40
12.03669752931617
100
AcDbArc
 50
6.2565722693
 51
11.9710500657
  0
ARC
  5
123
330
1F
100
AcDbEntity
  8
0
  6
Continuous
 62
     7
370
    25
100
AcDbCircle
 10
413.8195641831
 20
409.0034275121
 30
0.0
 40
12.03669752931977
100
AcDbArc
 50
96.2565722693
 51
101.9710500657
  0
ARC
  5
124
330
1F
100
AcDbEntity
  8
0
  6
Continuous
 62
     7
370
    25
100
AcDbCircle
 10
412.2433501725
 20
418.8288938271
 30
0.0
 40
4.000000000000007
100
AcDbArc
 50
311.4096221093
 51
99.1138111675
  0
ARC
  5
125
330
1F
100
AcDbEntity
  8
0
  6
Continuous
 62
     7
370
    25
100
AcDbCircle
 10
412.2433501725
 20
418.8288938271
 30
0.0
 40
4.000000000000007
100
AcDbArc
 50
99.1138111675
 51
228.5903778907
  0
LINE
  5
126
330
1F
100
AcDbEntity
  8
0
  6
Continuous
 62
     7
370
    25
100
AcDbLine
 10
411.7459624275
 20
418.1414307872
 30
0.0
 11
411.9789062927
 21
416.6893550633
 31
0.0
  0
LINE
  5
127
330
1F
100
AcDbEntity
  8
0
  6
Continuous
 62
     7
370
    25
100
AcDbLine
 10
410.2938867036
 20
417.9084869221
 30
0.0
 11
411.7459624275
 21
418.1414307872
 31
0.0
  0
LINE
  5
128
330
1F
100
AcDbEntity
  8
0
  6
Continuous
 62
     7
370
    25
100
AcDbLine
 10
412.9308132123
 20
418.3315060821
 30
0.0
 11
413.1637570775
 21
416.8794303582
 31
0.0
  0
LINE
  5
129
330
1F
100
AcDbEntity
  8
0
  6
Continuous
 62
     7
370
    25
100
AcDbLine
 10
410.1038114087
 20
419.0933377069
 30
0.0
 11
411.5558871326
 21
419.326281572
 31
0.0
  0
LINE
  5
12A
330
1F
100
AcDbEntity
  8
0
  6
Continuous
 62
     7
370
    25
100
AcDbLine
 10
412.7407379174
 20
419.516356867
 30
0.0
 11
414.1928136414
 21
419.7493007321
 31
0.0
  0
LINE
  5
12B
330
1F
100
AcDbEntity
  8
0
  6
Continuous
 62
     7
370
    25
100
AcDbLine
 10
412.5077940522
 20
420.9684325909
 30
0.0
 11
412.7407379174
 21
419.516356867
 31
0.0
  0
LINE
  5
12C
330
1F
100
AcDbEntity
  8
0
  6
Continuous
 62
     7
370
    25
100
AcDbLine
 10
411.3229432674
 20
420.778357296
 30
0.0
 11
411.5558871326
 21
419.326281572
 31
0.0
  0
LINE
  5
12D
330
1F
100
AcDbEntity
  8
0
  6
Continuous
 62
     7
370
    25
100
AcDbLine
 10
412.8888442655
 20
419.5401162788
 30
0.0
 11
413.0789195604
 21
418.355265494
 31
0.0
  0
LINE
  5
12E
330
1F
100
AcDbEntity
  8
0
  6
Continuous
 62
     7
370
    25
100
AcDbLine
 10
412.9545726242
 20
418.183399734
 30
0.0
 11
411.7697218394
 21
417.9933244391
 31
0.0
  0
LINE
  5
12F
330
1F
100
AcDbEntity
  8
0
  6
Continuous
 62
     7
370
    25
100
AcDbLine
 10
412.7169785056
 20
419.6644632151
 30
0.0
 11
411.5321277208
 21
419.4743879201
 31
0.0
  0
LINE
  5
130
330
1F
100
AcDbEntity
  8
0
  6
Continuous
 62
     7
370
    25
100
AcDbLine
 10
411.4077807845
 20
419.3025221602
 30
0.0
 11
411.5978560794
 21
418.1176713754
 31
0.0
  0
ARC
  5
131
330
1F
100
AcDbEntity
  8
0
  6
Continuous
 62
     7
370
    25
100
AcDbCircle
 10
291.0688164875
 20
420.4051078377
 30
0.0
 40
12.03669752935117
100
AcDbArc
 50
186.2565722694
 51
191.9710500657
  0
ARC
  5
132
330
1F
100
AcDbEntity
  8
0
  6
Continuous
 62
     7
370
    25
100
AcDbCircle
 10
279.6671361618
 20
428.6543601421
 30
0.0
 40
12.03669752934887
100
AcDbArc
 50
276.2565722694
 51
281.9710500657
  0
LINE
  5
133
330
1F
100
AcDbEntity
  8
0
  6
Continuous
 62
     7
370
    25
100
AcDbLine
 10
281.9308132123
 20
418.3315060821
 30
0.0
 11
282.1637570775
 21
416.8794303582
 31
0.0
  0
ARC
  5
134
330
1F
100
AcDbEntity
  8
0
  6
Continuous
 62
     7
370
    25
100
AcDbCircle
 10
271.4178838575
 20
417.2526798165
 30
0.0
 40
12.03669752932364
100
AcDbArc
 50
6.2565722693
 51
11.9710500657
  0
LINE
  5
135
330
1F
100
AcDbEntity
  8
0
  6
Continuous
 62
     7
370
    25
100
AcDbLine
 10
281.7407379174
 20
419.516356867
 30
0.0
 11
283.1928136414
 21
419.7493007321
 31
0.0
  0
ARC
  5
136
330
1F
100
AcDbEntity
  8
0
  6
Continuous
 62
     7
370
    25
100
AcDbCircle
 10
282.8195641831
 20
409.0034275121
 30
0.0
 40
12.03669752931609
100
AcDbArc
 50
96.2565722693
 51
101.9710500657
  0
ARC
  5
137
330
1F
100
AcDbEntity
  8
0
  6
Continuous
 62
     7
370
    25
100
AcDbCircle
 10
281.2433501725
 20
418.8288938271
 30
0.0
 40
4.000000000000006
100
AcDbArc
 50
311.4096221093
 51
99.1138111675
  0
ARC
  5
138
330
1F
100
AcDbEntity
  8
0
  6
Continuous
 62
     7
370
    25
100
AcDbCircle
 10
281.2433501725
 20
418.8288938271
 30
0.0
 40
4.000000000000006
100
AcDbArc
 50
99.1138111675
 51
228.5903778907
  0
LINE
  5
139
330
1F
100
AcDbEntity
  8
0
  6
Continuous
 62
     7
370
    25
100
AcDbLine
 10
279.1038114087
 20
419.0933377069
 30
0.0
 11
280.5558871326
 21
419.326281572
 31
0.0
  0
LINE
  5
13A
330
1F
100
AcDbEntity
  8
0
  6
Continuous
 62
     7
370
    25
100
AcDbLine
 10
279.2938867036
 20
417.9084869221
 30
0.0
 11
280.7459624275
 21
418.1414307872
 31
0.0
  0
LINE
  5
13B
330
1F
100
AcDbEntity
  8
0
  6
Continuous
 62
     7
370
    25
100
AcDbLine
 10
281.9308132123
 20
418.3315060821
 30
0.0
 11
283.3828889363
 21
418.5644499473
 31
0.0
  0
LINE
  5
13C
330
1F
100
AcDbEntity
  8
0
  6
Continuous
 62
     7
370
    25
100
AcDbLine
 10
281.5077940522
 20
420.9684325909
 30
0.0
 11
281.7407379174
 21
419.516356867
 31
0.0
  0
LINE
  5
13D
330
1F
100
AcDbEntity
  8
0
  6
Continuous
 62
     7
370
    25
100
AcDbLine
 10
280.7459624275
 20
418.1414307872
 30
0.0
 11
280.9789062927
 21
416.6893550633
 31
0.0
  0
LINE
  5
13E
330
1F
100
AcDbEntity
  8
0
  6
Continuous
 62
     7
370
    25
100
AcDbLine
 10
280.3229432674
 20
420.778357296
 30
0.0
 11
280.5558871326
 21
419.326281572
 31
0.0
  0
LINE
  5
13F
330
1F
100
AcDbEntity
  8
0
  6
Continuous
 62
     7
370
    25
100
AcDbLine
 10
281.8888442655
 20
419.5401162788
 30
0.0
 11
282.0789195604
 21
418.355265494
 31
0.0
  0
LINE
  5
140
330
1F
100
AcDbEntity
  8
0
  6
Continuous
 62
     7
370
    25
100
AcDbLine
 10
281.9545726242
 20
418.183399734
 30
0.0
 11
280.7697218394
 21
417.9933244391
 31
0.0
  0
LINE
  5
141
330
1F
100
AcDbEntity
  8
0
  6
Continuous
 62
     7
370
    25
100
AcDbLine
 10
281.7169785056
 20
419.6644632151
 30
0.0
 11
280.5321277208
 21
419.4743879201
 31
0.0
  0
LINE
  5
142
330
1F
100
AcDbEntity
  8
0
  6
Continuous
 62
     7
370
    25
100
AcDbLine
 10
280.4077807845
 20
419.3025221602
 30
0.0
 11
280.5978560794
 21
418.1176713754
 31
0.0
  0
SPLINE
  5
143
330
1F
100
AcDbEntity
  8
0
  6
Continuous
 62
     7
370
    25
100
AcDbSpline
210
0.0
220
0.0
230
1.0
 70
    24
 71
     3
 72
    18
 73
    14
 74
     0
 42
0.000000001
 43
0.00000001
 40
0.0
 40
0.0
 40
0.0
 40
0.0
 40
0.1395442450004755
 40
0.2146633576115607
 40
0.2913766055701594
 40
0.3680898535287578
 40
0.4432089661398433
 40
0.582753211140318
 40
0.7222974561407931
 40
0.7974165687518794
 40
0.874129816710477
 40
0.9508430646690749
 40
1.0
 40
1.0
 40
1.0
 40
1.0
 10
261.5433501724782
 20
438.5983657703271
 30
0.0
 10
261.5433501724781
 20
438.9834966622527
 30
0.0
 10
261.5433501724781
 20
439.5759502627607
 30
0.0
 10
261.5433501724782
 20
440.8118644441457
 30
0.0
 10
261.5433501724782
 20
441.8878940565006
 30
0.0
 10
261.5433501724783
 20
443.0514221770494
 30
0.0
 10
261.5433501724782
 20
444.5718693680676
 30
0.0
 10
261.5433501724782
 20
446.3960593660743
 30
0.0
 10
261.5433501724782
 20
447.9112943206668
 30
0.0
 10
261.5433501724782
 20
448.8290416190966
 30
0.0
 10
261.5433501724781
 20
449.3326584374503
 30
0.0
 10
261.5433501724782
 20
449.6047955621902
 30
0.0
 10
261.5433501724782
 20
449.6028877193043
 30
0.0
 10
261.5433501724782
 20
449.6021426364982
 30
0.0
  0
SPLINE
  5
144
330
1F
100
AcDbEntity
  8
0
  6
Continuous
 62
     7
370
    25
100
AcDbSpline
210
0.0
220
0.0
230
1.0
 70
     8
 71
     3
 72
     8
 73
     4
 74
     0
 42
0.000000001
 43
0.00000001
 40
0.0
 40
0.0
 40
0.0
 40
0.0
 40
1.0
 40
1.0
 40
1.0
 40
1.0
 10
265.543350172471
 20
441.0042244159611
 30
0.0
 10
265.543350172471
 20
441.8172139876663
 30
0.0
 10
265.3690348720918
 20
442.6079523837341
 30
0.0
 10
265.0967681850798
 20
443.3861873822109
 30
0.0
  0
SPLINE
  5
145
330
1F
100
AcDbEntity
  8
0
  6
Continuous
 62
     7
370
    25
100
AcDbSpline
210
0.0
220
0.0
230
1.0
 70
     8
 71
     3
 72
     8
 73
     4
 74
     0
 42
0.000000001
 43
0.00000001
 40
0.0
 40
0.0
 40
0.0
 40
0.0
 40
1.0
 40
1.0
 40
1.0
 40
1.0
 10
265.0967681850797
 20
438.6222614497114
 30
0.0
 10
265.3690348720911
 20
439.4004964481862
 30
0.0
 10
265.543350172471
 20
440.191234844258
 30
0.0
 10
265.543350172471
 20
441.0042244159611
 30
0.0
  0
LINE
  5
146
330
1F
100
AcDbEntity
  8
0
  6
Continuous
 62
     7
370
    25
100
AcDbLine
 10
261.5433501725
 20
438.6222614497
 30
0.0
 11
265.0967681851
 21
438.6222614497
 31
0.0
  0
LINE
  5
147
330
1F
100
AcDbEntity
  8
0
  6
Continuous
 62
     7
370
    25
100
AcDbLine
 10
265.0967681851
 20
443.3861873822
 30
0.0
 11
261.5433501725
 21
443.3861873822
 31
0.0
  0
SPLINE
  5
148
330
1F
100
AcDbEntity
  8
0
  6
Continuous
 62
     7
370
    25
100
AcDbSpline
210
0.0
220
0.0
230
1.0
 70
     8
 71
     3
 72
     8
 73
     4
 74
     0
 42
0.000000001
 43
0.00000001
 40
0.0
 40
0.0
 40
0.0
 40
0.0
 40
1.0
 40
1.0
 40
1.0
 40
1.0
 10
265.543350172471
 20
445.9895035709076
 30
0.0
 10
265.543350172471
 20
446.8780433774634
 30
0.0
 10
265.3690348720916
 20
447.7422642308825
 30
0.0
 10
265.0967681850798
 20
448.5928197595976
 30
0.0
  0
SPLINE
  5
149
330
1F
100
AcDbEntity
  8
0
  6
Continuous
 62
     7
370
    25
100
AcDbSpline
210
0.0
220
0.0
230
1.0
 70
     8
 71
     3
 72
     8
 73
     4
 74
     0
 42
0.000000001
 43
0.00000001
 40
0.0
 40
0.0
 40
0.0
 40
0.0
 40
1.0
 40
1.0
 40
1.0
 40
1.0
 10
265.0967681850798
 20
443.3861873822176
 30
0.0
 10
265.3690348720912
 20
444.2367429109315
 30
0.0
 10
265.543350172471
 20
445.1009637643531
 30
0.0
 10
265.543350172471
 20
445.9895035709076
 30
0.0
  0
LINE
  5
14A
330
1F
100
AcDbEntity
  8
0
  6
Continuous
 62
     7
370
    25
100
AcDbLine
 10
261.5433501725
 20
448.5928197596
 30
0.0
 11
265.0967681851
 21
448.5928197596
 31
0.0
  0
LINE
  5
14B
330
1F
100
AcDbEntity
  8
0
  6
Continuous
 62
     7
370
    25
100
AcDbLine
 10
265.5433501725
 20
441.004224416
 30
0.0
 11
265.5433501725
 21
445.9895035709
 31
0.0
  0
SPLINE
  5
14C
330
1F
100
AcDbEntity
  8
0
  6
Continuous
 62
     7
370
    25
100
AcDbSpline
210
0.0
220
0.0
230
1.0
 70
     8
 71
     3
 72
     8
 73
     4
 74
     0
 42
0.000000001
 43
0.00000001
 40
0.0
 40
0.0
 40
0.0
 40
0.0
 40
1.0
 40
1.0
 40
1.0
 40
1.0
 10
265.0967681850798
 20
448.5928197596013
 30
0.0
 10
265.3690348720912
 20
448.6651402898401
 30
0.0
 10
265.5433501724712
 20
448.7386227471906
 30
0.0
 10
265.5433501724712
 20
448.8141729820417
 30
0.0
  0
LINE
  5
14D
330
1F
100
AcDbEntity
  8
0
  6
Continuous
 62
     7
370
    25
100
AcDbLine
 10
265.5433501725
 20
445.9895035709
 30
0.0
 11
265.5433501725
 21
448.814172982
 31
0.0
  0
SPLINE
  5
14E
330
1F
100
AcDbEntity
  8
0
  6
Continuous
 62
     7
370
    25
100
AcDbSpline
210
0.0
220
0.0
230
1.0
 70
     8
 71
     3
 72
     8
 73
     4
 74
     0
 42
0.000000001
 43
0.00000001
 40
0.0
 40
0.0
 40
0.0
 40
0.0
 40
1.0
 40
1.0
 40
1.0
 40
1.0
 10
265.5433501724712
 20
438.843614672149
 30
0.0
 10
265.5433501724712
 20
438.7680644372978
 30
0.0
 10
265.3690348720917
 20
438.6945819799475
 30
0.0
 10
265.0967681850798
 20
438.6222614497086
 30
0.0
  0
LINE
  5
14F
330
1F
100
AcDbEntity
  8
0
  6
Continuous
 62
     7
370
    25
100
AcDbLine
 10
265.5433501725
 20
441.004224416
 30
0.0
 11
265.5433501725
 21
438.8362213333
 31
0.0
  0
SPLINE
  5
150
330
1F
100
AcDbEntity
  8
0
  6
Continuous
 62
     7
370
    25
100
AcDbSpline
210
0.0
220
0.0
230
1.0
 70
     8
 71
     3
 72
     8
 73
     4
 74
     0
 42
0.000000001
 43
0.00000001
 40
0.0
 40
0.0
 40
0.0
 40
0.0
 40
1.0
 40
1.0
 40
1.0
 40
1.0
 10
265.5433501724712
 20
448.8141729820417
 30
0.0
 10
265.5433501724712
 20
448.889723216893
 30
0.0
 10
265.3690348720917
 20
448.9632056742433
 30
0.0
 10
265.0967681850798
 20
449.0355262044822
 30
0.0
  0
LINE
  5
151
330
1F
100
AcDbEntity
  8
0
  6
Continuous
 62
     7
370
    25
100
AcDbLine
 10
261.5433501725
 20
449.0355262045
 30
0.0
 11
265.0967681851
 21
449.0355262045
 31
0.0
  0
LINE
  5
152
330
1F
100
AcDbEntity
  8
0
  6
Continuous
 62
     7
370
    25
100
AcDbLine
 10
250.5433501725
 20
446.2876438271
 30
0.0
 11
250.5433501725
 21
441.3701438271
 31
0.0
  0
LINE
  5
153
330
1F
100
AcDbEntity
  8
0
  6
Continuous
 62
     7
370
    25
100
AcDbLine
 10
251.0846001725
 20
445.1252596734
 30
0.0
 11
251.0846001725
 21
440.8288938271
 31
0.0
  0
LINE
  5
154
330
1F
100
AcDbEntity
  8
0
  6
Continuous
 62
     7
370
    25
100
AcDbLine
 10
251.0846001725
 20
446.8288938271
 30
0.0
 11
251.0846001725
 21
445.1252596734
 31
0.0
  0
LINE
  5
155
330
1F
100
AcDbEntity
  8
0
  6
Continuous
 62
     7
370
    25
100
AcDbLine
 10
741.806548001
 20
415.050267155
 30
0.0
 11
742.1694857794
 21
415.6788938271
 31
0.0
  0
LINE
  5
156
330
1F
100
AcDbEntity
  8
0
  6
Continuous
 62
     7
370
    25
100
AcDbLine
 10
742.1694857794
 20
421.9788938271
 30
0.0
 11
741.806548001
 21
422.6075204992
 31
0.0
  0
LINE
  5
157
330
1F
100
AcDbEntity
  8
0
  6
Continuous
 62
     7
370
    25
100
AcDbLine
 10
743.8694857794
 20
414.8288938271
 30
0.0
 11
745.8694857794
 21
414.8288938271
 31
0.0
  0
LINE
  5
158
330
1F
100
AcDbEntity
  8
0
  6
Continuous
 62
     7
370
    25
100
AcDbLine
 10
745.8694857794
 20
422.8288938271
 30
0.0
 11
743.8694857794
 21
422.8288938271
 31
0.0
  0
ARC
  5
159
330
1F
100
AcDbEntity
  8
0
  6
Continuous
 62
     7
370
    25
100
AcDbCircle
 10
738.9412825491
 20
418.8288938271
 30
0.0
 40
8.000000000000066
100
AcDbArc
 50
330.0
 51
344.7252520003
  0
ARC
  5
15A
330
1F
100
AcDbEntity
  8
0
  6
Continuous
 62
     7
370
    25
100
AcDbCircle
 10
738.9412825491
 20
418.8288938271
 30
0.0
 40
8.000000000000037
100
AcDbArc
 50
15.2747479997
 51
30.0
  0
LINE
  5
15B
330
1F
100
AcDbEntity
  8
0
  6
Continuous
 62
     7
370
    25
100
AcDbLine
 10
742.1694857794
 20
416.8288938271
 30
0.0
 11
742.2694857794
 21
416.8288938271
 31
0.0
  0
LINE
  5
15C
330
1F
100
AcDbEntity
  8
0
  6
Continuous
 62
     7
370
    25
100
AcDbLine
 10
742.2694857794
 20
420.8288938271
 30
0.0
 11
742.1694857794
 21
420.8288938271
 31
0.0
  0
LINE
  5
15D
330
1F
100
AcDbEntity
  8
0
  6
Continuous
 62
     7
370
    25
100
AcDbLine
 10
758.7694857794
 20
121.2996045052
 30
0.0
 11
749.1694857794
 21
121.2996045052
 31
0.0
  0
LINE
  5
15E
330
1F
100
AcDbEntity
  8
0
  6
Continuous
 62
     7
370
    25
100
AcDbLine
 10
749.1694857794
 20
414.358183149
 30
0.0
 11
749.1694857794
 21
121.2996045052
 31
0.0
  0
LINE
  5
15F
330
1F
100
AcDbEntity
  8
0
  6
Continuous
 62
     7
370
    25
100
AcDbLine
 10
758.7694857794
 20
414.358183149
 30
0.0
 11
749.1694857794
 21
414.358183149
 31
0.0
  0
LINE
  5
160
330
1F
100
AcDbEntity
  8
0
  6
Continuous
 62
     7
370
    25
100
AcDbLine
 10
761.1694857794
 20
413.4288938271
 30
0.0
 11
761.1694857794
 21
122.2288938271
 31
0.0
  0
SPLINE
  5
161
330
1F
100
AcDbEntity
  8
0
  6
Continuous
 62
     7
370
    25
100
AcDbSpline
210
0.0
220
0.0
230
1.0
 70
     8
 71
     3
 72
    20
 73
    16
 74
     0
 42
0.000000001
 43
0.00000001
 40
0.0
 40
0.0
 40
0.0
 40
0.0
 40
0.1250000000000006
 40
0.1250000000000006
 40
0.2500000000000013
 40
0.2500000000000013
 40
0.3750000000000019
 40
0.3750000000000019
 40
0.5000000000000026
 40
0.5000000000000026
 40
0.7500000000000038
 40
0.7500000000000038
 40
0.8750000000000019
 40
0.8750000000000019
 40
1.0
 40
1.0
 40
1.0
 40
1.0
 10
761.1694857793575
 20
122.2288938270941
 30
0.0
 10
761.1694857793575
 20
122.1898530962395
 30
0.0
 10
761.1539492188826
 20
122.1513343920398
 30
0.0
 10
761.092630866922
 20
122.0739276407319
 30
0.0
 10
761.0462071213353
 20
122.034783222745
 30
0.0
 10
760.9262562511811
 20
121.95763246883
 30
0.0
 10
760.8526516068978
 20
121.9193048870889
 30
0.0
 10
760.6779212408021
 20
121.8417585666124
 30
0.0
 10
760.5770706119005
 20
121.8027823589437
 30
0.0
 10
760.2457853319165
 20
121.6872875024987
 30
0.0
 10
759.9781051705327
 20
121.6093750588286
 30
0.0
 10
759.5454311444772
 20
121.4938951334277
 30
0.0
 10
759.3939130576262
 20
121.4550293375627
 30
0.0
 10
759.0844873002401
 20
121.3772550038941
 30
0.0
 10
758.9278649705464
 20
121.3386452369394
 30
0.0
 10
758.7694857793575
 20
121.2996045052127
 30
0.0
  0
SPLINE
  5
162
330
1F
100
AcDbEntity
  8
0
  6
Continuous
 62
     7
370
    25
100
AcDbSpline
210
0.0
220
0.0
230
1.0
 70
     8
 71
     3
 72
    20
 73
    16
 74
     0
 42
0.000000001
 43
0.00000001
 40
0.0
 40
0.0
 40
0.0
 40
0.0
 40
0.1250000000000021
 40
0.1250000000000021
 40
0.250000000000004
 40
0.250000000000004
 40
0.3750000000000059
 40
0.3750000000000059
 40
0.5000000000000078
 40
0.5000000000000078
 40
0.7500000000000064
 40
0.7500000000000064
 40
0.8750000000000032
 40
0.8750000000000032
 40
1.0
 40
1.0
 40
1.0
 40
1.0
 10
758.7694857793575
 20
414.3581831489756
 30
0.0
 10
758.9278649670083
 20
414.3191424181211
 30
0.0
 10
759.0841106917
 20
414.2806237139213
 30
0.0
 10
759.3921025411165
 20
414.2032169626133
 30
0.0
 10
759.5447466485876
 20
414.1640725446266
 30
0.0
 10
759.8338309377747
 20
414.0869217907115
 30
0.0
 10
759.9716354759588
 20
414.0485942089704
 30
0.0
 10
760.2332541515977
 20
413.9710478884939
 30
0.0
 10
760.3560004582803
 20
413.9320716808252
 30
0.0
 10
760.6873248352281
 20
413.8165768243801
 30
0.0
 10
760.8663359592563
 20
413.7386643807101
 30
0.0
 10
761.0459510586371
 20
413.6231844553092
 30
0.0
 10
761.0921954075048
 20
413.5843186594442
 30
0.0
 10
761.153948713516
 20
413.5065443257756
 30
0.0
 10
761.1694857793575
 20
413.4679345588208
 30
0.0
 10
761.1694857793575
 20
413.4288938270943
 30
0.0
  0
LINE
  5
163
330
1F
100
AcDbEntity
  8
0
  6
Continuous
 62
     7
370
    25
100
AcDbLine
 10
758.7694857794
 20
119.8288938271
 30
0.0
 11
758.7694857794
 21
121.2288938271
 31
0.0
  0
SPLINE
  5
164
330
1F
100
AcDbEntity
  8
0
  6
Continuous
 62
     7
370
    25
100
AcDbSpline
210
0.0
220
0.0
230
1.0
 70
     8
 71
     3
 72
     9
 73
     5
 74
     0
 42
0.000000001
 43
0.00000001
 40
0.0
 40
0.0
 40
0.0
 40
0.0
 40
0.7329379507270195
 40
1.0
 40
1.0
 40
1.0
 40
1.0
 10
758.7694857793575
 20
121.2288938270941
 30
0.0
 10
758.9208744210133
 20
121.2406484766118
 30
0.0
 10
759.1274248411487
 20
121.2566861909996
 30
0.0
 10
759.2827851832673
 20
121.3850234974935
 30
0.0
 10
759.3242760346093
 20
121.4192975215639
 30
0.0
  0
SPLINE
  5
165
330
1F
100
AcDbEntity
  8
0
  6
Continuous
 62
     7
370
    25
100
AcDbSpline
210
0.0
220
0.0
230
1.0
 70
     8
 71
     3
 72
    20
 73
    16
 74
     0
 42
0.000000001
 43
0.00000001
 40
0.0
 40
0.0
 40
0.0
 40
0.0
 40
0.1250000000000044
 40
0.1250000000000044
 40
0.2500000000000087
 40
0.2500000000000087
 40
0.3750000000000131
 40
0.3750000000000131
 40
0.5000000000000174
 40
0.5000000000000174
 40
0.7500000000000112
 40
0.7500000000000112
 40
0.8750000000000057
 40
0.8750000000000057
 40
1.0
 40
1.0
 40
1.0
 40
1.0
 10
758.7694857793574
 20
119.8288938270941
 30
0.0
 10
758.9278649670082
 20
119.8288938270941
 30
0.0
 10
759.0841106917
 20
119.844430387569
 30
0.0
 10
759.3921025411165
 20
119.9057487395296
 30
0.0
 10
759.5447466485876
 20
119.9521724851163
 30
0.0
 10
759.8338309377747
 20
120.0721233552704
 30
0.0
 10
759.9716354759588
 20
120.1457279995539
 30
0.0
 10
760.2332541515977
 20
120.3204583656496
 30
0.0
 10
760.3560004582803
 20
120.421308994551
 30
0.0
 10
760.6873248352281
 20
120.7525942745351
 30
0.0
 10
760.8663359592563
 20
121.0202744359189
 30
0.0
 10
761.0459510586371
 20
121.4529484619744
 30
0.0
 10
761.0921954075048
 20
121.6044665488255
 30
0.0
 10
761.153948713516
 20
121.9138923062116
 30
0.0
 10
761.1694857793575
 20
122.0705146359053
 30
0.0
 10
761.1694857793575
 20
122.2288938270941
 30
0.0
  0
SPLINE
  5
166
330
1F
100
AcDbEntity
  8
0
  6
Continuous
 62
     7
370
    25
100
AcDbSpline
210
0.0
220
0.0
230
1.0
 70
     8
 71
     3
 72
     9
 73
     5
 74
     0
 42
0.000000001
 43
0.00000001
 40
0.0
 40
0.0
 40
0.0
 40
0.0
 40
0.4825784287290436
 40
1.0
 40
1.0
 40
1.0
 40
1.0
 10
759.3820255185353
 20
414.2050640590408
 30
0.0
 10
759.293891177219
 20
414.2688722521021
 30
0.0
 10
759.1112590161661
 20
414.4010957193411
 30
0.0
 10
758.8860261321216
 20
414.4194150237977
 30
0.0
 10
758.7694857793575
 20
414.4288938270942
 30
0.0
  0
LINE
  5
167
330
1F
100
AcDbEntity
  8
0
  6
Continuous
 62
     7
370
    25
100
AcDbLine
 10
758.7694857794
 20
415.8288938271
 30
0.0
 11
758.7694857794
 21
414.4288938271
 31
0.0
  0
SPLINE
  5
168
330
1F
100
AcDbEntity
  8
0
  6
Continuous
 62
     7
370
    25
100
AcDbSpline
210
0.0
220
0.0
230
1.0
 70
     8
 71
     3
 72
    20
 73
    16
 74
     0
 42
0.000000001
 43
0.00000001
 40
0.0
 40
0.0
 40
0.0
 40
0.0
 40
0.125
 40
0.125
 40
0.2500000000000001
 40
0.2500000000000001
 40
0.3750000000000001
 40
0.3750000000000001
 40
0.5000000000000001
 40
0.5000000000000001
 40
0.7500000000000002
 40
0.7500000000000002
 40
0.8750000000000001
 40
0.8750000000000001
 40
1.0
 40
1.0
 40
1.0
 40
1.0
 10
761.1694857793575
 20
413.4288938270942
 30
0.0
 10
761.1694857793575
 20
413.5872730147449
 30
0.0
 10
761.1539492188825
 20
413.7435187394366
 30
0.0
 10
761.092630866922
 20
414.0515105888532
 30
0.0
 10
761.0462071213352
 20
414.2041546963244
 30
0.0
 10
760.9262562511811
 20
414.4932389855114
 30
0.0
 10
760.8526516068977
 20
414.6310435236954
 30
0.0
 10
760.677921240802
 20
414.8926621993343
 30
0.0
 10
760.5770706119005
 20
415.0154085060169
 30
0.0
 10
760.2457853319165
 20
415.3467328829647
 30
0.0
 10
759.9781051705327
 20
415.5257440069929
 30
0.0
 10
759.5454311444772
 20
415.7053591063739
 30
0.0
 10
759.3939130576262
 20
415.7516034552415
 30
0.0
 10
759.0844873002401
 20
415.8133567612527
 30
0.0
 10
758.9278649705464
 20
415.8288938270942
 30
0.0
 10
758.7694857793575
 20
415.8288938270942
 30
0.0
  0
LINE
  5
169
330
1F
100
AcDbEntity
  8
0
  6
Continuous
 62
     7
370
    25
100
AcDbLine
 10
758.7694857794
 20
414.4288938271
 30
0.0
 11
749.1694857794
 21
414.4288938271
 31
0.0
  0
LINE
  5
16A
330
1F
100
AcDbEntity
  8
0
  6
Continuous
 62
     7
370
    25
100
AcDbLine
 10
749.1694857794
 20
415.8288938271
 30
0.0
 11
749.1694857794
 21
414.4288938271
 31
0.0
  0
LINE
  5
16B
330
1F
100
AcDbEntity
  8
0
  6
Continuous
 62
     7
370
    25
100
AcDbLine
 10
758.7694857794
 20
415.8288938271
 30
0.0
 11
749.1694857794
 21
415.8288938271
 31
0.0
  0
LINE
  5
16C
330
1F
100
AcDbEntity
  8
0
  6
Continuous
 62
     7
370
    25
100
AcDbLine
 10
749.1694857794
 20
119.8288938271
 30
0.0
 11
749.1694857794
 21
121.2288938271
 31
0.0
  0
LINE
  5
16D
330
1F
100
AcDbEntity
  8
0
  6
Continuous
 62
     7
370
    25
100
AcDbLine
 10
758.7694857794
 20
121.2288938271
 30
0.0
 11
749.1694857794
 21
121.2288938271
 31
0.0
  0
LINE
  5
16E
330
1F
100
AcDbEntity
  8
0
  6
Continuous
 62
     7
370
    25
100
AcDbLine
 10
758.7694857794
 20
119.8288938271
 30
0.0
 11
749.1694857794
 21
119.8288938271
 31
0.0
  0
LINE
  5
16F
330
1F
100
AcDbEntity
  8
0
  6
Continuous
 62
     7
370
    25
100
AcDbLine
 10
741.0694857794
 20
430.3288938271
 30
0.0
 11
745.0694857794
 21
430.3288938271
 31
0.0
  0
LINE
  5
170
330
1F
100
AcDbEntity
  8
0
  6
Continuous
 62
     7
370
    25
100
AcDbLine
 10
741.0694857794
 20
413.1288938271
 30
0.0
 11
741.0694857794
 21
430.3288938271
 31
0.0
  0
LINE
  5
171
330
1F
100
AcDbEntity
  8
0
  6
Continuous
 62
     7
370
    25
100
AcDbLine
 10
722.0694857794
 20
447.3288938271
 30
0.0
 11
722.0694857794
 21
413.1288938271
 31
0.0
  0
ARC
  5
172
330
1F
100
AcDbEntity
  8
0
  6
Continuous
 62
     7
370
    25
100
AcDbCircle
 10
725.0694857794
 20
447.3288938271
 30
0.0
 40
3.0
100
AcDbArc
 50
90.0
 51
180.0
  0
LINE
  5
173
330
1F
100
AcDbEntity
  8
0
  6
Continuous
 62
     7
370
    25
100
AcDbLine
 10
742.0694857794
 20
450.3288938271
 30
0.0
 11
725.0694857794
 21
450.3288938271
 31
0.0
  0
ARC
  5
174
330
1F
100
AcDbEntity
  8
0
  6
Continuous
 62
     7
370
    25
100
AcDbCircle
 10
742.0694857794
 20
447.3288938271
 30
0.0
 40
3.0
100
AcDbArc
 50
0.0
 51
90.0
  0
LINE
  5
175
330
1F
100
AcDbEntity
  8
0
  6
Continuous
 62
     7
370
    25
100
AcDbLine
 10
745.0694857794
 20
430.3288938271
 30
0.0
 11
745.0694857794
 21
447.3288938271
 31
0.0
  0
CIRCLE
  5
176
330
1F
100
AcDbEntity
  8
0
  6
Continuous
 62
     7
370
    25
100
AcDbCircle
 10
730.5694857794
 20
443.8288938271
 30
0.0
 40
3.250000000000114
  0
CIRCLE
  5
177
330
1F
100
AcDbEntity
  8
0
  6
Continuous
 62
     7
370
    25
100
AcDbCircle
 10
730.5694857794
 20
418.8288938271
 30
0.0
 40
3.250000000000114
  0
LINE
  5
178
330
1F
100
AcDbEntity
  8
0
  6
Continuous
 62
     7
370
    25
100
AcDbLine
 10
741.0694857794
 20
413.1288938271
 30
0.0
 11
741.0694857794
 21
411.3288938271
 31
0.0
  0
LINE
  5
179
330
1F
100
AcDbEntity
  8
0
  6
Continuous
 62
     7
370
    25
100
AcDbLine
 10
741.0694857794
 20
411.3288938271
 30
0.0
 11
722.0694857794
 21
411.3288938271
 31
0.0
  0
LINE
  5
17A
330
1F
100
AcDbEntity
  8
0
  6
Continuous
 62
     7
370
    25
100
AcDbLine
 10
722.0694857794
 20
411.3288938271
 30
0.0
 11
722.0694857794
 21
413.1288938271
 31
0.0
  0
LINE
  5
17B
330
1F
100
AcDbEntity
  8
0
  6
Continuous
 62
     7
370
    25
100
AcDbLine
 10
741.0694857794
 20
412.1288938271
 30
0.0
 11
741.2694857794
 21
412.1288938271
 31
0.0
  0
LINE
  5
17C
330
1F
100
AcDbEntity
  8
0
  6
Continuous
 62
     7
370
    25
100
AcDbLine
 10
741.0694857794
 20
411.3288938271
 30
0.0
 11
741.2694857794
 21
411.3288938271
 31
0.0
  0
ARC
  5
17D
330
1F
100
AcDbEntity
  8
0
  6
Continuous
 62
     7
370
    25
100
AcDbCircle
 10
741.2694857794
 20
413.1288938271
 30
0.0
 40
1.0
100
AcDbArc
 50
270.0
 51
0.0
  0
ARC
  5
17E
330
1F
100
AcDbEntity
  8
0
  6
Continuous
 62
     7
370
    25
100
AcDbCircle
 10
741.2694857794
 20
413.1288938271
 30
0.0
 40
1.800000000000011
100
AcDbArc
 50
270.0
 51
0.0
  0
LINE
  5
17F
330
1F
100
AcDbEntity
  8
0
  6
Continuous
 62
     7
370
    25
100
AcDbLine
 10
743.0694857794
 20
423.3288938271
 30
0.0
 11
742.2694857794
 21
423.3288938271
 31
0.0
  0
LINE
  5
180
330
1F
100
AcDbEntity
  8
0
  6
Continuous
 62
     7
370
    25
100
AcDbLine
 10
742.2694857794
 20
423.3288938271
 30
0.0
 11
742.2694857794
 21
413.1288938271
 31
0.0
  0
LINE
  5
181
330
1F
100
AcDbEntity
  8
0
  6
Continuous
 62
     7
370
    25
100
AcDbLine
 10
701.0694857794
 20
412.1288938271
 30
0.0
 11
722.0694857794
 21
412.1288938271
 31
0.0
  0
LINE
  5
182
330
1F
100
AcDbEntity
  8
0
  6
Continuous
 62
     7
370
    25
100
AcDbLine
 10
701.0694857794
 20
411.3288938271
 30
0.0
 11
722.0694857794
 21
411.3288938271
 31
0.0
  0
LINE
  5
183
330
1F
100
AcDbEntity
  8
0
  6
Continuous
 62
     7
370
    25
100
AcDbLine
 10
698.0694857794
 20
411.3288938271
 30
0.0
 11
698.0694857794
 21
412.1288938271
 31
0.0
  0
LINE
  5
184
330
1F
100
AcDbEntity
  8
0
  6
Continuous
 62
     7
370
    25
100
AcDbLine
 10
698.0694857794
 20
412.1288938271
 30
0.0
 11
701.0694857794
 21
412.1288938271
 31
0.0
  0
LINE
  5
185
330
1F
100
AcDbEntity
  8
0
  6
Continuous
 62
     7
370
    25
100
AcDbLine
 10
701.0694857794
 20
411.3288938271
 30
0.0
 11
698.0694857794
 21
411.3288938271
 31
0.0
  0
LINE
  5
186
330
1F
100
AcDbEntity
  8
0
  6
Continuous
 62
     7
370
    25
100
AcDbLine
 10
702.1648723876
 20
415.5288938271
 30
0.0
 11
699.1648723876
 21
415.5288938271
 31
0.0
  0
LINE
  5
187
330
1F
100
AcDbEntity
  8
0
  6
Continuous
 62
     7
370
    25
100
AcDbLine
 10
699.1648723876
 20
415.5288938271
 30
0.0
 11
699.1648723876
 21
416.3288938271
 31
0.0
  0
LINE
  5
188
330
1F
100
AcDbEntity
  8
0
  6
Continuous
 62
     7
370
    25
100
AcDbLine
 10
699.1648723876
 20
416.3288938271
 30
0.0
 11
702.1648723876
 21
416.3288938271
 31
0.0
  0
LINE
  5
189
330
1F
100
AcDbEntity
  8
0
  6
Continuous
 62
     7
370
    25
100
AcDbLine
 10
702.1648723876
 20
415.5288938271
 30
0.0
 11
708.6825638412
 21
415.5288938271
 31
0.0
  0
LINE
  5
18A
330
1F
100
AcDbEntity
  8
0
  6
Continuous
 62
     7
370
    25
100
AcDbLine
 10
702.1648723876
 20
416.3288938271
 30
0.0
 11
708.6825638412
 21
416.3288938271
 31
0.0
  0
LINE
  5
18B
330
1F
100
AcDbEntity
  8
0
  6
Continuous
 62
     7
370
    25
100
AcDbLine
 10
716.2074349718
 20
412.2628684233
 30
0.0
 11
709.5825638412
 21
416.0877395539
 31
0.0
  0
LINE
  5
18C
330
1F
100
AcDbEntity
  8
0
  6
Continuous
 62
     7
370
    25
100
AcDbLine
 10
714.8394857794
 20
412.1288938271
 30
0.0
 11
709.1825638412
 21
415.3949192309
 31
0.0
  0
ARC
  5
18D
330
1F
100
AcDbEntity
  8
0
  6
Continuous
 62
     7
370
    25
100
AcDbCircle
 10
708.6825638412
 20
414.5288938271
 30
0.0
 40
1.00000000000004
100
AcDbArc
 50
60.0
 51
90.0
  0
ARC
  5
18E
330
1F
100
AcDbEntity
  8
0
  6
Continuous
 62
     7
370
    25
100
AcDbCircle
 10
708.6825638412
 20
414.5288938271
 30
0.0
 40
1.800000000000075
100
AcDbArc
 50
60.0
 51
90.0
  0
ARC
  5
18F
330
1F
100
AcDbEntity
  8
0
  6
Continuous
 62
     7
370
    25
100
AcDbCircle
 10
716.7074349718
 20
413.1288938271
 30
0.0
 40
1.0
100
AcDbArc
 50
240.0
 51
270.0
  0
LINE
  5
190
330
1F
100
AcDbEntity
  8
0
  6
Continuous
 62
     7
370
    25
100
AcDbLine
 10
741.0694857794
 20
420.269723149
 30
0.0
 11
741.654805794
 21
420.269723149
 31
0.0
  0
SPLINE
  5
191
330
1F
100
AcDbEntity
  8
0
  6
Continuous
 62
     7
370
    25
100
AcDbSpline
210
0.0
220
0.0
230
1.0
 70
     8
 71
     3
 72
    14
 73
    10
 74
     0
 42
0.000000001
 43
0.00000001
 40
0.0
 40
0.0
 40
0.0
 40
0.0
 40
0.25
 40
0.25
 40
0.5
 40
0.5
 40
0.75
 40
0.75
 40
1.0
 40
1.0
 40
1.0
 40
1.0
 10
741.6548057939716
 20
420.2697231489647
 30
0.0
 10
741.7496804032821
 20
419.9452169196761
 30
0.0
 10
741.829285328158
 20
419.6127576972817
 30
0.0
 10
741.9381219430522
 20
418.9461877823734
 30
0.0
 10
741.9674455487427
 20
418.6111115250982
 30
0.0
 10
741.967380766997
 20
417.9367680548706
 30
0.0
 10
741.9372245736707
 20
417.5949886341916
 30
0.0
 10
741.827639372305
 20
416.9285747145869
 30
0.0
 10
741.7490963985028
 20
416.6018006686342
 30
0.0
 10
741.6548057939716
 20
416.2792919515378
 30
0.0
  0
LINE
  5
192
330
1F
100
AcDbEntity
  8
0
  6
Continuous
 62
     7
370
    25
100
AcDbLine
 10
741.0694857794
 20
416.2792919515
 30
0.0
 11
741.654805794
 21
416.2792919515
 31
0.0
  0
SPLINE
  5
193
330
1F
100
AcDbEntity
  8
0
  6
Continuous
 62
     7
370
    25
100
AcDbSpline
210
0.0
220
0.0
230
1.0
 70
     8
 71
     3
 72
    12
 73
     8
 74
     0
 42
0.000000001
 43
0.00000001
 40
0.0
 40
0.0
 40
0.0
 40
0.0
 40
0.499999999999987
 40
0.499999999999987
 40
0.7499999999999934
 40
0.7499999999999934
 40
1.0
 40
1.0
 40
1.0
 40
1.0
 10
741.6548057939726
 20
414.8384626296673
 30
0.0
 10
741.8453000833961
 20
415.0737224221103
 30
0.0
 10
741.9669744964584
 20
415.3125071149608
 30
0.0
 10
741.9676306869897
 20
415.6799986475178
 30
0.0
 10
741.9377966851953
 20
415.8023708421672
 30
0.0
 10
741.8288668150877
 20
416.0427545273266
 30
0.0
 10
741.7501716280248
 20
416.1615154743883
 30
0.0
 10
741.6548057939721
 20
416.2792919515379
 30
0.0
  0
SPLINE
  5
194
330
1F
100
AcDbEntity
  8
0
  6
Continuous
 62
     7
370
    25
100
AcDbSpline
210
0.0
220
0.0
230
1.0
 70
     8
 71
     3
 72
    12
 73
     8
 74
     0
 42
0.000000001
 43
0.00000001
 40
0.0
 40
0.0
 40
0.0
 40
0.0
 40
0.5000000000000014
 40
0.5000000000000014
 40
0.7500000000000007
 40
0.7500000000000007
 40
1.0
 40
1.0
 40
1.0
 40
1.0
 10
741.6548057939726
 20
420.2697231489646
 30
0.0
 10
741.8453000833961
 20
420.6860242326192
 30
0.0
 10
741.9669744964584
 20
421.1085627606075
 30
0.0
 10
741.9676306869897
 20
421.7588529000684
 30
0.0
 10
741.9377966851953
 20
421.9753951179828
 30
0.0
 10
741.8288668150877
 20
422.4007631232231
 30
0.0
 10
741.7501716280248
 20
422.6109151022084
 30
0.0
 10
741.6548057939721
 20
422.8193250245211
 30
0.0
  0
LINE
  5
195
330
1F
100
AcDbEntity
  8
0
  6
Continuous
 62
     7
370
    25
100
AcDbLine
 10
741.654805794
 20
422.8193250245
 30
0.0
 11
741.7526808312
 21
422.5764202742
 31
0.0
  0
LINE
  5
196
330
1F
100
AcDbEntity
  8
0
  6
Continuous
 62
     7
370
    25
100
AcDbLine
 10
742.1694857794
 20
418.3299461779
 30
0.0
 11
742.1694857794
 21
415.6788938271
 31
0.0
  0
LINE
  5
197
330
1F
100
AcDbEntity
  8
0
  6
Continuous
 62
     7
370
    25
100
AcDbLine
 10
742.1694857794
 20
421.9788938271
 30
0.0
 11
742.1694857794
 21
418.3299461779
 31
0.0
  0
LINE
  5
198
330
1F
100
AcDbEntity
  8
0
  6
Continuous
 62
     7
370
    25
100
AcDbLine
 10
741.0694857794
 20
422.8193250245
 30
0.0
 11
741.654805794
 21
422.8193250245
 31
0.0
  0
LINE
  5
199
330
1F
100
AcDbEntity
  8
0
  6
Continuous
 62
     7
370
    25
100
AcDbLine
 10
741.0694857794
 20
414.8384626297
 30
0.0
 11
741.654805794
 21
414.8384626297
 31
0.0
  0
LINE
  5
19A
330
1F
100
AcDbEntity
  8
0
  6
Continuous
 62
     7
370
    25
100
AcDbLine
 10
749.6194857794
 20
427.1288938271
 30
0.0
 11
754.7694857794
 21
427.1288938271
 31
0.0
  0
LINE
  5
19B
330
1F
100
AcDbEntity
  8
0
  6
Continuous
 62
     7
370
    25
100
AcDbLine
 10
749.6194857794
 20
427.9288938271
 30
0.0
 11
749.6194857794
 21
427.1288938271
 31
0.0
  0
LINE
  5
19C
330
1F
100
AcDbEntity
  8
0
  6
Continuous
 62
     7
370
    25
100
AcDbLine
 10
749.6194857794
 20
427.9288938271
 30
0.0
 11
754.7694857794
 21
427.9288938271
 31
0.0
  0
LINE
  5
19D
330
1F
100
AcDbEntity
  8
0
  6
Continuous
 62
     7
370
    25
100
AcDbLine
 10
754.7694857794
 20
427.9288938271
 30
0.0
 11
754.7694857794
 21
428.0288938271
 31
0.0
  0
LINE
  5
19E
330
1F
100
AcDbEntity
  8
0
  6
Continuous
 62
     7
370
    25
100
AcDbLine
 10
744.8694857794
 20
428.0288938271
 30
0.0
 11
754.7694857794
 21
428.0288938271
 31
0.0
  0
LINE
  5
19F
330
1F
100
AcDbEntity
  8
0
  6
Continuous
 62
     7
370
    25
100
AcDbLine
 10
744.8694857794
 20
428.0288938271
 30
0.0
 11
744.8694857794
 21
428.8288938271
 31
0.0
  0
LINE
  5
1A0
330
1F
100
AcDbEntity
  8
0
  6
Continuous
 62
     7
370
    25
100
AcDbLine
 10
754.7694857794
 20
428.8288938271
 30
0.0
 11
744.8694857794
 21
428.8288938271
 31
0.0
  0
ARC
  5
1A1
330
1F
100
AcDbEntity
  8
0
  6
Continuous
 62
     7
370
    25
100
AcDbCircle
 10
754.7694857794
 20
427.9788938271
 30
0.0
 40
0.8499999999999659
100
AcDbArc
 50
270.0
 51
90.0
  0
LINE
  5
1A2
330
1F
100
AcDbEntity
  8
0
  6
Continuous
 62
     7
370
    25
100
AcDbLine
 10
744.8694857794
 20
408.8288938271
 30
0.0
 11
744.8694857794
 21
409.6288938271
 31
0.0
  0
LINE
  5
1A3
330
1F
100
AcDbEntity
  8
0
  6
Continuous
 62
     7
370
    25
100
AcDbLine
 10
749.1694857794
 20
409.6288938271
 30
0.0
 11
744.8694857794
 21
409.6288938271
 31
0.0
  0
LINE
  5
1A4
330
1F
100
AcDbEntity
  8
0
  6
Continuous
 62
     7
370
    25
100
AcDbLine
 10
749.1694857794
 20
408.8288938271
 30
0.0
 11
744.8694857794
 21
408.8288938271
 31
0.0
  0
ARC
  5
1A5
330
1F
100
AcDbEntity
  8
0
  6
Continuous
 62
     7
370
    25
100
AcDbCircle
 10
744.8694857794
 20
427.0288938271
 30
0.0
 40
1.0
100
AcDbArc
 50
90.0
 51
180.0
  0
LINE
  5
1A6
330
1F
100
AcDbEntity
  8
0
  6
Continuous
 62
     7
370
    25
100
AcDbLine
 10
743.8694857794
 20
427.0288938271
 30
0.0
 11
743.8694857794
 21
410.6288938271
 31
0.0
  0
LINE
  5
1A7
330
1F
100
AcDbEntity
  8
0
  6
Continuous
 62
     7
370
    25
100
AcDbLine
 10
743.0694857794
 20
410.6288938271
 30
0.0
 11
743.0694857794
 21
427.0288938271
 31
0.0
  0
ARC
  5
1A8
330
1F
100
AcDbEntity
  8
0
  6
Continuous
 62
     7
370
    25
100
AcDbCircle
 10
744.8694857794
 20
410.6288938271
 30
0.0
 40
1.800000000000125
100
AcDbArc
 50
180.0
 51
270.0
  0
ARC
  5
1A9
330
1F
100
AcDbEntity
  8
0
  6
Continuous
 62
     7
370
    25
100
AcDbCircle
 10
744.8694857794
 20
410.6288938271
 30
0.0
 40
1.000000000000057
100
AcDbArc
 50
180.0
 51
270.0
  0
ARC
  5
1AA
330
1F
100
AcDbEntity
  8
0
  6
Continuous
 62
     7
370
    25
100
AcDbCircle
 10
744.8694857794
 20
427.0288938271
 30
0.0
 40
1.800000000000068
100
AcDbArc
 50
90.0
 51
180.0
  0
CIRCLE
  5
1AB
330
1F
100
AcDbEntity
  8
0
  6
Continuous
 62
     7
370
    25
100
AcDbCircle
 10
730.5694857794
 20
418.8288938271
 30
0.0
 40
2.458750000016497
  0
CIRCLE
  5
1AC
330
1F
100
AcDbEntity
  8
0
  6
Continuous
 62
     7
370
    25
100
AcDbCircle
 10
730.5694857794
 20
418.8288938271
 30
0.0
 40
2.99999999999999
  0
LINE
  5
1AD
330
1F
100
AcDbEntity
  8
0
  6
Continuous
 62
     7
370
    25
100
AcDbLine
 10
745.8694857794
 20
422.7783964431
 30
0.0
 11
745.8694857794
 21
422.8288938271
 31
0.0
  0
LINE
  5
1AE
330
1F
100
AcDbEntity
  8
0
  6
Continuous
 62
     7
370
    25
100
AcDbLine
 10
745.8694857794
 20
414.8288938271
 30
0.0
 11
745.8694857794
 21
422.7783964431
 31
0.0
  0
ARC
  5
1AF
330
1F
100
AcDbEntity
  8
0
  6
Continuous
 62
     7
370
    25
100
AcDbCircle
 10
739.1325058816
 20
418.7329558072
 30
0.0
 40
7.786288415102763
100
AcDbArc
 50
4.3702527064
 51
15.2299003794
  0
ARC
  5
1B0
330
1F
100
AcDbEntity
  8
0
  6
Continuous
 62
     7
370
    25
100
AcDbCircle
 10
746.3717623452
 20
419.6394094095
 30
0.0
 40
0.6107675350068991
100
AcDbArc
 50
296.6101963366
 51
329.1575418587
  0
ARC
  5
1B1
330
1F
100
AcDbEntity
  8
0
  6
Continuous
 62
     7
370
    25
100
AcDbCircle
 10
737.5657002037
 20
418.5009123145
 30
0.0
 40
9.098942710266508
100
AcDbArc
 50
356.2668736478
 51
3.7331263522
  0
ARC
  5
1B2
330
1F
100
AcDbEntity
  8
0
  6
Continuous
 62
     7
370
    25
100
AcDbCircle
 10
746.3717623452
 20
418.4545586247
 30
0.0
 40
0.6107675350079619
100
AcDbArc
 50
296.6101963367
 51
329.1575418587
  0
ARC
  5
1B3
330
1F
100
AcDbEntity
  8
0
  6
Continuous
 62
     7
370
    25
100
AcDbCircle
 10
739.1325058816
 20
418.734756552
 30
0.0
 40
7.786288415102196
100
AcDbArc
 50
344.7700996206
 51
355.6297472936
  0
ARC
  5
1B4
330
1F
100
AcDbEntity
  8
0
  6
Continuous
 62
     7
370
    25
100
AcDbCircle
 10
746.5122520007
 20
416.7632914503
 30
0.0
 40
0.1522432420591699
100
AcDbArc
 50
330.9451665855
 51
359.1449116565
  0
LWPOLYLINE
  5
1B5
330
1F
100
AcDbEntity
  8
0
  6
Continuous
 62
     7
370
    25
100
AcDbPolyline
 90
        3
 70
   128
 43
0.0
 10
746.8961552696
 20
418.3315060821
 10
746.8799304209
 20
418.1478077533
 10
746.8792882779
 20
418.1414307872
  0
ARC
  5
1B6
330
1F
100
AcDbEntity
  8
0
  6
Continuous
 62
     7
370
    25
100
AcDbCircle
 10
746.3717623452
 20
418.0183782446
 30
0.0
 40
0.6107675350087508
100
AcDbArc
 50
30.8424581413
 51
63.3898036633
  0
ARC
  5
1B7
330
1F
100
AcDbEntity
  8
0
  6
Continuous
 62
     7
370
    25
100
AcDbCircle
 10
737.4888284244
 20
419.159891196
 30
0.0
 40
9.17581504303066
100
AcDbArc
 50
357.9327321269
 51
359.6562101019
  0
ARC
  5
1B8
330
1F
100
AcDbEntity
  8
0
  6
Continuous
 62
     7
370
    25
100
AcDbCircle
 10
739.1325058816
 20
418.9230311022
 30
0.0
 40
7.786288415094051
100
AcDbArc
 50
4.3702527064
 51
15.2299003794
  0
ARC
  5
1B9
330
1F
100
AcDbEntity
  8
0
  6
Continuous
 62
     7
370
    25
100
AcDbCircle
 10
746.4242142144
 20
420.8733949434
 30
0.0
 40
0.2406805056725371
100
AcDbArc
 50
336.7420981705
 51
23.2579018295
  0
LINE
  5
1BA
330
1F
100
AcDbEntity
  8
0
  6
Continuous
 62
     7
370
    25
100
AcDbLine
 10
746.8961552696
 20
418.1414307872
 30
0.0
 11
746.6575996118
 21
418.1414307872
 31
0.0
  0
LINE
  5
1BB
330
1F
100
AcDbEntity
  8
0
  6
Continuous
 62
     7
370
    25
100
AcDbLine
 10
746.8961552696
 20
419.516356867
 30
0.0
 11
746.8792882779
 21
419.516356867
 31
0.0
  0
LINE
  5
1BC
330
1F
100
AcDbEntity
  8
0
  6
Continuous
 62
     7
370
    25
100
AcDbLine
 10
746.8961552696
 20
418.3315060821
 30
0.0
 11
746.6631049532
 21
418.3315060821
 31
0.0
  0
ARC
  5
1BD
330
1F
100
AcDbEntity
  8
0
  6
Continuous
 62
     7
370
    25
100
AcDbCircle
 10
724.6109968901
 20
355.0843670035
 30
0.0
 40
1.942508566655477
100
AcDbArc
 50
181.8362067977
 51
271.7254354149
  0
LINE
  5
1BE
330
1F
100
AcDbEntity
  8
0
  6
Continuous
 62
     7
370
    25
100
AcDbLine
 10
722.6694857794
 20
355.0221244276
 30
0.0
 11
722.6694857794
 21
360.1632006645
 31
0.0
  0
LINE
  5
1BF
330
1F
100
AcDbEntity
  8
0
  6
Continuous
 62
     7
370
    25
100
AcDbLine
 10
738.6694857794
 20
360.1632006645
 30
0.0
 11
738.6694857794
 21
355.0221244276
 31
0.0
  0
ARC
  5
1C0
330
1F
100
AcDbEntity
  8
0
  6
Continuous
 62
     7
370
    25
100
AcDbCircle
 10
736.7279746686
 20
355.0843670035
 30
0.0
 40
1.942508566655079
100
AcDbArc
 50
268.2745645851
 51
358.1637932023
  0
LINE
  5
1C1
330
1F
100
AcDbEntity
  8
0
  6
Continuous
 62
     7
370
    25
100
AcDbLine
 10
736.6694857794
 20
353.142739186
 30
0.0
 11
724.6694857794
 21
353.142739186
 31
0.0
  0
LINE
  5
1C2
330
1F
100
AcDbEntity
  8
0
  6
Continuous
 62
     7
370
    25
100
AcDbLine
 10
722.6694857794
 20
354.338084141
 30
0.0
 11
722.6694857794
 21
355.0221244276
 31
0.0
  0
ARC
  5
1C3
330
1F
100
AcDbEntity
  8
0
  6
Continuous
 62
     7
370
    25
100
AcDbCircle
 10
724.6109968901
 20
354.4003267168
 30
0.0
 40
1.942508566655476
100
AcDbArc
 50
181.8362067977
 51
271.7254354149
  0
LINE
  5
1C4
330
1F
100
AcDbEntity
  8
0
  6
Continuous
 62
     7
370
    25
100
AcDbLine
 10
736.6694857794
 20
352.4586988994
 30
0.0
 11
724.6694857794
 21
352.4586988994
 31
0.0
  0
LINE
  5
1C5
330
1F
100
AcDbEntity
  8
0
  6
Continuous
 62
     7
370
    25
100
AcDbLine
 10
738.6694857794
 20
355.0221244276
 30
0.0
 11
738.6694857794
 21
354.338084141
 31
0.0
  0
ARC
  5
1C6
330
1F
100
AcDbEntity
  8
0
  6
Continuous
 62
     7
370
    25
100
AcDbCircle
 10
736.7279746686
 20
354.4003267168
 30
0.0
 40
1.942508566655083
100
AcDbArc
 50
268.2745645851
 51
358.1637932023
  0
LINE
  5
1C7
330
1F
100
AcDbEntity
  8
0
  6
Continuous
 62
     7
370
    25
100
AcDbLine
 10
738.6694857794
 20
360.1632006645
 30
0.0
 11
738.6694857794
 21
360.5052208078
 31
0.0
  0
LINE
  5
1C8
330
1F
100
AcDbEntity
  8
0
  6
Continuous
 62
     7
370
    25
100
AcDbLine
 10
722.6694857794
 20
360.5052208078
 30
0.0
 11
722.6694857794
 21
360.1632006645
 31
0.0
  0
LINE
  5
1C9
330
1F
100
AcDbEntity
  8
0
  6
Continuous
 62
     7
370
    25
100
AcDbLine
 10
738.6694857794
 20
360.3288938271
 30
0.0
 11
749.1694857794
 21
360.3288938271
 31
0.0
  0
LINE
  5
1CA
330
1F
100
AcDbEntity
  8
0
  6
Continuous
 62
     7
370
    25
100
AcDbLine
 10
722.6694857794
 20
373.3288938271
 30
0.0
 11
722.6694857794
 21
360.5052208078
 31
0.0
  0
ARC
  5
1CB
330
1F
100
AcDbEntity
  8
0
  6
Continuous
 62
     7
370
    25
100
AcDbCircle
 10
724.6694857794
 20
373.3288938271
 30
0.0
 40
2.0
100
AcDbArc
 50
90.0
 51
180.0
  0
LINE
  5
1CC
330
1F
100
AcDbEntity
  8
0
  6
Continuous
 62
     7
370
    25
100
AcDbLine
 10
749.1694857794
 20
375.3288938271
 30
0.0
 11
724.6694857794
 21
375.3288938271
 31
0.0
  0
CIRCLE
  5
1CD
330
1F
100
AcDbEntity
  8
0
  6
Continuous
 62
     7
370
    25
100
AcDbCircle
 10
730.5694857794
 20
367.8288938271
 30
0.0
 40
3.5
  0
CIRCLE
  5
1CE
330
1F
100
AcDbEntity
  8
0
  6
Continuous
 62
     7
370
    25
100
AcDbCircle
 10
730.5694857794
 20
167.8288938271
 30
0.0
 40
2.458750000016599
  0
CIRCLE
  5
1CF
330
1F
100
AcDbEntity
  8
0
  6
Continuous
 62
     7
370
    25
100
AcDbCircle
 10
730.5694857794
 20
167.8288938271
 30
0.0
 40
2.999999999999912
  0
LINE
  5
1D0
330
1F
100
AcDbEntity
  8
0
  6
Continuous
 62
     7
370
    25
100
AcDbLine
 10
724.6694857794
 20
183.1990887548
 30
0.0
 11
736.6694857794
 21
183.1990887548
 31
0.0
  0
LINE
  5
1D1
330
1F
100
AcDbEntity
  8
0
  6
Continuous
 62
     7
370
    25
100
AcDbLine
 10
724.6694857794
 20
182.5150484681
 30
0.0
 11
736.6694857794
 21
182.5150484681
 31
0.0
  0
LINE
  5
1D2
330
1F
100
AcDbEntity
  8
0
  6
Continuous
 62
     7
370
    25
100
AcDbLine
 10
722.6694857794
 20
175.4945869897
 30
0.0
 11
722.6694857794
 21
180.6356632266
 31
0.0
  0
ARC
  5
1D3
330
1F
100
AcDbEntity
  8
0
  6
Continuous
 62
     7
370
    25
100
AcDbCircle
 10
724.6109968901
 20
180.5734206507
 30
0.0
 40
1.942508566655476
100
AcDbArc
 50
88.2745645851
 51
178.1637932023
  0
ARC
  5
1D4
330
1F
100
AcDbEntity
  8
0
  6
Continuous
 62
     7
370
    25
100
AcDbCircle
 10
736.7279746686
 20
180.5734206507
 30
0.0
 40
1.942508566655108
100
AcDbArc
 50
1.8362067977
 51
91.7254354149
  0
LINE
  5
1D5
330
1F
100
AcDbEntity
  8
0
  6
Continuous
 62
     7
370
    25
100
AcDbLine
 10
738.6694857794
 20
180.6356632266
 30
0.0
 11
738.6694857794
 21
175.4945869897
 31
0.0
  0
LINE
  5
1D6
330
1F
100
AcDbEntity
  8
0
  6
Continuous
 62
     7
370
    25
100
AcDbLine
 10
722.6694857794
 20
180.6356632266
 30
0.0
 11
722.6694857794
 21
181.3197035132
 31
0.0
  0
ARC
  5
1D7
330
1F
100
AcDbEntity
  8
0
  6
Continuous
 62
     7
370
    25
100
AcDbCircle
 10
724.6109968901
 20
181.2574609374
 30
0.0
 40
1.942508566655476
100
AcDbArc
 50
88.2745645851
 51
178.1637932023
  0
LINE
  5
1D8
330
1F
100
AcDbEntity
  8
0
  6
Continuous
 62
     7
370
    25
100
AcDbLine
 10
738.6694857794
 20
181.3197035132
 30
0.0
 11
738.6694857794
 21
180.6356632266
 31
0.0
  0
ARC
  5
1D9
330
1F
100
AcDbEntity
  8
0
  6
Continuous
 62
     7
370
    25
100
AcDbCircle
 10
736.7279746686
 20
181.2574609374
 30
0.0
 40
1.942508566655241
100
AcDbArc
 50
1.8362067977
 51
91.7254354149
  0
LINE
  5
1DA
330
1F
100
AcDbEntity
  8
0
  6
Continuous
 62
     7
370
    25
100
AcDbLine
 10
738.6694857794
 20
175.1525668464
 30
0.0
 11
738.6694857794
 21
175.4945869897
 31
0.0
  0
LINE
  5
1DB
330
1F
100
AcDbEntity
  8
0
  6
Continuous
 62
     7
370
    25
100
AcDbLine
 10
722.6694857794
 20
175.4945869897
 30
0.0
 11
722.6694857794
 21
175.1525668464
 31
0.0
  0
LINE
  5
1DC
330
1F
100
AcDbEntity
  8
0
  6
Continuous
 62
     7
370
    25
100
AcDbLine
 10
749.1694857794
 20
175.3288938271
 30
0.0
 11
738.6694857794
 21
175.3288938271
 31
0.0
  0
LINE
  5
1DD
330
1F
100
AcDbEntity
  8
0
  6
Continuous
 62
     7
370
    25
100
AcDbLine
 10
724.6694857794
 20
160.3288938271
 30
0.0
 11
749.1694857794
 21
160.3288938271
 31
0.0
  0
CIRCLE
  5
1DE
330
1F
100
AcDbEntity
  8
0
  6
Continuous
 62
     7
370
    25
100
AcDbCircle
 10
730.5694857794
 20
167.8288938271
 30
0.0
 40
3.5
  0
ARC
  5
1DF
330
1F
100
AcDbEntity
  8
0
  6
Continuous
 62
     7
370
    25
100
AcDbCircle
 10
724.6694857794
 20
162.3288938271
 30
0.0
 40
2.0
100
AcDbArc
 50
180.0
 51
270.0
  0
LINE
  5
1E0
330
1F
100
AcDbEntity
  8
0
  6
Continuous
 62
     7
370
    25
100
AcDbLine
 10
722.6694857794
 20
175.1525668464
 30
0.0
 11
722.6694857794
 21
162.3288938271
 31
0.0
  0
CIRCLE
  5
1E1
330
1F
100
AcDbEntity
  8
0
  6
Continuous
 62
     7
370
    25
100
AcDbCircle
 10
730.5694857794
 20
443.8288938271
 30
0.0
 40
2.458750000016497
  0
CIRCLE
  5
1E2
330
1F
100
AcDbEntity
  8
0
  6
Continuous
 62
     7
370
    25
100
AcDbCircle
 10
730.5694857794
 20
443.8288938271
 30
0.0
 40
3.000000000000015
  0
CIRCLE
  5
1E3
330
1F
100
AcDbEntity
  8
0
  6
Continuous
 62
     7
370
    25
100
AcDbCircle
 10
730.5694857794
 20
367.8288938271
 30
0.0
 40
2.458750000016599
  0
CIRCLE
  5
1E4
330
1F
100
AcDbEntity
  8
0
  6
Continuous
 62
     7
370
    25
100
AcDbCircle
 10
730.5694857794
 20
367.8288938271
 30
0.0
 40
2.999999999999912
  0
ARC
  5
1E5
330
1F
100
AcDbEntity
  8
0
  6
Continuous
 62
     7
370
    25
100
AcDbCircle
 10
564.2433501725
 20
542.0697198481
 30
0.0
 40
0.5000000000001137
100
AcDbArc
 50
180.0
 51
0.0
  0
ARC
  5
1E6
330
1F
100
AcDbEntity
  8
0
  6
Continuous
 62
     7
370
    25
100
AcDbCircle
 10
564.2433501725
 20
553.6697198482
 30
0.0
 40
0.5
100
AcDbArc
 50
0.0
 51
180.0
  0
LINE
  5
1E7
330
1F
100
AcDbEntity
  8
0
  6
Continuous
 62
     7
370
    25
100
AcDbLine
 10
559.9709316097
 20
553.2639024602
 30
0.0
 11
559.7433501725
 21
552.8697198481
 31
0.0
  0
LINE
  5
1E8
330
1F
100
AcDbEntity
  8
0
  6
Continuous
 62
     7
370
    25
100
AcDbLine
 10
574.2021001725
 20
544.8697198481
 30
0.0
 11
574.7433501725
 21
545.4109698481
 31
0.0
  0
LINE
  5
1E9
330
1F
100
AcDbEntity
  8
0
  6
Continuous
 62
     7
370
    25
100
AcDbLine
 10
574.7433501725
 20
550.3284698482
 30
0.0
 11
574.2021001725
 21
550.8697198482
 31
0.0
  0
LINE
  5
1EA
330
1F
100
AcDbEntity
  8
0
  6
Continuous
 62
     7
370
    25
100
AcDbLine
 10
574.2021001725
 20
550.8697198482
 30
0.0
 11
566.7433501725
 21
550.8697198482
 31
0.0
  0
LINE
  5
1EB
330
1F
100
AcDbEntity
  8
0
  6
Continuous
 62
     7
370
    25
100
AcDbLine
 10
566.7433501725
 20
544.8697198482
 30
0.0
 11
574.2021001725
 21
544.8697198482
 31
0.0
  0
LINE
  5
1EC
330
1F
100
AcDbEntity
  8
0
  6
Continuous
 62
     7
370
    25
100
AcDbLine
 10
559.7433501725
 20
542.8697198482
 30
0.0
 11
559.9709316097
 21
542.4755372361
 31
0.0
  0
LINE
  5
1ED
330
1F
100
AcDbEntity
  8
0
  6
Continuous
 62
     7
370
    25
100
AcDbLine
 10
551.3748974581
 20
561.9697198481
 30
0.0
 11
551.8748974581
 21
561.4697198482
 31
0.0
  0
LINE
  5
1EE
330
1F
100
AcDbEntity
  8
0
  6
Continuous
 62
     7
370
    25
100
AcDbLine
 10
551.3748974581
 20
565.9697198482
 30
0.0
 11
551.3748974581
 21
561.9697198481
 31
0.0
  0
LINE
  5
1EF
330
1F
100
AcDbEntity
  8
0
  6
Continuous
 62
     7
370
    25
100
AcDbLine
 10
557.1547342479
 20
561.9697198481
 30
0.0
 11
557.1547342479
 21
565.9697198481
 31
0.0
  0
LINE
  5
1F0
330
1F
100
AcDbEntity
  8
0
  6
Continuous
 62
     7
370
    25
100
AcDbLine
 10
556.6547342479
 20
561.4697198482
 30
0.0
 11
557.1547342479
 21
561.9697198481
 31
0.0
  0
LINE
  5
1F1
330
1F
100
AcDbEntity
  8
0
  6
Continuous
 62
     7
370
    25
100
AcDbLine
 10
551.4312394199
 20
561.9697198481
 30
0.0
 11
551.9312394199
 21
561.4697198482
 31
0.0
  0
LINE
  5
1F2
330
1F
100
AcDbEntity
  8
0
  6
Continuous
 62
     7
370
    25
100
AcDbLine
 10
551.4312394199
 20
565.9697198482
 30
0.0
 11
551.4312394199
 21
561.9697198481
 31
0.0
  0
LINE
  5
1F3
330
1F
100
AcDbEntity
  8
0
  6
Continuous
 62
     7
370
    25
100
AcDbLine
 10
273.5812351183
 20
561.4697198482
 30
0.0
 11
274.0812351183
 21
561.9697198481
 31
0.0
  0
LINE
  5
1F4
330
1F
100
AcDbEntity
  8
0
  6
Continuous
 62
     7
370
    25
100
AcDbLine
 10
274.0812351183
 20
561.9697198481
 30
0.0
 11
274.0812351183
 21
565.9697198482
 31
0.0
  0
LINE
  5
1F5
330
1F
100
AcDbEntity
  8
0
  6
Continuous
 62
     7
370
    25
100
AcDbLine
 10
268.351690434
 20
565.9697198482
 30
0.0
 11
268.351690434
 21
561.9697198481
 31
0.0
  0
LINE
  5
1F6
330
1F
100
AcDbEntity
  8
0
  6
Continuous
 62
     7
370
    25
100
AcDbLine
 10
268.351690434
 20
561.9697198481
 30
0.0
 11
268.851690434
 21
561.4697198482
 31
0.0
  0
LINE
  5
1F7
330
1F
100
AcDbEntity
  8
0
  6
Continuous
 62
     7
370
    25
100
AcDbLine
 10
574.4021001725
 20
550.8697198482
 30
0.0
 11
574.2021001725
 21
550.8697198482
 31
0.0
  0
LINE
  5
1F8
330
1F
100
AcDbEntity
  8
0
  6
Continuous
 62
     7
370
    25
100
AcDbLine
 10
574.2021001725
 20
544.8697198482
 30
0.0
 11
574.4021001725
 21
544.8697198482
 31
0.0
  0
LINE
  5
1F9
330
1F
100
AcDbEntity
  8
0
  6
Continuous
 62
     7
370
    25
100
AcDbLine
 10
574.4021001725
 20
544.8697198481
 30
0.0
 11
574.9433501725
 21
545.4109698481
 31
0.0
  0
LINE
  5
1FA
330
1F
100
AcDbEntity
  8
0
  6
Continuous
 62
     7
370
    25
100
AcDbLine
 10
574.9433501725
 20
550.3284698482
 30
0.0
 11
574.4021001725
 21
550.8697198482
 31
0.0
  0
LINE
  5
1FB
330
1F
100
AcDbEntity
  8
0
  6
Continuous
 62
     7
370
    25
100
AcDbLine
 10
251.0846001725
 20
550.8697198482
 30
0.0
 11
250.5433501725
 21
550.3284698482
 31
0.0
  0
LINE
  5
1FC
330
1F
100
AcDbEntity
  8
0
  6
Continuous
 62
     7
370
    25
100
AcDbLine
 10
250.5433501725
 20
545.4109698481
 30
0.0
 11
251.0846001725
 21
544.8697198481
 31
0.0
  0
LINE
  5
1FD
330
1F
100
AcDbEntity
  8
0
  6
Continuous
 62
     7
370
    25
100
AcDbLine
 10
251.0846001725
 20
544.8697198482
 30
0.0
 11
251.2846001725
 21
544.8697198482
 31
0.0
  0
LINE
  5
1FE
330
1F
100
AcDbEntity
  8
0
  6
Continuous
 62
     7
370
    25
100
AcDbLine
 10
251.2846001725
 20
550.8697198482
 30
0.0
 11
251.0846001725
 21
550.8697198482
 31
0.0
  0
ARC
  5
1FF
330
1F
100
AcDbEntity
  8
0
  6
Continuous
 62
     7
370
    25
100
AcDbCircle
 10
261.2433501725
 20
553.6697198482
 30
0.0
 40
0.5
100
AcDbArc
 50
0.0
 51
180.0
  0
ARC
  5
200
330
1F
100
AcDbEntity
  8
0
  6
Continuous
 62
     7
370
    25
100
AcDbCircle
 10
261.2433501725
 20
542.0697198481
 30
0.0
 40
0.5000000000000568
100
AcDbArc
 50
180.0
 51
0.0
  0
LINE
  5
201
330
1F
100
AcDbEntity
  8
0
  6
Continuous
 62
     7
370
    25
100
AcDbLine
 10
251.2846001725
 20
550.8697198482
 30
0.0
 11
250.7433501725
 21
550.3284698482
 31
0.0
  0
LINE
  5
202
330
1F
100
AcDbEntity
  8
0
  6
Continuous
 62
     7
370
    25
100
AcDbLine
 10
250.7433501725
 20
545.4109698481
 30
0.0
 11
251.2846001725
 21
544.8697198481
 31
0.0
  0
LINE
  5
203
330
1F
100
AcDbEntity
  8
0
  6
Continuous
 62
     7
370
    25
100
AcDbLine
 10
251.2846001725
 20
544.8697198482
 30
0.0
 11
258.7433501725
 21
544.8697198482
 31
0.0
  0
LINE
  5
204
330
1F
100
AcDbEntity
  8
0
  6
Continuous
 62
     7
370
    25
100
AcDbLine
 10
258.7433501725
 20
550.8697198482
 30
0.0
 11
251.2846001725
 21
550.8697198482
 31
0.0
  0
LINE
  5
205
330
1F
100
AcDbEntity
  8
0
  6
Continuous
 62
     7
370
    25
100
AcDbLine
 10
265.7433501725
 20
552.8697198481
 30
0.0
 11
265.4138670767
 21
553.4404013102
 31
0.0
  0
LINE
  5
206
330
1F
100
AcDbEntity
  8
0
  6
Continuous
 62
     7
370
    25
100
AcDbLine
 10
265.4138670767
 20
542.2990383861
 30
0.0
 11
265.7433501725
 21
542.8697198482
 31
0.0
  0
LINE
  5
207
330
1F
100
AcDbEntity
  8
0
  6
Continuous
 62
     7
370
    25
100
AcDbLine
 10
258.2433501725
 20
571.0697198482
 30
0.0
 11
261.1827378638
 21
571.0697198482
 31
0.0
  0
LINE
  5
208
330
1F
100
AcDbEntity
  8
0
  6
Continuous
 62
     7
370
    25
100
AcDbLine
 10
564.3039624811
 20
571.0697198482
 30
0.0
 11
567.2433501725
 21
571.0697198482
 31
0.0
  0
LINE
  5
209
330
1F
100
AcDbEntity
  8
0
  6
Continuous
 62
     7
370
    25
100
AcDbLine
 10
567.2433501725
 20
571.0697198482
 30
0.0
 11
573.2433501725
 21
571.0697198482
 31
0.0
  0
LINE
  5
20A
330
1F
100
AcDbEntity
  8
0
  6
Continuous
 62
     7
370
    25
100
AcDbLine
 10
252.2433501725
 20
571.0697198482
 30
0.0
 11
258.2433501725
 21
571.0697198482
 31
0.0
  0
SPLINE
  5
20B
330
1F
100
AcDbEntity
  8
0
  6
Continuous
 62
     7
370
    25
100
AcDbSpline
210
0.0
220
0.0
230
1.0
 70
    24
 71
     3
 72
    19
 73
    15
 74
     0
 42
0.000000001
 43
0.00000001
 40
0.0
 40
0.0
 40
0.0
 40
0.0
 40
0.1260638187928848
 40
0.1939261817305608
 40
0.263228681375984
 40
0.3325311810214076
 40
0.4003935439590841
 40
0.5264573627519686
 40
0.6525211815448537
 40
0.7203835444825296
 40
0.7896860441279531
 40
0.8589885437733764
 40
0.9268509067110525
 40
1.0
 40
1.0
 40
1.0
 40
1.0
 10
563.7433501724776
 20
553.5971082035306
 30
0.0
 10
563.7433501724776
 20
553.4055202925942
 30
0.0
 10
563.7433501724776
 20
553.110797251603
 30
0.0
 10
563.7433501724776
 20
552.1835427287624
 30
0.0
 10
563.7433501724776
 20
551.2979866882298
 30
0.0
 10
563.7433501724776
 20
550.2615854786947
 30
0.0
 10
563.7433501724776
 20
548.8176321060452
 30
0.0
 10
563.7433501724776
 20
546.9328045233366
 30
0.0
 10
563.7433501724776
 20
545.15979432151
 30
0.0
 10
563.7433501724776
 20
543.9374906997698
 30
0.0
 10
563.7433501724776
 20
543.1368039845516
 30
0.0
 10
563.7433501724777
 20
542.5513134017785
 30
0.0
 10
563.7433501724776
 20
542.1234272632257
 30
0.0
 10
563.7433501724776
 20
542.1539395151284
 30
0.0
 10
563.7433501724776
 20
542.1697676160544
 30
0.0
  0
SPLINE
  5
20C
330
1F
100
AcDbEntity
  8
0
  6
Continuous
 62
     7
370
    25
100
AcDbSpline
210
0.0
220
0.0
230
1.0
 70
     8
 71
     3
 72
     8
 73
     4
 74
     0
 42
0.000000001
 43
0.00000001
 40
0.0
 40
0.0
 40
0.0
 40
0.0
 40
1.0
 40
1.0
 40
1.0
 40
1.0
 10
559.7433501724847
 20
547.0810220560945
 30
0.0
 10
559.7433501724847
 20
546.1080777403149
 30
0.0
 10
559.9176654728642
 20
545.1617624928624
 30
0.0
 10
560.189932159876
 20
544.2304106718043
 30
0.0
  0
SPLINE
  5
20D
330
1F
100
AcDbEntity
  8
0
  6
Continuous
 62
     7
370
    25
100
AcDbSpline
210
0.0
220
0.0
230
1.0
 70
     8
 71
     3
 72
     8
 73
     4
 74
     0
 42
0.000000001
 43
0.00000001
 40
0.0
 40
0.0
 40
0.0
 40
0.0
 40
1.0
 40
1.0
 40
1.0
 40
1.0
 10
560.189932159876
 20
549.9316334403849
 30
0.0
 10
559.9176654728645
 20
549.0002816193285
 30
0.0
 10
559.7433501724847
 20
548.0539663718724
 30
0.0
 10
559.7433501724847
 20
547.0810220560945
 30
0.0
  0
LINE
  5
20E
330
1F
100
AcDbEntity
  8
0
  6
Continuous
 62
     7
370
    25
100
AcDbLine
 10
563.7433501725
 20
549.9316334404
 30
0.0
 11
560.1899321599
 21
549.9316334404
 31
0.0
  0
LINE
  5
20F
330
1F
100
AcDbEntity
  8
0
  6
Continuous
 62
     7
370
    25
100
AcDbLine
 10
563.7433501725
 20
544.2304106718
 30
0.0
 11
560.1899321599
 21
544.2304106718
 31
0.0
  0
LINE
  5
210
330
1F
100
AcDbEntity
  8
0
  6
Continuous
 62
     7
370
    25
100
AcDbLine
 10
559.7433501725
 20
551.7512880286
 30
0.0
 11
559.7433501725
 21
547.0810220561
 31
0.0
  0
SPLINE
  5
211
330
1F
100
AcDbEntity
  8
0
  6
Continuous
 62
     7
370
    25
100
AcDbSpline
210
0.0
220
0.0
230
1.0
 70
     8
 71
     3
 72
     8
 73
     4
 74
     0
 42
0.000000001
 43
0.00000001
 40
0.0
 40
0.0
 40
0.0
 40
0.0
 40
1.0
 40
1.0
 40
1.0
 40
1.0
 10
559.7433501724846
 20
551.7512880285642
 30
0.0
 10
559.7433501724846
 20
551.130220352345
 30
0.0
 10
559.9176654728642
 20
550.5261510318564
 30
0.0
 10
560.189932159876
 20
549.9316334403912
 30
0.0
  0
SPLINE
  5
212
330
1F
100
AcDbEntity
  8
0
  6
Continuous
 62
     7
370
    25
100
AcDbSpline
210
0.0
220
0.0
230
1.0
 70
     8
 71
     3
 72
     8
 73
     4
 74
     0
 42
0.000000001
 43
0.00000001
 40
0.0
 40
0.0
 40
0.0
 40
0.0
 40
1.0
 40
1.0
 40
1.0
 40
1.0
 10
560.189932159876
 20
553.5709426167373
 30
0.0
 10
559.9176654728645
 20
552.9764250252731
 30
0.0
 10
559.7433501724846
 20
552.3723557047824
 30
0.0
 10
559.7433501724846
 20
551.7512880285642
 30
0.0
  0
LINE
  5
213
330
1F
100
AcDbEntity
  8
0
  6
Continuous
 62
     7
370
    25
100
AcDbLine
 10
563.7433501725
 20
553.5709426167
 30
0.0
 11
560.1899321599
 21
553.5709426167
 31
0.0
  0
LINE
  5
214
330
1F
100
AcDbEntity
  8
0
  6
Continuous
 62
     7
370
    25
100
AcDbLine
 10
559.7433501725
 20
547.0810220561
 30
0.0
 11
559.7433501725
 21
543.1994538757
 31
0.0
  0
SPLINE
  5
215
330
1F
100
AcDbEntity
  8
0
  6
Continuous
 62
     7
370
    25
100
AcDbSpline
210
0.0
220
0.0
230
1.0
 70
     8
 71
     3
 72
     8
 73
     4
 74
     0
 42
0.000000001
 43
0.00000001
 40
0.0
 40
0.0
 40
0.0
 40
0.0
 40
1.0
 40
1.0
 40
1.0
 40
1.0
 10
560.189932159876
 20
544.2304106717992
 30
0.0
 10
559.9176654728644
 20
543.893576442207
 30
0.0
 10
559.7433501724846
 20
543.5513305152415
 30
0.0
 10
559.7433501724846
 20
543.1994538756817
 30
0.0
  0
SPLINE
  5
216
330
1F
100
AcDbEntity
  8
0
  6
Continuous
 62
     7
370
    25
100
AcDbSpline
210
0.0
220
0.0
230
1.0
 70
     8
 71
     3
 72
     8
 73
     4
 74
     0
 42
0.000000001
 43
0.00000001
 40
0.0
 40
0.0
 40
0.0
 40
0.0
 40
1.0
 40
1.0
 40
1.0
 40
1.0
 10
559.7433501724846
 20
543.1994538756817
 30
0.0
 10
559.7433501724846
 20
542.8475772361212
 30
0.0
 10
559.9176654728641
 20
542.5053313091571
 30
0.0
 10
560.189932159876
 20
542.1684970795642
 30
0.0
  0
LINE
  5
217
330
1F
100
AcDbEntity
  8
0
  6
Continuous
 62
     7
370
    25
100
AcDbLine
 10
563.7433501725
 20
542.1684970796
 30
0.0
 11
560.1899321599
 21
542.1684970796
 31
0.0
  0
LINE
  5
218
330
1F
100
AcDbEntity
  8
0
  6
Continuous
 62
     7
370
    25
100
AcDbLine
 10
560.0397259296
 20
553.2241840411
 30
0.0
 11
560.1899321599
 21
553.5709426167
 31
0.0
  0
LINE
  5
219
330
1F
100
AcDbEntity
  8
0
  6
Continuous
 62
     7
370
    25
100
AcDbLine
 10
559.7433501725
 20
552.8697198481
 30
0.0
 11
559.7433501725
 21
551.7512880286
 31
0.0
  0
LINE
  5
21A
330
1F
100
AcDbEntity
  8
0
  6
Continuous
 62
     7
370
    25
100
AcDbLine
 10
574.7433501725
 20
547.4818777089
 30
0.0
 11
574.7433501725
 21
550.3284698482
 31
0.0
  0
LINE
  5
21B
330
1F
100
AcDbEntity
  8
0
  6
Continuous
 62
     7
370
    25
100
AcDbLine
 10
574.7433501725
 20
545.4109698481
 30
0.0
 11
574.7433501725
 21
547.4818777089
 31
0.0
  0
LINE
  5
21C
330
1F
100
AcDbEntity
  8
0
  6
Continuous
 62
     7
370
    25
100
AcDbLine
 10
574.2021001725
 20
544.8697198481
 30
0.0
 11
574.2021001725
 21
550.8697198482
 31
0.0
  0
LINE
  5
21D
330
1F
100
AcDbEntity
  8
0
  6
Continuous
 62
     7
370
    25
100
AcDbLine
 10
559.7433501725
 20
543.1994538757
 30
0.0
 11
559.7433501725
 21
542.8697198482
 31
0.0
  0
LINE
  5
21E
330
1F
100
AcDbEntity
  8
0
  6
Continuous
 62
     7
370
    25
100
AcDbLine
 10
266.4933501725
 20
565.9697198482
 30
0.0
 11
266.4933501725
 21
566.4697198482
 31
0.0
  0
LINE
  5
21F
330
1F
100
AcDbEntity
  8
0
  6
Continuous
 62
     7
370
    25
100
AcDbLine
 10
275.9933501725
 20
566.4697198482
 30
0.0
 11
275.9933501725
 21
565.9697198482
 31
0.0
  0
LINE
  5
220
330
1F
100
AcDbEntity
  8
0
  6
Continuous
 62
     7
370
    25
100
AcDbLine
 10
275.9933501725
 20
565.9697198482
 30
0.0
 11
266.4933501725
 21
565.9697198482
 31
0.0
  0
LINE
  5
221
330
1F
100
AcDbEntity
  8
0
  6
Continuous
 62
     7
370
    25
100
AcDbLine
 10
266.4933501725
 20
565.9697198482
 30
0.0
 11
265.7299501725
 21
565.9697198482
 31
0.0
  0
ARC
  5
222
330
1F
100
AcDbEntity
  8
0
  6
Continuous
 62
     7
370
    25
100
AcDbCircle
 10
265.7299501725
 20
567.2063198482
 30
0.0
 40
1.236600000000111
100
AcDbArc
 50
216.5600911006
 51
270.0
  0
ARC
  5
223
330
1F
100
AcDbEntity
  8
0
  6
Continuous
 62
     7
370
    25
100
AcDbCircle
 10
276.7567501725
 20
567.2063198482
 30
0.0
 40
1.23660000000002
100
AcDbArc
 50
270.0
 51
323.4399088994
  0
LINE
  5
224
330
1F
100
AcDbEntity
  8
0
  6
Continuous
 62
     7
370
    25
100
AcDbLine
 10
276.7567501725
 20
565.9697198482
 30
0.0
 11
275.9933501725
 21
565.9697198482
 31
0.0
  0
ARC
  5
225
330
1F
100
AcDbEntity
  8
0
  6
Continuous
 62
     7
370
    25
100
AcDbCircle
 10
258.2433501725
 20
570.4697198482
 30
0.0
 40
3.0
100
AcDbArc
 50
0.0
 51
90.0
  0
LINE
  5
226
330
1F
100
AcDbEntity
  8
0
  6
Continuous
 62
     7
370
    25
100
AcDbLine
 10
246.2433501725
 20
573.4697198482
 30
0.0
 11
258.2433501725
 21
573.4697198482
 31
0.0
  0
ARC
  5
227
330
1F
100
AcDbEntity
  8
0
  6
Continuous
 62
     7
370
    25
100
AcDbCircle
 10
246.2433501725
 20
570.4697198482
 30
0.0
 40
3.0
100
AcDbArc
 50
90.0
 51
180.0
  0
LINE
  5
228
330
1F
100
AcDbEntity
  8
0
  6
Continuous
 62
     7
370
    25
100
AcDbLine
 10
243.2433501725
 20
569.4697198482
 30
0.0
 11
243.2433501725
 21
570.4697198482
 31
0.0
  0
ARC
  5
229
330
1F
100
AcDbEntity
  8
0
  6
Continuous
 62
     7
370
    25
100
AcDbCircle
 10
240.2433501725
 20
569.4697198482
 30
0.0
 40
3.0
100
AcDbArc
 50
270.0
 51
0.0
  0
LINE
  5
22A
330
1F
100
AcDbEntity
  8
0
  6
Continuous
 62
     7
370
    25
100
AcDbLine
 10
216.7140608506
 20
566.4697198482
 30
0.0
 11
240.2433501725
 21
566.4697198482
 31
0.0
  0
LINE
  5
22B
330
1F
100
AcDbEntity
  8
0
  6
Continuous
 62
     7
370
    25
100
AcDbLine
 10
216.7140608506
 20
576.0697198482
 30
0.0
 11
216.7140608506
 21
566.4697198482
 31
0.0
  0
LINE
  5
22C
330
1F
100
AcDbEntity
  8
0
  6
Continuous
 62
     7
370
    25
100
AcDbLine
 10
585.2433501725
 20
566.4697198482
 30
0.0
 11
608.7726394944
 21
566.4697198482
 31
0.0
  0
ARC
  5
22D
330
1F
100
AcDbEntity
  8
0
  6
Continuous
 62
     7
370
    25
100
AcDbCircle
 10
585.2433501725
 20
569.4697198482
 30
0.0
 40
3.0
100
AcDbArc
 50
180.0
 51
270.0
  0
LINE
  5
22E
330
1F
100
AcDbEntity
  8
0
  6
Continuous
 62
     7
370
    25
100
AcDbLine
 10
582.2433501725
 20
569.4697198482
 30
0.0
 11
582.2433501725
 21
570.4697198482
 31
0.0
  0
ARC
  5
22F
330
1F
100
AcDbEntity
  8
0
  6
Continuous
 62
     7
370
    25
100
AcDbCircle
 10
579.2433501725
 20
570.4697198482
 30
0.0
 40
3.0
100
AcDbArc
 50
0.0
 51
90.0
  0
LINE
  5
230
330
1F
100
AcDbEntity
  8
0
  6
Continuous
 62
     7
370
    25
100
AcDbLine
 10
579.2433501725
 20
573.4697198482
 30
0.0
 11
567.2433501725
 21
573.4697198482
 31
0.0
  0
ARC
  5
231
330
1F
100
AcDbEntity
  8
0
  6
Continuous
 62
     7
370
    25
100
AcDbCircle
 10
567.2433501725
 20
570.4697198482
 30
0.0
 40
3.0
100
AcDbArc
 50
90.0
 51
180.0
  0
LINE
  5
232
330
1F
100
AcDbEntity
  8
0
  6
Continuous
 62
     7
370
    25
100
AcDbLine
 10
564.2433501725
 20
569.4697198482
 30
0.0
 11
564.2433501725
 21
570.4697198482
 31
0.0
  0
ARC
  5
233
330
1F
100
AcDbEntity
  8
0
  6
Continuous
 62
     7
370
    25
100
AcDbCircle
 10
561.2433501725
 20
569.4697198482
 30
0.0
 40
3.0
100
AcDbArc
 50
270.0
 51
0.0
  0
LINE
  5
234
330
1F
100
AcDbEntity
  8
0
  6
Continuous
 62
     7
370
    25
100
AcDbLine
 10
264.2433501725
 20
566.4697198482
 30
0.0
 11
561.2433501725
 21
566.4697198482
 31
0.0
  0
ARC
  5
235
330
1F
100
AcDbEntity
  8
0
  6
Continuous
 62
     7
370
    25
100
AcDbCircle
 10
264.2433501725
 20
569.4697198482
 30
0.0
 40
3.0
100
AcDbArc
 50
180.0
 51
270.0
  0
LINE
  5
236
330
1F
100
AcDbEntity
  8
0
  6
Continuous
 62
     7
370
    25
100
AcDbLine
 10
261.2433501725
 20
569.4697198482
 30
0.0
 11
261.2433501725
 21
570.4697198482
 31
0.0
  0
LINE
  5
237
330
1F
100
AcDbEntity
  8
0
  6
Continuous
 62
     7
370
    25
100
AcDbLine
 10
608.7726394944
 20
576.0697198482
 30
0.0
 11
608.7726394944
 21
566.4697198482
 31
0.0
  0
LINE
  5
238
330
1F
100
AcDbEntity
  8
0
  6
Continuous
 62
     7
370
    25
100
AcDbLine
 10
217.6433501725
 20
578.4697198482
 30
0.0
 11
607.8433501725
 21
578.4697198482
 31
0.0
  0
SPLINE
  5
239
330
1F
100
AcDbEntity
  8
0
  6
Continuous
 62
     7
370
    25
100
AcDbSpline
210
0.0
220
0.0
230
1.0
 70
     8
 71
     3
 72
    20
 73
    16
 74
     0
 42
0.000000001
 43
0.00000001
 40
0.0
 40
0.0
 40
0.0
 40
0.0
 40
0.1250000000000007
 40
0.1250000000000007
 40
0.2500000000000013
 40
0.2500000000000013
 40
0.375000000000002
 40
0.375000000000002
 40
0.5000000000000027
 40
0.5000000000000027
 40
0.750000000000004
 40
0.750000000000004
 40
0.8750000000000021
 40
0.8750000000000021
 40
1.0
 40
1.0
 40
1.0
 40
1.0
 10
607.8433501724775
 20
578.4697198481512
 30
0.0
 10
607.882390903332
 20
578.4697198481512
 30
0.0
 10
607.9209096075318
 20
578.4541832876763
 30
0.0
 10
607.9983163588396
 20
578.3928649357157
 30
0.0
 10
608.0374607768265
 20
578.3464411901289
 30
0.0
 10
608.1146115307416
 20
578.2264903199748
 30
0.0
 10
608.1529391124827
 20
578.1528856756913
 30
0.0
 10
608.2304854329592
 20
577.9781553095958
 30
0.0
 10
608.2694616406279
 20
577.8773046806942
 30
0.0
 10
608.3849564970731
 20
577.5460194007103
 30
0.0
 10
608.462868940743
 20
577.2783392393263
 30
0.0
 10
608.5783488661439
 20
576.845665213271
 30
0.0
 10
608.617214662009
 20
576.6941471264199
 30
0.0
 10
608.6949889956775
 20
576.3847213690337
 30
0.0
 10
608.7335987626323
 20
576.2280990393399
 30
0.0
 10
608.7726394943589
 20
576.0697198481513
 30
0.0
  0
SPLINE
  5
23A
330
1F
100
AcDbEntity
  8
0
  6
Continuous
 62
     7
370
    25
100
AcDbSpline
210
0.0
220
0.0
230
1.0
 70
     8
 71
     3
 72
    20
 73
    16
 74
     0
 42
0.000000001
 43
0.00000001
 40
0.0
 40
0.0
 40
0.0
 40
0.0
 40
0.1250000000000044
 40
0.1250000000000044
 40
0.2500000000000087
 40
0.2500000000000087
 40
0.3750000000000131
 40
0.3750000000000131
 40
0.5000000000000174
 40
0.5000000000000174
 40
0.7500000000000112
 40
0.7500000000000112
 40
0.8750000000000057
 40
0.8750000000000057
 40
1.0
 40
1.0
 40
1.0
 40
1.0
 10
216.7140608505961
 20
576.0697198481512
 30
0.0
 10
216.7531015814506
 20
576.2280990358018
 30
0.0
 10
216.7916202856504
 20
576.3843447604935
 30
0.0
 10
216.8690270369583
 20
576.6923366099102
 30
0.0
 10
216.9081714549451
 20
576.8449807173813
 30
0.0
 10
216.9853222088602
 20
577.1340650065683
 30
0.0
 10
217.0236497906012
 20
577.2718695447523
 30
0.0
 10
217.1011961110777
 20
577.5334882203913
 30
0.0
 10
217.1401723187465
 20
577.6562345270739
 30
0.0
 10
217.2556671751914
 20
577.9875589040216
 30
0.0
 10
217.3335796188615
 20
578.1665700280499
 30
0.0
 10
217.4490595442625
 20
578.3461851274308
 30
0.0
 10
217.4879253401275
 20
578.3924294762985
 30
0.0
 10
217.565699673796
 20
578.4541827823098
 30
0.0
 10
217.6043094407508
 20
578.4697198481512
 30
0.0
 10
217.6433501724775
 20
578.4697198481512
 30
0.0
  0
SPLINE
  5
23B
330
1F
100
AcDbEntity
  8
0
  6
Continuous
 62
     7
370
    25
100
AcDbSpline
210
0.0
220
0.0
230
1.0
 70
     8
 71
     3
 72
    20
 73
    16
 74
     0
 42
0.000000001
 43
0.00000001
 40
0.0
 40
0.0
 40
0.0
 40
0.0
 40
0.1250000000000006
 40
0.1250000000000006
 40
0.2500000000000013
 40
0.2500000000000013
 40
0.3750000000000019
 40
0.3750000000000019
 40
0.5000000000000026
 40
0.5000000000000026
 40
0.7500000000000038
 40
0.7500000000000038
 40
0.8750000000000019
 40
0.8750000000000019
 40
1.0
 40
1.0
 40
1.0
 40
1.0
 10
217.6433501724775
 20
578.4697198481512
 30
0.0
 10
217.4849709848267
 20
578.4697198481512
 30
0.0
 10
217.3287252601352
 20
578.4541832876763
 30
0.0
 10
217.0207334107186
 20
578.3928649357157
 30
0.0
 10
216.8680893032473
 20
578.3464411901289
 30
0.0
 10
216.5790050140603
 20
578.2264903199748
 30
0.0
 10
216.4412004758762
 20
578.1528856756913
 30
0.0
 10
216.1795818002373
 20
577.9781553095958
 30
0.0
 10
216.0568354935547
 20
577.8773046806942
 30
0.0
 10
215.725511116607
 20
577.5460194007103
 30
0.0
 10
215.5464999925787
 20
577.2783392393263
 30
0.0
 10
215.3668848931979
 20
576.845665213271
 30
0.0
 10
215.3206405443302
 20
576.6941471264198
 30
0.0
 10
215.258887238319
 20
576.3847213690337
 30
0.0
 10
215.2433501724775
 20
576.2280990393399
 30
0.0
 10
215.2433501724775
 20
576.0697198481512
 30
0.0
  0
SPLINE
  5
23C
330
1F
100
AcDbEntity
  8
0
  6
Continuous
 62
     7
370
    25
100
AcDbSpline
210
0.0
220
0.0
230
1.0
 70
     8
 71
     3
 72
     9
 73
     5
 74
     0
 42
0.000000001
 43
0.00000001
 40
0.0
 40
0.0
 40
0.0
 40
0.0
 40
0.4825784287291313
 40
1.0
 40
1.0
 40
1.0
 40
1.0
 10
216.867179940531
 20
576.6822595873291
 30
0.0
 10
216.8033717474696
 20
576.5941252460127
 30
0.0
 10
216.6711482802305
 20
576.4114930849597
 30
0.0
 10
216.652828975774
 20
576.1862602009154
 30
0.0
 10
216.6433501724775
 20
576.0697198481512
 30
0.0
  0
LINE
  5
23D
330
1F
100
AcDbEntity
  8
0
  6
Continuous
 62
     7
370
    25
100
AcDbLine
 10
215.2433501725
 20
576.0697198482
 30
0.0
 11
216.6433501725
 21
576.0697198482
 31
0.0
  0
SPLINE
  5
23E
330
1F
100
AcDbEntity
  8
0
  6
Continuous
 62
     7
370
    25
100
AcDbSpline
210
0.0
220
0.0
230
1.0
 70
     8
 71
     3
 72
    20
 73
    16
 74
     0
 42
0.000000001
 43
0.00000001
 40
0.0
 40
0.0
 40
0.0
 40
0.0
 40
0.125
 40
0.125
 40
0.25
 40
0.25
 40
0.375
 40
0.375
 40
0.5
 40
0.5
 40
0.75
 40
0.75
 40
0.875
 40
0.875
 40
1.0
 40
1.0
 40
1.0
 40
1.0
 10
610.2433501724776
 20
576.0697198481512
 30
0.0
 10
610.2433501724776
 20
576.2280990358018
 30
0.0
 10
610.2278136120026
 20
576.3843447604936
 30
0.0
 10
610.166495260042
 20
576.6923366099102
 30
0.0
 10
610.1200715144553
 20
576.8449807173813
 30
0.0
 10
610.0001206443011
 20
577.1340650065683
 30
0.0
 10
609.9265160000177
 20
577.2718695447523
 30
0.0
 10
609.751785633922
 20
577.5334882203913
 30
0.0
 10
609.6509350050204
 20
577.656234527074
 30
0.0
 10
609.3196497250366
 20
577.9875589040216
 30
0.0
 10
609.0519695636527
 20
578.1665700280499
 30
0.0
 10
608.6192955375973
 20
578.3461851274309
 30
0.0
 10
608.4677774507461
 20
578.3924294762985
 30
0.0
 10
608.15835169336
 20
578.4541827823098
 30
0.0
 10
608.0017293636663
 20
578.4697198481512
 30
0.0
 10
607.8433501724775
 20
578.4697198481512
 30
0.0
  0
LINE
  5
23F
330
1F
100
AcDbEntity
  8
0
  6
Continuous
 62
     7
370
    25
100
AcDbLine
 10
610.2433501725
 20
576.0697198482
 30
0.0
 11
608.8433501725
 21
576.0697198482
 31
0.0
  0
SPLINE
  5
240
330
1F
100
AcDbEntity
  8
0
  6
Continuous
 62
     7
370
    25
100
AcDbSpline
210
0.0
220
0.0
230
1.0
 70
     8
 71
     3
 72
     9
 73
     5
 74
     0
 42
0.000000001
 43
0.00000001
 40
0.0
 40
0.0
 40
0.0
 40
0.0
 40
0.6784508005730043
 40
1.0
 40
1.0
 40
1.0
 40
1.0
 10
608.8433501724775
 20
576.0697198481512
 30
0.0
 10
608.8301006020131
 20
576.2204270526045
 30
0.0
 10
608.8105714475729
 20
576.4425613684989
 30
0.0
 10
608.6697237939339
 20
576.609394473388
 30
0.0
 10
608.6244343436651
 20
576.6630395247031
 30
0.0
  0
LINE
  5
241
330
1F
100
AcDbEntity
  8
0
  6
Continuous
 62
     7
370
    25
100
AcDbLine
 10
608.8433501725
 20
576.0697198482
 30
0.0
 11
608.8433501725
 21
566.4697198482
 31
0.0
  0
LINE
  5
242
330
1F
100
AcDbEntity
  8
0
  6
Continuous
 62
     7
370
    25
100
AcDbLine
 10
610.2433501725
 20
576.0697198482
 30
0.0
 11
610.2433501725
 21
566.4697198482
 31
0.0
  0
LINE
  5
243
330
1F
100
AcDbEntity
  8
0
  6
Continuous
 62
     7
370
    25
100
AcDbLine
 10
610.2433501725
 20
566.4697198482
 30
0.0
 11
608.8433501725
 21
566.4697198482
 31
0.0
  0
LINE
  5
244
330
1F
100
AcDbEntity
  8
0
  6
Continuous
 62
     7
370
    25
100
AcDbLine
 10
215.2433501725
 20
566.4697198482
 30
0.0
 11
216.6433501725
 21
566.4697198482
 31
0.0
  0
LINE
  5
245
330
1F
100
AcDbEntity
  8
0
  6
Continuous
 62
     7
370
    25
100
AcDbLine
 10
215.2433501725
 20
576.0697198482
 30
0.0
 11
215.2433501725
 21
566.4697198482
 31
0.0
  0
LINE
  5
246
330
1F
100
AcDbEntity
  8
0
  6
Continuous
 62
     7
370
    25
100
AcDbLine
 10
216.6433501725
 20
576.0697198482
 30
0.0
 11
216.6433501725
 21
566.4697198482
 31
0.0
  0
LINE
  5
247
330
1F
100
AcDbEntity
  8
0
  6
Continuous
 62
     7
370
    25
100
AcDbLine
 10
551.3748974581
 20
561.9697198481
 30
0.0
 11
551.4312394199
 21
561.9697198481
 31
0.0
  0
LINE
  5
248
330
1F
100
AcDbEntity
  8
0
  6
Continuous
 62
     7
370
    25
100
AcDbLine
 10
551.9312394199
 20
561.4697198482
 30
0.0
 11
551.8748974581
 21
561.4697198482
 31
0.0
  0
LINE
  5
249
330
1F
100
AcDbEntity
  8
0
  6
Continuous
 62
     7
370
    25
100
AcDbLine
 10
552.3213086987
 20
561.9697198481
 30
0.0
 11
555.7682983547
 21
561.9697198481
 31
0.0
  0
LINE
  5
24A
330
1F
100
AcDbEntity
  8
0
  6
Continuous
 62
     7
370
    25
100
AcDbLine
 10
555.3622429784
 20
561.4697198482
 30
0.0
 11
552.7770007364
 21
561.4697198482
 31
0.0
  0
LINE
  5
24B
330
1F
100
AcDbEntity
  8
0
  6
Continuous
 62
     7
370
    25
100
AcDbLine
 10
555.7682983547
 20
561.9697198481
 30
0.0
 11
556.778955753
 21
561.9697198481
 31
0.0
  0
LINE
  5
24C
330
1F
100
AcDbEntity
  8
0
  6
Continuous
 62
     7
370
    25
100
AcDbLine
 10
556.3729003767
 20
561.4697198482
 30
0.0
 11
555.3622429784
 21
561.4697198482
 31
0.0
  0
LINE
  5
24D
330
1F
100
AcDbEntity
  8
0
  6
Continuous
 62
     7
370
    25
100
AcDbLine
 10
551.6084712691
 20
561.9697198481
 30
0.0
 11
552.3213086987
 21
561.9697198481
 31
0.0
  0
LINE
  5
24E
330
1F
100
AcDbEntity
  8
0
  6
Continuous
 62
     7
370
    25
100
AcDbLine
 10
552.7770007364
 20
561.4697198482
 30
0.0
 11
552.0641633068
 21
561.4697198482
 31
0.0
  0
LINE
  5
24F
330
1F
100
AcDbEntity
  8
0
  6
Continuous
 62
     7
370
    25
100
AcDbLine
 10
556.778955753
 20
561.9697198481
 30
0.0
 11
557.1547342479
 21
561.9697198481
 31
0.0
  0
LINE
  5
250
330
1F
100
AcDbEntity
  8
0
  6
Continuous
 62
     7
370
    25
100
AcDbLine
 10
556.6547342479
 20
561.4697198482
 30
0.0
 11
556.3729003767
 21
561.4697198482
 31
0.0
  0
LINE
  5
251
330
1F
100
AcDbEntity
  8
0
  6
Continuous
 62
     7
370
    25
100
AcDbLine
 10
551.4312394199
 20
561.9697198481
 30
0.0
 11
551.6084712691
 21
561.9697198481
 31
0.0
  0
LINE
  5
252
330
1F
100
AcDbEntity
  8
0
  6
Continuous
 62
     7
370
    25
100
AcDbLine
 10
552.0641633068
 20
561.4697198482
 30
0.0
 11
551.9312394199
 21
561.4697198482
 31
0.0
  0
LINE
  5
253
330
1F
100
AcDbEntity
  8
0
  6
Continuous
 62
     7
370
    25
100
AcDbLine
 10
273.5812351183
 20
561.4697198482
 30
0.0
 11
272.0005729294
 21
561.4697198482
 31
0.0
  0
LINE
  5
254
330
1F
100
AcDbEntity
  8
0
  6
Continuous
 62
     7
370
    25
100
AcDbLine
 10
271.9736855331
 20
561.9697198481
 30
0.0
 11
274.0812351183
 21
561.9697198481
 31
0.0
  0
LINE
  5
255
330
1F
100
AcDbEntity
  8
0
  6
Continuous
 62
     7
370
    25
100
AcDbLine
 10
272.0005729294
 20
561.4697198482
 30
0.0
 11
270.2710282451
 21
561.4697198482
 31
0.0
  0
LINE
  5
256
330
1F
100
AcDbEntity
  8
0
  6
Continuous
 62
     7
370
    25
100
AcDbLine
 10
270.2441408488
 20
561.9697198481
 30
0.0
 11
271.9736855331
 21
561.9697198481
 31
0.0
  0
LINE
  5
257
330
1F
100
AcDbEntity
  8
0
  6
Continuous
 62
     7
370
    25
100
AcDbLine
 10
268.351690434
 20
561.9697198481
 30
0.0
 11
270.2441408488
 21
561.9697198481
 31
0.0
  0
LINE
  5
258
330
1F
100
AcDbEntity
  8
0
  6
Continuous
 62
     7
370
    25
100
AcDbLine
 10
270.2710282451
 20
561.4697198482
 30
0.0
 11
268.851690434
 21
561.4697198482
 31
0.0
  0
LINE
  5
259
330
1F
100
AcDbEntity
  8
0
  6
Continuous
 62
     7
370
    25
100
AcDbLine
 10
490.7433501725
 20
534.4997198482
 30
0.0
 11
488.2433501725
 21
534.4997198482
 31
0.0
  0
LINE
  5
25A
330
1F
100
AcDbEntity
  8
0
  6
Continuous
 62
     7
370
    25
100
AcDbLine
 10
488.2433501725
 20
534.0076690406
 30
0.0
 11
488.2433501725
 21
534.4997198482
 31
0.0
  0
LINE
  5
25B
330
1F
100
AcDbEntity
  8
0
  6
Continuous
 62
     7
370
    25
100
AcDbLine
 10
338.2433501725
 20
534.0076690406
 30
0.0
 11
338.2433501725
 21
534.4997198482
 31
0.0
  0
LINE
  5
25C
330
1F
100
AcDbEntity
  8
0
  6
Continuous
 62
     7
370
    25
100
AcDbLine
 10
338.2433501725
 20
534.4997198482
 30
0.0
 11
335.7433501725
 21
534.4997198482
 31
0.0
  0
LINE
  5
25D
330
1F
100
AcDbEntity
  8
0
  6
Continuous
 62
     7
370
    25
100
AcDbLine
 10
264.7433501725
 20
539.3697198482
 30
0.0
 11
261.5433501725
 21
539.3697198482
 31
0.0
  0
LINE
  5
25E
330
1F
100
AcDbEntity
  8
0
  6
Continuous
 62
     7
370
    25
100
AcDbLine
 10
261.5433501725
 20
558.3697198482
 30
0.0
 11
262.7433501725
 21
558.3697198482
 31
0.0
  0
LINE
  5
25F
330
1F
100
AcDbEntity
  8
0
  6
Continuous
 62
     7
370
    25
100
AcDbLine
 10
262.7433501725
 20
558.3697198482
 30
0.0
 11
262.7433501725
 21
558.5697198482
 31
0.0
  0
LINE
  5
260
330
1F
100
AcDbEntity
  8
0
  6
Continuous
 62
     7
370
    25
100
AcDbLine
 10
562.7433501725
 20
558.5697198482
 30
0.0
 11
562.7433501725
 21
558.3697198482
 31
0.0
  0
LINE
  5
261
330
1F
100
AcDbEntity
  8
0
  6
Continuous
 62
     7
370
    25
100
AcDbLine
 10
562.7433501725
 20
558.3697198482
 30
0.0
 11
563.9433501725
 21
558.3697198482
 31
0.0
  0
LINE
  5
262
330
1F
100
AcDbEntity
  8
0
  6
Continuous
 62
     7
370
    25
100
AcDbLine
 10
563.9433501725
 20
539.3697198482
 30
0.0
 11
560.7433501725
 21
539.3697198482
 31
0.0
  0
ARC
  5
263
330
1F
100
AcDbEntity
  8
0
  6
Continuous
 62
     7
370
    25
100
AcDbCircle
 10
267.7433501725
 20
518.3697198482
 30
0.0
 40
3.0
100
AcDbArc
 50
180.0
 51
270.0
  0
LINE
  5
264
330
1F
100
AcDbEntity
  8
0
  6
Continuous
 62
     7
370
    25
100
AcDbLine
 10
264.7433501725
 20
518.3697198482
 30
0.0
 11
264.7433501725
 21
539.3697198482
 31
0.0
  0
LINE
  5
265
330
1F
100
AcDbEntity
  8
0
  6
Continuous
 62
     7
370
    25
100
AcDbLine
 10
332.7433501725
 20
515.3697198482
 30
0.0
 11
267.7433501725
 21
515.3697198482
 31
0.0
  0
LINE
  5
266
330
1F
100
AcDbEntity
  8
0
  6
Continuous
 62
     7
370
    25
100
AcDbLine
 10
560.7433501725
 20
539.3697198482
 30
0.0
 11
560.7433501725
 21
518.3697198482
 31
0.0
  0
ARC
  5
267
330
1F
100
AcDbEntity
  8
0
  6
Continuous
 62
     7
370
    25
100
AcDbCircle
 10
557.7433501725
 20
518.3697198482
 30
0.0
 40
3.0
100
AcDbArc
 50
270.0
 51
0.0
  0
ARC
  5
268
330
1F
100
AcDbEntity
  8
0
  6
Continuous
 62
     7
370
    25
100
AcDbCircle
 10
332.7433501725
 20
518.3697198482
 30
0.0
 40
3.0
100
AcDbArc
 50
270.0
 51
0.0
  0
LINE
  5
269
330
1F
100
AcDbEntity
  8
0
  6
Continuous
 62
     7
370
    25
100
AcDbLine
 10
490.7433501725
 20
518.3697198482
 30
0.0
 11
490.7433501725
 21
534.4997198482
 31
0.0
  0
ARC
  5
26A
330
1F
100
AcDbEntity
  8
0
  6
Continuous
 62
     7
370
    25
100
AcDbCircle
 10
493.7433501725
 20
518.3697198482
 30
0.0
 40
3.0
100
AcDbArc
 50
180.0
 51
270.0
  0
LINE
  5
26B
330
1F
100
AcDbEntity
  8
0
  6
Continuous
 62
     7
370
    25
100
AcDbLine
 10
335.7433501725
 20
534.4997198482
 30
0.0
 11
335.7433501725
 21
518.3697198482
 31
0.0
  0
LINE
  5
26C
330
1F
100
AcDbEntity
  8
0
  6
Continuous
 62
     7
370
    25
100
AcDbLine
 10
557.7433501725
 20
515.3697198482
 30
0.0
 11
493.7433501725
 21
515.3697198482
 31
0.0
  0
LINE
  5
26D
330
1F
100
AcDbEntity
  8
0
  6
Continuous
 62
     7
370
    25
100
AcDbLine
 10
338.2433501725
 20
533.1076690406
 30
0.0
 11
338.2433501725
 21
534.0076690406
 31
0.0
  0
LINE
  5
26E
330
1F
100
AcDbEntity
  8
0
  6
Continuous
 62
     7
370
    25
100
AcDbLine
 10
488.2433501725
 20
534.0076690406
 30
0.0
 11
488.2433501725
 21
533.1076690406
 31
0.0
  0
LINE
  5
26F
330
1F
100
AcDbEntity
  8
0
  6
Continuous
 62
     7
370
    25
100
AcDbLine
 10
563.9433501725
 20
558.3697198482
 30
0.0
 11
564.7433501725
 21
558.3697198482
 31
0.0
  0
LINE
  5
270
330
1F
100
AcDbEntity
  8
0
  6
Continuous
 62
     7
370
    25
100
AcDbLine
 10
565.7433501725
 20
539.3697198482
 30
0.0
 11
565.7433501725
 21
539.9697198482
 31
0.0
  0
LINE
  5
271
330
1F
100
AcDbEntity
  8
0
  6
Continuous
 62
     7
370
    25
100
AcDbLine
 10
565.7433501725
 20
539.3697198482
 30
0.0
 11
563.9433501725
 21
539.3697198482
 31
0.0
  0
LINE
  5
272
330
1F
100
AcDbEntity
  8
0
  6
Continuous
 62
     7
370
    25
100
AcDbLine
 10
259.7433501725
 20
539.3697198482
 30
0.0
 11
259.7433501725
 21
539.9697198482
 31
0.0
  0
LINE
  5
273
330
1F
100
AcDbEntity
  8
0
  6
Continuous
 62
     7
370
    25
100
AcDbLine
 10
260.7433501725
 20
558.3697198482
 30
0.0
 11
261.5433501725
 21
558.3697198482
 31
0.0
  0
LINE
  5
274
330
1F
100
AcDbEntity
  8
0
  6
Continuous
 62
     7
370
    25
100
AcDbLine
 10
261.5433501725
 20
539.3697198482
 30
0.0
 11
259.7433501725
 21
539.3697198482
 31
0.0
  0
LINE
  5
275
330
1F
100
AcDbEntity
  8
0
  6
Continuous
 62
     7
370
    25
100
AcDbLine
 10
262.7433501725
 20
558.5697198482
 30
0.0
 11
262.7433501725
 21
560.3697198482
 31
0.0
  0
LINE
  5
276
330
1F
100
AcDbEntity
  8
0
  6
Continuous
 62
     7
370
    25
100
AcDbLine
 10
562.7433501725
 20
560.3697198482
 30
0.0
 11
562.7433501725
 21
558.5697198482
 31
0.0
  0
LINE
  5
277
330
1F
100
AcDbEntity
  8
0
  6
Continuous
 62
     7
370
    25
100
AcDbLine
 10
338.2433501725
 20
533.1076690406
 30
0.0
 11
338.2433501725
 21
526.48279791
 31
0.0
  0
LINE
  5
278
330
1F
100
AcDbEntity
  8
0
  6
Continuous
 62
     7
370
    25
100
AcDbLine
 10
488.2433501725
 20
526.48279791
 30
0.0
 11
488.2433501725
 21
533.1076690406
 31
0.0
  0
LINE
  5
279
330
1F
100
AcDbEntity
  8
0
  6
Continuous
 62
     7
370
    25
100
AcDbLine
 10
338.2433501725
 20
526.48279791
 30
0.0
 11
338.2433501725
 21
525.98279791
 31
0.0
  0
LINE
  5
27A
330
1F
100
AcDbEntity
  8
0
  6
Continuous
 62
     7
370
    25
100
AcDbLine
 10
488.2433501725
 20
525.98279791
 30
0.0
 11
488.2433501725
 21
526.48279791
 31
0.0
  0
ARC
  5
27B
330
1F
100
AcDbEntity
  8
0
  6
Continuous
 62
     7
370
    25
100
AcDbCircle
 10
341.2433501725
 20
519.4651064564
 30
0.0
 40
3.0
100
AcDbArc
 50
180.0
 51
270.0
  0
LINE
  5
27C
330
1F
100
AcDbEntity
  8
0
  6
Continuous
 62
     7
370
    25
100
AcDbLine
 10
338.2433501725
 20
519.4651064564
 30
0.0
 11
338.2433501725
 21
525.98279791
 31
0.0
  0
LINE
  5
27D
330
1F
100
AcDbEntity
  8
0
  6
Continuous
 62
     7
370
    25
100
AcDbLine
 10
488.2433501725
 20
525.98279791
 30
0.0
 11
488.2433501725
 21
519.4651064564
 31
0.0
  0
ARC
  5
27E
330
1F
100
AcDbEntity
  8
0
  6
Continuous
 62
     7
370
    25
100
AcDbCircle
 10
485.2433501725
 20
519.4651064564
 30
0.0
 40
3.0
100
AcDbArc
 50
270.0
 51
0.0
  0
LINE
  5
27F
330
1F
100
AcDbEntity
  8
0
  6
Continuous
 62
     7
370
    25
100
AcDbLine
 10
485.2433501725
 20
516.4651064564
 30
0.0
 11
341.2433501725
 21
516.4651064564
 31
0.0
  0
LINE
  5
280
330
1F
100
AcDbEntity
  8
0
  6
Continuous
 62
     7
370
    25
100
AcDbLine
 10
574.4021001725
 20
544.8697198482
 30
0.0
 11
574.4021001725
 21
545.0697198481
 31
0.0
  0
LINE
  5
281
330
1F
100
AcDbEntity
  8
0
  6
Continuous
 62
     7
370
    25
100
AcDbLine
 10
574.4021001725
 20
550.6697198482
 30
0.0
 11
574.4021001725
 21
550.8697198482
 31
0.0
  0
LINE
  5
282
330
1F
100
AcDbEntity
  8
0
  6
Continuous
 62
     7
370
    25
100
AcDbLine
 10
574.9433501725
 20
549.4491231855
 30
0.0
 11
574.9433501725
 21
550.3284698482
 31
0.0
  0
LINE
  5
283
330
1F
100
AcDbEntity
  8
0
  6
Continuous
 62
     7
370
    25
100
AcDbLine
 10
574.9433501725
 20
545.4109698481
 30
0.0
 11
574.9433501725
 21
549.4491231855
 31
0.0
  0
LINE
  5
284
330
1F
100
AcDbEntity
  8
0
  6
Continuous
 62
     7
370
    25
100
AcDbLine
 10
564.2433501725
 20
562.1697198482
 30
0.0
 11
564.7433501725
 21
567.5447198482
 31
0.0
  0
LINE
  5
285
330
1F
100
AcDbEntity
  8
0
  6
Continuous
 62
     7
370
    25
100
AcDbLine
 10
260.7433501725
 20
567.5447198482
 30
0.0
 11
261.2433501725
 21
562.1697198482
 31
0.0
  0
LINE
  5
286
330
1F
100
AcDbEntity
  8
0
  6
Continuous
 62
     7
370
    25
100
AcDbLine
 10
564.2433501725
 20
562.1697198482
 30
0.0
 11
564.2433501725
 21
560.3697198482
 31
0.0
  0
LINE
  5
287
330
1F
100
AcDbEntity
  8
0
  6
Continuous
 62
     7
370
    25
100
AcDbLine
 10
564.2433501725
 20
560.3697198482
 30
0.0
 11
261.2433501725
 21
560.3697198482
 31
0.0
  0
LINE
  5
288
330
1F
100
AcDbEntity
  8
0
  6
Continuous
 62
     7
370
    25
100
AcDbLine
 10
261.2433501725
 20
560.3697198482
 30
0.0
 11
261.2433501725
 21
562.1697198482
 31
0.0
  0
LINE
  5
289
330
1F
100
AcDbEntity
  8
0
  6
Continuous
 62
     7
370
    25
100
AcDbLine
 10
250.5433501725
 20
545.6523817709
 30
0.0
 11
250.5433501725
 21
545.4109698481
 31
0.0
  0
LINE
  5
28A
330
1F
100
AcDbEntity
  8
0
  6
Continuous
 62
     7
370
    25
100
AcDbLine
 10
250.5433501725
 20
550.3284698482
 30
0.0
 11
250.5433501725
 21
545.6523817709
 31
0.0
  0
LINE
  5
28B
330
1F
100
AcDbEntity
  8
0
  6
Continuous
 62
     7
370
    25
100
AcDbLine
 10
251.0846001725
 20
550.8697198482
 30
0.0
 11
251.0846001725
 21
550.6697198482
 31
0.0
  0
LINE
  5
28C
330
1F
100
AcDbEntity
  8
0
  6
Continuous
 62
     7
370
    25
100
AcDbLine
 10
251.0846001725
 20
545.0697198481
 30
0.0
 11
251.0846001725
 21
544.8697198481
 31
0.0
  0
SPLINE
  5
28D
330
1F
100
AcDbEntity
  8
0
  6
Continuous
 62
     7
370
    25
100
AcDbSpline
210
0.0
220
0.0
230
1.0
 70
    24
 71
     3
 72
    15
 73
    11
 74
     0
 42
0.000000001
 43
0.00000001
 40
0.0
 40
0.0
 40
0.0
 40
0.0
 40
0.0346967497918684
 40
0.2211884951269668
 40
0.4076802404620659
 40
0.5080720152630803
 40
0.6105942475634837
 40
0.7131164798638868
 40
0.8135082546649012
 40
0.9999999999999999
 40
0.9999999999999999
 40
0.9999999999999999
 40
0.9999999999999999
 10
261.7433501724773
 20
542.0964710387484
 30
0.0
 10
261.7433501724773
 20
542.089749935117
 30
0.0
 10
261.7433501724772
 20
542.0469035357642
 30
0.0
 10
261.7433501724773
 20
542.5349444985226
 30
0.0
 10
261.7433501724773
 20
543.6308555559913
 30
0.0
 10
261.7433501724773
 20
544.8497526884387
 30
0.0
 10
261.7433501724773
 20
545.9299279162956
 30
0.0
 10
261.7433501724773
 20
547.0904048187613
 30
0.0
 10
261.7433501724772
 20
548.6209797138764
 30
0.0
 10
261.7433501724773
 20
549.6846056025265
 30
0.0
 10
261.7433501724773
 20
550.3760271532096
 30
0.0
  0
SPLINE
  5
28E
330
1F
100
AcDbEntity
  8
0
  6
Continuous
 62
     7
370
    25
100
AcDbSpline
210
0.0
220
0.0
230
1.0
 70
    24
 71
     3
 72
    12
 73
     8
 74
     0
 42
0.000000001
 43
0.00000001
 40
0.0
 40
0.0
 40
0.0
 40
0.0
 40
0.3344405486782633
 40
0.514475757136987
 40
0.6983315710265366
 40
0.8821873849160874
 40
1.0
 40
1.0
 40
1.0
 40
1.0
 10
261.7433501724773
 20
550.3760271532096
 30
0.0
 10
261.7433501724773
 20
551.0001726887115
 30
0.0
 10
261.7433501724773
 20
551.9603067041891
 30
0.0
 10
261.7433501724773
 20
552.8682176104843
 30
0.0
 10
261.7433501724773
 20
553.3739349484005
 30
0.0
 10
261.7433501724773
 20
553.6455546825388
 30
0.0
 10
261.7433501724774
 20
553.6436949510789
 30
0.0
 10
261.7433501724773
 20
553.642968657554
 30
0.0
  0
SPLINE
  5
28F
330
1F
100
AcDbEntity
  8
0
  6
Continuous
 62
     7
370
    25
100
AcDbSpline
210
0.0
220
0.0
230
1.0
 70
     8
 71
     3
 72
     8
 73
     4
 74
     0
 42
0.000000001
 43
0.00000001
 40
0.0
 40
0.0
 40
0.0
 40
0.0
 40
1.0
 40
1.0
 40
1.0
 40
1.0
 10
265.7433501724703
 20
547.4863248204647
 30
0.0
 10
265.7433501724703
 20
548.4687032650374
 30
0.0
 10
265.5690348720909
 20
549.4241944332272
 30
0.0
 10
265.296768185079
 20
550.3645770825548
 30
0.0
  0
SPLINE
  5
290
330
1F
100
AcDbEntity
  8
0
  6
Continuous
 62
     7
370
    25
100
AcDbSpline
210
0.0
220
0.0
230
1.0
 70
     8
 71
     3
 72
     8
 73
     4
 74
     0
 42
0.000000001
 43
0.00000001
 40
0.0
 40
0.0
 40
0.0
 40
0.0
 40
1.0
 40
1.0
 40
1.0
 40
1.0
 10
265.296768185079
 20
544.6080725583747
 30
0.0
 10
265.5690348720904
 20
545.5484552077006
 30
0.0
 10
265.7433501724703
 20
546.5039463758939
 30
0.0
 10
265.7433501724703
 20
547.4863248204647
 30
0.0
  0
LINE
  5
291
330
1F
100
AcDbEntity
  8
0
  6
Continuous
 62
     7
370
    25
100
AcDbLine
 10
261.7433501725
 20
544.6080725584
 30
0.0
 11
265.2967681851
 21
544.6080725584
 31
0.0
  0
LINE
  5
292
330
1F
100
AcDbEntity
  8
0
  6
Continuous
 62
     7
370
    25
100
AcDbLine
 10
261.7433501725
 20
550.3645770826
 30
0.0
 11
265.2967681851
 21
550.3645770826
 31
0.0
  0
LINE
  5
293
330
1F
100
AcDbEntity
  8
0
  6
Continuous
 62
     7
370
    25
100
AcDbLine
 10
265.7433501725
 20
547.4863248205
 30
0.0
 11
265.7433501725
 21
551.9954007274
 31
0.0
  0
SPLINE
  5
294
330
1F
100
AcDbEntity
  8
0
  6
Continuous
 62
     7
370
    25
100
AcDbSpline
210
0.0
220
0.0
230
1.0
 70
     8
 71
     3
 72
     8
 73
     4
 74
     0
 42
0.000000001
 43
0.00000001
 40
0.0
 40
0.0
 40
0.0
 40
0.0
 40
1.0
 40
1.0
 40
1.0
 40
1.0
 10
265.2967681850789
 20
550.3645770825609
 30
0.0
 10
265.5690348720902
 20
550.8973998236257
 30
0.0
 10
265.7433501724702
 20
551.4387830825203
 30
0.0
 10
265.7433501724702
 20
551.9954007274488
 30
0.0
  0
LINE
  5
295
330
1F
100
AcDbEntity
  8
0
  6
Continuous
 62
     7
370
    25
100
AcDbLine
 10
265.7433501725
 20
543.3606439412
 30
0.0
 11
265.7433501725
 21
547.4863248205
 31
0.0
  0
SPLINE
  5
296
330
1F
100
AcDbEntity
  8
0
  6
Continuous
 62
     7
370
    25
100
AcDbSpline
210
0.0
220
0.0
230
1.0
 70
     8
 71
     3
 72
     8
 73
     4
 74
     0
 42
0.000000001
 43
0.00000001
 40
0.0
 40
0.0
 40
0.0
 40
0.0
 40
1.0
 40
1.0
 40
1.0
 40
1.0
 10
265.7433501724701
 20
543.3606439411673
 30
0.0
 10
265.7433501724701
 20
543.7864047408104
 30
0.0
 10
265.5690348720908
 20
544.2005126501075
 30
0.0
 10
265.2967681850789
 20
544.608072558369
 30
0.0
  0
SPLINE
  5
297
330
1F
100
AcDbEntity
  8
0
  6
Continuous
 62
     7
370
    25
100
AcDbSpline
210
0.0
220
0.0
230
1.0
 70
     8
 71
     3
 72
     8
 73
     4
 74
     0
 42
0.000000001
 43
0.00000001
 40
0.0
 40
0.0
 40
0.0
 40
0.0
 40
1.0
 40
1.0
 40
1.0
 40
1.0
 10
265.7433501724702
 20
551.9954007274488
 30
0.0
 10
265.7433501724702
 20
552.5520183723787
 30
0.0
 10
265.569034872091
 20
553.0934016312705
 30
0.0
 10
265.2967681850789
 20
553.6262243723367
 30
0.0
  0
LINE
  5
298
330
1F
100
AcDbEntity
  8
0
  6
Continuous
 62
     7
370
    25
100
AcDbLine
 10
265.2967681851
 20
553.6262243723
 30
0.0
 11
261.7433501725
 21
553.6262243723
 31
0.0
  0
SPLINE
  5
299
330
1F
100
AcDbEntity
  8
0
  6
Continuous
 62
     7
370
    25
100
AcDbSpline
210
0.0
220
0.0
230
1.0
 70
     8
 71
     3
 72
     8
 73
     4
 74
     0
 42
0.000000001
 43
0.00000001
 40
0.0
 40
0.0
 40
0.0
 40
0.0
 40
1.0
 40
1.0
 40
1.0
 40
1.0
 10
265.2967681850789
 20
542.1132153239652
 30
0.0
 10
265.5690348720902
 20
542.5207752322261
 30
0.0
 10
265.7433501724701
 20
542.9348831415247
 30
0.0
 10
265.7433501724701
 20
543.3606439411673
 30
0.0
  0
LINE
  5
29A
330
1F
100
AcDbEntity
  8
0
  6
Continuous
 62
     7
370
    25
100
AcDbLine
 10
261.7433501725
 20
542.113215324
 30
0.0
 11
265.2967681851
 21
542.113215324
 31
0.0
  0
LINE
  5
29B
330
1F
100
AcDbEntity
  8
0
  6
Continuous
 62
     7
370
    25
100
AcDbLine
 10
250.7433501725
 20
545.6523817709
 30
0.0
 11
250.7433501725
 21
545.4109698481
 31
0.0
  0
LINE
  5
29C
330
1F
100
AcDbEntity
  8
0
  6
Continuous
 62
     7
370
    25
100
AcDbLine
 10
250.7433501725
 20
550.3284698482
 30
0.0
 11
250.7433501725
 21
545.6523817709
 31
0.0
  0
LINE
  5
29D
330
1F
100
AcDbEntity
  8
0
  6
Continuous
 62
     7
370
    25
100
AcDbLine
 10
251.2846001725
 20
550.8697198482
 30
0.0
 11
251.2846001725
 21
544.8697198481
 31
0.0
  0
LINE
  5
29E
330
1F
100
AcDbEntity
  8
0
  6
Continuous
 62
     7
370
    25
100
AcDbLine
 10
265.2967681851
 20
553.6262243723
 30
0.0
 11
265.3719559406
 21
553.4162039045
 31
0.0
  0
LINE
  5
29F
330
1F
100
AcDbEntity
  8
0
  6
Continuous
 62
     7
370
    25
100
AcDbLine
 10
265.7433501725
 20
551.9954007274
 30
0.0
 11
265.7433501725
 21
552.8697198481
 31
0.0
  0
LINE
  5
2A0
330
1F
100
AcDbEntity
  8
0
  6
Continuous
 62
     7
370
    25
100
AcDbLine
 10
265.7433501725
 20
542.8697198482
 30
0.0
 11
265.7433501725
 21
543.3606439412
 31
0.0
  0
LINE
  5
2A1
330
1F
100
AcDbEntity
  8
0
  6
Continuous
 62
     7
370
    25
100
AcDbLine
 10
260.7433501725
 20
541.9697198482
 30
0.0
 11
260.7433501725
 21
539.9697198482
 31
0.0
  0
LINE
  5
2A2
330
1F
100
AcDbEntity
  8
0
  6
Continuous
 62
     7
370
    25
100
AcDbLine
 10
260.7433501725
 20
539.9697198482
 30
0.0
 11
258.7433501725
 21
539.9697198482
 31
0.0
  0
LINE
  5
2A3
330
1F
100
AcDbEntity
  8
0
  6
Continuous
 62
     7
370
    25
100
AcDbLine
 10
258.7433501725
 20
539.9697198482
 30
0.0
 11
258.7433501725
 21
541.9697198482
 31
0.0
  0
LINE
  5
2A4
330
1F
100
AcDbEntity
  8
0
  6
Continuous
 62
     7
370
    25
100
AcDbLine
 10
258.7433501725
 20
541.9697198482
 30
0.0
 11
258.7433501725
 21
570.9697198482
 31
0.0
  0
LINE
  5
2A5
330
1F
100
AcDbEntity
  8
0
  6
Continuous
 62
     7
370
    25
100
AcDbLine
 10
260.7433501725
 20
541.9697198482
 30
0.0
 11
260.7433501725
 21
570.9697198482
 31
0.0
  0
LINE
  5
2A6
330
1F
100
AcDbEntity
  8
0
  6
Continuous
 62
     7
370
    25
100
AcDbLine
 10
258.7450173024
 20
571.0697198482
 30
0.0
 11
258.7433501725
 21
570.9697198482
 31
0.0
  0
LINE
  5
2A7
330
1F
100
AcDbEntity
  8
0
  6
Continuous
 62
     7
370
    25
100
AcDbLine
 10
260.7483627354
 20
571.0697198482
 30
0.0
 11
260.7433501725
 21
570.9697198482
 31
0.0
  0
LINE
  5
2A8
330
1F
100
AcDbEntity
  8
0
  6
Continuous
 62
     7
370
    25
100
AcDbLine
 10
258.7433501725
 20
555.9697198482
 30
0.0
 11
258.6830427933
 21
555.9697198482
 31
0.0
  0
LINE
  5
2A9
330
1F
100
AcDbEntity
  8
0
  6
Continuous
 62
     7
370
    25
100
AcDbLine
 10
258.6830427933
 20
539.9697198482
 30
0.0
 11
258.7433501725
 21
539.9697198482
 31
0.0
  0
LWPOLYLINE
  5
2AA
330
1F
100
AcDbEntity
  8
0
  6
Continuous
 62
     7
370
    25
100
AcDbPolyline
 90
        9
 70
   128
 43
0.0
 10
256.1278037843
 20
541.9697198482
 10
256.1409474266
 20
541.5795392041
 10
256.1798732507
 20
541.2043529834
 10
256.243085359
 20
540.8585793821
 10
256.3281545457
 20
540.5555062858
 10
256.4318116495
 20
540.3067806235
 10
256.5500731862
 20
540.1219607831
 10
256.6783944312
 20
540.0081492873
 10
256.811844071
 20
539.9697198482
  0
LINE
  5
2AB
330
1F
100
AcDbEntity
  8
0
  6
Continuous
 62
     7
370
    25
100
AcDbLine
 10
256.1278037843
 20
541.9697198482
 30
0.0
 11
256.1278037843
 21
544.8697198482
 31
0.0
  0
LINE
  5
2AC
330
1F
100
AcDbEntity
  8
0
  6
Continuous
 62
     7
370
    25
100
AcDbLine
 10
256.1278037843
 20
550.8697198482
 30
0.0
 11
256.1278037843
 21
553.9697198482
 31
0.0
  0
LWPOLYLINE
  5
2AD
330
1F
100
AcDbEntity
  8
0
  6
Continuous
 62
     7
370
    25
100
AcDbPolyline
 90
        9
 70
   128
 43
0.0
 10
256.811844071
 20
555.9697198482
 10
256.6783944312
 20
555.931290409
 10
256.5500731862
 20
555.8174789132
 10
256.4318116495
 20
555.6326590728
 10
256.3281545457
 20
555.3839334105
 10
256.243085359
 20
555.0808603142
 10
256.1798732507
 20
554.7350867129
 10
256.1409474266
 20
554.3599004922
 10
256.1278037843
 20
553.9697198482
  0
LINE
  5
2AE
330
1F
100
AcDbEntity
  8
0
  6
Continuous
 62
     7
370
    25
100
AcDbLine
 10
256.811844071
 20
555.9697198482
 30
0.0
 11
258.6830427933
 21
555.9697198482
 31
0.0
  0
LINE
  5
2AF
330
1F
100
AcDbEntity
  8
0
  6
Continuous
 62
     7
370
    25
100
AcDbLine
 10
258.6830427933
 20
539.9697198482
 30
0.0
 11
256.811844071
 21
539.9697198482
 31
0.0
  0
LINE
  5
2B0
330
1F
100
AcDbEntity
  8
0
  6
Continuous
 62
     7
370
    25
100
AcDbLine
 10
566.7433501725
 20
539.9697198482
 30
0.0
 11
564.7433501725
 21
539.9697198482
 31
0.0
  0
LINE
  5
2B1
330
1F
100
AcDbEntity
  8
0
  6
Continuous
 62
     7
370
    25
100
AcDbLine
 10
564.7433501725
 20
539.9697198482
 30
0.0
 11
564.7433501725
 21
541.9697198482
 31
0.0
  0
LINE
  5
2B2
330
1F
100
AcDbEntity
  8
0
  6
Continuous
 62
     7
370
    25
100
AcDbLine
 10
566.7433501725
 20
541.9697198482
 30
0.0
 11
566.7433501725
 21
539.9697198482
 31
0.0
  0
LINE
  5
2B3
330
1F
100
AcDbEntity
  8
0
  6
Continuous
 62
     7
370
    25
100
AcDbLine
 10
564.7433501725
 20
570.9697198482
 30
0.0
 11
564.7433501725
 21
541.9697198482
 31
0.0
  0
LINE
  5
2B4
330
1F
100
AcDbEntity
  8
0
  6
Continuous
 62
     7
370
    25
100
AcDbLine
 10
566.7433501725
 20
570.9697198482
 30
0.0
 11
566.7433501725
 21
541.9697198482
 31
0.0
  0
LINE
  5
2B5
330
1F
100
AcDbEntity
  8
0
  6
Continuous
 62
     7
370
    25
100
AcDbLine
 10
566.7433501725
 20
570.9697198482
 30
0.0
 11
566.7416830426
 21
571.0697198482
 31
0.0
  0
LINE
  5
2B6
330
1F
100
AcDbEntity
  8
0
  6
Continuous
 62
     7
370
    25
100
AcDbLine
 10
564.7433501725
 20
570.9697198482
 30
0.0
 11
564.7383376096
 21
571.0697198482
 31
0.0
  0
LINE
  5
2B7
330
1F
100
AcDbEntity
  8
0
  6
Continuous
 62
     7
370
    25
100
AcDbLine
 10
566.8036575517
 20
555.9697198482
 30
0.0
 11
566.7433501725
 21
555.9697198482
 31
0.0
  0
LINE
  5
2B8
330
1F
100
AcDbEntity
  8
0
  6
Continuous
 62
     7
370
    25
100
AcDbLine
 10
566.7433501725
 20
539.9697198482
 30
0.0
 11
566.8036575517
 21
539.9697198482
 31
0.0
  0
LWPOLYLINE
  5
2B9
330
1F
100
AcDbEntity
  8
0
  6
Continuous
 62
     7
370
    25
100
AcDbPolyline
 90
        9
 70
   128
 43
0.0
 10
568.674856274
 20
539.9697198482
 10
568.8083059138
 20
540.0081492873
 10
568.9366271588
 20
540.1219607831
 10
569.0548886955
 20
540.3067806235
 10
569.1585457993
 20
540.5555062858
 10
569.2436149859
 20
540.8585793821
 10
569.3068270943
 20
541.2043529834
 10
569.3457529184
 20
541.5795392041
 10
569.3588965607
 20
541.9697198482
  0
LINE
  5
2BA
330
1F
100
AcDbEntity
  8
0
  6
Continuous
 62
     7
370
    25
100
AcDbLine
 10
566.8036575517
 20
555.9697198482
 30
0.0
 11
568.674856274
 21
555.9697198482
 31
0.0
  0
LWPOLYLINE
  5
2BB
330
1F
100
AcDbEntity
  8
0
  6
Continuous
 62
     7
370
    25
100
AcDbPolyline
 90
        9
 70
   128
 43
0.0
 10
569.3588965607
 20
553.9697198482
 10
569.3457529184
 20
554.3599004922
 10
569.3068270943
 20
554.7350867129
 10
569.2436149859
 20
555.0808603142
 10
569.1585457993
 20
555.3839334105
 10
569.0548886955
 20
555.6326590728
 10
568.9366271588
 20
555.8174789132
 10
568.8083059138
 20
555.931290409
 10
568.674856274
 20
555.9697198482
  0
LINE
  5
2BC
330
1F
100
AcDbEntity
  8
0
  6
Continuous
 62
     7
370
    25
100
AcDbLine
 10
569.3588965607
 20
553.9697198482
 30
0.0
 11
569.3588965607
 21
550.8697198482
 31
0.0
  0
LINE
  5
2BD
330
1F
100
AcDbEntity
  8
0
  6
Continuous
 62
     7
370
    25
100
AcDbLine
 10
569.3588965607
 20
544.8697198482
 30
0.0
 11
569.3588965607
 21
541.9697198482
 31
0.0
  0
LINE
  5
2BE
330
1F
100
AcDbEntity
  8
0
  6
Continuous
 62
     7
370
    25
100
AcDbLine
 10
568.674856274
 20
539.9697198482
 30
0.0
 11
566.8036575517
 21
539.9697198482
 31
0.0
  0
LINE
  5
2BF
330
1F
100
AcDbEntity
  8
0
  6
Continuous
 62
     7
370
    25
100
AcDbLine
 10
549.4933501725
 20
565.9697198481
 30
0.0
 11
549.4933501725
 21
566.4697198482
 31
0.0
  0
LINE
  5
2C0
330
1F
100
AcDbEntity
  8
0
  6
Continuous
 62
     7
370
    25
100
AcDbLine
 10
558.9933501725
 20
566.4697198482
 30
0.0
 11
558.9933501725
 21
565.9697198481
 31
0.0
  0
LINE
  5
2C1
330
1F
100
AcDbEntity
  8
0
  6
Continuous
 62
     7
370
    25
100
AcDbLine
 10
558.9933501725
 20
565.9697198481
 30
0.0
 11
549.4933501725
 21
565.9697198481
 31
0.0
  0
LINE
  5
2C2
330
1F
100
AcDbEntity
  8
0
  6
Continuous
 62
     7
370
    25
100
AcDbLine
 10
549.4933501725
 20
565.9697198481
 30
0.0
 11
548.7299501725
 21
565.9697198481
 31
0.0
  0
ARC
  5
2C3
330
1F
100
AcDbEntity
  8
0
  6
Continuous
 62
     7
370
    25
100
AcDbCircle
 10
548.7299501725
 20
567.2063198481
 30
0.0
 40
1.236600000000067
100
AcDbArc
 50
216.5600911006
 51
270.0
  0
ARC
  5
2C4
330
1F
100
AcDbEntity
  8
0
  6
Continuous
 62
     7
370
    25
100
AcDbCircle
 10
559.7567501725
 20
567.2063198481
 30
0.0
 40
1.236600000000067
100
AcDbArc
 50
270.0
 51
323.4399088994
  0
LINE
  5
2C5
330
1F
100
AcDbEntity
  8
0
  6
Continuous
 62
     7
370
    25
100
AcDbLine
 10
559.7567501725
 20
565.9697198481
 30
0.0
 11
558.9933501725
 21
565.9697198481
 31
0.0
  0
ARC
  5
2C6
330
1F
100
AcDbEntity
  8
0
  6
Continuous
 62
     7
370
    25
100
AcDbCircle
 10
573.2433501725
 20
577.0697198482
 30
0.0
 40
6.0
100
AcDbArc
 50
270.0
 51
323.1301023541
  0
ARC
  5
2C7
330
1F
100
AcDbEntity
  8
0
  6
Continuous
 62
     7
370
    25
100
AcDbCircle
 10
252.2433501725
 20
577.0697198482
 30
0.0
 40
6.000000000000045
100
AcDbArc
 50
216.8698976459
 51
270.0
  0
ARC
  5
2C8
330
1F
100
AcDbEntity
  8
0
  6
Continuous
 62
     7
370
    25
100
AcDbCircle
 10
564.4433501725
 20
22.8744142718
 30
0.0
 40
0.5000000000001137
100
AcDbArc
 50
180.0
 51
0.0
  0
ARC
  5
2C9
330
1F
100
AcDbEntity
  8
0
  6
Continuous
 62
     7
370
    25
100
AcDbCircle
 10
564.4433501725
 20
34.474414272
 30
0.0
 40
0.5000000000001137
100
AcDbArc
 50
0.0
 51
180.0
  0
LINE
  5
2CA
330
1F
100
AcDbEntity
  8
0
  6
Continuous
 62
     7
370
    25
100
AcDbLine
 10
574.4021001725
 20
31.6744142719
 30
0.0
 11
565.7433501725
 21
31.6744142719
 31
0.0
  0
LINE
  5
2CB
330
1F
100
AcDbEntity
  8
0
  6
Continuous
 62
     7
370
    25
100
AcDbLine
 10
565.7433501725
 20
25.6744142719
 30
0.0
 11
574.4021001725
 21
25.6744142719
 31
0.0
  0
LINE
  5
2CC
330
1F
100
AcDbEntity
  8
0
  6
Continuous
 62
     7
370
    25
100
AcDbLine
 10
574.4021001725
 20
25.6744142719
 30
0.0
 11
574.9433501725
 21
26.2156642719
 31
0.0
  0
LINE
  5
2CD
330
1F
100
AcDbEntity
  8
0
  6
Continuous
 62
     7
370
    25
100
AcDbLine
 10
574.9433501725
 20
31.1331642719
 30
0.0
 11
574.4021001725
 21
31.6744142719
 31
0.0
  0
LINE
  5
2CE
330
1F
100
AcDbEntity
  8
0
  6
Continuous
 62
     7
370
    25
100
AcDbLine
 10
540.6628118775
 20
17.3229856724
 30
0.0
 11
541.0933501725
 21
17.0744142719
 31
0.0
  0
LINE
  5
2CF
330
1F
100
AcDbEntity
  8
0
  6
Continuous
 62
     7
370
    25
100
AcDbLine
 10
547.3933501725
 20
17.0744142719
 30
0.0
 11
547.7885647581
 21
17.3025915193
 31
0.0
  0
LINE
  5
2D0
330
1F
100
AcDbEntity
  8
0
  6
Continuous
 62
     7
370
    25
100
AcDbLine
 10
547.7885647581
 20
20.0462370245
 30
0.0
 11
547.3933501725
 21
20.2744142719
 31
0.0
  0
LINE
  5
2D1
330
1F
100
AcDbEntity
  8
0
  6
Continuous
 62
     7
370
    25
100
AcDbLine
 10
541.0933501725
 20
20.2744142719
 30
0.0
 11
540.6628118775
 21
20.0258428714
 31
0.0
  0
LINE
  5
2D2
330
1F
100
AcDbEntity
  8
0
  6
Continuous
 62
     7
370
    25
100
AcDbLine
 10
415.7885647581
 20
20.0462370245
 30
0.0
 11
415.3933501725
 21
20.2744142719
 31
0.0
  0
LINE
  5
2D3
330
1F
100
AcDbEntity
  8
0
  6
Continuous
 62
     7
370
    25
100
AcDbLine
 10
409.0933501725
 20
20.2744142719
 30
0.0
 11
408.6628118775
 21
20.0258428714
 31
0.0
  0
LINE
  5
2D4
330
1F
100
AcDbEntity
  8
0
  6
Continuous
 62
     7
370
    25
100
AcDbLine
 10
408.6628118775
 20
17.3229856724
 30
0.0
 11
409.0933501725
 21
17.0744142719
 31
0.0
  0
LINE
  5
2D5
330
1F
100
AcDbEntity
  8
0
  6
Continuous
 62
     7
370
    25
100
AcDbLine
 10
415.3933501725
 20
17.0744142719
 30
0.0
 11
415.7885647581
 21
17.3025915193
 31
0.0
  0
LINE
  5
2D6
330
1F
100
AcDbEntity
  8
0
  6
Continuous
 62
     7
370
    25
100
AcDbLine
 10
284.7885647581
 20
20.0462370245
 30
0.0
 11
284.3933501725
 21
20.2744142719
 31
0.0
  0
LINE
  5
2D7
330
1F
100
AcDbEntity
  8
0
  6
Continuous
 62
     7
370
    25
100
AcDbLine
 10
278.0933501725
 20
20.2744142719
 30
0.0
 11
277.6628118775
 21
20.0258428714
 31
0.0
  0
LINE
  5
2D8
330
1F
100
AcDbEntity
  8
0
  6
Continuous
 62
     7
370
    25
100
AcDbLine
 10
277.6628118775
 20
17.3229856724
 30
0.0
 11
278.0933501725
 21
17.0744142719
 31
0.0
  0
LINE
  5
2D9
330
1F
100
AcDbEntity
  8
0
  6
Continuous
 62
     7
370
    25
100
AcDbLine
 10
284.3933501725
 20
17.0744142719
 30
0.0
 11
284.7885647581
 21
17.3025915193
 31
0.0
  0
LINE
  5
2DA
330
1F
100
AcDbEntity
  8
0
  6
Continuous
 62
     7
370
    25
100
AcDbLine
 10
260.2433501725
 20
3.6244142719
 30
0.0
 11
565.2433501725
 21
3.6244142719
 31
0.0
  0
LINE
  5
2DB
330
1F
100
AcDbEntity
  8
0
  6
Continuous
 62
     7
370
    25
100
AcDbLine
 10
542.2433501725
 20
25.3744142719
 30
0.0
 11
542.2433501725
 21
20.2744142719
 31
0.0
  0
LINE
  5
2DC
330
1F
100
AcDbEntity
  8
0
  6
Continuous
 62
     7
370
    25
100
AcDbLine
 10
542.2433501725
 20
17.0744142719
 30
0.0
 11
542.2433501725
 21
16.9744142719
 31
0.0
  0
LINE
  5
2DD
330
1F
100
AcDbEntity
  8
0
  6
Continuous
 62
     7
370
    25
100
AcDbLine
 10
546.2433501725
 20
16.9744142719
 30
0.0
 11
546.2433501725
 21
17.0744142719
 31
0.0
  0
LINE
  5
2DE
330
1F
100
AcDbEntity
  8
0
  6
Continuous
 62
     7
370
    25
100
AcDbLine
 10
546.2433501725
 20
20.2744142719
 30
0.0
 11
546.2433501725
 21
25.3744142719
 31
0.0
  0
LINE
  5
2DF
330
1F
100
AcDbEntity
  8
0
  6
Continuous
 62
     7
370
    25
100
AcDbLine
 10
410.2433501725
 20
25.3744142719
 30
0.0
 11
410.2433501725
 21
20.2744142719
 31
0.0
  0
LINE
  5
2E0
330
1F
100
AcDbEntity
  8
0
  6
Continuous
 62
     7
370
    25
100
AcDbLine
 10
410.2433501725
 20
17.0744142719
 30
0.0
 11
410.2433501725
 21
16.9744142719
 31
0.0
  0
LINE
  5
2E1
330
1F
100
AcDbEntity
  8
0
  6
Continuous
 62
     7
370
    25
100
AcDbLine
 10
414.2433501725
 20
16.9744142719
 30
0.0
 11
414.2433501725
 21
17.0744142719
 31
0.0
  0
LINE
  5
2E2
330
1F
100
AcDbEntity
  8
0
  6
Continuous
 62
     7
370
    25
100
AcDbLine
 10
414.2433501725
 20
20.2744142719
 30
0.0
 11
414.2433501725
 21
25.3744142719
 31
0.0
  0
LINE
  5
2E3
330
1F
100
AcDbEntity
  8
0
  6
Continuous
 62
     7
370
    25
100
AcDbLine
 10
279.2433501725
 20
25.3744142719
 30
0.0
 11
279.2433501725
 21
20.2744142719
 31
0.0
  0
LINE
  5
2E4
330
1F
100
AcDbEntity
  8
0
  6
Continuous
 62
     7
370
    25
100
AcDbLine
 10
279.2433501725
 20
17.0744142719
 30
0.0
 11
279.2433501725
 21
16.9744142719
 31
0.0
  0
LINE
  5
2E5
330
1F
100
AcDbEntity
  8
0
  6
Continuous
 62
     7
370
    25
100
AcDbLine
 10
283.2433501725
 20
16.9744142719
 30
0.0
 11
283.2433501725
 21
17.0744142719
 31
0.0
  0
LINE
  5
2E6
330
1F
100
AcDbEntity
  8
0
  6
Continuous
 62
     7
370
    25
100
AcDbLine
 10
283.2433501725
 20
20.2744142719
 30
0.0
 11
283.2433501725
 21
25.3744142719
 31
0.0
  0
ARC
  5
2E7
330
1F
100
AcDbEntity
  8
0
  6
Continuous
 62
     7
370
    25
100
AcDbCircle
 10
261.0433501725
 20
34.474414272
 30
0.0
 40
0.5000000000000568
100
AcDbArc
 50
0.0
 51
180.0
  0
ARC
  5
2E8
330
1F
100
AcDbEntity
  8
0
  6
Continuous
 62
     7
370
    25
100
AcDbCircle
 10
261.0433501725
 20
22.8744142718
 30
0.0
 40
0.5000000000000568
100
AcDbArc
 50
180.0
 51
0.0
  0
LINE
  5
2E9
330
1F
100
AcDbEntity
  8
0
  6
Continuous
 62
     7
370
    25
100
AcDbLine
 10
251.0846001725
 20
31.6744142719
 30
0.0
 11
250.5433501725
 21
31.1331642719
 31
0.0
  0
LINE
  5
2EA
330
1F
100
AcDbEntity
  8
0
  6
Continuous
 62
     7
370
    25
100
AcDbLine
 10
250.5433501725
 20
26.2156642719
 30
0.0
 11
251.0846001725
 21
25.6744142719
 31
0.0
  0
LINE
  5
2EB
330
1F
100
AcDbEntity
  8
0
  6
Continuous
 62
     7
370
    25
100
AcDbLine
 10
251.0846001725
 20
25.6744142719
 30
0.0
 11
259.7433501725
 21
25.6744142719
 31
0.0
  0
LINE
  5
2EC
330
1F
100
AcDbEntity
  8
0
  6
Continuous
 62
     7
370
    25
100
AcDbLine
 10
259.7433501725
 20
31.6744142719
 30
0.0
 11
251.0846001725
 21
31.6744142719
 31
0.0
  0
LINE
  5
2ED
330
1F
100
AcDbEntity
  8
0
  6
Continuous
 62
     7
370
    25
100
AcDbLine
 10
265.5433501725
 20
33.6744142719
 30
0.0
 11
265.2138670767
 21
34.245095734
 31
0.0
  0
LINE
  5
2EE
330
1F
100
AcDbEntity
  8
0
  6
Continuous
 62
     7
370
    25
100
AcDbLine
 10
265.2138670767
 20
23.1037328098
 30
0.0
 11
265.5433501725
 21
23.6744142719
 31
0.0
  0
LINE
  5
2EF
330
1F
100
AcDbEntity
  8
0
  6
Continuous
 62
     7
370
    25
100
AcDbLine
 10
258.2433501725
 20
5.4744142719
 30
0.0
 11
252.2433501725
 21
5.4744142719
 31
0.0
  0
LINE
  5
2F0
330
1F
100
AcDbEntity
  8
0
  6
Continuous
 62
     7
370
    25
100
AcDbLine
 10
567.2433501725
 20
5.4744142719
 30
0.0
 11
565.0712571492
 21
5.4744142719
 31
0.0
  0
LINE
  5
2F1
330
1F
100
AcDbEntity
  8
0
  6
Continuous
 62
     7
370
    25
100
AcDbLine
 10
260.4154431957
 20
5.4744142719
 30
0.0
 11
258.2433501725
 21
5.4744142719
 31
0.0
  0
LINE
  5
2F2
330
1F
100
AcDbEntity
  8
0
  6
Continuous
 62
     7
370
    25
100
AcDbLine
 10
573.2433501725
 20
5.4744142719
 30
0.0
 11
567.2433501725
 21
5.4744142719
 31
0.0
  0
SPLINE
  5
2F3
330
1F
100
AcDbEntity
  8
0
  6
Continuous
 62
     7
370
    25
100
AcDbSpline
210
0.0
220
0.0
230
1.0
 70
    24
 71
     3
 72
     9
 73
     5
 74
     0
 42
0.000000001
 43
0.00000001
 40
0.0
 40
0.0
 40
0.0
 40
0.0
 40
0.5153941859632714
 40
1.0
 40
1.0
 40
1.0
 40
1.0
 10
564.9433501724775
 20
34.34942427191675
 30
0.0
 10
564.9433501724775
 20
34.39316611997237
 30
0.0
 10
564.9433501724775
 20
34.47803678643879
 30
0.0
 10
564.9433501724775
 20
34.45528035119538
 30
0.0
 10
564.9433501724775
 20
34.44425245036968
 30
0.0
  0
SPLINE
  5
2F4
330
1F
100
AcDbEntity
  8
0
  6
Continuous
 62
     7
370
    25
100
AcDbSpline
210
0.0
220
0.0
230
1.0
 70
    24
 71
     3
 72
    17
 73
    13
 74
     0
 42
0.000000001
 43
0.00000001
 40
0.0
 40
0.0
 40
0.0
 40
0.0
 40
0.0359921626376374
 40
0.1205930661280436
 40
0.2034359252874614
 40
0.3573281084250907
 40
0.5112202915627208
 40
0.5940631507221377
 40
0.6786640542125447
 40
0.7632649577029526
 40
0.8461078168623681
 40
1.0
 40
1.0
 40
1.0
 40
1.0
 10
563.9433501724775
 20
34.44425245038062
 30
0.0
 10
563.9433501724775
 20
34.45140383742189
 30
0.0
 10
563.9433501724775
 20
34.47536482301363
 30
0.0
 10
563.9433501724775
 20
34.25735989677798
 30
0.0
 10
563.9433501724775
 20
33.68557279969089
 30
0.0
 10
563.9433501724774
 20
32.48855622360057
 30
0.0
 10
563.9433501724775
 20
30.84249946372348
 30
0.0
 10
563.9433501724775
 20
29.35730911150968
 30
0.0
 10
563.9433501724775
 20
28.16128098713547
 30
0.0
 10
563.9433501724775
 20
26.99151557434605
 30
0.0
 10
563.9433501724775
 20
25.56956839376224
 30
0.0
 10
563.9433501724775
 20
24.75730111390208
 30
0.0
 10
563.9433501724775
 20
24.22927795444055
 30
0.0
  0
SPLINE
  5
2F5
330
1F
100
AcDbEntity
  8
0
  6
Continuous
 62
     7
370
    25
100
AcDbSpline
210
0.0
220
0.0
230
1.0
 70
     8
 71
     3
 72
     8
 73
     4
 74
     0
 42
0.000000001
 43
0.00000001
 40
0.0
 40
0.0
 40
0.0
 40
0.0
 40
1.0
 40
1.0
 40
1.0
 40
1.0
 10
559.9433501724848
 20
31.88621566959517
 30
0.0
 10
559.9433501724848
 20
31.13109486328723
 30
0.0
 10
560.1176654728641
 20
30.3966413893438
 30
0.0
 10
560.389932159876
 20
29.67380131857346
 30
0.0
  0
SPLINE
  5
2F6
330
1F
100
AcDbEntity
  8
0
  6
Continuous
 62
     7
370
    25
100
AcDbSpline
210
0.0
220
0.0
230
1.0
 70
     8
 71
     3
 72
     8
 73
     4
 74
     0
 42
0.000000001
 43
0.00000001
 40
0.0
 40
0.0
 40
0.0
 40
0.0
 40
1.0
 40
1.0
 40
1.0
 40
1.0
 10
560.389932159876
 20
34.09863002061696
 30
0.0
 10
560.1176654728646
 20
33.37578994984769
 30
0.0
 10
559.9433501724848
 20
32.64133647590199
 30
0.0
 10
559.9433501724848
 20
31.88621566959517
 30
0.0
  0
LINE
  5
2F7
330
1F
100
AcDbEntity
  8
0
  6
Continuous
 62
     7
370
    25
100
AcDbLine
 10
560.3899321599
 20
34.0986300206
 30
0.0
 11
563.9433501725
 21
34.0986300206
 31
0.0
  0
LINE
  5
2F8
330
1F
100
AcDbEntity
  8
0
  6
Continuous
 62
     7
370
    25
100
AcDbLine
 10
563.9433501725
 20
29.6738013186
 30
0.0
 11
560.3899321599
 21
29.6738013186
 31
0.0
  0
SPLINE
  5
2F9
330
1F
100
AcDbEntity
  8
0
  6
Continuous
 62
     7
370
    25
100
AcDbSpline
210
0.0
220
0.0
230
1.0
 70
     8
 71
     3
 72
     8
 73
     4
 74
     0
 42
0.000000001
 43
0.00000001
 40
0.0
 40
0.0
 40
0.0
 40
0.0
 40
1.0
 40
1.0
 40
1.0
 40
1.0
 10
559.9433501724845
 20
26.96169344421817
 30
0.0
 10
559.9433501724845
 20
26.03602186559788
 30
0.0
 10
560.117665472864
 20
25.13568552077858
 30
0.0
 10
560.389932159876
 20
24.2495855698694
 30
0.0
  0
SPLINE
  5
2FA
330
1F
100
AcDbEntity
  8
0
  6
Continuous
 62
     7
370
    25
100
AcDbSpline
210
0.0
220
0.0
230
1.0
 70
     8
 71
     3
 72
     8
 73
     4
 74
     0
 42
0.000000001
 43
0.00000001
 40
0.0
 40
0.0
 40
0.0
 40
0.0
 40
1.0
 40
1.0
 40
1.0
 40
1.0
 10
560.3899321598759
 20
29.67380131856684
 30
0.0
 10
560.1176654728645
 20
28.78770136765933
 30
0.0
 10
559.9433501724845
 20
27.8873650228367
 30
0.0
 10
559.9433501724845
 20
26.96169344421817
 30
0.0
  0
LINE
  5
2FB
330
1F
100
AcDbEntity
  8
0
  6
Continuous
 62
     7
370
    25
100
AcDbLine
 10
563.9433501725
 20
24.2495855699
 30
0.0
 11
560.3899321599
 21
24.2495855699
 31
0.0
  0
LINE
  5
2FC
330
1F
100
AcDbEntity
  8
0
  6
Continuous
 62
     7
370
    25
100
AcDbLine
 10
559.9433501725
 20
31.8862156696
 30
0.0
 11
559.9433501725
 21
26.9616934442
 31
0.0
  0
SPLINE
  5
2FD
330
1F
100
AcDbEntity
  8
0
  6
Continuous
 62
     7
370
    25
100
AcDbSpline
210
0.0
220
0.0
230
1.0
 70
     8
 71
     3
 72
     8
 73
     4
 74
     0
 42
0.000000001
 43
0.00000001
 40
0.0
 40
0.0
 40
0.0
 40
0.0
 40
1.0
 40
1.0
 40
1.0
 40
1.0
 10
560.389932159876
 20
24.24958556986498
 30
0.0
 10
560.1176654728646
 20
24.08632568972657
 30
0.0
 10
559.9433501724847
 20
23.92044281885015
 30
0.0
 10
559.9433501724847
 20
23.74989204653827
 30
0.0
  0
LINE
  5
2FE
330
1F
100
AcDbEntity
  8
0
  6
Continuous
 62
     7
370
    25
100
AcDbLine
 10
559.9433501725
 20
26.9616934442
 30
0.0
 11
559.9433501725
 21
23.7498920465
 31
0.0
  0
SPLINE
  5
2FF
330
1F
100
AcDbEntity
  8
0
  6
Continuous
 62
     7
370
    25
100
AcDbSpline
210
0.0
220
0.0
230
1.0
 70
     8
 71
     3
 72
     8
 73
     4
 74
     0
 42
0.000000001
 43
0.00000001
 40
0.0
 40
0.0
 40
0.0
 40
0.0
 40
1.0
 40
1.0
 40
1.0
 40
1.0
 10
559.9433501724848
 20
33.59893649729256
 30
0.0
 10
559.9433501724848
 20
33.76948726960487
 30
0.0
 10
560.1176654728639
 20
33.93537014048044
 30
0.0
 10
560.389932159876
 20
34.09863002061927
 30
0.0
  0
LINE
  5
300
330
1F
100
AcDbEntity
  8
0
  6
Continuous
 62
     7
370
    25
100
AcDbLine
 10
559.9433501725
 20
31.8862156696
 30
0.0
 11
559.9433501725
 21
33.6697762377
 31
0.0
  0
SPLINE
  5
301
330
1F
100
AcDbEntity
  8
0
  6
Continuous
 62
     7
370
    25
100
AcDbSpline
210
0.0
220
0.0
230
1.0
 70
     8
 71
     3
 72
     8
 73
     4
 74
     0
 42
0.000000001
 43
0.00000001
 40
0.0
 40
0.0
 40
0.0
 40
0.0
 40
1.0
 40
1.0
 40
1.0
 40
1.0
 10
559.9433501724847
 20
23.74989204653827
 30
0.0
 10
559.9433501724847
 20
23.57934127422608
 30
0.0
 10
560.1176654728641
 20
23.41345840335027
 30
0.0
 10
560.389932159876
 20
23.25019852321157
 30
0.0
  0
LINE
  5
302
330
1F
100
AcDbEntity
  8
0
  6
Continuous
 62
     7
370
    25
100
AcDbLine
 10
563.9433501725
 20
23.2501985232
 30
0.0
 11
560.3899321599
 21
23.2501985232
 31
0.0
  0
LINE
  5
303
330
1F
100
AcDbEntity
  8
0
  6
Continuous
 62
     7
370
    25
100
AcDbLine
 10
574.4021001725
 20
30.6014951105
 30
0.0
 11
574.4021001725
 21
31.6744142719
 31
0.0
  0
LINE
  5
304
330
1F
100
AcDbEntity
  8
0
  6
Continuous
 62
     7
370
    25
100
AcDbLine
 10
574.4021001725
 20
25.6744142719
 30
0.0
 11
574.4021001725
 21
30.6014951105
 31
0.0
  0
LINE
  5
305
330
1F
100
AcDbEntity
  8
0
  6
Continuous
 62
     7
370
    25
100
AcDbLine
 10
574.9433501725
 20
26.2156642719
 30
0.0
 11
574.9433501725
 21
31.1331642719
 31
0.0
  0
ARC
  5
306
330
1F
100
AcDbEntity
  8
0
  6
Continuous
 62
     7
370
    25
100
AcDbCircle
 10
567.2433501725
 20
6.0744142719
 30
0.0
 40
3.000000000000043
100
AcDbArc
 50
227.6305369016
 51
270.0
  0
LINE
  5
307
330
1F
100
AcDbEntity
  8
0
  6
Continuous
 62
     7
370
    25
100
AcDbLine
 10
579.2433501725
 20
3.0744142719
 30
0.0
 11
567.2433501725
 21
3.0744142719
 31
0.0
  0
ARC
  5
308
330
1F
100
AcDbEntity
  8
0
  6
Continuous
 62
     7
370
    25
100
AcDbCircle
 10
579.2433501725
 20
6.0744142719
 30
0.0
 40
3.0
100
AcDbArc
 50
270.0
 51
0.0
  0
LINE
  5
309
330
1F
100
AcDbEntity
  8
0
  6
Continuous
 62
     7
370
    25
100
AcDbLine
 10
582.2433501725
 20
7.0744142719
 30
0.0
 11
582.2433501725
 21
6.0744142719
 31
0.0
  0
LINE
  5
30A
330
1F
100
AcDbEntity
  8
0
  6
Continuous
 62
     7
370
    25
100
AcDbLine
 10
608.7726394944
 20
10.0744142719
 30
0.0
 11
585.2433501725
 21
10.0744142719
 31
0.0
  0
LINE
  5
30B
330
1F
100
AcDbEntity
  8
0
  6
Continuous
 62
     7
370
    25
100
AcDbLine
 10
608.7726394944
 20
0.4744142719
 30
0.0
 11
608.7726394944
 21
10.0744142719
 31
0.0
  0
LINE
  5
30C
330
1F
100
AcDbEntity
  8
0
  6
Continuous
 62
     7
370
    25
100
AcDbLine
 10
216.7140608506
 20
0.4744142719
 30
0.0
 11
216.7140608506
 21
10.0744142719
 31
0.0
  0
LINE
  5
30D
330
1F
100
AcDbEntity
  8
0
  6
Continuous
 62
     7
370
    25
100
AcDbLine
 10
240.2433501725
 20
10.0744142719
 30
0.0
 11
216.7140608506
 21
10.0744142719
 31
0.0
  0
ARC
  5
30E
330
1F
100
AcDbEntity
  8
0
  6
Continuous
 62
     7
370
    25
100
AcDbCircle
 10
240.2433501725
 20
7.0744142719
 30
0.0
 40
3.0
100
AcDbArc
 50
0.0
 51
90.0
  0
LINE
  5
30F
330
1F
100
AcDbEntity
  8
0
  6
Continuous
 62
     7
370
    25
100
AcDbLine
 10
243.2433501725
 20
7.0744142719
 30
0.0
 11
243.2433501725
 21
6.0744142719
 31
0.0
  0
ARC
  5
310
330
1F
100
AcDbEntity
  8
0
  6
Continuous
 62
     7
370
    25
100
AcDbCircle
 10
246.2433501725
 20
6.0744142719
 30
0.0
 40
3.0
100
AcDbArc
 50
180.0
 51
270.0
  0
LINE
  5
311
330
1F
100
AcDbEntity
  8
0
  6
Continuous
 62
     7
370
    25
100
AcDbLine
 10
246.2433501725
 20
3.0744142719
 30
0.0
 11
258.2433501725
 21
3.0744142719
 31
0.0
  0
ARC
  5
312
330
1F
100
AcDbEntity
  8
0
  6
Continuous
 62
     7
370
    25
100
AcDbCircle
 10
258.2433501725
 20
6.0744142719
 30
0.0
 40
2.999999999999996
100
AcDbArc
 50
270.0
 51
312.3694630984
  0
ARC
  5
313
330
1F
100
AcDbEntity
  8
0
  6
Continuous
 62
     7
370
    25
100
AcDbCircle
 10
585.2433501725
 20
7.0744142719
 30
0.0
 40
3.0
100
AcDbArc
 50
90.0
 51
180.0
  0
SPLINE
  5
314
330
1F
100
AcDbEntity
  8
0
  6
Continuous
 62
     7
370
    25
100
AcDbSpline
210
0.0
220
0.0
230
1.0
 70
     8
 71
     3
 72
    20
 73
    16
 74
     0
 42
0.000000001
 43
0.00000001
 40
0.0
 40
0.0
 40
0.0
 40
0.0
 40
0.125
 40
0.125
 40
0.2500000000000001
 40
0.2500000000000001
 40
0.3750000000000001
 40
0.3750000000000001
 40
0.5000000000000001
 40
0.5000000000000001
 40
0.7500000000000002
 40
0.7500000000000002
 40
0.8750000000000001
 40
0.8750000000000001
 40
1.0
 40
1.0
 40
1.0
 40
1.0
 10
217.6433501724775
 20
-1.925585728083219
 30
0.0
 10
217.6043094416229
 20
-1.925585728083219
 30
0.0
 10
217.5657907374231
 20
-1.910049167608362
 30
0.0
 10
217.4883839861153
 20
-1.848730815647758
 30
0.0
 10
217.4492395681285
 20
-1.802307070060967
 30
0.0
 10
217.3720888142133
 20
-1.682356199906837
 30
0.0
 10
217.3337612324723
 20
-1.608751555623417
 30
0.0
 10
217.2562149119958
 20
-1.434021189527783
 30
0.0
 10
217.2172387043271
 20
-1.333170560626217
 30
0.0
 10
217.101743847882
 20
-1.001885280642288
 30
0.0
 10
217.0238314042119
 20
-0.7342051192584208
 30
0.0
 10
216.908351478811
 20
-0.301531093203012
 30
0.0
 10
216.869485682946
 20
-0.1500130063518713
 30
0.0
 10
216.7917113492774
 20
0.1594127510342255
 30
0.0
 10
216.7531015823227
 20
0.3160350807279791
 30
0.0
 10
216.7140608505961
 20
0.4744142719167143
 30
0.0
  0
SPLINE
  5
315
330
1F
100
AcDbEntity
  8
0
  6
Continuous
 62
     7
370
    25
100
AcDbSpline
210
0.0
220
0.0
230
1.0
 70
     8
 71
     3
 72
    20
 73
    16
 74
     0
 42
0.000000001
 43
0.00000001
 40
0.0
 40
0.0
 40
0.0
 40
0.0
 40
0.1250000000000019
 40
0.1250000000000019
 40
0.2500000000000038
 40
0.2500000000000038
 40
0.3750000000000058
 40
0.3750000000000058
 40
0.5000000000000077
 40
0.5000000000000077
 40
0.7500000000000063
 40
0.7500000000000063
 40
0.8750000000000032
 40
0.8750000000000032
 40
1.0
 40
1.0
 40
1.0
 40
1.0
 10
608.7726394943589
 20
0.4744142719167836
 30
0.0
 10
608.7335987635045
 20
0.3160350842660795
 30
0.0
 10
608.6950800593045
 20
0.1597893595743881
 30
0.0
 10
608.6176733079966
 20
-0.1482024898422328
 30
0.0
 10
608.5785288900098
 20
-0.300846597313352
 30
0.0
 10
608.5013781360948
 20
-0.589930886500424
 30
0.0
 10
608.4630505543537
 20
-0.727735424684458
 30
0.0
 10
608.3855042338772
 20
-0.9893541003233655
 30
0.0
 10
608.3465280262085
 20
-1.112100407006038
 30
0.0
 10
608.2310331697634
 20
-1.443424783953724
 30
0.0
 10
608.1531207260934
 20
-1.622435907981962
 30
0.0
 10
608.0376408006925
 20
-1.802051007362838
 30
0.0
 10
607.9987750048275
 20
-1.848295356230559
 30
0.0
 10
607.9210006711588
 20
-1.910048662241766
 30
0.0
 10
607.8823909042042
 20
-1.925585728083219
 30
0.0
 10
607.8433501724775
 20
-1.925585728083219
 30
0.0
  0
LINE
  5
316
330
1F
100
AcDbEntity
  8
0
  6
Continuous
 62
     7
370
    25
100
AcDbLine
 10
607.8433501725
 20
-1.9255857281
 30
0.0
 11
217.6433501725
 21
-1.9255857281
 31
0.0
  0
SPLINE
  5
317
330
1F
100
AcDbEntity
  8
0
  6
Continuous
 62
     7
370
    25
100
AcDbSpline
210
0.0
220
0.0
230
1.0
 70
     8
 71
     3
 72
    20
 73
    16
 74
     0
 42
0.000000001
 43
0.00000001
 40
0.0
 40
0.0
 40
0.0
 40
0.0
 40
0.1250000000000007
 40
0.1250000000000007
 40
0.2500000000000013
 40
0.2500000000000013
 40
0.375000000000002
 40
0.375000000000002
 40
0.5000000000000027
 40
0.5000000000000027
 40
0.750000000000004
 40
0.750000000000004
 40
0.875000000000002
 40
0.875000000000002
 40
1.0
 40
1.0
 40
1.0
 40
1.0
 10
607.8433501724775
 20
-1.925585728083261
 30
0.0
 10
608.0017293601281
 20
-1.925585728083261
 30
0.0
 10
608.1579750848199
 20
-1.91004916760841
 30
0.0
 10
608.4659669342365
 20
-1.848730815647806
 30
0.0
 10
608.6186110417077
 20
-1.802307070060995
 30
0.0
 10
608.9076953308946
 20
-1.682356199906865
 30
0.0
 10
609.0454998690788
 20
-1.608751555623445
 30
0.0
 10
609.3071185447177
 20
-1.434021189527804
 30
0.0
 10
609.4298648514002
 20
-1.333170560626266
 30
0.0
 10
609.761189228348
 20
-1.00188528064234
 30
0.0
 10
609.9402003523762
 20
-0.7342051192584208
 30
0.0
 10
610.1198154517571
 20
-0.301531093203012
 30
0.0
 10
610.1660598006248
 20
-0.1500130063518956
 30
0.0
 10
610.2278131066361
 20
0.1594127510342221
 30
0.0
 10
610.2433501724776
 20
0.3160350807279965
 30
0.0
 10
610.2433501724776
 20
0.474414271916735
 30
0.0
  0
SPLINE
  5
318
330
1F
100
AcDbEntity
  8
0
  6
Continuous
 62
     7
370
    25
100
AcDbSpline
210
0.0
220
0.0
230
1.0
 70
     8
 71
     3
 72
     9
 73
     5
 74
     0
 42
0.000000001
 43
0.00000001
 40
0.0
 40
0.0
 40
0.0
 40
0.0
 40
0.4825784287292375
 40
1.0
 40
1.0
 40
1.0
 40
1.0
 10
608.619520404424
 20
-0.1381254672612395
 30
0.0
 10
608.6833285974853
 20
-0.0499911259448614
 30
0.0
 10
608.8155520647243
 20
0.1326410351081241
 30
0.0
 10
608.833871369181
 20
0.3578739191525994
 30
0.0
 10
608.8433501724775
 20
0.4744142719167385
 30
0.0
  0
LINE
  5
319
330
1F
100
AcDbEntity
  8
0
  6
Continuous
 62
     7
370
    25
100
AcDbLine
 10
610.2433501725
 20
0.4744142719
 30
0.0
 11
608.8433501725
 21
0.4744142719
 31
0.0
  0
LINE
  5
31A
330
1F
100
AcDbEntity
  8
0
  6
Continuous
 62
     7
370
    25
100
AcDbLine
 10
215.2433501725
 20
0.4744142719
 30
0.0
 11
216.6433501725
 21
0.4744142719
 31
0.0
  0
SPLINE
  5
31B
330
1F
100
AcDbEntity
  8
0
  6
Continuous
 62
     7
370
    25
100
AcDbSpline
210
0.0
220
0.0
230
1.0
 70
     8
 71
     3
 72
     9
 73
     5
 74
     0
 42
0.000000001
 43
0.00000001
 40
0.0
 40
0.0
 40
0.0
 40
0.0
 40
0.6784508005727982
 40
1.0
 40
1.0
 40
1.0
 40
1.0
 10
216.6433501724775
 20
0.4744142719167385
 30
0.0
 10
216.6565997429419
 20
0.3237070674634475
 30
0.0
 10
216.676128897382
 20
0.1015727515689818
 30
0.0
 10
216.816976551021
 20
-0.065260353320197
 30
0.0
 10
216.8622660012898
 20
-0.1189054046352653
 30
0.0
  0
SPLINE
  5
31C
330
1F
100
AcDbEntity
  8
0
  6
Continuous
 62
     7
370
    25
100
AcDbSpline
210
0.0
220
0.0
230
1.0
 70
     8
 71
     3
 72
    20
 73
    16
 74
     0
 42
0.000000001
 43
0.00000001
 40
0.0
 40
0.0
 40
0.0
 40
0.0
 40
0.1250000000000021
 40
0.1250000000000021
 40
0.250000000000004
 40
0.250000000000004
 40
0.3750000000000059
 40
0.3750000000000059
 40
0.5000000000000078
 40
0.5000000000000078
 40
0.7500000000000064
 40
0.7500000000000064
 40
0.8750000000000032
 40
0.8750000000000032
 40
1.0
 40
1.0
 40
1.0
 40
1.0
 10
215.2433501724775
 20
0.474414271916735
 30
0.0
 10
215.2433501724774
 20
0.3160350842660309
 30
0.0
 10
215.2588867329524
 20
0.1597893595743569
 30
0.0
 10
215.3202050849129
 20
-0.148202489842271
 30
0.0
 10
215.3666288304999
 20
-0.3008465973133763
 30
0.0
 10
215.4865797006539
 20
-0.5899308865004449
 30
0.0
 10
215.5601843449373
 20
-0.7277354246845169
 30
0.0
 10
215.7349147110329
 20
-0.9893541003234314
 30
0.0
 10
215.8357653399345
 20
-1.112100407006062
 30
0.0
 10
216.1670506199184
 20
-1.443424783953765
 30
0.0
 10
216.4347307813023
 20
-1.622435907981994
 30
0.0
 10
216.8674048073577
 20
-1.802051007362873
 30
0.0
 10
217.0189228942089
 20
-1.8482953562306
 30
0.0
 10
217.328348651595
 20
-1.910048662241814
 30
0.0
 10
217.4849709812887
 20
-1.925585728083261
 30
0.0
 10
217.6433501724775
 20
-1.925585728083261
 30
0.0
  0
LINE
  5
31D
330
1F
100
AcDbEntity
  8
0
  6
Continuous
 62
     7
370
    25
100
AcDbLine
 10
610.2433501725
 20
10.0744142719
 30
0.0
 11
608.8433501725
 21
10.0744142719
 31
0.0
  0
LINE
  5
31E
330
1F
100
AcDbEntity
  8
0
  6
Continuous
 62
     7
370
    25
100
AcDbLine
 10
608.8433501725
 20
0.4744142719
 30
0.0
 11
608.8433501725
 21
10.0744142719
 31
0.0
  0
LINE
  5
31F
330
1F
100
AcDbEntity
  8
0
  6
Continuous
 62
     7
370
    25
100
AcDbLine
 10
610.2433501725
 20
0.4744142719
 30
0.0
 11
610.2433501725
 21
10.0744142719
 31
0.0
  0
LINE
  5
320
330
1F
100
AcDbEntity
  8
0
  6
Continuous
 62
     7
370
    25
100
AcDbLine
 10
215.2433501725
 20
0.4744142719
 30
0.0
 11
215.2433501725
 21
10.0744142719
 31
0.0
  0
LINE
  5
321
330
1F
100
AcDbEntity
  8
0
  6
Continuous
 62
     7
370
    25
100
AcDbLine
 10
216.6433501725
 20
0.4744142719
 30
0.0
 11
216.6433501725
 21
10.0744142719
 31
0.0
  0
LINE
  5
322
330
1F
100
AcDbEntity
  8
0
  6
Continuous
 62
     7
370
    25
100
AcDbLine
 10
215.2433501725
 20
10.0744142719
 30
0.0
 11
216.6433501725
 21
10.0744142719
 31
0.0
  0
LINE
  5
323
330
1F
100
AcDbEntity
  8
0
  6
Continuous
 62
     7
370
    25
100
AcDbLine
 10
565.7433501725
 20
34.1744142719
 30
0.0
 11
565.7433501725
 21
17.1744142719
 31
0.0
  0
LINE
  5
324
330
1F
100
AcDbEntity
  8
0
  6
Continuous
 62
     7
370
    25
100
AcDbLine
 10
564.9433501725
 20
34.1744142719
 30
0.0
 11
564.9433501725
 21
17.1744142719
 31
0.0
  0
LINE
  5
325
330
1F
100
AcDbEntity
  8
0
  6
Continuous
 62
     7
370
    25
100
AcDbLine
 10
564.9433501725
 20
37.1744142719
 30
0.0
 11
565.7433501725
 21
37.1744142719
 31
0.0
  0
LINE
  5
326
330
1F
100
AcDbEntity
  8
0
  6
Continuous
 62
     7
370
    25
100
AcDbLine
 10
565.7433501725
 20
37.1744142719
 30
0.0
 11
565.7433501725
 21
34.1744142719
 31
0.0
  0
LINE
  5
327
330
1F
100
AcDbEntity
  8
0
  6
Continuous
 62
     7
370
    25
100
AcDbLine
 10
564.9433501725
 20
34.1744142719
 30
0.0
 11
564.9433501725
 21
37.1744142719
 31
0.0
  0
LINE
  5
328
330
1F
100
AcDbEntity
  8
0
  6
Continuous
 62
     7
370
    25
100
AcDbLine
 10
260.5433501725
 20
17.1744142719
 30
0.0
 11
260.5433501725
 21
34.1744142719
 31
0.0
  0
LINE
  5
329
330
1F
100
AcDbEntity
  8
0
  6
Continuous
 62
     7
370
    25
100
AcDbLine
 10
259.7433501725
 20
17.1744142719
 30
0.0
 11
259.7433501725
 21
34.1744142719
 31
0.0
  0
LINE
  5
32A
330
1F
100
AcDbEntity
  8
0
  6
Continuous
 62
     7
370
    25
100
AcDbLine
 10
259.7433501725
 20
37.1744142719
 30
0.0
 11
260.5433501725
 21
37.1744142719
 31
0.0
  0
LINE
  5
32B
330
1F
100
AcDbEntity
  8
0
  6
Continuous
 62
     7
370
    25
100
AcDbLine
 10
260.5433501725
 20
37.1744142719
 30
0.0
 11
260.5433501725
 21
34.1744142719
 31
0.0
  0
LINE
  5
32C
330
1F
100
AcDbEntity
  8
0
  6
Continuous
 62
     7
370
    25
100
AcDbLine
 10
259.7433501725
 20
34.1744142719
 30
0.0
 11
259.7433501725
 21
37.1744142719
 31
0.0
  0
LINE
  5
32D
330
1F
100
AcDbEntity
  8
0
  6
Continuous
 62
     7
370
    25
100
AcDbLine
 10
565.7433501725
 20
14.1744142719
 30
0.0
 11
564.9433501725
 21
14.1744142719
 31
0.0
  0
LINE
  5
32E
330
1F
100
AcDbEntity
  8
0
  6
Continuous
 62
     7
370
    25
100
AcDbLine
 10
565.7433501725
 20
17.1744142719
 30
0.0
 11
565.7433501725
 21
14.1744142719
 31
0.0
  0
LINE
  5
32F
330
1F
100
AcDbEntity
  8
0
  6
Continuous
 62
     7
370
    25
100
AcDbLine
 10
564.9433501725
 20
14.1744142719
 30
0.0
 11
564.9433501725
 21
17.1744142719
 31
0.0
  0
LINE
  5
330
330
1F
100
AcDbEntity
  8
0
  6
Continuous
 62
     7
370
    25
100
AcDbLine
 10
260.5433501725
 20
14.1744142719
 30
0.0
 11
259.7433501725
 21
14.1744142719
 31
0.0
  0
LINE
  5
331
330
1F
100
AcDbEntity
  8
0
  6
Continuous
 62
     7
370
    25
100
AcDbLine
 10
260.5433501725
 20
17.1744142719
 30
0.0
 11
260.5433501725
 21
14.1744142719
 31
0.0
  0
LINE
  5
332
330
1F
100
AcDbEntity
  8
0
  6
Continuous
 62
     7
370
    25
100
AcDbLine
 10
259.7433501725
 20
14.1744142719
 30
0.0
 11
259.7433501725
 21
17.1744142719
 31
0.0
  0
LINE
  5
333
330
1F
100
AcDbEntity
  8
0
  6
Continuous
 62
     7
370
    25
100
AcDbLine
 10
562.7433501725
 20
16.1744142719
 30
0.0
 11
562.7433501725
 21
16.9744142719
 31
0.0
  0
LINE
  5
334
330
1F
100
AcDbEntity
  8
0
  6
Continuous
 62
     7
370
    25
100
AcDbLine
 10
262.7433501725
 20
16.1744142719
 30
0.0
 11
262.7433501725
 21
16.9744142719
 31
0.0
  0
LINE
  5
335
330
1F
100
AcDbEntity
  8
0
  6
Continuous
 62
     7
370
    25
100
AcDbLine
 10
562.7433501725
 20
16.9744142719
 30
0.0
 11
262.7433501725
 21
16.9744142719
 31
0.0
  0
LINE
  5
336
330
1F
100
AcDbEntity
  8
0
  6
Continuous
 62
     7
370
    25
100
AcDbLine
 10
338.2433501725
 20
57.0790276637
 30
0.0
 11
338.2433501725
 21
50.5613362101
 31
0.0
  0
LINE
  5
337
330
1F
100
AcDbEntity
  8
0
  6
Continuous
 62
     7
370
    25
100
AcDbLine
 10
488.2433501725
 20
50.5613362101
 30
0.0
 11
488.2433501725
 21
57.0790276637
 31
0.0
  0
LINE
  5
338
330
1F
100
AcDbEntity
  8
0
  6
Continuous
 62
     7
370
    25
100
AcDbLine
 10
485.2433501725
 20
60.0790276637
 30
0.0
 11
341.2433501725
 21
60.0790276637
 31
0.0
  0
ARC
  5
339
330
1F
100
AcDbEntity
  8
0
  6
Continuous
 62
     7
370
    25
100
AcDbCircle
 10
341.2433501725
 20
57.0790276637
 30
0.0
 40
3.0
100
AcDbArc
 50
90.0
 51
180.0
  0
ARC
  5
33A
330
1F
100
AcDbEntity
  8
0
  6
Continuous
 62
     7
370
    25
100
AcDbCircle
 10
485.2433501725
 20
57.0790276637
 30
0.0
 40
3.0
100
AcDbArc
 50
0.0
 51
90.0
  0
LINE
  5
33B
330
1F
100
AcDbEntity
  8
0
  6
Continuous
 62
     7
370
    25
100
AcDbLine
 10
488.2433501725
 20
50.5613362101
 30
0.0
 11
488.2433501725
 21
49.6613362101
 31
0.0
  0
LINE
  5
33C
330
1F
100
AcDbEntity
  8
0
  6
Continuous
 62
     7
370
    25
100
AcDbLine
 10
338.2433501725
 20
49.6613362101
 30
0.0
 11
338.2433501725
 21
50.5613362101
 31
0.0
  0
LINE
  5
33D
330
1F
100
AcDbEntity
  8
0
  6
Continuous
 62
     7
370
    25
100
AcDbLine
 10
488.2433501725
 20
49.6613362101
 30
0.0
 11
488.2433501725
 21
43.0364650795
 31
0.0
  0
LINE
  5
33E
330
1F
100
AcDbEntity
  8
0
  6
Continuous
 62
     7
370
    25
100
AcDbLine
 10
338.2433501725
 20
43.0364650795
 30
0.0
 11
338.2433501725
 21
49.6613362101
 31
0.0
  0
LINE
  5
33F
330
1F
100
AcDbEntity
  8
0
  6
Continuous
 62
     7
370
    25
100
AcDbLine
 10
564.9433501725
 20
37.1744142719
 30
0.0
 11
563.9433501725
 21
37.1744142719
 31
0.0
  0
LINE
  5
340
330
1F
100
AcDbEntity
  8
0
  6
Continuous
 62
     7
370
    25
100
AcDbLine
 10
563.9433501725
 20
18.1744142719
 30
0.0
 11
564.9433501725
 21
18.1744142719
 31
0.0
  0
LINE
  5
341
330
1F
100
AcDbEntity
  8
0
  6
Continuous
 62
     7
370
    25
100
AcDbLine
 10
260.5433501725
 20
18.1744142719
 30
0.0
 11
261.5433501725
 21
18.1744142719
 31
0.0
  0
LINE
  5
342
330
1F
100
AcDbEntity
  8
0
  6
Continuous
 62
     7
370
    25
100
AcDbLine
 10
261.5433501725
 20
37.1744142719
 30
0.0
 11
260.5433501725
 21
37.1744142719
 31
0.0
  0
LINE
  5
343
330
1F
100
AcDbEntity
  8
0
  6
Continuous
 62
     7
370
    25
100
AcDbLine
 10
562.7433501725
 20
16.9744142719
 30
0.0
 11
562.7433501725
 21
17.9744142719
 31
0.0
  0
LINE
  5
344
330
1F
100
AcDbEntity
  8
0
  6
Continuous
 62
     7
370
    25
100
AcDbLine
 10
262.7433501725
 20
17.9744142719
 30
0.0
 11
262.7433501725
 21
16.9744142719
 31
0.0
  0
LINE
  5
345
330
1F
100
AcDbEntity
  8
0
  6
Continuous
 62
     7
370
    25
100
AcDbLine
 10
338.2433501725
 20
43.0364650795
 30
0.0
 11
338.2433501725
 21
42.5364650795
 31
0.0
  0
LINE
  5
346
330
1F
100
AcDbEntity
  8
0
  6
Continuous
 62
     7
370
    25
100
AcDbLine
 10
488.2433501725
 20
42.5364650795
 30
0.0
 11
488.2433501725
 21
43.0364650795
 31
0.0
  0
LINE
  5
347
330
1F
100
AcDbEntity
  8
0
  6
Continuous
 62
     7
370
    25
100
AcDbLine
 10
563.9433501725
 20
37.1744142719
 30
0.0
 11
560.7433501725
 21
37.1744142719
 31
0.0
  0
LINE
  5
348
330
1F
100
AcDbEntity
  8
0
  6
Continuous
 62
     7
370
    25
100
AcDbLine
 10
562.7433501725
 20
18.1744142719
 30
0.0
 11
563.9433501725
 21
18.1744142719
 31
0.0
  0
LINE
  5
349
330
1F
100
AcDbEntity
  8
0
  6
Continuous
 62
     7
370
    25
100
AcDbLine
 10
562.7433501725
 20
17.9744142719
 30
0.0
 11
562.7433501725
 21
18.1744142719
 31
0.0
  0
LINE
  5
34A
330
1F
100
AcDbEntity
  8
0
  6
Continuous
 62
     7
370
    25
100
AcDbLine
 10
262.7433501725
 20
18.1744142719
 30
0.0
 11
262.7433501725
 21
17.9744142719
 31
0.0
  0
LINE
  5
34B
330
1F
100
AcDbEntity
  8
0
  6
Continuous
 62
     7
370
    25
100
AcDbLine
 10
261.5433501725
 20
18.1744142719
 30
0.0
 11
262.7433501725
 21
18.1744142719
 31
0.0
  0
LINE
  5
34C
330
1F
100
AcDbEntity
  8
0
  6
Continuous
 62
     7
370
    25
100
AcDbLine
 10
264.7433501725
 20
37.1744142719
 30
0.0
 11
261.5433501725
 21
37.1744142719
 31
0.0
  0
LINE
  5
34D
330
1F
100
AcDbEntity
  8
0
  6
Continuous
 62
     7
370
    25
100
AcDbLine
 10
264.7433501725
 20
58.1744142719
 30
0.0
 11
264.7433501725
 21
37.1744142719
 31
0.0
  0
ARC
  5
34E
330
1F
100
AcDbEntity
  8
0
  6
Continuous
 62
     7
370
    25
100
AcDbCircle
 10
267.7433501725
 20
58.1744142719
 30
0.0
 40
3.000000000000007
100
AcDbArc
 50
90.0
 51
180.0
  0
LINE
  5
34F
330
1F
100
AcDbEntity
  8
0
  6
Continuous
 62
     7
370
    25
100
AcDbLine
 10
332.7433501725
 20
61.1744142719
 30
0.0
 11
267.7433501725
 21
61.1744142719
 31
0.0
  0
ARC
  5
350
330
1F
100
AcDbEntity
  8
0
  6
Continuous
 62
     7
370
    25
100
AcDbCircle
 10
332.7433501725
 20
58.1744142719
 30
0.0
 40
3.000000000000007
100
AcDbArc
 50
0.0
 51
90.0
  0
LINE
  5
351
330
1F
100
AcDbEntity
  8
0
  6
Continuous
 62
     7
370
    25
100
AcDbLine
 10
335.7433501725
 20
58.1744142719
 30
0.0
 11
335.7433501725
 21
42.0444142719
 31
0.0
  0
LINE
  5
352
330
1F
100
AcDbEntity
  8
0
  6
Continuous
 62
     7
370
    25
100
AcDbLine
 10
335.7433501725
 20
42.0444142719
 30
0.0
 11
338.2433501725
 21
42.0444142719
 31
0.0
  0
LINE
  5
353
330
1F
100
AcDbEntity
  8
0
  6
Continuous
 62
     7
370
    25
100
AcDbLine
 10
338.2433501725
 20
42.5364650795
 30
0.0
 11
338.2433501725
 21
42.0444142719
 31
0.0
  0
LINE
  5
354
330
1F
100
AcDbEntity
  8
0
  6
Continuous
 62
     7
370
    25
100
AcDbLine
 10
488.2433501725
 20
42.5364650795
 30
0.0
 11
488.2433501725
 21
42.0444142719
 31
0.0
  0
LINE
  5
355
330
1F
100
AcDbEntity
  8
0
  6
Continuous
 62
     7
370
    25
100
AcDbLine
 10
488.2433501725
 20
42.0444142719
 30
0.0
 11
490.7433501725
 21
42.0444142719
 31
0.0
  0
LINE
  5
356
330
1F
100
AcDbEntity
  8
0
  6
Continuous
 62
     7
370
    25
100
AcDbLine
 10
490.7433501725
 20
42.0444142719
 30
0.0
 11
490.7433501725
 21
58.1744142719
 31
0.0
  0
ARC
  5
357
330
1F
100
AcDbEntity
  8
0
  6
Continuous
 62
     7
370
    25
100
AcDbCircle
 10
493.7433501725
 20
58.1744142719
 30
0.0
 40
3.000000000000007
100
AcDbArc
 50
90.0
 51
180.0
  0
LINE
  5
358
330
1F
100
AcDbEntity
  8
0
  6
Continuous
 62
     7
370
    25
100
AcDbLine
 10
557.7433501725
 20
61.1744142719
 30
0.0
 11
493.7433501725
 21
61.1744142719
 31
0.0
  0
ARC
  5
359
330
1F
100
AcDbEntity
  8
0
  6
Continuous
 62
     7
370
    25
100
AcDbCircle
 10
557.7433501725
 20
58.1744142719
 30
0.0
 40
3.000000000000007
100
AcDbArc
 50
0.0
 51
90.0
  0
LINE
  5
35A
330
1F
100
AcDbEntity
  8
0
  6
Continuous
 62
     7
370
    25
100
AcDbLine
 10
560.7433501725
 20
37.1744142719
 30
0.0
 11
560.7433501725
 21
58.1744142719
 31
0.0
  0
SPLINE
  5
35B
330
1F
100
AcDbEntity
  8
0
  6
Continuous
 62
     7
370
    25
100
AcDbSpline
210
0.0
220
0.0
230
1.0
 70
     8
 71
     3
 72
     9
 73
     5
 74
     0
 42
0.000000001
 43
0.00000001
 40
0.0
 40
0.0
 40
0.0
 40
0.0
 40
0.6277651913045489
 40
0.9999999999999999
 40
0.9999999999999999
 40
0.9999999999999999
 40
0.9999999999999999
 10
540.698408133843
 20
17.38464019686205
 30
0.0
 10
540.6491010337015
 20
17.38966779633754
 30
0.0
 10
540.5705571755449
 20
17.39767652244266
 30
0.0
 10
540.4954265509541
 20
17.53716994852915
 30
0.0
 10
540.4674603172823
 20
17.58909425730274
 30
0.0
  0
SPLINE
  5
35C
330
1F
100
AcDbEntity
  8
0
  6
Continuous
 62
     7
370
    25
100
AcDbSpline
210
0.0
220
0.0
230
1.0
 70
     8
 71
     3
 72
    12
 73
     8
 74
     0
 42
0.000000001
 43
0.00000001
 40
0.0
 40
0.0
 40
0.0
 40
0.0
 40
0.5000000000000014
 40
0.5000000000000014
 40
0.7500000000000007
 40
0.7500000000000007
 40
1.0
 40
1.0
 40
1.0
 40
1.0
 10
540.4674603172822
 20
17.58909425730175
 30
0.0
 10
540.9794664689871
 20
17.39859996787823
 30
0.0
 10
541.4991440152553
 20
17.27692555481585
 30
0.0
 10
542.2989318728179
 20
17.27626936428462
 30
0.0
 10
542.5652558196659
 20
17.30610336607901
 30
0.0
 10
543.0884133226673
 20
17.41503323618661
 30
0.0
 10
543.3468779538158
 20
17.49372842324948
 30
0.0
 10
543.6032000401377
 20
17.58909425730224
 30
0.0
  0
SPLINE
  5
35D
330
1F
100
AcDbEntity
  8
0
  6
Continuous
 62
     7
370
    25
100
AcDbSpline
210
0.0
220
0.0
230
1.0
 70
     8
 71
     3
 72
    12
 73
     8
 74
     0
 42
0.000000001
 43
0.00000001
 40
0.0
 40
0.0
 40
0.0
 40
0.0
 40
0.499999999999987
 40
0.499999999999987
 40
0.7499999999999934
 40
0.7499999999999934
 40
1.0
 40
1.0
 40
1.0
 40
1.0
 10
543.6032000401375
 20
17.58909425730175
 30
0.0
 10
544.2197304300578
 20
17.39859996787823
 30
0.0
 10
544.8454983025075
 20
17.27692555481585
 30
0.0
 10
545.8085600118924
 20
17.27626936428462
 30
0.0
 10
546.1292530470221
 20
17.30610336607902
 30
0.0
 10
546.759211297018
 20
17.41503323618661
 30
0.0
 10
547.070440565049
 20
17.49372842324948
 30
0.0
 10
547.3790898953337
 20
17.58909425730223
 30
0.0
  0
SPLINE
  5
35E
330
1F
100
AcDbEntity
  8
0
  6
Continuous
 62
     7
370
    25
100
AcDbSpline
210
0.0
220
0.0
230
1.0
 70
     8
 71
     3
 72
    14
 73
    10
 74
     0
 42
0.000000001
 43
0.00000001
 40
0.0
 40
0.0
 40
0.0
 40
0.0
 40
0.25
 40
0.25
 40
0.5
 40
0.5
 40
0.75
 40
0.75
 40
1.0
 40
1.0
 40
1.0
 40
1.0
 10
547.3790898953335
 20
17.58909425730273
 30
0.0
 10
547.4311476042244
 20
17.49421964799212
 30
0.0
 10
547.4844811425525
 20
17.41461472311637
 30
0.0
 10
547.5914131501805
 20
17.30577810822213
 30
0.0
 10
547.6451665166281
 20
17.27645450253164
 30
0.0
 10
547.7533455680518
 20
17.27651928427724
 30
0.0
 10
547.8081742646398
 20
17.30667547760359
 30
0.0
 10
547.9150812472996
 20
17.41626067896931
 30
0.0
 10
547.967502762272
 20
17.49480365277148
 30
0.0
 10
548.0192400276741
 20
17.58909425730273
 30
0.0
  0
LINE
  5
35F
330
1F
100
AcDbEntity
  8
0
  6
Continuous
 62
     7
370
    25
100
AcDbLine
 10
547.3933501725
 20
17.0744142719
 30
0.0
 11
541.0933501725
 21
17.0744142719
 31
0.0
  0
SPLINE
  5
360
330
1F
100
AcDbEntity
  8
0
  6
Continuous
 62
     7
370
    25
100
AcDbSpline
210
0.0
220
0.0
230
1.0
 70
     8
 71
     3
 72
    12
 73
     8
 74
     0
 42
0.000000001
 43
0.00000001
 40
0.0
 40
0.0
 40
0.0
 40
0.0
 40
0.5000000000000058
 40
0.5000000000000058
 40
0.7500000000000029
 40
0.7500000000000029
 40
1.0
 40
1.0
 40
1.0
 40
1.0
 10
547.3790898953337
 20
19.75973428653171
 30
0.0
 10
546.7625595054134
 20
19.95022857595523
 30
0.0
 10
546.1367916329635
 20
20.07190298901759
 30
0.0
 10
545.1737299235787
 20
20.07255917954884
 30
0.0
 10
544.8530368884491
 20
20.04272517775444
 30
0.0
 10
544.2230786384531
 20
19.93379530764686
 30
0.0
 10
543.9118493704221
 20
19.85510012058398
 30
0.0
 10
543.6032000401375
 20
19.75973428653122
 30
0.0
  0
LINE
  5
361
330
1F
100
AcDbEntity
  8
0
  6
Continuous
 62
     7
370
    25
100
AcDbLine
 10
547.3790898953
 20
19.7597342865
 30
0.0
 11
547.3790898953
 21
17.5890942573
 31
0.0
  0
LINE
  5
362
330
1F
100
AcDbEntity
  8
0
  6
Continuous
 62
     7
370
    25
100
AcDbLine
 10
543.6032000401
 20
19.7597342865
 30
0.0
 11
543.6032000401
 21
17.5890942573
 31
0.0
  0
SPLINE
  5
363
330
1F
100
AcDbEntity
  8
0
  6
Continuous
 62
     7
370
    25
100
AcDbSpline
210
0.0
220
0.0
230
1.0
 70
     8
 71
     3
 72
    14
 73
    10
 74
     0
 42
0.000000001
 43
0.00000001
 40
0.0
 40
0.0
 40
0.0
 40
0.0
 40
0.25
 40
0.25
 40
0.5
 40
0.5
 40
0.75
 40
0.75
 40
1.0
 40
1.0
 40
1.0
 40
1.0
 10
547.3790898953335
 20
19.75973428653073
 30
0.0
 10
547.4311476042244
 20
19.85460889584134
 30
0.0
 10
547.4844811425525
 20
19.93421382071709
 30
0.0
 10
547.5914131501805
 20
20.04305043561131
 30
0.0
 10
547.6451665166281
 20
20.07237404130182
 30
0.0
 10
547.7533455680519
 20
20.07230925955622
 30
0.0
 10
547.8081742646398
 20
20.04215306622986
 30
0.0
 10
547.9150812472997
 20
19.93256786486415
 30
0.0
 10
547.967502762272
 20
19.85402489106198
 30
0.0
 10
548.0192400276741
 20
19.75973428653072
 30
0.0
  0
SPLINE
  5
364
330
1F
100
AcDbEntity
  8
0
  6
Continuous
 62
     7
370
    25
100
AcDbSpline
210
0.0
220
0.0
230
1.0
 70
     8
 71
     3
 72
    12
 73
     8
 74
     0
 42
0.000000001
 43
0.00000001
 40
0.0
 40
0.0
 40
0.0
 40
0.0
 40
0.4999999999999858
 40
0.4999999999999858
 40
0.7499999999999929
 40
0.7499999999999929
 40
1.0
 40
1.0
 40
1.0
 40
1.0
 10
543.6032000401377
 20
19.75973428653172
 30
0.0
 10
543.0911938884328
 20
19.95022857595524
 30
0.0
 10
542.5715163421646
 20
20.07190298901759
 30
0.0
 10
541.7717284846021
 20
20.07255917954884
 30
0.0
 10
541.5054045377541
 20
20.04272517775444
 30
0.0
 10
540.9822470347526
 20
19.93379530764685
 30
0.0
 10
540.7237824036043
 20
19.85510012058397
 30
0.0
 10
540.4674603172822
 20
19.75973428653123
 30
0.0
  0
SPLINE
  5
365
330
1F
100
AcDbEntity
  8
0
  6
Continuous
 62
     7
370
    25
100
AcDbSpline
210
0.0
220
0.0
230
1.0
 70
     8
 71
     3
 72
     9
 73
     5
 74
     0
 42
0.000000001
 43
0.00000001
 40
0.0
 40
0.0
 40
0.0
 40
0.0
 40
0.3722348086954296
 40
1.0
 40
1.0
 40
1.0
 40
1.0
 10
540.4674603172823
 20
19.75973428653071
 30
0.0
 10
540.4954265509541
 20
19.81165859530429
 30
0.0
 10
540.5705571755449
 20
19.95115202139081
 30
0.0
 10
540.6491010337015
 20
19.95916074749593
 30
0.0
 10
540.698408133843
 20
19.96418834697141
 30
0.0
  0
LINE
  5
366
330
1F
100
AcDbEntity
  8
0
  6
Continuous
 62
     7
370
    25
100
AcDbLine
 10
547.3933501725
 20
20.2744142719
 30
0.0
 11
541.0933501725
 21
20.2744142719
 31
0.0
  0
LINE
  5
367
330
1F
100
AcDbEntity
  8
0
  6
Continuous
 62
     7
370
    25
100
AcDbLine
 10
540.4674603173
 20
19.7597342865
 30
0.0
 11
540.4674603173
 21
17.5890942573
 31
0.0
  0
LINE
  5
368
330
1F
100
AcDbEntity
  8
0
  6
Continuous
 62
     7
370
    25
100
AcDbLine
 10
548.0192400277
 20
19.7597342865
 30
0.0
 11
548.0192400277
 21
17.5890942573
 31
0.0
  0
SPLINE
  5
369
330
1F
100
AcDbEntity
  8
0
  6
Continuous
 62
     7
370
    25
100
AcDbSpline
210
0.0
220
0.0
230
1.0
 70
     8
 71
     3
 72
    14
 73
    10
 74
     0
 42
0.000000001
 43
0.00000001
 40
0.0
 40
0.0
 40
0.0
 40
0.0
 40
0.25
 40
0.25
 40
0.5
 40
0.5
 40
0.75
 40
0.75
 40
1.0
 40
1.0
 40
1.0
 40
1.0
 10
415.3790898953335
 20
19.75973428653073
 30
0.0
 10
415.4311476042243
 20
19.85460889584133
 30
0.0
 10
415.4844811425525
 20
19.93421382071709
 30
0.0
 10
415.5914131501805
 20
20.04305043561131
 30
0.0
 10
415.6451665166281
 20
20.07237404130181
 30
0.0
 10
415.7533455680518
 20
20.07230925955622
 30
0.0
 10
415.8081742646398
 20
20.04215306622986
 30
0.0
 10
415.9150812472996
 20
19.93256786486416
 30
0.0
 10
415.967502762272
 20
19.85402489106198
 30
0.0
 10
416.0192400276741
 20
19.75973428653073
 30
0.0
  0
SPLINE
  5
36A
330
1F
100
AcDbEntity
  8
0
  6
Continuous
 62
     7
370
    25
100
AcDbSpline
210
0.0
220
0.0
230
1.0
 70
     8
 71
     3
 72
    12
 73
     8
 74
     0
 42
0.000000001
 43
0.00000001
 40
0.0
 40
0.0
 40
0.0
 40
0.0
 40
0.5000000000000037
 40
0.5000000000000037
 40
0.7500000000000018
 40
0.7500000000000018
 40
1.0
 40
1.0
 40
1.0
 40
1.0
 10
415.3790898953337
 20
19.75973428653171
 30
0.0
 10
414.7625595054134
 20
19.95022857595522
 30
0.0
 10
414.1367916329636
 20
20.07190298901758
 30
0.0
 10
413.1737299235787
 20
20.07255917954884
 30
0.0
 10
412.853036888449
 20
20.04272517775444
 30
0.0
 10
412.2230786384531
 20
19.93379530764685
 30
0.0
 10
411.9118493704221
 20
19.85510012058397
 30
0.0
 10
411.6032000401375
 20
19.75973428653122
 30
0.0
  0
SPLINE
  5
36B
330
1F
100
AcDbEntity
  8
0
  6
Continuous
 62
     7
370
    25
100
AcDbSpline
210
0.0
220
0.0
230
1.0
 70
     8
 71
     3
 72
    12
 73
     8
 74
     0
 42
0.000000001
 43
0.00000001
 40
0.0
 40
0.0
 40
0.0
 40
0.0
 40
0.5000000000000064
 40
0.5000000000000064
 40
0.7500000000000032
 40
0.7500000000000032
 40
1.0
 40
1.0
 40
1.0
 40
1.0
 10
411.6032000401377
 20
19.75973428653171
 30
0.0
 10
411.0911938884328
 20
19.95022857595523
 30
0.0
 10
410.5715163421646
 20
20.0719029890176
 30
0.0
 10
409.771728484602
 20
20.07255917954883
 30
0.0
 10
409.505404537754
 20
20.04272517775444
 30
0.0
 10
408.9822470347526
 20
19.93379530764685
 30
0.0
 10
408.7237824036043
 20
19.85510012058398
 30
0.0
 10
408.4674603172822
 20
19.75973428653122
 30
0.0
  0
SPLINE
  5
36C
330
1F
100
AcDbEntity
  8
0
  6
Continuous
 62
     7
370
    25
100
AcDbSpline
210
0.0
220
0.0
230
1.0
 70
     8
 71
     3
 72
     9
 73
     5
 74
     0
 42
0.000000001
 43
0.00000001
 40
0.0
 40
0.0
 40
0.0
 40
0.0
 40
0.3722348086954369
 40
1.0
 40
1.0
 40
1.0
 40
1.0
 10
408.4674603172822
 20
19.75973428653071
 30
0.0
 10
408.495426550954
 20
19.81165859530429
 30
0.0
 10
408.5705571755449
 20
19.95115202139081
 30
0.0
 10
408.6491010337015
 20
19.95916074749593
 30
0.0
 10
408.698408133843
 20
19.96418834697141
 30
0.0
  0
LINE
  5
36D
330
1F
100
AcDbEntity
  8
0
  6
Continuous
 62
     7
370
    25
100
AcDbLine
 10
415.3933501725
 20
20.2744142719
 30
0.0
 11
409.0933501725
 21
20.2744142719
 31
0.0
  0
LINE
  5
36E
330
1F
100
AcDbEntity
  8
0
  6
Continuous
 62
     7
370
    25
100
AcDbLine
 10
415.3790898953
 20
19.7597342865
 30
0.0
 11
415.3790898953
 21
17.5890942573
 31
0.0
  0
SPLINE
  5
36F
330
1F
100
AcDbEntity
  8
0
  6
Continuous
 62
     7
370
    25
100
AcDbSpline
210
0.0
220
0.0
230
1.0
 70
     8
 71
     3
 72
    12
 73
     8
 74
     0
 42
0.000000001
 43
0.00000001
 40
0.0
 40
0.0
 40
0.0
 40
0.0
 40
0.5000000000000038
 40
0.5000000000000038
 40
0.7500000000000019
 40
0.7500000000000019
 40
1.0
 40
1.0
 40
1.0
 40
1.0
 10
411.6032000401374
 20
17.58909425730175
 30
0.0
 10
412.2197304300577
 20
17.39859996787823
 30
0.0
 10
412.8454983025076
 20
17.27692555481585
 30
0.0
 10
413.8085600118924
 20
17.27626936428462
 30
0.0
 10
414.1292530470221
 20
17.30610336607902
 30
0.0
 10
414.7592112970181
 20
17.41503323618661
 30
0.0
 10
415.070440565049
 20
17.49372842324949
 30
0.0
 10
415.3790898953336
 20
17.58909425730224
 30
0.0
  0
LINE
  5
370
330
1F
100
AcDbEntity
  8
0
  6
Continuous
 62
     7
370
    25
100
AcDbLine
 10
411.6032000401
 20
19.7597342865
 30
0.0
 11
411.6032000401
 21
17.5890942573
 31
0.0
  0
SPLINE
  5
371
330
1F
100
AcDbEntity
  8
0
  6
Continuous
 62
     7
370
    25
100
AcDbSpline
210
0.0
220
0.0
230
1.0
 70
     8
 71
     3
 72
     9
 73
     5
 74
     0
 42
0.000000001
 43
0.00000001
 40
0.0
 40
0.0
 40
0.0
 40
0.0
 40
0.6277651913045492
 40
1.0
 40
1.0
 40
1.0
 40
1.0
 10
408.698408133843
 20
17.38464019686205
 30
0.0
 10
408.6491010337015
 20
17.38966779633754
 30
0.0
 10
408.5705571755449
 20
17.39767652244266
 30
0.0
 10
408.495426550954
 20
17.53716994852916
 30
0.0
 10
408.4674603172822
 20
17.58909425730274
 30
0.0
  0
SPLINE
  5
372
330
1F
100
AcDbEntity
  8
0
  6
Continuous
 62
     7
370
    25
100
AcDbSpline
210
0.0
220
0.0
230
1.0
 70
     8
 71
     3
 72
    12
 73
     8
 74
     0
 42
0.000000001
 43
0.00000001
 40
0.0
 40
0.0
 40
0.0
 40
0.0
 40
0.5000000000000064
 40
0.5000000000000064
 40
0.7500000000000033
 40
0.7500000000000033
 40
1.0
 40
1.0
 40
1.0
 40
1.0
 10
408.4674603172821
 20
17.58909425730175
 30
0.0
 10
408.9794664689871
 20
17.39859996787823
 30
0.0
 10
409.4991440152554
 20
17.27692555481585
 30
0.0
 10
410.2989318728178
 20
17.27626936428463
 30
0.0
 10
410.5652558196659
 20
17.30610336607901
 30
0.0
 10
411.0884133226673
 20
17.41503323618661
 30
0.0
 10
411.3468779538156
 20
17.49372842324948
 30
0.0
 10
411.6032000401377
 20
17.58909425730223
 30
0.0
  0
SPLINE
  5
373
330
1F
100
AcDbEntity
  8
0
  6
Continuous
 62
     7
370
    25
100
AcDbSpline
210
0.0
220
0.0
230
1.0
 70
     8
 71
     3
 72
    14
 73
    10
 74
     0
 42
0.000000001
 43
0.00000001
 40
0.0
 40
0.0
 40
0.0
 40
0.0
 40
0.25
 40
0.25
 40
0.5
 40
0.5
 40
0.75
 40
0.75
 40
1.0
 40
1.0
 40
1.0
 40
1.0
 10
415.3790898953335
 20
17.58909425730273
 30
0.0
 10
415.4311476042243
 20
17.49421964799212
 30
0.0
 10
415.4844811425525
 20
17.41461472311637
 30
0.0
 10
415.5914131501805
 20
17.30577810822213
 30
0.0
 10
415.6451665166281
 20
17.27645450253164
 30
0.0
 10
415.7533455680518
 20
17.27651928427724
 30
0.0
 10
415.8081742646398
 20
17.3066754776036
 30
0.0
 10
415.9150812472996
 20
17.41626067896931
 30
0.0
 10
415.967502762272
 20
17.49480365277148
 30
0.0
 10
416.0192400276741
 20
17.58909425730273
 30
0.0
  0
LINE
  5
374
330
1F
100
AcDbEntity
  8
0
  6
Continuous
 62
     7
370
    25
100
AcDbLine
 10
415.3933501725
 20
17.0744142719
 30
0.0
 11
409.0933501725
 21
17.0744142719
 31
0.0
  0
LINE
  5
375
330
1F
100
AcDbEntity
  8
0
  6
Continuous
 62
     7
370
    25
100
AcDbLine
 10
408.4674603173
 20
19.7597342865
 30
0.0
 11
408.4674603173
 21
17.5890942573
 31
0.0
  0
LINE
  5
376
330
1F
100
AcDbEntity
  8
0
  6
Continuous
 62
     7
370
    25
100
AcDbLine
 10
416.0192400277
 20
19.7597342865
 30
0.0
 11
416.0192400277
 21
17.5890942573
 31
0.0
  0
SPLINE
  5
377
330
1F
100
AcDbEntity
  8
0
  6
Continuous
 62
     7
370
    25
100
AcDbSpline
210
0.0
220
0.0
230
1.0
 70
     8
 71
     3
 72
    14
 73
    10
 74
     0
 42
0.000000001
 43
0.00000001
 40
0.0
 40
0.0
 40
0.0
 40
0.0
 40
0.25
 40
0.25
 40
0.5
 40
0.5
 40
0.75
 40
0.75
 40
1.0
 40
1.0
 40
1.0
 40
1.0
 10
284.3790898953335
 20
19.75973428653069
 30
0.0
 10
284.4311476042244
 20
19.8546088958413
 30
0.0
 10
284.4844811425525
 20
19.93421382071705
 30
0.0
 10
284.5914131501805
 20
20.04305043561128
 30
0.0
 10
284.6451665166281
 20
20.07237404130178
 30
0.0
 10
284.7533455680518
 20
20.07230925955617
 30
0.0
 10
284.8081742646398
 20
20.04215306622982
 30
0.0
 10
284.9150812472997
 20
19.9325678648641
 30
0.0
 10
284.967502762272
 20
19.85402489106193
 30
0.0
 10
285.0192400276741
 20
19.75973428653068
 30
0.0
  0
SPLINE
  5
378
330
1F
100
AcDbEntity
  8
0
  6
Continuous
 62
     7
370
    25
100
AcDbSpline
210
0.0
220
0.0
230
1.0
 70
     8
 71
     3
 72
    12
 73
     8
 74
     0
 42
0.000000001
 43
0.00000001
 40
0.0
 40
0.0
 40
0.0
 40
0.0
 40
0.5000000000000058
 40
0.5000000000000058
 40
0.7500000000000029
 40
0.7500000000000029
 40
1.0
 40
1.0
 40
1.0
 40
1.0
 10
284.3790898953337
 20
19.75973428653167
 30
0.0
 10
283.7625595054134
 20
19.95022857595519
 30
0.0
 10
283.1367916329636
 20
20.07190298901755
 30
0.0
 10
282.1737299235788
 20
20.0725591795488
 30
0.0
 10
281.853036888449
 20
20.0427251777544
 30
0.0
 10
281.2230786384531
 20
19.93379530764681
 30
0.0
 10
280.9118493704222
 20
19.85510012058394
 30
0.0
 10
280.6032000401375
 20
19.75973428653118
 30
0.0
  0
SPLINE
  5
379
330
1F
100
AcDbEntity
  8
0
  6
Continuous
 62
     7
370
    25
100
AcDbSpline
210
0.0
220
0.0
230
1.0
 70
     8
 71
     3
 72
    12
 73
     8
 74
     0
 42
0.000000001
 43
0.00000001
 40
0.0
 40
0.0
 40
0.0
 40
0.0
 40
0.4999999999999858
 40
0.4999999999999858
 40
0.7499999999999929
 40
0.7499999999999929
 40
1.0
 40
1.0
 40
1.0
 40
1.0
 10
280.6032000401377
 20
19.75973428653167
 30
0.0
 10
280.0911938884328
 20
19.9502285759552
 30
0.0
 10
279.5715163421646
 20
20.07190298901756
 30
0.0
 10
278.771728484602
 20
20.0725591795488
 30
0.0
 10
278.505404537754
 20
20.0427251777544
 30
0.0
 10
277.9822470347526
 20
19.9337953076468
 30
0.0
 10
277.7237824036043
 20
19.85510012058393
 30
0.0
 10
277.4674603172822
 20
19.75973428653118
 30
0.0
  0
SPLINE
  5
37A
330
1F
100
AcDbEntity
  8
0
  6
Continuous
 62
     7
370
    25
100
AcDbSpline
210
0.0
220
0.0
230
1.0
 70
     8
 71
     3
 72
     9
 73
     5
 74
     0
 42
0.000000001
 43
0.00000001
 40
0.0
 40
0.0
 40
0.0
 40
0.0
 40
0.3722348086954365
 40
1.0
 40
1.0
 40
1.0
 40
1.0
 10
277.4674603172822
 20
19.75973428653068
 30
0.0
 10
277.495426550954
 20
19.81165859530426
 30
0.0
 10
277.5705571755449
 20
19.95115202139078
 30
0.0
 10
277.6491010337015
 20
19.95916074749589
 30
0.0
 10
277.698408133843
 20
19.96418834697137
 30
0.0
  0
LINE
  5
37B
330
1F
100
AcDbEntity
  8
0
  6
Continuous
 62
     7
370
    25
100
AcDbLine
 10
284.3933501725
 20
20.2744142719
 30
0.0
 11
278.0933501725
 21
20.2744142719
 31
0.0
  0
SPLINE
  5
37C
330
1F
100
AcDbEntity
  8
0
  6
Continuous
 62
     7
370
    25
100
AcDbSpline
210
0.0
220
0.0
230
1.0
 70
     8
 71
     3
 72
     9
 73
     5
 74
     0
 42
0.000000001
 43
0.00000001
 40
0.0
 40
0.0
 40
0.0
 40
0.0
 40
0.6277651913045491
 40
1.0
 40
1.0
 40
1.0
 40
1.0
 10
277.698408133843
 20
17.38464019686201
 30
0.0
 10
277.6491010337015
 20
17.3896677963375
 30
0.0
 10
277.5705571755449
 20
17.39767652244262
 30
0.0
 10
277.4954265509541
 20
17.53716994852912
 30
0.0
 10
277.4674603172823
 20
17.5890942573027
 30
0.0
  0
SPLINE
  5
37D
330
1F
100
AcDbEntity
  8
0
  6
Continuous
 62
     7
370
    25
100
AcDbSpline
210
0.0
220
0.0
230
1.0
 70
     8
 71
     3
 72
    12
 73
     8
 74
     0
 42
0.000000001
 43
0.00000001
 40
0.0
 40
0.0
 40
0.0
 40
0.0
 40
0.5000000000000014
 40
0.5000000000000014
 40
0.7500000000000007
 40
0.7500000000000007
 40
1.0
 40
1.0
 40
1.0
 40
1.0
 10
277.4674603172822
 20
17.58909425730171
 30
0.0
 10
277.9794664689871
 20
17.39859996787818
 30
0.0
 10
278.4991440152554
 20
17.27692555481581
 30
0.0
 10
279.2989318728178
 20
17.27626936428458
 30
0.0
 10
279.5652558196659
 20
17.30610336607898
 30
0.0
 10
280.0884133226673
 20
17.41503323618657
 30
0.0
 10
280.3468779538156
 20
17.49372842324945
 30
0.0
 10
280.6032000401377
 20
17.5890942573022
 30
0.0
  0
SPLINE
  5
37E
330
1F
100
AcDbEntity
  8
0
  6
Continuous
 62
     7
370
    25
100
AcDbSpline
210
0.0
220
0.0
230
1.0
 70
     8
 71
     3
 72
    12
 73
     8
 74
     0
 42
0.000000001
 43
0.00000001
 40
0.0
 40
0.0
 40
0.0
 40
0.0
 40
0.499999999999987
 40
0.499999999999987
 40
0.7499999999999934
 40
0.7499999999999934
 40
1.0
 40
1.0
 40
1.0
 40
1.0
 10
280.6032000401375
 20
17.58909425730171
 30
0.0
 10
281.2197304300577
 20
17.39859996787819
 30
0.0
 10
281.8454983025075
 20
17.27692555481581
 30
0.0
 10
282.8085600118924
 20
17.27626936428458
 30
0.0
 10
283.1292530470221
 20
17.30610336607898
 30
0.0
 10
283.7592112970181
 20
17.41503323618656
 30
0.0
 10
284.070440565049
 20
17.49372842324944
 30
0.0
 10
284.3790898953336
 20
17.58909425730219
 30
0.0
  0
SPLINE
  5
37F
330
1F
100
AcDbEntity
  8
0
  6
Continuous
 62
     7
370
    25
100
AcDbSpline
210
0.0
220
0.0
230
1.0
 70
     8
 71
     3
 72
    14
 73
    10
 74
     0
 42
0.000000001
 43
0.00000001
 40
0.0
 40
0.0
 40
0.0
 40
0.0
 40
0.25
 40
0.25
 40
0.5
 40
0.5
 40
0.75
 40
0.75
 40
1.0
 40
1.0
 40
1.0
 40
1.0
 10
284.3790898953335
 20
17.58909425730269
 30
0.0
 10
284.4311476042244
 20
17.49421964799208
 30
0.0
 10
284.4844811425525
 20
17.41461472311633
 30
0.0
 10
284.5914131501805
 20
17.3057781082221
 30
0.0
 10
284.6451665166281
 20
17.2764545025316
 30
0.0
 10
284.7533455680518
 20
17.27651928427719
 30
0.0
 10
284.8081742646398
 20
17.30667547760356
 30
0.0
 10
284.9150812472996
 20
17.41626067896927
 30
0.0
 10
284.967502762272
 20
17.49480365277144
 30
0.0
 10
285.0192400276741
 20
17.58909425730269
 30
0.0
  0
LINE
  5
380
330
1F
100
AcDbEntity
  8
0
  6
Continuous
 62
     7
370
    25
100
AcDbLine
 10
284.3933501725
 20
17.0744142719
 30
0.0
 11
278.0933501725
 21
17.0744142719
 31
0.0
  0
LINE
  5
381
330
1F
100
AcDbEntity
  8
0
  6
Continuous
 62
     7
370
    25
100
AcDbLine
 10
284.3790898953
 20
19.7597342865
 30
0.0
 11
284.3790898953
 21
17.5890942573
 31
0.0
  0
LINE
  5
382
330
1F
100
AcDbEntity
  8
0
  6
Continuous
 62
     7
370
    25
100
AcDbLine
 10
280.6032000401
 20
19.7597342865
 30
0.0
 11
280.6032000401
 21
17.5890942573
 31
0.0
  0
LINE
  5
383
330
1F
100
AcDbEntity
  8
0
  6
Continuous
 62
     7
370
    25
100
AcDbLine
 10
277.4674603173
 20
19.7597342865
 30
0.0
 11
277.4674603173
 21
17.5890942573
 31
0.0
  0
LINE
  5
384
330
1F
100
AcDbEntity
  8
0
  6
Continuous
 62
     7
370
    25
100
AcDbLine
 10
285.0192400277
 20
19.7597342865
 30
0.0
 11
285.0192400277
 21
17.5890942573
 31
0.0
  0
LINE
  5
385
330
1F
100
AcDbEntity
  8
0
  6
Continuous
 62
     7
370
    25
100
AcDbLine
 10
564.2433501725
 20
14.3744142719
 30
0.0
 11
565.164280405
 21
4.4744142719
 31
0.0
  0
LINE
  5
386
330
1F
100
AcDbEntity
  8
0
  6
Continuous
 62
     7
370
    25
100
AcDbLine
 10
260.3224199399
 20
4.4744142719
 30
0.0
 11
261.2433501725
 21
14.3744142719
 31
0.0
  0
LINE
  5
387
330
1F
100
AcDbEntity
  8
0
  6
Continuous
 62
     7
370
    25
100
AcDbLine
 10
261.2433501725
 20
16.1744142719
 30
0.0
 11
564.2433501725
 21
16.1744142719
 31
0.0
  0
LINE
  5
388
330
1F
100
AcDbEntity
  8
0
  6
Continuous
 62
     7
370
    25
100
AcDbLine
 10
261.2433501725
 20
14.3744142719
 30
0.0
 11
261.2433501725
 21
16.1744142719
 31
0.0
  0
LINE
  5
389
330
1F
100
AcDbEntity
  8
0
  6
Continuous
 62
     7
370
    25
100
AcDbLine
 10
564.2433501725
 20
16.1744142719
 30
0.0
 11
564.2433501725
 21
14.3744142719
 31
0.0
  0
LINE
  5
38A
330
1F
100
AcDbEntity
  8
0
  6
Continuous
 62
     7
370
    25
100
AcDbLine
 10
260.2433501725
 20
3.6244142719
 30
0.0
 11
260.3224199399
 21
4.4744142719
 31
0.0
  0
LINE
  5
38B
330
1F
100
AcDbEntity
  8
0
  6
Continuous
 62
     7
370
    25
100
AcDbLine
 10
565.164280405
 20
4.4744142719
 30
0.0
 11
565.2433501725
 21
3.6244142719
 31
0.0
  0
LINE
  5
38C
330
1F
100
AcDbEntity
  8
0
  6
Continuous
 62
     7
370
    25
100
AcDbLine
 10
543.9265580143
 20
25.3744142719
 30
0.0
 11
546.2433501725
 21
25.3744142719
 31
0.0
  0
LINE
  5
38D
330
1F
100
AcDbEntity
  8
0
  6
Continuous
 62
     7
370
    25
100
AcDbLine
 10
542.2433501725
 20
25.3744142719
 30
0.0
 11
543.9265580143
 21
25.3744142719
 31
0.0
  0
LINE
  5
38E
330
1F
100
AcDbEntity
  8
0
  6
Continuous
 62
     7
370
    25
100
AcDbLine
 10
411.9265580143
 20
25.3744142719
 30
0.0
 11
414.2433501725
 21
25.3744142719
 31
0.0
  0
LINE
  5
38F
330
1F
100
AcDbEntity
  8
0
  6
Continuous
 62
     7
370
    25
100
AcDbLine
 10
410.2433501725
 20
25.3744142719
 30
0.0
 11
411.9265580143
 21
25.3744142719
 31
0.0
  0
LINE
  5
390
330
1F
100
AcDbEntity
  8
0
  6
Continuous
 62
     7
370
    25
100
AcDbLine
 10
280.9265580143
 20
25.3744142719
 30
0.0
 11
283.2433501725
 21
25.3744142719
 31
0.0
  0
LINE
  5
391
330
1F
100
AcDbEntity
  8
0
  6
Continuous
 62
     7
370
    25
100
AcDbLine
 10
279.2433501725
 20
25.3744142719
 30
0.0
 11
280.9265580143
 21
25.3744142719
 31
0.0
  0
LINE
  5
392
330
1F
100
AcDbEntity
  8
0
  6
Continuous
 62
     7
370
    25
100
AcDbLine
 10
565.7433501725
 20
36.5744142719
 30
0.0
 11
566.7433501725
 21
36.5744142719
 31
0.0
  0
LINE
  5
393
330
1F
100
AcDbEntity
  8
0
  6
Continuous
 62
     7
370
    25
100
AcDbLine
 10
566.7433501725
 20
36.5744142719
 30
0.0
 11
566.7433501725
 21
34.5744142719
 31
0.0
  0
LINE
  5
394
330
1F
100
AcDbEntity
  8
0
  6
Continuous
 62
     7
370
    25
100
AcDbLine
 10
564.7433501725
 20
18.1744142719
 30
0.0
 11
564.7433501725
 21
8.9994142719
 31
0.0
  0
LINE
  5
395
330
1F
100
AcDbEntity
  8
0
  6
Continuous
 62
     7
370
    25
100
AcDbLine
 10
566.7433501725
 20
34.5744142719
 30
0.0
 11
566.7433501725
 21
31.6744142719
 31
0.0
  0
LINE
  5
396
330
1F
100
AcDbEntity
  8
0
  6
Continuous
 62
     7
370
    25
100
AcDbLine
 10
566.7433501725
 20
25.6744142719
 30
0.0
 11
566.7433501725
 21
5.5744142719
 31
0.0
  0
LINE
  5
397
330
1F
100
AcDbEntity
  8
0
  6
Continuous
 62
     7
370
    25
100
AcDbLine
 10
566.7416830426
 20
5.4744142719
 30
0.0
 11
566.7433501725
 21
5.5744142719
 31
0.0
  0
LINE
  5
398
330
1F
100
AcDbEntity
  8
0
  6
Continuous
 62
     7
370
    25
100
AcDbLine
 10
566.8036575517
 20
36.5744142719
 30
0.0
 11
566.7433501725
 21
36.5744142719
 31
0.0
  0
LINE
  5
399
330
1F
100
AcDbEntity
  8
0
  6
Continuous
 62
     7
370
    25
100
AcDbLine
 10
566.7433501725
 20
20.5744142719
 30
0.0
 11
566.8036575517
 21
20.5744142719
 31
0.0
  0
LINE
  5
39A
330
1F
100
AcDbEntity
  8
0
  6
Continuous
 62
     7
370
    25
100
AcDbLine
 10
566.8036575517
 20
36.5744142719
 30
0.0
 11
568.674856274
 21
36.5744142719
 31
0.0
  0
LWPOLYLINE
  5
39B
330
1F
100
AcDbEntity
  8
0
  6
Continuous
 62
     7
370
    25
100
AcDbPolyline
 90
        9
 70
   128
 43
0.0
 10
569.3588965607
 20
34.5744142719
 10
569.3457529184
 20
34.9645949159
 10
569.3068270943
 20
35.3397811366
 10
569.2436149859
 20
35.685554738
 10
569.1585457993
 20
35.9886278343
 10
569.0548886955
 20
36.2373534965
 10
568.9366271588
 20
36.4221733369
 10
568.8083059138
 20
36.5359848327
 10
568.674856274
 20
36.5744142719
  0
LINE
  5
39C
330
1F
100
AcDbEntity
  8
0
  6
Continuous
 62
     7
370
    25
100
AcDbLine
 10
569.3588965607
 20
34.5744142719
 30
0.0
 11
569.3588965607
 21
31.6744142719
 31
0.0
  0
LINE
  5
39D
330
1F
100
AcDbEntity
  8
0
  6
Continuous
 62
     7
370
    25
100
AcDbLine
 10
569.3588965607
 20
25.6744142719
 30
0.0
 11
569.3588965607
 21
22.5744142719
 31
0.0
  0
LWPOLYLINE
  5
39E
330
1F
100
AcDbEntity
  8
0
  6
Continuous
 62
     7
370
    25
100
AcDbPolyline
 90
        9
 70
   128
 43
0.0
 10
568.674856274
 20
20.5744142719
 10
568.8083059138
 20
20.6128437111
 10
568.9366271588
 20
20.7266552069
 10
569.0548886955
 20
20.9114750473
 10
569.1585457993
 20
21.1602007095
 10
569.2436149859
 20
21.4632738059
 10
569.3068270943
 20
21.8090474072
 10
569.3457529184
 20
22.1842336279
 10
569.3588965607
 20
22.5744142719
  0
LINE
  5
39F
330
1F
100
AcDbEntity
  8
0
  6
Continuous
 62
     7
370
    25
100
AcDbLine
 10
568.674856274
 20
20.5744142719
 30
0.0
 11
566.8036575517
 21
20.5744142719
 31
0.0
  0
LINE
  5
3A0
330
1F
100
AcDbEntity
  8
0
  6
Continuous
 62
     7
370
    25
100
AcDbLine
 10
258.7433501725
 20
36.5744142719
 30
0.0
 11
259.7433501725
 21
36.5744142719
 31
0.0
  0
LINE
  5
3A1
330
1F
100
AcDbEntity
  8
0
  6
Continuous
 62
     7
370
    25
100
AcDbLine
 10
258.7433501725
 20
34.5744142719
 30
0.0
 11
258.7433501725
 21
36.5744142719
 31
0.0
  0
LINE
  5
3A2
330
1F
100
AcDbEntity
  8
0
  6
Continuous
 62
     7
370
    25
100
AcDbLine
 10
260.7433501725
 20
8.9994142719
 30
0.0
 11
260.7433501725
 21
18.1744142719
 31
0.0
  0
LINE
  5
3A3
330
1F
100
AcDbEntity
  8
0
  6
Continuous
 62
     7
370
    25
100
AcDbLine
 10
258.7433501725
 20
5.5744142719
 30
0.0
 11
258.7433501725
 21
25.6744142719
 31
0.0
  0
LINE
  5
3A4
330
1F
100
AcDbEntity
  8
0
  6
Continuous
 62
     7
370
    25
100
AcDbLine
 10
258.7433501725
 20
31.6744142719
 30
0.0
 11
258.7433501725
 21
34.5744142719
 31
0.0
  0
LINE
  5
3A5
330
1F
100
AcDbEntity
  8
0
  6
Continuous
 62
     7
370
    25
100
AcDbLine
 10
258.7433501725
 20
5.5744142719
 30
0.0
 11
258.7450173024
 21
5.4744142719
 31
0.0
  0
LINE
  5
3A6
330
1F
100
AcDbEntity
  8
0
  6
Continuous
 62
     7
370
    25
100
AcDbLine
 10
258.6830427933
 20
20.5744142719
 30
0.0
 11
258.7433501725
 21
20.5744142719
 31
0.0
  0
LINE
  5
3A7
330
1F
100
AcDbEntity
  8
0
  6
Continuous
 62
     7
370
    25
100
AcDbLine
 10
258.7433501725
 20
36.5744142719
 30
0.0
 11
258.6830427933
 21
36.5744142719
 31
0.0
  0
LWPOLYLINE
  5
3A8
330
1F
100
AcDbEntity
  8
0
  6
Continuous
 62
     7
370
    25
100
AcDbPolyline
 90
        9
 70
   128
 43
0.0
 10
256.811844071
 20
36.5744142719
 10
256.6783944312
 20
36.5359848327
 10
256.5500731862
 20
36.4221733369
 10
256.4318116495
 20
36.2373534965
 10
256.3281545457
 20
35.9886278343
 10
256.243085359
 20
35.685554738
 10
256.1798732507
 20
35.3397811366
 10
256.1409474266
 20
34.9645949159
 10
256.1278037843
 20
34.5744142719
  0
LINE
  5
3A9
330
1F
100
AcDbEntity
  8
0
  6
Continuous
 62
     7
370
    25
100
AcDbLine
 10
256.811844071
 20
36.5744142719
 30
0.0
 11
258.6830427933
 21
36.5744142719
 31
0.0
  0
LINE
  5
3AA
330
1F
100
AcDbEntity
  8
0
  6
Continuous
 62
     7
370
    25
100
AcDbLine
 10
258.6830427933
 20
20.5744142719
 30
0.0
 11
256.811844071
 21
20.5744142719
 31
0.0
  0
LWPOLYLINE
  5
3AB
330
1F
100
AcDbEntity
  8
0
  6
Continuous
 62
     7
370
    25
100
AcDbPolyline
 90
        9
 70
   128
 43
0.0
 10
256.1278037843
 20
22.5744142719
 10
256.1409474266
 20
22.1842336279
 10
256.1798732507
 20
21.8090474072
 10
256.243085359
 20
21.4632738059
 10
256.3281545457
 20
21.1602007095
 10
256.4318116495
 20
20.9114750473
 10
256.5500731862
 20
20.7266552069
 10
256.6783944312
 20
20.6128437111
 10
256.811844071
 20
20.5744142719
  0
LINE
  5
3AC
330
1F
100
AcDbEntity
  8
0
  6
Continuous
 62
     7
370
    25
100
AcDbLine
 10
256.1278037843
 20
22.5744142719
 30
0.0
 11
256.1278037843
 21
25.6744142719
 31
0.0
  0
LINE
  5
3AD
330
1F
100
AcDbEntity
  8
0
  6
Continuous
 62
     7
370
    25
100
AcDbLine
 10
256.1278037843
 20
31.6744142719
 30
0.0
 11
256.1278037843
 21
34.5744142719
 31
0.0
  0
SPLINE
  5
3AE
330
1F
100
AcDbEntity
  8
0
  6
Continuous
 62
     7
370
    25
100
AcDbSpline
210
0.0
220
0.0
230
1.0
 70
    24
 71
     3
 72
     9
 73
     5
 74
     0
 42
0.000000001
 43
0.00000001
 40
0.0
 40
0.0
 40
0.0
 40
0.0
 40
0.7059102712371382
 40
1.0
 40
1.0
 40
1.0
 40
1.0
 10
260.5433501724781
 20
34.44766308130787
 30
0.0
 10
260.5433501724781
 20
34.45791585060435
 30
0.0
 10
260.5433501724782
 20
34.47244003266296
 30
0.0
 10
260.5433501724781
 20
34.37738807605416
 30
0.0
 10
260.5433501724781
 20
34.34943427191669
 30
0.0
  0
SPLINE
  5
3AF
330
1F
100
AcDbEntity
  8
0
  6
Continuous
 62
     7
370
    25
100
AcDbSpline
210
0.0
220
0.0
230
1.0
 70
    24
 71
     3
 72
    12
 73
     8
 74
     0
 42
0.000000001
 43
0.00000001
 40
0.0
 40
0.0
 40
0.0
 40
0.0
 40
0.3344405486782614
 40
0.5144757571369826
 40
0.6983315710265336
 40
0.8821873849160836
 40
1.0
 40
1.0
 40
1.0
 40
1.0
 10
261.5433501724782
 20
31.18072157697438
 30
0.0
 10
261.5433501724782
 20
31.80486711247623
 30
0.0
 10
261.5433501724782
 20
32.7650011279538
 30
0.0
 10
261.5433501724781
 20
33.67291203424909
 30
0.0
 10
261.5433501724782
 20
34.17862937216523
 30
0.0
 10
261.5433501724781
 20
34.45024910630345
 30
0.0
 10
261.5433501724782
 20
34.44838937484368
 30
0.0
 10
261.5433501724781
 20
34.44766308131881
 30
0.0
  0
SPLINE
  5
3B0
330
1F
100
AcDbEntity
  8
0
  6
Continuous
 62
     7
370
    25
100
AcDbSpline
210
0.0
220
0.0
230
1.0
 70
    24
 71
     3
 72
    15
 73
    11
 74
     0
 42
0.000000001
 43
0.00000001
 40
0.0
 40
0.0
 40
0.0
 40
0.0
 40
0.034696749791865
 40
0.2211884951269639
 40
0.4076802404620634
 40
0.5080720152630783
 40
0.6105942475634819
 40
0.7131164798638856
 40
0.8135082546649003
 40
1.0
 40
1.0
 40
1.0
 40
1.0
 10
261.5433501724782
 20
22.90116546251308
 30
0.0
 10
261.5433501724782
 20
22.89444435888166
 30
0.0
 10
261.5433501724781
 20
22.85159795952888
 30
0.0
 10
261.5433501724782
 20
23.33963892228735
 30
0.0
 10
261.5433501724783
 20
24.43554997975593
 30
0.0
 10
261.5433501724782
 20
25.6544471122034
 30
0.0
 10
261.5433501724781
 20
26.73462234006038
 30
0.0
 10
261.5433501724782
 20
27.89509924252605
 30
0.0
 10
261.5433501724782
 20
29.42567413764117
 30
0.0
 10
261.5433501724782
 20
30.48930002629124
 30
0.0
 10
261.5433501724782
 20
31.18072157697438
 30
0.0
  0
LINE
  5
3B1
330
1F
100
AcDbEntity
  8
0
  6
Continuous
 62
     7
370
    25
100
AcDbLine
 10
265.5433501725
 20
28.2910192442
 30
0.0
 11
265.5433501725
 21
32.8000951512
 31
0.0
  0
SPLINE
  5
3B2
330
1F
100
AcDbEntity
  8
0
  6
Continuous
 62
     7
370
    25
100
AcDbSpline
210
0.0
220
0.0
230
1.0
 70
     8
 71
     3
 72
     8
 73
     4
 74
     0
 42
0.000000001
 43
0.00000001
 40
0.0
 40
0.0
 40
0.0
 40
0.0
 40
1.0
 40
1.0
 40
1.0
 40
1.0
 10
265.5433501724712
 20
28.29101924422948
 30
0.0
 10
265.5433501724712
 20
29.27339768880226
 30
0.0
 10
265.3690348720917
 20
30.22888885699199
 30
0.0
 10
265.0967681850798
 20
31.16927150631957
 30
0.0
  0
SPLINE
  5
3B3
330
1F
100
AcDbEntity
  8
0
  6
Continuous
 62
     7
370
    25
100
AcDbSpline
210
0.0
220
0.0
230
1.0
 70
     8
 71
     3
 72
     8
 73
     4
 74
     0
 42
0.000000001
 43
0.00000001
 40
0.0
 40
0.0
 40
0.0
 40
0.0
 40
1.0
 40
1.0
 40
1.0
 40
1.0
 10
265.0967681850797
 20
31.16927150632568
 30
0.0
 10
265.3690348720911
 20
31.70209424739053
 30
0.0
 10
265.543350172471
 20
32.24347750628512
 30
0.0
 10
265.543350172471
 20
32.80009515121356
 30
0.0
  0
SPLINE
  5
3B4
330
1F
100
AcDbEntity
  8
0
  6
Continuous
 62
     7
370
    25
100
AcDbSpline
210
0.0
220
0.0
230
1.0
 70
     8
 71
     3
 72
     8
 73
     4
 74
     0
 42
0.000000001
 43
0.00000001
 40
0.0
 40
0.0
 40
0.0
 40
0.0
 40
1.0
 40
1.0
 40
1.0
 40
1.0
 10
265.0967681850798
 20
25.41276698213949
 30
0.0
 10
265.3690348720912
 20
26.35314963146529
 30
0.0
 10
265.5433501724712
 20
27.30864079965856
 30
0.0
 10
265.5433501724712
 20
28.29101924422948
 30
0.0
  0
LINE
  5
3B5
330
1F
100
AcDbEntity
  8
0
  6
Continuous
 62
     7
370
    25
100
AcDbLine
 10
261.5433501725
 20
25.4127669821
 30
0.0
 11
265.0967681851
 21
25.4127669821
 31
0.0
  0
LINE
  5
3B6
330
1F
100
AcDbEntity
  8
0
  6
Continuous
 62
     7
370
    25
100
AcDbLine
 10
261.5433501725
 20
31.1692715063
 30
0.0
 11
265.0967681851
 21
31.1692715063
 31
0.0
  0
LINE
  5
3B7
330
1F
100
AcDbEntity
  8
0
  6
Continuous
 62
     7
370
    25
100
AcDbLine
 10
265.5433501725
 20
24.1653383649
 30
0.0
 11
265.5433501725
 21
28.2910192442
 31
0.0
  0
SPLINE
  5
3B8
330
1F
100
AcDbEntity
  8
0
  6
Continuous
 62
     7
370
    25
100
AcDbSpline
210
0.0
220
0.0
230
1.0
 70
     8
 71
     3
 72
     8
 73
     4
 74
     0
 42
0.000000001
 43
0.00000001
 40
0.0
 40
0.0
 40
0.0
 40
0.0
 40
1.0
 40
1.0
 40
1.0
 40
1.0
 10
265.543350172471
 20
24.16533836493196
 30
0.0
 10
265.543350172471
 20
24.59109916457518
 30
0.0
 10
265.3690348720916
 20
25.00520707387223
 30
0.0
 10
265.0967681850798
 20
25.41276698213391
 30
0.0
  0
SPLINE
  5
3B9
330
1F
100
AcDbEntity
  8
0
  6
Continuous
 62
     7
370
    25
100
AcDbSpline
210
0.0
220
0.0
230
1.0
 70
     8
 71
     3
 72
     8
 73
     4
 74
     0
 42
0.000000001
 43
0.00000001
 40
0.0
 40
0.0
 40
0.0
 40
0.0
 40
1.0
 40
1.0
 40
1.0
 40
1.0
 10
265.543350172471
 20
32.80009515121356
 30
0.0
 10
265.543350172471
 20
33.35671279614301
 30
0.0
 10
265.3690348720916
 20
33.89809605503562
 30
0.0
 10
265.0967681850797
 20
34.43091879610143
 30
0.0
  0
LINE
  5
3BA
330
1F
100
AcDbEntity
  8
0
  6
Continuous
 62
     7
370
    25
100
AcDbLine
 10
261.5433501725
 20
34.4309187961
 30
0.0
 11
265.0967681851
 21
34.4309187961
 31
0.0
  0
SPLINE
  5
3BB
330
1F
100
AcDbEntity
  8
0
  6
Continuous
 62
     7
370
    25
100
AcDbSpline
210
0.0
220
0.0
230
1.0
 70
     8
 71
     3
 72
     8
 73
     4
 74
     0
 42
0.000000001
 43
0.00000001
 40
0.0
 40
0.0
 40
0.0
 40
0.0
 40
1.0
 40
1.0
 40
1.0
 40
1.0
 10
265.0967681850798
 20
22.91790974772996
 30
0.0
 10
265.3690348720912
 20
23.32546965599103
 30
0.0
 10
265.543350172471
 20
23.73957756528938
 30
0.0
 10
265.543350172471
 20
24.16533836493196
 30
0.0
  0
LINE
  5
3BC
330
1F
100
AcDbEntity
  8
0
  6
Continuous
 62
     7
370
    25
100
AcDbLine
 10
265.0967681851
 20
22.9179097477
 30
0.0
 11
261.5433501725
 21
22.9179097477
 31
0.0
  0
LINE
  5
3BD
330
1F
100
AcDbEntity
  8
0
  6
Continuous
 62
     7
370
    25
100
AcDbLine
 10
250.5433501725
 20
31.1331642719
 30
0.0
 11
250.5433501725
 21
26.2156642719
 31
0.0
  0
LINE
  5
3BE
330
1F
100
AcDbEntity
  8
0
  6
Continuous
 62
     7
370
    25
100
AcDbLine
 10
251.0846001725
 20
25.9689687277
 30
0.0
 11
251.0846001725
 21
25.6744142719
 31
0.0
  0
LINE
  5
3BF
330
1F
100
AcDbEntity
  8
0
  6
Continuous
 62
     7
370
    25
100
AcDbLine
 10
251.0846001725
 20
31.6744142719
 30
0.0
 11
251.0846001725
 21
25.9689687277
 31
0.0
  0
LINE
  5
3C0
330
1F
100
AcDbEntity
  8
0
  6
Continuous
 62
     7
370
    25
100
AcDbLine
 10
265.0967681851
 20
34.4309187961
 30
0.0
 11
265.1719559406
 21
34.2208983283
 31
0.0
  0
LINE
  5
3C1
330
1F
100
AcDbEntity
  8
0
  6
Continuous
 62
     7
370
    25
100
AcDbLine
 10
265.5433501725
 20
32.8000951512
 30
0.0
 11
265.5433501725
 21
33.6744142719
 31
0.0
  0
LINE
  5
3C2
330
1F
100
AcDbEntity
  8
0
  6
Continuous
 62
     7
370
    25
100
AcDbLine
 10
265.5433501725
 20
23.6744142719
 30
0.0
 11
265.5433501725
 21
24.1653383649
 31
0.0
  0
ARC
  5
3C3
330
1F
100
AcDbEntity
  8
0
  6
Continuous
 62
     7
370
    25
100
AcDbCircle
 10
252.2433501725
 20
-0.5255857281
 30
0.0
 40
6.000000000000034
100
AcDbArc
 50
90.0
 51
143.1301023541
  0
ARC
  5
3C4
330
1F
100
AcDbEntity
  8
0
  6
Continuous
 62
     7
370
    25
100
AcDbCircle
 10
573.2433501725
 20
-0.5255857281
 30
0.0
 40
6.000000000000034
100
AcDbArc
 50
36.8698976459
 51
90.0
  0
LINE
  5
3C5
330
1F
100
AcDbEntity
  8
0
  6
Continuous
 62
     7
370
    25
100
AcDbLine
 10
110.2329208601
 20
422.6075204992
 30
0.0
 11
109.8699830817
 21
421.9788938271
 31
0.0
  0
LINE
  5
3C6
330
1F
100
AcDbEntity
  8
0
  6
Continuous
 62
     7
370
    25
100
AcDbLine
 10
109.8699830817
 20
415.6788938271
 30
0.0
 11
110.2329208601
 21
415.050267155
 31
0.0
  0
LINE
  5
3C7
330
1F
100
AcDbEntity
  8
0
  6
Continuous
 62
     7
370
    25
100
AcDbLine
 10
108.1699830817
 20
422.8288938271
 30
0.0
 11
106.1699830817
 21
422.8288938271
 31
0.0
  0
LINE
  5
3C8
330
1F
100
AcDbEntity
  8
0
  6
Continuous
 62
     7
370
    25
100
AcDbLine
 10
106.1699830817
 20
414.8288938271
 30
0.0
 11
108.1699830817
 21
414.8288938271
 31
0.0
  0
ARC
  5
3C9
330
1F
100
AcDbEntity
  8
0
  6
Continuous
 62
     7
370
    25
100
AcDbCircle
 10
113.098186312
 20
418.8288938271
 30
0.0
 40
8.000000000000004
100
AcDbArc
 50
195.2747479997
 51
210.0
  0
ARC
  5
3CA
330
1F
100
AcDbEntity
  8
0
  6
Continuous
 62
     7
370
    25
100
AcDbCircle
 10
113.098186312
 20
418.8288938271
 30
0.0
 40
8.000000000000016
100
AcDbArc
 50
150.0
 51
164.7252520003
  0
LINE
  5
3CB
330
1F
100
AcDbEntity
  8
0
  6
Continuous
 62
     7
370
    25
100
AcDbLine
 10
109.8699830817
 20
420.8288938271
 30
0.0
 11
109.7699830817
 21
420.8288938271
 31
0.0
  0
LINE
  5
3CC
330
1F
100
AcDbEntity
  8
0
  6
Continuous
 62
     7
370
    25
100
AcDbLine
 10
109.7699830817
 20
416.8288938271
 30
0.0
 11
109.8699830817
 21
416.8288938271
 31
0.0
  0
CIRCLE
  5
3CD
330
1F
100
AcDbEntity
  8
0
  6
Continuous
 62
     7
370
    25
100
AcDbCircle
 10
121.4699830817
 20
167.8288938271
 30
0.0
 40
2.458750000016589
  0
CIRCLE
  5
3CE
330
1F
100
AcDbEntity
  8
0
  6
Continuous
 62
     7
370
    25
100
AcDbCircle
 10
121.4699830817
 20
167.8288938271
 30
0.0
 40
3.000000000000025
  0
CIRCLE
  5
3CF
330
1F
100
AcDbEntity
  8
0
  6
Continuous
 62
     7
370
    25
100
AcDbCircle
 10
121.4699830817
 20
443.8288938271
 30
0.0
 40
2.458750000016561
  0
CIRCLE
  5
3D0
330
1F
100
AcDbEntity
  8
0
  6
Continuous
 62
     7
370
    25
100
AcDbCircle
 10
121.4699830817
 20
443.8288938271
 30
0.0
 40
2.999999999999994
  0
LINE
  5
3D1
330
1F
100
AcDbEntity
  8
0
  6
Continuous
 62
     7
370
    25
100
AcDbLine
 10
102.8699830817
 20
121.2996045052
 30
0.0
 11
102.8699830817
 21
414.358183149
 31
0.0
  0
LINE
  5
3D2
330
1F
100
AcDbEntity
  8
0
  6
Continuous
 62
     7
370
    25
100
AcDbLine
 10
93.2699830817
 20
121.2996045052
 30
0.0
 11
102.8699830817
 21
121.2996045052
 31
0.0
  0
LINE
  5
3D3
330
1F
100
AcDbEntity
  8
0
  6
Continuous
 62
     7
370
    25
100
AcDbLine
 10
93.2699830817
 20
414.358183149
 30
0.0
 11
102.8699830817
 21
414.358183149
 31
0.0
  0
LINE
  5
3D4
330
1F
100
AcDbEntity
  8
0
  6
Continuous
 62
     7
370
    25
100
AcDbLine
 10
90.8699830817
 20
122.2288938271
 30
0.0
 11
90.8699830817
 21
413.4288938271
 31
0.0
  0
SPLINE
  5
3D5
330
1F
100
AcDbEntity
  8
0
  6
Continuous
 62
     7
370
    25
100
AcDbSpline
210
0.0
220
0.0
230
1.0
 70
     8
 71
     3
 72
    20
 73
    16
 74
     0
 42
0.000000001
 43
0.00000001
 40
0.0
 40
0.0
 40
0.0
 40
0.0
 40
0.1250000000000007
 40
0.1250000000000007
 40
0.2500000000000013
 40
0.2500000000000013
 40
0.375000000000002
 40
0.375000000000002
 40
0.5000000000000027
 40
0.5000000000000027
 40
0.750000000000004
 40
0.750000000000004
 40
0.875000000000002
 40
0.875000000000002
 40
1.0
 40
1.0
 40
1.0
 40
1.0
 10
90.86998308174196
 20
413.4288938270943
 30
0.0
 10
90.86998308174196
 20
413.4679345579488
 30
0.0
 10
90.8855196422168
 20
413.5064532621485
 30
0.0
 10
90.94683799417741
 20
413.5838600134565
 30
0.0
 10
90.99326173976422
 20
413.6230044314432
 30
0.0
 10
91.11321260991836
 20
413.7001551853584
 30
0.0
 10
91.18681725420177
 20
413.7384827670995
 30
0.0
 10
91.36154762029742
 20
413.816029087576
 30
0.0
 10
91.46239824919896
 20
413.8550052952447
 30
0.0
 10
91.79368352918289
 20
413.9705001516898
 30
0.0
 10
92.06136369056681
 20
414.0484125953598
 30
0.0
 10
92.4940377166222
 20
414.1638925207605
 30
0.0
 10
92.64555580347333
 20
414.2027583166256
 30
0.0
 10
92.95498156085945
 20
414.2805326502942
 30
0.0
 10
93.11160389055321
 20
414.319142417249
 30
0.0
 10
93.26998308174196
 20
414.3581831489756
 30
0.0
  0
SPLINE
  5
3D6
330
1F
100
AcDbEntity
  8
0
  6
Continuous
 62
     7
370
    25
100
AcDbSpline
210
0.0
220
0.0
230
1.0
 70
     8
 71
     3
 72
    20
 73
    16
 74
     0
 42
0.000000001
 43
0.00000001
 40
0.0
 40
0.0
 40
0.0
 40
0.0
 40
0.125
 40
0.125
 40
0.25
 40
0.25
 40
0.375
 40
0.375
 40
0.5
 40
0.5
 40
0.75
 40
0.75
 40
0.875
 40
0.875
 40
1.0
 40
1.0
 40
1.0
 40
1.0
 10
93.26998308174196
 20
121.2996045052127
 30
0.0
 10
93.11160389409126
 20
121.3386452360673
 30
0.0
 10
92.95535816939957
 20
121.377163940267
 30
0.0
 10
92.64736631998295
 20
121.454570691575
 30
0.0
 10
92.49472221251183
 20
121.4937151095617
 30
0.0
 10
92.20563792332476
 20
121.5708658634768
 30
0.0
 10
92.06783338514072
 20
121.6091934452179
 30
0.0
 10
91.8062147095018
 20
121.6867397656944
 30
0.0
 10
91.68346840281916
 20
121.7257159733631
 30
0.0
 10
91.35214402587147
 20
121.8412108298082
 30
0.0
 10
91.17313290184323
 20
121.9191232734782
 30
0.0
 10
90.99351780246234
 20
122.034603198879
 30
0.0
 10
90.94727345359463
 20
122.0734689947441
 30
0.0
 10
90.8855201475834
 20
122.1512433284127
 30
0.0
 10
90.86998308174196
 20
122.1898530953675
 30
0.0
 10
90.86998308174196
 20
122.2288938270941
 30
0.0
  0
LINE
  5
3D7
330
1F
100
AcDbEntity
  8
0
  6
Continuous
 62
     7
370
    25
100
AcDbLine
 10
93.2699830817
 20
415.8288938271
 30
0.0
 11
93.2699830817
 21
414.4288938271
 31
0.0
  0
SPLINE
  5
3D8
330
1F
100
AcDbEntity
  8
0
  6
Continuous
 62
     7
370
    25
100
AcDbSpline
210
0.0
220
0.0
230
1.0
 70
     8
 71
     3
 72
     9
 73
     5
 74
     0
 42
0.000000001
 43
0.00000001
 40
0.0
 40
0.0
 40
0.0
 40
0.0
 40
0.7584558214377064
 40
1.0
 40
1.0
 40
1.0
 40
1.0
 10
93.26998308174197
 20
414.4288938270942
 30
0.0
 10
93.11827530380573
 20
414.4178392912607
 30
0.0
 10
92.91825339923562
 20
414.4032642355739
 30
0.0
 10
92.7676993078442
 20
414.2801678519741
 30
0.0
 10
92.73133384350984
 20
414.2504346371135
 30
0.0
  0
SPLINE
  5
3D9
330
1F
100
AcDbEntity
  8
0
  6
Continuous
 62
     7
370
    25
100
AcDbSpline
210
0.0
220
0.0
230
1.0
 70
     8
 71
     3
 72
    20
 73
    16
 74
     0
 42
0.000000001
 43
0.00000001
 40
0.0
 40
0.0
 40
0.0
 40
0.0
 40
0.1250000000000019
 40
0.1250000000000019
 40
0.2500000000000038
 40
0.2500000000000038
 40
0.3750000000000058
 40
0.3750000000000058
 40
0.5000000000000077
 40
0.5000000000000077
 40
0.7500000000000063
 40
0.7500000000000063
 40
0.8750000000000032
 40
0.8750000000000032
 40
1.0
 40
1.0
 40
1.0
 40
1.0
 10
93.269983081742
 20
415.8288938270942
 30
0.0
 10
93.1116038940913
 20
415.8288938270942
 30
0.0
 10
92.9553581693996
 20
415.8133572666194
 30
0.0
 10
92.64736631998299
 20
415.7520389146587
 30
0.0
 10
92.49472221251187
 20
415.705615169072
 30
0.0
 10
92.2056379233248
 20
415.5856642989178
 30
0.0
 10
92.06783338514077
 20
415.5120596546344
 30
0.0
 10
91.80621470950186
 20
415.3373292885387
 30
0.0
 10
91.68346840281919
 20
415.2364786596372
 30
0.0
 10
91.3521440258715
 20
414.9051933796532
 30
0.0
 10
91.17313290184326
 20
414.6375132182694
 30
0.0
 10
90.99351780246238
 20
414.204839192214
 30
0.0
 10
90.94727345359466
 20
414.0533211053628
 30
0.0
 10
90.88552014758346
 20
413.7438953479766
 30
0.0
 10
90.869983081742
 20
413.5872730182829
 30
0.0
 10
90.869983081742
 20
413.4288938270942
 30
0.0
  0
SPLINE
  5
3DA
330
1F
100
AcDbEntity
  8
0
  6
Continuous
 62
     7
370
    25
100
AcDbSpline
210
0.0
220
0.0
230
1.0
 70
     8
 71
     3
 72
    20
 73
    16
 74
     0
 42
0.000000001
 43
0.00000001
 40
0.0
 40
0.0
 40
0.0
 40
0.0
 40
0.1250000000000007
 40
0.1250000000000007
 40
0.2500000000000013
 40
0.2500000000000013
 40
0.375000000000002
 40
0.375000000000002
 40
0.5000000000000027
 40
0.5000000000000027
 40
0.750000000000004
 40
0.750000000000004
 40
0.8750000000000021
 40
0.8750000000000021
 40
1.0
 40
1.0
 40
1.0
 40
1.0
 10
90.86998308174199
 20
122.2288938270941
 30
0.0
 10
90.86998308174199
 20
122.0705146394434
 30
0.0
 10
90.88551964221683
 20
121.9142689147517
 30
0.0
 10
90.94683799417744
 20
121.6062770653351
 30
0.0
 10
90.99326173976424
 20
121.4536329578639
 30
0.0
 10
91.11321260991836
 20
121.164548668677
 30
0.0
 10
91.18681725420178
 20
121.0267441304928
 30
0.0
 10
91.36154762029743
 20
120.765125454854
 30
0.0
 10
91.46239824919897
 20
120.6423791481713
 30
0.0
 10
91.7936835291829
 20
120.3110547712236
 30
0.0
 10
92.0613636905668
 20
120.1320436471954
 30
0.0
 10
92.49403771662219
 20
119.9524285478145
 30
0.0
 10
92.64555580347333
 20
119.9061841989467
 30
0.0
 10
92.95498156085945
 20
119.8444308929355
 30
0.0
 10
93.1116038905532
 20
119.828893827094
 30
0.0
 10
93.26998308174193
 20
119.8288938270941
 30
0.0
  0
SPLINE
  5
3DB
330
1F
100
AcDbEntity
  8
0
  6
Continuous
 62
     7
370
    25
100
AcDbSpline
210
0.0
220
0.0
230
1.0
 70
     8
 71
     3
 72
     9
 73
     5
 74
     0
 42
0.000000001
 43
0.00000001
 40
0.0
 40
0.0
 40
0.0
 40
0.0
 40
0.4258694941525714
 40
1.0
 40
1.0
 40
1.0
 40
1.0
 10
92.71359165473277
 20
121.4189723897714
 30
0.0
 10
92.78399583133766
 20
121.3690507649269
 30
0.0
 10
92.94931449720026
 20
121.2518279407283
 30
0.0
 10
93.15302605945672
 20
121.2372585555668
 30
0.0
 10
93.26998308174197
 20
121.2288938270941
 30
0.0
  0
LINE
  5
3DC
330
1F
100
AcDbEntity
  8
0
  6
Continuous
 62
     7
370
    25
100
AcDbLine
 10
93.2699830817
 20
119.8288938271
 30
0.0
 11
93.2699830817
 21
121.2288938271
 31
0.0
  0
LINE
  5
3DD
330
1F
100
AcDbEntity
  8
0
  6
Continuous
 62
     7
370
    25
100
AcDbLine
 10
93.2699830817
 20
415.8288938271
 30
0.0
 11
102.8699830817
 21
415.8288938271
 31
0.0
  0
LINE
  5
3DE
330
1F
100
AcDbEntity
  8
0
  6
Continuous
 62
     7
370
    25
100
AcDbLine
 10
102.8699830817
 20
415.8288938271
 30
0.0
 11
102.8699830817
 21
414.4288938271
 31
0.0
  0
LINE
  5
3DF
330
1F
100
AcDbEntity
  8
0
  6
Continuous
 62
     7
370
    25
100
AcDbLine
 10
93.2699830817
 20
414.4288938271
 30
0.0
 11
102.8699830817
 21
414.4288938271
 31
0.0
  0
LINE
  5
3E0
330
1F
100
AcDbEntity
  8
0
  6
Continuous
 62
     7
370
    25
100
AcDbLine
 10
102.8699830817
 20
119.8288938271
 30
0.0
 11
102.8699830817
 21
121.2288938271
 31
0.0
  0
LINE
  5
3E1
330
1F
100
AcDbEntity
  8
0
  6
Continuous
 62
     7
370
    25
100
AcDbLine
 10
93.2699830817
 20
119.8288938271
 30
0.0
 11
102.8699830817
 21
119.8288938271
 31
0.0
  0
LINE
  5
3E2
330
1F
100
AcDbEntity
  8
0
  6
Continuous
 62
     7
370
    25
100
AcDbLine
 10
93.2699830817
 20
121.2288938271
 30
0.0
 11
102.8699830817
 21
121.2288938271
 31
0.0
  0
LINE
  5
3E3
330
1F
100
AcDbEntity
  8
0
  6
Continuous
 62
     7
370
    25
100
AcDbLine
 10
110.9699830817
 20
430.3288938271
 30
0.0
 11
110.9699830817
 21
413.1288938271
 31
0.0
  0
LINE
  5
3E4
330
1F
100
AcDbEntity
  8
0
  6
Continuous
 62
     7
370
    25
100
AcDbLine
 10
106.9699830817
 20
430.3288938271
 30
0.0
 11
110.9699830817
 21
430.3288938271
 31
0.0
  0
LINE
  5
3E5
330
1F
100
AcDbEntity
  8
0
  6
Continuous
 62
     7
370
    25
100
AcDbLine
 10
106.9699830817
 20
447.3288938271
 30
0.0
 11
106.9699830817
 21
430.3288938271
 31
0.0
  0
ARC
  5
3E6
330
1F
100
AcDbEntity
  8
0
  6
Continuous
 62
     7
370
    25
100
AcDbCircle
 10
109.9699830817
 20
447.3288938271
 30
0.0
 40
3.000000000000014
100
AcDbArc
 50
90.0
 51
180.0
  0
LINE
  5
3E7
330
1F
100
AcDbEntity
  8
0
  6
Continuous
 62
     7
370
    25
100
AcDbLine
 10
126.9699830817
 20
450.3288938271
 30
0.0
 11
109.9699830817
 21
450.3288938271
 31
0.0
  0
ARC
  5
3E8
330
1F
100
AcDbEntity
  8
0
  6
Continuous
 62
     7
370
    25
100
AcDbCircle
 10
126.9699830817
 20
447.3288938271
 30
0.0
 40
3.0
100
AcDbArc
 50
0.0
 51
90.0
  0
LINE
  5
3E9
330
1F
100
AcDbEntity
  8
0
  6
Continuous
 62
     7
370
    25
100
AcDbLine
 10
129.9699830817
 20
413.1288938271
 30
0.0
 11
129.9699830817
 21
447.3288938271
 31
0.0
  0
CIRCLE
  5
3EA
330
1F
100
AcDbEntity
  8
0
  6
Continuous
 62
     7
370
    25
100
AcDbCircle
 10
121.4699830817
 20
443.8288938271
 30
0.0
 40
3.250000000000114
  0
CIRCLE
  5
3EB
330
1F
100
AcDbEntity
  8
0
  6
Continuous
 62
     7
370
    25
100
AcDbCircle
 10
121.4699830817
 20
418.8288938271
 30
0.0
 40
3.250000000000057
  0
LINE
  5
3EC
330
1F
100
AcDbEntity
  8
0
  6
Continuous
 62
     7
370
    25
100
AcDbLine
 10
110.9699830817
 20
411.3288938271
 30
0.0
 11
110.9699830817
 21
413.1288938271
 31
0.0
  0
LINE
  5
3ED
330
1F
100
AcDbEntity
  8
0
  6
Continuous
 62
     7
370
    25
100
AcDbLine
 10
129.9699830817
 20
411.3288938271
 30
0.0
 11
110.9699830817
 21
411.3288938271
 31
0.0
  0
LINE
  5
3EE
330
1F
100
AcDbEntity
  8
0
  6
Continuous
 62
     7
370
    25
100
AcDbLine
 10
129.9699830817
 20
413.1288938271
 30
0.0
 11
129.9699830817
 21
411.3288938271
 31
0.0
  0
LINE
  5
3EF
330
1F
100
AcDbEntity
  8
0
  6
Continuous
 62
     7
370
    25
100
AcDbLine
 10
110.7699830817
 20
412.1288938271
 30
0.0
 11
110.9699830817
 21
412.1288938271
 31
0.0
  0
LINE
  5
3F0
330
1F
100
AcDbEntity
  8
0
  6
Continuous
 62
     7
370
    25
100
AcDbLine
 10
110.7699830817
 20
411.3288938271
 30
0.0
 11
110.9699830817
 21
411.3288938271
 31
0.0
  0
ARC
  5
3F1
330
1F
100
AcDbEntity
  8
0
  6
Continuous
 62
     7
370
    25
100
AcDbCircle
 10
110.7699830817
 20
413.1288938271
 30
0.0
 40
1.800000000000011
100
AcDbArc
 50
180.0
 51
270.0
  0
ARC
  5
3F2
330
1F
100
AcDbEntity
  8
0
  6
Continuous
 62
     7
370
    25
100
AcDbCircle
 10
110.7699830817
 20
413.1288938271
 30
0.0
 40
1.000000000000014
100
AcDbArc
 50
180.0
 51
270.0
  0
LINE
  5
3F3
330
1F
100
AcDbEntity
  8
0
  6
Continuous
 62
     7
370
    25
100
AcDbLine
 10
109.7699830817
 20
413.1288938271
 30
0.0
 11
109.7699830817
 21
423.3288938271
 31
0.0
  0
LINE
  5
3F4
330
1F
100
AcDbEntity
  8
0
  6
Continuous
 62
     7
370
    25
100
AcDbLine
 10
108.9699830817
 20
423.3288938271
 30
0.0
 11
109.7699830817
 21
423.3288938271
 31
0.0
  0
LINE
  5
3F5
330
1F
100
AcDbEntity
  8
0
  6
Continuous
 62
     7
370
    25
100
AcDbLine
 10
153.9699830817
 20
412.1288938271
 30
0.0
 11
153.9699830817
 21
411.3288938271
 31
0.0
  0
LINE
  5
3F6
330
1F
100
AcDbEntity
  8
0
  6
Continuous
 62
     7
370
    25
100
AcDbLine
 10
150.9699830817
 20
412.1288938271
 30
0.0
 11
153.9699830817
 21
412.1288938271
 31
0.0
  0
LINE
  5
3F7
330
1F
100
AcDbEntity
  8
0
  6
Continuous
 62
     7
370
    25
100
AcDbLine
 10
153.9699830817
 20
411.3288938271
 30
0.0
 11
150.9699830817
 21
411.3288938271
 31
0.0
  0
LINE
  5
3F8
330
1F
100
AcDbEntity
  8
0
  6
Continuous
 62
     7
370
    25
100
AcDbLine
 10
129.9699830817
 20
412.1288938271
 30
0.0
 11
150.9699830817
 21
412.1288938271
 31
0.0
  0
LINE
  5
3F9
330
1F
100
AcDbEntity
  8
0
  6
Continuous
 62
     7
370
    25
100
AcDbLine
 10
129.9699830817
 20
411.3288938271
 30
0.0
 11
150.9699830817
 21
411.3288938271
 31
0.0
  0
LINE
  5
3FA
330
1F
100
AcDbEntity
  8
0
  6
Continuous
 62
     7
370
    25
100
AcDbLine
 10
152.8745964735
 20
416.3288938271
 30
0.0
 11
152.8745964735
 21
415.5288938271
 31
0.0
  0
LINE
  5
3FB
330
1F
100
AcDbEntity
  8
0
  6
Continuous
 62
     7
370
    25
100
AcDbLine
 10
152.8745964735
 20
415.5288938271
 30
0.0
 11
149.8745964735
 21
415.5288938271
 31
0.0
  0
LINE
  5
3FC
330
1F
100
AcDbEntity
  8
0
  6
Continuous
 62
     7
370
    25
100
AcDbLine
 10
149.8745964735
 20
416.3288938271
 30
0.0
 11
152.8745964735
 21
416.3288938271
 31
0.0
  0
LINE
  5
3FD
330
1F
100
AcDbEntity
  8
0
  6
Continuous
 62
     7
370
    25
100
AcDbLine
 10
143.3569050199
 20
416.3288938271
 30
0.0
 11
149.8745964735
 21
416.3288938271
 31
0.0
  0
LINE
  5
3FE
330
1F
100
AcDbEntity
  8
0
  6
Continuous
 62
     7
370
    25
100
AcDbLine
 10
143.3569050199
 20
415.5288938271
 30
0.0
 11
149.8745964735
 21
415.5288938271
 31
0.0
  0
LINE
  5
3FF
330
1F
100
AcDbEntity
  8
0
  6
Continuous
 62
     7
370
    25
100
AcDbLine
 10
142.8569050199
 20
415.3949192309
 30
0.0
 11
137.1999830817
 21
412.1288938271
 31
0.0
  0
LINE
  5
400
330
1F
100
AcDbEntity
  8
0
  6
Continuous
 62
     7
370
    25
100
AcDbLine
 10
142.4569050199
 20
416.0877395539
 30
0.0
 11
135.8320338893
 21
412.2628684233
 31
0.0
  0
ARC
  5
401
330
1F
100
AcDbEntity
  8
0
  6
Continuous
 62
     7
370
    25
100
AcDbCircle
 10
143.3569050199
 20
414.5288938271
 30
0.0
 40
1.800000000000011
100
AcDbArc
 50
90.0
 51
120.0
  0
ARC
  5
402
330
1F
100
AcDbEntity
  8
0
  6
Continuous
 62
     7
370
    25
100
AcDbCircle
 10
143.3569050199
 20
414.5288938271
 30
0.0
 40
0.999999999999906
100
AcDbArc
 50
90.0
 51
120.0
  0
ARC
  5
403
330
1F
100
AcDbEntity
  8
0
  6
Continuous
 62
     7
370
    25
100
AcDbCircle
 10
135.3320338893
 20
413.1288938271
 30
0.0
 40
1.0
100
AcDbArc
 50
270.0
 51
300.0
  0
CIRCLE
  5
404
330
1F
100
AcDbEntity
  8
0
  6
Continuous
 62
     7
370
    25
100
AcDbCircle
 10
121.4699830817
 20
418.8288938271
 30
0.0
 40
2.458750000016586
  0
CIRCLE
  5
405
330
1F
100
AcDbEntity
  8
0
  6
Continuous
 62
     7
370
    25
100
AcDbCircle
 10
121.4699830817
 20
418.8288938271
 30
0.0
 40
3.000000000000012
  0
LINE
  5
406
330
1F
100
AcDbEntity
  8
0
  6
Continuous
 62
     7
370
    25
100
AcDbLine
 10
110.9699830817
 20
417.3880645052
 30
0.0
 11
110.3846630671
 21
417.3880645052
 31
0.0
  0
SPLINE
  5
407
330
1F
100
AcDbEntity
  8
0
  6
Continuous
 62
     7
370
    25
100
AcDbSpline
210
0.0
220
0.0
230
1.0
 70
     8
 71
     3
 72
    14
 73
    10
 74
     0
 42
0.000000001
 43
0.00000001
 40
0.0
 40
0.0
 40
0.0
 40
0.0
 40
0.25
 40
0.25
 40
0.5
 40
0.5
 40
0.75
 40
0.75
 40
1.0
 40
1.0
 40
1.0
 40
1.0
 10
110.3846630671279
 20
421.3784957026506
 30
0.0
 10
110.2897884578173
 20
421.0539894733619
 30
0.0
 10
110.2101835329416
 20
420.7215302509676
 30
0.0
 10
110.1013469180474
 20
420.0549603360594
 30
0.0
 10
110.0720233123569
 20
419.7198840787842
 30
0.0
 10
110.0720880941025
 20
419.0455406085565
 30
0.0
 10
110.1022442874288
 20
418.7037611878777
 30
0.0
 10
110.2118294887945
 20
418.0373472682728
 30
0.0
 10
110.2903724625967
 20
417.7105732223201
 30
0.0
 10
110.3846630671279
 20
417.3880645052237
 30
0.0
  0
LINE
  5
408
330
1F
100
AcDbEntity
  8
0
  6
Continuous
 62
     7
370
    25
100
AcDbLine
 10
110.9699830817
 20
421.3784957027
 30
0.0
 11
110.3846630671
 21
421.3784957027
 31
0.0
  0
SPLINE
  5
409
330
1F
100
AcDbEntity
  8
0
  6
Continuous
 62
     7
370
    25
100
AcDbSpline
210
0.0
220
0.0
230
1.0
 70
     8
 71
     3
 72
    12
 73
     8
 74
     0
 42
0.000000001
 43
0.00000001
 40
0.0
 40
0.0
 40
0.0
 40
0.0
 40
0.5000000000000014
 40
0.5000000000000014
 40
0.7500000000000007
 40
0.7500000000000007
 40
1.0
 40
1.0
 40
1.0
 40
1.0
 10
110.384663067127
 20
417.3880645052238
 30
0.0
 10
110.1941687777035
 20
416.9717634215693
 30
0.0
 10
110.0724943646411
 20
416.5492248935808
 30
0.0
 10
110.0718381741098
 20
415.89893475412
 30
0.0
 10
110.1016721759042
 20
415.6823925362057
 30
0.0
 10
110.2106020460118
 20
415.2570245309652
 30
0.0
 10
110.2892972330747
 20
415.0468725519801
 30
0.0
 10
110.3846630671275
 20
414.8384626296673
 30
0.0
  0
LINE
  5
40A
330
1F
100
AcDbEntity
  8
0
  6
Continuous
 62
     7
370
    25
100
AcDbLine
 10
110.3846630671
 20
414.8384626297
 30
0.0
 11
110.2867880299
 21
415.08136738
 31
0.0
  0
SPLINE
  5
40B
330
1F
100
AcDbEntity
  8
0
  6
Continuous
 62
     7
370
    25
100
AcDbSpline
210
0.0
220
0.0
230
1.0
 70
     8
 71
     3
 72
    12
 73
     8
 74
     0
 42
0.000000001
 43
0.00000001
 40
0.0
 40
0.0
 40
0.0
 40
0.0
 40
0.499999999999987
 40
0.499999999999987
 40
0.7499999999999934
 40
0.7499999999999934
 40
1.0
 40
1.0
 40
1.0
 40
1.0
 10
110.384663067127
 20
422.8193250245211
 30
0.0
 10
110.1941687777035
 20
422.5840652320781
 30
0.0
 10
110.0724943646411
 20
422.3452805392276
 30
0.0
 10
110.0718381741098
 20
421.9777890066705
 30
0.0
 10
110.1016721759042
 20
421.8554168120212
 30
0.0
 10
110.2106020460118
 20
421.6150331268617
 30
0.0
 10
110.2892972330747
 20
421.4962721798001
 30
0.0
 10
110.3846630671274
 20
421.3784957026506
 30
0.0
  0
LINE
  5
40C
330
1F
100
AcDbEntity
  8
0
  6
Continuous
 62
     7
370
    25
100
AcDbLine
 10
109.8699830817
 20
415.6788938271
 30
0.0
 11
109.8699830817
 21
421.9788938271
 31
0.0
  0
LINE
  5
40D
330
1F
100
AcDbEntity
  8
0
  6
Continuous
 62
     7
370
    25
100
AcDbLine
 10
110.9699830817
 20
414.8384626297
 30
0.0
 11
110.3846630671
 21
414.8384626297
 31
0.0
  0
LINE
  5
40E
330
1F
100
AcDbEntity
  8
0
  6
Continuous
 62
     7
370
    25
100
AcDbLine
 10
110.9699830817
 20
422.8193250245
 30
0.0
 11
110.3846630671
 21
422.8193250245
 31
0.0
  0
LINE
  5
40F
330
1F
100
AcDbEntity
  8
0
  6
Continuous
 62
     7
370
    25
100
AcDbLine
 10
107.1699830817
 20
409.6288938271
 30
0.0
 11
102.8699830817
 21
409.6288938271
 31
0.0
  0
LINE
  5
410
330
1F
100
AcDbEntity
  8
0
  6
Continuous
 62
     7
370
    25
100
AcDbLine
 10
107.1699830817
 20
408.8288938271
 30
0.0
 11
107.1699830817
 21
409.6288938271
 31
0.0
  0
LINE
  5
411
330
1F
100
AcDbEntity
  8
0
  6
Continuous
 62
     7
370
    25
100
AcDbLine
 10
107.1699830817
 20
408.8288938271
 30
0.0
 11
102.8699830817
 21
408.8288938271
 31
0.0
  0
LINE
  5
412
330
1F
100
AcDbEntity
  8
0
  6
Continuous
 62
     7
370
    25
100
AcDbLine
 10
107.1699830817
 20
428.8288938271
 30
0.0
 11
97.2699830817
 21
428.8288938271
 31
0.0
  0
LINE
  5
413
330
1F
100
AcDbEntity
  8
0
  6
Continuous
 62
     7
370
    25
100
AcDbLine
 10
107.1699830817
 20
428.0288938271
 30
0.0
 11
107.1699830817
 21
428.8288938271
 31
0.0
  0
LINE
  5
414
330
1F
100
AcDbEntity
  8
0
  6
Continuous
 62
     7
370
    25
100
AcDbLine
 10
97.2699830817
 20
428.0288938271
 30
0.0
 11
107.1699830817
 21
428.0288938271
 31
0.0
  0
LINE
  5
415
330
1F
100
AcDbEntity
  8
0
  6
Continuous
 62
     7
370
    25
100
AcDbLine
 10
97.2699830817
 20
428.0288938271
 30
0.0
 11
97.2699830817
 21
427.9288938271
 31
0.0
  0
LINE
  5
416
330
1F
100
AcDbEntity
  8
0
  6
Continuous
 62
     7
370
    25
100
AcDbLine
 10
97.2699830817
 20
427.9288938271
 30
0.0
 11
102.4199830817
 21
427.9288938271
 31
0.0
  0
LINE
  5
417
330
1F
100
AcDbEntity
  8
0
  6
Continuous
 62
     7
370
    25
100
AcDbLine
 10
102.4199830817
 20
427.1288938271
 30
0.0
 11
102.4199830817
 21
427.9288938271
 31
0.0
  0
LINE
  5
418
330
1F
100
AcDbEntity
  8
0
  6
Continuous
 62
     7
370
    25
100
AcDbLine
 10
97.2699830817
 20
427.1288938271
 30
0.0
 11
102.4199830817
 21
427.1288938271
 31
0.0
  0
ARC
  5
419
330
1F
100
AcDbEntity
  8
0
  6
Continuous
 62
     7
370
    25
100
AcDbCircle
 10
97.2699830817
 20
427.9788938271
 30
0.0
 40
0.8500000000000227
100
AcDbArc
 50
90.0
 51
270.0
  0
ARC
  5
41A
330
1F
100
AcDbEntity
  8
0
  6
Continuous
 62
     7
370
    25
100
AcDbCircle
 10
107.1699830817
 20
410.6288938271
 30
0.0
 40
1.800000000000125
100
AcDbArc
 50
270.0
 51
0.0
  0
ARC
  5
41B
330
1F
100
AcDbEntity
  8
0
  6
Continuous
 62
     7
370
    25
100
AcDbCircle
 10
107.1699830817
 20
427.0288938271
 30
0.0
 40
1.000000000000057
100
AcDbArc
 50
0.0
 51
90.0
  0
ARC
  5
41C
330
1F
100
AcDbEntity
  8
0
  6
Continuous
 62
     7
370
    25
100
AcDbCircle
 10
107.1699830817
 20
410.6288938271
 30
0.0
 40
1.000000000000014
100
AcDbArc
 50
270.0
 51
0.0
  0
LINE
  5
41D
330
1F
100
AcDbEntity
  8
0
  6
Continuous
 62
     7
370
    25
100
AcDbLine
 10
108.9699830817
 20
410.6288938271
 30
0.0
 11
108.9699830817
 21
427.0288938271
 31
0.0
  0
LINE
  5
41E
330
1F
100
AcDbEntity
  8
0
  6
Continuous
 62
     7
370
    25
100
AcDbLine
 10
108.1699830817
 20
410.6288938271
 30
0.0
 11
108.1699830817
 21
427.0288938271
 31
0.0
  0
ARC
  5
41F
330
1F
100
AcDbEntity
  8
0
  6
Continuous
 62
     7
370
    25
100
AcDbCircle
 10
107.1699830817
 20
427.0288938271
 30
0.0
 40
1.800000000000026
100
AcDbArc
 50
0.0
 51
90.0
  0
LINE
  5
420
330
1F
100
AcDbEntity
  8
0
  6
Continuous
 62
     7
370
    25
100
AcDbLine
 10
106.1699830817
 20
422.8288938271
 30
0.0
 11
106.1699830817
 21
414.8288938271
 31
0.0
  0
LWPOLYLINE
  5
421
330
1F
100
AcDbEntity
  8
0
  6
Continuous
 62
     7
370
    25
100
AcDbPolyline
 90
        3
 70
   128
 43
0.0
 10
105.1639389653
 20
419.5526752315
 10
105.1595384402
 20
419.5099799009
 10
105.1433135915
 20
419.326281572
  0
ARC
  5
422
330
1F
100
AcDbEntity
  8
0
  6
Continuous
 62
     7
370
    25
100
AcDbCircle
 10
105.6677065159
 20
419.6394094095
 30
0.0
 40
0.6107675350083217
100
AcDbArc
 50
210.8424581413
 51
243.3898036633
  0
ARC
  5
423
330
1F
100
AcDbEntity
  8
0
  6
Continuous
 62
     7
370
    25
100
AcDbCircle
 10
114.5506404373
 20
418.4978964582
 30
0.0
 40
9.175815043661288
100
AcDbArc
 50
177.9327321269
 51
179.656210106
  0
ARC
  5
424
330
1F
100
AcDbEntity
  8
0
  6
Continuous
 62
     7
370
    25
100
AcDbCircle
 10
112.9069629795
 20
418.734756552
 30
0.0
 40
7.786288415097061
100
AcDbArc
 50
184.3702527064
 51
195.2299003794
  0
ARC
  5
425
330
1F
100
AcDbEntity
  8
0
  6
Continuous
 62
     7
370
    25
100
AcDbCircle
 10
105.6152546467
 20
416.7843927108
 30
0.0
 40
0.2406805056719961
100
AcDbArc
 50
156.7420981705
 51
203.2579018295
  0
ARC
  5
426
330
1F
100
AcDbEntity
  8
0
  6
Continuous
 62
     7
370
    25
100
AcDbCircle
 10
112.9069629795
 20
418.9248318469
 30
0.0
 40
7.786288415099911
100
AcDbArc
 50
184.3702527064
 51
195.2299003794
  0
ARC
  5
427
330
1F
100
AcDbEntity
  8
0
  6
Continuous
 62
     7
370
    25
100
AcDbCircle
 10
105.6677065159
 20
418.0183782446
 30
0.0
 40
0.6107675350083941
100
AcDbArc
 50
116.6101963367
 51
149.1575418587
  0
ARC
  5
428
330
1F
100
AcDbEntity
  8
0
  6
Continuous
 62
     7
370
    25
100
AcDbCircle
 10
114.4737686574
 20
419.1568753397
 30
0.0
 40
9.098942710246284
100
AcDbArc
 50
176.2668736478
 51
183.7331263522
  0
ARC
  5
429
330
1F
100
AcDbEntity
  8
0
  6
Continuous
 62
     7
370
    25
100
AcDbCircle
 10
105.6677065159
 20
419.2032290294
 30
0.0
 40
0.6107675350079109
100
AcDbArc
 50
116.6101963367
 51
149.1575418587
  0
ARC
  5
42A
330
1F
100
AcDbEntity
  8
0
  6
Continuous
 62
     7
370
    25
100
AcDbCircle
 10
112.9069629795
 20
418.9230311022
 30
0.0
 40
7.786288415098967
100
AcDbArc
 50
164.7700996206
 51
175.6297472936
  0
ARC
  5
42B
330
1F
100
AcDbEntity
  8
0
  6
Continuous
 62
     7
370
    25
100
AcDbCircle
 10
105.5272168604
 20
420.8944962039
 30
0.0
 40
0.1522432420627835
100
AcDbArc
 50
150.9451665856
 51
179.1449116574
  0
LINE
  5
42C
330
1F
100
AcDbEntity
  8
0
  6
Continuous
 62
     7
370
    25
100
AcDbLine
 10
105.1433135915
 20
419.516356867
 30
0.0
 11
105.3818692493
 21
419.516356867
 31
0.0
  0
LINE
  5
42D
330
1F
100
AcDbEntity
  8
0
  6
Continuous
 62
     7
370
    25
100
AcDbLine
 10
105.1433135915
 20
418.1414307872
 30
0.0
 11
105.1601805832
 21
418.1414307872
 31
0.0
  0
LINE
  5
42E
330
1F
100
AcDbEntity
  8
0
  6
Continuous
 62
     7
370
    25
100
AcDbLine
 10
105.1433135915
 20
419.326281572
 30
0.0
 11
105.3763639079
 21
419.326281572
 31
0.0
  0
LINE
  5
42F
330
1F
100
AcDbEntity
  8
0
  6
Continuous
 62
     7
370
    25
100
AcDbLine
 10
129.3699830817
 20
360.1632006645
 30
0.0
 11
129.3699830817
 21
355.0221244276
 31
0.0
  0
ARC
  5
430
330
1F
100
AcDbEntity
  8
0
  6
Continuous
 62
     7
370
    25
100
AcDbCircle
 10
127.428471971
 20
355.0843670035
 30
0.0
 40
1.942508566655214
100
AcDbArc
 50
268.2745645851
 51
358.1637932023
  0
LINE
  5
431
330
1F
100
AcDbEntity
  8
0
  6
Continuous
 62
     7
370
    25
100
AcDbLine
 10
127.3699830817
 20
353.142739186
 30
0.0
 11
115.3699830817
 21
353.142739186
 31
0.0
  0
ARC
  5
432
330
1F
100
AcDbEntity
  8
0
  6
Continuous
 62
     7
370
    25
100
AcDbCircle
 10
115.3114941925
 20
355.0843670035
 30
0.0
 40
1.942508566655243
100
AcDbArc
 50
181.8362067977
 51
271.7254354149
  0
LINE
  5
433
330
1F
100
AcDbEntity
  8
0
  6
Continuous
 62
     7
370
    25
100
AcDbLine
 10
113.3699830817
 20
355.0221244276
 30
0.0
 11
113.3699830817
 21
360.1632006645
 31
0.0
  0
LINE
  5
434
330
1F
100
AcDbEntity
  8
0
  6
Continuous
 62
     7
370
    25
100
AcDbLine
 10
127.3699830817
 20
352.4586988994
 30
0.0
 11
115.3699830817
 21
352.4586988994
 31
0.0
  0
LINE
  5
435
330
1F
100
AcDbEntity
  8
0
  6
Continuous
 62
     7
370
    25
100
AcDbLine
 10
129.3699830817
 20
355.0221244276
 30
0.0
 11
129.3699830817
 21
354.338084141
 31
0.0
  0
ARC
  5
436
330
1F
100
AcDbEntity
  8
0
  6
Continuous
 62
     7
370
    25
100
AcDbCircle
 10
127.428471971
 20
354.4003267168
 30
0.0
 40
1.942508566655244
100
AcDbArc
 50
268.2745645851
 51
358.1637932023
  0
LINE
  5
437
330
1F
100
AcDbEntity
  8
0
  6
Continuous
 62
     7
370
    25
100
AcDbLine
 10
113.3699830817
 20
354.338084141
 30
0.0
 11
113.3699830817
 21
355.0221244276
 31
0.0
  0
ARC
  5
438
330
1F
100
AcDbEntity
  8
0
  6
Continuous
 62
     7
370
    25
100
AcDbCircle
 10
115.3114941925
 20
354.4003267168
 30
0.0
 40
1.942508566655244
100
AcDbArc
 50
181.8362067977
 51
271.7254354149
  0
LINE
  5
439
330
1F
100
AcDbEntity
  8
0
  6
Continuous
 62
     7
370
    25
100
AcDbLine
 10
129.3699830817
 20
360.1632006645
 30
0.0
 11
129.3699830817
 21
360.5052208078
 31
0.0
  0
LINE
  5
43A
330
1F
100
AcDbEntity
  8
0
  6
Continuous
 62
     7
370
    25
100
AcDbLine
 10
113.3699830817
 20
360.5052208078
 30
0.0
 11
113.3699830817
 21
360.1632006645
 31
0.0
  0
LINE
  5
43B
330
1F
100
AcDbEntity
  8
0
  6
Continuous
 62
     7
370
    25
100
AcDbLine
 10
102.8699830817
 20
360.3288938271
 30
0.0
 11
113.3699830817
 21
360.3288938271
 31
0.0
  0
CIRCLE
  5
43C
330
1F
100
AcDbEntity
  8
0
  6
Continuous
 62
     7
370
    25
100
AcDbCircle
 10
121.4699830817
 20
367.8288938271
 30
0.0
 40
3.5
  0
LINE
  5
43D
330
1F
100
AcDbEntity
  8
0
  6
Continuous
 62
     7
370
    25
100
AcDbLine
 10
129.3699830817
 20
360.5052208078
 30
0.0
 11
129.3699830817
 21
373.3288938271
 31
0.0
  0
LINE
  5
43E
330
1F
100
AcDbEntity
  8
0
  6
Continuous
 62
     7
370
    25
100
AcDbLine
 10
127.3699830817
 20
375.3288938271
 30
0.0
 11
102.8699830817
 21
375.3288938271
 31
0.0
  0
ARC
  5
43F
330
1F
100
AcDbEntity
  8
0
  6
Continuous
 62
     7
370
    25
100
AcDbCircle
 10
127.3699830817
 20
373.3288938271
 30
0.0
 40
2.0
100
AcDbArc
 50
0.0
 51
90.0
  0
ARC
  5
440
330
1F
100
AcDbEntity
  8
0
  6
Continuous
 62
     7
370
    25
100
AcDbCircle
 10
127.428471971
 20
180.5734206507
 30
0.0
 40
1.942508566655242
100
AcDbArc
 50
1.8362067977
 51
91.7254354149
  0
LINE
  5
441
330
1F
100
AcDbEntity
  8
0
  6
Continuous
 62
     7
370
    25
100
AcDbLine
 10
129.3699830817
 20
180.6356632266
 30
0.0
 11
129.3699830817
 21
175.4945869897
 31
0.0
  0
LINE
  5
442
330
1F
100
AcDbEntity
  8
0
  6
Continuous
 62
     7
370
    25
100
AcDbLine
 10
113.3699830817
 20
175.4945869897
 30
0.0
 11
113.3699830817
 21
180.6356632266
 31
0.0
  0
ARC
  5
443
330
1F
100
AcDbEntity
  8
0
  6
Continuous
 62
     7
370
    25
100
AcDbCircle
 10
115.3114941925
 20
180.5734206507
 30
0.0
 40
1.942508566655273
100
AcDbArc
 50
88.2745645851
 51
178.1637932023
  0
LINE
  5
444
330
1F
100
AcDbEntity
  8
0
  6
Continuous
 62
     7
370
    25
100
AcDbLine
 10
115.3699830817
 20
182.5150484681
 30
0.0
 11
127.3699830817
 21
182.5150484681
 31
0.0
  0
LINE
  5
445
330
1F
100
AcDbEntity
  8
0
  6
Continuous
 62
     7
370
    25
100
AcDbLine
 10
129.3699830817
 20
181.3197035132
 30
0.0
 11
129.3699830817
 21
180.6356632266
 31
0.0
  0
ARC
  5
446
330
1F
100
AcDbEntity
  8
0
  6
Continuous
 62
     7
370
    25
100
AcDbCircle
 10
127.428471971
 20
181.2574609374
 30
0.0
 40
1.942508566655245
100
AcDbArc
 50
1.8362067977
 51
91.7254354149
  0
LINE
  5
447
330
1F
100
AcDbEntity
  8
0
  6
Continuous
 62
     7
370
    25
100
AcDbLine
 10
115.3699830817
 20
183.1990887548
 30
0.0
 11
127.3699830817
 21
183.1990887548
 31
0.0
  0
LINE
  5
448
330
1F
100
AcDbEntity
  8
0
  6
Continuous
 62
     7
370
    25
100
AcDbLine
 10
113.3699830817
 20
180.6356632266
 30
0.0
 11
113.3699830817
 21
181.3197035132
 31
0.0
  0
ARC
  5
449
330
1F
100
AcDbEntity
  8
0
  6
Continuous
 62
     7
370
    25
100
AcDbCircle
 10
115.3114941925
 20
181.2574609374
 30
0.0
 40
1.942508566655273
100
AcDbArc
 50
88.2745645851
 51
178.1637932023
  0
LINE
  5
44A
330
1F
100
AcDbEntity
  8
0
  6
Continuous
 62
     7
370
    25
100
AcDbLine
 10
113.3699830817
 20
175.4945869897
 30
0.0
 11
113.3699830817
 21
175.1525668464
 31
0.0
  0
LINE
  5
44B
330
1F
100
AcDbEntity
  8
0
  6
Continuous
 62
     7
370
    25
100
AcDbLine
 10
129.3699830817
 20
175.1525668464
 30
0.0
 11
129.3699830817
 21
175.4945869897
 31
0.0
  0
LINE
  5
44C
330
1F
100
AcDbEntity
  8
0
  6
Continuous
 62
     7
370
    25
100
AcDbLine
 10
113.3699830817
 20
175.3288938271
 30
0.0
 11
102.8699830817
 21
175.3288938271
 31
0.0
  0
ARC
  5
44D
330
1F
100
AcDbEntity
  8
0
  6
Continuous
 62
     7
370
    25
100
AcDbCircle
 10
127.3699830817
 20
162.3288938271
 30
0.0
 40
2.0
100
AcDbArc
 50
270.0
 51
0.0
  0
CIRCLE
  5
44E
330
1F
100
AcDbEntity
  8
0
  6
Continuous
 62
     7
370
    25
100
AcDbCircle
 10
121.4699830817
 20
167.8288938271
 30
0.0
 40
3.5
  0
LINE
  5
44F
330
1F
100
AcDbEntity
  8
0
  6
Continuous
 62
     7
370
    25
100
AcDbLine
 10
129.3699830817
 20
162.3288938271
 30
0.0
 11
129.3699830817
 21
175.1525668464
 31
0.0
  0
LINE
  5
450
330
1F
100
AcDbEntity
  8
0
  6
Continuous
 62
     7
370
    25
100
AcDbLine
 10
102.8699830817
 20
160.3288938271
 30
0.0
 11
127.3699830817
 21
160.3288938271
 31
0.0
  0
CIRCLE
  5
451
330
1F
100
AcDbEntity
  8
0
  6
Continuous
 62
     7
370
    25
100
AcDbCircle
 10
121.4699830817
 20
367.8288938271
 30
0.0
 40
2.458750000016535
  0
CIRCLE
  5
452
330
1F
100
AcDbEntity
  8
0
  6
Continuous
 62
     7
370
    25
100
AcDbCircle
 10
121.4699830817
 20
367.8288938271
 30
0.0
 40
3.000000000000051
  0
ENDSEC
  0
SECTION
  2
OBJECTS
  0
DICTIONARY
  5
C
330
0
100
AcDbDictionary
281
     1
  3
ACAD_GROUP
350
D
  3
ACAD_LAYOUT
350
1A
  3
ACAD_MLINESTYLE
350
17
  3
ACAD_PLOTSETTINGS
350
19
  3
ACAD_PLOTSTYLENAME
350
E
  3
ACAD_SCALELIST
350
47
  0
DICTIONARY
  5
D
102
{ACAD_REACTORS
330
C
102
}
330
C
100
AcDbDictionary
281
     1
  0
DICTIONARY
  5
1A
102
{ACAD_REACTORS
330
C
102
}
330
C
100
AcDbDictionary
281
     1
  3
Layout1
350
1E
  3
Layout2
350
26
  3
Model
350
22
  0
DICTIONARY
  5
17
102
{ACAD_REACTORS
330
C
102
}
330
C
100
AcDbDictionary
281
     1
  3
Standard
350
18
  0
DICTIONARY
  5
19
102
{ACAD_REACTORS
330
C
102
}
330
C
100
AcDbDictionary
281
     1
  0
ACDBDICTIONARYWDFLT
  5
E
102
{ACAD_REACTORS
330
C
102
}
330
C
100
AcDbDictionary
281
     1
  3
Normal
350
F
100
AcDbDictionaryWithDefault
340
F
  0
DICTIONARY
  5
47
102
{ACAD_REACTORS
330
C
102
}
330
C
100
AcDbDictionary
281
     1
  3
A0
350
48
  3
A1
350
49
  3
A2
350
4A
  3
A3
350
4B
  3
A4
350
4C
  3
A5
350
4D
  3
A6
350
4E
  3
A7
350
4F
  3
A8
350
50
  3
A9
350
51
  3
B0
350
52
  3
B1
350
53
  3
B2
350
54
  3
B3
350
55
  3
B4
350
56
  3
B5
350
57
  3
B6
350
58
  3
B7
350
59
  3
B8
350
5A
  3
B9
350
5B
  3
C0
350
5C
  3
C1
350
5D
  3
C2
350
5E
  3
C3
350
5F
  3
C4
350
60
  3
C5
350
61
  3
C6
350
62
  3
C7
350
63
  3
C8
350
64
  3
C9
350
65
  3
D0
350
66
  3
D1
350
67
  3
D2
350
68
  0
LAYOUT
  5
1E
102
{ACAD_REACTORS
330
1A
102
}
330
1A
100
AcDbPlotSettings
  1

  2
none_device
  4

  6

 40
0.0
 41
0.0
 42
0.0
 43
0.0
 44
0.0
 45
0.0
 46
0.0
 47
0.0
 48
0.0
 49
0.0
140
0.0
141
0.0
142
1.0
143
1.0
 70
   688
 72
     1
 73
     0
 74
     5
  7

 75
    16
147
1.0
148
0.0
149
0.0
100
AcDbLayout
  1
Layout1
 70
     1
 71
     1
 10
0.0
 20
0.0
 11
420.0
 21
297.0
 12
0.0
 22
0.0
 32
0.0
 14
1.0000000000E+20
 24
1.0000000000E+20
 34
1.0000000000E+20
 15
-1.0000000000E+20
 25
-1.0000000000E+20
 35
-1.0000000000E+20
146
0.0
 13
0.0
 23
0.0
 33
0.0
 16
1.0
 26
0.0
 36
0.0
 17
0.0
 27
1.0
 37
0.0
 76
     0
330
1B
  0
LAYOUT
  5
26
102
{ACAD_REACTORS
330
1A
102
}
330
1A
100
AcDbPlotSettings
  1

  2
none_device
  4

  6

 40
0.0
 41
0.0
 42
0.0
 43
0.0
 44
0.0
 45
0.0
 46
0.0
 47
0.0
 48
0.0
 49
0.0
140
0.0
141
0.0
142
1.0
143
1.0
 70
   688
 72
     1
 73
     0
 74
     5
  7

 75
    16
147
1.0
148
0.0
149
0.0
100
AcDbLayout
  1
Layout2
 70
     1
 71
     2
 10
0.0
 20
0.0
 11
0.0
 21
0.0
 12
0.0
 22
0.0
 32
0.0
 14
0.0
 24
0.0
 34
0.0
 15
0.0
 25
0.0
 35
0.0
146
0.0
 13
0.0
 23
0.0
 33
0.0
 16
1.0
 26
0.0
 36
0.0
 17
0.0
 27
1.0
 37
0.0
 76
     0
330
23
  0
LAYOUT
  5
22
102
{ACAD_REACTORS
330
1A
102
}
330
1A
100
AcDbPlotSettings
  1

  2
none_device
  4
Letter_(8.50_x_11.00_Inches)
  6

 40
6.35
 41
6.35
 42
6.35000508
 43
6.35000508
 44
215.9
 45
279.4
 46
0.0
 47
0.0
 48
0.0
 49
0.0
140
0.0
141
0.0
142
1.0
143
1.0
 70
  1712
 72
     1
 73
     0
 74
     0
  7

 75
     0
147
1.0
148
0.0
149
0.0
100
AcDbLayout
  1
Model
 70
     1
 71
     0
 10
0.0
 20
0.0
 11
841.0
 21
594.0
 12
0.0
 22
0.0
 32
0.0
 14
0.0
 24
0.0
 34
0.0
 15
841.0
 25
594.0
 35
0.0
146
0.0
 13
0.0
 23
0.0
 33
0.0
 16
1.0
 26
0.0
 36
0.0
 17
0.0
 27
1.0
 37
0.0
 76
     0
330
1F
331
29
  0
MLINESTYLE
  5
18
102
{ACAD_REACTORS
330
17
102
}
330
17
100
AcDbMlineStyle
  2
Standard
 70
     0
  3

 62
   256
 51
90.0
 52
90.0
 71
     2
 49
0.5
 62
   256
  6
BYLAYER
 49
-0.5
 62
   256
  6
BYLAYER
  0
ACDBPLACEHOLDER
  5
F
102
{ACAD_REACTORS
330
E
102
}
330
E
  0
SCALE
  5
48
102
{ACAD_REACTORS
330
47
102
}
330
47
100
AcDbScale
 70
     0
300
1:1
140
1.0
141
1.0
290
     1
  0
SCALE
  5
49
102
{ACAD_REACTORS
330
47
102
}
330
47
100
AcDbScale
 70
     0
300
1:2
140
1.0
141
2.0
290
     0
  0
SCALE
  5
4A
102
{ACAD_REACTORS
330
47
102
}
330
47
100
AcDbScale
 70
     0
300
1:4
140
1.0
141
4.0
290
     0
  0
SCALE
  5
4B
102
{ACAD_REACTORS
330
47
102
}
330
47
100
AcDbScale
 70
     0
300
1:5
140
1.0
141
5.0
290
     0
  0
SCALE
  5
4C
102
{ACAD_REACTORS
330
47
102
}
330
47
100
AcDbScale
 70
     0
300
1:8
140
1.0
141
8.0
290
     0
  0
SCALE
  5
4D
102
{ACAD_REACTORS
330
47
102
}
330
47
100
AcDbScale
 70
     0
300
1:10
140
1.0
141
10.0
290
     0
  0
SCALE
  5
4E
102
{ACAD_REACTORS
330
47
102
}
330
47
100
AcDbScale
 70
     0
300
1:16
140
1.0
141
16.0
290
     0
  0
SCALE
  5
4F
102
{ACAD_REACTORS
330
47
102
}
330
47
100
AcDbScale
 70
     0
300
1:20
140
1.0
141
20.0
290
     0
  0
SCALE
  5
50
102
{ACAD_REACTORS
330
47
102
}
330
47
100
AcDbScale
 70
     0
300
1:30
140
1.0
141
30.0
290
     0
  0
SCALE
  5
51
102
{ACAD_REACTORS
330
47
102
}
330
47
100
AcDbScale
 70
     0
300
1:40
140
1.0
141
40.0
290
     0
  0
SCALE
  5
52
102
{ACAD_REACTORS
330
47
102
}
330
47
100
AcDbScale
 70
     0
300
1:50
140
1.0
141
50.0
290
     0
  0
SCALE
  5
53
102
{ACAD_REACTORS
330
47
102
}
330
47
100
AcDbScale
 70
     0
300
1:100
140
1.0
141
100.0
290
     0
  0
SCALE
  5
54
102
{ACAD_REACTORS
330
47
102
}
330
47
100
AcDbScale
 70
     0
300
2:1
140
2.0
141
1.0
290
     0
  0
SCALE
  5
55
102
{ACAD_REACTORS
330
47
102
}
330
47
100
AcDbScale
 70
     0
300
4:1
140
4.0
141
1.0
290
     0
  0
SCALE
  5
56
102
{ACAD_REACTORS
330
47
102
}
330
47
100
AcDbScale
 70
     0
300
8:1
140
8.0
141
1.0
290
     0
  0
SCALE
  5
57
102
{ACAD_REACTORS
330
47
102
}
330
47
100
AcDbScale
 70
     0
300
10:1
140
10.0
141
1.0
290
     0
  0
SCALE
  5
58
102
{ACAD_REACTORS
330
47
102
}
330
47
100
AcDbScale
 70
     0
300
100:1
140
100.0
141
1.0
290
     0
  0
SCALE
  5
59
102
{ACAD_REACTORS
330
47
102
}
330
47
100
AcDbScale
 70
     0
300
1/128" = 1'-0"
140
0.0078125
141
12.0
290
     0
  0
SCALE
  5
5A
102
{ACAD_REACTORS
330
47
102
}
330
47
100
AcDbScale
 70
     0
300
1/64" = 1'-0"
140
0.015625
141
12.0
290
     0
  0
SCALE
  5
5B
102
{ACAD_REACTORS
330
47
102
}
330
47
100
AcDbScale
 70
     0
300
1/32" = 1'-0"
140
0.03125
141
12.0
290
     0
  0
SCALE
  5
5C
102
{ACAD_REACTORS
330
47
102
}
330
47
100
AcDbScale
 70
     0
300
1/16" = 1'-0"
140
0.0625
141
12.0
290
     0
  0
SCALE
  5
5D
102
{ACAD_REACTORS
330
47
102
}
330
47
100
AcDbScale
 70
     0
300
3/32" = 1'-0"
140
0.09375
141
12.0
290
     0
  0
SCALE
  5
5E
102
{ACAD_REACTORS
330
47
102
}
330
47
100
AcDbScale
 70
     0
300
1/8" = 1'-0"
140
0.125
141
12.0
290
     0
  0
SCALE
  5
5F
102
{ACAD_REACTORS
330
47
102
}
330
47
100
AcDbScale
 70
     0
300
3/16" = 1'-0"
140
0.1875
141
12.0
290
     0
  0
SCALE
  5
60
102
{ACAD_REACTORS
330
47
102
}
330
47
100
AcDbScale
 70
     0
300
1/4" = 1'-0"
140
0.25
141
12.0
290
     0
  0
SCALE
  5
61
102
{ACAD_REACTORS
330
47
102
}
330
47
100
AcDbScale
 70
     0
300
3/8" = 1'-0"
140
0.375
141
12.0
290
     0
  0
SCALE
  5
62
102
{ACAD_REACTORS
330
47
102
}
330
47
100
AcDbScale
 70
     0
300
1/2" = 1'-0"
140
0.5
141
12.0
290
     0
  0
SCALE
  5
63
102
{ACAD_REACTORS
330
47
102
}
330
47
100
AcDbScale
 70
     0
300
3/4" = 1'-0"
140
0.75
141
12.0
290
     0
  0
SCALE
  5
64
102
{ACAD_REACTORS
330
47
102
}
330
47
100
AcDbScale
 70
     0
300
1" = 1'-0"
140
1.0
141
12.0
290
     0
  0
SCALE
  5
65
102
{ACAD_REACTORS
330
47
102
}
330
47
100
AcDbScale
 70
     0
300
1-1/2" = 1'-0"
140
1.5
141
12.0
290
     0
  0
SCALE
  5
66
102
{ACAD_REACTORS
330
47
102
}
330
47
100
AcDbScale
 70
     0
300
3" = 1'-0"
140
3.0
141
12.0
290
     0
  0
SCALE
  5
67
102
{ACAD_REACTORS
330
47
102
}
330
47
100
AcDbScale
 70
     0
300
6" = 1'-0"
140
6.0
141
12.0
290
     0
  0
SCALE
  5
68
102
{ACAD_REACTORS
330
47
102
}
330
47
100
AcDbScale
 70
     0
300
1'-0" = 1'-0"
140
12.0
141
12.0
290
     0
  0
ENDSEC
  0
EOF
