  0
SECTION
  2
HEADER
  9
$ACADVER
  1
AC1015
  9
$ACADMAINTVER
 70
     6
  9
$DWGCODEPAGE
  3
ANSI_1251
  9
$INSBASE
 10
0.0
 20
0.0
 30
0.0
  9
$EXTMIN
 10
0.0
 20
0.0
 30
0.0
  9
$EXTMAX
 10
3500.0
 20
3000.0
 30
0.0
  9
$LIMMIN
 10
0.0
 20
0.0
  9
$LIMMAX
 10
3500.0
 20
3000.0
  9
$ORTHOMODE
 70
     0
  9
$REGENMODE
 70
     1
  9
$FILLMODE
 70
     1
  9
$QTEXTMODE
 70
     0
  9
$MIRRTEXT
 70
     1
  9
$LTSCALE
 40
1.0
  9
$ATTMODE
 70
     1
  9
$TEXTSIZE
 40
3.5
  9
$TRACEWID
 40
1.0
  9
$TEXTSTYLE
  7
Standard
  9
$CLAYER
  8
0
  9
$CELTYPE
  6
ByLayer
  9
$CECOLOR
 62
   256
  9
$CELTSCALE
 40
1.0
  9
$DISPSILH
 70
     0
  9
$DIMSCALE
 40
1.0
  9
$DIMASZ
 40
3.302
  9
$DIMEXO
 40
0.0
  9
$DIMDLI
 40
3.75
  9
$DIMRND
 40
0.0
  9
$DIMDLE
 40
0.0
  9
$DIMEXE
 40
1.0
  9
$DIMTP
 40
0.0
  9
$DIMTM
 40
0.0
  9
$DIMTXT
 40
3.5
  9
$DIMCEN
 40
2.5
  9
$DIMTSZ
 40
0.0
  9
$DIMTOL
 70
     0
  9
$DIMLIM
 70
     0
  9
$DIMTIH
 70
     1
  9
$DIMTOH
 70
     1
  9
$DIMSE1
 70
     0
  9
$DIMSE2
 70
     0
  9
$DIMTAD
 70
     1
  9
$DIMZIN
 70
     0
  9
$DIMBLK
  1

  9
$DIMASO
 70
     1
  9
$DIMSHO
 70
     1
  9
$DIMPOST
  1

  9
$DIMAPOST
  1

  9
$DIMALT
 70
     0
  9
$DIMALTD
 70
     3
  9
$DIMALTF
 40
0.0393700787
  9
$DIMLFAC
 40
1.0
  9
$DIMTOFL
 70
     1
  9
$DIMTVP
 40
0.0
  9
$DIMTIX
 70
     0
  9
$DIMSOXD
 70
     0
  9
$DIMSAH
 70
     0
  9
$DIMBLK1
  1

  9
$DIMBLK2
  1

  9
$DIMSTYLE
  2
ISO-25
  9
$DIMCLRD
 70
     0
  9
$DIMCLRE
 70
     0
  9
$DIMCLRT
 70
     0
  9
$DIMTFAC
 40
1.0
  9
$DIMGAP
 40
1.524
  9
$DIMJUST
 70
     0
  9
$DIMSD1
 70
     0
  9
$DIMSD2
 70
     0
  9
$DIMTOLJ
 70
     0
  9
$DIMTZIN
 70
     0
  9
$DIMALTZ
 70
     0
  9
$DIMALTTZ
 70
     0
  9
$DIMUPT
 70
     0
  9
$DIMDEC
 70
     2
  9
$DIMTDEC
 70
     2
  9
$DIMALTU
 70
     2
  9
$DIMALTTD
 70
     3
  9
$DIMTXSTY
  7
Standard
  9
$DIMAUNIT
 70
     0
  9
$DIMADEC
 70
     2
  9
$DIMALTRND
 40
0.0
  9
$DIMAZIN
 70
     0
  9
$DIMDSEP
 70
    44
  9
$DIMATFIT
 70
     3
  9
$DIMFRAC
 70
     0
  9
$DIMLDRBLK
  1

  9
$DIMLUNIT
 70
     2
  9
$DIMLWD
 70
    -2
  9
$DIMLWE
 70
    -2
  9
$DIMTMOVE
 70
     0
  9
$LUNITS
 70
     2
  9
$LUPREC
 70
     1
  9
$SKETCHINC
 40
1.0
  9
$FILLETRAD
 40
10.0
  9
$AUNITS
 70
     1
  9
$AUPREC
 70
     2
  9
$MENU
  1
.
  9
$ELEVATION
 40
0.0
  9
$PELEVATION
 40
0.0
  9
$THICKNESS
 40
0.0
  9
$LIMCHECK
 70
     0
  9
$CHAMFERA
 40
0.0
  9
$CHAMFERB
 40
0.0
  9
$CHAMFERC
 40
0.0
  9
$CHAMFERD
 40
0.0
  9
$SKPOLY
 70
     0
  9
$TDCREATE
 40
2459492.534886493
  9
$TDUCREATE
 40
2459492.409886493
  9
$TDUPDATE
 40
2459492.534888044
  9
$TDUUPDATE
 40
2459492.409888044
  9
$TDINDWG
 40
0.0000000116
  9
$TDUSRTIMER
 40
0.0000000116
  9
$USRTIMER
 70
     1
  9
$ANGBASE
 50
0.0
  9
$ANGDIR
 70
     0
  9
$PDMODE
 70
     0
  9
$PDSIZE
 40
-1.0
  9
$PLINEWID
 40
0.0
  9
$SPLFRAME
 70
     0
  9
$SPLINETYPE
 70
     6
  9
$SPLINESEGS
 70
     8
  9
$HANDSEED
  5
1DC
  9
$SURFTAB1
 70
     6
  9
$SURFTAB2
 70
     6
  9
$SURFTYPE
 70
     6
  9
$SURFU
 70
     6
  9
$SURFV
 70
     6
  9
$UCSBASE
  2

  9
$UCSNAME
  2

  9
$UCSORG
 10
0.0
 20
0.0
 30
0.0
  9
$UCSXDIR
 10
1.0
 20
0.0
 30
0.0
  9
$UCSYDIR
 10
0.0
 20
1.0
 30
0.0
  9
$UCSORTHOREF
  2

  9
$UCSORTHOVIEW
 70
     0
  9
$UCSORGTOP
 10
0.0
 20
0.0
 30
0.0
  9
$UCSORGBOTTOM
 10
0.0
 20
0.0
 30
0.0
  9
$UCSORGLEFT
 10
0.0
 20
0.0
 30
0.0
  9
$UCSORGRIGHT
 10
0.0
 20
0.0
 30
0.0
  9
$UCSORGFRONT
 10
0.0
 20
0.0
 30
0.0
  9
$UCSORGBACK
 10
0.0
 20
0.0
 30
0.0
  9
$PUCSBASE
  2

  9
$PUCSNAME
  2

  9
$PUCSORG
 10
0.0
 20
0.0
 30
0.0
  9
$PUCSXDIR
 10
1.0
 20
0.0
 30
0.0
  9
$PUCSYDIR
 10
0.0
 20
1.0
 30
0.0
  9
$PUCSORTHOREF
  2

  9
$PUCSORTHOVIEW
 70
     0
  9
$PUCSORGTOP
 10
0.0
 20
0.0
 30
0.0
  9
$PUCSORGBOTTOM
 10
0.0
 20
0.0
 30
0.0
  9
$PUCSORGLEFT
 10
0.0
 20
0.0
 30
0.0
  9
$PUCSORGRIGHT
 10
0.0
 20
0.0
 30
0.0
  9
$PUCSORGFRONT
 10
0.0
 20
0.0
 30
0.0
  9
$PUCSORGBACK
 10
0.0
 20
0.0
 30
0.0
  9
$USERI1
 70
     0
  9
$USERI2
 70
     0
  9
$USERI3
 70
     0
  9
$USERI4
 70
     0
  9
$USERI5
 70
     0
  9
$USERR1
 40
0.0
  9
$USERR2
 40
0.0
  9
$USERR3
 40
0.0
  9
$USERR4
 40
0.0
  9
$USERR5
 40
0.0
  9
$WORLDVIEW
 70
     1
  9
$SHADEDGE
 70
     3
  9
$SHADEDIF
 70
    70
  9
$TILEMODE
 70
     1
  9
$MAXACTVP
 70
    64
  9
$PINSBASE
 10
0.0
 20
0.0
 30
0.0
  9
$PLIMCHECK
 70
     0
  9
$PEXTMIN
 10
1.0000000000E+20
 20
1.0000000000E+20
 30
1.0000000000E+20
  9
$PEXTMAX
 10
-1.0000000000E+20
 20
-1.0000000000E+20
 30
-1.0000000000E+20
  9
$PLIMMIN
 10
0.0
 20
0.0
  9
$PLIMMAX
 10
420.0
 20
297.0
  9
$UNITMODE
 70
     0
  9
$VISRETAIN
 70
     1
  9
$PLINEGEN
 70
     0
  9
$PSLTSCALE
 70
     1
  9
$TREEDEPTH
 70
  3020
  9
$CMLSTYLE
  2
Standard
  9
$CMLJUST
 70
     0
  9
$CMLSCALE
 40
20.0
  9
$PROXYGRAPHICS
 70
     1
  9
$MEASUREMENT
 70
     1
  9
$CELWEIGHT
370
    -1
  9
$ENDCAPS
280
     0
  9
$JOINSTYLE
280
     0
  9
$LWDISPLAY
290
     1
  9
$INSUNITS
 70
     4
  9
$HYPERLINKBASE
  1

  9
$STYLESHEET
  1

  9
$XEDIT
290
     1
  9
$CEPSNTYPE
380
     0
  9
$PSTYLEMODE
290
     1
  9
$FINGERPRINTGUID
  2
{24345611-3823-4FB8-8DAB-C4996FE5E128}
  9
$VERSIONGUID
  2
{FAEB1C32-E019-11D5-929B-00C0DF256EC4}
  9
$EXTNAMES
290
     1
  9
$PSVPSCALE
 40
0.0
  9
$OLESTARTUP
290
     0
  0
ENDSEC
  0
SECTION
  2
CLASSES
  0
CLASS
  1
ACDBDICTIONARYWDFLT
  2
AcDbDictionaryWithDefault
  3
ObjectDBX Classes
 90
        0
280
     0
281
     0
  0
CLASS
  1
VISUALSTYLE
  2
AcDbVisualStyle
  3
ObjectDBX Classes
 90
     4095
280
     0
281
     0
  0
CLASS
  1
MATERIAL
  2
AcDbMaterial
  3
ObjectDBX Classes
 90
     1153
280
     0
281
     0
  0
CLASS
  1
SCALE
  2
AcDbScale
  3
ObjectDBX Classes
 90
     1153
280
     0
281
     0
  0
CLASS
  1
TABLESTYLE
  2
AcDbTableStyle
  3
ObjectDBX Classes
 90
     4095
280
     0
281
     0
  0
CLASS
  1
MLEADERSTYLE
  2
AcDbMLeaderStyle
  3
ACDB_MLEADERSTYLE_CLASS
 90
     4095
280
     0
281
     0
  0
CLASS
  1
SUN
  2
AcDbSun
  3
SCENEOE
 90
     1153
280
     0
281
     0
  0
CLASS
  1
ACDBPLACEHOLDER
  2
AcDbPlaceHolder
  3
ObjectDBX Classes
 90
        0
280
     0
281
     0
  0
CLASS
  1
LAYOUT
  2
AcDbLayout
  3
ObjectDBX Classes
 90
        0
280
     0
281
     0
  0
ENDSEC
  0
SECTION
  2
TABLES
  0
TABLE
  2
VPORT
  5
8
330
0
100
AcDbSymbolTable
 70
     1
  0
VPORT
  5
29
330
8
100
AcDbSymbolTableRecord
100
AcDbViewportTableRecord
  2
*Active
 70
     0
 10
0.0
 20
0.0
 11
1.0
 21
1.0
 12
1750.0
 22
1500.0
 13
0.0
 23
0.0
 14
10.0
 24
10.0
 15
10.0
 25
10.0
 16
0.0
 26
0.0
 36
1.0
 17
0.0
 27
0.0
 37
0.0
 40
3000.0
 41
1.1666666667
 42
50.0
 43
0.0
 44
0.0
 50
0.0
 51
0.0
 71
     0
 72
  2000
 73
     1
 74
     3
 75
     0
 76
     0
 77
     0
 78
     0
281
     0
 65
     1
110
0.0
120
0.0
130
0.0
111
1.0
121
0.0
131
0.0
112
0.0
122
1.0
132
0.0
 79
     0
146
0.0
  0
ENDTAB
  0
TABLE
  2
LTYPE
  5
5
330
0
100
AcDbSymbolTable
 70
     6
  0
LTYPE
  5
14
330
5
100
AcDbSymbolTableRecord
100
AcDbLinetypeTableRecord
  2
ByBlock
 70
     0
  3

 72
    65
 73
     0
 40
0.0
  0
LTYPE
  5
15
330
5
100
AcDbSymbolTableRecord
100
AcDbLinetypeTableRecord
  2
ByLayer
 70
     0
  3

 72
    65
 73
     0
 40
0.0
  0
LTYPE
  5
16
330
5
100
AcDbSymbolTableRecord
100
AcDbLinetypeTableRecord
  2
Continuous
 70
     0
  3
Solid line
 72
    65
 73
     0
 40
0.0
  0
LTYPE
  5
6E
330
5
100
AcDbSymbolTableRecord
100
AcDbLinetypeTableRecord
  2
HIDDEN
 70
     0
  3
Hidden __ __ __ __ __ __ __ __ __ __ __ __ __ __
 72
    65
 73
     2
 40
1.905
 49
1.27
 74
     0
 49
-0.635
 74
     0
  0
LTYPE
  5
6F
330
5
100
AcDbSymbolTableRecord
100
AcDbLinetypeTableRecord
  2
PHANTOM
 70
     0
  3
Phantom ______  __  __  ______  __  __  ______
 72
    65
 73
     6
 40
12.7
 49
6.35
 74
     0
 49
-1.27
 74
     0
 49
1.27
 74
     0
 49
-1.27
 74
     0
 49
1.27
 74
     0
 49
-1.27
 74
     0
  0
LTYPE
  5
70
330
5
100
AcDbSymbolTableRecord
100
AcDbLinetypeTableRecord
  2
CENTER
 70
     0
  3
Center ____ _ ____ _ ____ _ ____ _ ____ _ ____
 72
    65
 73
     4
 40
10.16
 49
6.35
 74
     0
 49
-1.27
 74
     0
 49
1.27
 74
     0
 49
-1.27
 74
     0
  0
LTYPE
  5
71
330
5
100
AcDbSymbolTableRecord
100
AcDbLinetypeTableRecord
  2
CENTERX2
 70
     0
  3
Center (2x) ________  __  ________  __  _____
 72
    65
 73
     4
 40
20.32
 49
12.7
 74
     0
 49
-2.54
 74
     0
 49
2.54
 74
     0
 49
-2.54
 74
     0
  0
LTYPE
  5
72
330
5
100
AcDbSymbolTableRecord
100
AcDbLinetypeTableRecord
  2
DOT2
 70
     0
  3
Dot (.5x) ........................................
 72
    65
 73
     2
 40
0.635
 49
0.0
 74
     0
 49
-0.635
 74
     0
  0
ENDTAB
  0
TABLE
  2
LAYER
  5
2
330
0
100
AcDbSymbolTable
 70
     8
  0
LAYER
  5
10
330
2
100
AcDbSymbolTableRecord
100
AcDbLayerTableRecord
  2
0
 70
     0
 62
     7
  6
Continuous
370
    -3
390
F
  0
LAYER
  5
73
330
2
100
AcDbSymbolTableRecord
100
AcDbLayerTableRecord
  2
SLD-0
 70
     0
 62
     7
  6
Continuous
370
    25
390
F
  0
LAYER
  5
74
330
2
100
AcDbSymbolTableRecord
100
AcDbLayerTableRecord
  2
OSNOVA
 70
     0
 62
     5
  6
Continuous
370
    -3
390
F
  0
LAYER
  5
75
330
2
100
AcDbSymbolTableRecord
100
AcDbLayerTableRecord
  2
THIN_LINE
 70
     0
 62
     7
  6
Continuous
370
    25
390
F
  0
LAYER
  5
76
330
2
100
AcDbSymbolTableRecord
100
AcDbLayerTableRecord
  2
THICK_LINE
 70
     0
 62
     7
  6
Continuous
370
    25
390
F
  0
LAYER
  5
77
330
2
100
AcDbSymbolTableRecord
100
AcDbLayerTableRecord
  2
THIN_LIONE
 70
     0
 62
     7
  6
Continuous
370
    -3
390
F
  0
LAYER
  5
78
330
2
100
AcDbSymbolTableRecord
100
AcDbLayerTableRecord
  2
THICK_LIONE
 70
     0
 62
     7
  6
Continuous
370
    25
390
F
  0
LAYER
  5
79
330
2
100
AcDbSymbolTableRecord
100
AcDbLayerTableRecord
  2
ИЗМЕН_РАЗМЕР
 70
     0
 62
     1
  6
Continuous
370
    -3
390
F
  0
ENDTAB
  0
TABLE
  2
STYLE
  5
3
330
0
100
AcDbSymbolTable
 70
     1
  0
STYLE
  5
11
330
3
100
AcDbSymbolTableRecord
100
AcDbTextStyleTableRecord
  2
Standard
 70
     0
 40
0.0
 41
1.0
 50
0.0
 71
     0
 42
3.5
  3
txt
  4

  0
ENDTAB
  0
TABLE
  2
VIEW
  5
6
330
0
100
AcDbSymbolTable
 70
     0
  0
ENDTAB
  0
TABLE
  2
UCS
  5
7
330
0
100
AcDbSymbolTable
 70
     0
  0
ENDTAB
  0
TABLE
  2
APPID
  5
9
330
0
100
AcDbSymbolTable
 70
     1
  0
APPID
  5
12
330
9
100
AcDbSymbolTableRecord
100
AcDbRegAppTableRecord
  2
ACAD
 70
     0
  0
ENDTAB
  0
TABLE
  2
DIMSTYLE
  5
A
330
0
100
AcDbSymbolTable
 70
     1
100
AcDbDimStyleTable
  0
DIMSTYLE
105
27
330
A
100
AcDbSymbolTableRecord
100
AcDbDimStyleTableRecord
  2
ISO-25
 70
     0
 41
2.5
 42
0.625
 43
3.75
 44
1.25
 73
     0
 74
     0
 77
     1
 78
     8
140
2.5
141
2.5
143
0.0393700787
147
0.625
171
     3
172
     1
178
     0
271
     2
272
     2
274
     3
278
    44
283
     0
284
     8
340
11
  0
ENDTAB
  0
TABLE
  2
BLOCK_RECORD
  5
1
330
0
100
AcDbSymbolTable
 70
     1
  0
BLOCK_RECORD
  5
1F
330
1
100
AcDbSymbolTableRecord
100
AcDbBlockTableRecord
  2
*Model_Space
340
22
  0
BLOCK_RECORD
  5
1B
330
1
100
AcDbSymbolTableRecord
100
AcDbBlockTableRecord
  2
*Paper_Space
340
1E
  0
BLOCK_RECORD
  5
23
330
1
100
AcDbSymbolTableRecord
100
AcDbBlockTableRecord
  2
*Paper_Space0
340
26
  0
ENDTAB
  0
ENDSEC
  0
SECTION
  2
BLOCKS
  0
BLOCK
  5
20
330
1F
100
AcDbEntity
  8
0
100
AcDbBlockBegin
  2
*Model_Space
 70
     0
 10
0.0
 20
0.0
 30
0.0
  3
*Model_Space
  1

  0
ENDBLK
  5
21
330
1F
100
AcDbEntity
  8
0
100
AcDbBlockEnd
  0
BLOCK
  5
1C
330
1B
100
AcDbEntity
 67
     1
  8
0
100
AcDbBlockBegin
  2
*Paper_Space
 70
     0
 10
0.0
 20
0.0
 30
0.0
  3
*Paper_Space
  1

  0
ENDBLK
  5
1D
330
1B
100
AcDbEntity
 67
     1
  8
0
100
AcDbBlockEnd
  0
BLOCK
  5
24
330
23
100
AcDbEntity
  8
0
100
AcDbBlockBegin
  2
*Paper_Space0
 70
     0
 10
0.0
 20
0.0
 30
0.0
  3
*Paper_Space0
  1

  0
ENDBLK
  5
25
330
23
100
AcDbEntity
  8
0
100
AcDbBlockEnd
  0
ENDSEC
  0
SECTION
  2
ENTITIES
  0
LINE
  5
7A
330
1F
100
AcDbEntity
  8
0
  6
Continuous
 62
     7
370
    25
100
AcDbLine
 10
79.5179413004
 20
1769.5963884577
 30
0.0
 11
79.5179413004
 21
1770.7621576031
 31
0.0
  0
LINE
  5
7B
330
1F
100
AcDbEntity
  8
0
  6
Continuous
 62
     7
370
    25
100
AcDbLine
 10
2579.5179413004
 20
1770.7621576031
 30
0.0
 11
79.5179413004
 21
1770.7621576031
 31
0.0
  0
LINE
  5
7C
330
1F
100
AcDbEntity
  8
0
  6
Continuous
 62
     7
370
    25
100
AcDbLine
 10
2579.5179413004
 20
1769.5963884577
 30
0.0
 11
2579.5179413004
 21
1770.7621576031
 31
0.0
  0
LINE
  5
7D
330
1F
100
AcDbEntity
  8
0
  6
Continuous
 62
     7
370
    25
100
AcDbLine
 10
2579.5179413004
 20
1704.5963884577
 30
0.0
 11
79.5179413004
 21
1704.5963884577
 31
0.0
  0
LINE
  5
7E
330
1F
100
AcDbEntity
  8
0
  6
Continuous
 62
     7
370
    25
100
AcDbLine
 10
79.5179413004
 20
1769.5963884577
 30
0.0
 11
79.5179413004
 21
1707.0963884577
 31
0.0
  0
LINE
  5
7F
330
1F
100
AcDbEntity
  8
0
  6
Continuous
 62
     7
370
    25
100
AcDbLine
 10
145.5179413004
 20
1719.0963884577
 30
0.0
 11
163.5179413004
 21
1719.0963884577
 31
0.0
  0
ARC
  5
80
330
1F
100
AcDbEntity
  8
0
  6
Continuous
 62
     7
370
    25
100
AcDbCircle
 10
2545.5179413004
 20
1722.5963884577
 30
0.0
 40
3.500000000000227
100
AcDbArc
 50
90.0
 51
270.0
  0
LINE
  5
81
330
1F
100
AcDbEntity
  8
0
  6
Continuous
 62
     7
370
    25
100
AcDbLine
 10
2563.5179413004
 20
1726.0963884577
 30
0.0
 11
2545.5179413004
 21
1726.0963884577
 31
0.0
  0
ARC
  5
82
330
1F
100
AcDbEntity
  8
0
  6
Continuous
 62
     7
370
    25
100
AcDbCircle
 10
2495.5179413004
 20
1722.5963884577
 30
0.0
 40
3.5
100
AcDbArc
 50
90.0
 51
270.0
  0
LINE
  5
83
330
1F
100
AcDbEntity
  8
0
  6
Continuous
 62
     7
370
    25
100
AcDbLine
 10
2495.5179413004
 20
1719.0963884577
 30
0.0
 11
2513.5179413004
 21
1719.0963884577
 31
0.0
  0
ARC
  5
84
330
1F
100
AcDbEntity
  8
0
  6
Continuous
 62
     7
370
    25
100
AcDbCircle
 10
2513.5179413004
 20
1722.5963884577
 30
0.0
 40
3.5
100
AcDbArc
 50
270.0
 51
90.0
  0
LINE
  5
85
330
1F
100
AcDbEntity
  8
0
  6
Continuous
 62
     7
370
    25
100
AcDbLine
 10
2513.5179413004
 20
1726.0963884577
 30
0.0
 11
2495.5179413004
 21
1726.0963884577
 31
0.0
  0
ARC
  5
86
330
1F
100
AcDbEntity
  8
0
  6
Continuous
 62
     7
370
    25
100
AcDbCircle
 10
113.5179413004
 20
1722.5963884577
 30
0.0
 40
3.500000000000227
100
AcDbArc
 50
270.0
 51
90.0
  0
LINE
  5
87
330
1F
100
AcDbEntity
  8
0
  6
Continuous
 62
     7
370
    25
100
AcDbLine
 10
113.5179413004
 20
1726.0963884577
 30
0.0
 11
95.5179413004
 21
1726.0963884577
 31
0.0
  0
ARC
  5
88
330
1F
100
AcDbEntity
  8
0
  6
Continuous
 62
     7
370
    25
100
AcDbCircle
 10
95.5179413004
 20
1722.5963884577
 30
0.0
 40
3.500000000000227
100
AcDbArc
 50
90.0
 51
270.0
  0
LINE
  5
89
330
1F
100
AcDbEntity
  8
0
  6
Continuous
 62
     7
370
    25
100
AcDbLine
 10
95.5179413004
 20
1719.0963884577
 30
0.0
 11
113.5179413004
 21
1719.0963884577
 31
0.0
  0
LINE
  5
8A
330
1F
100
AcDbEntity
  8
0
  6
Continuous
 62
     7
370
    25
100
AcDbLine
 10
163.5179413004
 20
1751.0963884577
 30
0.0
 11
145.5179413004
 21
1751.0963884577
 31
0.0
  0
ARC
  5
8B
330
1F
100
AcDbEntity
  8
0
  6
Continuous
 62
     7
370
    25
100
AcDbCircle
 10
145.5179413004
 20
1747.5963884577
 30
0.0
 40
3.499999999999773
100
AcDbArc
 50
90.0
 51
270.0
  0
LINE
  5
8C
330
1F
100
AcDbEntity
  8
0
  6
Continuous
 62
     7
370
    25
100
AcDbLine
 10
145.5179413004
 20
1744.0963884577
 30
0.0
 11
163.5179413004
 21
1744.0963884577
 31
0.0
  0
ARC
  5
8D
330
1F
100
AcDbEntity
  8
0
  6
Continuous
 62
     7
370
    25
100
AcDbCircle
 10
2545.5179413004
 20
1747.5963884577
 30
0.0
 40
3.5
100
AcDbArc
 50
90.0
 51
270.0
  0
LINE
  5
8E
330
1F
100
AcDbEntity
  8
0
  6
Continuous
 62
     7
370
    25
100
AcDbLine
 10
2545.5179413004
 20
1744.0963884577
 30
0.0
 11
2563.5179413004
 21
1744.0963884577
 31
0.0
  0
ARC
  5
8F
330
1F
100
AcDbEntity
  8
0
  6
Continuous
 62
     7
370
    25
100
AcDbCircle
 10
2563.5179413004
 20
1747.5963884577
 30
0.0
 40
3.5
100
AcDbArc
 50
270.0
 51
90.0
  0
LINE
  5
90
330
1F
100
AcDbEntity
  8
0
  6
Continuous
 62
     7
370
    25
100
AcDbLine
 10
2563.5179413004
 20
1751.0963884577
 30
0.0
 11
2545.5179413004
 21
1751.0963884577
 31
0.0
  0
ARC
  5
91
330
1F
100
AcDbEntity
  8
0
  6
Continuous
 62
     7
370
    25
100
AcDbCircle
 10
2513.5179413004
 20
1747.5963884577
 30
0.0
 40
3.499999999999773
100
AcDbArc
 50
270.0
 51
90.0
  0
LINE
  5
92
330
1F
100
AcDbEntity
  8
0
  6
Continuous
 62
     7
370
    25
100
AcDbLine
 10
2513.5179413004
 20
1751.0963884577
 30
0.0
 11
2495.5179413004
 21
1751.0963884577
 31
0.0
  0
ARC
  5
93
330
1F
100
AcDbEntity
  8
0
  6
Continuous
 62
     7
370
    25
100
AcDbCircle
 10
113.5179413004
 20
1747.5963884577
 30
0.0
 40
3.5
100
AcDbArc
 50
270.0
 51
90.0
  0
LINE
  5
94
330
1F
100
AcDbEntity
  8
0
  6
Continuous
 62
     7
370
    25
100
AcDbLine
 10
113.5179413004
 20
1751.0963884577
 30
0.0
 11
95.5179413004
 21
1751.0963884577
 31
0.0
  0
ARC
  5
95
330
1F
100
AcDbEntity
  8
0
  6
Continuous
 62
     7
370
    25
100
AcDbCircle
 10
95.5179413004
 20
1747.5963884577
 30
0.0
 40
3.5
100
AcDbArc
 50
90.0
 51
270.0
  0
LINE
  5
96
330
1F
100
AcDbEntity
  8
0
  6
Continuous
 62
     7
370
    25
100
AcDbLine
 10
95.5179413004
 20
1744.0963884577
 30
0.0
 11
113.5179413004
 21
1744.0963884577
 31
0.0
  0
LINE
  5
97
330
1F
100
AcDbEntity
  8
0
  6
Continuous
 62
     7
370
    25
100
AcDbLine
 10
2545.5179413004
 20
1719.0963884577
 30
0.0
 11
2563.5179413004
 21
1719.0963884577
 31
0.0
  0
ARC
  5
98
330
1F
100
AcDbEntity
  8
0
  6
Continuous
 62
     7
370
    25
100
AcDbCircle
 10
2563.5179413004
 20
1722.5963884577
 30
0.0
 40
3.500000000000227
100
AcDbArc
 50
270.0
 51
90.0
  0
ARC
  5
99
330
1F
100
AcDbEntity
  8
0
  6
Continuous
 62
     7
370
    25
100
AcDbCircle
 10
2495.5179413004
 20
1747.5963884577
 30
0.0
 40
3.499999999999773
100
AcDbArc
 50
90.0
 51
270.0
  0
LINE
  5
9A
330
1F
100
AcDbEntity
  8
0
  6
Continuous
 62
     7
370
    25
100
AcDbLine
 10
2495.5179413004
 20
1744.0963884577
 30
0.0
 11
2513.5179413004
 21
1744.0963884577
 31
0.0
  0
LINE
  5
9B
330
1F
100
AcDbEntity
  8
0
  6
Continuous
 62
     7
370
    25
100
AcDbLine
 10
79.5179413004
 20
1704.5963884577
 30
0.0
 11
79.5179413004
 21
1707.0963884577
 31
0.0
  0
LINE
  5
9C
330
1F
100
AcDbEntity
  8
0
  6
Continuous
 62
     7
370
    25
100
AcDbLine
 10
2579.5179413004
 20
1769.5963884577
 30
0.0
 11
2579.5179413004
 21
1707.0963884577
 31
0.0
  0
LINE
  5
9D
330
1F
100
AcDbEntity
  8
0
  6
Continuous
 62
     7
370
    25
100
AcDbLine
 10
2579.5179413004
 20
1704.5963884577
 30
0.0
 11
2579.5179413004
 21
1707.0963884577
 31
0.0
  0
ARC
  5
9E
330
1F
100
AcDbEntity
  8
0
  6
Continuous
 62
     7
370
    25
100
AcDbCircle
 10
163.5179413004
 20
1722.5963884577
 30
0.0
 40
3.5
100
AcDbArc
 50
270.0
 51
90.0
  0
LINE
  5
9F
330
1F
100
AcDbEntity
  8
0
  6
Continuous
 62
     7
370
    25
100
AcDbLine
 10
163.5179413004
 20
1726.0963884577
 30
0.0
 11
145.5179413004
 21
1726.0963884577
 31
0.0
  0
ARC
  5
A0
330
1F
100
AcDbEntity
  8
0
  6
Continuous
 62
     7
370
    25
100
AcDbCircle
 10
145.5179413004
 20
1722.5963884577
 30
0.0
 40
3.5
100
AcDbArc
 50
90.0
 51
270.0
  0
ARC
  5
A1
330
1F
100
AcDbEntity
  8
0
  6
Continuous
 62
     7
370
    25
100
AcDbCircle
 10
163.5179413004
 20
1747.5963884577
 30
0.0
 40
3.499999999999773
100
AcDbArc
 50
270.0
 51
90.0
  0
LINE
  5
A2
330
1F
100
AcDbEntity
  8
0
  6
Continuous
 62
     7
370
    25
100
AcDbLine
 10
2579.5179413004
 20
1771.5114995655
 30
0.0
 11
2579.5179413004
 21
1774.7723545482
 31
0.0
  0
LINE
  5
A3
330
1F
100
AcDbEntity
  8
0
  6
Continuous
 62
     7
370
    25
100
AcDbLine
 10
79.5179413004
 20
1774.7723545482
 30
0.0
 11
79.5179413004
 21
1771.5114995655
 31
0.0
  0
LINE
  5
A4
330
1F
100
AcDbEntity
  8
0
  6
Continuous
 62
     7
370
    25
100
AcDbLine
 10
79.5179413004
 20
1774.7723545482
 30
0.0
 11
2579.5179413004
 21
1774.7723545482
 31
0.0
  0
LINE
  5
A5
330
1F
100
AcDbEntity
  8
0
  6
Continuous
 62
     7
370
    25
100
AcDbLine
 10
2579.5179413004
 20
1770.7621576031
 30
0.0
 11
2579.5179413004
 21
1771.5114995655
 31
0.0
  0
LINE
  5
A6
330
1F
100
AcDbEntity
  8
0
  6
Continuous
 62
     7
370
    25
100
AcDbLine
 10
79.5179413004
 20
1770.7621576031
 30
0.0
 11
79.5179413004
 21
1771.5114995655
 31
0.0
  0
LINE
  5
A7
330
1F
100
AcDbEntity
  8
0
  6
Continuous
 62
     7
370
    25
100
AcDbLine
 10
79.5179413004
 20
1784.5626961158
 30
0.0
 11
79.5179413004
 21
1779.8720667365
 31
0.0
  0
LINE
  5
A8
330
1F
100
AcDbEntity
  8
0
  6
Continuous
 62
     7
370
    25
100
AcDbLine
 10
2579.5179413004
 20
1784.5626961158
 30
0.0
 11
79.5179413004
 21
1784.5626961158
 31
0.0
  0
LINE
  5
A9
330
1F
100
AcDbEntity
  8
0
  6
Continuous
 62
     7
370
    25
100
AcDbLine
 10
2579.5179413004
 20
1779.8720667365
 30
0.0
 11
2579.5179413004
 21
1784.5626961158
 31
0.0
  0
LINE
  5
AA
330
1F
100
AcDbEntity
  8
0
  6
Continuous
 62
     7
370
    25
100
AcDbLine
 10
79.5179413004
 20
1779.8720667365
 30
0.0
 11
2579.5179413004
 21
1779.8720667365
 31
0.0
  0
LINE
  5
AB
330
1F
100
AcDbEntity
  8
0
  6
Continuous
 62
     7
370
    25
100
AcDbLine
 10
79.5179413004
 20
1779.8720667365
 30
0.0
 11
79.5179413004
 21
1774.7723545482
 31
0.0
  0
LINE
  5
AC
330
1F
100
AcDbEntity
  8
0
  6
Continuous
 62
     7
370
    25
100
AcDbLine
 10
2579.5179413004
 20
1779.8720667365
 30
0.0
 11
2579.5179413004
 21
1774.7723545482
 31
0.0
  0
LINE
  5
AD
330
1F
100
AcDbEntity
  8
0
  6
Continuous
 62
     7
370
    25
100
AcDbLine
 10
79.5179413004
 20
2361.2434774376
 30
0.0
 11
79.5179413004
 21
2363.7434774376
 31
0.0
  0
LINE
  5
AE
330
1F
100
AcDbEntity
  8
0
  6
Continuous
 62
     7
370
    25
100
AcDbLine
 10
2579.5179413004
 20
2363.7434774376
 30
0.0
 11
79.5179413004
 21
2363.7434774376
 31
0.0
  0
LINE
  5
AF
330
1F
100
AcDbEntity
  8
0
  6
Continuous
 62
     7
370
    25
100
AcDbLine
 10
2579.5179413004
 20
2361.2434774376
 30
0.0
 11
2579.5179413004
 21
2363.7434774376
 31
0.0
  0
LINE
  5
B0
330
1F
100
AcDbEntity
  8
0
  6
Continuous
 62
     7
370
    25
100
AcDbLine
 10
2579.5179413004
 20
2361.2434774376
 30
0.0
 11
2579.5179413004
 21
2286.2434774376
 31
0.0
  0
LINE
  5
B1
330
1F
100
AcDbEntity
  8
0
  6
Continuous
 62
     7
370
    25
100
AcDbLine
 10
2579.5179413004
 20
2283.7434774376
 30
0.0
 11
79.5179413004
 21
2283.7434774376
 31
0.0
  0
LINE
  5
B2
330
1F
100
AcDbEntity
  8
0
  6
Continuous
 62
     7
370
    25
100
AcDbLine
 10
79.5179413004
 20
2283.7434774376
 30
0.0
 11
79.5179413004
 21
2286.2434774376
 31
0.0
  0
LINE
  5
B3
330
1F
100
AcDbEntity
  8
0
  6
Continuous
 62
     7
370
    25
100
AcDbLine
 10
79.5179413004
 20
2361.2434774376
 30
0.0
 11
79.5179413004
 21
2286.2434774376
 31
0.0
  0
ARC
  5
B4
330
1F
100
AcDbEntity
  8
0
  6
Continuous
 62
     7
370
    25
100
AcDbCircle
 10
2558.5179413004
 20
2327.7434774376
 30
0.0
 40
1.0
100
AcDbArc
 50
90.0
 51
180.0
  0
LINE
  5
B5
330
1F
100
AcDbEntity
  8
0
  6
Continuous
 62
     7
370
    25
100
AcDbLine
 10
2557.5179413004
 20
2319.7434774376
 30
0.0
 11
2557.5179413004
 21
2327.7434774376
 31
0.0
  0
ARC
  5
B6
330
1F
100
AcDbEntity
  8
0
  6
Continuous
 62
     7
370
    25
100
AcDbCircle
 10
2558.5179413004
 20
2319.7434774376
 30
0.0
 40
1.0
100
AcDbArc
 50
180.0
 51
270.0
  0
LINE
  5
B7
330
1F
100
AcDbEntity
  8
0
  6
Continuous
 62
     7
370
    25
100
AcDbLine
 10
2563.5179413004
 20
2318.7434774376
 30
0.0
 11
2558.5179413004
 21
2318.7434774376
 31
0.0
  0
ARC
  5
B8
330
1F
100
AcDbEntity
  8
0
  6
Continuous
 62
     7
370
    25
100
AcDbCircle
 10
2563.5179413004
 20
2319.7434774376
 30
0.0
 40
1.0
100
AcDbArc
 50
270.0
 51
0.0
  0
LINE
  5
B9
330
1F
100
AcDbEntity
  8
0
  6
Continuous
 62
     7
370
    25
100
AcDbLine
 10
2564.5179413004
 20
2327.7434774376
 30
0.0
 11
2564.5179413004
 21
2319.7434774376
 31
0.0
  0
ARC
  5
BA
330
1F
100
AcDbEntity
  8
0
  6
Continuous
 62
     7
370
    25
100
AcDbCircle
 10
2563.5179413004
 20
2327.7434774376
 30
0.0
 40
1.0
100
AcDbArc
 50
0.0
 51
90.0
  0
LINE
  5
BB
330
1F
100
AcDbEntity
  8
0
  6
Continuous
 62
     7
370
    25
100
AcDbLine
 10
2558.5179413004
 20
2328.7434774376
 30
0.0
 11
2563.5179413004
 21
2328.7434774376
 31
0.0
  0
ARC
  5
BC
330
1F
100
AcDbEntity
  8
0
  6
Continuous
 62
     7
370
    25
100
AcDbCircle
 10
95.5179413004
 20
2327.7434774376
 30
0.0
 40
1.0
100
AcDbArc
 50
90.0
 51
180.0
  0
LINE
  5
BD
330
1F
100
AcDbEntity
  8
0
  6
Continuous
 62
     7
370
    25
100
AcDbLine
 10
94.5179413004
 20
2319.7434774376
 30
0.0
 11
94.5179413004
 21
2327.7434774376
 31
0.0
  0
ARC
  5
BE
330
1F
100
AcDbEntity
  8
0
  6
Continuous
 62
     7
370
    25
100
AcDbCircle
 10
95.5179413004
 20
2319.7434774376
 30
0.0
 40
1.0
100
AcDbArc
 50
180.0
 51
270.0
  0
LINE
  5
BF
330
1F
100
AcDbEntity
  8
0
  6
Continuous
 62
     7
370
    25
100
AcDbLine
 10
100.5179413004
 20
2318.7434774376
 30
0.0
 11
95.5179413004
 21
2318.7434774376
 31
0.0
  0
ARC
  5
C0
330
1F
100
AcDbEntity
  8
0
  6
Continuous
 62
     7
370
    25
100
AcDbCircle
 10
100.5179413004
 20
2319.7434774376
 30
0.0
 40
1.0
100
AcDbArc
 50
270.0
 51
0.0
  0
LINE
  5
C1
330
1F
100
AcDbEntity
  8
0
  6
Continuous
 62
     7
370
    25
100
AcDbLine
 10
101.5179413004
 20
2327.7434774376
 30
0.0
 11
101.5179413004
 21
2319.7434774376
 31
0.0
  0
ARC
  5
C2
330
1F
100
AcDbEntity
  8
0
  6
Continuous
 62
     7
370
    25
100
AcDbCircle
 10
100.5179413004
 20
2327.7434774376
 30
0.0
 40
1.0
100
AcDbArc
 50
0.0
 51
90.0
  0
LINE
  5
C3
330
1F
100
AcDbEntity
  8
0
  6
Continuous
 62
     7
370
    25
100
AcDbLine
 10
95.5179413004
 20
2328.7434774376
 30
0.0
 11
100.5179413004
 21
2328.7434774376
 31
0.0
  0
ARC
  5
C4
330
1F
100
AcDbEntity
  8
0
  6
Continuous
 62
     7
370
    25
100
AcDbCircle
 10
113.5179413004
 20
2296.2434774376
 30
0.0
 40
3.5
100
AcDbArc
 50
270.0
 51
90.0
  0
LINE
  5
C5
330
1F
100
AcDbEntity
  8
0
  6
Continuous
 62
     7
370
    25
100
AcDbLine
 10
95.5179413004
 20
2299.7434774376
 30
0.0
 11
113.5179413004
 21
2299.7434774376
 31
0.0
  0
ARC
  5
C6
330
1F
100
AcDbEntity
  8
0
  6
Continuous
 62
     7
370
    25
100
AcDbCircle
 10
95.5179413004
 20
2296.2434774376
 30
0.0
 40
3.5
100
AcDbArc
 50
90.0
 51
270.0
  0
LINE
  5
C7
330
1F
100
AcDbEntity
  8
0
  6
Continuous
 62
     7
370
    25
100
AcDbLine
 10
113.5179413004
 20
2292.7434774376
 30
0.0
 11
95.5179413004
 21
2292.7434774376
 31
0.0
  0
ARC
  5
C8
330
1F
100
AcDbEntity
  8
0
  6
Continuous
 62
     7
370
    25
100
AcDbCircle
 10
2495.5179413004
 20
2351.2434774376
 30
0.0
 40
3.5
100
AcDbArc
 50
90.0
 51
270.0
  0
LINE
  5
C9
330
1F
100
AcDbEntity
  8
0
  6
Continuous
 62
     7
370
    25
100
AcDbLine
 10
2513.5179413004
 20
2347.7434774376
 30
0.0
 11
2495.5179413004
 21
2347.7434774376
 31
0.0
  0
ARC
  5
CA
330
1F
100
AcDbEntity
  8
0
  6
Continuous
 62
     7
370
    25
100
AcDbCircle
 10
2513.5179413004
 20
2351.2434774376
 30
0.0
 40
3.5
100
AcDbArc
 50
270.0
 51
90.0
  0
LINE
  5
CB
330
1F
100
AcDbEntity
  8
0
  6
Continuous
 62
     7
370
    25
100
AcDbLine
 10
2495.5179413004
 20
2354.7434774376
 30
0.0
 11
2513.5179413004
 21
2354.7434774376
 31
0.0
  0
ARC
  5
CC
330
1F
100
AcDbEntity
  8
0
  6
Continuous
 62
     7
370
    25
100
AcDbCircle
 10
2545.5179413004
 20
2296.2434774376
 30
0.0
 40
3.499999999999545
100
AcDbArc
 50
90.0
 51
270.0
  0
LINE
  5
CD
330
1F
100
AcDbEntity
  8
0
  6
Continuous
 62
     7
370
    25
100
AcDbLine
 10
2563.5179413004
 20
2292.7434774376
 30
0.0
 11
2545.5179413004
 21
2292.7434774376
 31
0.0
  0
ARC
  5
CE
330
1F
100
AcDbEntity
  8
0
  6
Continuous
 62
     7
370
    25
100
AcDbCircle
 10
2563.5179413004
 20
2296.2434774376
 30
0.0
 40
3.5
100
AcDbArc
 50
270.0
 51
90.0
  0
LINE
  5
CF
330
1F
100
AcDbEntity
  8
0
  6
Continuous
 62
     7
370
    25
100
AcDbLine
 10
2545.5179413004
 20
2299.7434774376
 30
0.0
 11
2563.5179413004
 21
2299.7434774376
 31
0.0
  0
ARC
  5
D0
330
1F
100
AcDbEntity
  8
0
  6
Continuous
 62
     7
370
    25
100
AcDbCircle
 10
2495.5179413004
 20
2296.2434774376
 30
0.0
 40
3.499999999999545
100
AcDbArc
 50
90.0
 51
270.0
  0
LINE
  5
D1
330
1F
100
AcDbEntity
  8
0
  6
Continuous
 62
     7
370
    25
100
AcDbLine
 10
2513.5179413004
 20
2292.7434774376
 30
0.0
 11
2495.5179413004
 21
2292.7434774376
 31
0.0
  0
ARC
  5
D2
330
1F
100
AcDbEntity
  8
0
  6
Continuous
 62
     7
370
    25
100
AcDbCircle
 10
2513.5179413004
 20
2296.2434774376
 30
0.0
 40
3.5
100
AcDbArc
 50
270.0
 51
90.0
  0
LINE
  5
D3
330
1F
100
AcDbEntity
  8
0
  6
Continuous
 62
     7
370
    25
100
AcDbLine
 10
2495.5179413004
 20
2299.7434774376
 30
0.0
 11
2513.5179413004
 21
2299.7434774376
 31
0.0
  0
ARC
  5
D4
330
1F
100
AcDbEntity
  8
0
  6
Continuous
 62
     7
370
    25
100
AcDbCircle
 10
163.5179413004
 20
2296.2434774376
 30
0.0
 40
3.500000000000455
100
AcDbArc
 50
270.0
 51
90.0
  0
LINE
  5
D5
330
1F
100
AcDbEntity
  8
0
  6
Continuous
 62
     7
370
    25
100
AcDbLine
 10
145.5179413004
 20
2299.7434774376
 30
0.0
 11
163.5179413004
 21
2299.7434774376
 31
0.0
  0
ARC
  5
D6
330
1F
100
AcDbEntity
  8
0
  6
Continuous
 62
     7
370
    25
100
AcDbCircle
 10
145.5179413004
 20
2296.2434774376
 30
0.0
 40
3.5
100
AcDbArc
 50
90.0
 51
270.0
  0
LINE
  5
D7
330
1F
100
AcDbEntity
  8
0
  6
Continuous
 62
     7
370
    25
100
AcDbLine
 10
163.5179413004
 20
2292.7434774376
 30
0.0
 11
145.5179413004
 21
2292.7434774376
 31
0.0
  0
ARC
  5
D8
330
1F
100
AcDbEntity
  8
0
  6
Continuous
 62
     7
370
    25
100
AcDbCircle
 10
113.5179413004
 20
2351.2434774376
 30
0.0
 40
3.500000000000455
100
AcDbArc
 50
270.0
 51
90.0
  0
LINE
  5
D9
330
1F
100
AcDbEntity
  8
0
  6
Continuous
 62
     7
370
    25
100
AcDbLine
 10
95.5179413004
 20
2354.7434774376
 30
0.0
 11
113.5179413004
 21
2354.7434774376
 31
0.0
  0
ARC
  5
DA
330
1F
100
AcDbEntity
  8
0
  6
Continuous
 62
     7
370
    25
100
AcDbCircle
 10
95.5179413004
 20
2351.2434774376
 30
0.0
 40
3.500000000000455
100
AcDbArc
 50
90.0
 51
270.0
  0
LINE
  5
DB
330
1F
100
AcDbEntity
  8
0
  6
Continuous
 62
     7
370
    25
100
AcDbLine
 10
113.5179413004
 20
2347.7434774376
 30
0.0
 11
95.5179413004
 21
2347.7434774376
 31
0.0
  0
ARC
  5
DC
330
1F
100
AcDbEntity
  8
0
  6
Continuous
 62
     7
370
    25
100
AcDbCircle
 10
163.5179413004
 20
2351.2434774376
 30
0.0
 40
3.500000000000455
100
AcDbArc
 50
270.0
 51
90.0
  0
LINE
  5
DD
330
1F
100
AcDbEntity
  8
0
  6
Continuous
 62
     7
370
    25
100
AcDbLine
 10
145.5179413004
 20
2354.7434774376
 30
0.0
 11
163.5179413004
 21
2354.7434774376
 31
0.0
  0
ARC
  5
DE
330
1F
100
AcDbEntity
  8
0
  6
Continuous
 62
     7
370
    25
100
AcDbCircle
 10
145.5179413004
 20
2351.2434774376
 30
0.0
 40
3.500000000000455
100
AcDbArc
 50
90.0
 51
270.0
  0
LINE
  5
DF
330
1F
100
AcDbEntity
  8
0
  6
Continuous
 62
     7
370
    25
100
AcDbLine
 10
163.5179413004
 20
2347.7434774376
 30
0.0
 11
145.5179413004
 21
2347.7434774376
 31
0.0
  0
ARC
  5
E0
330
1F
100
AcDbEntity
  8
0
  6
Continuous
 62
     7
370
    25
100
AcDbCircle
 10
2545.5179413004
 20
2351.2434774376
 30
0.0
 40
3.5
100
AcDbArc
 50
90.0
 51
270.0
  0
LINE
  5
E1
330
1F
100
AcDbEntity
  8
0
  6
Continuous
 62
     7
370
    25
100
AcDbLine
 10
2563.5179413004
 20
2347.7434774376
 30
0.0
 11
2545.5179413004
 21
2347.7434774376
 31
0.0
  0
ARC
  5
E2
330
1F
100
AcDbEntity
  8
0
  6
Continuous
 62
     7
370
    25
100
AcDbCircle
 10
2563.5179413004
 20
2351.2434774376
 30
0.0
 40
3.5
100
AcDbArc
 50
270.0
 51
90.0
  0
LINE
  5
E3
330
1F
100
AcDbEntity
  8
0
  6
Continuous
 62
     7
370
    25
100
AcDbLine
 10
2545.5179413004
 20
2354.7434774376
 30
0.0
 11
2563.5179413004
 21
2354.7434774376
 31
0.0
  0
LINE
  5
E4
330
1F
100
AcDbEntity
  8
0
  6
Continuous
 62
     7
370
    25
100
AcDbLine
 10
2579.5179413004
 20
2283.7434774376
 30
0.0
 11
2579.5179413004
 21
2286.2434774376
 31
0.0
  0
LINE
  5
E5
330
1F
100
AcDbEntity
  8
0
  6
Continuous
 62
     7
370
    25
100
AcDbLine
 10
2565.3207169381
 20
2293.2434774376
 30
0.0
 11
2543.7151656627
 21
2293.2434774376
 31
0.0
  0
LINE
  5
E6
330
1F
100
AcDbEntity
  8
0
  6
Continuous
 62
     7
370
    25
100
AcDbLine
 10
2515.3207169381
 20
2293.2434774376
 30
0.0
 11
2493.7151656626
 21
2293.2434774376
 31
0.0
  0
LINE
  5
E7
330
1F
100
AcDbEntity
  8
0
  6
Continuous
 62
     7
370
    25
100
AcDbLine
 10
165.3207169381
 20
2293.2434774376
 30
0.0
 11
143.7151656626
 21
2293.2434774376
 31
0.0
  0
LINE
  5
E8
330
1F
100
AcDbEntity
  8
0
  6
Continuous
 62
     7
370
    25
100
AcDbLine
 10
115.3207169381
 20
2293.2434774376
 30
0.0
 11
93.7151656626
 21
2293.2434774376
 31
0.0
  0
LINE
  5
E9
330
1F
100
AcDbEntity
  8
0
  6
Continuous
 62
     7
370
    25
100
AcDbLine
 10
2565.3207169381
 20
2354.2434774376
 30
0.0
 11
2543.7151656626
 21
2354.2434774376
 31
0.0
  0
LINE
  5
EA
330
1F
100
AcDbEntity
  8
0
  6
Continuous
 62
     7
370
    25
100
AcDbLine
 10
2515.3207169381
 20
2354.2434774376
 30
0.0
 11
2493.7151656626
 21
2354.2434774376
 31
0.0
  0
LINE
  5
EB
330
1F
100
AcDbEntity
  8
0
  6
Continuous
 62
     7
370
    25
100
AcDbLine
 10
165.3207169381
 20
2354.2434774376
 30
0.0
 11
143.7151656626
 21
2354.2434774376
 31
0.0
  0
LINE
  5
EC
330
1F
100
AcDbEntity
  8
0
  6
Continuous
 62
     7
370
    25
100
AcDbLine
 10
115.3207169381
 20
2354.2434774376
 30
0.0
 11
93.7151656626
 21
2354.2434774376
 31
0.0
  0
LINE
  5
ED
330
1F
100
AcDbEntity
  8
0
  6
Continuous
 62
     7
370
    25
100
AcDbLine
 10
3023.8214942023
 20
1704.5963884577
 30
0.0
 11
3026.3214942023
 21
1704.5963884577
 31
0.0
  0
LINE
  5
EE
330
1F
100
AcDbEntity
  8
0
  6
Continuous
 62
     7
370
    25
100
AcDbLine
 10
3023.8214942023
 20
1707.0963884577
 30
0.0
 11
3023.8214942023
 21
1704.5963884577
 31
0.0
  0
LINE
  5
EF
330
1F
100
AcDbEntity
  8
0
  6
Continuous
 62
     7
370
    25
100
AcDbLine
 10
3025.3214942023
 20
1707.0963884577
 30
0.0
 11
3025.3214942023
 21
1706.0963884577
 31
0.0
  0
LINE
  5
F0
330
1F
100
AcDbEntity
  8
0
  6
Continuous
 62
     7
370
    25
100
AcDbLine
 10
3025.3214942023
 20
1706.0963884577
 30
0.0
 11
3026.3214942023
 21
1706.0963884577
 31
0.0
  0
LINE
  5
F1
330
1F
100
AcDbEntity
  8
0
  6
Continuous
 62
     7
370
    25
100
AcDbLine
 10
3025.3214942023
 20
1707.0963884577
 30
0.0
 11
3025.3214942023
 21
1769.5963884577
 31
0.0
  0
LINE
  5
F2
330
1F
100
AcDbEntity
  8
0
  6
Continuous
 62
     7
370
    25
100
AcDbLine
 10
3023.8214942023
 20
1707.0963884577
 30
0.0
 11
3023.8214942023
 21
1769.5963884577
 31
0.0
  0
LINE
  5
F3
330
1F
100
AcDbEntity
  8
0
  6
Continuous
 62
     7
370
    25
100
AcDbLine
 10
3023.8214942023
 20
1770.7621576031
 30
0.0
 11
3023.8214942023
 21
1769.5963884577
 31
0.0
  0
LINE
  5
F4
330
1F
100
AcDbEntity
  8
0
  6
Continuous
 62
     7
370
    25
100
AcDbLine
 10
3025.6787065926
 20
1770.3624329008
 30
0.0
 11
3025.3214942023
 21
1770.0626961158
 31
0.0
  0
LINE
  5
F5
330
1F
100
AcDbEntity
  8
0
  6
Continuous
 62
     7
370
    25
100
AcDbLine
 10
3025.3214942023
 20
1770.0626961158
 30
0.0
 11
3025.3214942023
 21
1769.5963884577
 31
0.0
  0
LINE
  5
F6
330
1F
100
AcDbEntity
  8
0
  6
Continuous
 62
     7
370
    25
100
AcDbLine
 10
3024.7145251781
 20
1771.5114995655
 30
0.0
 11
3023.8214942023
 21
1770.7621576031
 31
0.0
  0
LINE
  5
F7
330
1F
100
AcDbEntity
  8
0
  6
Continuous
 62
     7
370
    25
100
AcDbLine
 10
3103.8214942023
 20
1704.5963884577
 30
0.0
 11
3103.8214942023
 21
1707.0963884577
 31
0.0
  0
LINE
  5
F8
330
1F
100
AcDbEntity
  8
0
  6
Continuous
 62
     7
370
    25
100
AcDbLine
 10
3101.3214942023
 20
1704.5963884577
 30
0.0
 11
3103.8214942023
 21
1704.5963884577
 31
0.0
  0
LINE
  5
F9
330
1F
100
AcDbEntity
  8
0
  6
Continuous
 62
     7
370
    25
100
AcDbLine
 10
3101.3214942023
 20
1706.0963884577
 30
0.0
 11
3102.3214942023
 21
1706.0963884577
 31
0.0
  0
LINE
  5
FA
330
1F
100
AcDbEntity
  8
0
  6
Continuous
 62
     7
370
    25
100
AcDbLine
 10
3102.3214942023
 20
1706.0963884577
 30
0.0
 11
3102.3214942023
 21
1707.0963884577
 31
0.0
  0
LINE
  5
FB
330
1F
100
AcDbEntity
  8
0
  6
Continuous
 62
     7
370
    25
100
AcDbLine
 10
3101.3214942023
 20
1706.0963884577
 30
0.0
 11
3026.3214942023
 21
1706.0963884577
 31
0.0
  0
LINE
  5
FC
330
1F
100
AcDbEntity
  8
0
  6
Continuous
 62
     7
370
    25
100
AcDbLine
 10
3101.3214942023
 20
1704.5963884577
 30
0.0
 11
3026.3214942023
 21
1704.5963884577
 31
0.0
  0
LINE
  5
FD
330
1F
100
AcDbEntity
  8
0
  6
Continuous
 62
     7
370
    25
100
AcDbLine
 10
3103.8214942023
 20
1770.7621576031
 30
0.0
 11
3102.9284632265
 21
1771.5114995655
 31
0.0
  0
LINE
  5
FE
330
1F
100
AcDbEntity
  8
0
  6
Continuous
 62
     7
370
    25
100
AcDbLine
 10
3102.3214942023
 20
1770.0626961158
 30
0.0
 11
3101.964281812
 21
1770.3624329008
 31
0.0
  0
LINE
  5
FF
330
1F
100
AcDbEntity
  8
0
  6
Continuous
 62
     7
370
    25
100
AcDbLine
 10
3103.8214942023
 20
1769.5963884577
 30
0.0
 11
3103.8214942023
 21
1770.7621576031
 31
0.0
  0
LINE
  5
100
330
1F
100
AcDbEntity
  8
0
  6
Continuous
 62
     7
370
    25
100
AcDbLine
 10
3102.3214942023
 20
1769.5963884577
 30
0.0
 11
3102.3214942023
 21
1770.0626961158
 31
0.0
  0
LINE
  5
101
330
1F
100
AcDbEntity
  8
0
  6
Continuous
 62
     7
370
    25
100
AcDbLine
 10
3103.8214942023
 20
1769.5963884577
 30
0.0
 11
3103.8214942023
 21
1707.0963884577
 31
0.0
  0
LINE
  5
102
330
1F
100
AcDbEntity
  8
0
  6
Continuous
 62
     7
370
    25
100
AcDbLine
 10
3102.3214942023
 20
1769.5963884577
 30
0.0
 11
3102.3214942023
 21
1707.0963884577
 31
0.0
  0
LINE
  5
103
330
1F
100
AcDbEntity
  8
0
  6
Continuous
 62
     7
370
    25
100
AcDbLine
 10
3024.3214942023
 20
1779.8720667365
 30
0.0
 11
3028.6006608186
 21
1774.7723545482
 31
0.0
  0
LINE
  5
104
330
1F
100
AcDbEntity
  8
0
  6
Continuous
 62
     7
370
    25
100
AcDbLine
 10
3033.3214942023
 20
1776.7754931653
 30
0.0
 11
3033.3214942023
 21
1784.5626961158
 31
0.0
  0
LINE
  5
105
330
1F
100
AcDbEntity
  8
0
  6
Continuous
 62
     7
370
    25
100
AcDbLine
 10
3033.3214942023
 20
1776.7754931653
 30
0.0
 11
3025.6787065926
 21
1770.3624329008
 31
0.0
  0
LINE
  5
106
330
1F
100
AcDbEntity
  8
0
  6
Continuous
 62
     7
370
    25
100
AcDbLine
 10
3029.9115686166
 20
1784.5626961158
 30
0.0
 11
3024.3214942023
 21
1779.8720667365
 31
0.0
  0
LINE
  5
107
330
1F
100
AcDbEntity
  8
0
  6
Continuous
 62
     7
370
    25
100
AcDbLine
 10
3028.6006608186
 20
1774.7723545482
 30
0.0
 11
3024.7145251781
 21
1771.5114995655
 31
0.0
  0
LINE
  5
108
330
1F
100
AcDbEntity
  8
0
  6
Continuous
 62
     7
370
    25
100
AcDbLine
 10
3033.3214942023
 20
1784.5626961158
 30
0.0
 11
3029.9115686166
 21
1784.5626961158
 31
0.0
  0
LINE
  5
109
330
1F
100
AcDbEntity
  8
0
  6
Continuous
 62
     7
370
    25
100
AcDbLine
 10
3094.3214942023
 20
1776.7754931653
 30
0.0
 11
3101.964281812
 21
1770.3624329008
 31
0.0
  0
LINE
  5
10A
330
1F
100
AcDbEntity
  8
0
  6
Continuous
 62
     7
370
    25
100
AcDbLine
 10
3094.3214942023
 20
1776.7754931653
 30
0.0
 11
3094.3214942023
 21
1784.5626961158
 31
0.0
  0
LINE
  5
10B
330
1F
100
AcDbEntity
  8
0
  6
Continuous
 62
     7
370
    25
100
AcDbLine
 10
3097.731419788
 20
1784.5626961158
 30
0.0
 11
3094.3214942023
 21
1784.5626961158
 31
0.0
  0
LINE
  5
10C
330
1F
100
AcDbEntity
  8
0
  6
Continuous
 62
     7
370
    25
100
AcDbLine
 10
3103.3214942023
 20
1779.8720667365
 30
0.0
 11
3099.042327586
 21
1774.7723545482
 31
0.0
  0
LINE
  5
10D
330
1F
100
AcDbEntity
  8
0
  6
Continuous
 62
     7
370
    25
100
AcDbLine
 10
3099.042327586
 20
1774.7723545482
 30
0.0
 11
3102.9284632265
 21
1771.5114995655
 31
0.0
  0
LINE
  5
10E
330
1F
100
AcDbEntity
  8
0
  6
Continuous
 62
     7
370
    25
100
AcDbLine
 10
3097.731419788
 20
1784.5626961158
 30
0.0
 11
3103.3214942023
 21
1779.8720667365
 31
0.0
  0
LINE
  5
10F
330
1F
100
AcDbEntity
  8
0
  6
Continuous
 62
     7
370
    25
100
AcDbLine
 10
1175.1132215932
 20
315.7796511978
 30
0.0
 11
1179.0660011189
 21
309.6676698274
 31
0.0
  0
LINE
  5
110
330
1F
100
AcDbEntity
  8
0
  6
Continuous
 62
     7
370
    25
100
AcDbLine
 10
2942.8801745596
 20
1336.2897909762
 30
0.0
 11
1175.1132215932
 21
315.7796511978
 31
0.0
  0
LINE
  5
111
330
1F
100
AcDbEntity
  8
0
  6
Continuous
 62
     7
370
    25
100
AcDbLine
 10
2946.8329540853
 20
1330.1778096058
 30
0.0
 11
2942.8801745596
 21
1336.2897909762
 31
0.0
  0
LINE
  5
112
330
1F
100
AcDbEntity
  8
0
  6
Continuous
 62
     7
370
    25
100
AcDbLine
 10
1179.0660011189
 20
309.6676698274
 30
0.0
 11
2946.8329540853
 21
1330.1778096058
 31
0.0
  0
LINE
  5
113
330
1F
100
AcDbEntity
  8
0
  6
Continuous
 62
     7
370
    25
100
AcDbLine
 10
1172.7020400882
 20
310.8130276327
 30
0.0
 11
1178.1063070342
 21
302.4566852969
 31
0.0
  0
LINE
  5
114
330
1F
100
AcDbEntity
  8
0
  6
Continuous
 62
     7
370
    25
100
AcDbLine
 10
1172.7020400882
 20
310.8130276327
 30
0.0
 11
1172.7020400882
 21
317.1715966522
 31
0.0
  0
LINE
  5
115
330
1F
100
AcDbEntity
  8
0
  6
Continuous
 62
     7
370
    25
100
AcDbLine
 10
1175.1132215932
 20
315.7796511978
 30
0.0
 11
1172.7020400882
 21
317.1715966522
 31
0.0
  0
LINE
  5
116
330
1F
100
AcDbEntity
  8
0
  6
Continuous
 62
     7
370
    25
100
AcDbLine
 10
1179.0660011189
 20
309.6676698274
 30
0.0
 11
1176.0401733867
 21
307.2503198655
 31
0.0
  0
LINE
  5
117
330
1F
100
AcDbEntity
  8
0
  6
Continuous
 62
     7
370
    25
100
AcDbLine
 10
1176.0401733867
 20
307.2503198655
 30
0.0
 11
1178.7880862507
 21
303.0013623601
 31
0.0
  0
LINE
  5
118
330
1F
100
AcDbEntity
  8
0
  6
Continuous
 62
     7
370
    25
100
AcDbLine
 10
2946.8329540853
 20
1330.1778096058
 30
0.0
 11
2943.807126353
 21
1327.7604596438
 31
0.0
  0
LINE
  5
119
330
1F
100
AcDbEntity
  8
0
  6
Continuous
 62
     7
370
    25
100
AcDbLine
 10
1176.0401733867
 20
307.2503198655
 30
0.0
 11
2943.807126353
 21
1327.7604596438
 31
0.0
  0
LINE
  5
11A
330
1F
100
AcDbEntity
  8
0
  6
Continuous
 62
     7
370
    25
100
AcDbLine
 10
2942.8801745596
 20
1336.2897909762
 30
0.0
 11
2940.4689930546
 21
1337.6817364306
 31
0.0
  0
LINE
  5
11B
330
1F
100
AcDbEntity
  8
0
  6
Continuous
 62
     7
370
    25
100
AcDbLine
 10
2940.4689930546
 20
1337.6817364306
 30
0.0
 11
1172.7020400882
 21
317.1715966522
 31
0.0
  0
LINE
  5
11C
330
1F
100
AcDbEntity
  8
0
  6
Continuous
 62
     7
370
    25
100
AcDbLine
 10
2946.5550392171
 20
1323.5115021385
 30
0.0
 11
2943.807126353
 21
1327.7604596438
 31
0.0
  0
LINE
  5
11D
330
1F
100
AcDbEntity
  8
0
  6
Continuous
 62
     7
370
    25
100
AcDbLine
 10
2947.1865074759
 20
1322.5350949778
 30
0.0
 11
2946.5550392171
 21
1323.5115021385
 31
0.0
  0
LINE
  5
11E
330
1F
100
AcDbEntity
  8
0
  6
Continuous
 62
     7
370
    25
100
AcDbLine
 10
2947.1865074759
 20
1322.5350949778
 30
0.0
 11
1179.4195545095
 21
302.0249551994
 31
0.0
  0
LINE
  5
11F
330
1F
100
AcDbEntity
  8
0
  6
Continuous
 62
     7
370
    25
100
AcDbLine
 10
1179.4195545095
 20
302.0249551994
 30
0.0
 11
1178.7880862507
 21
303.0013623601
 31
0.0
  0
LINE
  5
120
330
1F
100
AcDbEntity
  8
0
  6
Continuous
 62
     7
370
    25
100
AcDbLine
 10
1179.4195545095
 20
301.073057115
 30
0.0
 11
1179.4195545095
 21
302.0249551994
 31
0.0
  0
LINE
  5
121
330
1F
100
AcDbEntity
  8
0
  6
Continuous
 62
     7
370
    25
100
AcDbLine
 10
1178.3588943377
 20
301.6853631988
 30
0.0
 11
1178.3588943377
 21
302.0661224326
 31
0.0
  0
LINE
  5
122
330
1F
100
AcDbEntity
  8
0
  6
Continuous
 62
     7
370
    25
100
AcDbLine
 10
1178.3588943377
 20
302.0661224326
 30
0.0
 11
1178.1063070342
 21
302.4566852969
 31
0.0
  0
LINE
  5
123
330
1F
100
AcDbEntity
  8
0
  6
Continuous
 62
     7
370
    25
100
AcDbLine
 10
2947.1865074759
 20
1321.5831968933
 30
0.0
 11
2947.1865074759
 21
1322.5350949778
 31
0.0
  0
LINE
  5
124
330
1F
100
AcDbEntity
  8
0
  6
Continuous
 62
     7
370
    25
100
AcDbLine
 10
2947.1865074759
 20
1321.5831968933
 30
0.0
 11
2947.1865074759
 21
1270.5493961505
 31
0.0
  0
LINE
  5
125
330
1F
100
AcDbEntity
  8
0
  6
Continuous
 62
     7
370
    25
100
AcDbLine
 10
2947.1865074759
 20
1268.5080441208
 30
0.0
 11
2947.1865074759
 21
1270.5493961505
 31
0.0
  0
LINE
  5
126
330
1F
100
AcDbEntity
  8
0
  6
Continuous
 62
     7
370
    25
100
AcDbLine
 10
2947.1865074759
 20
1268.5080441208
 30
0.0
 11
1179.4195545095
 21
247.9979043424
 31
0.0
  0
LINE
  5
127
330
1F
100
AcDbEntity
  8
0
  6
Continuous
 62
     7
370
    25
100
AcDbLine
 10
1179.4195545095
 20
247.9979043424
 30
0.0
 11
1179.4195545095
 21
250.0392563721
 31
0.0
  0
LINE
  5
128
330
1F
100
AcDbEntity
  8
0
  6
Continuous
 62
     7
370
    25
100
AcDbLine
 10
1179.4195545095
 20
301.073057115
 30
0.0
 11
1179.4195545095
 21
250.0392563721
 31
0.0
  0
LWPOLYLINE
  5
129
330
1F
100
AcDbEntity
  8
0
  6
Continuous
 62
     7
370
    25
100
AcDbPolyline
 90
       10
 70
   128
 43
0.0
 10
1238.8165241292
 20
294.1268868113
 10
1239.6629807984
 20
294.7878878726
 10
1240.407342301
 20
295.7138665053
 10
1240.9598276541
 20
296.7931360203
 10
1241.2537989703
 20
297.8955205857
 10
1241.2537989703
 20
298.8880563536
 10
1240.9598276541
 20
299.6510288619
 10
1240.407342301
 20
300.092412366
 10
1239.6629807984
 20
300.1589695011
 10
1238.8165241292
 20
299.8426724945
  0
LINE
  5
12A
330
1F
100
AcDbEntity
  8
0
  6
Continuous
 62
     7
370
    25
100
AcDbLine
 10
1238.8165241292
 20
299.8426724945
 30
0.0
 11
1226.0886020678
 21
292.4949994881
 31
0.0
  0
LWPOLYLINE
  5
12B
330
1F
100
AcDbEntity
  8
0
  6
Continuous
 62
     7
370
    25
100
AcDbPolyline
 90
       10
 70
   128
 43
0.0
 10
1226.0886020678
 20
292.4949994881
 10
1225.2421453986
 20
291.8339984267
 10
1224.497783896
 20
290.908019794
 10
1223.9452985429
 20
289.8287502791
 10
1223.6513272267
 20
288.7263657136
 10
1223.6513272267
 20
287.7338299458
 10
1223.9452985429
 20
286.9708574375
 10
1224.497783896
 20
286.5294739334
 10
1225.2421453986
 20
286.4629167983
 10
1226.0886020678
 20
286.7792138049
  0
LINE
  5
12C
330
1F
100
AcDbEntity
  8
0
  6
Continuous
 62
     7
370
    25
100
AcDbLine
 10
1226.0886020678
 20
286.7792138049
 30
0.0
 11
1238.8165241292
 21
294.1268868113
 31
0.0
  0
LWPOLYLINE
  5
12D
330
1F
100
AcDbEntity
  8
0
  6
Continuous
 62
     7
370
    25
100
AcDbPolyline
 90
       10
 70
   128
 43
0.0
 10
2923.1448769155
 20
1272.1847336753
 10
2922.2984202463
 20
1271.523732614
 10
2921.5540587437
 20
1270.5977539813
 10
2921.0015733906
 20
1269.5184844663
 10
2920.7076020744
 20
1268.4160999009
 10
2920.7076020744
 20
1267.4235641331
 10
2921.0015733906
 20
1266.6605916247
 10
2921.5540587437
 20
1266.2192081206
 10
2922.2984202463
 20
1266.1526509855
 10
2923.1448769155
 20
1266.4689479921
  0
LINE
  5
12E
330
1F
100
AcDbEntity
  8
0
  6
Continuous
 62
     7
370
    25
100
AcDbLine
 10
2923.1448769155
 20
1266.4689479921
 30
0.0
 11
2935.8727989769
 21
1273.8166209985
 31
0.0
  0
LWPOLYLINE
  5
12F
330
1F
100
AcDbEntity
  8
0
  6
Continuous
 62
     7
370
    25
100
AcDbPolyline
 90
       10
 70
   128
 43
0.0
 10
2935.8727989769
 20
1273.8166209985
 10
2936.7192556462
 20
1274.4776220599
 10
2937.4636171487
 20
1275.4036006926
 10
2938.0161025018
 20
1276.4828702076
 10
2938.310073818
 20
1277.585254773
 10
2938.310073818
 20
1278.5777905408
 10
2938.0161025018
 20
1279.3407630492
 10
2937.4636171487
 20
1279.7821465532
 10
2936.7192556462
 20
1279.8487036884
 10
2935.8727989769
 20
1279.5324066817
  0
LINE
  5
130
330
1F
100
AcDbEntity
  8
0
  6
Continuous
 62
     7
370
    25
100
AcDbLine
 10
2935.8727989769
 20
1279.5324066817
 30
0.0
 11
2923.1448769155
 21
1272.1847336753
 31
0.0
  0
LWPOLYLINE
  5
131
330
1F
100
AcDbEntity
  8
0
  6
Continuous
 62
     7
370
    25
100
AcDbPolyline
 90
       10
 70
   128
 43
0.0
 10
2887.7895378562
 20
1251.7745308798
 10
2886.9430811869
 20
1251.1135298184
 10
2886.1987196844
 20
1250.1875511857
 10
2885.6462343313
 20
1249.1082816707
 10
2885.3522630151
 20
1248.0058971053
 10
2885.3522630151
 20
1247.0133613375
 10
2885.6462343313
 20
1246.2503888291
 10
2886.1987196844
 20
1245.8090053251
 10
2886.9430811869
 20
1245.7424481899
 10
2887.7895378562
 20
1246.0587451966
  0
LINE
  5
132
330
1F
100
AcDbEntity
  8
0
  6
Continuous
 62
     7
370
    25
100
AcDbLine
 10
2887.7895378562
 20
1246.0587451966
 30
0.0
 11
2900.5174599176
 21
1253.406418203
 31
0.0
  0
LWPOLYLINE
  5
133
330
1F
100
AcDbEntity
  8
0
  6
Continuous
 62
     7
370
    25
100
AcDbPolyline
 90
       10
 70
   128
 43
0.0
 10
2900.5174599176
 20
1253.406418203
 10
2901.3639165868
 20
1254.0674192643
 10
2902.1082780894
 20
1254.993397897
 10
2902.6607634425
 20
1256.072667412
 10
2902.9547347587
 20
1257.1750519774
 10
2902.9547347587
 20
1258.1675877452
 10
2902.6607634425
 20
1258.9305602536
 10
2902.1082780894
 20
1259.3719437577
 10
2901.3639165868
 20
1259.4385008928
 10
2900.5174599176
 20
1259.1222038862
  0
LINE
  5
134
330
1F
100
AcDbEntity
  8
0
  6
Continuous
 62
     7
370
    25
100
AcDbLine
 10
2900.5174599176
 20
1259.1222038862
 30
0.0
 11
2887.7895378562
 21
1251.7745308798
 31
0.0
  0
LWPOLYLINE
  5
135
330
1F
100
AcDbEntity
  8
0
  6
Continuous
 62
     7
370
    25
100
AcDbPolyline
 90
       10
 70
   128
 43
0.0
 10
1203.4611850699
 20
273.7166840157
 10
1204.3076417391
 20
274.3776850771
 10
1205.0520032417
 20
275.3036637098
 10
1205.6044885948
 20
276.3829332247
 10
1205.898459911
 20
277.4853177902
 10
1205.898459911
 20
278.477853558
 10
1205.6044885948
 20
279.2408260663
 10
1205.0520032417
 20
279.6822095704
 10
1204.3076417391
 20
279.7487667055
 10
1203.4611850699
 20
279.4324696989
  0
LINE
  5
136
330
1F
100
AcDbEntity
  8
0
  6
Continuous
 62
     7
370
    25
100
AcDbLine
 10
1203.4611850699
 20
279.4324696989
 30
0.0
 11
1190.7332630085
 21
272.0847966925
 31
0.0
  0
LWPOLYLINE
  5
137
330
1F
100
AcDbEntity
  8
0
  6
Continuous
 62
     7
370
    25
100
AcDbPolyline
 90
       10
 70
   128
 43
0.0
 10
1190.7332630085
 20
272.0847966925
 10
1189.8868063392
 20
271.4237956312
 10
1189.1424448366
 20
270.4978169985
 10
1188.5899594836
 20
269.4185474835
 10
1188.2959881674
 20
268.3161629181
 10
1188.2959881674
 20
267.3236271502
 10
1188.5899594836
 20
266.5606546419
 10
1189.1424448366
 20
266.1192711378
 10
1189.8868063392
 20
266.0527140027
 10
1190.7332630085
 20
266.3690110093
  0
LINE
  5
138
330
1F
100
AcDbEntity
  8
0
  6
Continuous
 62
     7
370
    25
100
AcDbLine
 10
1190.7332630085
 20
266.3690110093
 30
0.0
 11
1203.4611850699
 21
273.7166840157
 31
0.0
  0
LWPOLYLINE
  5
139
330
1F
100
AcDbEntity
  8
0
  6
Continuous
 62
     7
370
    25
100
AcDbPolyline
 90
       10
 70
   128
 43
0.0
 10
1238.8165241292
 20
314.5404071084
 10
1239.6629807984
 20
315.2014081698
 10
1240.407342301
 20
316.1273868025
 10
1240.9598276541
 20
317.2066563174
 10
1241.2537989703
 20
318.3090408829
 10
1241.2537989703
 20
319.3015766507
 10
1240.9598276541
 20
320.064549159
 10
1240.407342301
 20
320.5059326631
 10
1239.6629807984
 20
320.5724897983
 10
1238.8165241292
 20
320.2561927916
  0
LINE
  5
13A
330
1F
100
AcDbEntity
  8
0
  6
Continuous
 62
     7
370
    25
100
AcDbLine
 10
1238.8165241292
 20
320.2561927916
 30
0.0
 11
1226.0886020678
 21
312.9085197852
 31
0.0
  0
LWPOLYLINE
  5
13B
330
1F
100
AcDbEntity
  8
0
  6
Continuous
 62
     7
370
    25
100
AcDbPolyline
 90
       10
 70
   128
 43
0.0
 10
1226.0886020678
 20
312.9085197852
 10
1225.2421453986
 20
312.2475187239
 10
1224.497783896
 20
311.3215400912
 10
1223.9452985429
 20
310.2422705762
 10
1223.6513272267
 20
309.1398860108
 10
1223.6513272267
 20
308.147350243
 10
1223.9452985429
 20
307.3843777346
 10
1224.497783896
 20
306.9429942305
 10
1225.2421453986
 20
306.8764370954
 10
1226.0886020678
 20
307.192734102
  0
LINE
  5
13C
330
1F
100
AcDbEntity
  8
0
  6
Continuous
 62
     7
370
    25
100
AcDbLine
 10
1226.0886020678
 20
307.192734102
 30
0.0
 11
1238.8165241292
 21
314.5404071084
 31
0.0
  0
LWPOLYLINE
  5
13D
330
1F
100
AcDbEntity
  8
0
  6
Continuous
 62
     7
370
    25
100
AcDbPolyline
 90
       10
 70
   128
 43
0.0
 10
2923.1448769155
 20
1292.5982539725
 10
2922.2984202463
 20
1291.9372529111
 10
2921.5540587437
 20
1291.0112742784
 10
2921.0015733906
 20
1289.9320047635
 10
2920.7076020744
 20
1288.829620198
 10
2920.7076020744
 20
1287.8370844302
 10
2921.0015733906
 20
1287.0741119219
 10
2921.5540587437
 20
1286.6327284178
 10
2922.2984202463
 20
1286.5661712826
 10
2923.1448769155
 20
1286.8824682893
  0
LINE
  5
13E
330
1F
100
AcDbEntity
  8
0
  6
Continuous
 62
     7
370
    25
100
AcDbLine
 10
2923.1448769155
 20
1286.8824682893
 30
0.0
 11
2935.8727989769
 21
1294.2301412957
 31
0.0
  0
LWPOLYLINE
  5
13F
330
1F
100
AcDbEntity
  8
0
  6
Continuous
 62
     7
370
    25
100
AcDbPolyline
 90
       10
 70
   128
 43
0.0
 10
2935.8727989769
 20
1294.2301412957
 10
2936.7192556462
 20
1294.891142357
 10
2937.4636171487
 20
1295.8171209897
 10
2938.0161025018
 20
1296.8963905047
 10
2938.310073818
 20
1297.9987750701
 10
2938.310073818
 20
1298.9913108379
 10
2938.0161025018
 20
1299.7542833463
 10
2937.4636171487
 20
1300.1956668504
 10
2936.7192556462
 20
1300.2622239855
 10
2935.8727989769
 20
1299.9459269789
  0
LINE
  5
140
330
1F
100
AcDbEntity
  8
0
  6
Continuous
 62
     7
370
    25
100
AcDbLine
 10
2935.8727989769
 20
1299.9459269789
 30
0.0
 11
2923.1448769155
 21
1292.5982539725
 31
0.0
  0
LWPOLYLINE
  5
141
330
1F
100
AcDbEntity
  8
0
  6
Continuous
 62
     7
370
    25
100
AcDbPolyline
 90
       10
 70
   128
 43
0.0
 10
2887.7895378562
 20
1272.1880511769
 10
2886.9430811869
 20
1271.5270501156
 10
2886.1987196844
 20
1270.6010714829
 10
2885.6462343313
 20
1269.5218019679
 10
2885.3522630151
 20
1268.4194174025
 10
2885.3522630151
 20
1267.4268816346
 10
2885.6462343313
 20
1266.6639091263
 10
2886.1987196844
 20
1266.2225256222
 10
2886.9430811869
 20
1266.1559684871
 10
2887.7895378562
 20
1266.4722654937
  0
LINE
  5
142
330
1F
100
AcDbEntity
  8
0
  6
Continuous
 62
     7
370
    25
100
AcDbLine
 10
2887.7895378562
 20
1266.4722654937
 30
0.0
 11
2900.5174599176
 21
1273.8199385001
 31
0.0
  0
LWPOLYLINE
  5
143
330
1F
100
AcDbEntity
  8
0
  6
Continuous
 62
     7
370
    25
100
AcDbPolyline
 90
       10
 70
   128
 43
0.0
 10
2900.5174599176
 20
1273.8199385001
 10
2901.3639165868
 20
1274.4809395614
 10
2902.1082780894
 20
1275.4069181941
 10
2902.6607634425
 20
1276.4861877091
 10
2902.9547347587
 20
1277.5885722746
 10
2902.9547347587
 20
1278.5811080424
 10
2902.6607634425
 20
1279.3440805507
 10
2902.1082780894
 20
1279.7854640548
 10
2901.3639165868
 20
1279.8520211899
 10
2900.5174599176
 20
1279.5357241833
  0
LINE
  5
144
330
1F
100
AcDbEntity
  8
0
  6
Continuous
 62
     7
370
    25
100
AcDbLine
 10
2900.5174599176
 20
1279.5357241833
 30
0.0
 11
2887.7895378562
 21
1272.1880511769
 31
0.0
  0
LWPOLYLINE
  5
145
330
1F
100
AcDbEntity
  8
0
  6
Continuous
 62
     7
370
    25
100
AcDbPolyline
 90
       10
 70
   128
 43
0.0
 10
1203.4611850699
 20
294.1302043129
 10
1204.3076417391
 20
294.7912053742
 10
1205.0520032417
 20
295.7171840069
 10
1205.6044885948
 20
296.7964535219
 10
1205.898459911
 20
297.8988380873
 10
1205.898459911
 20
298.8913738551
 10
1205.6044885948
 20
299.6543463635
 10
1205.0520032417
 20
300.0957298676
 10
1204.3076417391
 20
300.1622870027
 10
1203.4611850699
 20
299.8459899961
  0
LINE
  5
146
330
1F
100
AcDbEntity
  8
0
  6
Continuous
 62
     7
370
    25
100
AcDbLine
 10
1203.4611850699
 20
299.8459899961
 30
0.0
 11
1190.7332630085
 21
292.4983169897
 31
0.0
  0
LWPOLYLINE
  5
147
330
1F
100
AcDbEntity
  8
0
  6
Continuous
 62
     7
370
    25
100
AcDbPolyline
 90
       10
 70
   128
 43
0.0
 10
1190.7332630085
 20
292.4983169897
 10
1189.8868063392
 20
291.8373159283
 10
1189.1424448366
 20
290.9113372956
 10
1188.5899594836
 20
289.8320677806
 10
1188.2959881674
 20
288.7296832152
 10
1188.2959881674
 20
287.7371474474
 10
1188.5899594836
 20
286.974174939
 10
1189.1424448366
 20
286.5327914349
 10
1189.8868063392
 20
286.4662342998
 10
1190.7332630085
 20
286.7825313065
  0
LINE
  5
148
330
1F
100
AcDbEntity
  8
0
  6
Continuous
 62
     7
370
    25
100
AcDbLine
 10
1190.7332630085
 20
286.7825313065
 30
0.0
 11
1203.4611850699
 21
294.1302043129
 31
0.0
  0
LINE
  5
149
330
1F
100
AcDbEntity
  8
0
  6
Continuous
 62
     7
370
    25
100
AcDbLine
 10
1178.3588943377
 20
301.6853631988
 30
0.0
 11
1178.3588943377
 21
250.651562456
 31
0.0
  0
LWPOLYLINE
  5
14A
330
1F
100
AcDbEntity
  8
0
  6
Continuous
 62
     7
370
    25
100
AcDbPolyline
 90
        3
 70
   128
 43
0.0
 10
1189.6726028367
 20
287.3948373903
 10
1188.8261461674
 20
287.0785403837
 10
1188.5353467434
 20
287.0579202097
  0
LINE
  5
14B
330
1F
100
AcDbEntity
  8
0
  6
Continuous
 62
     7
370
    25
100
AcDbLine
 10
1202.4005248981
 20
294.7425103967
 30
0.0
 11
1189.6726028367
 21
287.3948373903
 31
0.0
  0
ARC
  5
14C
330
1F
100
AcDbEntity
  8
0
  6
Continuous
 62
     7
370
    25
100
AcDbCircle
 10
1200.2272754095
 20
298.7846782392
 30
0.0
 40
4.589350085413758
100
AcDbArc
 50
298.2644546681
 51
17.7382019345
  0
LINE
  5
14D
330
1F
100
AcDbEntity
  8
0
  6
Continuous
 62
     7
370
    25
100
AcDbLine
 10
2897.3354794022
 20
1356.2236148216
 30
0.0
 11
1129.5685264359
 21
335.7134750432
 31
0.0
  0
LINE
  5
14E
330
1F
100
AcDbEntity
  8
0
  6
Continuous
 62
     7
370
    25
100
AcDbLine
 10
1129.5685264359
 20
335.7134750432
 30
0.0
 11
1129.5685264359
 21
342.0720440628
 31
0.0
  0
LINE
  5
14F
330
1F
100
AcDbEntity
  8
0
  6
Continuous
 62
     7
370
    25
100
AcDbLine
 10
2897.3354794022
 20
1362.5821838412
 30
0.0
 11
1129.5685264359
 21
342.0720440628
 31
0.0
  0
LINE
  5
150
330
1F
100
AcDbEntity
  8
0
  6
Continuous
 62
     7
370
    25
100
AcDbLine
 10
2897.3354794022
 20
1362.5821838412
 30
0.0
 11
2897.3354794022
 21
1356.2236148216
 31
0.0
  0
LINE
  5
151
330
1F
100
AcDbEntity
  8
0
  6
Continuous
 62
     7
370
    25
100
AcDbLine
 10
1129.5685264359
 20
342.0720440628
 30
0.0
 11
1127.1573449309
 21
343.4639895173
 31
0.0
  0
LINE
  5
152
330
1F
100
AcDbEntity
  8
0
  6
Continuous
 62
     7
370
    25
100
AcDbLine
 10
2894.9242978973
 20
1363.9741292956
 30
0.0
 11
1127.1573449309
 21
343.4639895173
 31
0.0
  0
LINE
  5
153
330
1F
100
AcDbEntity
  8
0
  6
Continuous
 62
     7
370
    25
100
AcDbLine
 10
2897.3354794022
 20
1362.5821838412
 30
0.0
 11
2894.9242978973
 21
1363.9741292956
 31
0.0
  0
LINE
  5
154
330
1F
100
AcDbEntity
  8
0
  6
Continuous
 62
     7
370
    25
100
AcDbLine
 10
1126.2303931374
 20
336.004893945
 30
0.0
 11
1123.4824802734
 21
334.9286091003
 31
0.0
  0
LINE
  5
155
330
1F
100
AcDbEntity
  8
0
  6
Continuous
 62
     7
370
    25
100
AcDbLine
 10
1123.2045654052
 20
341.9157902444
 30
0.0
 11
1126.2303931374
 21
336.004893945
 31
0.0
  0
LINE
  5
156
330
1F
100
AcDbEntity
  8
0
  6
Continuous
 62
     7
370
    25
100
AcDbLine
 10
1127.1573449309
 20
343.4639895173
 30
0.0
 11
1123.2045654052
 21
341.9157902444
 31
0.0
  0
LINE
  5
157
330
1F
100
AcDbEntity
  8
0
  6
Continuous
 62
     7
370
    25
100
AcDbLine
 10
1129.5685264359
 20
335.7134750432
 30
0.0
 11
1124.1642594899
 21
333.596766509
 31
0.0
  0
LWPOLYLINE
  5
158
330
1F
100
AcDbEntity
  8
0
  6
Continuous
 62
     7
370
    25
100
AcDbPolyline
 90
        3
 70
   128
 43
0.0
 10
1189.6726028367
 20
266.9813170932
 10
1188.8261461674
 20
266.6650200866
 10
1188.5353467435
 20
266.6443999126
  0
LINE
  5
159
330
1F
100
AcDbEntity
  8
0
  6
Continuous
 62
     7
370
    25
100
AcDbLine
 10
2890.9715183716
 20
1362.4259300228
 30
0.0
 11
2894.9242978973
 21
1363.9741292956
 31
0.0
  0
LINE
  5
15A
330
1F
100
AcDbEntity
  8
0
  6
Continuous
 62
     7
370
    25
100
AcDbLine
 10
1123.2045654052
 20
341.9157902444
 30
0.0
 11
2890.9715183716
 21
1362.4259300228
 31
0.0
  0
LINE
  5
15B
330
1F
100
AcDbEntity
  8
0
  6
Continuous
 62
     7
370
    25
100
AcDbLine
 10
1177.6517875565
 20
249.0184144822
 30
0.0
 11
1179.4195545095
 21
247.9979043424
 31
0.0
  0
LINE
  5
15C
330
1F
100
AcDbEntity
  8
0
  6
Continuous
 62
     7
370
    25
100
AcDbLine
 10
1177.6517875565
 20
250.2432257
 30
0.0
 11
1178.3588943377
 21
249.8350216441
 31
0.0
  0
LINE
  5
15D
330
1F
100
AcDbEntity
  8
0
  6
Continuous
 62
     7
370
    25
100
AcDbLine
 10
1178.3588943377
 20
249.8350216441
 30
0.0
 11
1178.3588943377
 21
250.651562456
 31
0.0
  0
LINE
  5
15E
330
1F
100
AcDbEntity
  8
0
  6
Continuous
 62
     7
370
    25
100
AcDbLine
 10
1123.9116721864
 20
281.2667339493
 30
0.0
 11
1124.6187789676
 21
280.8585298933
 31
0.0
  0
LINE
  5
15F
330
1F
100
AcDbEntity
  8
0
  6
Continuous
 62
     7
370
    25
100
AcDbLine
 10
1173.3520000445
 20
309.8080277032
 30
0.0
 11
1123.9116721864
 21
281.2667339493
 31
0.0
  0
LINE
  5
160
330
1F
100
AcDbEntity
  8
0
  6
Continuous
 62
     7
370
    25
100
AcDbLine
 10
2936.3755377326
 20
1275.9738953272
 30
0.0
 11
2933.0420731706
 21
1277.8982634575
 31
0.0
  0
LINE
  5
161
330
1F
100
AcDbEntity
  8
0
  6
Continuous
 62
     7
370
    25
100
AcDbLine
 10
1177.6517875565
 20
250.2432257
 30
0.0
 11
1124.6187789676
 21
280.8585298933
 31
0.0
  0
ARC
  5
162
330
1F
100
AcDbEntity
  8
0
  6
Continuous
 62
     7
370
    25
100
AcDbCircle
 10
2900.6723869444
 20
1279.1215486246
 30
0.0
 40
0.4366153168339614
100
AcDbArc
 50
110.7834207993
 51
249.2165792007
  0
LINE
  5
163
330
1F
100
AcDbEntity
  8
0
  6
Continuous
 62
     7
370
    25
100
AcDbLine
 10
2900.5174599176
 20
1278.7133445687
 30
0.0
 11
2901.8500935597
 21
1277.9440315423
 31
0.0
  0
LINE
  5
164
330
1F
100
AcDbEntity
  8
0
  6
Continuous
 62
     7
370
    25
100
AcDbLine
 10
2900.6773641337
 20
1279.6220634196
 30
0.0
 11
2900.5174599176
 21
1279.5297526805
 31
0.0
  0
ARC
  5
165
330
1F
100
AcDbEntity
  8
0
  6
Continuous
 62
     7
370
    25
100
AcDbCircle
 10
1159.0683848819
 20
273.7149589149
 30
0.0
 40
0.4366153168342585
100
AcDbArc
 50
110.7834207995
 51
249.2165792005
  0
LINE
  5
166
330
1F
100
AcDbEntity
  8
0
  6
Continuous
 62
     7
370
    25
100
AcDbLine
 10
1158.9134578551
 20
273.306754859
 30
0.0
 11
1164.5703121046
 21
270.0411224117
 31
0.0
  0
ARC
  5
167
330
1F
100
AcDbEntity
  8
0
  6
Continuous
 62
     7
370
    25
100
AcDbCircle
 10
1165.2774188858
 20
271.4058334967
 30
0.0
 40
1.537021907912278
100
AcDbArc
 50
242.6096722366
 51
297.3903277634
  0
LINE
  5
168
330
1F
100
AcDbEntity
  8
0
  6
Continuous
 62
     7
370
    25
100
AcDbLine
 10
1165.984525667
 20
270.0411224117
 30
0.0
 11
1169.5200595729
 21
272.0821426913
 31
0.0
  0
ARC
  5
169
330
1F
100
AcDbEntity
  8
0
  6
Continuous
 62
     7
370
    25
100
AcDbCircle
 10
1169.3651325461
 20
272.4903467472
 30
0.0
 40
0.4366153168343392
100
AcDbArc
 50
290.7834207995
 51
69.2165792005
  0
LINE
  5
16A
330
1F
100
AcDbEntity
  8
0
  6
Continuous
 62
     7
370
    25
100
AcDbLine
 10
1169.5200595729
 20
272.8985508031
 30
0.0
 11
1163.8632053234
 21
276.1641832504
 31
0.0
  0
ARC
  5
16B
330
1F
100
AcDbEntity
  8
0
  6
Continuous
 62
     7
370
    25
100
AcDbCircle
 10
1163.1560985422
 20
274.7994721654
 30
0.0
 40
1.537021907911214
100
AcDbArc
 50
62.6096722366
 51
117.3903277634
  0
LINE
  5
16C
330
1F
100
AcDbEntity
  8
0
  6
Continuous
 62
     7
370
    25
100
AcDbLine
 10
1162.448991761
 20
276.1641832504
 30
0.0
 11
1158.9134578551
 21
274.1231629708
 31
0.0
  0
LINE
  5
16D
330
1F
100
AcDbEntity
  8
0
  6
Continuous
 62
     7
370
    25
100
AcDbLine
 10
1145.4784290126
 20
281.8790400331
 30
0.0
 11
1158.2063510739
 21
289.2267130395
 31
0.0
  0
LWPOLYLINE
  5
16E
330
1F
100
AcDbEntity
  8
0
  6
Continuous
 62
     7
370
    25
100
AcDbPolyline
 90
       10
 70
   128
 43
0.0
 10
1158.2063510739
 20
289.2267130395
 10
1158.9035545944
 20
289.8015240823
 10
1159.2181587831
 20
290.4793284476
 10
1159.1122177318
 20
291.1783729256
 10
1158.5985094948
 20
291.8143424355
 10
1157.738994867
 20
292.3105296685
 10
1156.6373439976
 20
292.6070871213
 10
1155.4264322401
 20
292.6682455884
 10
1154.2523134237
 20
292.4866284561
 10
1153.2566036056
 20
292.0841414309
  0
LINE
  5
16F
330
1F
100
AcDbEntity
  8
0
  6
Continuous
 62
     7
370
    25
100
AcDbLine
 10
1153.2566036056
 20
292.0841414309
 30
0.0
 11
1140.5286815443
 21
284.7364684245
 31
0.0
  0
LWPOLYLINE
  5
170
330
1F
100
AcDbEntity
  8
0
  6
Continuous
 62
     7
370
    25
100
AcDbPolyline
 90
       10
 70
   128
 43
0.0
 10
1140.5286815443
 20
284.7364684245
 10
1139.8314780238
 20
284.1616573817
 10
1139.5168738351
 20
283.4838530165
 10
1139.6228148864
 20
282.7848085384
 10
1140.1365231234
 20
282.1488390286
 10
1140.9960377512
 20
281.6526517956
 10
1142.0976886205
 20
281.3560943428
 10
1143.308600378
 20
281.2949358756
 10
1144.4827191945
 20
281.4765530079
 10
1145.4784290126
 20
281.8790400331
  0
LINE
  5
171
330
1F
100
AcDbEntity
  8
0
  6
Continuous
 62
     7
370
    25
100
AcDbLine
 10
2889.2037514186
 20
1249.322652543
 30
0.0
 11
2885.3403142037
 21
1247.0923377125
 31
0.0
  0
ARC
  5
172
330
1F
100
AcDbEntity
  8
0
  6
Continuous
 62
     7
370
    25
100
AcDbCircle
 10
2891.6592108533
 20
1244.5819792172
 30
0.0
 40
5.338844876750271
100
AcDbArc
 50
83.1834142245
 51
117.3821616972
  0
LINE
  5
173
330
1F
100
AcDbEntity
  8
0
  6
Continuous
 62
     7
370
    25
100
AcDbLine
 10
1176.2354259901
 20
305.3495332317
 30
0.0
 11
1175.8840206036
 21
305.1466712201
 31
0.0
  0
LWPOLYLINE
  5
174
330
1F
100
AcDbEntity
  8
0
  6
Continuous
 62
     7
370
    25
100
AcDbPolyline
 90
        8
 70
   128
 43
0.0
 10
1175.8840206036
 20
305.1466712201
 10
1175.1868170831
 20
304.5718601773
 10
1174.8722128944
 20
303.894055812
 10
1174.9781539457
 20
303.195011334
 10
1175.4918621827
 20
302.5590418241
 10
1176.3513768105
 20
302.0628545911
 10
1177.4530276799
 20
301.7662971383
 10
1178.3588943377
 20
301.6974500321
  0
ARC
  5
175
330
1F
100
AcDbEntity
  8
0
  6
Continuous
 62
     7
370
    25
100
AcDbCircle
 10
1194.6029360056
 20
264.8922450299
 30
0.0
 40
5.33884487674724
100
AcDbArc
 50
83.1834142245
 51
117.3821616972
  0
LINE
  5
176
330
1F
100
AcDbEntity
  8
0
  6
Continuous
 62
     7
370
    25
100
AcDbLine
 10
1192.1474765709
 20
269.6329183558
 30
0.0
 11
1188.284039356
 21
267.4026035252
 31
0.0
  0
ARC
  5
177
330
1F
100
AcDbEntity
  8
0
  6
Continuous
 62
     7
370
    25
100
AcDbCircle
 10
1229.9582750649
 20
285.3024478255
 30
0.0
 40
5.338844876745826
100
AcDbArc
 50
83.1834142245
 51
117.3821616972
  0
LINE
  5
178
330
1F
100
AcDbEntity
  8
0
  6
Continuous
 62
     7
370
    25
100
AcDbLine
 10
1227.5028156302
 20
290.0431211514
 30
0.0
 11
1223.6393784153
 21
287.8128063208
 31
0.0
  0
LINE
  5
179
330
1F
100
AcDbEntity
  8
0
  6
Continuous
 62
     7
370
    25
100
AcDbLine
 10
2924.5590904779
 20
1269.7328553386
 30
0.0
 11
2920.695653263
 21
1267.502540508
 31
0.0
  0
ARC
  5
17A
330
1F
100
AcDbEntity
  8
0
  6
Continuous
 62
     7
370
    25
100
AcDbCircle
 10
2927.0145499126
 20
1264.9921820128
 30
0.0
 40
5.338844876749729
100
AcDbArc
 50
83.1834142245
 51
117.3821616972
  0
LINE
  5
17B
330
1F
100
AcDbEntity
  8
0
  6
Continuous
 62
     7
370
    25
100
AcDbLine
 10
1177.6517875565
 20
249.0184144822
 30
0.0
 11
1124.6187789676
 21
279.6337186755
 31
0.0
  0
LINE
  5
17C
330
1F
100
AcDbEntity
  8
0
  6
Continuous
 62
     7
370
    25
100
AcDbLine
 10
1202.4005248981
 20
274.3289900996
 30
0.0
 11
1189.6726028367
 21
266.9813170932
 31
0.0
  0
LINE
  5
17D
330
1F
100
AcDbEntity
  8
0
  6
Continuous
 62
     7
370
    25
100
AcDbLine
 10
1123.4824802734
 20
334.9286091003
 30
0.0
 11
1122.8510120146
 21
334.6812796723
 31
0.0
  0
LINE
  5
17E
330
1F
100
AcDbEntity
  8
0
  6
Continuous
 62
     7
370
    25
100
AcDbLine
 10
1125.9825392039
 20
336.4890718388
 30
0.0
 11
1122.8510120146
 21
334.6812796723
 31
0.0
  0
LINE
  5
17F
330
1F
100
AcDbEntity
  8
0
  6
Continuous
 62
     7
370
    25
100
AcDbLine
 10
1122.8510120146
 20
334.6812796723
 30
0.0
 11
1122.8510120146
 21
333.7293815879
 31
0.0
  0
LINE
  5
180
330
1F
100
AcDbEntity
  8
0
  6
Continuous
 62
     7
370
    25
100
AcDbLine
 10
1123.9116721864
 20
333.4978347378
 30
0.0
 11
1123.9116721864
 21
333.117075504
 31
0.0
  0
LINE
  5
181
330
1F
100
AcDbEntity
  8
0
  6
Continuous
 62
     7
370
    25
100
AcDbLine
 10
1124.1642594899
 20
333.596766509
 30
0.0
 11
1123.9116721864
 21
333.4978347378
 31
0.0
  0
ARC
  5
182
330
1F
100
AcDbEntity
  8
0
  6
Continuous
 62
     7
370
    25
100
AcDbCircle
 10
1200.2272754095
 20
278.3711579421
 30
0.0
 40
4.589350085443916
100
AcDbArc
 50
298.2644546683
 51
17.7382019336
  0
LINE
  5
183
330
1F
100
AcDbEntity
  8
0
  6
Continuous
 62
     7
370
    25
100
AcDbLine
 10
2891.6786251527
 20
1309.5156565727
 30
0.0
 11
2891.6786251527
 21
1352.9579823743
 31
0.0
  0
LINE
  5
184
330
1F
100
AcDbEntity
  8
0
  6
Continuous
 62
     7
370
    25
100
AcDbLine
 10
1123.9116721864
 20
282.0832747611
 30
0.0
 11
1123.9116721864
 21
281.2667339493
 31
0.0
  0
LINE
  5
185
330
1F
100
AcDbEntity
  8
0
  6
Continuous
 62
     7
370
    25
100
AcDbLine
 10
1123.9116721864
 20
282.0832747611
 30
0.0
 11
1123.9116721864
 21
333.117075504
 31
0.0
  0
LINE
  5
186
330
1F
100
AcDbEntity
  8
0
  6
Continuous
 62
     7
370
    25
100
AcDbLine
 10
1170.5807197447
 20
318.8232321939
 30
0.0
 11
1183.308641806
 21
326.1709052003
 31
0.0
  0
LWPOLYLINE
  5
187
330
1F
100
AcDbEntity
  8
0
  6
Continuous
 62
     7
370
    25
100
AcDbPolyline
 90
       10
 70
   128
 43
0.0
 10
1183.308641806
 20
326.1709052003
 10
1184.1550984753
 20
326.8319062617
 10
1184.8994599779
 20
327.7578848944
 10
1185.451945331
 20
328.8371544093
 10
1185.7459166472
 20
329.9395389748
 10
1185.7459166472
 20
330.9320747426
 10
1185.451945331
 20
331.6950472509
 10
1184.8994599779
 20
332.136430755
 10
1184.1550984753
 20
332.2029878902
 10
1183.308641806
 20
331.8866908835
  0
LINE
  5
188
330
1F
100
AcDbEntity
  8
0
  6
Continuous
 62
     7
370
    25
100
AcDbLine
 10
1183.308641806
 20
331.8866908835
 30
0.0
 11
1170.5807197447
 21
324.5390178771
 31
0.0
  0
LWPOLYLINE
  5
189
330
1F
100
AcDbEntity
  8
0
  6
Continuous
 62
     7
370
    25
100
AcDbPolyline
 90
       10
 70
   128
 43
0.0
 10
1170.5807197447
 20
324.5390178771
 10
1169.7342630754
 20
323.8780168158
 10
1168.9899015728
 20
322.9520381831
 10
1168.4374162197
 20
321.8727686681
 10
1168.1434449036
 20
320.7703841027
 10
1168.1434449036
 20
319.7778483349
 10
1168.4374162197
 20
319.0148758265
 10
1168.9899015728
 20
318.5734923224
 10
1169.7342630754
 20
318.5069351873
 10
1170.5807197447
 20
318.8232321939
  0
LINE
  5
18A
330
1F
100
AcDbEntity
  8
0
  6
Continuous
 62
     7
370
    25
100
AcDbLine
 10
2880.3649166538
 20
1311.5764250708
 30
0.0
 11
2867.6369945924
 21
1304.2287520644
 31
0.0
  0
LWPOLYLINE
  5
18B
330
1F
100
AcDbEntity
  8
0
  6
Continuous
 62
     7
370
    25
100
AcDbPolyline
 90
       10
 70
   128
 43
0.0
 10
2867.6369945924
 20
1304.2287520644
 10
2866.7905379231
 20
1303.567751003
 10
2866.0461764205
 20
1302.6417723703
 10
2865.4936910675
 20
1301.5625028554
 10
2865.1997197513
 20
1300.4601182899
 10
2865.1997197513
 20
1299.4675825221
 10
2865.4936910675
 20
1298.7046100138
 10
2866.0461764205
 20
1298.2632265097
 10
2866.7905379231
 20
1298.1966693745
 10
2867.6369945924
 20
1298.5129663812
  0
LINE
  5
18C
330
1F
100
AcDbEntity
  8
0
  6
Continuous
 62
     7
370
    25
100
AcDbLine
 10
2867.6369945924
 20
1298.5129663812
 30
0.0
 11
2880.3649166538
 21
1305.8606393876
 31
0.0
  0
LWPOLYLINE
  5
18D
330
1F
100
AcDbEntity
  8
0
  6
Continuous
 62
     7
370
    25
100
AcDbPolyline
 90
       10
 70
   128
 43
0.0
 10
2880.3649166538
 20
1305.8606393876
 10
2881.211373323
 20
1306.5216404489
 10
2881.9557348256
 20
1307.4476190816
 10
2882.5082201787
 20
1308.5268885966
 10
2882.8021914949
 20
1309.629273162
 10
2882.8021914949
 20
1310.6218089298
 10
2882.5082201787
 20
1311.3847814382
 10
2881.9557348256
 20
1311.8261649423
 10
2881.211373323
 20
1311.8927220774
 10
2880.3649166538
 20
1311.5764250708
  0
LINE
  5
18E
330
1F
100
AcDbEntity
  8
0
  6
Continuous
 62
     7
370
    25
100
AcDbLine
 10
2845.0095775944
 20
1291.1662222752
 30
0.0
 11
2832.2816555331
 21
1283.8185492688
 31
0.0
  0
LWPOLYLINE
  5
18F
330
1F
100
AcDbEntity
  8
0
  6
Continuous
 62
     7
370
    25
100
AcDbPolyline
 90
       10
 70
   128
 43
0.0
 10
2832.2816555331
 20
1283.8185492688
 10
2831.4351988638
 20
1283.1575482075
 10
2830.6908373612
 20
1282.2315695748
 10
2830.1383520081
 20
1281.1523000598
 10
2829.8443806919
 20
1280.0499154944
 10
2829.8443806919
 20
1279.0573797265
 10
2830.1383520081
 20
1278.2944072182
 10
2830.6908373612
 20
1277.8530237141
 10
2831.4351988638
 20
1277.786466579
 10
2832.2816555331
 20
1278.1027635856
  0
LINE
  5
190
330
1F
100
AcDbEntity
  8
0
  6
Continuous
 62
     7
370
    25
100
AcDbLine
 10
2832.2816555331
 20
1278.1027635856
 30
0.0
 11
2845.0095775944
 21
1285.450436592
 31
0.0
  0
LWPOLYLINE
  5
191
330
1F
100
AcDbEntity
  8
0
  6
Continuous
 62
     7
370
    25
100
AcDbPolyline
 90
       10
 70
   128
 43
0.0
 10
2845.0095775944
 20
1285.450436592
 10
2845.8560342637
 20
1286.1114376533
 10
2846.6003957663
 20
1287.037416286
 10
2847.1528811194
 20
1288.116685801
 10
2847.4468524355
 20
1289.2190703665
 10
2847.4468524355
 20
1290.2116061343
 10
2847.1528811194
 20
1290.9745786426
 10
2846.6003957663
 20
1291.4159621467
 10
2845.8560342637
 20
1291.4825192818
 10
2845.0095775944
 20
1291.1662222752
  0
LINE
  5
192
330
1F
100
AcDbEntity
  8
0
  6
Continuous
 62
     7
370
    25
100
AcDbLine
 10
1135.2253806854
 20
298.4130293984
 30
0.0
 11
1147.9533027467
 21
305.7607024048
 31
0.0
  0
LWPOLYLINE
  5
193
330
1F
100
AcDbEntity
  8
0
  6
Continuous
 62
     7
370
    25
100
AcDbPolyline
 90
       10
 70
   128
 43
0.0
 10
1147.9533027467
 20
305.7607024048
 10
1148.799759416
 20
306.4217034661
 10
1149.5441209186
 20
307.3476820988
 10
1150.0966062716
 20
308.4269516138
 10
1150.3905775878
 20
309.5293361792
 10
1150.3905775878
 20
310.521871947
 10
1150.0966062716
 20
311.2848444554
 10
1149.5441209186
 20
311.7262279595
 10
1148.799759416
 20
311.7927850946
 10
1147.9533027467
 20
311.476488088
  0
LINE
  5
194
330
1F
100
AcDbEntity
  8
0
  6
Continuous
 62
     7
370
    25
100
AcDbLine
 10
1147.9533027467
 20
311.476488088
 30
0.0
 11
1135.2253806854
 21
304.1288150816
 31
0.0
  0
LWPOLYLINE
  5
195
330
1F
100
AcDbEntity
  8
0
  6
Continuous
 62
     7
370
    25
100
AcDbPolyline
 90
       10
 70
   128
 43
0.0
 10
1135.2253806854
 20
304.1288150816
 10
1134.3789240161
 20
303.4678140202
 10
1133.6345625135
 20
302.5418353875
 10
1133.0820771604
 20
301.4625658725
 10
1132.7881058442
 20
300.3601813071
 10
1132.7881058442
 20
299.3676455393
 10
1133.0820771604
 20
298.6046730309
 10
1133.6345625135
 20
298.1632895268
 10
1134.3789240161
 20
298.0967323917
 10
1135.2253806854
 20
298.4130293984
  0
LINE
  5
196
330
1F
100
AcDbEntity
  8
0
  6
Continuous
 62
     7
370
    25
100
AcDbLine
 10
1170.5807197447
 20
339.2367524911
 30
0.0
 11
1183.308641806
 21
346.5844254975
 31
0.0
  0
LWPOLYLINE
  5
197
330
1F
100
AcDbEntity
  8
0
  6
Continuous
 62
     7
370
    25
100
AcDbPolyline
 90
       10
 70
   128
 43
0.0
 10
1183.308641806
 20
346.5844254975
 10
1184.1550984753
 20
347.2454265588
 10
1184.8994599779
 20
348.1714051915
 10
1185.451945331
 20
349.2506747065
 10
1185.7459166472
 20
350.3530592719
 10
1185.7459166472
 20
351.3455950397
 10
1185.451945331
 20
352.1085675481
 10
1184.8994599779
 20
352.5499510522
 10
1184.1550984753
 20
352.6165081873
 10
1183.308641806
 20
352.3002111807
  0
LINE
  5
198
330
1F
100
AcDbEntity
  8
0
  6
Continuous
 62
     7
370
    25
100
AcDbLine
 10
1183.308641806
 20
352.3002111807
 30
0.0
 11
1170.5807197447
 21
344.9525381743
 31
0.0
  0
LWPOLYLINE
  5
199
330
1F
100
AcDbEntity
  8
0
  6
Continuous
 62
     7
370
    25
100
AcDbPolyline
 90
       10
 70
   128
 43
0.0
 10
1170.5807197447
 20
344.9525381743
 10
1169.7342630754
 20
344.2915371129
 10
1168.9899015728
 20
343.3655584802
 10
1168.4374162197
 20
342.2862889653
 10
1168.1434449036
 20
341.1839043998
 10
1168.1434449036
 20
340.191368632
 10
1168.4374162197
 20
339.4283961237
 10
1168.9899015728
 20
338.9870126196
 10
1169.7342630754
 20
338.9204554844
 10
1170.5807197447
 20
339.2367524911
  0
LINE
  5
19A
330
1F
100
AcDbEntity
  8
0
  6
Continuous
 62
     7
370
    25
100
AcDbLine
 10
2880.3649166538
 20
1331.9899453679
 30
0.0
 11
2867.6369945924
 21
1324.6422723615
 31
0.0
  0
LWPOLYLINE
  5
19B
330
1F
100
AcDbEntity
  8
0
  6
Continuous
 62
     7
370
    25
100
AcDbPolyline
 90
       10
 70
   128
 43
0.0
 10
2867.6369945924
 20
1324.6422723615
 10
2866.7905379231
 20
1323.9812713002
 10
2866.0461764205
 20
1323.0552926675
 10
2865.4936910675
 20
1321.9760231525
 10
2865.1997197513
 20
1320.8736385871
 10
2865.1997197513
 20
1319.8811028193
 10
2865.4936910675
 20
1319.1181303109
 10
2866.0461764205
 20
1318.6767468068
 10
2866.7905379231
 20
1318.6101896717
 10
2867.6369945924
 20
1318.9264866783
  0
LINE
  5
19C
330
1F
100
AcDbEntity
  8
0
  6
Continuous
 62
     7
370
    25
100
AcDbLine
 10
2867.6369945924
 20
1318.9264866783
 30
0.0
 11
2880.3649166538
 21
1326.2741596847
 31
0.0
  0
LWPOLYLINE
  5
19D
330
1F
100
AcDbEntity
  8
0
  6
Continuous
 62
     7
370
    25
100
AcDbPolyline
 90
       10
 70
   128
 43
0.0
 10
2880.3649166538
 20
1326.2741596847
 10
2881.211373323
 20
1326.9351607461
 10
2881.9557348256
 20
1327.8611393788
 10
2882.5082201787
 20
1328.9404088937
 10
2882.8021914949
 20
1330.0427934592
 10
2882.8021914949
 20
1331.035329227
 10
2882.5082201787
 20
1331.7983017353
 10
2881.9557348256
 20
1332.2396852394
 10
2881.211373323
 20
1332.3062423746
 10
2880.3649166538
 20
1331.9899453679
  0
LINE
  5
19E
330
1F
100
AcDbEntity
  8
0
  6
Continuous
 62
     7
370
    25
100
AcDbLine
 10
2845.0095775944
 20
1311.5797425724
 30
0.0
 11
2832.2816555331
 21
1304.2320695659
 31
0.0
  0
LWPOLYLINE
  5
19F
330
1F
100
AcDbEntity
  8
0
  6
Continuous
 62
     7
370
    25
100
AcDbPolyline
 90
       10
 70
   128
 43
0.0
 10
2832.2816555331
 20
1304.2320695659
 10
2831.4351988638
 20
1303.5710685046
 10
2830.6908373612
 20
1302.6450898719
 10
2830.1383520081
 20
1301.5658203569
 10
2829.8443806919
 20
1300.4634357915
 10
2829.8443806919
 20
1299.4709000237
 10
2830.1383520081
 20
1298.7079275153
 10
2830.6908373612
 20
1298.2665440112
 10
2831.4351988638
 20
1298.1999868761
 10
2832.2816555331
 20
1298.5162838827
  0
LINE
  5
1A0
330
1F
100
AcDbEntity
  8
0
  6
Continuous
 62
     7
370
    25
100
AcDbLine
 10
2832.2816555331
 20
1298.5162838827
 30
0.0
 11
2845.0095775944
 21
1305.8639568892
 31
0.0
  0
LWPOLYLINE
  5
1A1
330
1F
100
AcDbEntity
  8
0
  6
Continuous
 62
     7
370
    25
100
AcDbPolyline
 90
       10
 70
   128
 43
0.0
 10
2845.0095775944
 20
1305.8639568892
 10
2845.8560342637
 20
1306.5249579505
 10
2846.6003957663
 20
1307.4509365832
 10
2847.1528811194
 20
1308.5302060982
 10
2847.4468524355
 20
1309.6325906636
 10
2847.4468524355
 20
1310.6251264314
 10
2847.1528811194
 20
1311.3880989398
 10
2846.6003957663
 20
1311.8294824439
 10
2845.8560342637
 20
1311.896039579
 10
2845.0095775944
 20
1311.5797425724
  0
LINE
  5
1A2
330
1F
100
AcDbEntity
  8
0
  6
Continuous
 62
     7
370
    25
100
AcDbLine
 10
1135.2253806854
 20
318.8265496955
 30
0.0
 11
1147.9533027467
 21
326.1742227019
 31
0.0
  0
LWPOLYLINE
  5
1A3
330
1F
100
AcDbEntity
  8
0
  6
Continuous
 62
     7
370
    25
100
AcDbPolyline
 90
       10
 70
   128
 43
0.0
 10
1147.9533027467
 20
326.1742227019
 10
1148.799759416
 20
326.8352237632
 10
1149.5441209186
 20
327.7612023959
 10
1150.0966062716
 20
328.8404719109
 10
1150.3905775878
 20
329.9428564763
 10
1150.3905775878
 20
330.9353922442
 10
1150.0966062716
 20
331.6983647525
 10
1149.5441209186
 20
332.1397482566
 10
1148.799759416
 20
332.2063053917
 10
1147.9533027467
 20
331.8900083851
  0
LINE
  5
1A4
330
1F
100
AcDbEntity
  8
0
  6
Continuous
 62
     7
370
    25
100
AcDbLine
 10
1147.9533027467
 20
331.8900083851
 30
0.0
 11
1135.2253806854
 21
324.5423353787
 31
0.0
  0
LWPOLYLINE
  5
1A5
330
1F
100
AcDbEntity
  8
0
  6
Continuous
 62
     7
370
    25
100
AcDbPolyline
 90
       10
 70
   128
 43
0.0
 10
1135.2253806854
 20
324.5423353787
 10
1134.3789240161
 20
323.8813343174
 10
1133.6345625135
 20
322.9553556847
 10
1133.0820771604
 20
321.8760861697
 10
1132.7881058442
 20
320.7737016043
 10
1132.7881058442
 20
319.7811658364
 10
1133.0820771604
 20
319.0181933281
 10
1133.6345625135
 20
318.576809824
 10
1134.3789240161
 20
318.5102526889
 10
1135.2253806854
 20
318.8265496955
  0
LINE
  5
1A6
330
1F
100
AcDbEntity
  8
0
  6
Continuous
 62
     7
370
    25
100
AcDbLine
 10
1122.8510120146
 20
282.695580845
 30
0.0
 11
1122.8510120146
 21
333.7293815879
 31
0.0
  0
LWPOLYLINE
  5
1A7
330
1F
100
AcDbEntity
  8
0
  6
Continuous
 62
     7
370
    25
100
AcDbPolyline
 90
        3
 70
   128
 43
0.0
 10
1225.027941896
 20
307.8050401859
 10
1224.1814852268
 20
307.4887431793
 10
1223.8906858028
 20
307.4681230053
  0
LINE
  5
1A8
330
1F
100
AcDbEntity
  8
0
  6
Continuous
 62
     7
370
    25
100
AcDbLine
 10
1237.7558639574
 20
315.1527131923
 30
0.0
 11
1225.027941896
 21
307.8050401859
 31
0.0
  0
ARC
  5
1A9
330
1F
100
AcDbEntity
  8
0
  6
Continuous
 62
     7
370
    25
100
AcDbCircle
 10
1235.5826144688
 20
319.1948810348
 30
0.0
 40
4.589350085429598
100
AcDbArc
 50
298.2644546682
 51
17.738201934
  0
LWPOLYLINE
  5
1AA
330
1F
100
AcDbEntity
  8
0
  6
Continuous
 62
     7
370
    25
100
AcDbPolyline
 90
        3
 70
   128
 43
0.0
 10
1225.027941896
 20
287.3915198887
 10
1224.1814852268
 20
287.0752228821
 10
1223.8906858028
 20
287.0546027082
  0
LWPOLYLINE
  5
1AB
330
1F
100
AcDbEntity
  8
0
  6
Continuous
 62
     7
370
    25
100
AcDbPolyline
 90
        3
 70
   128
 43
0.0
 10
1133.0274644204
 20
319.1019385988
 10
1133.3182638443
 20
319.1225587727
 10
1134.1647205136
 20
319.4388557794
  0
LINE
  5
1AC
330
1F
100
AcDbEntity
  8
0
  6
Continuous
 62
     7
370
    25
100
AcDbLine
 10
1237.7558639574
 20
294.7391928952
 30
0.0
 11
1225.027941896
 21
287.3915198887
 31
0.0
  0
LINE
  5
1AD
330
1F
100
AcDbEntity
  8
0
  6
Continuous
 62
     7
370
    25
100
AcDbLine
 10
1134.1647205136
 20
319.4388557794
 30
0.0
 11
1146.8926425749
 21
326.7865287858
 31
0.0
  0
LINE
  5
1AE
330
1F
100
AcDbEntity
  8
0
  6
Continuous
 62
     7
370
    25
100
AcDbLine
 10
1169.1663337812
 20
271.8779411383
 30
0.0
 11
1163.8632053234
 21
274.9393720325
 31
0.0
  0
LINE
  5
1AF
330
1F
100
AcDbEntity
  8
0
  6
Continuous
 62
     7
370
    25
100
AcDbLine
 10
1162.448991761
 20
274.9393720325
 30
0.0
 11
1159.2671836468
 21
273.102553306
 31
0.0
  0
ARC
  5
1B0
330
1F
100
AcDbEntity
  8
0
  6
Continuous
 62
     7
370
    25
100
AcDbCircle
 10
1235.5826144688
 20
298.7813607377
 30
0.0
 40
4.589350085428896
100
AcDbArc
 50
298.2644546682
 51
17.738201934
  0
ARC
  5
1B1
330
1F
100
AcDbEntity
  8
0
  6
Continuous
 62
     7
370
    25
100
AcDbCircle
 10
1163.1560985422
 20
273.5746609476
 30
0.0
 40
1.537021907910962
100
AcDbArc
 50
62.6096722366
 51
117.3903277634
  0
ARC
  5
1B2
330
1F
100
AcDbEntity
  8
0
  6
Continuous
 62
     7
370
    25
100
AcDbCircle
 10
1144.7193930863
 20
330.8286966283
 30
0.0
 40
4.589350085464546
100
AcDbArc
 50
298.2644546684
 51
17.738201933
  0
LWPOLYLINE
  5
1B3
330
1F
100
AcDbEntity
  8
0
  6
Continuous
 62
     7
370
    25
100
AcDbPolyline
 90
        3
 70
   128
 43
0.0
 10
1133.0274644203
 20
298.6884183016
 10
1133.3182638443
 20
298.7090384756
 10
1134.1647205136
 20
299.0253354822
  0
LWPOLYLINE
  5
1B4
330
1F
100
AcDbEntity
  8
0
  6
Continuous
 62
     7
370
    25
100
AcDbPolyline
 90
        3
 70
   128
 43
0.0
 10
1140.5286815443
 20
283.5116572067
 10
1139.8314780238
 20
282.9368461639
 10
1139.6681940907
 20
282.6953486198
  0
LINE
  5
1B5
330
1F
100
AcDbEntity
  8
0
  6
Continuous
 62
     7
370
    25
100
AcDbLine
 10
1122.8510120146
 20
282.695580845
 30
0.0
 11
1122.8510120146
 21
280.6542288153
 31
0.0
  0
LINE
  5
1B6
330
1F
100
AcDbEntity
  8
0
  6
Continuous
 62
     7
370
    25
100
AcDbLine
 10
1122.8510120146
 20
280.6542288153
 30
0.0
 11
1124.6187789676
 21
279.6337186755
 31
0.0
  0
LINE
  5
1B7
330
1F
100
AcDbEntity
  8
0
  6
Continuous
 62
     7
370
    25
100
AcDbLine
 10
1134.1647205136
 20
299.0253354822
 30
0.0
 11
1146.8926425749
 21
306.3730084886
 31
0.0
  0
LINE
  5
1B8
330
1F
100
AcDbEntity
  8
0
  6
Continuous
 62
     7
370
    25
100
AcDbLine
 10
1153.2566036056
 20
290.8593302131
 30
0.0
 11
1140.5286815443
 21
283.5116572067
 31
0.0
  0
ARC
  5
1B9
330
1F
100
AcDbEntity
  8
0
  6
Continuous
 62
     7
370
    25
100
AcDbCircle
 10
1144.7193930864
 20
310.4151763312
 30
0.0
 40
4.589350085439137
100
AcDbArc
 50
298.2644546683
 51
17.7382019337
  0
LWPOLYLINE
  5
1BA
330
1F
100
AcDbEntity
  8
0
  6
Continuous
 62
     7
370
    25
100
AcDbPolyline
 90
        3
 70
   128
 43
0.0
 10
1168.3828034796
 20
339.5121413943
 10
1168.6736029036
 20
339.5327615683
 10
1169.5200595729
 20
339.8490585749
  0
ARC
  5
1BB
330
1F
100
AcDbEntity
  8
0
  6
Continuous
 62
     7
370
    25
100
AcDbCircle
 10
1155.6705985586
 20
286.9555160764
 30
0.0
 40
4.589895036561413
100
AcDbArc
 50
42.2738245009
 51
121.7313331988
  0
LINE
  5
1BC
330
1F
100
AcDbEntity
  8
0
  6
Continuous
 62
     7
370
    25
100
AcDbLine
 10
1169.5200595729
 20
339.8490585749
 30
0.0
 11
1182.2479816343
 21
347.1967315813
 31
0.0
  0
ARC
  5
1BD
330
1F
100
AcDbEntity
  8
0
  6
Continuous
 62
     7
370
    25
100
AcDbCircle
 10
1180.0747321457
 20
351.2388994238
 30
0.0
 40
4.589350085408303
100
AcDbArc
 50
298.2644546681
 51
17.7382019347
  0
LWPOLYLINE
  5
1BE
330
1F
100
AcDbEntity
  8
0
  6
Continuous
 62
     7
370
    25
100
AcDbPolyline
 90
        3
 70
   128
 43
0.0
 10
1168.3828034796
 20
319.0986210972
 10
1168.6736029036
 20
319.1192412712
 10
1169.5200595729
 20
319.4355382778
  0
LWPOLYLINE
  5
1BF
330
1F
100
AcDbEntity
  8
0
  6
Continuous
 62
     7
370
    25
100
AcDbPolyline
 90
        3
 70
   128
 43
0.0
 10
1175.8840206036
 20
303.9218600022
 10
1175.1868170831
 20
303.3470489595
 10
1175.0235331501
 20
303.1055514155
  0
LINE
  5
1C0
330
1F
100
AcDbEntity
  8
0
  6
Continuous
 62
     7
370
    25
100
AcDbLine
 10
1169.5200595729
 20
319.4355382778
 30
0.0
 11
1182.2479816343
 21
326.7832112842
 31
0.0
  0
LINE
  5
1C1
330
1F
100
AcDbEntity
  8
0
  6
Continuous
 62
     7
370
    25
100
AcDbLine
 10
1176.8122049144
 20
304.4576893995
 30
0.0
 11
1175.8840206036
 21
303.9218600022
 31
0.0
  0
ARC
  5
1C2
330
1F
100
AcDbEntity
  8
0
  6
Continuous
 62
     7
370
    25
100
AcDbCircle
 10
1180.0747321457
 20
330.8253791267
 30
0.0
 40
4.589350085473892
100
AcDbArc
 50
298.2644546685
 51
17.7382019327
  0
LWPOLYLINE
  5
1C3
330
1F
100
AcDbEntity
  8
0
  6
Continuous
 62
     7
370
    25
100
AcDbPolyline
 90
        3
 70
   128
 43
0.0
 10
2886.7288776844
 20
1267.0845715776
 10
2885.8824210152
 20
1266.7682745709
 10
2885.5916215912
 20
1266.747654397
  0
LINE
  5
1C4
330
1F
100
AcDbEntity
  8
0
  6
Continuous
 62
     7
370
    25
100
AcDbLine
 10
2899.4567997458
 20
1274.432244584
 30
0.0
 11
2886.7288776844
 21
1267.0845715776
 31
0.0
  0
ARC
  5
1C5
330
1F
100
AcDbEntity
  8
0
  6
Continuous
 62
     7
370
    25
100
AcDbCircle
 10
2897.2835502572
 20
1278.4744124265
 30
0.0
 40
4.589350085465092
100
AcDbArc
 50
298.2644546684
 51
17.7382019329
  0
LWPOLYLINE
  5
1C6
330
1F
100
AcDbEntity
  8
0
  6
Continuous
 62
     7
370
    25
100
AcDbPolyline
 90
        3
 70
   128
 43
0.0
 10
2886.7288776844
 20
1246.6710512804
 10
2885.8824210152
 20
1246.3547542738
 10
2885.5916215913
 20
1246.3341340998
  0
LINE
  5
1C7
330
1F
100
AcDbEntity
  8
0
  6
Continuous
 62
     7
370
    25
100
AcDbLine
 10
2899.4567997458
 20
1254.0187242868
 30
0.0
 11
2886.7288776844
 21
1246.6710512804
 31
0.0
  0
ARC
  5
1C8
330
1F
100
AcDbEntity
  8
0
  6
Continuous
 62
     7
370
    25
100
AcDbCircle
 10
2897.2835502573
 20
1258.0608921293
 30
0.0
 40
4.589350085406854
100
AcDbArc
 50
298.2644546681
 51
17.7382019347
  0
LWPOLYLINE
  5
1C9
330
1F
100
AcDbEntity
  8
0
  6
Continuous
 62
     7
370
    25
100
AcDbPolyline
 90
        3
 70
   128
 43
0.0
 10
2922.0842167438
 20
1287.4947743731
 10
2921.2377600745
 20
1287.1784773665
 10
2920.9469606506
 20
1287.1578571925
  0
LINE
  5
1CA
330
1F
100
AcDbEntity
  8
0
  6
Continuous
 62
     7
370
    25
100
AcDbLine
 10
2934.8121388051
 20
1294.8424473795
 30
0.0
 11
2922.0842167438
 21
1287.4947743731
 31
0.0
  0
ARC
  5
1CB
330
1F
100
AcDbEntity
  8
0
  6
Continuous
 62
     7
370
    25
100
AcDbCircle
 10
2932.6388893165
 20
1298.8846152221
 30
0.0
 40
4.589350085504434
100
AcDbArc
 50
298.2644546687
 51
17.7382019317
  0
LWPOLYLINE
  5
1CC
330
1F
100
AcDbEntity
  8
0
  6
Continuous
 62
     7
370
    25
100
AcDbPolyline
 90
        3
 70
   128
 43
0.0
 10
2922.0842167438
 20
1267.081254076
 10
2921.2377600745
 20
1266.7649570694
 10
2920.9469606505
 20
1266.7443368954
  0
LWPOLYLINE
  5
1CD
330
1F
100
AcDbEntity
  8
0
  6
Continuous
 62
     7
370
    25
100
AcDbPolyline
 90
        3
 70
   128
 43
0.0
 10
2830.0837392681
 20
1298.791672786
 10
2830.374538692
 20
1298.81229296
 10
2831.2209953613
 20
1299.1285899666
  0
LINE
  5
1CE
330
1F
100
AcDbEntity
  8
0
  6
Continuous
 62
     7
370
    25
100
AcDbLine
 10
2934.8121388051
 20
1274.4289270824
 30
0.0
 11
2922.0842167438
 21
1267.081254076
 31
0.0
  0
LINE
  5
1CF
330
1F
100
AcDbEntity
  8
0
  6
Continuous
 62
     7
370
    25
100
AcDbLine
 10
2831.2209953613
 20
1299.1285899666
 30
0.0
 11
2843.9489174226
 21
1306.476262973
 31
0.0
  0
ARC
  5
1D0
330
1F
100
AcDbEntity
  8
0
  6
Continuous
 62
     7
370
    25
100
AcDbCircle
 10
2932.6388893166
 20
1278.4710949249
 30
0.0
 40
4.589350085424772
100
AcDbArc
 50
298.2644546682
 51
17.7382019342
  0
ARC
  5
1D1
330
1F
100
AcDbEntity
  8
0
  6
Continuous
 62
     7
370
    25
100
AcDbCircle
 10
2841.7756679341
 20
1310.5184308155
 30
0.0
 40
4.589350085408049
100
AcDbArc
 50
298.2644546681
 51
17.7382019346
  0
LWPOLYLINE
  5
1D2
330
1F
100
AcDbEntity
  8
0
  6
Continuous
 62
     7
370
    25
100
AcDbPolyline
 90
        3
 70
   128
 43
0.0
 10
2830.0837392681
 20
1278.3781524889
 10
2830.374538692
 20
1278.3987726628
 10
2831.2209953613
 20
1278.7150696695
  0
LINE
  5
1D3
330
1F
100
AcDbEntity
  8
0
  6
Continuous
 62
     7
370
    25
100
AcDbLine
 10
2831.2209953613
 20
1278.7150696695
 30
0.0
 11
2843.9489174226
 21
1286.0627426759
 31
0.0
  0
ARC
  5
1D4
330
1F
100
AcDbEntity
  8
0
  6
Continuous
 62
     7
370
    25
100
AcDbCircle
 10
2841.775667934
 20
1290.1049105185
 30
0.0
 40
4.589350085520931
100
AcDbArc
 50
298.2644546687
 51
17.7382019313
  0
LWPOLYLINE
  5
1D5
330
1F
100
AcDbEntity
  8
0
  6
Continuous
 62
     7
370
    25
100
AcDbPolyline
 90
        3
 70
   128
 43
0.0
 10
2865.4390783275
 20
1319.2018755816
 10
2865.7298777513
 20
1319.2224957556
 10
2866.5763344206
 20
1319.5387927622
  0
LINE
  5
1D6
330
1F
100
AcDbEntity
  8
0
  6
Continuous
 62
     7
370
    25
100
AcDbLine
 10
2866.5763344206
 20
1319.5387927622
 30
0.0
 11
2879.304256482
 21
1326.8864657686
 31
0.0
  0
ARC
  5
1D7
330
1F
100
AcDbEntity
  8
0
  6
Continuous
 62
     7
370
    25
100
AcDbCircle
 10
2877.1310069934
 20
1330.9286336111
 30
0.0
 40
4.589350085456102
100
AcDbArc
 50
298.2644546684
 51
17.7382019332
  0
LWPOLYLINE
  5
1D8
330
1F
100
AcDbEntity
  8
0
  6
Continuous
 62
     7
370
    25
100
AcDbPolyline
 90
        3
 70
   128
 43
0.0
 10
2865.4390783274
 20
1298.7883552844
 10
2865.7298777513
 20
1298.8089754584
 10
2866.5763344206
 20
1299.125272465
  0
LINE
  5
1D9
330
1F
100
AcDbEntity
  8
0
  6
Continuous
 62
     7
370
    25
100
AcDbLine
 10
2901.9070058006
 20
1279.1071092263
 30
0.0
 11
2900.8711857093
 21
1278.5091430156
 31
0.0
  0
LINE
  5
1DA
330
1F
100
AcDbEntity
  8
0
  6
Continuous
 62
     7
370
    25
100
AcDbLine
 10
2866.5763344206
 20
1299.125272465
 30
0.0
 11
2879.304256482
 21
1306.4729454714
 31
0.0
  0
ARC
  5
1DB
330
1F
100
AcDbEntity
  8
0
  6
Continuous
 62
     7
370
    25
100
AcDbCircle
 10
2877.1310069934
 20
1310.515113314
 30
0.0
 40
4.589350085487728
100
AcDbArc
 50
298.2644546686
 51
17.7382019323
  0
ENDSEC
  0
SECTION
  2
OBJECTS
  0
DICTIONARY
  5
C
330
0
100
AcDbDictionary
281
     1
  3
ACAD_GROUP
350
D
  3
ACAD_LAYOUT
350
1A
  3
ACAD_MLINESTYLE
350
17
  3
ACAD_PLOTSETTINGS
350
19
  3
ACAD_PLOTSTYLENAME
350
E
  3
ACAD_SCALELIST
350
47
  0
DICTIONARY
  5
D
102
{ACAD_REACTORS
330
C
102
}
330
C
100
AcDbDictionary
281
     1
  0
DICTIONARY
  5
1A
102
{ACAD_REACTORS
330
C
102
}
330
C
100
AcDbDictionary
281
     1
  3
Layout1
350
1E
  3
Layout2
350
26
  3
Model
350
22
  0
DICTIONARY
  5
17
102
{ACAD_REACTORS
330
C
102
}
330
C
100
AcDbDictionary
281
     1
  3
Standard
350
18
  0
DICTIONARY
  5
19
102
{ACAD_REACTORS
330
C
102
}
330
C
100
AcDbDictionary
281
     1
  0
ACDBDICTIONARYWDFLT
  5
E
102
{ACAD_REACTORS
330
C
102
}
330
C
100
AcDbDictionary
281
     1
  3
Normal
350
F
100
AcDbDictionaryWithDefault
340
F
  0
DICTIONARY
  5
47
102
{ACAD_REACTORS
330
C
102
}
330
C
100
AcDbDictionary
281
     1
  3
A0
350
48
  3
A1
350
49
  3
A2
350
4A
  3
A3
350
4B
  3
A4
350
4C
  3
A5
350
4D
  3
A6
350
4E
  3
A7
350
4F
  3
A8
350
50
  3
A9
350
51
  3
B0
350
52
  3
B1
350
53
  3
B2
350
54
  3
B3
350
55
  3
B4
350
56
  3
B5
350
57
  3
B6
350
58
  3
B7
350
59
  3
B8
350
5A
  3
B9
350
5B
  3
C0
350
5C
  3
C1
350
5D
  3
C2
350
5E
  3
C3
350
5F
  3
C4
350
60
  3
C5
350
61
  3
C6
350
62
  3
C7
350
63
  3
C8
350
64
  3
C9
350
65
  3
D0
350
66
  3
D1
350
67
  3
D2
350
68
  0
LAYOUT
  5
1E
102
{ACAD_REACTORS
330
1A
102
}
330
1A
100
AcDbPlotSettings
  1

  2
none_device
  4

  6

 40
0.0
 41
0.0
 42
0.0
 43
0.0
 44
0.0
 45
0.0
 46
0.0
 47
0.0
 48
0.0
 49
0.0
140
0.0
141
0.0
142
1.0
143
1.0
 70
   688
 72
     1
 73
     0
 74
     5
  7

 75
    16
147
1.0
148
0.0
149
0.0
100
AcDbLayout
  1
Layout1
 70
     1
 71
     1
 10
0.0
 20
0.0
 11
420.0
 21
297.0
 12
0.0
 22
0.0
 32
0.0
 14
1.0000000000E+20
 24
1.0000000000E+20
 34
1.0000000000E+20
 15
-1.0000000000E+20
 25
-1.0000000000E+20
 35
-1.0000000000E+20
146
0.0
 13
0.0
 23
0.0
 33
0.0
 16
1.0
 26
0.0
 36
0.0
 17
0.0
 27
1.0
 37
0.0
 76
     0
330
1B
  0
LAYOUT
  5
26
102
{ACAD_REACTORS
330
1A
102
}
330
1A
100
AcDbPlotSettings
  1

  2
none_device
  4

  6

 40
0.0
 41
0.0
 42
0.0
 43
0.0
 44
0.0
 45
0.0
 46
0.0
 47
0.0
 48
0.0
 49
0.0
140
0.0
141
0.0
142
1.0
143
1.0
 70
   688
 72
     1
 73
     0
 74
     5
  7

 75
    16
147
1.0
148
0.0
149
0.0
100
AcDbLayout
  1
Layout2
 70
     1
 71
     2
 10
0.0
 20
0.0
 11
0.0
 21
0.0
 12
0.0
 22
0.0
 32
0.0
 14
0.0
 24
0.0
 34
0.0
 15
0.0
 25
0.0
 35
0.0
146
0.0
 13
0.0
 23
0.0
 33
0.0
 16
1.0
 26
0.0
 36
0.0
 17
0.0
 27
1.0
 37
0.0
 76
     0
330
23
  0
LAYOUT
  5
22
102
{ACAD_REACTORS
330
1A
102
}
330
1A
100
AcDbPlotSettings
  1

  2
none_device
  4
Letter_(8.50_x_11.00_Inches)
  6

 40
6.35
 41
6.35
 42
6.35000508
 43
6.35000508
 44
215.9
 45
279.4
 46
0.0
 47
0.0
 48
0.0
 49
0.0
140
0.0
141
0.0
142
1.0
143
1.0
 70
  1712
 72
     1
 73
     0
 74
     0
  7

 75
     0
147
1.0
148
0.0
149
0.0
100
AcDbLayout
  1
Model
 70
     1
 71
     0
 10
0.0
 20
0.0
 11
3500.0
 21
3000.0
 12
0.0
 22
0.0
 32
0.0
 14
0.0
 24
0.0
 34
0.0
 15
3500.0
 25
3000.0
 35
0.0
146
0.0
 13
0.0
 23
0.0
 33
0.0
 16
1.0
 26
0.0
 36
0.0
 17
0.0
 27
1.0
 37
0.0
 76
     0
330
1F
331
29
  0
MLINESTYLE
  5
18
102
{ACAD_REACTORS
330
17
102
}
330
17
100
AcDbMlineStyle
  2
Standard
 70
     0
  3

 62
   256
 51
90.0
 52
90.0
 71
     2
 49
0.5
 62
   256
  6
BYLAYER
 49
-0.5
 62
   256
  6
BYLAYER
  0
ACDBPLACEHOLDER
  5
F
102
{ACAD_REACTORS
330
E
102
}
330
E
  0
SCALE
  5
48
102
{ACAD_REACTORS
330
47
102
}
330
47
100
AcDbScale
 70
     0
300
1:1
140
1.0
141
1.0
290
     1
  0
SCALE
  5
49
102
{ACAD_REACTORS
330
47
102
}
330
47
100
AcDbScale
 70
     0
300
1:2
140
1.0
141
2.0
290
     0
  0
SCALE
  5
4A
102
{ACAD_REACTORS
330
47
102
}
330
47
100
AcDbScale
 70
     0
300
1:4
140
1.0
141
4.0
290
     0
  0
SCALE
  5
4B
102
{ACAD_REACTORS
330
47
102
}
330
47
100
AcDbScale
 70
     0
300
1:5
140
1.0
141
5.0
290
     0
  0
SCALE
  5
4C
102
{ACAD_REACTORS
330
47
102
}
330
47
100
AcDbScale
 70
     0
300
1:8
140
1.0
141
8.0
290
     0
  0
SCALE
  5
4D
102
{ACAD_REACTORS
330
47
102
}
330
47
100
AcDbScale
 70
     0
300
1:10
140
1.0
141
10.0
290
     0
  0
SCALE
  5
4E
102
{ACAD_REACTORS
330
47
102
}
330
47
100
AcDbScale
 70
     0
300
1:16
140
1.0
141
16.0
290
     0
  0
SCALE
  5
4F
102
{ACAD_REACTORS
330
47
102
}
330
47
100
AcDbScale
 70
     0
300
1:20
140
1.0
141
20.0
290
     0
  0
SCALE
  5
50
102
{ACAD_REACTORS
330
47
102
}
330
47
100
AcDbScale
 70
     0
300
1:30
140
1.0
141
30.0
290
     0
  0
SCALE
  5
51
102
{ACAD_REACTORS
330
47
102
}
330
47
100
AcDbScale
 70
     0
300
1:40
140
1.0
141
40.0
290
     0
  0
SCALE
  5
52
102
{ACAD_REACTORS
330
47
102
}
330
47
100
AcDbScale
 70
     0
300
1:50
140
1.0
141
50.0
290
     0
  0
SCALE
  5
53
102
{ACAD_REACTORS
330
47
102
}
330
47
100
AcDbScale
 70
     0
300
1:100
140
1.0
141
100.0
290
     0
  0
SCALE
  5
54
102
{ACAD_REACTORS
330
47
102
}
330
47
100
AcDbScale
 70
     0
300
2:1
140
2.0
141
1.0
290
     0
  0
SCALE
  5
55
102
{ACAD_REACTORS
330
47
102
}
330
47
100
AcDbScale
 70
     0
300
4:1
140
4.0
141
1.0
290
     0
  0
SCALE
  5
56
102
{ACAD_REACTORS
330
47
102
}
330
47
100
AcDbScale
 70
     0
300
8:1
140
8.0
141
1.0
290
     0
  0
SCALE
  5
57
102
{ACAD_REACTORS
330
47
102
}
330
47
100
AcDbScale
 70
     0
300
10:1
140
10.0
141
1.0
290
     0
  0
SCALE
  5
58
102
{ACAD_REACTORS
330
47
102
}
330
47
100
AcDbScale
 70
     0
300
100:1
140
100.0
141
1.0
290
     0
  0
SCALE
  5
59
102
{ACAD_REACTORS
330
47
102
}
330
47
100
AcDbScale
 70
     0
300
1/128" = 1'-0"
140
0.0078125
141
12.0
290
     0
  0
SCALE
  5
5A
102
{ACAD_REACTORS
330
47
102
}
330
47
100
AcDbScale
 70
     0
300
1/64" = 1'-0"
140
0.015625
141
12.0
290
     0
  0
SCALE
  5
5B
102
{ACAD_REACTORS
330
47
102
}
330
47
100
AcDbScale
 70
     0
300
1/32" = 1'-0"
140
0.03125
141
12.0
290
     0
  0
SCALE
  5
5C
102
{ACAD_REACTORS
330
47
102
}
330
47
100
AcDbScale
 70
     0
300
1/16" = 1'-0"
140
0.0625
141
12.0
290
     0
  0
SCALE
  5
5D
102
{ACAD_REACTORS
330
47
102
}
330
47
100
AcDbScale
 70
     0
300
3/32" = 1'-0"
140
0.09375
141
12.0
290
     0
  0
SCALE
  5
5E
102
{ACAD_REACTORS
330
47
102
}
330
47
100
AcDbScale
 70
     0
300
1/8" = 1'-0"
140
0.125
141
12.0
290
     0
  0
SCALE
  5
5F
102
{ACAD_REACTORS
330
47
102
}
330
47
100
AcDbScale
 70
     0
300
3/16" = 1'-0"
140
0.1875
141
12.0
290
     0
  0
SCALE
  5
60
102
{ACAD_REACTORS
330
47
102
}
330
47
100
AcDbScale
 70
     0
300
1/4" = 1'-0"
140
0.25
141
12.0
290
     0
  0
SCALE
  5
61
102
{ACAD_REACTORS
330
47
102
}
330
47
100
AcDbScale
 70
     0
300
3/8" = 1'-0"
140
0.375
141
12.0
290
     0
  0
SCALE
  5
62
102
{ACAD_REACTORS
330
47
102
}
330
47
100
AcDbScale
 70
     0
300
1/2" = 1'-0"
140
0.5
141
12.0
290
     0
  0
SCALE
  5
63
102
{ACAD_REACTORS
330
47
102
}
330
47
100
AcDbScale
 70
     0
300
3/4" = 1'-0"
140
0.75
141
12.0
290
     0
  0
SCALE
  5
64
102
{ACAD_REACTORS
330
47
102
}
330
47
100
AcDbScale
 70
     0
300
1" = 1'-0"
140
1.0
141
12.0
290
     0
  0
SCALE
  5
65
102
{ACAD_REACTORS
330
47
102
}
330
47
100
AcDbScale
 70
     0
300
1-1/2" = 1'-0"
140
1.5
141
12.0
290
     0
  0
SCALE
  5
66
102
{ACAD_REACTORS
330
47
102
}
330
47
100
AcDbScale
 70
     0
300
3" = 1'-0"
140
3.0
141
12.0
290
     0
  0
SCALE
  5
67
102
{ACAD_REACTORS
330
47
102
}
330
47
100
AcDbScale
 70
     0
300
6" = 1'-0"
140
6.0
141
12.0
290
     0
  0
SCALE
  5
68
102
{ACAD_REACTORS
330
47
102
}
330
47
100
AcDbScale
 70
     0
300
1'-0" = 1'-0"
140
12.0
141
12.0
290
     0
  0
ENDSEC
  0
EOF
