  0
SECTION
  2
HEADER
  9
$ACADVER
  1
AC1015
  9
$ACADMAINTVER
 70
     6
  9
$DWGCODEPAGE
  3
ANSI_1251
  9
$INSBASE
 10
0.0
 20
0.0
 30
0.0
  9
$EXTMIN
 10
0.0
 20
0.0
 30
0.0
  9
$EXTMAX
 10
841.0
 20
594.0
 30
0.0
  9
$LIMMIN
 10
0.0
 20
0.0
  9
$LIMMAX
 10
841.0
 20
594.0
  9
$ORTHOMODE
 70
     0
  9
$REGENMODE
 70
     1
  9
$FILLMODE
 70
     1
  9
$QTEXTMODE
 70
     0
  9
$MIRRTEXT
 70
     1
  9
$LTSCALE
 40
1.0
  9
$ATTMODE
 70
     1
  9
$TEXTSIZE
 40
3.5
  9
$TRACEWID
 40
1.0
  9
$TEXTSTYLE
  7
Standard
  9
$CLAYER
  8
0
  9
$CELTYPE
  6
ByLayer
  9
$CECOLOR
 62
   256
  9
$CELTSCALE
 40
1.0
  9
$DISPSILH
 70
     0
  9
$DIMSCALE
 40
1.0
  9
$DIMASZ
 40
3.5
  9
$DIMEXO
 40
0.01
  9
$DIMDLI
 40
3.75
  9
$DIMRND
 40
0.0
  9
$DIMDLE
 40
0.0
  9
$DIMEXE
 40
1.0
  9
$DIMTP
 40
0.0
  9
$DIMTM
 40
0.0
  9
$DIMTXT
 40
3.5
  9
$DIMCEN
 40
2.5
  9
$DIMTSZ
 40
0.0
  9
$DIMTOL
 70
     0
  9
$DIMLIM
 70
     0
  9
$DIMTIH
 70
     1
  9
$DIMTOH
 70
     1
  9
$DIMSE1
 70
     0
  9
$DIMSE2
 70
     0
  9
$DIMTAD
 70
     1
  9
$DIMZIN
 70
     0
  9
$DIMBLK
  1

  9
$DIMASO
 70
     1
  9
$DIMSHO
 70
     1
  9
$DIMPOST
  1

  9
$DIMAPOST
  1

  9
$DIMALT
 70
     0
  9
$DIMALTD
 70
     3
  9
$DIMALTF
 40
0.0393700787
  9
$DIMLFAC
 40
1.0
  9
$DIMTOFL
 70
     1
  9
$DIMTVP
 40
0.0
  9
$DIMTIX
 70
     0
  9
$DIMSOXD
 70
     0
  9
$DIMSAH
 70
     0
  9
$DIMBLK1
  1

  9
$DIMBLK2
  1

  9
$DIMSTYLE
  2
ISO-25
  9
$DIMCLRD
 70
     0
  9
$DIMCLRE
 70
     0
  9
$DIMCLRT
 70
     0
  9
$DIMTFAC
 40
1.0
  9
$DIMGAP
 40
3.0
  9
$DIMJUST
 70
     0
  9
$DIMSD1
 70
     0
  9
$DIMSD2
 70
     0
  9
$DIMTOLJ
 70
     0
  9
$DIMTZIN
 70
     0
  9
$DIMALTZ
 70
     0
  9
$DIMALTTZ
 70
     0
  9
$DIMUPT
 70
     0
  9
$DIMDEC
 70
     2
  9
$DIMTDEC
 70
     3
  9
$DIMALTU
 70
     2
  9
$DIMALTTD
 70
     3
  9
$DIMTXSTY
  7
Standard
  9
$DIMAUNIT
 70
     0
  9
$DIMADEC
 70
     2
  9
$DIMALTRND
 40
0.0
  9
$DIMAZIN
 70
     0
  9
$DIMDSEP
 70
    44
  9
$DIMATFIT
 70
     3
  9
$DIMFRAC
 70
     0
  9
$DIMLDRBLK
  1

  9
$DIMLUNIT
 70
     2
  9
$DIMLWD
 70
    -2
  9
$DIMLWE
 70
    -2
  9
$DIMTMOVE
 70
     0
  9
$LUNITS
 70
     2
  9
$LUPREC
 70
     2
  9
$SKETCHINC
 40
1.0
  9
$FILLETRAD
 40
10.0
  9
$AUNITS
 70
     0
  9
$AUPREC
 70
     2
  9
$MENU
  1
.
  9
$ELEVATION
 40
0.0
  9
$PELEVATION
 40
0.0
  9
$THICKNESS
 40
0.0
  9
$LIMCHECK
 70
     0
  9
$CHAMFERA
 40
0.0
  9
$CHAMFERB
 40
0.0
  9
$CHAMFERC
 40
0.0
  9
$CHAMFERD
 40
0.0
  9
$SKPOLY
 70
     0
  9
$TDCREATE
 40
2459732.593510567
  9
$TDUCREATE
 40
2459732.468510567
  9
$TDUPDATE
 40
2459732.593512199
  9
$TDUUPDATE
 40
2459732.468512199
  9
$TDINDWG
 40
0.0000000116
  9
$TDUSRTIMER
 40
0.0000000116
  9
$USRTIMER
 70
     1
  9
$ANGBASE
 50
0.0
  9
$ANGDIR
 70
     0
  9
$PDMODE
 70
     0
  9
$PDSIZE
 40
-1.0
  9
$PLINEWID
 40
0.0
  9
$SPLFRAME
 70
     0
  9
$SPLINETYPE
 70
     6
  9
$SPLINESEGS
 70
     8
  9
$HANDSEED
  5
4CD
  9
$SURFTAB1
 70
     6
  9
$SURFTAB2
 70
     6
  9
$SURFTYPE
 70
     6
  9
$SURFU
 70
     6
  9
$SURFV
 70
     6
  9
$UCSBASE
  2

  9
$UCSNAME
  2

  9
$UCSORG
 10
0.0
 20
0.0
 30
0.0
  9
$UCSXDIR
 10
1.0
 20
0.0
 30
0.0
  9
$UCSYDIR
 10
0.0
 20
1.0
 30
0.0
  9
$UCSORTHOREF
  2

  9
$UCSORTHOVIEW
 70
     0
  9
$UCSORGTOP
 10
0.0
 20
0.0
 30
0.0
  9
$UCSORGBOTTOM
 10
0.0
 20
0.0
 30
0.0
  9
$UCSORGLEFT
 10
0.0
 20
0.0
 30
0.0
  9
$UCSORGRIGHT
 10
0.0
 20
0.0
 30
0.0
  9
$UCSORGFRONT
 10
0.0
 20
0.0
 30
0.0
  9
$UCSORGBACK
 10
0.0
 20
0.0
 30
0.0
  9
$PUCSBASE
  2

  9
$PUCSNAME
  2

  9
$PUCSORG
 10
0.0
 20
0.0
 30
0.0
  9
$PUCSXDIR
 10
1.0
 20
0.0
 30
0.0
  9
$PUCSYDIR
 10
0.0
 20
1.0
 30
0.0
  9
$PUCSORTHOREF
  2

  9
$PUCSORTHOVIEW
 70
     0
  9
$PUCSORGTOP
 10
0.0
 20
0.0
 30
0.0
  9
$PUCSORGBOTTOM
 10
0.0
 20
0.0
 30
0.0
  9
$PUCSORGLEFT
 10
0.0
 20
0.0
 30
0.0
  9
$PUCSORGRIGHT
 10
0.0
 20
0.0
 30
0.0
  9
$PUCSORGFRONT
 10
0.0
 20
0.0
 30
0.0
  9
$PUCSORGBACK
 10
0.0
 20
0.0
 30
0.0
  9
$USERI1
 70
     0
  9
$USERI2
 70
     0
  9
$USERI3
 70
     0
  9
$USERI4
 70
     0
  9
$USERI5
 70
     0
  9
$USERR1
 40
0.0
  9
$USERR2
 40
0.0
  9
$USERR3
 40
0.0
  9
$USERR4
 40
0.0
  9
$USERR5
 40
0.0
  9
$WORLDVIEW
 70
     1
  9
$SHADEDGE
 70
     3
  9
$SHADEDIF
 70
    70
  9
$TILEMODE
 70
     1
  9
$MAXACTVP
 70
    64
  9
$PINSBASE
 10
0.0
 20
0.0
 30
0.0
  9
$PLIMCHECK
 70
     0
  9
$PEXTMIN
 10
1.0000000000E+20
 20
1.0000000000E+20
 30
1.0000000000E+20
  9
$PEXTMAX
 10
-1.0000000000E+20
 20
-1.0000000000E+20
 30
-1.0000000000E+20
  9
$PLIMMIN
 10
0.0
 20
0.0
  9
$PLIMMAX
 10
420.0
 20
297.0
  9
$UNITMODE
 70
     0
  9
$VISRETAIN
 70
     1
  9
$PLINEGEN
 70
     0
  9
$PSLTSCALE
 70
     1
  9
$TREEDEPTH
 70
  3020
  9
$CMLSTYLE
  2
Standard
  9
$CMLJUST
 70
     0
  9
$CMLSCALE
 40
20.0
  9
$PROXYGRAPHICS
 70
     1
  9
$MEASUREMENT
 70
     1
  9
$CELWEIGHT
370
    -1
  9
$ENDCAPS
280
     0
  9
$JOINSTYLE
280
     0
  9
$LWDISPLAY
290
     1
  9
$INSUNITS
 70
     4
  9
$HYPERLINKBASE
  1

  9
$STYLESHEET
  1

  9
$XEDIT
290
     1
  9
$CEPSNTYPE
380
     0
  9
$PSTYLEMODE
290
     1
  9
$FINGERPRINTGUID
  2
{484FCE14-DB72-49EB-869D-EDD599F3AF6B}
  9
$VERSIONGUID
  2
{FAEB1C32-E019-11D5-929B-00C0DF256EC4}
  9
$EXTNAMES
290
     1
  9
$PSVPSCALE
 40
0.0
  9
$OLESTARTUP
290
     0
  0
ENDSEC
  0
SECTION
  2
CLASSES
  0
CLASS
  1
ACDBDICTIONARYWDFLT
  2
AcDbDictionaryWithDefault
  3
ObjectDBX Classes
 90
        0
280
     0
281
     0
  0
CLASS
  1
VISUALSTYLE
  2
AcDbVisualStyle
  3
ObjectDBX Classes
 90
     4095
280
     0
281
     0
  0
CLASS
  1
MATERIAL
  2
AcDbMaterial
  3
ObjectDBX Classes
 90
     1153
280
     0
281
     0
  0
CLASS
  1
SCALE
  2
AcDbScale
  3
ObjectDBX Classes
 90
     1153
280
     0
281
     0
  0
CLASS
  1
TABLESTYLE
  2
AcDbTableStyle
  3
ObjectDBX Classes
 90
     4095
280
     0
281
     0
  0
CLASS
  1
MLEADERSTYLE
  2
AcDbMLeaderStyle
  3
ACDB_MLEADERSTYLE_CLASS
 90
     4095
280
     0
281
     0
  0
CLASS
  1
SUN
  2
AcDbSun
  3
SCENEOE
 90
     1153
280
     0
281
     0
  0
CLASS
  1
ACDBPLACEHOLDER
  2
AcDbPlaceHolder
  3
ObjectDBX Classes
 90
        0
280
     0
281
     0
  0
CLASS
  1
LAYOUT
  2
AcDbLayout
  3
ObjectDBX Classes
 90
        0
280
     0
281
     0
  0
ENDSEC
  0
SECTION
  2
TABLES
  0
TABLE
  2
VPORT
  5
8
330
0
100
AcDbSymbolTable
 70
     1
  0
VPORT
  5
29
330
8
100
AcDbSymbolTableRecord
100
AcDbViewportTableRecord
  2
*Active
 70
     0
 10
0.0
 20
0.0
 11
1.0
 21
1.0
 12
420.5
 22
297.0
 13
0.0
 23
0.0
 14
10.0
 24
10.0
 15
10.0
 25
10.0
 16
0.0
 26
0.0
 36
1.0
 17
0.0
 27
0.0
 37
0.0
 40
594.0
 41
1.4158249158
 42
50.0
 43
0.0
 44
0.0
 50
0.0
 51
0.0
 71
     0
 72
  2000
 73
     1
 74
     3
 75
     0
 76
     0
 77
     0
 78
     0
281
     0
 65
     1
110
0.0
120
0.0
130
0.0
111
1.0
121
0.0
131
0.0
112
0.0
122
1.0
132
0.0
 79
     0
146
0.0
  0
ENDTAB
  0
TABLE
  2
LTYPE
  5
5
330
0
100
AcDbSymbolTable
 70
     6
  0
LTYPE
  5
14
330
5
100
AcDbSymbolTableRecord
100
AcDbLinetypeTableRecord
  2
ByBlock
 70
     0
  3

 72
    65
 73
     0
 40
0.0
  0
LTYPE
  5
15
330
5
100
AcDbSymbolTableRecord
100
AcDbLinetypeTableRecord
  2
ByLayer
 70
     0
  3

 72
    65
 73
     0
 40
0.0
  0
LTYPE
  5
16
330
5
100
AcDbSymbolTableRecord
100
AcDbLinetypeTableRecord
  2
Continuous
 70
     0
  3
Solid line
 72
    65
 73
     0
 40
0.0
  0
LTYPE
  5
6E
330
5
100
AcDbSymbolTableRecord
100
AcDbLinetypeTableRecord
  2
HIDDEN
 70
     0
  3
Hidden __ __ __ __ __ __ __ __ __ __ __ __ __ __
 72
    65
 73
     2
 40
1.905
 49
1.27
 74
     0
 49
-0.635
 74
     0
  0
LTYPE
  5
6F
330
5
100
AcDbSymbolTableRecord
100
AcDbLinetypeTableRecord
  2
PHANTOM
 70
     0
  3
Phantom ______  __  __  ______  __  __  ______
 72
    65
 73
     6
 40
12.7
 49
6.35
 74
     0
 49
-1.27
 74
     0
 49
1.27
 74
     0
 49
-1.27
 74
     0
 49
1.27
 74
     0
 49
-1.27
 74
     0
  0
LTYPE
  5
70
330
5
100
AcDbSymbolTableRecord
100
AcDbLinetypeTableRecord
  2
CENTER
 70
     0
  3
Center ____ _ ____ _ ____ _ ____ _ ____ _ ____
 72
    65
 73
     4
 40
10.16
 49
6.35
 74
     0
 49
-1.27
 74
     0
 49
1.27
 74
     0
 49
-1.27
 74
     0
  0
LTYPE
  5
71
330
5
100
AcDbSymbolTableRecord
100
AcDbLinetypeTableRecord
  2
CENTERX2
 70
     0
  3
Center (2x) ________  __  ________  __  _____
 72
    65
 73
     4
 40
20.32
 49
12.7
 74
     0
 49
-2.54
 74
     0
 49
2.54
 74
     0
 49
-2.54
 74
     0
  0
LTYPE
  5
72
330
5
100
AcDbSymbolTableRecord
100
AcDbLinetypeTableRecord
  2
DOT2
 70
     0
  3
Dot (.5x) ........................................
 72
    65
 73
     2
 40
0.635
 49
0.0
 74
     0
 49
-0.635
 74
     0
  0
ENDTAB
  0
TABLE
  2
LAYER
  5
2
330
0
100
AcDbSymbolTable
 70
     1
  0
LAYER
  5
10
330
2
100
AcDbSymbolTableRecord
100
AcDbLayerTableRecord
  2
0
 70
     0
 62
     7
  6
Continuous
370
    -3
390
F
  0
ENDTAB
  0
TABLE
  2
STYLE
  5
3
330
0
100
AcDbSymbolTable
 70
     1
  0
STYLE
  5
11
330
3
100
AcDbSymbolTableRecord
100
AcDbTextStyleTableRecord
  2
Standard
 70
     0
 40
0.0
 41
1.0
 50
0.0
 71
     0
 42
3.5
  3
txt
  4

  0
ENDTAB
  0
TABLE
  2
VIEW
  5
6
330
0
100
AcDbSymbolTable
 70
     0
  0
ENDTAB
  0
TABLE
  2
UCS
  5
7
330
0
100
AcDbSymbolTable
 70
     0
  0
ENDTAB
  0
TABLE
  2
APPID
  5
9
330
0
100
AcDbSymbolTable
 70
     1
  0
APPID
  5
12
330
9
100
AcDbSymbolTableRecord
100
AcDbRegAppTableRecord
  2
ACAD
 70
     0
  0
ENDTAB
  0
TABLE
  2
DIMSTYLE
  5
A
330
0
100
AcDbSymbolTable
 70
     1
100
AcDbDimStyleTable
  0
DIMSTYLE
105
27
330
A
100
AcDbSymbolTableRecord
100
AcDbDimStyleTableRecord
  2
ISO-25
 70
     0
 41
2.5
 42
0.625
 43
3.75
 44
1.25
 73
     0
 74
     0
 77
     1
 78
     8
140
2.5
141
2.5
143
0.0393700787
147
0.625
171
     3
172
     1
178
     0
271
     2
272
     2
274
     3
278
    44
283
     0
284
     8
340
11
  0
ENDTAB
  0
TABLE
  2
BLOCK_RECORD
  5
1
330
0
100
AcDbSymbolTable
 70
     1
  0
BLOCK_RECORD
  5
1F
330
1
100
AcDbSymbolTableRecord
100
AcDbBlockTableRecord
  2
*Model_Space
340
22
  0
BLOCK_RECORD
  5
1B
330
1
100
AcDbSymbolTableRecord
100
AcDbBlockTableRecord
  2
*Paper_Space
340
1E
  0
BLOCK_RECORD
  5
23
330
1
100
AcDbSymbolTableRecord
100
AcDbBlockTableRecord
  2
*Paper_Space0
340
26
  0
ENDTAB
  0
ENDSEC
  0
SECTION
  2
BLOCKS
  0
BLOCK
  5
20
330
1F
100
AcDbEntity
  8
0
100
AcDbBlockBegin
  2
*Model_Space
 70
     0
 10
0.0
 20
0.0
 30
0.0
  3
*Model_Space
  1

  0
ENDBLK
  5
21
330
1F
100
AcDbEntity
  8
0
100
AcDbBlockEnd
  0
BLOCK
  5
1C
330
1B
100
AcDbEntity
 67
     1
  8
0
100
AcDbBlockBegin
  2
*Paper_Space
 70
     0
 10
0.0
 20
0.0
 30
0.0
  3
*Paper_Space
  1

  0
ENDBLK
  5
1D
330
1B
100
AcDbEntity
 67
     1
  8
0
100
AcDbBlockEnd
  0
BLOCK
  5
24
330
23
100
AcDbEntity
  8
0
100
AcDbBlockBegin
  2
*Paper_Space0
 70
     0
 10
0.0
 20
0.0
 30
0.0
  3
*Paper_Space0
  1

  0
ENDBLK
  5
25
330
23
100
AcDbEntity
  8
0
100
AcDbBlockEnd
  0
ENDSEC
  0
SECTION
  2
ENTITIES
  0
ARC
  5
73
330
1F
100
AcDbEntity
  8
0
  6
Continuous
 62
     7
370
    25
100
AcDbCircle
 10
864.4433501725
 20
413.028893827
 30
0.0
 40
0.5
100
AcDbArc
 50
180.0
 51
0.0
  0
ARC
  5
74
330
1F
100
AcDbEntity
  8
0
  6
Continuous
 62
     7
370
    25
100
AcDbCircle
 10
864.4433501725
 20
424.6288938272
 30
0.0
 40
0.5000000000001137
100
AcDbArc
 50
360.0
 51
180.0
  0
LINE
  5
75
330
1F
100
AcDbEntity
  8
0
  6
Continuous
 62
     7
370
    25
100
AcDbLine
 10
859.9433501725
 20
413.8288938271
 30
0.0
 11
860.1539292275
 21
413.4641602049
 31
0.0
  0
LINE
  5
76
330
1F
100
AcDbEntity
  8
0
  6
Continuous
 62
     7
370
    25
100
AcDbLine
 10
874.4021001725
 20
421.8288938271
 30
0.0
 11
865.7433501725
 21
421.8288938271
 31
0.0
  0
LINE
  5
77
330
1F
100
AcDbEntity
  8
0
  6
Continuous
 62
     7
370
    25
100
AcDbLine
 10
865.7433501725
 20
415.8288938271
 30
0.0
 11
874.4021001725
 21
415.8288938271
 31
0.0
  0
LINE
  5
78
330
1F
100
AcDbEntity
  8
0
  6
Continuous
 62
     7
370
    25
100
AcDbLine
 10
874.4021001725
 20
415.8288938271
 30
0.0
 11
874.9433501725
 21
416.3701438271
 31
0.0
  0
LINE
  5
79
330
1F
100
AcDbEntity
  8
0
  6
Continuous
 62
     7
370
    25
100
AcDbLine
 10
874.9433501725
 20
421.2876438271
 30
0.0
 11
874.4021001725
 21
421.8288938271
 31
0.0
  0
LINE
  5
7A
330
1F
100
AcDbEntity
  8
0
  6
Continuous
 62
     7
370
    25
100
AcDbLine
 10
860.1539292275
 20
424.1936274493
 30
0.0
 11
859.9433501725
 21
423.8288938271
 31
0.0
  0
ARC
  5
7B
330
1F
100
AcDbEntity
  8
0
  6
Continuous
 62
     7
370
    25
100
AcDbCircle
 10
864.4433501725
 20
399.6288938272
 30
0.0
 40
0.5000000000001137
100
AcDbArc
 50
360.0
 51
113.5781784781
  0
LINE
  5
7C
330
1F
100
AcDbEntity
  8
0
  6
Continuous
 62
     7
370
    25
100
AcDbLine
 10
874.4021001725
 20
396.8288938271
 30
0.0
 11
865.7433501725
 21
396.8288938271
 31
0.0
  0
LINE
  5
7D
330
1F
100
AcDbEntity
  8
0
  6
Continuous
 62
     7
370
    25
100
AcDbLine
 10
874.4021001725
 20
390.8288938271
 30
0.0
 11
874.9433501725
 21
391.3701438271
 31
0.0
  0
LINE
  5
7E
330
1F
100
AcDbEntity
  8
0
  6
Continuous
 62
     7
370
    25
100
AcDbLine
 10
874.9433501725
 20
396.2876438271
 30
0.0
 11
874.4021001725
 21
396.8288938271
 31
0.0
  0
ARC
  5
7F
330
1F
100
AcDbEntity
  8
0
  6
Continuous
 62
     7
370
    25
100
AcDbCircle
 10
-38.9566498275
 20
399.6288938272
 30
0.0
 40
0.5000000000000832
100
AcDbArc
 50
66.4218215218
 51
180.0
  0
LINE
  5
80
330
1F
100
AcDbEntity
  8
0
  6
Continuous
 62
     7
370
    25
100
AcDbLine
 10
-48.9153998275
 20
396.8288938271
 30
0.0
 11
-49.4566498275
 21
396.2876438271
 31
0.0
  0
LINE
  5
81
330
1F
100
AcDbEntity
  8
0
  6
Continuous
 62
     7
370
    25
100
AcDbLine
 10
-49.4566498275
 20
391.3701438271
 30
0.0
 11
-48.9153998275
 21
390.8288938271
 31
0.0
  0
LINE
  5
82
330
1F
100
AcDbEntity
  8
0
  6
Continuous
 62
     7
370
    25
100
AcDbLine
 10
-40.2566498275
 20
396.8288938271
 30
0.0
 11
-48.9153998275
 21
396.8288938271
 31
0.0
  0
ARC
  5
83
330
1F
100
AcDbEntity
  8
0
  6
Continuous
 62
     7
370
    25
100
AcDbCircle
 10
-38.9566498275
 20
424.6288938272
 30
0.0
 40
0.5
100
AcDbArc
 50
0.0
 51
180.0
  0
ARC
  5
84
330
1F
100
AcDbEntity
  8
0
  6
Continuous
 62
     7
370
    25
100
AcDbCircle
 10
-38.9566498275
 20
413.028893827
 30
0.0
 40
0.5
100
AcDbArc
 50
180.0
 51
360.0
  0
LINE
  5
85
330
1F
100
AcDbEntity
  8
0
  6
Continuous
 62
     7
370
    25
100
AcDbLine
 10
-48.9153998275
 20
415.8288938271
 30
0.0
 11
-40.2566498275
 21
415.8288938271
 31
0.0
  0
LINE
  5
86
330
1F
100
AcDbEntity
  8
0
  6
Continuous
 62
     7
370
    25
100
AcDbLine
 10
-40.2566498275
 20
421.8288938271
 30
0.0
 11
-48.9153998275
 21
421.8288938271
 31
0.0
  0
LINE
  5
87
330
1F
100
AcDbEntity
  8
0
  6
Continuous
 62
     7
370
    25
100
AcDbLine
 10
-48.9153998275
 20
421.8288938271
 30
0.0
 11
-49.4566498275
 21
421.2876438271
 31
0.0
  0
LINE
  5
88
330
1F
100
AcDbEntity
  8
0
  6
Continuous
 62
     7
370
    25
100
AcDbLine
 10
-49.4566498275
 20
416.3701438271
 30
0.0
 11
-48.9153998275
 21
415.8288938271
 31
0.0
  0
SPLINE
  5
89
330
1F
100
AcDbEntity
  8
0
  6
Continuous
 62
     7
370
    25
100
AcDbSpline
210
0.0
220
0.0
230
1.0
 70
    24
 71
     3
 72
    16
 73
    12
 74
     0
 42
0.000000001
 43
0.00000001
 40
0.0
 40
0.0
 40
0.0
 40
0.0
 40
0.1658292928977489
 40
0.2550981074401226
 40
0.3462613343064169
 40
0.4374245611727098
 40
0.5266933757150838
 40
0.692522668612833
 40
0.8583519615105835
 40
0.9476207760529559
 40
0.9999999999999999
 40
0.9999999999999999
 40
0.9999999999999999
 40
0.9999999999999999
 10
863.943350172477
 20
422.5545834517309
 30
0.0
 10
863.9433501724772
 20
421.9456756540558
 30
0.0
 10
863.943350172477
 20
421.0089821177203
 30
0.0
 10
863.9433501724769
 20
419.5091834264842
 30
0.0
 10
863.9433501724769
 20
418.3172263466692
 30
0.0
 10
863.943350172477
 20
417.1427980724629
 30
0.0
 10
863.943350172477
 20
415.7391847791756
 30
0.0
 10
863.9433501724769
 20
414.2718416983935
 30
0.0
 10
863.9433501724769
 20
413.3726543475727
 30
0.0
 10
863.9433501724769
 20
413.0448230204584
 30
0.0
 10
863.9433501724769
 20
413.0552134358987
 30
0.0
 10
863.9433501724769
 20
413.0590556486329
 30
0.0
  0
SPLINE
  5
8A
330
1F
100
AcDbEntity
  8
0
  6
Continuous
 62
     7
370
    25
100
AcDbSpline
210
0.0
220
0.0
230
1.0
 70
     8
 71
     3
 72
     8
 73
     4
 74
     0
 42
0.000000001
 43
0.00000001
 40
0.0
 40
0.0
 40
0.0
 40
0.0
 40
1.0
 40
1.0
 40
1.0
 40
1.0
 10
859.9433501724841
 20
419.6943883977142
 30
0.0
 10
859.9433501724841
 20
418.7239824618241
 30
0.0
 10
860.1176654728635
 20
417.7801361198929
 30
0.0
 10
860.3899321598755
 20
416.8512141652662
 30
0.0
  0
SPLINE
  5
8B
330
1F
100
AcDbEntity
  8
0
  6
Continuous
 62
     7
370
    25
100
AcDbSpline
210
0.0
220
0.0
230
1.0
 70
     8
 71
     3
 72
     8
 73
     4
 74
     0
 42
0.000000001
 43
0.00000001
 40
0.0
 40
0.0
 40
0.0
 40
0.0
 40
1.0
 40
1.0
 40
1.0
 40
1.0
 10
860.3899321598753
 20
422.5375626301622
 30
0.0
 10
860.1176654728639
 20
421.6086406755372
 30
0.0
 10
859.9433501724841
 20
420.6647943336026
 30
0.0
 10
859.9433501724841
 20
419.6943883977142
 30
0.0
  0
LINE
  5
8C
330
1F
100
AcDbEntity
  8
0
  6
Continuous
 62
     7
370
    25
100
AcDbLine
 10
863.9433501725
 20
422.5375626302
 30
0.0
 11
860.3899321599
 21
422.5375626302
 31
0.0
  0
LINE
  5
8D
330
1F
100
AcDbEntity
  8
0
  6
Continuous
 62
     7
370
    25
100
AcDbLine
 10
863.9433501725
 20
416.8512141653
 30
0.0
 11
860.3899321599
 21
416.8512141653
 31
0.0
  0
LINE
  5
8E
330
1F
100
AcDbEntity
  8
0
  6
Continuous
 62
     7
370
    25
100
AcDbLine
 10
859.9433501725
 20
419.6943883977
 30
0.0
 11
859.9433501725
 21
414.9968797637
 31
0.0
  0
SPLINE
  5
8F
330
1F
100
AcDbEntity
  8
0
  6
Continuous
 62
     7
370
    25
100
AcDbSpline
210
0.0
220
0.0
230
1.0
 70
     8
 71
     3
 72
     8
 73
     4
 74
     0
 42
0.000000001
 43
0.00000001
 40
0.0
 40
0.0
 40
0.0
 40
0.0
 40
1.0
 40
1.0
 40
1.0
 40
1.0
 10
860.3899321598755
 20
416.8512141652599
 30
0.0
 10
860.117665472864
 20
416.2453659843288
 30
0.0
 10
859.9433501724842
 20
415.6297840331299
 30
0.0
 10
859.9433501724842
 20
414.9968797637284
 30
0.0
  0
SPLINE
  5
90
330
1F
100
AcDbEntity
  8
0
  6
Continuous
 62
     7
370
    25
100
AcDbSpline
210
0.0
220
0.0
230
1.0
 70
     8
 71
     3
 72
     8
 73
     4
 74
     0
 42
0.000000001
 43
0.00000001
 40
0.0
 40
0.0
 40
0.0
 40
0.0
 40
1.0
 40
1.0
 40
1.0
 40
1.0
 10
859.9433501724842
 20
414.9968797637284
 30
0.0
 10
859.9433501724842
 20
414.363975494326
 30
0.0
 10
860.1176654728636
 20
413.7483935431293
 30
0.0
 10
860.3899321598755
 20
413.1425453621972
 30
0.0
  0
LINE
  5
91
330
1F
100
AcDbEntity
  8
0
  6
Continuous
 62
     7
370
    25
100
AcDbLine
 10
863.9433501725
 20
413.1425453622
 30
0.0
 11
860.3899321599
 21
413.1425453622
 31
0.0
  0
LINE
  5
92
330
1F
100
AcDbEntity
  8
0
  6
Continuous
 62
     7
370
    25
100
AcDbLine
 10
859.9433501725
 20
423.5264024611
 30
0.0
 11
859.9433501725
 21
419.6943883977
 31
0.0
  0
SPLINE
  5
93
330
1F
100
AcDbEntity
  8
0
  6
Continuous
 62
     7
370
    25
100
AcDbSpline
210
0.0
220
0.0
230
1.0
 70
     8
 71
     3
 72
     8
 73
     4
 74
     0
 42
0.000000001
 43
0.00000001
 40
0.0
 40
0.0
 40
0.0
 40
0.0
 40
1.0
 40
1.0
 40
1.0
 40
1.0
 10
859.943350172484
 20
423.5264024610837
 30
0.0
 10
859.943350172484
 20
423.188900794596
 30
0.0
 10
860.1176654728633
 20
422.8606364038616
 30
0.0
 10
860.3899321598753
 20
422.5375626301673
 30
0.0
  0
SPLINE
  5
94
330
1F
100
AcDbEntity
  8
0
  6
Continuous
 62
     7
370
    25
100
AcDbSpline
210
0.0
220
0.0
230
1.0
 70
     8
 71
     3
 72
     8
 73
     4
 74
     0
 42
0.000000001
 43
0.00000001
 40
0.0
 40
0.0
 40
0.0
 40
0.0
 40
1.0
 40
1.0
 40
1.0
 40
1.0
 10
860.3899321598753
 20
424.5152422920001
 30
0.0
 10
860.1176654728639
 20
424.1921685183063
 30
0.0
 10
859.943350172484
 20
423.8639041275707
 30
0.0
 10
859.943350172484
 20
423.5264024610837
 30
0.0
  0
LINE
  5
95
330
1F
100
AcDbEntity
  8
0
  6
Continuous
 62
     7
370
    25
100
AcDbLine
 10
863.9433501725
 20
424.515242292
 30
0.0
 11
860.3899321599
 21
424.515242292
 31
0.0
  0
LINE
  5
96
330
1F
100
AcDbEntity
  8
0
  6
Continuous
 62
     7
370
    25
100
AcDbLine
 10
860.3899321599
 20
413.1425453622
 30
0.0
 11
860.2259141247
 21
413.5057207047
 31
0.0
  0
LINE
  5
97
330
1F
100
AcDbEntity
  8
0
  6
Continuous
 62
     7
370
    25
100
AcDbLine
 10
859.9433501725
 20
414.9968797637
 30
0.0
 11
859.9433501725
 21
413.8288938271
 31
0.0
  0
LINE
  5
98
330
1F
100
AcDbEntity
  8
0
  6
Continuous
 62
     7
370
    25
100
AcDbLine
 10
874.4021001725
 20
415.8288938271
 30
0.0
 11
874.4021001725
 21
421.8288938271
 31
0.0
  0
LINE
  5
99
330
1F
100
AcDbEntity
  8
0
  6
Continuous
 62
     7
370
    25
100
AcDbLine
 10
874.9433501725
 20
416.9445009114
 30
0.0
 11
874.9433501725
 21
421.2876438271
 31
0.0
  0
LINE
  5
9A
330
1F
100
AcDbEntity
  8
0
  6
Continuous
 62
     7
370
    25
100
AcDbLine
 10
874.9433501725
 20
416.3701438271
 30
0.0
 11
874.9433501725
 21
416.9445009114
 31
0.0
  0
LINE
  5
9B
330
1F
100
AcDbEntity
  8
0
  6
Continuous
 62
     7
370
    25
100
AcDbLine
 10
859.9433501725
 20
423.8288938271
 30
0.0
 11
859.9433501725
 21
423.5264024611
 31
0.0
  0
CIRCLE
  5
9C
330
1F
100
AcDbEntity
  8
0
  6
Continuous
 62
     7
370
    25
100
AcDbCircle
 10
15.2433501725
 20
365.8288938271
 30
0.0
 40
0.5
  0
SPLINE
  5
9D
330
1F
100
AcDbEntity
  8
0
  6
Continuous
 62
     7
370
    25
100
AcDbSpline
210
0.0
220
0.0
230
1.0
 70
     8
 71
     3
 72
    20
 73
    16
 74
     0
 42
0.000000001
 43
0.00000001
 40
0.0
 40
0.0
 40
0.0
 40
0.0
 40
0.1249999999999952
 40
0.1249999999999952
 40
0.2499999999999905
 40
0.2499999999999905
 40
0.3749999999999857
 40
0.3749999999999857
 40
0.4999999999999809
 40
0.4999999999999809
 40
0.7499999999999984
 40
0.7499999999999984
 40
0.8749999999999992
 40
0.8749999999999992
 40
1.0
 40
1.0
 40
1.0
 40
1.0
 10
907.8433501724774
 20
388.4288938270926
 30
0.0
 10
908.0017293601281
 20
388.4679345579472
 30
0.0
 10
908.1579750848201
 20
388.5064532621469
 30
0.0
 10
908.4659669342367
 20
388.5838600134549
 30
0.0
 10
908.6186110417077
 20
388.6230044314416
 30
0.0
 10
908.9076953308947
 20
388.7001551853568
 30
0.0
 10
909.0454998690786
 20
388.7384827670978
 30
0.0
 10
909.3071185447176
 20
388.8160290875743
 30
0.0
 10
909.4298648514007
 20
388.855005295243
 30
0.0
 10
909.7611892283479
 20
388.970500151688
 30
0.0
 10
909.940200352376
 20
389.0484125953582
 30
0.0
 10
910.1198154517572
 20
389.163892520759
 30
0.0
 10
910.1660598006248
 20
389.2027583166241
 30
0.0
 10
910.2278131066362
 20
389.2805326502926
 30
0.0
 10
910.2433501724773
 20
389.3191424172473
 30
0.0
 10
910.2433501724774
 20
389.358183148974
 30
0.0
  0
LINE
  5
9E
330
1F
100
AcDbEntity
  8
0
  6
Continuous
 62
     7
370
    25
100
AcDbLine
 10
910.2433501725
 20
146.2996045052
 30
0.0
 11
910.2433501725
 21
389.358183149
 31
0.0
  0
SPLINE
  5
9F
330
1F
100
AcDbEntity
  8
0
  6
Continuous
 62
     7
370
    25
100
AcDbSpline
210
0.0
220
0.0
230
1.0
 70
     8
 71
     3
 72
    20
 73
    16
 74
     0
 42
0.000000001
 43
0.00000001
 40
0.0
 40
0.0
 40
0.0
 40
0.0
 40
0.1249999999999996
 40
0.1249999999999996
 40
0.2499999999999993
 40
0.2499999999999993
 40
0.3749999999999989
 40
0.3749999999999989
 40
0.4999999999999987
 40
0.4999999999999987
 40
0.749999999999998
 40
0.749999999999998
 40
0.874999999999999
 40
0.874999999999999
 40
1.0
 40
1.0
 40
1.0
 40
1.0
 10
910.2433501724774
 20
146.2996045052113
 30
0.0
 10
910.2433501724776
 20
146.3386452360658
 30
0.0
 10
910.2278136120027
 20
146.3771639402657
 30
0.0
 10
910.1664952600421
 20
146.4545706915736
 30
0.0
 10
910.1200715144554
 20
146.4937151095602
 30
0.0
 10
910.0001206443013
 20
146.5708658634754
 30
0.0
 10
909.9265160000177
 20
146.6091934452164
 30
0.0
 10
909.7517856339219
 20
146.686739765693
 30
0.0
 10
909.6509350050206
 20
146.7257159733617
 30
0.0
 10
909.3196497250367
 20
146.8412108298068
 30
0.0
 10
909.0519695636528
 20
146.9191232734767
 30
0.0
 10
908.6192955375974
 20
147.0346031988777
 30
0.0
 10
908.4677774507461
 20
147.0734689947427
 30
0.0
 10
908.1583516933599
 20
147.1512433284113
 30
0.0
 10
908.0017293636663
 20
147.189853095366
 30
0.0
 10
907.8433501724774
 20
147.2288938270926
 30
0.0
  0
SPLINE
  5
A0
330
1F
100
AcDbEntity
  8
0
  6
Continuous
 62
     7
370
    25
100
AcDbSpline
210
0.0
220
0.0
230
1.0
 70
     8
 71
     3
 72
    20
 73
    16
 74
     0
 42
0.000000001
 43
0.00000001
 40
0.0
 40
0.0
 40
0.0
 40
0.0
 40
0.125
 40
0.125
 40
0.2499999999999999
 40
0.2499999999999999
 40
0.3749999999999999
 40
0.3749999999999999
 40
0.4999999999999999
 40
0.4999999999999999
 40
0.7499999999999998
 40
0.7499999999999998
 40
0.8749999999999998
 40
0.8749999999999998
 40
1.0
 40
1.0
 40
1.0
 40
1.0
 10
907.8433501724774
 20
147.2288938270927
 30
0.0
 10
907.882390903332
 20
147.0705146394421
 30
0.0
 10
907.920909607532
 20
146.9142689147503
 30
0.0
 10
907.9983163588399
 20
146.6062770653337
 30
0.0
 10
908.0374607768265
 20
146.4536329578625
 30
0.0
 10
908.1146115307415
 20
146.1645486686755
 30
0.0
 10
908.1529391124825
 20
146.0267441304914
 30
0.0
 10
908.2304854329592
 20
145.7651254548525
 30
0.0
 10
908.2694616406277
 20
145.6423791481699
 30
0.0
 10
908.3849564970725
 20
145.3110547712221
 30
0.0
 10
908.462868940743
 20
145.132043647194
 30
0.0
 10
908.5783488661439
 20
144.952428547813
 30
0.0
 10
908.6172146620089
 20
144.9061841989453
 30
0.0
 10
908.6949889956777
 20
144.844430892934
 30
0.0
 10
908.7335987626321
 20
144.8288938270927
 30
0.0
 10
908.7726394943587
 20
144.8288938270926
 30
0.0
  0
LINE
  5
A1
330
1F
100
AcDbEntity
  8
0
  6
Continuous
 62
     7
370
    25
100
AcDbLine
 10
-83.2859391494
 20
144.8288938271
 30
0.0
 11
908.7726394944
 21
144.8288938271
 31
0.0
  0
SPLINE
  5
A2
330
1F
100
AcDbEntity
  8
0
  6
Continuous
 62
     7
370
    25
100
AcDbSpline
210
0.0
220
0.0
230
1.0
 70
     8
 71
     3
 72
    20
 73
    16
 74
     0
 42
0.000000001
 43
0.00000001
 40
0.0
 40
0.0
 40
0.0
 40
0.0
 40
0.125
 40
0.125
 40
0.2500000000000001
 40
0.2500000000000001
 40
0.3750000000000001
 40
0.3750000000000001
 40
0.5
 40
0.5
 40
0.7499999999999999
 40
0.7499999999999999
 40
0.875
 40
0.875
 40
1.0
 40
1.0
 40
1.0
 40
1.0
 10
-83.2859391494038
 20
144.8288938270926
 30
0.0
 10
-83.24689841854926
 20
144.8288938270926
 30
0.0
 10
-83.20837971434946
 20
144.8444303875675
 30
0.0
 10
-83.13097296304161
 20
144.9057487395281
 30
0.0
 10
-83.09182854505498
 20
144.9521724851149
 30
0.0
 10
-83.0146777911398
 20
145.072123355269
 30
0.0
 10
-82.97635020939886
 20
145.1457279995524
 30
0.0
 10
-82.89880388892217
 20
145.320458365648
 30
0.0
 10
-82.85982768125349
 20
145.4213089945495
 30
0.0
 10
-82.74433282480842
 20
145.7525942745334
 30
0.0
 10
-82.66642038113831
 20
146.0202744359173
 30
0.0
 10
-82.5509404557374
 20
146.4529484619727
 30
0.0
 10
-82.51207465987254
 20
146.6044665488238
 30
0.0
 10
-82.43430032620402
 20
146.9138923062099
 30
0.0
 10
-82.39569055924927
 20
147.0705146359036
 30
0.0
 10
-82.35664982752256
 20
147.2288938270924
 30
0.0
  0
SPLINE
  5
A3
330
1F
100
AcDbEntity
  8
0
  6
Continuous
 62
     7
370
    25
100
AcDbSpline
210
0.0
220
0.0
230
1.0
 70
     8
 71
     3
 72
    14
 73
    10
 74
     0
 42
0.000000001
 43
0.00000001
 40
0.0
 40
0.0
 40
0.0
 40
0.0
 40
0.25
 40
0.25
 40
0.5
 40
0.5
 40
0.75
 40
0.75
 40
1.0
 40
1.0
 40
1.0
 40
1.0
 10
907.8433501724774
 20
147.2288938270926
 30
0.0
 10
907.9215515874992
 20
147.0967084112337
 30
0.0
 10
907.9972615347962
 20
146.9687263927001
 30
0.0
 10
908.1525419464429
 20
146.7261023677528
 30
0.0
 10
908.2295517960262
 20
146.6156601033428
 30
0.0
 10
908.3849752820535
 20
146.4296632061495
 30
0.0
 10
908.461924998972
 20
146.3558622273112
 30
0.0
 10
908.6173549782212
 20
146.2550436429161
 30
0.0
 10
908.6944380867938
 20
146.2288938270926
 30
0.0
 10
908.7726394943587
 20
146.2288938270926
 30
0.0
  0
LINE
  5
A4
330
1F
100
AcDbEntity
  8
0
  6
Continuous
 62
     7
370
    25
100
AcDbLine
 10
908.7726394944
 20
144.8288938271
 30
0.0
 11
908.7726394944
 21
146.2288938271
 31
0.0
  0
SPLINE
  5
A5
330
1F
100
AcDbEntity
  8
0
  6
Continuous
 62
     7
370
    25
100
AcDbSpline
210
0.0
220
0.0
230
1.0
 70
     8
 71
     3
 72
    14
 73
    10
 74
     0
 42
0.000000001
 43
0.00000001
 40
0.0
 40
0.0
 40
0.0
 40
0.0
 40
0.25
 40
0.25
 40
0.5
 40
0.5
 40
0.75
 40
0.75
 40
1.0
 40
1.0
 40
1.0
 40
1.0
 10
907.8433501724774
 20
388.4288938270926
 30
0.0
 10
907.9755355883365
 20
388.5070952421142
 30
0.0
 10
908.1035176068699
 20
388.5828051894112
 30
0.0
 10
908.3461416318173
 20
388.7380856010581
 30
0.0
 10
908.4565838962272
 20
388.8150954506412
 30
0.0
 10
908.6425807934206
 20
388.9705189366687
 30
0.0
 10
908.7163817722591
 20
389.0474686535871
 30
0.0
 10
908.8172003566543
 20
389.2028986328363
 30
0.0
 10
908.8433501724775
 20
389.2799817414089
 30
0.0
 10
908.8433501724775
 20
389.358183148974
 30
0.0
  0
LINE
  5
A6
330
1F
100
AcDbEntity
  8
0
  6
Continuous
 62
     7
370
    25
100
AcDbLine
 10
910.2433501725
 20
389.358183149
 30
0.0
 11
908.8433501725
 21
389.358183149
 31
0.0
  0
LINE
  5
A7
330
1F
100
AcDbEntity
  8
0
  6
Continuous
 62
     7
370
    25
100
AcDbLine
 10
910.2433501725
 20
146.2996045052
 30
0.0
 11
908.8433501725
 21
146.2996045052
 31
0.0
  0
SPLINE
  5
A8
330
1F
100
AcDbEntity
  8
0
  6
Continuous
 62
     7
370
    25
100
AcDbSpline
210
0.0
220
0.0
230
1.0
 70
     8
 71
     3
 72
    14
 73
    10
 74
     0
 42
0.000000001
 43
0.00000001
 40
0.0
 40
0.0
 40
0.0
 40
0.0
 40
0.25
 40
0.25
 40
0.5
 40
0.5
 40
0.75
 40
0.75
 40
1.0
 40
1.0
 40
1.0
 40
1.0
 10
908.8433501724775
 20
146.2996045052113
 30
0.0
 10
908.8433501724775
 20
146.377805920233
 30
0.0
 10
908.8177915077973
 20
146.4535158675299
 30
0.0
 10
908.7176634792005
 20
146.6087962791769
 30
0.0
 10
908.6440992998961
 20
146.6858061287599
 30
0.0
 10
908.4585616642045
 20
146.8412296147874
 30
0.0
 10
908.3483967432448
 20
146.9181793317057
 30
0.0
 10
908.1057849865555
 20
147.0736093109549
 30
0.0
 10
907.9755355757324
 20
147.1506924195276
 30
0.0
 10
907.8433501724774
 20
147.2288938270926
 30
0.0
  0
SPLINE
  5
A9
330
1F
100
AcDbEntity
  8
0
  6
Continuous
 62
     7
370
    25
100
AcDbSpline
210
0.0
220
0.0
230
1.0
 70
     8
 71
     3
 72
    20
 73
    16
 74
     0
 42
0.000000001
 43
0.00000001
 40
0.0
 40
0.0
 40
0.0
 40
0.0
 40
0.1249999999999987
 40
0.1249999999999987
 40
0.2499999999999974
 40
0.2499999999999974
 40
0.3749999999999961
 40
0.3749999999999961
 40
0.4999999999999948
 40
0.4999999999999948
 40
0.7499999999999922
 40
0.7499999999999922
 40
0.874999999999996
 40
0.874999999999996
 40
1.0
 40
1.0
 40
1.0
 40
1.0
 10
-82.3566498275225
 20
388.4288938270925
 30
0.0
 10
-82.39569055837698
 20
388.5872730147432
 30
0.0
 10
-82.43420926257677
 20
388.7435187394348
 30
0.0
 10
-82.51161601388485
 20
389.0515105888514
 30
0.0
 10
-82.55076043187131
 20
389.2041546963226
 30
0.0
 10
-82.62791118578672
 20
389.4932389855097
 30
0.0
 10
-82.66623876752777
 20
389.6310435236937
 30
0.0
 10
-82.74378508800412
 20
389.8926621993326
 30
0.0
 10
-82.78276129567303
 20
390.0154085060153
 30
0.0
 10
-82.89825615211782
 20
390.346732882963
 30
0.0
 10
-82.97616859578805
 20
390.5257440069913
 30
0.0
 10
-83.09164852118894
 20
390.705359106372
 30
0.0
 10
-83.13051431705387
 20
390.7516034552398
 30
0.0
 10
-83.20828865072261
 20
390.813356761251
 30
0.0
 10
-83.2468984176774
 20
390.8288938270925
 30
0.0
 10
-83.28593914940392
 20
390.8288938270925
 30
0.0
  0
SPLINE
  5
AA
330
1F
100
AcDbEntity
  8
0
  6
Continuous
 62
     7
370
    25
100
AcDbSpline
210
0.0
220
0.0
230
1.0
 70
     8
 71
     3
 72
    14
 73
    10
 74
     0
 42
0.000000001
 43
0.00000001
 40
0.0
 40
0.0
 40
0.0
 40
0.0
 40
0.2500000000000001
 40
0.2500000000000001
 40
0.5000000000000001
 40
0.5000000000000001
 40
0.7500000000000002
 40
0.7500000000000002
 40
1.0
 40
1.0
 40
1.0
 40
1.0
 10
-82.3566498275225
 20
388.4288938270925
 30
0.0
 10
-82.4348512425443
 20
388.5610792429515
 30
0.0
 10
-82.51056118984118
 20
388.689061261485
 30
0.0
 10
-82.66584160148798
 20
388.9316852864324
 30
0.0
 10
-82.74285145107113
 20
389.0421275508423
 30
0.0
 10
-82.89827493709878
 20
389.2281244480357
 30
0.0
 10
-82.97522465401713
 20
389.301925426874
 30
0.0
 10
-83.1306546332664
 20
389.4027440112691
 30
0.0
 10
-83.20773774183876
 20
389.4288938270925
 30
0.0
 10
-83.28593914940392
 20
389.4288938270925
 30
0.0
  0
LINE
  5
AB
330
1F
100
AcDbEntity
  8
0
  6
Continuous
 62
     7
370
    25
100
AcDbLine
 10
-83.2859391494
 20
390.8288938271
 30
0.0
 11
-83.2859391494
 21
389.4288938271
 31
0.0
  0
LINE
  5
AC
330
1F
100
AcDbEntity
  8
0
  6
Continuous
 62
     7
370
    25
100
AcDbLine
 10
908.7726394944
 20
390.8288938271
 30
0.0
 11
-83.2859391494
 21
390.8288938271
 31
0.0
  0
SPLINE
  5
AD
330
1F
100
AcDbEntity
  8
0
  6
Continuous
 62
     7
370
    25
100
AcDbSpline
210
0.0
220
0.0
230
1.0
 70
     8
 71
     3
 72
    20
 73
    16
 74
     0
 42
0.000000001
 43
0.00000001
 40
0.0
 40
0.0
 40
0.0
 40
0.0
 40
0.1250000000000037
 40
0.1250000000000037
 40
0.2500000000000076
 40
0.2500000000000076
 40
0.3750000000000115
 40
0.3750000000000115
 40
0.5000000000000153
 40
0.5000000000000153
 40
0.7500000000000129
 40
0.7500000000000129
 40
0.8750000000000064
 40
0.8750000000000064
 40
1.0
 40
1.0
 40
1.0
 40
1.0
 10
908.7726394943589
 20
390.8288938270925
 30
0.0
 10
908.7335987635045
 20
390.8288938270925
 30
0.0
 10
908.6950800593046
 20
390.8133572666177
 30
0.0
 10
908.6176733079967
 20
390.752038914657
 30
0.0
 10
908.5785288900101
 20
390.7056151690703
 30
0.0
 10
908.5013781360949
 20
390.5856642989162
 30
0.0
 10
908.4630505543537
 20
390.5120596546328
 30
0.0
 10
908.3855042338771
 20
390.3373292885371
 30
0.0
 10
908.3465280262084
 20
390.2364786596356
 30
0.0
 10
908.2310331697634
 20
389.9051933796516
 30
0.0
 10
908.1531207260934
 20
389.6375132182678
 30
0.0
 10
908.0376408006928
 20
389.2048391922124
 30
0.0
 10
907.9987750048275
 20
389.0533211053613
 30
0.0
 10
907.9210006711589
 20
388.7438953479751
 30
0.0
 10
907.8823909042042
 20
388.5872730182815
 30
0.0
 10
907.8433501724774
 20
388.4288938270927
 30
0.0
  0
SPLINE
  5
AE
330
1F
100
AcDbEntity
  8
0
  6
Continuous
 62
     7
370
    25
100
AcDbSpline
210
0.0
220
0.0
230
1.0
 70
     8
 71
     3
 72
    20
 73
    16
 74
     0
 42
0.000000001
 43
0.00000001
 40
0.0
 40
0.0
 40
0.0
 40
0.0
 40
0.1249999999999953
 40
0.1249999999999953
 40
0.2499999999999905
 40
0.2499999999999905
 40
0.3749999999999858
 40
0.3749999999999858
 40
0.499999999999981
 40
0.499999999999981
 40
0.7499999999999986
 40
0.7499999999999986
 40
0.8749999999999994
 40
0.8749999999999994
 40
1.0
 40
1.0
 40
1.0
 40
1.0
 10
-82.3566498275225
 20
147.2288938270925
 30
0.0
 10
-82.51502901517327
 20
147.189853096238
 30
0.0
 10
-82.67127473986486
 20
147.1513343920381
 30
0.0
 10
-82.97926658928145
 20
147.0739276407303
 30
0.0
 10
-83.1319106967528
 20
147.0347832227434
 30
0.0
 10
-83.42099498593986
 20
146.9576324688283
 30
0.0
 10
-83.55879952412376
 20
146.9193048870873
 30
0.0
 10
-83.82041819976271
 20
146.8417585666107
 30
0.0
 10
-83.94316450644551
 20
146.8027823589421
 30
0.0
 10
-84.27448888339295
 20
146.6872875024972
 30
0.0
 10
-84.45350000742108
 20
146.609375058827
 30
0.0
 10
-84.63311510680217
 20
146.4938951334261
 30
0.0
 10
-84.67935945566978
 20
146.4550293375611
 30
0.0
 10
-84.74111276168122
 20
146.3772550038925
 30
0.0
 10
-84.75664982752279
 20
146.3386452369378
 30
0.0
 10
-84.75664982752251
 20
146.2996045052112
 30
0.0
  0
SPLINE
  5
AF
330
1F
100
AcDbEntity
  8
0
  6
Continuous
 62
     7
370
    25
100
AcDbSpline
210
0.0
220
0.0
230
1.0
 70
     8
 71
     3
 72
    14
 73
    10
 74
     0
 42
0.000000001
 43
0.00000001
 40
0.0
 40
0.0
 40
0.0
 40
0.0
 40
0.2499999999999999
 40
0.2499999999999999
 40
0.4999999999999999
 40
0.4999999999999999
 40
0.7499999999999998
 40
0.7499999999999998
 40
1.0
 40
1.0
 40
1.0
 40
1.0
 10
-82.3566498275225
 20
147.2288938270925
 30
0.0
 10
-82.48883524338146
 20
147.1506924120708
 30
0.0
 10
-82.61681726191506
 20
147.0749824647739
 30
0.0
 10
-82.85944128686235
 20
146.9197020531269
 30
0.0
 10
-82.96988355127222
 20
146.8426922035439
 30
0.0
 10
-83.15588044846555
 20
146.6872687175164
 30
0.0
 10
-83.22968142730375
 20
146.6103190005981
 30
0.0
 10
-83.330500011699
 20
146.4548890213489
 30
0.0
 10
-83.35664982752233
 20
146.3778059127762
 30
0.0
 10
-83.3566498275225
 20
146.2996045052112
 30
0.0
  0
LINE
  5
B0
330
1F
100
AcDbEntity
  8
0
  6
Continuous
 62
     7
370
    25
100
AcDbLine
 10
-84.7566498275
 20
146.2996045052
 30
0.0
 11
-83.3566498275
 21
146.2996045052
 31
0.0
  0
SPLINE
  5
B1
330
1F
100
AcDbEntity
  8
0
  6
Continuous
 62
     7
370
    25
100
AcDbSpline
210
0.0
220
0.0
230
1.0
 70
     8
 71
     3
 72
    20
 73
    16
 74
     0
 42
0.000000001
 43
0.00000001
 40
0.0
 40
0.0
 40
0.0
 40
0.0
 40
0.1249999999999999
 40
0.1249999999999999
 40
0.2499999999999999
 40
0.2499999999999999
 40
0.3749999999999998
 40
0.3749999999999998
 40
0.4999999999999999
 40
0.4999999999999999
 40
0.7499999999999999
 40
0.7499999999999999
 40
0.8749999999999999
 40
0.8749999999999999
 40
1.0
 40
1.0
 40
1.0
 40
1.0
 10
-84.75664982752251
 20
389.3581831489739
 30
0.0
 10
-84.75664982752262
 20
389.3191424181194
 30
0.0
 10
-84.74111326704764
 20
389.2806237139196
 30
0.0
 10
-84.67979491508693
 20
389.2032169626116
 30
0.0
 10
-84.63337116950026
 20
389.1640725446249
 30
0.0
 10
-84.51342029934605
 20
389.0869217907098
 30
0.0
 10
-84.43981565506259
 20
389.0485942089688
 30
0.0
 10
-84.26508528896697
 20
388.9710478884922
 30
0.0
 10
-84.16423466006535
 20
388.9320716808235
 30
0.0
 10
-83.83294938008146
 20
388.8165768243784
 30
0.0
 10
-83.565269218698
 20
388.7386643807084
 30
0.0
 10
-83.13259519264243
 20
388.6231844553075
 30
0.0
 10
-82.98107710579117
 20
388.5843186594424
 30
0.0
 10
-82.67165134840504
 20
388.5065443257739
 30
0.0
 10
-82.51502901871127
 20
388.4679345588191
 30
0.0
 10
-82.3566498275225
 20
388.4288938270925
 30
0.0
  0
LINE
  5
B2
330
1F
100
AcDbEntity
  8
0
  6
Continuous
 62
     7
370
    25
100
AcDbLine
 10
-84.7566498275
 20
389.358183149
 30
0.0
 11
-83.3566498275
 21
389.358183149
 31
0.0
  0
SPLINE
  5
B3
330
1F
100
AcDbEntity
  8
0
  6
Continuous
 62
     7
370
    25
100
AcDbSpline
210
0.0
220
0.0
230
1.0
 70
     8
 71
     3
 72
    14
 73
    10
 74
     0
 42
0.000000001
 43
0.00000001
 40
0.0
 40
0.0
 40
0.0
 40
0.0
 40
0.25
 40
0.25
 40
0.5
 40
0.5
 40
0.75
 40
0.75
 40
1.0
 40
1.0
 40
1.0
 40
1.0
 10
-83.3566498275225
 20
389.3581831489739
 30
0.0
 10
-83.35664982752245
 20
389.2799817339522
 30
0.0
 10
-83.33109116284231
 20
389.2042717866553
 30
0.0
 10
-83.2309631342455
 20
389.0489913750084
 30
0.0
 10
-83.15739895494134
 20
388.9719815254253
 30
0.0
 10
-82.97186131924938
 20
388.8165580393979
 30
0.0
 10
-82.86169639828988
 20
388.7396083224795
 30
0.0
 10
-82.61908464160051
 20
388.5841783432303
 30
0.0
 10
-82.48883523077738
 20
388.5070952346575
 30
0.0
 10
-82.3566498275225
 20
388.4288938270925
 30
0.0
  0
LINE
  5
B4
330
1F
100
AcDbEntity
  8
0
  6
Continuous
 62
     7
370
    25
100
AcDbLine
 10
-84.7566498275
 20
389.358183149
 30
0.0
 11
-84.7566498275
 21
146.2996045052
 31
0.0
  0
LINE
  5
B5
330
1F
100
AcDbEntity
  8
0
  6
Continuous
 62
     7
370
    25
100
AcDbLine
 10
908.7726394944
 20
390.8288938271
 30
0.0
 11
908.7726394944
 21
389.4288938271
 31
0.0
  0
SPLINE
  5
B6
330
1F
100
AcDbEntity
  8
0
  6
Continuous
 62
     7
370
    25
100
AcDbSpline
210
0.0
220
0.0
230
1.0
 70
     8
 71
     3
 72
    14
 73
    10
 74
     0
 42
0.000000001
 43
0.00000001
 40
0.0
 40
0.0
 40
0.0
 40
0.0
 40
0.2500000000000002
 40
0.2500000000000002
 40
0.5000000000000001
 40
0.5000000000000001
 40
0.7500000000000001
 40
0.7500000000000001
 40
1.0
 40
1.0
 40
1.0
 40
1.0
 10
908.7726394943589
 20
389.4288938270925
 30
0.0
 10
908.6944380793374
 20
389.4288938270926
 30
0.0
 10
908.6187281320402
 20
389.4033351624122
 30
0.0
 10
908.463447720393
 20
389.3032071338155
 30
0.0
 10
908.3864378708103
 20
389.2296429545112
 30
0.0
 10
908.231014384783
 20
389.0441053188194
 30
0.0
 10
908.1540646678645
 20
388.9339403978599
 30
0.0
 10
907.998634688615
 20
388.6913286411706
 30
0.0
 10
907.9215515800425
 20
388.5610792303476
 30
0.0
 10
907.8433501724774
 20
388.4288938270926
 30
0.0
  0
LINE
  5
B7
330
1F
100
AcDbEntity
  8
0
  6
Continuous
 62
     7
370
    25
100
AcDbLine
 10
-83.2859391494
 20
144.8288938271
 30
0.0
 11
-83.2859391494
 21
146.2288938271
 31
0.0
  0
SPLINE
  5
B8
330
1F
100
AcDbEntity
  8
0
  6
Continuous
 62
     7
370
    25
100
AcDbSpline
210
0.0
220
0.0
230
1.0
 70
     8
 71
     3
 72
    14
 73
    10
 74
     0
 42
0.000000001
 43
0.00000001
 40
0.0
 40
0.0
 40
0.0
 40
0.0
 40
0.2500000000000003
 40
0.2500000000000003
 40
0.5000000000000002
 40
0.5000000000000002
 40
0.7500000000000001
 40
0.7500000000000001
 40
1.0
 40
1.0
 40
1.0
 40
1.0
 10
-83.2859391494038
 20
146.2288938270926
 30
0.0
 10
-83.20773773438228
 20
146.2288938270926
 30
0.0
 10
-83.13202778708522
 20
146.2544524917729
 30
0.0
 10
-82.97674737543836
 20
146.3545805203696
 30
0.0
 10
-82.89973752585527
 20
146.4281446996739
 30
0.0
 10
-82.74431403982786
 20
146.6136823353657
 30
0.0
 10
-82.66736432290939
 20
146.7238472563252
 30
0.0
 10
-82.51193434366022
 20
146.9664590130145
 30
0.0
 10
-82.43485123508754
 20
147.0967084238376
 30
0.0
 10
-82.35664982752256
 20
147.2288938270925
 30
0.0
  0
ARC
  5
B9
330
1F
100
AcDbEntity
  8
0
  6
Continuous
 62
     7
370
    25
100
AcDbCircle
 10
-26.5766399259
 20
343.8858299419
 30
0.0
 40
0.5050994627334905
100
AcDbArc
 50
298.8005827702
 51
112.9304972368
  0
ARC
  5
BA
330
1F
100
AcDbEntity
  8
0
  6
Continuous
 62
     7
370
    25
100
AcDbCircle
 10
-28.7566498275
 20
342.8288938271
 30
0.0
 40
2.499999999999914
100
AcDbArc
 50
37.506301084
 51
74.2247789229
  0
ARC
  5
BB
330
1F
100
AcDbEntity
  8
0
  6
Continuous
 62
     7
370
    25
100
AcDbCircle
 10
-28.5819784023
 20
345.2453058398
 30
0.0
 40
0.5050994627349613
100
AcDbArc
 50
358.800582771
 51
172.930497236
  0
ARC
  5
BC
330
1F
100
AcDbEntity
  8
0
  6
Continuous
 62
     7
370
    25
100
AcDbCircle
 10
-28.7566498275
 20
342.8288938271
 30
0.0
 40
2.499999999999945
100
AcDbArc
 50
97.5063010841
 51
134.2247789229
  0
ARC
  5
BD
330
1F
100
AcDbEntity
  8
0
  6
Continuous
 62
     7
370
    25
100
AcDbCircle
 10
-30.7619883039
 20
344.188369725
 30
0.0
 40
0.5050994627351484
100
AcDbArc
 50
58.8005827697
 51
232.9304972372
  0
ARC
  5
BE
330
1F
100
AcDbEntity
  8
0
  6
Continuous
 62
     7
370
    25
100
AcDbCircle
 10
-28.7566498275
 20
342.8288938271
 30
0.0
 40
2.499999999999974
100
AcDbArc
 50
157.5063010841
 51
194.2247789229
  0
ARC
  5
BF
330
1F
100
AcDbEntity
  8
0
  6
Continuous
 62
     7
370
    25
100
AcDbCircle
 10
-30.9366597291
 20
341.7719577123
 30
0.0
 40
0.5050994627332825
100
AcDbArc
 50
118.8005827707
 51
292.9304972361
  0
ARC
  5
C0
330
1F
100
AcDbEntity
  8
0
  6
Continuous
 62
     7
370
    25
100
AcDbCircle
 10
-28.7566498275
 20
342.8288938271
 30
0.0
 40
2.499999999999951
100
AcDbArc
 50
217.506301084
 51
254.2247789229
  0
ARC
  5
C1
330
1F
100
AcDbEntity
  8
0
  6
Continuous
 62
     7
370
    25
100
AcDbCircle
 10
-28.9313212527
 20
340.4124818144
 30
0.0
 40
0.5050994627366148
100
AcDbArc
 50
178.8005827716
 51
352.9304972354
  0
ARC
  5
C2
330
1F
100
AcDbEntity
  8
0
  6
Continuous
 62
     7
370
    25
100
AcDbCircle
 10
-28.7566498275
 20
342.8288938271
 30
0.0
 40
2.499999999999984
100
AcDbArc
 50
277.5063010841
 51
314.2247789229
  0
ARC
  5
C3
330
1F
100
AcDbEntity
  8
0
  6
Continuous
 62
     7
370
    25
100
AcDbCircle
 10
-26.7513113511
 20
341.4694179292
 30
0.0
 40
0.5050994627355224
100
AcDbArc
 50
238.8005827701
 51
52.9304972368
  0
ARC
  5
C4
330
1F
100
AcDbEntity
  8
0
  6
Continuous
 62
     7
370
    25
100
AcDbCircle
 10
-28.7566498275
 20
342.8288938271
 30
0.0
 40
2.499999999999964
100
AcDbArc
 50
337.5063010841
 51
14.2247789229
  0
CIRCLE
  5
C5
330
1F
100
AcDbEntity
  8
0
  6
Continuous
 62
     7
370
    25
100
AcDbCircle
 10
-28.7566498275
 20
342.8288938271
 30
0.0
 40
5.500000000000107
  0
CIRCLE
  5
C6
330
1F
100
AcDbEntity
  8
0
  6
Continuous
 62
     7
370
    25
100
AcDbCircle
 10
854.2433501725
 20
342.8288938271
 30
0.0
 40
5.500000000000033
  0
ARC
  5
C7
330
1F
100
AcDbEntity
  8
0
  6
Continuous
 62
     7
370
    25
100
AcDbCircle
 10
854.27601703
 20
345.2513904728
 30
0.0
 40
0.5050994627334762
100
AcDbArc
 50
2.1624680629
 51
176.2923825295
  0
ARC
  5
C8
330
1F
100
AcDbEntity
  8
0
  6
Continuous
 62
     7
370
    25
100
AcDbCircle
 10
852.129073108
 20
341.6459358327
 30
0.0
 40
0.5050994627351924
100
AcDbArc
 50
122.1624680624
 51
296.2923825299
  0
ARC
  5
C9
330
1F
100
AcDbEntity
  8
0
  6
Continuous
 62
     7
370
    25
100
AcDbCircle
 10
854.2433501725
 20
342.8288938271
 30
0.0
 40
2.499999999999892
100
AcDbArc
 50
220.8681863768
 51
257.5866642156
  0
ARC
  5
CA
330
1F
100
AcDbEntity
  8
0
  6
Continuous
 62
     7
370
    25
100
AcDbCircle
 10
854.210683315
 20
340.4063971814
 30
0.0
 40
0.5050994627332618
100
AcDbArc
 50
182.1624680634
 51
356.2923825288
  0
ARC
  5
CB
330
1F
100
AcDbEntity
  8
0
  6
Continuous
 62
     7
370
    25
100
AcDbCircle
 10
854.2433501725
 20
342.8288938271
 30
0.0
 40
2.500000000000051
100
AcDbArc
 50
280.8681863767
 51
317.5866642156
  0
ARC
  5
CC
330
1F
100
AcDbEntity
  8
0
  6
Continuous
 62
     7
370
    25
100
AcDbCircle
 10
856.3249603795
 20
341.5893551758
 30
0.0
 40
0.5050994627365942
100
AcDbArc
 50
242.1624680643
 51
56.2923825281
  0
ARC
  5
CD
330
1F
100
AcDbEntity
  8
0
  6
Continuous
 62
     7
370
    25
100
AcDbCircle
 10
856.357627237
 20
344.0118518215
 30
0.0
 40
0.505099462735479
100
AcDbArc
 50
302.1624680628
 51
116.2923825295
  0
ARC
  5
CE
330
1F
100
AcDbEntity
  8
0
  6
Continuous
 62
     7
370
    25
100
AcDbCircle
 10
854.2433501725
 20
342.8288938271
 30
0.0
 40
2.499999999999986
100
AcDbArc
 50
40.8681863768
 51
77.5866642156
  0
ARC
  5
CF
330
1F
100
AcDbEntity
  8
0
  6
Continuous
 62
     7
370
    25
100
AcDbCircle
 10
852.1617399655
 20
344.0684324784
 30
0.0
 40
0.5050994627350345
100
AcDbArc
 50
62.1624680637
 51
236.2923825287
  0
ARC
  5
D0
330
1F
100
AcDbEntity
  8
0
  6
Continuous
 62
     7
370
    25
100
AcDbCircle
 10
854.2433501725
 20
342.8288938271
 30
0.0
 40
2.500000000000091
100
AcDbArc
 50
340.8681863768
 51
17.5866642156
  0
ARC
  5
D1
330
1F
100
AcDbEntity
  8
0
  6
Continuous
 62
     7
370
    25
100
AcDbCircle
 10
854.2433501725
 20
342.8288938271
 30
0.0
 40
2.499999999999925
100
AcDbArc
 50
160.8681863768
 51
197.5866642156
  0
ARC
  5
D2
330
1F
100
AcDbEntity
  8
0
  6
Continuous
 62
     7
370
    25
100
AcDbCircle
 10
854.2433501725
 20
342.8288938271
 30
0.0
 40
2.499999999999857
100
AcDbArc
 50
100.8681863767
 51
137.5866642156
  0
CIRCLE
  5
D3
330
1F
100
AcDbEntity
  8
0
  6
Continuous
 62
     7
370
    25
100
AcDbCircle
 10
854.2433501725
 20
192.8288938271
 30
0.0
 40
5.500000000000179
  0
ARC
  5
D4
330
1F
100
AcDbEntity
  8
0
  6
Continuous
 62
     7
370
    25
100
AcDbCircle
 10
856.184580767
 20
191.3793487603
 30
0.0
 40
0.5050994627352254
100
AcDbArc
 50
236.1858115763
 51
50.3157260438
  0
ARC
  5
D5
330
1F
100
AcDbEntity
  8
0
  6
Continuous
 62
     7
370
    25
100
AcDbCircle
 10
854.2433501725
 20
192.8288938271
 30
0.0
 40
2.499999999999981
100
AcDbArc
 50
334.8915298906
 51
11.6100077295
  0
ARC
  5
D6
330
1F
100
AcDbEntity
  8
0
  6
Continuous
 62
     7
370
    25
100
AcDbCircle
 10
856.4693083215
 20
193.7852763032
 30
0.0
 40
0.5050994627332835
100
AcDbArc
 50
296.1858115773
 51
110.3157260427
  0
ARC
  5
D7
330
1F
100
AcDbEntity
  8
0
  6
Continuous
 62
     7
370
    25
100
AcDbCircle
 10
854.2433501725
 20
192.8288938271
 30
0.0
 40
2.500000000000056
100
AcDbArc
 50
154.8915298906
 51
191.6100077295
  0
ARC
  5
D8
330
1F
100
AcDbEntity
  8
0
  6
Continuous
 62
     7
370
    25
100
AcDbCircle
 10
854.2433501725
 20
192.8288938271
 30
0.0
 40
2.499999999999982
100
AcDbArc
 50
94.8915298907
 51
131.6100077294
  0
ARC
  5
D9
330
1F
100
AcDbEntity
  8
0
  6
Continuous
 62
     7
370
    25
100
AcDbCircle
 10
852.3021195779
 20
194.2784388939
 30
0.0
 40
0.505099462735553
100
AcDbArc
 50
56.1858115767
 51
230.3157260434
  0
ARC
  5
DA
330
1F
100
AcDbEntity
  8
0
  6
Continuous
 62
     7
370
    25
100
AcDbCircle
 10
852.0173920234
 20
191.872511351
 30
0.0
 40
0.5050994627335128
100
AcDbArc
 50
116.1858115767
 51
290.3157260434
  0
ARC
  5
DB
330
1F
100
AcDbEntity
  8
0
  6
Continuous
 62
     7
370
    25
100
AcDbCircle
 10
853.958622618
 20
190.4229662842
 30
0.0
 40
0.5050994627349347
100
AcDbArc
 50
176.1858115776
 51
350.3157260426
  0
ARC
  5
DC
330
1F
100
AcDbEntity
  8
0
  6
Continuous
 62
     7
370
    25
100
AcDbCircle
 10
854.2433501725
 20
192.8288938271
 30
0.0
 40
2.499999999999963
100
AcDbArc
 50
214.8915298906
 51
251.6100077295
  0
ARC
  5
DD
330
1F
100
AcDbEntity
  8
0
  6
Continuous
 62
     7
370
    25
100
AcDbCircle
 10
854.2433501725
 20
192.8288938271
 30
0.0
 40
2.499999999999926
100
AcDbArc
 50
34.8915298906
 51
71.6100077295
  0
ARC
  5
DE
330
1F
100
AcDbEntity
  8
0
  6
Continuous
 62
     7
370
    25
100
AcDbCircle
 10
854.2433501725
 20
192.8288938271
 30
0.0
 40
2.499999999999956
100
AcDbArc
 50
274.8915298907
 51
311.6100077294
  0
ARC
  5
DF
330
1F
100
AcDbEntity
  8
0
  6
Continuous
 62
     7
370
    25
100
AcDbCircle
 10
854.528077727
 20
195.23482137
 30
0.0
 40
0.5050994627365983
100
AcDbArc
 50
356.1858115782
 51
170.315726042
  0
CIRCLE
  5
E0
330
1F
100
AcDbEntity
  8
0
  6
Continuous
 62
     7
370
    25
100
AcDbCircle
 10
-28.7566498275
 20
192.8288938271
 30
0.0
 40
5.500000000000083
  0
ARC
  5
E1
330
1F
100
AcDbEntity
  8
0
  6
Continuous
 62
     7
370
    25
100
AcDbCircle
 10
-26.5766399259
 20
193.8858299419
 30
0.0
 40
0.5050994627335084
100
AcDbArc
 50
298.8005827702
 51
112.9304972368
  0
ARC
  5
E2
330
1F
100
AcDbEntity
  8
0
  6
Continuous
 62
     7
370
    25
100
AcDbCircle
 10
-28.7566498275
 20
192.8288938271
 30
0.0
 40
2.499999999999931
100
AcDbArc
 50
37.506301084
 51
74.2247789229
  0
ARC
  5
E3
330
1F
100
AcDbEntity
  8
0
  6
Continuous
 62
     7
370
    25
100
AcDbCircle
 10
-28.5819784023
 20
195.2453058398
 30
0.0
 40
0.5050994627349606
100
AcDbArc
 50
358.800582771
 51
172.930497236
  0
ARC
  5
E4
330
1F
100
AcDbEntity
  8
0
  6
Continuous
 62
     7
370
    25
100
AcDbCircle
 10
-28.7566498275
 20
192.8288938271
 30
0.0
 40
2.499999999999938
100
AcDbArc
 50
97.5063010841
 51
134.2247789229
  0
ARC
  5
E5
330
1F
100
AcDbEntity
  8
0
  6
Continuous
 62
     7
370
    25
100
AcDbCircle
 10
-30.7619883039
 20
194.188369725
 30
0.0
 40
0.5050994627351938
100
AcDbArc
 50
58.8005827697
 51
232.9304972372
  0
ARC
  5
E6
330
1F
100
AcDbEntity
  8
0
  6
Continuous
 62
     7
370
    25
100
AcDbCircle
 10
-28.7566498275
 20
192.8288938271
 30
0.0
 40
2.499999999999941
100
AcDbArc
 50
157.5063010841
 51
194.2247789229
  0
ARC
  5
E7
330
1F
100
AcDbEntity
  8
0
  6
Continuous
 62
     7
370
    25
100
AcDbCircle
 10
-30.9366597291
 20
191.7719577123
 30
0.0
 40
0.5050994627332589
100
AcDbArc
 50
118.8005827707
 51
292.9304972361
  0
ARC
  5
E8
330
1F
100
AcDbEntity
  8
0
  6
Continuous
 62
     7
370
    25
100
AcDbCircle
 10
-28.7566498275
 20
192.8288938271
 30
0.0
 40
2.499999999999979
100
AcDbArc
 50
217.506301084
 51
254.2247789229
  0
ARC
  5
E9
330
1F
100
AcDbEntity
  8
0
  6
Continuous
 62
     7
370
    25
100
AcDbCircle
 10
-28.9313212527
 20
190.4124818144
 30
0.0
 40
0.5050994627366142
100
AcDbArc
 50
178.8005827716
 51
352.9304972354
  0
ARC
  5
EA
330
1F
100
AcDbEntity
  8
0
  6
Continuous
 62
     7
370
    25
100
AcDbCircle
 10
-28.7566498275
 20
192.8288938271
 30
0.0
 40
2.499999999999984
100
AcDbArc
 50
277.5063010841
 51
314.2247789229
  0
ARC
  5
EB
330
1F
100
AcDbEntity
  8
0
  6
Continuous
 62
     7
370
    25
100
AcDbCircle
 10
-26.7513113511
 20
191.4694179292
 30
0.0
 40
0.5050994627355156
100
AcDbArc
 50
238.8005827701
 51
52.9304972368
  0
ARC
  5
EC
330
1F
100
AcDbEntity
  8
0
  6
Continuous
 62
     7
370
    25
100
AcDbCircle
 10
-28.7566498275
 20
192.8288938271
 30
0.0
 40
2.499999999999964
100
AcDbArc
 50
337.5063010841
 51
14.2247789229
  0
LINE
  5
ED
330
1F
100
AcDbEntity
  8
0
  6
Continuous
 62
     7
370
    25
100
AcDbLine
 10
-40.2566498275
 20
405.3288938271
 30
0.0
 11
-39.4566498275
 21
405.3288938271
 31
0.0
  0
LINE
  5
EE
330
1F
100
AcDbEntity
  8
0
  6
Continuous
 62
     7
370
    25
100
AcDbLine
 10
-40.2566498275
 20
405.3288938271
 30
0.0
 11
-40.2566498275
 21
422.3288938271
 31
0.0
  0
LINE
  5
EF
330
1F
100
AcDbEntity
  8
0
  6
Continuous
 62
     7
370
    25
100
AcDbLine
 10
-39.4566498275
 20
405.3288938271
 30
0.0
 11
-39.4566498275
 21
422.3288938271
 31
0.0
  0
LINE
  5
F0
330
1F
100
AcDbEntity
  8
0
  6
Continuous
 62
     7
370
    25
100
AcDbLine
 10
-40.2566498275
 20
425.3288938271
 30
0.0
 11
-39.4566498275
 21
425.3288938271
 31
0.0
  0
LINE
  5
F1
330
1F
100
AcDbEntity
  8
0
  6
Continuous
 62
     7
370
    25
100
AcDbLine
 10
-39.4566498275
 20
425.3288938271
 30
0.0
 11
-39.4566498275
 21
422.3288938271
 31
0.0
  0
LINE
  5
F2
330
1F
100
AcDbEntity
  8
0
  6
Continuous
 62
     7
370
    25
100
AcDbLine
 10
-40.2566498275
 20
422.3288938271
 30
0.0
 11
-40.2566498275
 21
425.3288938271
 31
0.0
  0
LINE
  5
F3
330
1F
100
AcDbEntity
  8
0
  6
Continuous
 62
     7
370
    25
100
AcDbLine
 10
864.9433501725
 20
422.3288938271
 30
0.0
 11
864.9433501725
 21
425.3288938271
 31
0.0
  0
LINE
  5
F4
330
1F
100
AcDbEntity
  8
0
  6
Continuous
 62
     7
370
    25
100
AcDbLine
 10
864.9433501725
 20
425.3288938271
 30
0.0
 11
865.7433501725
 21
425.3288938271
 31
0.0
  0
LINE
  5
F5
330
1F
100
AcDbEntity
  8
0
  6
Continuous
 62
     7
370
    25
100
AcDbLine
 10
865.7433501725
 20
425.3288938271
 30
0.0
 11
865.7433501725
 21
422.3288938271
 31
0.0
  0
LINE
  5
F6
330
1F
100
AcDbEntity
  8
0
  6
Continuous
 62
     7
370
    25
100
AcDbLine
 10
865.7433501725
 20
405.3288938271
 30
0.0
 11
864.9433501725
 21
405.3288938271
 31
0.0
  0
LINE
  5
F7
330
1F
100
AcDbEntity
  8
0
  6
Continuous
 62
     7
370
    25
100
AcDbLine
 10
865.7433501725
 20
422.3288938271
 30
0.0
 11
865.7433501725
 21
405.3288938271
 31
0.0
  0
LINE
  5
F8
330
1F
100
AcDbEntity
  8
0
  6
Continuous
 62
     7
370
    25
100
AcDbLine
 10
864.9433501725
 20
422.3288938271
 30
0.0
 11
864.9433501725
 21
405.3288938271
 31
0.0
  0
LINE
  5
F9
330
1F
100
AcDbEntity
  8
0
  6
Continuous
 62
     7
370
    25
100
AcDbLine
 10
-39.4566498275
 20
390.8288938271
 30
0.0
 11
-39.4566498275
 21
402.1288938271
 31
0.0
  0
LINE
  5
FA
330
1F
100
AcDbEntity
  8
0
  6
Continuous
 62
     7
370
    25
100
AcDbLine
 10
-39.4566498275
 20
403.8288938271
 30
0.0
 11
-39.4566498275
 21
405.3288938271
 31
0.0
  0
LINE
  5
FB
330
1F
100
AcDbEntity
  8
0
  6
Continuous
 62
     7
370
    25
100
AcDbLine
 10
-40.2566498275
 20
390.8288938271
 30
0.0
 11
-40.2566498275
 21
405.3288938271
 31
0.0
  0
LINE
  5
FC
330
1F
100
AcDbEntity
  8
0
  6
Continuous
 62
     7
370
    25
100
AcDbLine
 10
865.7433501725
 20
405.3288938271
 30
0.0
 11
865.7433501725
 21
390.8288938271
 31
0.0
  0
LINE
  5
FD
330
1F
100
AcDbEntity
  8
0
  6
Continuous
 62
     7
370
    25
100
AcDbLine
 10
864.9433501725
 20
405.3288938271
 30
0.0
 11
864.9433501725
 21
403.8288938271
 31
0.0
  0
LINE
  5
FE
330
1F
100
AcDbEntity
  8
0
  6
Continuous
 62
     7
370
    25
100
AcDbLine
 10
864.9433501725
 20
402.1288938271
 30
0.0
 11
864.9433501725
 21
390.8288938271
 31
0.0
  0
LINE
  5
FF
330
1F
100
AcDbEntity
  8
0
  6
Continuous
 62
     7
370
    25
100
AcDbLine
 10
874.4021001725
 20
390.8288938271
 30
0.0
 11
874.4021001725
 21
396.8288938271
 31
0.0
  0
LINE
  5
100
330
1F
100
AcDbEntity
  8
0
  6
Continuous
 62
     7
370
    25
100
AcDbLine
 10
874.9433501725
 20
391.9445009114
 30
0.0
 11
874.9433501725
 21
396.2876438271
 31
0.0
  0
LINE
  5
101
330
1F
100
AcDbEntity
  8
0
  6
Continuous
 62
     7
370
    25
100
AcDbLine
 10
874.9433501725
 20
391.3701438271
 30
0.0
 11
874.9433501725
 21
391.9445009114
 31
0.0
  0
LINE
  5
102
330
1F
100
AcDbEntity
  8
0
  6
Continuous
 62
     7
370
    25
100
AcDbLine
 10
-39.6775800601
 20
403.8288938271
 30
0.0
 11
865.164280405
 21
403.8288938271
 31
0.0
  0
LINE
  5
103
330
1F
100
AcDbEntity
  8
0
  6
Continuous
 62
     7
370
    25
100
AcDbLine
 10
-39.6775800601
 20
402.1288938271
 30
0.0
 11
865.164280405
 21
402.1288938271
 31
0.0
  0
ELLIPSE
  5
104
330
1F
100
AcDbEntity
  8
0
  6
Continuous
 62
     7
370
    25
100
AcDbEllipse
 10
-39.6775800601
 20
402.9788938271
 30
0.0
 11
0.0
 21
0.8499999999999658
 31
0.0
210
0.0
220
0.0
230
1.0
 40
0.0930232558
 41
0.0
 42
3.14159265359057
  0
ELLIPSE
  5
105
330
1F
100
AcDbEntity
  8
0
  6
Continuous
 62
     7
370
    25
100
AcDbEllipse
 10
865.164280405
 20
402.9788938271
 30
0.0
 11
0.0
 21
0.8499999999999658
 31
0.0
210
0.0
220
0.0
230
1.0
 40
0.0930232558
 41
3.141592653588355
 42
6.283185307179586
  0
LINE
  5
106
330
1F
100
AcDbEntity
  8
0
  6
Continuous
 62
     7
370
    25
100
AcDbLine
 10
864.2433501725
 20
402.0288938271
 30
0.0
 11
864.2433501725
 21
402.1288938271
 31
0.0
  0
LINE
  5
107
330
1F
100
AcDbEntity
  8
0
  6
Continuous
 62
     7
370
    25
100
AcDbLine
 10
-38.7566498275
 20
402.1288938271
 30
0.0
 11
-38.7566498275
 21
402.0288938271
 31
0.0
  0
LINE
  5
108
330
1F
100
AcDbEntity
  8
0
  6
Continuous
 62
     7
370
    25
100
AcDbLine
 10
864.2433501725
 20
390.8288938271
 30
0.0
 11
864.2433501725
 21
402.0288938271
 31
0.0
  0
LINE
  5
109
330
1F
100
AcDbEntity
  8
0
  6
Continuous
 62
     7
370
    25
100
AcDbLine
 10
-38.7566498275
 20
402.0288938271
 30
0.0
 11
-38.7566498275
 21
390.8288938271
 31
0.0
  0
LINE
  5
10A
330
1F
100
AcDbEntity
  8
0
  6
Continuous
 62
     7
370
    25
100
AcDbLine
 10
-49.4566498275
 20
396.2876438271
 30
0.0
 11
-49.4566498275
 21
391.3701438271
 31
0.0
  0
LINE
  5
10B
330
1F
100
AcDbEntity
  8
0
  6
Continuous
 62
     7
370
    25
100
AcDbLine
 10
-48.9153998275
 20
395.1252596734
 30
0.0
 11
-48.9153998275
 21
390.8288938271
 31
0.0
  0
LINE
  5
10C
330
1F
100
AcDbEntity
  8
0
  6
Continuous
 62
     7
370
    25
100
AcDbLine
 10
-48.9153998275
 20
396.8288938271
 30
0.0
 11
-48.9153998275
 21
395.1252596734
 31
0.0
  0
LINE
  5
10D
330
1F
100
AcDbEntity
  8
0
  6
Continuous
 62
     7
370
    25
100
AcDbLine
 10
842.1038114087
 20
394.0933377069
 30
0.0
 11
843.5558871326
 21
394.326281572
 31
0.0
  0
ARC
  5
10E
330
1F
100
AcDbEntity
  8
0
  6
Continuous
 62
     7
370
    25
100
AcDbCircle
 10
854.0688164875
 20
395.4051078377
 30
0.0
 40
12.03669752936698
100
AcDbArc
 50
186.2565722694
 51
191.9710500657
  0
LINE
  5
10F
330
1F
100
AcDbEntity
  8
0
  6
Continuous
 62
     7
370
    25
100
AcDbLine
 10
842.2938867036
 20
392.9084869221
 30
0.0
 11
843.7459624275
 21
393.1414307872
 31
0.0
  0
LINE
  5
110
330
1F
100
AcDbEntity
  8
0
  6
Continuous
 62
     7
370
    25
100
AcDbLine
 10
843.7459624275
 20
393.1414307872
 30
0.0
 11
843.9789062927
 21
391.6893550633
 31
0.0
  0
ARC
  5
111
330
1F
100
AcDbEntity
  8
0
  6
Continuous
 62
     7
370
    25
100
AcDbCircle
 10
842.6671361618
 20
403.6543601421
 30
0.0
 40
12.03669752931981
100
AcDbArc
 50
276.2565722693
 51
281.9710500657
  0
LINE
  5
112
330
1F
100
AcDbEntity
  8
0
  6
Continuous
 62
     7
370
    25
100
AcDbLine
 10
844.9308132123
 20
393.3315060821
 30
0.0
 11
845.1637570775
 21
391.8794303582
 31
0.0
  0
ARC
  5
113
330
1F
100
AcDbEntity
  8
0
  6
Continuous
 62
     7
370
    25
100
AcDbCircle
 10
834.4178838574
 20
392.2526798164
 30
0.0
 40
12.03669752939446
100
AcDbArc
 50
6.2565722694
 51
11.9710500657
  0
LINE
  5
114
330
1F
100
AcDbEntity
  8
0
  6
Continuous
 62
     7
370
    25
100
AcDbLine
 10
844.7407379174
 20
394.516356867
 30
0.0
 11
846.1928136414
 21
394.7493007321
 31
0.0
  0
ARC
  5
115
330
1F
100
AcDbEntity
  8
0
  6
Continuous
 62
     7
370
    25
100
AcDbCircle
 10
845.8195641831
 20
384.0034275121
 30
0.0
 40
12.03669752931266
100
AcDbArc
 50
96.2565722693
 51
101.9710500657
  0
ARC
  5
116
330
1F
100
AcDbEntity
  8
0
  6
Continuous
 62
     7
370
    25
100
AcDbCircle
 10
844.2433501725
 20
393.8288938271
 30
0.0
 40
4.000000000000049
100
AcDbArc
 50
311.4096221093
 51
99.1138111675
  0
ARC
  5
117
330
1F
100
AcDbEntity
  8
0
  6
Continuous
 62
     7
370
    25
100
AcDbCircle
 10
844.2433501725
 20
393.8288938271
 30
0.0
 40
4.000000000000049
100
AcDbArc
 50
99.1138111675
 51
228.5903778907
  0
LINE
  5
118
330
1F
100
AcDbEntity
  8
0
  6
Continuous
 62
     7
370
    25
100
AcDbLine
 10
844.9308132123
 20
393.3315060821
 30
0.0
 11
846.3828889363
 21
393.5644499473
 31
0.0
  0
LINE
  5
119
330
1F
100
AcDbEntity
  8
0
  6
Continuous
 62
     7
370
    25
100
AcDbLine
 10
843.3229432674
 20
395.778357296
 30
0.0
 11
843.5558871326
 21
394.326281572
 31
0.0
  0
LINE
  5
11A
330
1F
100
AcDbEntity
  8
0
  6
Continuous
 62
     7
370
    25
100
AcDbLine
 10
844.5077940522
 20
395.9684325909
 30
0.0
 11
844.7407379174
 21
394.516356867
 31
0.0
  0
LINE
  5
11B
330
1F
100
AcDbEntity
  8
0
  6
Continuous
 62
     7
370
    25
100
AcDbLine
 10
844.8888442655
 20
394.5401162788
 30
0.0
 11
845.0789195604
 21
393.355265494
 31
0.0
  0
LINE
  5
11C
330
1F
100
AcDbEntity
  8
0
  6
Continuous
 62
     7
370
    25
100
AcDbLine
 10
844.9545726242
 20
393.183399734
 30
0.0
 11
843.7697218394
 21
392.9933244391
 31
0.0
  0
LINE
  5
11D
330
1F
100
AcDbEntity
  8
0
  6
Continuous
 62
     7
370
    25
100
AcDbLine
 10
844.7169785056
 20
394.6644632151
 30
0.0
 11
843.5321277207
 21
394.4743879201
 31
0.0
  0
LINE
  5
11E
330
1F
100
AcDbEntity
  8
0
  6
Continuous
 62
     7
370
    25
100
AcDbLine
 10
843.4077807845
 20
394.3025221602
 30
0.0
 11
843.5978560794
 21
393.1176713754
 31
0.0
  0
LINE
  5
11F
330
1F
100
AcDbEntity
  8
0
  6
Continuous
 62
     7
370
    25
100
AcDbLine
 10
260.3229432674
 20
395.778357296
 30
0.0
 11
260.5558871326
 21
394.326281572
 31
0.0
  0
LINE
  5
120
330
1F
100
AcDbEntity
  8
0
  6
Continuous
 62
     7
370
    25
100
AcDbLine
 10
259.1038114087
 20
394.0933377069
 30
0.0
 11
260.5558871326
 21
394.326281572
 31
0.0
  0
ARC
  5
121
330
1F
100
AcDbEntity
  8
0
  6
Continuous
 62
     7
370
    25
100
AcDbCircle
 10
271.0688164875
 20
395.4051078377
 30
0.0
 40
12.03669752934715
100
AcDbArc
 50
186.2565722693
 51
191.9710500657
  0
LINE
  5
122
330
1F
100
AcDbEntity
  8
0
  6
Continuous
 62
     7
370
    25
100
AcDbLine
 10
259.2938867036
 20
392.9084869221
 30
0.0
 11
260.7459624275
 21
393.1414307872
 31
0.0
  0
LINE
  5
123
330
1F
100
AcDbEntity
  8
0
  6
Continuous
 62
     7
370
    25
100
AcDbLine
 10
260.7459624275
 20
393.1414307872
 30
0.0
 11
260.9789062927
 21
391.6893550633
 31
0.0
  0
ARC
  5
124
330
1F
100
AcDbEntity
  8
0
  6
Continuous
 62
     7
370
    25
100
AcDbCircle
 10
259.6671361618
 20
403.6543601421
 30
0.0
 40
12.03669752930898
100
AcDbArc
 50
276.2565722693
 51
281.9710500657
  0
LINE
  5
125
330
1F
100
AcDbEntity
  8
0
  6
Continuous
 62
     7
370
    25
100
AcDbLine
 10
261.9308132123
 20
393.3315060821
 30
0.0
 11
262.1637570775
 21
391.8794303582
 31
0.0
  0
LINE
  5
126
330
1F
100
AcDbEntity
  8
0
  6
Continuous
 62
     7
370
    25
100
AcDbLine
 10
261.9308132123
 20
393.3315060821
 30
0.0
 11
263.3828889363
 21
393.5644499473
 31
0.0
  0
ARC
  5
127
330
1F
100
AcDbEntity
  8
0
  6
Continuous
 62
     7
370
    25
100
AcDbCircle
 10
251.4178838575
 20
392.2526798165
 30
0.0
 40
12.03669752932185
100
AcDbArc
 50
6.2565722693
 51
11.9710500657
  0
LINE
  5
128
330
1F
100
AcDbEntity
  8
0
  6
Continuous
 62
     7
370
    25
100
AcDbLine
 10
261.7407379174
 20
394.516356867
 30
0.0
 11
263.1928136414
 21
394.7493007321
 31
0.0
  0
LINE
  5
129
330
1F
100
AcDbEntity
  8
0
  6
Continuous
 62
     7
370
    25
100
AcDbLine
 10
261.5077940522
 20
395.9684325909
 30
0.0
 11
261.7407379174
 21
394.516356867
 31
0.0
  0
ARC
  5
12A
330
1F
100
AcDbEntity
  8
0
  6
Continuous
 62
     7
370
    25
100
AcDbCircle
 10
262.8195641831
 20
384.0034275121
 30
0.0
 40
12.03669752931801
100
AcDbArc
 50
96.2565722693
 51
101.9710500657
  0
ARC
  5
12B
330
1F
100
AcDbEntity
  8
0
  6
Continuous
 62
     7
370
    25
100
AcDbCircle
 10
261.2433501725
 20
393.8288938271
 30
0.0
 40
4.000000000000017
100
AcDbArc
 50
311.4096221093
 51
99.1138111675
  0
ARC
  5
12C
330
1F
100
AcDbEntity
  8
0
  6
Continuous
 62
     7
370
    25
100
AcDbCircle
 10
261.2433501725
 20
393.8288938271
 30
0.0
 40
4.000000000000017
100
AcDbArc
 50
99.1138111675
 51
228.5903778907
  0
LINE
  5
12D
330
1F
100
AcDbEntity
  8
0
  6
Continuous
 62
     7
370
    25
100
AcDbLine
 10
261.8888442655
 20
394.5401162788
 30
0.0
 11
262.0789195604
 21
393.355265494
 31
0.0
  0
LINE
  5
12E
330
1F
100
AcDbEntity
  8
0
  6
Continuous
 62
     7
370
    25
100
AcDbLine
 10
261.7169785056
 20
394.6644632151
 30
0.0
 11
260.5321277207
 21
394.4743879201
 31
0.0
  0
LINE
  5
12F
330
1F
100
AcDbEntity
  8
0
  6
Continuous
 62
     7
370
    25
100
AcDbLine
 10
261.9545726242
 20
393.183399734
 30
0.0
 11
260.7697218394
 21
392.9933244391
 31
0.0
  0
LINE
  5
130
330
1F
100
AcDbEntity
  8
0
  6
Continuous
 62
     7
370
    25
100
AcDbLine
 10
260.4077807845
 20
394.3025221602
 30
0.0
 11
260.5978560794
 21
393.1176713754
 31
0.0
  0
LINE
  5
131
330
1F
100
AcDbEntity
  8
0
  6
Continuous
 62
     7
370
    25
100
AcDbLine
 10
562.1038114087
 20
394.0933377069
 30
0.0
 11
563.5558871326
 21
394.326281572
 31
0.0
  0
ARC
  5
132
330
1F
100
AcDbEntity
  8
0
  6
Continuous
 62
     7
370
    25
100
AcDbCircle
 10
574.0688164875
 20
395.4051078377
 30
0.0
 40
12.03669752931214
100
AcDbArc
 50
186.2565722693
 51
191.9710500657
  0
LINE
  5
133
330
1F
100
AcDbEntity
  8
0
  6
Continuous
 62
     7
370
    25
100
AcDbLine
 10
562.2938867036
 20
392.9084869221
 30
0.0
 11
563.7459624275
 21
393.1414307872
 31
0.0
  0
ARC
  5
134
330
1F
100
AcDbEntity
  8
0
  6
Continuous
 62
     7
370
    25
100
AcDbCircle
 10
562.6671361618
 20
403.6543601421
 30
0.0
 40
12.03669752930755
100
AcDbArc
 50
276.2565722693
 51
281.9710500657
  0
ARC
  5
135
330
1F
100
AcDbEntity
  8
0
  6
Continuous
 62
     7
370
    25
100
AcDbCircle
 10
554.4178838574
 20
392.2526798164
 30
0.0
 40
12.03669752935939
100
AcDbArc
 50
6.2565722694
 51
11.9710500657
  0
ARC
  5
136
330
1F
100
AcDbEntity
  8
0
  6
Continuous
 62
     7
370
    25
100
AcDbCircle
 10
565.8195641831
 20
384.0034275121
 30
0.0
 40
12.03669752931097
100
AcDbArc
 50
96.2565722693
 51
101.9710500657
  0
ARC
  5
137
330
1F
100
AcDbEntity
  8
0
  6
Continuous
 62
     7
370
    25
100
AcDbCircle
 10
564.2433501725
 20
393.8288938271
 30
0.0
 40
3.999999999999904
100
AcDbArc
 50
311.4096221093
 51
99.1138111675
  0
ARC
  5
138
330
1F
100
AcDbEntity
  8
0
  6
Continuous
 62
     7
370
    25
100
AcDbCircle
 10
564.2433501725
 20
393.8288938271
 30
0.0
 40
4.000000000000049
100
AcDbArc
 50
99.1138111675
 51
228.5903778907
  0
LINE
  5
139
330
1F
100
AcDbEntity
  8
0
  6
Continuous
 62
     7
370
    25
100
AcDbLine
 10
564.7407379174
 20
394.516356867
 30
0.0
 11
566.1928136414
 21
394.7493007321
 31
0.0
  0
LINE
  5
13A
330
1F
100
AcDbEntity
  8
0
  6
Continuous
 62
     7
370
    25
100
AcDbLine
 10
564.9308132123
 20
393.3315060821
 30
0.0
 11
565.1637570775
 21
391.8794303582
 31
0.0
  0
LINE
  5
13B
330
1F
100
AcDbEntity
  8
0
  6
Continuous
 62
     7
370
    25
100
AcDbLine
 10
564.5077940522
 20
395.9684325909
 30
0.0
 11
564.7407379174
 21
394.516356867
 31
0.0
  0
LINE
  5
13C
330
1F
100
AcDbEntity
  8
0
  6
Continuous
 62
     7
370
    25
100
AcDbLine
 10
563.3229432674
 20
395.778357296
 30
0.0
 11
563.5558871326
 21
394.326281572
 31
0.0
  0
LINE
  5
13D
330
1F
100
AcDbEntity
  8
0
  6
Continuous
 62
     7
370
    25
100
AcDbLine
 10
563.7459624275
 20
393.1414307872
 30
0.0
 11
563.9789062927
 21
391.6893550633
 31
0.0
  0
LINE
  5
13E
330
1F
100
AcDbEntity
  8
0
  6
Continuous
 62
     7
370
    25
100
AcDbLine
 10
564.9308132123
 20
393.3315060821
 30
0.0
 11
566.3828889363
 21
393.5644499473
 31
0.0
  0
LINE
  5
13F
330
1F
100
AcDbEntity
  8
0
  6
Continuous
 62
     7
370
    25
100
AcDbLine
 10
564.8888442655
 20
394.5401162788
 30
0.0
 11
565.0789195604
 21
393.355265494
 31
0.0
  0
LINE
  5
140
330
1F
100
AcDbEntity
  8
0
  6
Continuous
 62
     7
370
    25
100
AcDbLine
 10
564.7169785056
 20
394.6644632151
 30
0.0
 11
563.5321277207
 21
394.4743879201
 31
0.0
  0
LINE
  5
141
330
1F
100
AcDbEntity
  8
0
  6
Continuous
 62
     7
370
    25
100
AcDbLine
 10
564.9545726242
 20
393.183399734
 30
0.0
 11
563.7697218394
 21
392.9933244391
 31
0.0
  0
LINE
  5
142
330
1F
100
AcDbEntity
  8
0
  6
Continuous
 62
     7
370
    25
100
AcDbLine
 10
563.4077807845
 20
394.3025221602
 30
0.0
 11
563.5978560794
 21
393.1176713754
 31
0.0
  0
LINE
  5
143
330
1F
100
AcDbEntity
  8
0
  6
Continuous
 62
     7
370
    25
100
AcDbLine
 10
-20.8961885913
 20
394.0933377069
 30
0.0
 11
-19.4441128674
 21
394.326281572
 31
0.0
  0
ARC
  5
144
330
1F
100
AcDbEntity
  8
0
  6
Continuous
 62
     7
370
    25
100
AcDbCircle
 10
-8.9311835125
 20
395.4051078377
 30
0.0
 40
12.03669752935752
100
AcDbArc
 50
186.2565722694
 51
191.9710500657
  0
ARC
  5
145
330
1F
100
AcDbEntity
  8
0
  6
Continuous
 62
     7
370
    25
100
AcDbCircle
 10
-20.3328638382
 20
403.6543601421
 30
0.0
 40
12.03669752931191
100
AcDbArc
 50
276.2565722693
 51
281.9710500657
  0
ARC
  5
146
330
1F
100
AcDbEntity
  8
0
  6
Continuous
 62
     7
370
    25
100
AcDbCircle
 10
-28.5821161426
 20
392.2526798164
 30
0.0
 40
12.03669752936034
100
AcDbArc
 50
6.2565722694
 51
11.9710500657
  0
ARC
  5
147
330
1F
100
AcDbEntity
  8
0
  6
Continuous
 62
     7
370
    25
100
AcDbCircle
 10
-17.1804358169
 20
384.0034275121
 30
0.0
 40
12.03669752931915
100
AcDbArc
 50
96.2565722693
 51
101.9710500657
  0
ARC
  5
148
330
1F
100
AcDbEntity
  8
0
  6
Continuous
 62
     7
370
    25
100
AcDbCircle
 10
-18.7566498275
 20
393.8288938271
 30
0.0
 40
4.000000000000014
100
AcDbArc
 50
311.4096221093
 51
99.1138111675
  0
ARC
  5
149
330
1F
100
AcDbEntity
  8
0
  6
Continuous
 62
     7
370
    25
100
AcDbCircle
 10
-18.7566498275
 20
393.8288938271
 30
0.0
 40
4.00000000000005
100
AcDbArc
 50
99.1138111675
 51
228.5903778907
  0
LINE
  5
14A
330
1F
100
AcDbEntity
  8
0
  6
Continuous
 62
     7
370
    25
100
AcDbLine
 10
-20.7061132964
 20
392.9084869221
 30
0.0
 11
-19.2540375725
 21
393.1414307872
 31
0.0
  0
LINE
  5
14B
330
1F
100
AcDbEntity
  8
0
  6
Continuous
 62
     7
370
    25
100
AcDbLine
 10
-18.0691867877
 20
393.3315060821
 30
0.0
 11
-17.8362429225
 21
391.8794303582
 31
0.0
  0
LINE
  5
14C
330
1F
100
AcDbEntity
  8
0
  6
Continuous
 62
     7
370
    25
100
AcDbLine
 10
-18.4922059478
 20
395.9684325909
 30
0.0
 11
-18.2592620826
 21
394.516356867
 31
0.0
  0
LINE
  5
14D
330
1F
100
AcDbEntity
  8
0
  6
Continuous
 62
     7
370
    25
100
AcDbLine
 10
-19.6770567326
 20
395.778357296
 30
0.0
 11
-19.4441128674
 21
394.326281572
 31
0.0
  0
LINE
  5
14E
330
1F
100
AcDbEntity
  8
0
  6
Continuous
 62
     7
370
    25
100
AcDbLine
 10
-19.2540375725
 20
393.1414307872
 30
0.0
 11
-19.0210937073
 21
391.6893550633
 31
0.0
  0
LINE
  5
14F
330
1F
100
AcDbEntity
  8
0
  6
Continuous
 62
     7
370
    25
100
AcDbLine
 10
-18.2592620826
 20
394.516356867
 30
0.0
 11
-16.8071863586
 21
394.7493007321
 31
0.0
  0
LINE
  5
150
330
1F
100
AcDbEntity
  8
0
  6
Continuous
 62
     7
370
    25
100
AcDbLine
 10
-18.0691867877
 20
393.3315060821
 30
0.0
 11
-16.6171110637
 21
393.5644499473
 31
0.0
  0
LINE
  5
151
330
1F
100
AcDbEntity
  8
0
  6
Continuous
 62
     7
370
    25
100
AcDbLine
 10
-18.1111557345
 20
394.5401162788
 30
0.0
 11
-17.9210804396
 21
393.355265494
 31
0.0
  0
LINE
  5
152
330
1F
100
AcDbEntity
  8
0
  6
Continuous
 62
     7
370
    25
100
AcDbLine
 10
-18.2830214944
 20
394.6644632151
 30
0.0
 11
-19.4678722793
 21
394.4743879201
 31
0.0
  0
LINE
  5
153
330
1F
100
AcDbEntity
  8
0
  6
Continuous
 62
     7
370
    25
100
AcDbLine
 10
-18.0454273758
 20
393.183399734
 30
0.0
 11
-19.2302781606
 21
392.9933244391
 31
0.0
  0
LINE
  5
154
330
1F
100
AcDbEntity
  8
0
  6
Continuous
 62
     7
370
    25
100
AcDbLine
 10
-19.5922192155
 20
394.3025221602
 30
0.0
 11
-19.4021439206
 21
393.1176713754
 31
0.0
  0
SPLINE
  5
155
330
1F
100
AcDbEntity
  8
0
  6
Continuous
 62
     7
370
    25
100
AcDbSpline
210
0.0
220
0.0
230
1.0
 70
    24
 71
     3
 72
    18
 73
    14
 74
     0
 42
0.000000001
 43
0.00000001
 40
0.0
 40
0.0
 40
0.0
 40
0.0
 40
0.1395442450004755
 40
0.2146633576115608
 40
0.2913766055701594
 40
0.3680898535287578
 40
0.4432089661398433
 40
0.5827532111403181
 40
0.7222974561407933
 40
0.7974165687518796
 40
0.8741298167104772
 40
0.9508430646690751
 40
1.0
 40
1.0
 40
1.0
 40
1.0
 10
-38.4566498275225
 20
413.5983657703268
 30
0.0
 10
-38.4566498275225
 20
413.9834966622525
 30
0.0
 10
-38.45664982752228
 20
414.5759502627604
 30
0.0
 10
-38.45664982752262
 20
415.8118644441456
 30
0.0
 10
-38.45664982752239
 20
416.8878940565003
 30
0.0
 10
-38.45664982752239
 20
418.0514221770492
 30
0.0
 10
-38.45664982752278
 20
419.5718693680674
 30
0.0
 10
-38.45664982752245
 20
421.396059366074
 30
0.0
 10
-38.45664982752262
 20
422.9112943206666
 30
0.0
 10
-38.45664982752245
 20
423.8290416190964
 30
0.0
 10
-38.4566498275225
 20
424.3326584374501
 30
0.0
 10
-38.45664982752245
 20
424.60479556219
 30
0.0
 10
-38.45664982752267
 20
424.6028877193041
 30
0.0
 10
-38.45664982752262
 20
424.6021426364981
 30
0.0
  0
SPLINE
  5
156
330
1F
100
AcDbEntity
  8
0
  6
Continuous
 62
     7
370
    25
100
AcDbSpline
210
0.0
220
0.0
230
1.0
 70
     8
 71
     3
 72
     8
 73
     4
 74
     0
 42
0.000000001
 43
0.00000001
 40
0.0
 40
0.0
 40
0.0
 40
0.0
 40
1.0
 40
1.0
 40
1.0
 40
1.0
 10
-34.4566498275296
 20
416.0042244159609
 30
0.0
 10
-34.4566498275296
 20
416.817213987666
 30
0.0
 10
-34.63096512790887
 20
417.6079523837338
 30
0.0
 10
-34.90323181492094
 20
418.3861873822107
 30
0.0
  0
SPLINE
  5
157
330
1F
100
AcDbEntity
  8
0
  6
Continuous
 62
     7
370
    25
100
AcDbSpline
210
0.0
220
0.0
230
1.0
 70
     8
 71
     3
 72
     8
 73
     4
 74
     0
 42
0.000000001
 43
0.00000001
 40
0.0
 40
0.0
 40
0.0
 40
0.0
 40
1.0
 40
1.0
 40
1.0
 40
1.0
 10
-34.90323181492094
 20
413.6222614497112
 30
0.0
 10
-34.63096512790953
 20
414.4004964481861
 30
0.0
 10
-34.4566498275296
 20
415.1912348442578
 30
0.0
 10
-34.4566498275296
 20
416.0042244159609
 30
0.0
  0
LINE
  5
158
330
1F
100
AcDbEntity
  8
0
  6
Continuous
 62
     7
370
    25
100
AcDbLine
 10
-38.4566498275
 20
413.6222614497
 30
0.0
 11
-34.9032318149
 21
413.6222614497
 31
0.0
  0
LINE
  5
159
330
1F
100
AcDbEntity
  8
0
  6
Continuous
 62
     7
370
    25
100
AcDbLine
 10
-34.9032318149
 20
418.3861873822
 30
0.0
 11
-38.4566498275
 21
418.3861873822
 31
0.0
  0
SPLINE
  5
15A
330
1F
100
AcDbEntity
  8
0
  6
Continuous
 62
     7
370
    25
100
AcDbSpline
210
0.0
220
0.0
230
1.0
 70
     8
 71
     3
 72
     8
 73
     4
 74
     0
 42
0.000000001
 43
0.00000001
 40
0.0
 40
0.0
 40
0.0
 40
0.0
 40
1.0
 40
1.0
 40
1.0
 40
1.0
 10
-34.45664982752966
 20
420.9895035709074
 30
0.0
 10
-34.45664982752966
 20
421.8780433774632
 30
0.0
 10
-34.63096512790909
 20
422.7422642308823
 30
0.0
 10
-34.90323181492094
 20
423.5928197595974
 30
0.0
  0
SPLINE
  5
15B
330
1F
100
AcDbEntity
  8
0
  6
Continuous
 62
     7
370
    25
100
AcDbSpline
210
0.0
220
0.0
230
1.0
 70
     8
 71
     3
 72
     8
 73
     4
 74
     0
 42
0.000000001
 43
0.00000001
 40
0.0
 40
0.0
 40
0.0
 40
0.0
 40
1.0
 40
1.0
 40
1.0
 40
1.0
 10
-34.90323181492094
 20
418.3861873822174
 30
0.0
 10
-34.63096512790948
 20
419.2367429109313
 30
0.0
 10
-34.45664982752966
 20
420.100963764353
 30
0.0
 10
-34.45664982752966
 20
420.9895035709074
 30
0.0
  0
LINE
  5
15C
330
1F
100
AcDbEntity
  8
0
  6
Continuous
 62
     7
370
    25
100
AcDbLine
 10
-38.4566498275
 20
423.5928197596
 30
0.0
 11
-34.9032318149
 21
423.5928197596
 31
0.0
  0
LINE
  5
15D
330
1F
100
AcDbEntity
  8
0
  6
Continuous
 62
     7
370
    25
100
AcDbLine
 10
-34.4566498275
 20
416.004224416
 30
0.0
 11
-34.4566498275
 21
420.9895035709
 31
0.0
  0
SPLINE
  5
15E
330
1F
100
AcDbEntity
  8
0
  6
Continuous
 62
     7
370
    25
100
AcDbSpline
210
0.0
220
0.0
230
1.0
 70
     8
 71
     3
 72
     8
 73
     4
 74
     0
 42
0.000000001
 43
0.00000001
 40
0.0
 40
0.0
 40
0.0
 40
0.0
 40
1.0
 40
1.0
 40
1.0
 40
1.0
 10
-34.90323181492083
 20
423.5928197596011
 30
0.0
 10
-34.63096512790942
 20
423.6651402898399
 30
0.0
 10
-34.4566498275295
 20
423.7386227471903
 30
0.0
 10
-34.4566498275295
 20
423.8141729820415
 30
0.0
  0
LINE
  5
15F
330
1F
100
AcDbEntity
  8
0
  6
Continuous
 62
     7
370
    25
100
AcDbLine
 10
-34.4566498275
 20
420.9895035709
 30
0.0
 11
-34.4566498275
 21
423.814172982
 31
0.0
  0
SPLINE
  5
160
330
1F
100
AcDbEntity
  8
0
  6
Continuous
 62
     7
370
    25
100
AcDbSpline
210
0.0
220
0.0
230
1.0
 70
     8
 71
     3
 72
     8
 73
     4
 74
     0
 42
0.000000001
 43
0.00000001
 40
0.0
 40
0.0
 40
0.0
 40
0.0
 40
1.0
 40
1.0
 40
1.0
 40
1.0
 10
-34.4566498275295
 20
413.8436146721488
 30
0.0
 10
-34.4566498275295
 20
413.7680644372975
 30
0.0
 10
-34.63096512790892
 20
413.6945819799473
 30
0.0
 10
-34.90323181492089
 20
413.6222614497084
 30
0.0
  0
LINE
  5
161
330
1F
100
AcDbEntity
  8
0
  6
Continuous
 62
     7
370
    25
100
AcDbLine
 10
-34.4566498275
 20
416.004224416
 30
0.0
 11
-34.4566498275
 21
413.8362213333
 31
0.0
  0
SPLINE
  5
162
330
1F
100
AcDbEntity
  8
0
  6
Continuous
 62
     7
370
    25
100
AcDbSpline
210
0.0
220
0.0
230
1.0
 70
     8
 71
     3
 72
     8
 73
     4
 74
     0
 42
0.000000001
 43
0.00000001
 40
0.0
 40
0.0
 40
0.0
 40
0.0
 40
1.0
 40
1.0
 40
1.0
 40
1.0
 10
-34.4566498275295
 20
423.8141729820415
 30
0.0
 10
-34.4566498275295
 20
423.8897232168928
 30
0.0
 10
-34.63096512790892
 20
423.9632056742431
 30
0.0
 10
-34.90323181492089
 20
424.035526204482
 30
0.0
  0
LINE
  5
163
330
1F
100
AcDbEntity
  8
0
  6
Continuous
 62
     7
370
    25
100
AcDbLine
 10
-38.4566498275
 20
424.0355262045
 30
0.0
 11
-34.9032318149
 21
424.0355262045
 31
0.0
  0
LINE
  5
164
330
1F
100
AcDbEntity
  8
0
  6
Continuous
 62
     7
370
    25
100
AcDbLine
 10
-48.9153998275
 20
420.1252596734
 30
0.0
 11
-48.9153998275
 21
415.8288938271
 31
0.0
  0
LINE
  5
165
330
1F
100
AcDbEntity
  8
0
  6
Continuous
 62
     7
370
    25
100
AcDbLine
 10
-48.9153998275
 20
421.8288938271
 30
0.0
 11
-48.9153998275
 21
420.1252596734
 31
0.0
  0
LINE
  5
166
330
1F
100
AcDbEntity
  8
0
  6
Continuous
 62
     7
370
    25
100
AcDbLine
 10
-49.4566498275
 20
421.2876438271
 30
0.0
 11
-49.4566498275
 21
416.3701438271
 31
0.0
  0
LINE
  5
167
330
1F
100
AcDbEntity
  8
0
  6
Continuous
 62
     7
370
    25
100
AcDbLine
 10
999.2444167915
 20
390.050267155
 30
0.0
 11
999.6073545699
 21
390.6788938271
 31
0.0
  0
LINE
  5
168
330
1F
100
AcDbEntity
  8
0
  6
Continuous
 62
     7
370
    25
100
AcDbLine
 10
999.6073545699
 20
396.9788938271
 30
0.0
 11
999.2444167915
 21
397.6075204992
 31
0.0
  0
ARC
  5
169
330
1F
100
AcDbEntity
  8
0
  6
Continuous
 62
     7
370
    25
100
AcDbCircle
 10
996.3791513396
 20
393.8288938271
 30
0.0
 40
7.999999999999996
100
AcDbArc
 50
330.0
 51
344.7252520003
  0
ARC
  5
16A
330
1F
100
AcDbEntity
  8
0
  6
Continuous
 62
     7
370
    25
100
AcDbCircle
 10
996.3791513396
 20
393.8288938271
 30
0.0
 40
7.999999999999967
100
AcDbArc
 50
15.2747479997
 51
30.0
  0
LINE
  5
16B
330
1F
100
AcDbEntity
  8
0
  6
Continuous
 62
     7
370
    25
100
AcDbLine
 10
1001.3073545699
 20
389.8288938271
 30
0.0
 11
1003.3073545699
 21
389.8288938271
 31
0.0
  0
LINE
  5
16C
330
1F
100
AcDbEntity
  8
0
  6
Continuous
 62
     7
370
    25
100
AcDbLine
 10
1003.3073545699
 20
397.8288938271
 30
0.0
 11
1001.3073545699
 21
397.8288938271
 31
0.0
  0
LINE
  5
16D
330
1F
100
AcDbEntity
  8
0
  6
Continuous
 62
     7
370
    25
100
AcDbLine
 10
999.6073545699
 20
391.8288938271
 30
0.0
 11
999.7073545699
 21
391.8288938271
 31
0.0
  0
LINE
  5
16E
330
1F
100
AcDbEntity
  8
0
  6
Continuous
 62
     7
370
    25
100
AcDbLine
 10
999.7073545699
 20
395.8288938271
 30
0.0
 11
999.6073545699
 21
395.8288938271
 31
0.0
  0
LINE
  5
16F
330
1F
100
AcDbEntity
  8
0
  6
Continuous
 62
     7
370
    25
100
AcDbLine
 10
1006.6073545699
 20
389.358183149
 30
0.0
 11
1006.6073545699
 21
146.2996045052
 31
0.0
  0
LINE
  5
170
330
1F
100
AcDbEntity
  8
0
  6
Continuous
 62
     7
370
    25
100
AcDbLine
 10
1016.2073545699
 20
389.358183149
 30
0.0
 11
1006.6073545699
 21
389.358183149
 31
0.0
  0
LINE
  5
171
330
1F
100
AcDbEntity
  8
0
  6
Continuous
 62
     7
370
    25
100
AcDbLine
 10
1016.2073545699
 20
146.2996045052
 30
0.0
 11
1006.6073545699
 21
146.2996045052
 31
0.0
  0
SPLINE
  5
172
330
1F
100
AcDbEntity
  8
0
  6
Continuous
 62
     7
370
    25
100
AcDbSpline
210
0.0
220
0.0
230
1.0
 70
     8
 71
     3
 72
    20
 73
    16
 74
     0
 42
0.000000001
 43
0.00000001
 40
0.0
 40
0.0
 40
0.0
 40
0.0
 40
0.1249999999999999
 40
0.1249999999999999
 40
0.2499999999999999
 40
0.2499999999999999
 40
0.3749999999999998
 40
0.3749999999999998
 40
0.4999999999999999
 40
0.4999999999999999
 40
0.7499999999999999
 40
0.7499999999999999
 40
0.8749999999999999
 40
0.8749999999999999
 40
1.0
 40
1.0
 40
1.0
 40
1.0
 10
1016.207354569891
 20
389.3581831489739
 30
0.0
 10
1016.365733757542
 20
389.3191424181194
 30
0.0
 10
1016.521979482234
 20
389.2806237139196
 30
0.0
 10
1016.82997133165
 20
389.2032169626116
 30
0.0
 10
1016.982615439121
 20
389.1640725446249
 30
0.0
 10
1017.271699728308
 20
389.0869217907098
 30
0.0
 10
1017.409504266492
 20
389.0485942089688
 30
0.0
 10
1017.671122942131
 20
388.9710478884922
 30
0.0
 10
1017.793869248814
 20
388.9320716808235
 30
0.0
 10
1018.125193625762
 20
388.8165768243784
 30
0.0
 10
1018.30420474979
 20
388.7386643807084
 30
0.0
 10
1018.483819849171
 20
388.6231844553075
 30
0.0
 10
1018.530064198038
 20
388.5843186594424
 30
0.0
 10
1018.59181750405
 20
388.5065443257739
 30
0.0
 10
1018.607354569891
 20
388.4679345588191
 30
0.0
 10
1018.607354569891
 20
388.4288938270925
 30
0.0
  0
LINE
  5
173
330
1F
100
AcDbEntity
  8
0
  6
Continuous
 62
     7
370
    25
100
AcDbLine
 10
1018.6073545699
 20
388.4288938271
 30
0.0
 11
1018.6073545699
 21
147.2288938271
 31
0.0
  0
SPLINE
  5
174
330
1F
100
AcDbEntity
  8
0
  6
Continuous
 62
     7
370
    25
100
AcDbSpline
210
0.0
220
0.0
230
1.0
 70
     8
 71
     3
 72
    20
 73
    16
 74
     0
 42
0.000000001
 43
0.00000001
 40
0.0
 40
0.0
 40
0.0
 40
0.0
 40
0.1249999999999953
 40
0.1249999999999953
 40
0.2499999999999905
 40
0.2499999999999905
 40
0.3749999999999858
 40
0.3749999999999858
 40
0.499999999999981
 40
0.499999999999981
 40
0.7499999999999986
 40
0.7499999999999986
 40
0.8749999999999994
 40
0.8749999999999994
 40
1.0
 40
1.0
 40
1.0
 40
1.0
 10
1018.607354569891
 20
147.2288938270925
 30
0.0
 10
1018.607354569891
 20
147.189853096238
 30
0.0
 10
1018.591818009416
 20
147.1513343920381
 30
0.0
 10
1018.530499657456
 20
147.0739276407303
 30
0.0
 10
1018.484075911869
 20
147.0347832227434
 30
0.0
 10
1018.364125041715
 20
146.9576324688283
 30
0.0
 10
1018.290520397431
 20
146.9193048870873
 30
0.0
 10
1018.115790031336
 20
146.8417585666107
 30
0.0
 10
1018.014939402434
 20
146.8027823589421
 30
0.0
 10
1017.68365412245
 20
146.6872875024972
 30
0.0
 10
1017.415973961066
 20
146.609375058827
 30
0.0
 10
1016.983299935011
 20
146.4938951334261
 30
0.0
 10
1016.83178184816
 20
146.4550293375611
 30
0.0
 10
1016.522356090774
 20
146.3772550038925
 30
0.0
 10
1016.36573376108
 20
146.3386452369378
 30
0.0
 10
1016.207354569891
 20
146.2996045052112
 30
0.0
  0
SPLINE
  5
175
330
1F
100
AcDbEntity
  8
0
  6
Continuous
 62
     7
370
    25
100
AcDbSpline
210
0.0
220
0.0
230
1.0
 70
     8
 71
     3
 72
    20
 73
    16
 74
     0
 42
0.000000001
 43
0.00000001
 40
0.0
 40
0.0
 40
0.0
 40
0.0
 40
0.1249999999999987
 40
0.1249999999999987
 40
0.2499999999999974
 40
0.2499999999999974
 40
0.3749999999999961
 40
0.3749999999999961
 40
0.4999999999999948
 40
0.4999999999999948
 40
0.7499999999999922
 40
0.7499999999999922
 40
0.874999999999996
 40
0.874999999999996
 40
1.0
 40
1.0
 40
1.0
 40
1.0
 10
1018.607354569891
 20
388.4288938270925
 30
0.0
 10
1018.607354569891
 20
388.5872730147432
 30
0.0
 10
1018.591818009416
 20
388.7435187394348
 30
0.0
 10
1018.530499657456
 20
389.0515105888514
 30
0.0
 10
1018.484075911869
 20
389.2041546963226
 30
0.0
 10
1018.364125041715
 20
389.4932389855097
 30
0.0
 10
1018.290520397431
 20
389.6310435236937
 30
0.0
 10
1018.115790031336
 20
389.8926621993326
 30
0.0
 10
1018.014939402434
 20
390.0154085060153
 30
0.0
 10
1017.68365412245
 20
390.346732882963
 30
0.0
 10
1017.415973961066
 20
390.5257440069913
 30
0.0
 10
1016.983299935011
 20
390.705359106372
 30
0.0
 10
1016.83178184816
 20
390.7516034552398
 30
0.0
 10
1016.522356090774
 20
390.813356761251
 30
0.0
 10
1016.36573376108
 20
390.8288938270925
 30
0.0
 10
1016.207354569891
 20
390.8288938270925
 30
0.0
  0
SPLINE
  5
176
330
1F
100
AcDbEntity
  8
0
  6
Continuous
 62
     7
370
    25
100
AcDbSpline
210
0.0
220
0.0
230
1.0
 70
     8
 71
     3
 72
     9
 73
     5
 74
     0
 42
0.000000001
 43
0.00000001
 40
0.0
 40
0.0
 40
0.0
 40
0.0
 40
0.4825784287290275
 40
0.9999999999999999
 40
0.9999999999999999
 40
0.9999999999999999
 40
0.9999999999999999
 10
1016.819894309069
 20
389.205064059039
 30
0.0
 10
1016.731759967753
 20
389.2688722521004
 30
0.0
 10
1016.5491278067
 20
389.4010957193395
 30
0.0
 10
1016.323894922655
 20
389.419415023796
 30
0.0
 10
1016.207354569891
 20
389.4288938270925
 30
0.0
  0
LINE
  5
177
330
1F
100
AcDbEntity
  8
0
  6
Continuous
 62
     7
370
    25
100
AcDbLine
 10
1016.2073545699
 20
390.8288938271
 30
0.0
 11
1016.2073545699
 21
389.4288938271
 31
0.0
  0
LINE
  5
178
330
1F
100
AcDbEntity
  8
0
  6
Continuous
 62
     7
370
    25
100
AcDbLine
 10
1016.2073545699
 20
144.8288938271
 30
0.0
 11
1016.2073545699
 21
146.2288938271
 31
0.0
  0
SPLINE
  5
179
330
1F
100
AcDbEntity
  8
0
  6
Continuous
 62
     7
370
    25
100
AcDbSpline
210
0.0
220
0.0
230
1.0
 70
     8
 71
     3
 72
     9
 73
     5
 74
     0
 42
0.000000001
 43
0.00000001
 40
0.0
 40
0.0
 40
0.0
 40
0.0
 40
0.7329379507272716
 40
1.0
 40
1.0
 40
1.0
 40
1.0
 10
1016.207354569891
 20
146.2288938270926
 30
0.0
 10
1016.358743211547
 20
146.2406484766103
 30
0.0
 10
1016.565293631682
 20
146.2566861909981
 30
0.0
 10
1016.720653973801
 20
146.3850234974919
 30
0.0
 10
1016.762144825143
 20
146.4192975215624
 30
0.0
  0
SPLINE
  5
17A
330
1F
100
AcDbEntity
  8
0
  6
Continuous
 62
     7
370
    25
100
AcDbSpline
210
0.0
220
0.0
230
1.0
 70
     8
 71
     3
 72
    20
 73
    16
 74
     0
 42
0.000000001
 43
0.00000001
 40
0.0
 40
0.0
 40
0.0
 40
0.0
 40
0.125
 40
0.125
 40
0.2500000000000001
 40
0.2500000000000001
 40
0.3750000000000001
 40
0.3750000000000001
 40
0.5
 40
0.5
 40
0.7499999999999999
 40
0.7499999999999999
 40
0.875
 40
0.875
 40
1.0
 40
1.0
 40
1.0
 40
1.0
 10
1016.207354569891
 20
144.8288938270926
 30
0.0
 10
1016.365733757542
 20
144.8288938270926
 30
0.0
 10
1016.521979482234
 20
144.8444303875675
 30
0.0
 10
1016.82997133165
 20
144.9057487395281
 30
0.0
 10
1016.982615439121
 20
144.9521724851149
 30
0.0
 10
1017.271699728308
 20
145.072123355269
 30
0.0
 10
1017.409504266492
 20
145.1457279995524
 30
0.0
 10
1017.671122942131
 20
145.320458365648
 30
0.0
 10
1017.793869248814
 20
145.4213089945495
 30
0.0
 10
1018.125193625761
 20
145.7525942745334
 30
0.0
 10
1018.30420474979
 20
146.0202744359173
 30
0.0
 10
1018.483819849171
 20
146.4529484619727
 30
0.0
 10
1018.530064198038
 20
146.6044665488238
 30
0.0
 10
1018.59181750405
 20
146.9138923062099
 30
0.0
 10
1018.607354569891
 20
147.0705146359036
 30
0.0
 10
1018.607354569891
 20
147.2288938270924
 30
0.0
  0
LINE
  5
17B
330
1F
100
AcDbEntity
  8
0
  6
Continuous
 62
     7
370
    25
100
AcDbLine
 10
1016.2073545699
 20
390.8288938271
 30
0.0
 11
1006.6073545699
 21
390.8288938271
 31
0.0
  0
LINE
  5
17C
330
1F
100
AcDbEntity
  8
0
  6
Continuous
 62
     7
370
    25
100
AcDbLine
 10
1016.2073545699
 20
389.4288938271
 30
0.0
 11
1006.6073545699
 21
389.4288938271
 31
0.0
  0
LINE
  5
17D
330
1F
100
AcDbEntity
  8
0
  6
Continuous
 62
     7
370
    25
100
AcDbLine
 10
1006.6073545699
 20
390.8288938271
 30
0.0
 11
1006.6073545699
 21
389.4288938271
 31
0.0
  0
LINE
  5
17E
330
1F
100
AcDbEntity
  8
0
  6
Continuous
 62
     7
370
    25
100
AcDbLine
 10
1016.2073545699
 20
146.2288938271
 30
0.0
 11
1006.6073545699
 21
146.2288938271
 31
0.0
  0
LINE
  5
17F
330
1F
100
AcDbEntity
  8
0
  6
Continuous
 62
     7
370
    25
100
AcDbLine
 10
1016.2073545699
 20
144.8288938271
 30
0.0
 11
1006.6073545699
 21
144.8288938271
 31
0.0
  0
LINE
  5
180
330
1F
100
AcDbEntity
  8
0
  6
Continuous
 62
     7
370
    25
100
AcDbLine
 10
1006.6073545699
 20
144.8288938271
 30
0.0
 11
1006.6073545699
 21
146.2288938271
 31
0.0
  0
LINE
  5
181
330
1F
100
AcDbEntity
  8
0
  6
Continuous
 62
     7
370
    25
100
AcDbLine
 10
998.5073545699
 20
405.3288938271
 30
0.0
 11
1002.5073545699
 21
405.3288938271
 31
0.0
  0
LINE
  5
182
330
1F
100
AcDbEntity
  8
0
  6
Continuous
 62
     7
370
    25
100
AcDbLine
 10
998.5073545699
 20
388.1288938271
 30
0.0
 11
998.5073545699
 21
405.3288938271
 31
0.0
  0
LINE
  5
183
330
1F
100
AcDbEntity
  8
0
  6
Continuous
 62
     7
370
    25
100
AcDbLine
 10
979.5073545699
 20
422.3288938271
 30
0.0
 11
979.5073545699
 21
388.1288938271
 31
0.0
  0
ARC
  5
184
330
1F
100
AcDbEntity
  8
0
  6
Continuous
 62
     7
370
    25
100
AcDbCircle
 10
982.5073545699
 20
422.3288938271
 30
0.0
 40
3.0
100
AcDbArc
 50
90.0
 51
180.0
  0
LINE
  5
185
330
1F
100
AcDbEntity
  8
0
  6
Continuous
 62
     7
370
    25
100
AcDbLine
 10
999.5073545699
 20
425.3288938271
 30
0.0
 11
982.5073545699
 21
425.3288938271
 31
0.0
  0
ARC
  5
186
330
1F
100
AcDbEntity
  8
0
  6
Continuous
 62
     7
370
    25
100
AcDbCircle
 10
999.5073545699
 20
422.3288938271
 30
0.0
 40
3.0
100
AcDbArc
 50
0.0
 51
90.0
  0
LINE
  5
187
330
1F
100
AcDbEntity
  8
0
  6
Continuous
 62
     7
370
    25
100
AcDbLine
 10
1002.5073545699
 20
405.3288938271
 30
0.0
 11
1002.5073545699
 21
422.3288938271
 31
0.0
  0
CIRCLE
  5
188
330
1F
100
AcDbEntity
  8
0
  6
Continuous
 62
     7
370
    25
100
AcDbCircle
 10
988.0073545699
 20
418.8288938271
 30
0.0
 40
3.249999999999886
  0
CIRCLE
  5
189
330
1F
100
AcDbEntity
  8
0
  6
Continuous
 62
     7
370
    25
100
AcDbCircle
 10
988.0073545699
 20
393.8288938271
 30
0.0
 40
3.249999999999829
  0
LINE
  5
18A
330
1F
100
AcDbEntity
  8
0
  6
Continuous
 62
     7
370
    25
100
AcDbLine
 10
979.5073545699
 20
386.3288938271
 30
0.0
 11
979.5073545699
 21
388.1288938271
 31
0.0
  0
LINE
  5
18B
330
1F
100
AcDbEntity
  8
0
  6
Continuous
 62
     7
370
    25
100
AcDbLine
 10
998.5073545699
 20
388.1288938271
 30
0.0
 11
998.5073545699
 21
386.3288938271
 31
0.0
  0
LINE
  5
18C
330
1F
100
AcDbEntity
  8
0
  6
Continuous
 62
     7
370
    25
100
AcDbLine
 10
998.5073545699
 20
386.3288938271
 30
0.0
 11
979.5073545699
 21
386.3288938271
 31
0.0
  0
LINE
  5
18D
330
1F
100
AcDbEntity
  8
0
  6
Continuous
 62
     7
370
    25
100
AcDbLine
 10
999.7073545699
 20
398.3288938271
 30
0.0
 11
999.7073545699
 21
388.1288938271
 31
0.0
  0
LINE
  5
18E
330
1F
100
AcDbEntity
  8
0
  6
Continuous
 62
     7
370
    25
100
AcDbLine
 10
1000.5073545699
 20
398.3288938271
 30
0.0
 11
999.7073545699
 21
398.3288938271
 31
0.0
  0
LINE
  5
18F
330
1F
100
AcDbEntity
  8
0
  6
Continuous
 62
     7
370
    25
100
AcDbLine
 10
998.5073545699
 20
386.3288938271
 30
0.0
 11
998.7073545699
 21
386.3288938271
 31
0.0
  0
LINE
  5
190
330
1F
100
AcDbEntity
  8
0
  6
Continuous
 62
     7
370
    25
100
AcDbLine
 10
998.5073545699
 20
387.1288938271
 30
0.0
 11
998.7073545699
 21
387.1288938271
 31
0.0
  0
ARC
  5
191
330
1F
100
AcDbEntity
  8
0
  6
Continuous
 62
     7
370
    25
100
AcDbCircle
 10
998.7073545699
 20
388.1288938271
 30
0.0
 40
1.799999999999955
100
AcDbArc
 50
270.0
 51
0.0
  0
ARC
  5
192
330
1F
100
AcDbEntity
  8
0
  6
Continuous
 62
     7
370
    25
100
AcDbCircle
 10
998.7073545699
 20
388.1288938271
 30
0.0
 40
1.0
100
AcDbArc
 50
270.0
 51
0.0
  0
LINE
  5
193
330
1F
100
AcDbEntity
  8
0
  6
Continuous
 62
     7
370
    25
100
AcDbLine
 10
955.5073545699
 20
386.3288938271
 30
0.0
 11
955.5073545699
 21
387.1288938271
 31
0.0
  0
LINE
  5
194
330
1F
100
AcDbEntity
  8
0
  6
Continuous
 62
     7
370
    25
100
AcDbLine
 10
958.5073545699
 20
386.3288938271
 30
0.0
 11
955.5073545699
 21
386.3288938271
 31
0.0
  0
LINE
  5
195
330
1F
100
AcDbEntity
  8
0
  6
Continuous
 62
     7
370
    25
100
AcDbLine
 10
955.5073545699
 20
387.1288938271
 30
0.0
 11
958.5073545699
 21
387.1288938271
 31
0.0
  0
LINE
  5
196
330
1F
100
AcDbEntity
  8
0
  6
Continuous
 62
     7
370
    25
100
AcDbLine
 10
958.5073545699
 20
386.3288938271
 30
0.0
 11
979.5073545699
 21
386.3288938271
 31
0.0
  0
LINE
  5
197
330
1F
100
AcDbEntity
  8
0
  6
Continuous
 62
     7
370
    25
100
AcDbLine
 10
958.5073545699
 20
387.1288938271
 30
0.0
 11
979.5073545699
 21
387.1288938271
 31
0.0
  0
LINE
  5
198
330
1F
100
AcDbEntity
  8
0
  6
Continuous
 62
     7
370
    25
100
AcDbLine
 10
973.6453037623
 20
387.2628684233
 30
0.0
 11
967.0204326317
 21
391.0877395539
 31
0.0
  0
LINE
  5
199
330
1F
100
AcDbEntity
  8
0
  6
Continuous
 62
     7
370
    25
100
AcDbLine
 10
972.2773545699
 20
387.1288938271
 30
0.0
 11
966.6204326317
 21
390.3949192309
 31
0.0
  0
ARC
  5
19A
330
1F
100
AcDbEntity
  8
0
  6
Continuous
 62
     7
370
    25
100
AcDbCircle
 10
974.1453037623
 20
388.1288938271
 30
0.0
 40
0.9999999999999432
100
AcDbArc
 50
240.0
 51
270.0
  0
ARC
  5
19B
330
1F
100
AcDbEntity
  8
0
  6
Continuous
 62
     7
370
    25
100
AcDbCircle
 10
966.1204326317
 20
389.5288938271
 30
0.0
 40
1.00000000000009
100
AcDbArc
 50
60.0
 51
90.0
  0
ARC
  5
19C
330
1F
100
AcDbEntity
  8
0
  6
Continuous
 62
     7
370
    25
100
AcDbCircle
 10
966.1204326317
 20
389.5288938271
 30
0.0
 40
1.800000000000018
100
AcDbArc
 50
60.0
 51
90.0
  0
LINE
  5
19D
330
1F
100
AcDbEntity
  8
0
  6
Continuous
 62
     7
370
    25
100
AcDbLine
 10
959.6027411781
 20
391.3288938271
 30
0.0
 11
966.1204326317
 21
391.3288938271
 31
0.0
  0
LINE
  5
19E
330
1F
100
AcDbEntity
  8
0
  6
Continuous
 62
     7
370
    25
100
AcDbLine
 10
959.6027411781
 20
390.5288938271
 30
0.0
 11
966.1204326317
 21
390.5288938271
 31
0.0
  0
LINE
  5
19F
330
1F
100
AcDbEntity
  8
0
  6
Continuous
 62
     7
370
    25
100
AcDbLine
 10
956.6027411781
 20
390.5288938271
 30
0.0
 11
956.6027411781
 21
391.3288938271
 31
0.0
  0
LINE
  5
1A0
330
1F
100
AcDbEntity
  8
0
  6
Continuous
 62
     7
370
    25
100
AcDbLine
 10
956.6027411781
 20
391.3288938271
 30
0.0
 11
959.6027411781
 21
391.3288938271
 31
0.0
  0
LINE
  5
1A1
330
1F
100
AcDbEntity
  8
0
  6
Continuous
 62
     7
370
    25
100
AcDbLine
 10
959.6027411781
 20
390.5288938271
 30
0.0
 11
956.6027411781
 21
390.5288938271
 31
0.0
  0
LINE
  5
1A2
330
1F
100
AcDbEntity
  8
0
  6
Continuous
 62
     7
370
    25
100
AcDbLine
 10
998.5073545699
 20
395.269723149
 30
0.0
 11
999.0926745845
 21
395.269723149
 31
0.0
  0
SPLINE
  5
1A3
330
1F
100
AcDbEntity
  8
0
  6
Continuous
 62
     7
370
    25
100
AcDbSpline
210
0.0
220
0.0
230
1.0
 70
     8
 71
     3
 72
    14
 73
    10
 74
     0
 42
0.000000001
 43
0.00000001
 40
0.0
 40
0.0
 40
0.0
 40
0.0
 40
0.25
 40
0.25
 40
0.5
 40
0.5
 40
0.75
 40
0.75
 40
1.0
 40
1.0
 40
1.0
 40
1.0
 10
999.0926745845051
 20
395.2697231489631
 30
0.0
 10
999.1875491938156
 20
394.9452169196744
 30
0.0
 10
999.2671541186913
 20
394.6127576972801
 30
0.0
 10
999.3759907335856
 20
393.9461877823719
 30
0.0
 10
999.4053143392762
 20
393.6111115250966
 30
0.0
 10
999.4052495575305
 20
392.936768054869
 30
0.0
 10
999.3750933642042
 20
392.59498863419
 30
0.0
 10
999.2655081628384
 20
391.9285747145853
 30
0.0
 10
999.1869651890363
 20
391.6018006686326
 30
0.0
 10
999.0926745845051
 20
391.2792919515363
 30
0.0
  0
LINE
  5
1A4
330
1F
100
AcDbEntity
  8
0
  6
Continuous
 62
     7
370
    25
100
AcDbLine
 10
998.5073545699
 20
391.2792919515
 30
0.0
 11
999.0926745845
 21
391.2792919515
 31
0.0
  0
SPLINE
  5
1A5
330
1F
100
AcDbEntity
  8
0
  6
Continuous
 62
     7
370
    25
100
AcDbSpline
210
0.0
220
0.0
230
1.0
 70
     8
 71
     3
 72
    12
 73
     8
 74
     0
 42
0.000000001
 43
0.00000001
 40
0.0
 40
0.0
 40
0.0
 40
0.0
 40
0.4999999999999793
 40
0.4999999999999793
 40
0.7499999999999897
 40
0.7499999999999897
 40
1.0
 40
1.0
 40
1.0
 40
1.0
 10
999.092674584506
 20
389.8384626296657
 30
0.0
 10
999.2831688739295
 20
390.0737224221088
 30
0.0
 10
999.4048432869919
 20
390.3125071149593
 30
0.0
 10
999.4054994775231
 20
390.6799986475164
 30
0.0
 10
999.3756654757287
 20
390.8023708421656
 30
0.0
 10
999.2667356056212
 20
391.0427545273252
 30
0.0
 10
999.1880404185582
 20
391.1615154743868
 30
0.0
 10
999.0926745845055
 20
391.2792919515363
 30
0.0
  0
SPLINE
  5
1A6
330
1F
100
AcDbEntity
  8
0
  6
Continuous
 62
     7
370
    25
100
AcDbSpline
210
0.0
220
0.0
230
1.0
 70
     8
 71
     3
 72
    12
 73
     8
 74
     0
 42
0.000000001
 43
0.00000001
 40
0.0
 40
0.0
 40
0.0
 40
0.0
 40
0.5000000000000064
 40
0.5000000000000064
 40
0.7500000000000032
 40
0.7500000000000032
 40
1.0
 40
1.0
 40
1.0
 40
1.0
 10
999.092674584506
 20
395.269723148963
 30
0.0
 10
999.2831688739295
 20
395.6860242326176
 30
0.0
 10
999.4048432869919
 20
396.108562760606
 30
0.0
 10
999.4054994775231
 20
396.7588529000668
 30
0.0
 10
999.3756654757287
 20
396.9753951179812
 30
0.0
 10
999.2667356056212
 20
397.4007631232216
 30
0.0
 10
999.1880404185582
 20
397.6109151022068
 30
0.0
 10
999.0926745845055
 20
397.8193250245196
 30
0.0
  0
LINE
  5
1A7
330
1F
100
AcDbEntity
  8
0
  6
Continuous
 62
     7
370
    25
100
AcDbLine
 10
999.0926745845
 20
397.8193250245
 30
0.0
 11
999.1905496218
 21
397.5764202742
 31
0.0
  0
LINE
  5
1A8
330
1F
100
AcDbEntity
  8
0
  6
Continuous
 62
     7
370
    25
100
AcDbLine
 10
999.6073545699
 20
393.3299461779
 30
0.0
 11
999.6073545699
 21
390.6788938271
 31
0.0
  0
LINE
  5
1A9
330
1F
100
AcDbEntity
  8
0
  6
Continuous
 62
     7
370
    25
100
AcDbLine
 10
999.6073545699
 20
396.9788938271
 30
0.0
 11
999.6073545699
 21
393.3299461779
 31
0.0
  0
LINE
  5
1AA
330
1F
100
AcDbEntity
  8
0
  6
Continuous
 62
     7
370
    25
100
AcDbLine
 10
998.5073545699
 20
397.8193250245
 30
0.0
 11
999.0926745845
 21
397.8193250245
 31
0.0
  0
LINE
  5
1AB
330
1F
100
AcDbEntity
  8
0
  6
Continuous
 62
     7
370
    25
100
AcDbLine
 10
998.5073545699
 20
389.8384626297
 30
0.0
 11
999.0926745845
 21
389.8384626297
 31
0.0
  0
LINE
  5
1AC
330
1F
100
AcDbEntity
  8
0
  6
Continuous
 62
     7
370
    25
100
AcDbLine
 10
1007.0573545699
 20
402.1288938271
 30
0.0
 11
1012.2073545699
 21
402.1288938271
 31
0.0
  0
LINE
  5
1AD
330
1F
100
AcDbEntity
  8
0
  6
Continuous
 62
     7
370
    25
100
AcDbLine
 10
1007.0573545699
 20
402.9288938271
 30
0.0
 11
1007.0573545699
 21
402.1288938271
 31
0.0
  0
LINE
  5
1AE
330
1F
100
AcDbEntity
  8
0
  6
Continuous
 62
     7
370
    25
100
AcDbLine
 10
1007.0573545699
 20
402.9288938271
 30
0.0
 11
1012.2073545699
 21
402.9288938271
 31
0.0
  0
LINE
  5
1AF
330
1F
100
AcDbEntity
  8
0
  6
Continuous
 62
     7
370
    25
100
AcDbLine
 10
1012.2073545699
 20
402.9288938271
 30
0.0
 11
1012.2073545699
 21
403.0288938271
 31
0.0
  0
LINE
  5
1B0
330
1F
100
AcDbEntity
  8
0
  6
Continuous
 62
     7
370
    25
100
AcDbLine
 10
1002.3073545699
 20
403.0288938271
 30
0.0
 11
1012.2073545699
 21
403.0288938271
 31
0.0
  0
LINE
  5
1B1
330
1F
100
AcDbEntity
  8
0
  6
Continuous
 62
     7
370
    25
100
AcDbLine
 10
1002.3073545699
 20
403.0288938271
 30
0.0
 11
1002.3073545699
 21
403.8288938271
 31
0.0
  0
LINE
  5
1B2
330
1F
100
AcDbEntity
  8
0
  6
Continuous
 62
     7
370
    25
100
AcDbLine
 10
1012.2073545699
 20
403.8288938271
 30
0.0
 11
1002.3073545699
 21
403.8288938271
 31
0.0
  0
ARC
  5
1B3
330
1F
100
AcDbEntity
  8
0
  6
Continuous
 62
     7
370
    25
100
AcDbCircle
 10
1012.2073545699
 20
402.9788938271
 30
0.0
 40
0.8500000000000227
100
AcDbArc
 50
270.0
 51
90.0
  0
LINE
  5
1B4
330
1F
100
AcDbEntity
  8
0
  6
Continuous
 62
     7
370
    25
100
AcDbLine
 10
1002.3073545699
 20
383.8288938271
 30
0.0
 11
1002.3073545699
 21
384.6288938271
 31
0.0
  0
LINE
  5
1B5
330
1F
100
AcDbEntity
  8
0
  6
Continuous
 62
     7
370
    25
100
AcDbLine
 10
1006.6073545699
 20
384.6288938271
 30
0.0
 11
1002.3073545699
 21
384.6288938271
 31
0.0
  0
LINE
  5
1B6
330
1F
100
AcDbEntity
  8
0
  6
Continuous
 62
     7
370
    25
100
AcDbLine
 10
1006.6073545699
 20
383.8288938271
 30
0.0
 11
1002.3073545699
 21
383.8288938271
 31
0.0
  0
ARC
  5
1B7
330
1F
100
AcDbEntity
  8
0
  6
Continuous
 62
     7
370
    25
100
AcDbCircle
 10
1002.3073545699
 20
385.6288938271
 30
0.0
 40
1.800000000000296
100
AcDbArc
 50
180.0
 51
270.0
  0
LINE
  5
1B8
330
1F
100
AcDbEntity
  8
0
  6
Continuous
 62
     7
370
    25
100
AcDbLine
 10
1000.5073545699
 20
385.6288938271
 30
0.0
 11
1000.5073545699
 21
402.0288938271
 31
0.0
  0
ARC
  5
1B9
330
1F
100
AcDbEntity
  8
0
  6
Continuous
 62
     7
370
    25
100
AcDbCircle
 10
1002.3073545699
 20
385.6288938271
 30
0.0
 40
1.000000000000114
100
AcDbArc
 50
180.0
 51
270.0
  0
ARC
  5
1BA
330
1F
100
AcDbEntity
  8
0
  6
Continuous
 62
     7
370
    25
100
AcDbCircle
 10
1002.3073545699
 20
402.0288938271
 30
0.0
 40
1.0
100
AcDbArc
 50
90.0
 51
180.0
  0
LINE
  5
1BB
330
1F
100
AcDbEntity
  8
0
  6
Continuous
 62
     7
370
    25
100
AcDbLine
 10
1001.3073545699
 20
402.0288938271
 30
0.0
 11
1001.3073545699
 21
385.6288938271
 31
0.0
  0
ARC
  5
1BC
330
1F
100
AcDbEntity
  8
0
  6
Continuous
 62
     7
370
    25
100
AcDbCircle
 10
1002.3073545699
 20
402.0288938271
 30
0.0
 40
1.800000000000068
100
AcDbArc
 50
90.0
 51
180.0
  0
CIRCLE
  5
1BD
330
1F
100
AcDbEntity
  8
0
  6
Continuous
 62
     7
370
    25
100
AcDbCircle
 10
988.0073545699
 20
393.8288938271
 30
0.0
 40
2.458750000016599
  0
CIRCLE
  5
1BE
330
1F
100
AcDbEntity
  8
0
  6
Continuous
 62
     7
370
    25
100
AcDbCircle
 10
988.0073545699
 20
393.8288938271
 30
0.0
 40
3.000000000000015
  0
ARC
  5
1BF
330
1F
100
AcDbEntity
  8
0
  6
Continuous
 62
     7
370
    25
100
AcDbCircle
 10
996.5703746721
 20
393.7329558072
 30
0.0
 40
7.78628841510821
100
AcDbArc
 50
4.3702527065
 51
15.2299003794
  0
ARC
  5
1C0
330
1F
100
AcDbEntity
  8
0
  6
Continuous
 62
     7
370
    25
100
AcDbCircle
 10
1003.8096311357
 20
394.6394094095
 30
0.0
 40
0.6107675350086228
100
AcDbArc
 50
296.6101963367
 51
329.1575418586
  0
ARC
  5
1C1
330
1F
100
AcDbEntity
  8
0
  6
Continuous
 62
     7
370
    25
100
AcDbCircle
 10
995.0035689942
 20
393.5009123145
 30
0.0
 40
9.098942710266853
100
AcDbArc
 50
356.2668736478
 51
3.7331263522
  0
ARC
  5
1C2
330
1F
100
AcDbEntity
  8
0
  6
Continuous
 62
     7
370
    25
100
AcDbCircle
 10
1003.8096311357
 20
393.4545586247
 30
0.0
 40
0.6107675350091398
100
AcDbArc
 50
296.6101963367
 51
329.1575418586
  0
ARC
  5
1C3
330
1F
100
AcDbEntity
  8
0
  6
Continuous
 62
     7
370
    25
100
AcDbCircle
 10
996.5703746721
 20
393.734756552
 30
0.0
 40
7.786288415110055
100
AcDbArc
 50
344.7700996206
 51
355.6297472935
  0
ARC
  5
1C4
330
1F
100
AcDbEntity
  8
0
  6
Continuous
 62
     7
370
    25
100
AcDbCircle
 10
1003.9501207913
 20
391.7632914503
 30
0.0
 40
0.1522432420603914
100
AcDbArc
 50
330.9451665856
 51
359.144911655
  0
LWPOLYLINE
  5
1C5
330
1F
100
AcDbEntity
  8
0
  6
Continuous
 62
     7
370
    25
100
AcDbPolyline
 90
        3
 70
   128
 43
0.0
 10
1004.3340240602
 20
393.3315060821
 10
1004.3177992115
 20
393.1478077533
 10
1004.3171570684
 20
393.1414307872
  0
ARC
  5
1C6
330
1F
100
AcDbEntity
  8
0
  6
Continuous
 62
     7
370
    25
100
AcDbCircle
 10
1003.8096311357
 20
393.0183782446
 30
0.0
 40
0.6107675350093856
100
AcDbArc
 50
30.8424581414
 51
63.3898036633
  0
ARC
  5
1C7
330
1F
100
AcDbEntity
  8
0
  6
Continuous
 62
     7
370
    25
100
AcDbCircle
 10
994.9266972131
 20
394.159891196
 30
0.0
 40
9.175815044843802
100
AcDbArc
 50
357.9327321271
 51
359.6562101059
  0
ARC
  5
1C8
330
1F
100
AcDbEntity
  8
0
  6
Continuous
 62
     7
370
    25
100
AcDbCircle
 10
996.5703746721
 20
393.9230311022
 30
0.0
 40
7.786288415109812
100
AcDbArc
 50
4.3702527065
 51
15.2299003794
  0
ARC
  5
1C9
330
1F
100
AcDbEntity
  8
0
  6
Continuous
 62
     7
370
    25
100
AcDbCircle
 10
1003.8620830049
 20
395.8733949434
 30
0.0
 40
0.2406805056726191
100
AcDbArc
 50
336.7420981705
 51
23.2579018295
  0
LINE
  5
1CA
330
1F
100
AcDbEntity
  8
0
  6
Continuous
 62
     7
370
    25
100
AcDbLine
 10
1003.3073545699
 20
397.7783964431
 30
0.0
 11
1003.3073545699
 21
397.8288938271
 31
0.0
  0
LINE
  5
1CB
330
1F
100
AcDbEntity
  8
0
  6
Continuous
 62
     7
370
    25
100
AcDbLine
 10
1003.3073545699
 20
389.8288938271
 30
0.0
 11
1003.3073545699
 21
397.7783964431
 31
0.0
  0
LINE
  5
1CC
330
1F
100
AcDbEntity
  8
0
  6
Continuous
 62
     7
370
    25
100
AcDbLine
 10
1004.3340240602
 20
393.1414307872
 30
0.0
 11
1004.0954684023
 21
393.1414307872
 31
0.0
  0
LINE
  5
1CD
330
1F
100
AcDbEntity
  8
0
  6
Continuous
 62
     7
370
    25
100
AcDbLine
 10
1004.3340240602
 20
394.516356867
 30
0.0
 11
1004.3171570684
 21
394.516356867
 31
0.0
  0
LINE
  5
1CE
330
1F
100
AcDbEntity
  8
0
  6
Continuous
 62
     7
370
    25
100
AcDbLine
 10
1004.3340240602
 20
393.3315060821
 30
0.0
 11
1004.1009737438
 21
393.3315060821
 31
0.0
  0
LINE
  5
1CF
330
1F
100
AcDbEntity
  8
0
  6
Continuous
 62
     7
370
    25
100
AcDbLine
 10
994.1073545699
 20
328.142739186
 30
0.0
 11
982.1073545699
 21
328.142739186
 31
0.0
  0
LINE
  5
1D0
330
1F
100
AcDbEntity
  8
0
  6
Continuous
 62
     7
370
    25
100
AcDbLine
 10
994.1073545699
 20
327.4586988994
 30
0.0
 11
982.1073545699
 21
327.4586988994
 31
0.0
  0
LINE
  5
1D1
330
1F
100
AcDbEntity
  8
0
  6
Continuous
 62
     7
370
    25
100
AcDbLine
 10
980.1073545699
 20
329.338084141
 30
0.0
 11
980.1073545699
 21
330.0221244276
 31
0.0
  0
ARC
  5
1D2
330
1F
100
AcDbEntity
  8
0
  6
Continuous
 62
     7
370
    25
100
AcDbCircle
 10
982.0488656807
 20
330.0843670035
 30
0.0
 40
1.94250856665536
100
AcDbArc
 50
181.8362067977
 51
271.7254354149
  0
ARC
  5
1D3
330
1F
100
AcDbEntity
  8
0
  6
Continuous
 62
     7
370
    25
100
AcDbCircle
 10
982.0488656807
 20
329.4003267168
 30
0.0
 40
1.94250856665536
100
AcDbArc
 50
181.8362067977
 51
271.7254354149
  0
LINE
  5
1D4
330
1F
100
AcDbEntity
  8
0
  6
Continuous
 62
     7
370
    25
100
AcDbLine
 10
980.1073545699
 20
330.0221244276
 30
0.0
 11
980.1073545699
 21
335.1632006645
 31
0.0
  0
LINE
  5
1D5
330
1F
100
AcDbEntity
  8
0
  6
Continuous
 62
     7
370
    25
100
AcDbLine
 10
996.1073545699
 20
335.1632006645
 30
0.0
 11
996.1073545699
 21
330.0221244276
 31
0.0
  0
ARC
  5
1D6
330
1F
100
AcDbEntity
  8
0
  6
Continuous
 62
     7
370
    25
100
AcDbCircle
 10
994.1658434591
 20
330.0843670035
 30
0.0
 40
1.942508566655362
100
AcDbArc
 50
268.2745645851
 51
358.1637932023
  0
LINE
  5
1D7
330
1F
100
AcDbEntity
  8
0
  6
Continuous
 62
     7
370
    25
100
AcDbLine
 10
996.1073545699
 20
330.0221244276
 30
0.0
 11
996.1073545699
 21
329.338084141
 31
0.0
  0
ARC
  5
1D8
330
1F
100
AcDbEntity
  8
0
  6
Continuous
 62
     7
370
    25
100
AcDbCircle
 10
994.1658434591
 20
329.4003267168
 30
0.0
 40
1.942508566655467
100
AcDbArc
 50
268.2745645851
 51
358.1637932023
  0
LINE
  5
1D9
330
1F
100
AcDbEntity
  8
0
  6
Continuous
 62
     7
370
    25
100
AcDbLine
 10
996.1073545699
 20
335.1632006645
 30
0.0
 11
996.1073545699
 21
335.5052208078
 31
0.0
  0
LINE
  5
1DA
330
1F
100
AcDbEntity
  8
0
  6
Continuous
 62
     7
370
    25
100
AcDbLine
 10
980.1073545699
 20
335.5052208078
 30
0.0
 11
980.1073545699
 21
335.1632006645
 31
0.0
  0
LINE
  5
1DB
330
1F
100
AcDbEntity
  8
0
  6
Continuous
 62
     7
370
    25
100
AcDbLine
 10
996.1073545699
 20
335.3288938271
 30
0.0
 11
1006.6073545699
 21
335.3288938271
 31
0.0
  0
LINE
  5
1DC
330
1F
100
AcDbEntity
  8
0
  6
Continuous
 62
     7
370
    25
100
AcDbLine
 10
980.1073545699
 20
348.3288938271
 30
0.0
 11
980.1073545699
 21
335.5052208078
 31
0.0
  0
CIRCLE
  5
1DD
330
1F
100
AcDbEntity
  8
0
  6
Continuous
 62
     7
370
    25
100
AcDbCircle
 10
988.0073545699
 20
342.8288938271
 30
0.0
 40
3.5
  0
ARC
  5
1DE
330
1F
100
AcDbEntity
  8
0
  6
Continuous
 62
     7
370
    25
100
AcDbCircle
 10
982.1073545699
 20
348.3288938271
 30
0.0
 40
2.0
100
AcDbArc
 50
90.0
 51
180.0
  0
LINE
  5
1DF
330
1F
100
AcDbEntity
  8
0
  6
Continuous
 62
     7
370
    25
100
AcDbLine
 10
1006.6073545699
 20
350.3288938271
 30
0.0
 11
982.1073545699
 21
350.3288938271
 31
0.0
  0
CIRCLE
  5
1E0
330
1F
100
AcDbEntity
  8
0
  6
Continuous
 62
     7
370
    25
100
AcDbCircle
 10
988.0073545699
 20
192.8288938271
 30
0.0
 40
2.458750000016497
  0
CIRCLE
  5
1E1
330
1F
100
AcDbEntity
  8
0
  6
Continuous
 62
     7
370
    25
100
AcDbCircle
 10
988.0073545699
 20
192.8288938271
 30
0.0
 40
3.000000000000002
  0
ARC
  5
1E2
330
1F
100
AcDbEntity
  8
0
  6
Continuous
 62
     7
370
    25
100
AcDbCircle
 10
982.0488656807
 20
205.5734206507
 30
0.0
 40
1.942508566655362
100
AcDbArc
 50
88.2745645851
 51
178.1637932023
  0
LINE
  5
1E3
330
1F
100
AcDbEntity
  8
0
  6
Continuous
 62
     7
370
    25
100
AcDbLine
 10
980.1073545699
 20
205.6356632266
 30
0.0
 11
980.1073545699
 21
206.3197035132
 31
0.0
  0
ARC
  5
1E4
330
1F
100
AcDbEntity
  8
0
  6
Continuous
 62
     7
370
    25
100
AcDbCircle
 10
982.0488656807
 20
206.2574609374
 30
0.0
 40
1.942508566655363
100
AcDbArc
 50
88.2745645851
 51
178.1637932023
  0
LINE
  5
1E5
330
1F
100
AcDbEntity
  8
0
  6
Continuous
 62
     7
370
    25
100
AcDbLine
 10
982.1073545699
 20
208.1990887548
 30
0.0
 11
994.1073545699
 21
208.1990887548
 31
0.0
  0
LINE
  5
1E6
330
1F
100
AcDbEntity
  8
0
  6
Continuous
 62
     7
370
    25
100
AcDbLine
 10
982.1073545699
 20
207.5150484681
 30
0.0
 11
994.1073545699
 21
207.5150484681
 31
0.0
  0
LINE
  5
1E7
330
1F
100
AcDbEntity
  8
0
  6
Continuous
 62
     7
370
    25
100
AcDbLine
 10
980.1073545699
 20
200.4945869897
 30
0.0
 11
980.1073545699
 21
205.6356632266
 31
0.0
  0
ARC
  5
1E8
330
1F
100
AcDbEntity
  8
0
  6
Continuous
 62
     7
370
    25
100
AcDbCircle
 10
994.1658434591
 20
205.5734206507
 30
0.0
 40
1.942508566655382
100
AcDbArc
 50
1.8362067977
 51
91.7254354149
  0
LINE
  5
1E9
330
1F
100
AcDbEntity
  8
0
  6
Continuous
 62
     7
370
    25
100
AcDbLine
 10
996.1073545699
 20
205.6356632266
 30
0.0
 11
996.1073545699
 21
200.4945869897
 31
0.0
  0
LINE
  5
1EA
330
1F
100
AcDbEntity
  8
0
  6
Continuous
 62
     7
370
    25
100
AcDbLine
 10
996.1073545699
 20
206.3197035132
 30
0.0
 11
996.1073545699
 21
205.6356632266
 31
0.0
  0
ARC
  5
1EB
330
1F
100
AcDbEntity
  8
0
  6
Continuous
 62
     7
370
    25
100
AcDbCircle
 10
994.1658434591
 20
206.2574609374
 30
0.0
 40
1.942508566655363
100
AcDbArc
 50
1.8362067977
 51
91.7254354149
  0
LINE
  5
1EC
330
1F
100
AcDbEntity
  8
0
  6
Continuous
 62
     7
370
    25
100
AcDbLine
 10
980.1073545699
 20
200.4945869897
 30
0.0
 11
980.1073545699
 21
200.1525668464
 31
0.0
  0
LINE
  5
1ED
330
1F
100
AcDbEntity
  8
0
  6
Continuous
 62
     7
370
    25
100
AcDbLine
 10
996.1073545699
 20
200.1525668464
 30
0.0
 11
996.1073545699
 21
200.4945869897
 31
0.0
  0
LINE
  5
1EE
330
1F
100
AcDbEntity
  8
0
  6
Continuous
 62
     7
370
    25
100
AcDbLine
 10
1006.6073545699
 20
200.3288938271
 30
0.0
 11
996.1073545699
 21
200.3288938271
 31
0.0
  0
CIRCLE
  5
1EF
330
1F
100
AcDbEntity
  8
0
  6
Continuous
 62
     7
370
    25
100
AcDbCircle
 10
988.0073545699
 20
192.8288938271
 30
0.0
 40
3.5
  0
LINE
  5
1F0
330
1F
100
AcDbEntity
  8
0
  6
Continuous
 62
     7
370
    25
100
AcDbLine
 10
982.1073545699
 20
185.3288938271
 30
0.0
 11
1006.6073545699
 21
185.3288938271
 31
0.0
  0
ARC
  5
1F1
330
1F
100
AcDbEntity
  8
0
  6
Continuous
 62
     7
370
    25
100
AcDbCircle
 10
982.1073545699
 20
187.3288938271
 30
0.0
 40
2.0
100
AcDbArc
 50
180.0
 51
270.0
  0
LINE
  5
1F2
330
1F
100
AcDbEntity
  8
0
  6
Continuous
 62
     7
370
    25
100
AcDbLine
 10
980.1073545699
 20
200.1525668464
 30
0.0
 11
980.1073545699
 21
187.3288938271
 31
0.0
  0
CIRCLE
  5
1F3
330
1F
100
AcDbEntity
  8
0
  6
Continuous
 62
     7
370
    25
100
AcDbCircle
 10
988.0073545699
 20
418.8288938271
 30
0.0
 40
2.458750000016702
  0
CIRCLE
  5
1F4
330
1F
100
AcDbEntity
  8
0
  6
Continuous
 62
     7
370
    25
100
AcDbCircle
 10
988.0073545699
 20
418.8288938271
 30
0.0
 40
3.000000000000015
  0
CIRCLE
  5
1F5
330
1F
100
AcDbEntity
  8
0
  6
Continuous
 62
     7
370
    25
100
AcDbCircle
 10
988.0073545699
 20
342.8288938271
 30
0.0
 40
2.458750000016497
  0
CIRCLE
  5
1F6
330
1F
100
AcDbEntity
  8
0
  6
Continuous
 62
     7
370
    25
100
AcDbCircle
 10
988.0073545699
 20
342.8288938271
 30
0.0
 40
3.000000000000015
  0
ARC
  5
1F7
330
1F
100
AcDbEntity
  8
0
  6
Continuous
 62
     7
370
    25
100
AcDbCircle
 10
864.2433501725
 20
504.6642175452
 30
0.0
 40
0.5
100
AcDbArc
 50
180.0
 51
0.0
  0
ARC
  5
1F8
330
1F
100
AcDbEntity
  8
0
  6
Continuous
 62
     7
370
    25
100
AcDbCircle
 10
864.2433501725
 20
516.2642175453
 30
0.0
 40
0.5000000000001137
100
AcDbArc
 50
0.0
 51
180.0
  0
LINE
  5
1F9
330
1F
100
AcDbEntity
  8
0
  6
Continuous
 62
     7
370
    25
100
AcDbLine
 10
859.9709316097
 20
515.8584001573
 30
0.0
 11
859.7433501725
 21
515.4642175452
 31
0.0
  0
LINE
  5
1FA
330
1F
100
AcDbEntity
  8
0
  6
Continuous
 62
     7
370
    25
100
AcDbLine
 10
874.2021001725
 20
513.4642175453
 30
0.0
 11
866.7433501725
 21
513.4642175453
 31
0.0
  0
LINE
  5
1FB
330
1F
100
AcDbEntity
  8
0
  6
Continuous
 62
     7
370
    25
100
AcDbLine
 10
866.7433501725
 20
507.4642175453
 30
0.0
 11
874.2021001725
 21
507.4642175453
 31
0.0
  0
LINE
  5
1FC
330
1F
100
AcDbEntity
  8
0
  6
Continuous
 62
     7
370
    25
100
AcDbLine
 10
874.2021001725
 20
507.4642175452
 30
0.0
 11
874.7433501725
 21
508.0054675452
 31
0.0
  0
LINE
  5
1FD
330
1F
100
AcDbEntity
  8
0
  6
Continuous
 62
     7
370
    25
100
AcDbLine
 10
874.7433501725
 20
512.9229675453
 30
0.0
 11
874.2021001725
 21
513.4642175453
 31
0.0
  0
LINE
  5
1FE
330
1F
100
AcDbEntity
  8
0
  6
Continuous
 62
     7
370
    25
100
AcDbLine
 10
859.7433501725
 20
505.4642175453
 30
0.0
 11
859.9709316097
 21
505.0700349332
 31
0.0
  0
LINE
  5
1FF
330
1F
100
AcDbEntity
  8
0
  6
Continuous
 62
     7
370
    25
100
AcDbLine
 10
851.3748974581
 20
528.5642175452
 30
0.0
 11
851.3748974581
 21
524.5642175453
 31
0.0
  0
LINE
  5
200
330
1F
100
AcDbEntity
  8
0
  6
Continuous
 62
     7
370
    25
100
AcDbLine
 10
851.3748974581
 20
524.5642175453
 30
0.0
 11
851.8748974581
 21
524.0642175453
 31
0.0
  0
LINE
  5
201
330
1F
100
AcDbEntity
  8
0
  6
Continuous
 62
     7
370
    25
100
AcDbLine
 10
857.1547342479
 20
524.5642175453
 30
0.0
 11
857.1547342479
 21
528.5642175452
 31
0.0
  0
LINE
  5
202
330
1F
100
AcDbEntity
  8
0
  6
Continuous
 62
     7
370
    25
100
AcDbLine
 10
856.6547342479
 20
524.0642175453
 30
0.0
 11
857.1547342479
 21
524.5642175453
 31
0.0
  0
LINE
  5
203
330
1F
100
AcDbEntity
  8
0
  6
Continuous
 62
     7
370
    25
100
AcDbLine
 10
851.4312394199
 20
528.5642175452
 30
0.0
 11
851.4312394199
 21
524.5642175453
 31
0.0
  0
LINE
  5
204
330
1F
100
AcDbEntity
  8
0
  6
Continuous
 62
     7
370
    25
100
AcDbLine
 10
851.4312394199
 20
524.5642175453
 30
0.0
 11
851.9312394199
 21
524.0642175453
 31
0.0
  0
LINE
  5
205
330
1F
100
AcDbEntity
  8
0
  6
Continuous
 62
     7
370
    25
100
AcDbLine
 10
-25.9187648817
 20
524.5642175453
 30
0.0
 11
-25.9187648817
 21
528.5642175453
 31
0.0
  0
LINE
  5
206
330
1F
100
AcDbEntity
  8
0
  6
Continuous
 62
     7
370
    25
100
AcDbLine
 10
-26.4187648817
 20
524.0642175453
 30
0.0
 11
-25.9187648817
 21
524.5642175453
 31
0.0
  0
LINE
  5
207
330
1F
100
AcDbEntity
  8
0
  6
Continuous
 62
     7
370
    25
100
AcDbLine
 10
-31.648309566
 20
524.5642175453
 30
0.0
 11
-31.148309566
 21
524.0642175453
 31
0.0
  0
LINE
  5
208
330
1F
100
AcDbEntity
  8
0
  6
Continuous
 62
     7
370
    25
100
AcDbLine
 10
-31.648309566
 20
528.5642175453
 30
0.0
 11
-31.648309566
 21
524.5642175453
 31
0.0
  0
LINE
  5
209
330
1F
100
AcDbEntity
  8
0
  6
Continuous
 62
     7
370
    25
100
AcDbLine
 10
874.4021001725
 20
513.4642175453
 30
0.0
 11
874.2021001725
 21
513.4642175453
 31
0.0
  0
LINE
  5
20A
330
1F
100
AcDbEntity
  8
0
  6
Continuous
 62
     7
370
    25
100
AcDbLine
 10
874.2021001725
 20
507.4642175453
 30
0.0
 11
874.4021001725
 21
507.4642175453
 31
0.0
  0
LINE
  5
20B
330
1F
100
AcDbEntity
  8
0
  6
Continuous
 62
     7
370
    25
100
AcDbLine
 10
874.4021001725
 20
507.4642175452
 30
0.0
 11
874.9433501725
 21
508.0054675452
 31
0.0
  0
LINE
  5
20C
330
1F
100
AcDbEntity
  8
0
  6
Continuous
 62
     7
370
    25
100
AcDbLine
 10
874.9433501725
 20
512.9229675453
 30
0.0
 11
874.4021001725
 21
513.4642175453
 31
0.0
  0
LINE
  5
20D
330
1F
100
AcDbEntity
  8
0
  6
Continuous
 62
     7
370
    25
100
AcDbLine
 10
-48.9153998275
 20
513.4642175453
 30
0.0
 11
-49.4566498275
 21
512.9229675453
 31
0.0
  0
LINE
  5
20E
330
1F
100
AcDbEntity
  8
0
  6
Continuous
 62
     7
370
    25
100
AcDbLine
 10
-49.4566498275
 20
508.0054675452
 30
0.0
 11
-48.9153998275
 21
507.4642175452
 31
0.0
  0
LINE
  5
20F
330
1F
100
AcDbEntity
  8
0
  6
Continuous
 62
     7
370
    25
100
AcDbLine
 10
-48.9153998275
 20
507.4642175453
 30
0.0
 11
-48.7153998275
 21
507.4642175453
 31
0.0
  0
LINE
  5
210
330
1F
100
AcDbEntity
  8
0
  6
Continuous
 62
     7
370
    25
100
AcDbLine
 10
-48.7153998275
 20
513.4642175453
 30
0.0
 11
-48.9153998275
 21
513.4642175453
 31
0.0
  0
ARC
  5
211
330
1F
100
AcDbEntity
  8
0
  6
Continuous
 62
     7
370
    25
100
AcDbCircle
 10
-38.7566498275
 20
516.2642175453
 30
0.0
 40
0.5
100
AcDbArc
 50
0.0
 51
180.0
  0
ARC
  5
212
330
1F
100
AcDbEntity
  8
0
  6
Continuous
 62
     7
370
    25
100
AcDbCircle
 10
-38.7566498275
 20
504.6642175452
 30
0.0
 40
0.5
100
AcDbArc
 50
180.0
 51
0.0
  0
LINE
  5
213
330
1F
100
AcDbEntity
  8
0
  6
Continuous
 62
     7
370
    25
100
AcDbLine
 10
-48.7153998275
 20
507.4642175453
 30
0.0
 11
-41.2566498275
 21
507.4642175453
 31
0.0
  0
LINE
  5
214
330
1F
100
AcDbEntity
  8
0
  6
Continuous
 62
     7
370
    25
100
AcDbLine
 10
-41.2566498275
 20
513.4642175453
 30
0.0
 11
-48.7153998275
 21
513.4642175453
 31
0.0
  0
LINE
  5
215
330
1F
100
AcDbEntity
  8
0
  6
Continuous
 62
     7
370
    25
100
AcDbLine
 10
-48.7153998275
 20
513.4642175453
 30
0.0
 11
-49.2566498275
 21
512.9229675453
 31
0.0
  0
LINE
  5
216
330
1F
100
AcDbEntity
  8
0
  6
Continuous
 62
     7
370
    25
100
AcDbLine
 10
-49.2566498275
 20
508.0054675452
 30
0.0
 11
-48.7153998275
 21
507.4642175452
 31
0.0
  0
LINE
  5
217
330
1F
100
AcDbEntity
  8
0
  6
Continuous
 62
     7
370
    25
100
AcDbLine
 10
-34.2566498275
 20
515.4642175452
 30
0.0
 11
-34.5861329233
 21
516.0348990073
 31
0.0
  0
LINE
  5
218
330
1F
100
AcDbEntity
  8
0
  6
Continuous
 62
     7
370
    25
100
AcDbLine
 10
-34.5861329233
 20
504.8935360832
 30
0.0
 11
-34.2566498275
 21
505.4642175453
 31
0.0
  0
LINE
  5
219
330
1F
100
AcDbEntity
  8
0
  6
Continuous
 62
     7
370
    25
100
AcDbLine
 10
-41.7566498275
 20
533.6642175453
 30
0.0
 11
-38.8172621362
 21
533.6642175453
 31
0.0
  0
LINE
  5
21A
330
1F
100
AcDbEntity
  8
0
  6
Continuous
 62
     7
370
    25
100
AcDbLine
 10
864.3039624811
 20
533.6642175453
 30
0.0
 11
867.2433501725
 21
533.6642175453
 31
0.0
  0
LINE
  5
21B
330
1F
100
AcDbEntity
  8
0
  6
Continuous
 62
     7
370
    25
100
AcDbLine
 10
-47.7566498275
 20
533.6642175453
 30
0.0
 11
-41.7566498275
 21
533.6642175453
 31
0.0
  0
LINE
  5
21C
330
1F
100
AcDbEntity
  8
0
  6
Continuous
 62
     7
370
    25
100
AcDbLine
 10
867.2433501725
 20
533.6642175453
 30
0.0
 11
873.2433501725
 21
533.6642175453
 31
0.0
  0
SPLINE
  5
21D
330
1F
100
AcDbEntity
  8
0
  6
Continuous
 62
     7
370
    25
100
AcDbSpline
210
0.0
220
0.0
230
1.0
 70
    24
 71
     3
 72
    19
 73
    15
 74
     0
 42
0.000000001
 43
0.00000001
 40
0.0
 40
0.0
 40
0.0
 40
0.0
 40
0.1260638187928847
 40
0.1939261817305607
 40
0.2632286813759845
 40
0.3325311810214077
 40
0.4003935439590842
 40
0.5264573627519687
 40
0.6525211815448538
 40
0.7203835444825297
 40
0.7896860441279526
 40
0.8589885437733766
 40
0.9268509067110526
 40
1.0
 40
1.0
 40
1.0
 40
1.0
 10
863.7433501724774
 20
516.1916059006325
 30
0.0
 10
863.7433501724773
 20
516.0000179896961
 30
0.0
 10
863.7433501724773
 20
515.7052949487048
 30
0.0
 10
863.7433501724776
 20
514.7780404258643
 30
0.0
 10
863.7433501724773
 20
513.8924843853317
 30
0.0
 10
863.7433501724776
 20
512.8560831757965
 30
0.0
 10
863.7433501724776
 20
511.412129803147
 30
0.0
 10
863.7433501724773
 20
509.5273022204384
 30
0.0
 10
863.7433501724773
 20
507.7542920186119
 30
0.0
 10
863.7433501724776
 20
506.5319883968716
 30
0.0
 10
863.7433501724773
 20
505.7313016816535
 30
0.0
 10
863.7433501724776
 20
505.1458110988805
 30
0.0
 10
863.7433501724773
 20
504.7179249603275
 30
0.0
 10
863.7433501724773
 20
504.7484372122302
 30
0.0
 10
863.7433501724774
 20
504.7642653131562
 30
0.0
  0
SPLINE
  5
21E
330
1F
100
AcDbEntity
  8
0
  6
Continuous
 62
     7
370
    25
100
AcDbSpline
210
0.0
220
0.0
230
1.0
 70
     8
 71
     3
 72
     8
 73
     4
 74
     0
 42
0.000000001
 43
0.00000001
 40
0.0
 40
0.0
 40
0.0
 40
0.0
 40
1.0
 40
1.0
 40
1.0
 40
1.0
 10
859.7433501724847
 20
509.6755197531963
 30
0.0
 10
859.7433501724847
 20
508.7025754374167
 30
0.0
 10
859.9176654728641
 20
507.7562601899642
 30
0.0
 10
860.189932159876
 20
506.8249083689062
 30
0.0
  0
SPLINE
  5
21F
330
1F
100
AcDbEntity
  8
0
  6
Continuous
 62
     7
370
    25
100
AcDbSpline
210
0.0
220
0.0
230
1.0
 70
     8
 71
     3
 72
     8
 73
     4
 74
     0
 42
0.000000001
 43
0.00000001
 40
0.0
 40
0.0
 40
0.0
 40
0.0
 40
1.0
 40
1.0
 40
1.0
 40
1.0
 10
860.189932159876
 20
512.5261311374867
 30
0.0
 10
859.9176654728645
 20
511.5947793164303
 30
0.0
 10
859.7433501724847
 20
510.6484640689742
 30
0.0
 10
859.7433501724847
 20
509.6755197531963
 30
0.0
  0
LINE
  5
220
330
1F
100
AcDbEntity
  8
0
  6
Continuous
 62
     7
370
    25
100
AcDbLine
 10
863.7433501725
 20
512.5261311375
 30
0.0
 11
860.1899321599
 21
512.5261311375
 31
0.0
  0
LINE
  5
221
330
1F
100
AcDbEntity
  8
0
  6
Continuous
 62
     7
370
    25
100
AcDbLine
 10
863.7433501725
 20
506.8249083689
 30
0.0
 11
860.1899321599
 21
506.8249083689
 31
0.0
  0
LINE
  5
222
330
1F
100
AcDbEntity
  8
0
  6
Continuous
 62
     7
370
    25
100
AcDbLine
 10
859.7433501725
 20
514.3457857257
 30
0.0
 11
859.7433501725
 21
509.6755197532
 31
0.0
  0
SPLINE
  5
223
330
1F
100
AcDbEntity
  8
0
  6
Continuous
 62
     7
370
    25
100
AcDbSpline
210
0.0
220
0.0
230
1.0
 70
     8
 71
     3
 72
     8
 73
     4
 74
     0
 42
0.000000001
 43
0.00000001
 40
0.0
 40
0.0
 40
0.0
 40
0.0
 40
1.0
 40
1.0
 40
1.0
 40
1.0
 10
859.7433501724846
 20
514.345785725666
 30
0.0
 10
859.7433501724846
 20
513.7247180494468
 30
0.0
 10
859.917665472864
 20
513.1206487289583
 30
0.0
 10
860.189932159876
 20
512.526131137493
 30
0.0
  0
SPLINE
  5
224
330
1F
100
AcDbEntity
  8
0
  6
Continuous
 62
     7
370
    25
100
AcDbSpline
210
0.0
220
0.0
230
1.0
 70
     8
 71
     3
 72
     8
 73
     4
 74
     0
 42
0.000000001
 43
0.00000001
 40
0.0
 40
0.0
 40
0.0
 40
0.0
 40
1.0
 40
1.0
 40
1.0
 40
1.0
 10
860.189932159876
 20
516.1654403138391
 30
0.0
 10
859.9176654728645
 20
515.5709227223749
 30
0.0
 10
859.7433501724846
 20
514.9668534018842
 30
0.0
 10
859.7433501724846
 20
514.345785725666
 30
0.0
  0
LINE
  5
225
330
1F
100
AcDbEntity
  8
0
  6
Continuous
 62
     7
370
    25
100
AcDbLine
 10
863.7433501725
 20
516.1654403138
 30
0.0
 11
860.1899321599
 21
516.1654403138
 31
0.0
  0
LINE
  5
226
330
1F
100
AcDbEntity
  8
0
  6
Continuous
 62
     7
370
    25
100
AcDbLine
 10
859.7433501725
 20
509.6755197532
 30
0.0
 11
859.7433501725
 21
505.7939515728
 31
0.0
  0
SPLINE
  5
227
330
1F
100
AcDbEntity
  8
0
  6
Continuous
 62
     7
370
    25
100
AcDbSpline
210
0.0
220
0.0
230
1.0
 70
     8
 71
     3
 72
     8
 73
     4
 74
     0
 42
0.000000001
 43
0.00000001
 40
0.0
 40
0.0
 40
0.0
 40
0.0
 40
1.0
 40
1.0
 40
1.0
 40
1.0
 10
860.1899321598759
 20
506.824908368901
 30
0.0
 10
859.9176654728644
 20
506.4880741393088
 30
0.0
 10
859.7433501724845
 20
506.1458282123433
 30
0.0
 10
859.7433501724845
 20
505.7939515727835
 30
0.0
  0
SPLINE
  5
228
330
1F
100
AcDbEntity
  8
0
  6
Continuous
 62
     7
370
    25
100
AcDbSpline
210
0.0
220
0.0
230
1.0
 70
     8
 71
     3
 72
     8
 73
     4
 74
     0
 42
0.000000001
 43
0.00000001
 40
0.0
 40
0.0
 40
0.0
 40
0.0
 40
1.0
 40
1.0
 40
1.0
 40
1.0
 10
859.7433501724845
 20
505.7939515727835
 30
0.0
 10
859.7433501724845
 20
505.442074933223
 30
0.0
 10
859.917665472864
 20
505.0998290062589
 30
0.0
 10
860.189932159876
 20
504.7629947766659
 30
0.0
  0
LINE
  5
229
330
1F
100
AcDbEntity
  8
0
  6
Continuous
 62
     7
370
    25
100
AcDbLine
 10
863.7433501725
 20
504.7629947767
 30
0.0
 11
860.1899321599
 21
504.7629947767
 31
0.0
  0
LINE
  5
22A
330
1F
100
AcDbEntity
  8
0
  6
Continuous
 62
     7
370
    25
100
AcDbLine
 10
860.0397259296
 20
515.8186817382
 30
0.0
 11
860.1899321599
 21
516.1654403138
 31
0.0
  0
LINE
  5
22B
330
1F
100
AcDbEntity
  8
0
  6
Continuous
 62
     7
370
    25
100
AcDbLine
 10
859.7433501725
 20
515.4642175452
 30
0.0
 11
859.7433501725
 21
514.3457857257
 31
0.0
  0
LINE
  5
22C
330
1F
100
AcDbEntity
  8
0
  6
Continuous
 62
     7
370
    25
100
AcDbLine
 10
874.2021001725
 20
507.4642175453
 30
0.0
 11
874.2021001725
 21
513.4642175453
 31
0.0
  0
LINE
  5
22D
330
1F
100
AcDbEntity
  8
0
  6
Continuous
 62
     7
370
    25
100
AcDbLine
 10
874.7433501725
 20
510.076375406
 30
0.0
 11
874.7433501725
 21
512.9229675453
 31
0.0
  0
LINE
  5
22E
330
1F
100
AcDbEntity
  8
0
  6
Continuous
 62
     7
370
    25
100
AcDbLine
 10
874.7433501725
 20
508.0054675452
 30
0.0
 11
874.7433501725
 21
510.076375406
 31
0.0
  0
LINE
  5
22F
330
1F
100
AcDbEntity
  8
0
  6
Continuous
 62
     7
370
    25
100
AcDbLine
 10
859.7433501725
 20
505.7939515728
 30
0.0
 11
859.7433501725
 21
505.4642175453
 31
0.0
  0
LINE
  5
230
330
1F
100
AcDbEntity
  8
0
  6
Continuous
 62
     7
370
    25
100
AcDbLine
 10
-33.5066498275
 20
528.5642175453
 30
0.0
 11
-33.5066498275
 21
529.0642175453
 31
0.0
  0
LINE
  5
231
330
1F
100
AcDbEntity
  8
0
  6
Continuous
 62
     7
370
    25
100
AcDbLine
 10
-24.0066498275
 20
528.5642175453
 30
0.0
 11
-33.5066498275
 21
528.5642175453
 31
0.0
  0
LINE
  5
232
330
1F
100
AcDbEntity
  8
0
  6
Continuous
 62
     7
370
    25
100
AcDbLine
 10
-24.0066498275
 20
529.0642175453
 30
0.0
 11
-24.0066498275
 21
528.5642175453
 31
0.0
  0
LINE
  5
233
330
1F
100
AcDbEntity
  8
0
  6
Continuous
 62
     7
370
    25
100
AcDbLine
 10
-33.5066498275
 20
528.5642175453
 30
0.0
 11
-34.2700498275
 21
528.5642175453
 31
0.0
  0
ARC
  5
234
330
1F
100
AcDbEntity
  8
0
  6
Continuous
 62
     7
370
    25
100
AcDbCircle
 10
-34.2700498275
 20
529.8008175453
 30
0.0
 40
1.236600000000067
100
AcDbArc
 50
216.5600911005
 51
270.0
  0
ARC
  5
235
330
1F
100
AcDbEntity
  8
0
  6
Continuous
 62
     7
370
    25
100
AcDbCircle
 10
-23.2432498275
 20
529.8008175453
 30
0.0
 40
1.236600000000067
100
AcDbArc
 50
270.0
 51
323.4399088995
  0
LINE
  5
236
330
1F
100
AcDbEntity
  8
0
  6
Continuous
 62
     7
370
    25
100
AcDbLine
 10
-23.2432498275
 20
528.5642175453
 30
0.0
 11
-24.0066498275
 21
528.5642175453
 31
0.0
  0
ARC
  5
237
330
1F
100
AcDbEntity
  8
0
  6
Continuous
 62
     7
370
    25
100
AcDbCircle
 10
-41.7566498275
 20
533.0642175453
 30
0.0
 40
3.000000000000114
100
AcDbArc
 50
0.0
 51
90.0
  0
LINE
  5
238
330
1F
100
AcDbEntity
  8
0
  6
Continuous
 62
     7
370
    25
100
AcDbLine
 10
-53.7566498275
 20
536.0642175453
 30
0.0
 11
-41.7566498275
 21
536.0642175453
 31
0.0
  0
ARC
  5
239
330
1F
100
AcDbEntity
  8
0
  6
Continuous
 62
     7
370
    25
100
AcDbCircle
 10
-53.7566498275
 20
533.0642175453
 30
0.0
 40
3.000000000000114
100
AcDbArc
 50
90.0
 51
180.0
  0
LINE
  5
23A
330
1F
100
AcDbEntity
  8
0
  6
Continuous
 62
     7
370
    25
100
AcDbLine
 10
-56.7566498275
 20
532.0642175453
 30
0.0
 11
-56.7566498275
 21
533.0642175453
 31
0.0
  0
ARC
  5
23B
330
1F
100
AcDbEntity
  8
0
  6
Continuous
 62
     7
370
    25
100
AcDbCircle
 10
-59.7566498275
 20
532.0642175453
 30
0.0
 40
3.0
100
AcDbArc
 50
270.0
 51
0.0
  0
LINE
  5
23C
330
1F
100
AcDbEntity
  8
0
  6
Continuous
 62
     7
370
    25
100
AcDbLine
 10
-83.2859391494
 20
529.0642175453
 30
0.0
 11
-59.7566498275
 21
529.0642175453
 31
0.0
  0
LINE
  5
23D
330
1F
100
AcDbEntity
  8
0
  6
Continuous
 62
     7
370
    25
100
AcDbLine
 10
908.7726394944
 20
538.6642175453
 30
0.0
 11
908.7726394944
 21
529.0642175453
 31
0.0
  0
LINE
  5
23E
330
1F
100
AcDbEntity
  8
0
  6
Continuous
 62
     7
370
    25
100
AcDbLine
 10
885.2433501725
 20
529.0642175453
 30
0.0
 11
908.7726394944
 21
529.0642175453
 31
0.0
  0
ARC
  5
23F
330
1F
100
AcDbEntity
  8
0
  6
Continuous
 62
     7
370
    25
100
AcDbCircle
 10
885.2433501725
 20
532.0642175453
 30
0.0
 40
3.0
100
AcDbArc
 50
180.0
 51
270.0
  0
LINE
  5
240
330
1F
100
AcDbEntity
  8
0
  6
Continuous
 62
     7
370
    25
100
AcDbLine
 10
882.2433501725
 20
532.0642175453
 30
0.0
 11
882.2433501725
 21
533.0642175453
 31
0.0
  0
ARC
  5
241
330
1F
100
AcDbEntity
  8
0
  6
Continuous
 62
     7
370
    25
100
AcDbCircle
 10
879.2433501725
 20
533.0642175453
 30
0.0
 40
3.000000000000114
100
AcDbArc
 50
0.0
 51
90.0
  0
LINE
  5
242
330
1F
100
AcDbEntity
  8
0
  6
Continuous
 62
     7
370
    25
100
AcDbLine
 10
879.2433501725
 20
536.0642175453
 30
0.0
 11
867.2433501725
 21
536.0642175453
 31
0.0
  0
ARC
  5
243
330
1F
100
AcDbEntity
  8
0
  6
Continuous
 62
     7
370
    25
100
AcDbCircle
 10
867.2433501725
 20
533.0642175453
 30
0.0
 40
3.000000000000114
100
AcDbArc
 50
90.0
 51
180.0
  0
LINE
  5
244
330
1F
100
AcDbEntity
  8
0
  6
Continuous
 62
     7
370
    25
100
AcDbLine
 10
864.2433501725
 20
532.0642175453
 30
0.0
 11
864.2433501725
 21
533.0642175453
 31
0.0
  0
ARC
  5
245
330
1F
100
AcDbEntity
  8
0
  6
Continuous
 62
     7
370
    25
100
AcDbCircle
 10
861.2433501725
 20
532.0642175453
 30
0.0
 40
3.000000000000114
100
AcDbArc
 50
270.0
 51
0.0
  0
LINE
  5
246
330
1F
100
AcDbEntity
  8
0
  6
Continuous
 62
     7
370
    25
100
AcDbLine
 10
-35.7566498275
 20
529.0642175453
 30
0.0
 11
861.2433501725
 21
529.0642175453
 31
0.0
  0
ARC
  5
247
330
1F
100
AcDbEntity
  8
0
  6
Continuous
 62
     7
370
    25
100
AcDbCircle
 10
-35.7566498275
 20
532.0642175453
 30
0.0
 40
3.000000000000007
100
AcDbArc
 50
180.0
 51
270.0
  0
LINE
  5
248
330
1F
100
AcDbEntity
  8
0
  6
Continuous
 62
     7
370
    25
100
AcDbLine
 10
-38.7566498275
 20
532.0642175453
 30
0.0
 11
-38.7566498275
 21
533.0642175453
 31
0.0
  0
LINE
  5
249
330
1F
100
AcDbEntity
  8
0
  6
Continuous
 62
     7
370
    25
100
AcDbLine
 10
-83.2859391494
 20
538.6642175453
 30
0.0
 11
-83.2859391494
 21
529.0642175453
 31
0.0
  0
SPLINE
  5
24A
330
1F
100
AcDbEntity
  8
0
  6
Continuous
 62
     7
370
    25
100
AcDbSpline
210
0.0
220
0.0
230
1.0
 70
     8
 71
     3
 72
    20
 73
    16
 74
     0
 42
0.000000001
 43
0.00000001
 40
0.0
 40
0.0
 40
0.0
 40
0.0
 40
0.125
 40
0.125
 40
0.2499999999999999
 40
0.2499999999999999
 40
0.3749999999999999
 40
0.3749999999999999
 40
0.4999999999999999
 40
0.4999999999999999
 40
0.7499999999999998
 40
0.7499999999999998
 40
0.8749999999999998
 40
0.8749999999999998
 40
1.0
 40
1.0
 40
1.0
 40
1.0
 10
907.8433501724774
 20
541.0642175452529
 30
0.0
 10
907.882390903332
 20
541.0642175452529
 30
0.0
 10
907.920909607532
 20
541.0486809847781
 30
0.0
 10
907.9983163588399
 20
540.9873626328175
 30
0.0
 10
908.0374607768265
 20
540.9409388872307
 30
0.0
 10
908.1146115307415
 20
540.8209880170766
 30
0.0
 10
908.1529391124825
 20
540.7473833727931
 30
0.0
 10
908.2304854329592
 20
540.5726530066976
 30
0.0
 10
908.2694616406277
 20
540.471802377796
 30
0.0
 10
908.3849564970725
 20
540.1405170978121
 30
0.0
 10
908.462868940743
 20
539.8728369364281
 30
0.0
 10
908.5783488661439
 20
539.4401629103728
 30
0.0
 10
908.6172146620089
 20
539.2886448235217
 30
0.0
 10
908.6949889956777
 20
538.9792190661356
 30
0.0
 10
908.7335987626321
 20
538.8225967364418
 30
0.0
 10
908.7726394943587
 20
538.6642175452531
 30
0.0
  0
SPLINE
  5
24B
330
1F
100
AcDbEntity
  8
0
  6
Continuous
 62
     7
370
    25
100
AcDbSpline
210
0.0
220
0.0
230
1.0
 70
     8
 71
     3
 72
    20
 73
    16
 74
     0
 42
0.000000001
 43
0.00000001
 40
0.0
 40
0.0
 40
0.0
 40
0.0
 40
0.125
 40
0.125
 40
0.2500000000000001
 40
0.2500000000000001
 40
0.3750000000000001
 40
0.3750000000000001
 40
0.5
 40
0.5
 40
0.7499999999999999
 40
0.7499999999999999
 40
0.875
 40
0.875
 40
1.0
 40
1.0
 40
1.0
 40
1.0
 10
-83.2859391494038
 20
538.6642175452531
 30
0.0
 10
-83.24689841854926
 20
538.8225967329037
 30
0.0
 10
-83.20837971434946
 20
538.9788424575954
 30
0.0
 10
-83.13097296304161
 20
539.286834307012
 30
0.0
 10
-83.09182854505498
 20
539.439478414483
 30
0.0
 10
-83.0146777911398
 20
539.72856270367
 30
0.0
 10
-82.97635020939886
 20
539.8663672418542
 30
0.0
 10
-82.89880388892217
 20
540.1279859174931
 30
0.0
 10
-82.85982768125349
 20
540.2507322241757
 30
0.0
 10
-82.74433282480842
 20
540.5820566011233
 30
0.0
 10
-82.66642038113831
 20
540.7610677251516
 30
0.0
 10
-82.5509404557374
 20
540.9406828245326
 30
0.0
 10
-82.51207465987254
 20
540.9869271734002
 30
0.0
 10
-82.43430032620402
 20
541.0486804794115
 30
0.0
 10
-82.39569055924927
 20
541.0642175452529
 30
0.0
 10
-82.35664982752256
 20
541.0642175452529
 30
0.0
  0
LINE
  5
24C
330
1F
100
AcDbEntity
  8
0
  6
Continuous
 62
     7
370
    25
100
AcDbLine
 10
-82.3566498275
 20
541.0642175453
 30
0.0
 11
907.8433501725
 21
541.0642175453
 31
0.0
  0
SPLINE
  5
24D
330
1F
100
AcDbEntity
  8
0
  6
Continuous
 62
     7
370
    25
100
AcDbSpline
210
0.0
220
0.0
230
1.0
 70
     8
 71
     3
 72
     9
 73
     5
 74
     0
 42
0.000000001
 43
0.00000001
 40
0.0
 40
0.0
 40
0.0
 40
0.0
 40
0.4825784287295053
 40
1.0
 40
1.0
 40
1.0
 40
1.0
 10
-83.1328200594687
 20
539.2767572844315
 30
0.0
 10
-83.19662825253016
 20
539.188622943115
 30
0.0
 10
-83.3288517197695
 20
539.0059907820618
 30
0.0
 10
-83.34717102422596
 20
538.7807578980172
 30
0.0
 10
-83.3566498275225
 20
538.6642175452531
 30
0.0
  0
LINE
  5
24E
330
1F
100
AcDbEntity
  8
0
  6
Continuous
 62
     7
370
    25
100
AcDbLine
 10
-84.7566498275
 20
538.6642175453
 30
0.0
 11
-83.3566498275
 21
538.6642175453
 31
0.0
  0
SPLINE
  5
24F
330
1F
100
AcDbEntity
  8
0
  6
Continuous
 62
     7
370
    25
100
AcDbSpline
210
0.0
220
0.0
230
1.0
 70
     8
 71
     3
 72
    20
 73
    16
 74
     0
 42
0.000000001
 43
0.00000001
 40
0.0
 40
0.0
 40
0.0
 40
0.0
 40
0.1249999999999953
 40
0.1249999999999953
 40
0.2499999999999905
 40
0.2499999999999905
 40
0.3749999999999858
 40
0.3749999999999858
 40
0.499999999999981
 40
0.499999999999981
 40
0.7499999999999986
 40
0.7499999999999986
 40
0.8749999999999994
 40
0.8749999999999994
 40
1.0
 40
1.0
 40
1.0
 40
1.0
 10
-82.3566498275225
 20
541.064217545253
 30
0.0
 10
-82.51502901517327
 20
541.064217545253
 30
0.0
 10
-82.67127473986486
 20
541.0486809847781
 30
0.0
 10
-82.97926658928145
 20
540.9873626328175
 30
0.0
 10
-83.1319106967528
 20
540.9409388872307
 30
0.0
 10
-83.42099498593986
 20
540.8209880170766
 30
0.0
 10
-83.55879952412376
 20
540.7473833727931
 30
0.0
 10
-83.82041819976271
 20
540.5726530066976
 30
0.0
 10
-83.94316450644551
 20
540.471802377796
 30
0.0
 10
-84.27448888339295
 20
540.1405170978121
 30
0.0
 10
-84.45350000742108
 20
539.8728369364281
 30
0.0
 10
-84.63311510680217
 20
539.4401629103728
 30
0.0
 10
-84.67935945566978
 20
539.2886448235217
 30
0.0
 10
-84.74111276168122
 20
538.9792190661356
 30
0.0
 10
-84.75664982752279
 20
538.8225967364417
 30
0.0
 10
-84.75664982752251
 20
538.6642175452531
 30
0.0
  0
LINE
  5
250
330
1F
100
AcDbEntity
  8
0
  6
Continuous
 62
     7
370
    25
100
AcDbLine
 10
910.2433501725
 20
538.6642175453
 30
0.0
 11
908.8433501725
 21
538.6642175453
 31
0.0
  0
SPLINE
  5
251
330
1F
100
AcDbEntity
  8
0
  6
Continuous
 62
     7
370
    25
100
AcDbSpline
210
0.0
220
0.0
230
1.0
 70
     8
 71
     3
 72
     9
 73
     5
 74
     0
 42
0.000000001
 43
0.00000001
 40
0.0
 40
0.0
 40
0.0
 40
0.0
 40
0.678450800572634
 40
1.0
 40
1.0
 40
1.0
 40
1.0
 10
908.8433501724775
 20
538.6642175452531
 30
0.0
 10
908.8301006020132
 20
538.8149247497063
 30
0.0
 10
908.810571447573
 20
539.0370590656008
 30
0.0
 10
908.6697237939337
 20
539.20389217049
 30
0.0
 10
908.6244343436649
 20
539.2575372218051
 30
0.0
  0
SPLINE
  5
252
330
1F
100
AcDbEntity
  8
0
  6
Continuous
 62
     7
370
    25
100
AcDbSpline
210
0.0
220
0.0
230
1.0
 70
     8
 71
     3
 72
    20
 73
    16
 74
     0
 42
0.000000001
 43
0.00000001
 40
0.0
 40
0.0
 40
0.0
 40
0.0
 40
0.1249999999999996
 40
0.1249999999999996
 40
0.2499999999999993
 40
0.2499999999999993
 40
0.3749999999999989
 40
0.3749999999999989
 40
0.4999999999999987
 40
0.4999999999999987
 40
0.749999999999998
 40
0.749999999999998
 40
0.874999999999999
 40
0.874999999999999
 40
1.0
 40
1.0
 40
1.0
 40
1.0
 10
910.2433501724774
 20
538.6642175452531
 30
0.0
 10
910.2433501724776
 20
538.8225967329038
 30
0.0
 10
910.2278136120027
 20
538.9788424575954
 30
0.0
 10
910.1664952600421
 20
539.2868343070121
 30
0.0
 10
910.1200715144554
 20
539.4394784144831
 30
0.0
 10
910.0001206443013
 20
539.7285627036701
 30
0.0
 10
909.9265160000177
 20
539.8663672418543
 30
0.0
 10
909.7517856339219
 20
540.1279859174932
 30
0.0
 10
909.6509350050206
 20
540.2507322241759
 30
0.0
 10
909.3196497250367
 20
540.5820566011236
 30
0.0
 10
909.0519695636528
 20
540.7610677251517
 30
0.0
 10
908.6192955375974
 20
540.9406828245327
 30
0.0
 10
908.4677774507461
 20
540.9869271734003
 30
0.0
 10
908.1583516933599
 20
541.0486804794116
 30
0.0
 10
908.0017293636663
 20
541.064217545253
 30
0.0
 10
907.8433501724774
 20
541.064217545253
 30
0.0
  0
LINE
  5
253
330
1F
100
AcDbEntity
  8
0
  6
Continuous
 62
     7
370
    25
100
AcDbLine
 10
-84.7566498275
 20
529.0642175453
 30
0.0
 11
-83.3566498275
 21
529.0642175453
 31
0.0
  0
LINE
  5
254
330
1F
100
AcDbEntity
  8
0
  6
Continuous
 62
     7
370
    25
100
AcDbLine
 10
-84.7566498275
 20
538.6642175453
 30
0.0
 11
-84.7566498275
 21
529.0642175453
 31
0.0
  0
LINE
  5
255
330
1F
100
AcDbEntity
  8
0
  6
Continuous
 62
     7
370
    25
100
AcDbLine
 10
-83.3566498275
 20
538.6642175453
 30
0.0
 11
-83.3566498275
 21
529.0642175453
 31
0.0
  0
LINE
  5
256
330
1F
100
AcDbEntity
  8
0
  6
Continuous
 62
     7
370
    25
100
AcDbLine
 10
910.2433501725
 20
529.0642175453
 30
0.0
 11
908.8433501725
 21
529.0642175453
 31
0.0
  0
LINE
  5
257
330
1F
100
AcDbEntity
  8
0
  6
Continuous
 62
     7
370
    25
100
AcDbLine
 10
908.8433501725
 20
538.6642175453
 30
0.0
 11
908.8433501725
 21
529.0642175453
 31
0.0
  0
LINE
  5
258
330
1F
100
AcDbEntity
  8
0
  6
Continuous
 62
     7
370
    25
100
AcDbLine
 10
910.2433501725
 20
538.6642175453
 30
0.0
 11
910.2433501725
 21
529.0642175453
 31
0.0
  0
LINE
  5
259
330
1F
100
AcDbEntity
  8
0
  6
Continuous
 62
     7
370
    25
100
AcDbLine
 10
851.3748974581
 20
524.5642175453
 30
0.0
 11
851.4312394199
 21
524.5642175453
 31
0.0
  0
LINE
  5
25A
330
1F
100
AcDbEntity
  8
0
  6
Continuous
 62
     7
370
    25
100
AcDbLine
 10
851.9312394199
 20
524.0642175453
 30
0.0
 11
851.8748974581
 21
524.0642175453
 31
0.0
  0
LINE
  5
25B
330
1F
100
AcDbEntity
  8
0
  6
Continuous
 62
     7
370
    25
100
AcDbLine
 10
852.3213086987
 20
524.5642175453
 30
0.0
 11
855.7682983547
 21
524.5642175453
 31
0.0
  0
LINE
  5
25C
330
1F
100
AcDbEntity
  8
0
  6
Continuous
 62
     7
370
    25
100
AcDbLine
 10
855.3622429784
 20
524.0642175453
 30
0.0
 11
852.7770007364
 21
524.0642175453
 31
0.0
  0
LINE
  5
25D
330
1F
100
AcDbEntity
  8
0
  6
Continuous
 62
     7
370
    25
100
AcDbLine
 10
855.7682983547
 20
524.5642175453
 30
0.0
 11
856.778955753
 21
524.5642175453
 31
0.0
  0
LINE
  5
25E
330
1F
100
AcDbEntity
  8
0
  6
Continuous
 62
     7
370
    25
100
AcDbLine
 10
856.3729003767
 20
524.0642175453
 30
0.0
 11
855.3622429784
 21
524.0642175453
 31
0.0
  0
LINE
  5
25F
330
1F
100
AcDbEntity
  8
0
  6
Continuous
 62
     7
370
    25
100
AcDbLine
 10
851.6084712691
 20
524.5642175453
 30
0.0
 11
852.3213086987
 21
524.5642175453
 31
0.0
  0
LINE
  5
260
330
1F
100
AcDbEntity
  8
0
  6
Continuous
 62
     7
370
    25
100
AcDbLine
 10
852.7770007364
 20
524.0642175453
 30
0.0
 11
852.0641633068
 21
524.0642175453
 31
0.0
  0
LINE
  5
261
330
1F
100
AcDbEntity
  8
0
  6
Continuous
 62
     7
370
    25
100
AcDbLine
 10
856.778955753
 20
524.5642175453
 30
0.0
 11
857.1547342479
 21
524.5642175453
 31
0.0
  0
LINE
  5
262
330
1F
100
AcDbEntity
  8
0
  6
Continuous
 62
     7
370
    25
100
AcDbLine
 10
856.6547342479
 20
524.0642175453
 30
0.0
 11
856.3729003767
 21
524.0642175453
 31
0.0
  0
LINE
  5
263
330
1F
100
AcDbEntity
  8
0
  6
Continuous
 62
     7
370
    25
100
AcDbLine
 10
851.4312394199
 20
524.5642175453
 30
0.0
 11
851.6084712691
 21
524.5642175453
 31
0.0
  0
LINE
  5
264
330
1F
100
AcDbEntity
  8
0
  6
Continuous
 62
     7
370
    25
100
AcDbLine
 10
852.0641633068
 20
524.0642175453
 30
0.0
 11
851.9312394199
 21
524.0642175453
 31
0.0
  0
LINE
  5
265
330
1F
100
AcDbEntity
  8
0
  6
Continuous
 62
     7
370
    25
100
AcDbLine
 10
-28.0263144669
 20
524.5642175453
 30
0.0
 11
-25.9187648817
 21
524.5642175453
 31
0.0
  0
LINE
  5
266
330
1F
100
AcDbEntity
  8
0
  6
Continuous
 62
     7
370
    25
100
AcDbLine
 10
-26.4187648817
 20
524.0642175453
 30
0.0
 11
-27.9994270706
 21
524.0642175453
 31
0.0
  0
LINE
  5
267
330
1F
100
AcDbEntity
  8
0
  6
Continuous
 62
     7
370
    25
100
AcDbLine
 10
-27.9994270706
 20
524.0642175453
 30
0.0
 11
-29.7289717549
 21
524.0642175453
 31
0.0
  0
LINE
  5
268
330
1F
100
AcDbEntity
  8
0
  6
Continuous
 62
     7
370
    25
100
AcDbLine
 10
-29.7558591512
 20
524.5642175453
 30
0.0
 11
-28.0263144669
 21
524.5642175453
 31
0.0
  0
LINE
  5
269
330
1F
100
AcDbEntity
  8
0
  6
Continuous
 62
     7
370
    25
100
AcDbLine
 10
-29.7289717549
 20
524.0642175453
 30
0.0
 11
-31.148309566
 21
524.0642175453
 31
0.0
  0
LINE
  5
26A
330
1F
100
AcDbEntity
  8
0
  6
Continuous
 62
     7
370
    25
100
AcDbLine
 10
-31.648309566
 20
524.5642175453
 30
0.0
 11
-29.7558591512
 21
524.5642175453
 31
0.0
  0
LINE
  5
26B
330
1F
100
AcDbEntity
  8
0
  6
Continuous
 62
     7
370
    25
100
AcDbLine
 10
862.7433501725
 20
520.9642175453
 30
0.0
 11
863.9433501725
 21
520.9642175453
 31
0.0
  0
LINE
  5
26C
330
1F
100
AcDbEntity
  8
0
  6
Continuous
 62
     7
370
    25
100
AcDbLine
 10
863.9433501725
 20
501.9642175453
 30
0.0
 11
860.7433501725
 21
501.9642175453
 31
0.0
  0
LINE
  5
26D
330
1F
100
AcDbEntity
  8
0
  6
Continuous
 62
     7
370
    25
100
AcDbLine
 10
860.7433501725
 20
501.9642175453
 30
0.0
 11
860.7433501725
 21
480.9642175453
 31
0.0
  0
ARC
  5
26E
330
1F
100
AcDbEntity
  8
0
  6
Continuous
 62
     7
370
    25
100
AcDbCircle
 10
857.7433501725
 20
480.9642175453
 30
0.0
 40
3.000000000000057
100
AcDbArc
 50
270.0
 51
0.0
  0
LINE
  5
26F
330
1F
100
AcDbEntity
  8
0
  6
Continuous
 62
     7
370
    25
100
AcDbLine
 10
857.7433501725
 20
477.9642175453
 30
0.0
 11
813.7433501725
 21
477.9642175453
 31
0.0
  0
ARC
  5
270
330
1F
100
AcDbEntity
  8
0
  6
Continuous
 62
     7
370
    25
100
AcDbCircle
 10
813.7433501725
 20
480.9642175453
 30
0.0
 40
3.000000000000057
100
AcDbArc
 50
180.0
 51
270.0
  0
LINE
  5
271
330
1F
100
AcDbEntity
  8
0
  6
Continuous
 62
     7
370
    25
100
AcDbLine
 10
810.7433501725
 20
480.9642175453
 30
0.0
 11
810.7433501725
 21
497.0942175453
 31
0.0
  0
LINE
  5
272
330
1F
100
AcDbEntity
  8
0
  6
Continuous
 62
     7
370
    25
100
AcDbLine
 10
810.7433501725
 20
497.0942175453
 30
0.0
 11
808.2433501725
 21
497.0942175453
 31
0.0
  0
LINE
  5
273
330
1F
100
AcDbEntity
  8
0
  6
Continuous
 62
     7
370
    25
100
AcDbLine
 10
808.2433501725
 20
496.6021667377
 30
0.0
 11
808.2433501725
 21
497.0942175453
 31
0.0
  0
LINE
  5
274
330
1F
100
AcDbEntity
  8
0
  6
Continuous
 62
     7
370
    25
100
AcDbLine
 10
608.2433501725
 20
496.6021667377
 30
0.0
 11
608.2433501725
 21
497.0942175453
 31
0.0
  0
LINE
  5
275
330
1F
100
AcDbEntity
  8
0
  6
Continuous
 62
     7
370
    25
100
AcDbLine
 10
608.2433501725
 20
497.0942175453
 30
0.0
 11
605.7433501725
 21
497.0942175453
 31
0.0
  0
LINE
  5
276
330
1F
100
AcDbEntity
  8
0
  6
Continuous
 62
     7
370
    25
100
AcDbLine
 10
605.7433501725
 20
497.0942175453
 30
0.0
 11
605.7433501725
 21
480.9642175453
 31
0.0
  0
ARC
  5
277
330
1F
100
AcDbEntity
  8
0
  6
Continuous
 62
     7
370
    25
100
AcDbCircle
 10
602.7433501725
 20
480.9642175453
 30
0.0
 40
3.0
100
AcDbArc
 50
270.0
 51
0.0
  0
LINE
  5
278
330
1F
100
AcDbEntity
  8
0
  6
Continuous
 62
     7
370
    25
100
AcDbLine
 10
602.7433501725
 20
477.9642175453
 30
0.0
 11
518.2433501725
 21
477.9642175453
 31
0.0
  0
ARC
  5
279
330
1F
100
AcDbEntity
  8
0
  6
Continuous
 62
     7
370
    25
100
AcDbCircle
 10
518.2433501725
 20
480.9642175453
 30
0.0
 40
3.000000000000057
100
AcDbArc
 50
180.0
 51
270.0
  0
LINE
  5
27A
330
1F
100
AcDbEntity
  8
0
  6
Continuous
 62
     7
370
    25
100
AcDbLine
 10
515.2433501725
 20
480.9642175453
 30
0.0
 11
515.2433501725
 21
497.0942175453
 31
0.0
  0
LINE
  5
27B
330
1F
100
AcDbEntity
  8
0
  6
Continuous
 62
     7
370
    25
100
AcDbLine
 10
515.2433501725
 20
497.0942175453
 30
0.0
 11
512.7433501725
 21
497.0942175453
 31
0.0
  0
LINE
  5
27C
330
1F
100
AcDbEntity
  8
0
  6
Continuous
 62
     7
370
    25
100
AcDbLine
 10
512.7433501725
 20
496.6021667377
 30
0.0
 11
512.7433501725
 21
497.0942175453
 31
0.0
  0
LINE
  5
27D
330
1F
100
AcDbEntity
  8
0
  6
Continuous
 62
     7
370
    25
100
AcDbLine
 10
312.7433501725
 20
496.6021667377
 30
0.0
 11
312.7433501725
 21
497.0942175453
 31
0.0
  0
LINE
  5
27E
330
1F
100
AcDbEntity
  8
0
  6
Continuous
 62
     7
370
    25
100
AcDbLine
 10
312.7433501725
 20
497.0942175453
 30
0.0
 11
310.2433501725
 21
497.0942175453
 31
0.0
  0
LINE
  5
27F
330
1F
100
AcDbEntity
  8
0
  6
Continuous
 62
     7
370
    25
100
AcDbLine
 10
310.2433501725
 20
497.0942175453
 30
0.0
 11
310.2433501725
 21
480.9642175453
 31
0.0
  0
ARC
  5
280
330
1F
100
AcDbEntity
  8
0
  6
Continuous
 62
     7
370
    25
100
AcDbCircle
 10
307.2433501725
 20
480.9642175453
 30
0.0
 40
3.000000000000057
100
AcDbArc
 50
270.0
 51
0.0
  0
LINE
  5
281
330
1F
100
AcDbEntity
  8
0
  6
Continuous
 62
     7
370
    25
100
AcDbLine
 10
307.2433501725
 20
477.9642175453
 30
0.0
 11
222.7433501725
 21
477.9642175453
 31
0.0
  0
ARC
  5
282
330
1F
100
AcDbEntity
  8
0
  6
Continuous
 62
     7
370
    25
100
AcDbCircle
 10
222.7433501725
 20
480.9642175453
 30
0.0
 40
3.000000000000028
100
AcDbArc
 50
180.0
 51
270.0
  0
LINE
  5
283
330
1F
100
AcDbEntity
  8
0
  6
Continuous
 62
     7
370
    25
100
AcDbLine
 10
219.7433501725
 20
480.9642175453
 30
0.0
 11
219.7433501725
 21
497.0942175453
 31
0.0
  0
LINE
  5
284
330
1F
100
AcDbEntity
  8
0
  6
Continuous
 62
     7
370
    25
100
AcDbLine
 10
219.7433501725
 20
497.0942175453
 30
0.0
 11
217.2433501725
 21
497.0942175453
 31
0.0
  0
LINE
  5
285
330
1F
100
AcDbEntity
  8
0
  6
Continuous
 62
     7
370
    25
100
AcDbLine
 10
217.2433501725
 20
496.6021667377
 30
0.0
 11
217.2433501725
 21
497.0942175453
 31
0.0
  0
LINE
  5
286
330
1F
100
AcDbEntity
  8
0
  6
Continuous
 62
     7
370
    25
100
AcDbLine
 10
17.2433501725
 20
496.6021667377
 30
0.0
 11
17.2433501725
 21
497.0942175453
 31
0.0
  0
LINE
  5
287
330
1F
100
AcDbEntity
  8
0
  6
Continuous
 62
     7
370
    25
100
AcDbLine
 10
17.2433501725
 20
497.0942175453
 30
0.0
 11
14.7433501725
 21
497.0942175453
 31
0.0
  0
LINE
  5
288
330
1F
100
AcDbEntity
  8
0
  6
Continuous
 62
     7
370
    25
100
AcDbLine
 10
14.7433501725
 20
497.0942175453
 30
0.0
 11
14.7433501725
 21
480.9642175453
 31
0.0
  0
ARC
  5
289
330
1F
100
AcDbEntity
  8
0
  6
Continuous
 62
     7
370
    25
100
AcDbCircle
 10
11.7433501725
 20
480.9642175453
 30
0.0
 40
3.000000000000002
100
AcDbArc
 50
270.0
 51
0.0
  0
LINE
  5
28A
330
1F
100
AcDbEntity
  8
0
  6
Continuous
 62
     7
370
    25
100
AcDbLine
 10
11.7433501725
 20
477.9642175453
 30
0.0
 11
-32.2566498275
 21
477.9642175453
 31
0.0
  0
ARC
  5
28B
330
1F
100
AcDbEntity
  8
0
  6
Continuous
 62
     7
370
    25
100
AcDbCircle
 10
-32.2566498275
 20
480.9642175453
 30
0.0
 40
3.000000000000007
100
AcDbArc
 50
180.0
 51
270.0
  0
LINE
  5
28C
330
1F
100
AcDbEntity
  8
0
  6
Continuous
 62
     7
370
    25
100
AcDbLine
 10
-35.2566498275
 20
480.9642175453
 30
0.0
 11
-35.2566498275
 21
501.9642175453
 31
0.0
  0
LINE
  5
28D
330
1F
100
AcDbEntity
  8
0
  6
Continuous
 62
     7
370
    25
100
AcDbLine
 10
-35.2566498275
 20
501.9642175453
 30
0.0
 11
-38.4566498275
 21
501.9642175453
 31
0.0
  0
LINE
  5
28E
330
1F
100
AcDbEntity
  8
0
  6
Continuous
 62
     7
370
    25
100
AcDbLine
 10
-38.4566498275
 20
520.9642175453
 30
0.0
 11
-37.2566498275
 21
520.9642175453
 31
0.0
  0
LINE
  5
28F
330
1F
100
AcDbEntity
  8
0
  6
Continuous
 62
     7
370
    25
100
AcDbLine
 10
-37.2566498275
 20
520.9642175453
 30
0.0
 11
-37.2566498275
 21
521.1642175453
 31
0.0
  0
LINE
  5
290
330
1F
100
AcDbEntity
  8
0
  6
Continuous
 62
     7
370
    25
100
AcDbLine
 10
862.7433501725
 20
521.1642175453
 30
0.0
 11
862.7433501725
 21
520.9642175453
 31
0.0
  0
LINE
  5
291
330
1F
100
AcDbEntity
  8
0
  6
Continuous
 62
     7
370
    25
100
AcDbLine
 10
512.7433501725
 20
496.6021667377
 30
0.0
 11
512.7433501725
 21
495.7021667377
 31
0.0
  0
LINE
  5
292
330
1F
100
AcDbEntity
  8
0
  6
Continuous
 62
     7
370
    25
100
AcDbLine
 10
312.7433501725
 20
495.7021667377
 30
0.0
 11
312.7433501725
 21
496.6021667377
 31
0.0
  0
LINE
  5
293
330
1F
100
AcDbEntity
  8
0
  6
Continuous
 62
     7
370
    25
100
AcDbLine
 10
217.2433501725
 20
496.6021667377
 30
0.0
 11
217.2433501725
 21
495.7021667377
 31
0.0
  0
LINE
  5
294
330
1F
100
AcDbEntity
  8
0
  6
Continuous
 62
     7
370
    25
100
AcDbLine
 10
17.2433501725
 20
495.7021667377
 30
0.0
 11
17.2433501725
 21
496.6021667377
 31
0.0
  0
LINE
  5
295
330
1F
100
AcDbEntity
  8
0
  6
Continuous
 62
     7
370
    25
100
AcDbLine
 10
808.2433501725
 20
496.6021667377
 30
0.0
 11
808.2433501725
 21
495.7021667377
 31
0.0
  0
LINE
  5
296
330
1F
100
AcDbEntity
  8
0
  6
Continuous
 62
     7
370
    25
100
AcDbLine
 10
608.2433501725
 20
495.7021667377
 30
0.0
 11
608.2433501725
 21
496.6021667377
 31
0.0
  0
LINE
  5
297
330
1F
100
AcDbEntity
  8
0
  6
Continuous
 62
     7
370
    25
100
AcDbLine
 10
863.9433501725
 20
520.9642175453
 30
0.0
 11
864.7433501725
 21
520.9642175453
 31
0.0
  0
LINE
  5
298
330
1F
100
AcDbEntity
  8
0
  6
Continuous
 62
     7
370
    25
100
AcDbLine
 10
865.7433501725
 20
501.9642175453
 30
0.0
 11
865.7433501725
 21
502.5642175453
 31
0.0
  0
LINE
  5
299
330
1F
100
AcDbEntity
  8
0
  6
Continuous
 62
     7
370
    25
100
AcDbLine
 10
865.7433501725
 20
501.9642175453
 30
0.0
 11
863.9433501725
 21
501.9642175453
 31
0.0
  0
LINE
  5
29A
330
1F
100
AcDbEntity
  8
0
  6
Continuous
 62
     7
370
    25
100
AcDbLine
 10
-40.2566498275
 20
501.9642175453
 30
0.0
 11
-40.2566498275
 21
502.5642175453
 31
0.0
  0
LINE
  5
29B
330
1F
100
AcDbEntity
  8
0
  6
Continuous
 62
     7
370
    25
100
AcDbLine
 10
-39.2566498275
 20
520.9642175453
 30
0.0
 11
-38.4566498275
 21
520.9642175453
 31
0.0
  0
LINE
  5
29C
330
1F
100
AcDbEntity
  8
0
  6
Continuous
 62
     7
370
    25
100
AcDbLine
 10
-38.4566498275
 20
501.9642175453
 30
0.0
 11
-40.2566498275
 21
501.9642175453
 31
0.0
  0
LINE
  5
29D
330
1F
100
AcDbEntity
  8
0
  6
Continuous
 62
     7
370
    25
100
AcDbLine
 10
-37.2566498275
 20
521.1642175453
 30
0.0
 11
-37.2566498275
 21
522.9642175453
 31
0.0
  0
LINE
  5
29E
330
1F
100
AcDbEntity
  8
0
  6
Continuous
 62
     7
370
    25
100
AcDbLine
 10
862.7433501725
 20
522.9642175453
 30
0.0
 11
862.7433501725
 21
521.1642175453
 31
0.0
  0
LINE
  5
29F
330
1F
100
AcDbEntity
  8
0
  6
Continuous
 62
     7
370
    25
100
AcDbLine
 10
17.2433501725
 20
495.7021667377
 30
0.0
 11
17.2433501725
 21
489.0772956071
 31
0.0
  0
LINE
  5
2A0
330
1F
100
AcDbEntity
  8
0
  6
Continuous
 62
     7
370
    25
100
AcDbLine
 10
217.2433501725
 20
489.0772956071
 30
0.0
 11
217.2433501725
 21
495.7021667377
 31
0.0
  0
LINE
  5
2A1
330
1F
100
AcDbEntity
  8
0
  6
Continuous
 62
     7
370
    25
100
AcDbLine
 10
312.7433501725
 20
495.7021667377
 30
0.0
 11
312.7433501725
 21
489.0772956071
 31
0.0
  0
LINE
  5
2A2
330
1F
100
AcDbEntity
  8
0
  6
Continuous
 62
     7
370
    25
100
AcDbLine
 10
512.7433501725
 20
489.0772956071
 30
0.0
 11
512.7433501725
 21
495.7021667377
 31
0.0
  0
LINE
  5
2A3
330
1F
100
AcDbEntity
  8
0
  6
Continuous
 62
     7
370
    25
100
AcDbLine
 10
608.2433501725
 20
495.7021667377
 30
0.0
 11
608.2433501725
 21
489.0772956071
 31
0.0
  0
LINE
  5
2A4
330
1F
100
AcDbEntity
  8
0
  6
Continuous
 62
     7
370
    25
100
AcDbLine
 10
808.2433501725
 20
489.0772956071
 30
0.0
 11
808.2433501725
 21
495.7021667377
 31
0.0
  0
LINE
  5
2A5
330
1F
100
AcDbEntity
  8
0
  6
Continuous
 62
     7
370
    25
100
AcDbLine
 10
512.7433501725
 20
488.5772956071
 30
0.0
 11
512.7433501725
 21
489.0772956071
 31
0.0
  0
LINE
  5
2A6
330
1F
100
AcDbEntity
  8
0
  6
Continuous
 62
     7
370
    25
100
AcDbLine
 10
312.7433501725
 20
489.0772956071
 30
0.0
 11
312.7433501725
 21
488.5772956071
 31
0.0
  0
LINE
  5
2A7
330
1F
100
AcDbEntity
  8
0
  6
Continuous
 62
     7
370
    25
100
AcDbLine
 10
808.2433501725
 20
488.5772956071
 30
0.0
 11
808.2433501725
 21
489.0772956071
 31
0.0
  0
LINE
  5
2A8
330
1F
100
AcDbEntity
  8
0
  6
Continuous
 62
     7
370
    25
100
AcDbLine
 10
608.2433501725
 20
489.0772956071
 30
0.0
 11
608.2433501725
 21
488.5772956071
 31
0.0
  0
LINE
  5
2A9
330
1F
100
AcDbEntity
  8
0
  6
Continuous
 62
     7
370
    25
100
AcDbLine
 10
217.2433501725
 20
488.5772956071
 30
0.0
 11
217.2433501725
 21
489.0772956071
 31
0.0
  0
LINE
  5
2AA
330
1F
100
AcDbEntity
  8
0
  6
Continuous
 62
     7
370
    25
100
AcDbLine
 10
17.2433501725
 20
489.0772956071
 30
0.0
 11
17.2433501725
 21
488.5772956071
 31
0.0
  0
ARC
  5
2AB
330
1F
100
AcDbEntity
  8
0
  6
Continuous
 62
     7
370
    25
100
AcDbCircle
 10
611.2433501725
 20
482.0596041535
 30
0.0
 40
3.0
100
AcDbArc
 50
180.0
 51
270.0
  0
LINE
  5
2AC
330
1F
100
AcDbEntity
  8
0
  6
Continuous
 62
     7
370
    25
100
AcDbLine
 10
608.2433501725
 20
482.0596041535
 30
0.0
 11
608.2433501725
 21
488.5772956071
 31
0.0
  0
LINE
  5
2AD
330
1F
100
AcDbEntity
  8
0
  6
Continuous
 62
     7
370
    25
100
AcDbLine
 10
808.2433501725
 20
488.5772956071
 30
0.0
 11
808.2433501725
 21
482.0596041535
 31
0.0
  0
ARC
  5
2AE
330
1F
100
AcDbEntity
  8
0
  6
Continuous
 62
     7
370
    25
100
AcDbCircle
 10
805.2433501725
 20
482.0596041535
 30
0.0
 40
3.0
100
AcDbArc
 50
270.0
 51
0.0
  0
LINE
  5
2AF
330
1F
100
AcDbEntity
  8
0
  6
Continuous
 62
     7
370
    25
100
AcDbLine
 10
805.2433501725
 20
479.0596041535
 30
0.0
 11
611.2433501725
 21
479.0596041535
 31
0.0
  0
ARC
  5
2B0
330
1F
100
AcDbEntity
  8
0
  6
Continuous
 62
     7
370
    25
100
AcDbCircle
 10
315.7433501725
 20
482.0596041535
 30
0.0
 40
3.0
100
AcDbArc
 50
180.0
 51
270.0
  0
LINE
  5
2B1
330
1F
100
AcDbEntity
  8
0
  6
Continuous
 62
     7
370
    25
100
AcDbLine
 10
312.7433501725
 20
482.0596041535
 30
0.0
 11
312.7433501725
 21
488.5772956071
 31
0.0
  0
LINE
  5
2B2
330
1F
100
AcDbEntity
  8
0
  6
Continuous
 62
     7
370
    25
100
AcDbLine
 10
512.7433501725
 20
488.5772956071
 30
0.0
 11
512.7433501725
 21
482.0596041535
 31
0.0
  0
ARC
  5
2B3
330
1F
100
AcDbEntity
  8
0
  6
Continuous
 62
     7
370
    25
100
AcDbCircle
 10
509.7433501725
 20
482.0596041535
 30
0.0
 40
3.0
100
AcDbArc
 50
270.0
 51
0.0
  0
LINE
  5
2B4
330
1F
100
AcDbEntity
  8
0
  6
Continuous
 62
     7
370
    25
100
AcDbLine
 10
509.7433501725
 20
479.0596041535
 30
0.0
 11
315.7433501725
 21
479.0596041535
 31
0.0
  0
LINE
  5
2B5
330
1F
100
AcDbEntity
  8
0
  6
Continuous
 62
     7
370
    25
100
AcDbLine
 10
17.2433501725
 20
482.0596041535
 30
0.0
 11
17.2433501725
 21
488.5772956071
 31
0.0
  0
LINE
  5
2B6
330
1F
100
AcDbEntity
  8
0
  6
Continuous
 62
     7
370
    25
100
AcDbLine
 10
217.2433501725
 20
488.5772956071
 30
0.0
 11
217.2433501725
 21
482.0596041535
 31
0.0
  0
ARC
  5
2B7
330
1F
100
AcDbEntity
  8
0
  6
Continuous
 62
     7
370
    25
100
AcDbCircle
 10
20.2433501725
 20
482.0596041535
 30
0.0
 40
3.000000000000004
100
AcDbArc
 50
180.0
 51
270.0
  0
ARC
  5
2B8
330
1F
100
AcDbEntity
  8
0
  6
Continuous
 62
     7
370
    25
100
AcDbCircle
 10
214.2433501725
 20
482.0596041535
 30
0.0
 40
3.0
100
AcDbArc
 50
270.0
 51
0.0
  0
LINE
  5
2B9
330
1F
100
AcDbEntity
  8
0
  6
Continuous
 62
     7
370
    25
100
AcDbLine
 10
214.2433501725
 20
479.0596041535
 30
0.0
 11
20.2433501725
 21
479.0596041535
 31
0.0
  0
LINE
  5
2BA
330
1F
100
AcDbEntity
  8
0
  6
Continuous
 62
     7
370
    25
100
AcDbLine
 10
874.4021001725
 20
507.4642175453
 30
0.0
 11
874.4021001725
 21
507.6642175452
 31
0.0
  0
LINE
  5
2BB
330
1F
100
AcDbEntity
  8
0
  6
Continuous
 62
     7
370
    25
100
AcDbLine
 10
874.4021001725
 20
513.2642175453
 30
0.0
 11
874.4021001725
 21
513.4642175453
 31
0.0
  0
LINE
  5
2BC
330
1F
100
AcDbEntity
  8
0
  6
Continuous
 62
     7
370
    25
100
AcDbLine
 10
874.9433501725
 20
512.0436208826
 30
0.0
 11
874.9433501725
 21
512.9229675453
 31
0.0
  0
LINE
  5
2BD
330
1F
100
AcDbEntity
  8
0
  6
Continuous
 62
     7
370
    25
100
AcDbLine
 10
874.9433501725
 20
508.0054675452
 30
0.0
 11
874.9433501725
 21
512.0436208826
 31
0.0
  0
LINE
  5
2BE
330
1F
100
AcDbEntity
  8
0
  6
Continuous
 62
     7
370
    25
100
AcDbLine
 10
864.2433501725
 20
524.7642175453
 30
0.0
 11
864.2433501725
 21
522.9642175453
 31
0.0
  0
LINE
  5
2BF
330
1F
100
AcDbEntity
  8
0
  6
Continuous
 62
     7
370
    25
100
AcDbLine
 10
864.2433501725
 20
522.9642175453
 30
0.0
 11
-38.7566498275
 21
522.9642175453
 31
0.0
  0
LINE
  5
2C0
330
1F
100
AcDbEntity
  8
0
  6
Continuous
 62
     7
370
    25
100
AcDbLine
 10
-38.7566498275
 20
522.9642175453
 30
0.0
 11
-38.7566498275
 21
524.7642175453
 31
0.0
  0
LINE
  5
2C1
330
1F
100
AcDbEntity
  8
0
  6
Continuous
 62
     7
370
    25
100
AcDbLine
 10
864.2433501725
 20
524.7642175453
 30
0.0
 11
864.7433501725
 21
530.1392175453
 31
0.0
  0
LINE
  5
2C2
330
1F
100
AcDbEntity
  8
0
  6
Continuous
 62
     7
370
    25
100
AcDbLine
 10
-39.2566498275
 20
530.1392175453
 30
0.0
 11
-38.7566498275
 21
524.7642175453
 31
0.0
  0
LINE
  5
2C3
330
1F
100
AcDbEntity
  8
0
  6
Continuous
 62
     7
370
    25
100
AcDbLine
 10
-49.4566498275
 20
508.246879468
 30
0.0
 11
-49.4566498275
 21
508.0054675452
 31
0.0
  0
LINE
  5
2C4
330
1F
100
AcDbEntity
  8
0
  6
Continuous
 62
     7
370
    25
100
AcDbLine
 10
-49.4566498275
 20
512.9229675453
 30
0.0
 11
-49.4566498275
 21
508.246879468
 31
0.0
  0
LINE
  5
2C5
330
1F
100
AcDbEntity
  8
0
  6
Continuous
 62
     7
370
    25
100
AcDbLine
 10
-48.9153998275
 20
513.4642175453
 30
0.0
 11
-48.9153998275
 21
513.2642175453
 31
0.0
  0
LINE
  5
2C6
330
1F
100
AcDbEntity
  8
0
  6
Continuous
 62
     7
370
    25
100
AcDbLine
 10
-48.9153998275
 20
507.6642175452
 30
0.0
 11
-48.9153998275
 21
507.4642175452
 31
0.0
  0
SPLINE
  5
2C7
330
1F
100
AcDbEntity
  8
0
  6
Continuous
 62
     7
370
    25
100
AcDbSpline
210
0.0
220
0.0
230
1.0
 70
    24
 71
     3
 72
    15
 73
    11
 74
     0
 42
0.000000001
 43
0.00000001
 40
0.0
 40
0.0
 40
0.0
 40
0.0
 40
0.0346967497918684
 40
0.2211884951269666
 40
0.4076802404620656
 40
0.5080720152630801
 40
0.6105942475634835
 40
0.7131164798638866
 40
0.8135082546649015
 40
0.9999999999999999
 40
0.9999999999999999
 40
0.9999999999999999
 40
0.9999999999999999
 10
-38.25664982752269
 20
504.69096873585
 30
0.0
 10
-38.25664982752269
 20
504.6842476322187
 30
0.0
 10
-38.25664982752252
 20
504.6414012328659
 30
0.0
 10
-38.25664982752281
 20
505.1294421956244
 30
0.0
 10
-38.25664982752269
 20
506.2253532530929
 30
0.0
 10
-38.25664982752269
 20
507.4442503855404
 30
0.0
 10
-38.25664982752275
 20
508.5244256133974
 30
0.0
 10
-38.25664982752269
 20
509.6849025158631
 30
0.0
 10
-38.25664982752286
 20
511.2154774109782
 30
0.0
 10
-38.25664982752269
 20
512.2791032996283
 30
0.0
 10
-38.25664982752269
 20
512.9705248503114
 30
0.0
  0
SPLINE
  5
2C8
330
1F
100
AcDbEntity
  8
0
  6
Continuous
 62
     7
370
    25
100
AcDbSpline
210
0.0
220
0.0
230
1.0
 70
    24
 71
     3
 72
    12
 73
     8
 74
     0
 42
0.000000001
 43
0.00000001
 40
0.0
 40
0.0
 40
0.0
 40
0.0
 40
0.3344405486782632
 40
0.5144757571369869
 40
0.6983315710265365
 40
0.8821873849160873
 40
0.9999999999999999
 40
0.9999999999999999
 40
0.9999999999999999
 40
0.9999999999999999
 10
-38.25664982752269
 20
512.9705248503114
 30
0.0
 10
-38.25664982752269
 20
513.5946703858133
 30
0.0
 10
-38.25664982752258
 20
514.5548044012909
 30
0.0
 10
-38.25664982752281
 20
515.4627153075861
 30
0.0
 10
-38.25664982752269
 20
515.9684326455023
 30
0.0
 10
-38.25664982752275
 20
516.2400523796405
 30
0.0
 10
-38.25664982752264
 20
516.2381926481808
 30
0.0
 10
-38.25664982752269
 20
516.2374663546558
 30
0.0
  0
SPLINE
  5
2C9
330
1F
100
AcDbEntity
  8
0
  6
Continuous
 62
     7
370
    25
100
AcDbSpline
210
0.0
220
0.0
230
1.0
 70
     8
 71
     3
 72
     8
 73
     4
 74
     0
 42
0.000000001
 43
0.00000001
 40
0.0
 40
0.0
 40
0.0
 40
0.0
 40
1.0
 40
1.0
 40
1.0
 40
1.0
 10
-34.25664982752969
 20
510.0808225175665
 30
0.0
 10
-34.25664982752969
 20
511.0632009621393
 30
0.0
 10
-34.4309651279091
 20
512.018692130329
 30
0.0
 10
-34.70323181492108
 20
512.9590747796566
 30
0.0
  0
SPLINE
  5
2CA
330
1F
100
AcDbEntity
  8
0
  6
Continuous
 62
     7
370
    25
100
AcDbSpline
210
0.0
220
0.0
230
1.0
 70
     8
 71
     3
 72
     8
 73
     4
 74
     0
 42
0.000000001
 43
0.00000001
 40
0.0
 40
0.0
 40
0.0
 40
0.0
 40
1.0
 40
1.0
 40
1.0
 40
1.0
 10
-34.70323181492108
 20
507.2025702554765
 30
0.0
 10
-34.43096512790967
 20
508.1429529048023
 30
0.0
 10
-34.25664982752969
 20
509.0984440729956
 30
0.0
 10
-34.25664982752969
 20
510.0808225175665
 30
0.0
  0
LINE
  5
2CB
330
1F
100
AcDbEntity
  8
0
  6
Continuous
 62
     7
370
    25
100
AcDbLine
 10
-38.2566498275
 20
507.2025702555
 30
0.0
 11
-34.7032318149
 21
507.2025702555
 31
0.0
  0
LINE
  5
2CC
330
1F
100
AcDbEntity
  8
0
  6
Continuous
 62
     7
370
    25
100
AcDbLine
 10
-38.2566498275
 20
512.9590747797
 30
0.0
 11
-34.7032318149
 21
512.9590747797
 31
0.0
  0
LINE
  5
2CD
330
1F
100
AcDbEntity
  8
0
  6
Continuous
 62
     7
370
    25
100
AcDbLine
 10
-34.2566498275
 20
510.0808225176
 30
0.0
 11
-34.2566498275
 21
514.5898984245
 31
0.0
  0
SPLINE
  5
2CE
330
1F
100
AcDbEntity
  8
0
  6
Continuous
 62
     7
370
    25
100
AcDbSpline
210
0.0
220
0.0
230
1.0
 70
     8
 71
     3
 72
     8
 73
     4
 74
     0
 42
0.000000001
 43
0.00000001
 40
0.0
 40
0.0
 40
0.0
 40
0.0
 40
1.0
 40
1.0
 40
1.0
 40
1.0
 10
-34.70323181492113
 20
512.9590747796627
 30
0.0
 10
-34.43096512790972
 20
513.4918975207275
 30
0.0
 10
-34.25664982752979
 20
514.0332807796221
 30
0.0
 10
-34.25664982752979
 20
514.5898984245506
 30
0.0
  0
LINE
  5
2CF
330
1F
100
AcDbEntity
  8
0
  6
Continuous
 62
     7
370
    25
100
AcDbLine
 10
-34.2566498275
 20
505.9551416383
 30
0.0
 11
-34.2566498275
 21
510.0808225176
 31
0.0
  0
SPLINE
  5
2D0
330
1F
100
AcDbEntity
  8
0
  6
Continuous
 62
     7
370
    25
100
AcDbSpline
210
0.0
220
0.0
230
1.0
 70
     8
 71
     3
 72
     8
 73
     4
 74
     0
 42
0.000000001
 43
0.00000001
 40
0.0
 40
0.0
 40
0.0
 40
0.0
 40
1.0
 40
1.0
 40
1.0
 40
1.0
 10
-34.25664982752991
 20
505.9551416382689
 30
0.0
 10
-34.25664982752991
 20
506.3809024379123
 30
0.0
 10
-34.43096512790927
 20
506.7950103472092
 30
0.0
 10
-34.70323181492113
 20
507.2025702554709
 30
0.0
  0
SPLINE
  5
2D1
330
1F
100
AcDbEntity
  8
0
  6
Continuous
 62
     7
370
    25
100
AcDbSpline
210
0.0
220
0.0
230
1.0
 70
     8
 71
     3
 72
     8
 73
     4
 74
     0
 42
0.000000001
 43
0.00000001
 40
0.0
 40
0.0
 40
0.0
 40
0.0
 40
1.0
 40
1.0
 40
1.0
 40
1.0
 10
-34.25664982752979
 20
514.5898984245506
 30
0.0
 10
-34.25664982752979
 20
515.1465160694804
 30
0.0
 10
-34.43096512790905
 20
515.6878993283722
 30
0.0
 10
-34.70323181492113
 20
516.2207220694385
 30
0.0
  0
LINE
  5
2D2
330
1F
100
AcDbEntity
  8
0
  6
Continuous
 62
     7
370
    25
100
AcDbLine
 10
-34.7032318149
 20
516.2207220694
 30
0.0
 11
-38.2566498275
 21
516.2207220694
 31
0.0
  0
SPLINE
  5
2D3
330
1F
100
AcDbEntity
  8
0
  6
Continuous
 62
     7
370
    25
100
AcDbSpline
210
0.0
220
0.0
230
1.0
 70
     8
 71
     3
 72
     8
 73
     4
 74
     0
 42
0.000000001
 43
0.00000001
 40
0.0
 40
0.0
 40
0.0
 40
0.0
 40
1.0
 40
1.0
 40
1.0
 40
1.0
 10
-34.70323181492119
 20
504.707713021067
 30
0.0
 10
-34.43096512790977
 20
505.1152729293279
 30
0.0
 10
-34.25664982752991
 20
505.5293808386265
 30
0.0
 10
-34.25664982752991
 20
505.9551416382689
 30
0.0
  0
LINE
  5
2D4
330
1F
100
AcDbEntity
  8
0
  6
Continuous
 62
     7
370
    25
100
AcDbLine
 10
-38.2566498275
 20
504.7077130211
 30
0.0
 11
-34.7032318149
 21
504.7077130211
 31
0.0
  0
LINE
  5
2D5
330
1F
100
AcDbEntity
  8
0
  6
Continuous
 62
     7
370
    25
100
AcDbLine
 10
-48.7153998275
 20
513.4642175453
 30
0.0
 11
-48.7153998275
 21
507.4642175453
 31
0.0
  0
LINE
  5
2D6
330
1F
100
AcDbEntity
  8
0
  6
Continuous
 62
     7
370
    25
100
AcDbLine
 10
-49.2566498275
 20
508.246879468
 30
0.0
 11
-49.2566498275
 21
508.0054675452
 31
0.0
  0
LINE
  5
2D7
330
1F
100
AcDbEntity
  8
0
  6
Continuous
 62
     7
370
    25
100
AcDbLine
 10
-49.2566498275
 20
512.9229675453
 30
0.0
 11
-49.2566498275
 21
508.246879468
 31
0.0
  0
LINE
  5
2D8
330
1F
100
AcDbEntity
  8
0
  6
Continuous
 62
     7
370
    25
100
AcDbLine
 10
-34.7032318149
 20
516.2207220694
 30
0.0
 11
-34.6280440594
 21
516.0107016016
 31
0.0
  0
LINE
  5
2D9
330
1F
100
AcDbEntity
  8
0
  6
Continuous
 62
     7
370
    25
100
AcDbLine
 10
-34.2566498275
 20
514.5898984245
 30
0.0
 11
-34.2566498275
 21
515.4642175452
 31
0.0
  0
LINE
  5
2DA
330
1F
100
AcDbEntity
  8
0
  6
Continuous
 62
     7
370
    25
100
AcDbLine
 10
-34.2566498275
 20
505.4642175453
 30
0.0
 11
-34.2566498275
 21
505.9551416383
 31
0.0
  0
LINE
  5
2DB
330
1F
100
AcDbEntity
  8
0
  6
Continuous
 62
     7
370
    25
100
AcDbLine
 10
-39.2566498275
 20
504.5642175453
 30
0.0
 11
-39.2566498275
 21
502.5642175453
 31
0.0
  0
LINE
  5
2DC
330
1F
100
AcDbEntity
  8
0
  6
Continuous
 62
     7
370
    25
100
AcDbLine
 10
-39.2566498275
 20
502.5642175453
 30
0.0
 11
-41.2566498275
 21
502.5642175453
 31
0.0
  0
LINE
  5
2DD
330
1F
100
AcDbEntity
  8
0
  6
Continuous
 62
     7
370
    25
100
AcDbLine
 10
-41.2566498275
 20
502.5642175453
 30
0.0
 11
-41.2566498275
 21
504.5642175453
 31
0.0
  0
LINE
  5
2DE
330
1F
100
AcDbEntity
  8
0
  6
Continuous
 62
     7
370
    25
100
AcDbLine
 10
-41.2566498275
 20
504.5642175453
 30
0.0
 11
-41.2566498275
 21
533.5642175453
 31
0.0
  0
LINE
  5
2DF
330
1F
100
AcDbEntity
  8
0
  6
Continuous
 62
     7
370
    25
100
AcDbLine
 10
-39.2566498275
 20
504.5642175453
 30
0.0
 11
-39.2566498275
 21
533.5642175453
 31
0.0
  0
LINE
  5
2E0
330
1F
100
AcDbEntity
  8
0
  6
Continuous
 62
     7
370
    25
100
AcDbLine
 10
-39.2516372646
 20
533.6642175453
 30
0.0
 11
-39.2566498275
 21
533.5642175453
 31
0.0
  0
LINE
  5
2E1
330
1F
100
AcDbEntity
  8
0
  6
Continuous
 62
     7
370
    25
100
AcDbLine
 10
-41.2549826976
 20
533.6642175453
 30
0.0
 11
-41.2566498275
 21
533.5642175453
 31
0.0
  0
LINE
  5
2E2
330
1F
100
AcDbEntity
  8
0
  6
Continuous
 62
     7
370
    25
100
AcDbLine
 10
-41.2566498275
 20
518.5642175453
 30
0.0
 11
-41.3169572067
 21
518.5642175453
 31
0.0
  0
LINE
  5
2E3
330
1F
100
AcDbEntity
  8
0
  6
Continuous
 62
     7
370
    25
100
AcDbLine
 10
-41.3169572067
 20
502.5642175453
 30
0.0
 11
-41.2566498275
 21
502.5642175453
 31
0.0
  0
LWPOLYLINE
  5
2E4
330
1F
100
AcDbEntity
  8
0
  6
Continuous
 62
     7
370
    25
100
AcDbPolyline
 90
        9
 70
   128
 43
0.0
 10
-43.8721962157
 20
504.5642175453
 10
-43.8590525734
 20
504.1740369012
 10
-43.8201267493
 20
503.7988506805
 10
-43.756914641
 20
503.4530770792
 10
-43.6718454543
 20
503.1500039829
 10
-43.5681883505
 20
502.9012783206
 10
-43.4499268138
 20
502.7164584802
 10
-43.3216055688
 20
502.6026469844
 10
-43.188155929
 20
502.5642175453
  0
LINE
  5
2E5
330
1F
100
AcDbEntity
  8
0
  6
Continuous
 62
     7
370
    25
100
AcDbLine
 10
-43.8721962157
 20
504.5642175453
 30
0.0
 11
-43.8721962157
 21
507.4642175453
 31
0.0
  0
LINE
  5
2E6
330
1F
100
AcDbEntity
  8
0
  6
Continuous
 62
     7
370
    25
100
AcDbLine
 10
-43.8721962157
 20
513.4642175453
 30
0.0
 11
-43.8721962157
 21
516.5642175453
 31
0.0
  0
LWPOLYLINE
  5
2E7
330
1F
100
AcDbEntity
  8
0
  6
Continuous
 62
     7
370
    25
100
AcDbPolyline
 90
        9
 70
   128
 43
0.0
 10
-43.188155929
 20
518.5642175453
 10
-43.3216055688
 20
518.5257881061
 10
-43.4499268138
 20
518.4119766103
 10
-43.5681883505
 20
518.2271567699
 10
-43.6718454543
 20
517.9784311076
 10
-43.756914641
 20
517.6753580113
 10
-43.8201267493
 20
517.32958441
 10
-43.8590525734
 20
516.9543981893
 10
-43.8721962157
 20
516.5642175453
  0
LINE
  5
2E8
330
1F
100
AcDbEntity
  8
0
  6
Continuous
 62
     7
370
    25
100
AcDbLine
 10
-43.188155929
 20
518.5642175453
 30
0.0
 11
-41.3169572067
 21
518.5642175453
 31
0.0
  0
LINE
  5
2E9
330
1F
100
AcDbEntity
  8
0
  6
Continuous
 62
     7
370
    25
100
AcDbLine
 10
-41.3169572067
 20
502.5642175453
 30
0.0
 11
-43.188155929
 21
502.5642175453
 31
0.0
  0
LINE
  5
2EA
330
1F
100
AcDbEntity
  8
0
  6
Continuous
 62
     7
370
    25
100
AcDbLine
 10
866.7433501725
 20
502.5642175453
 30
0.0
 11
864.7433501725
 21
502.5642175453
 31
0.0
  0
LINE
  5
2EB
330
1F
100
AcDbEntity
  8
0
  6
Continuous
 62
     7
370
    25
100
AcDbLine
 10
864.7433501725
 20
502.5642175453
 30
0.0
 11
864.7433501725
 21
504.5642175453
 31
0.0
  0
LINE
  5
2EC
330
1F
100
AcDbEntity
  8
0
  6
Continuous
 62
     7
370
    25
100
AcDbLine
 10
866.7433501725
 20
504.5642175453
 30
0.0
 11
866.7433501725
 21
502.5642175453
 31
0.0
  0
LINE
  5
2ED
330
1F
100
AcDbEntity
  8
0
  6
Continuous
 62
     7
370
    25
100
AcDbLine
 10
864.7433501725
 20
533.5642175453
 30
0.0
 11
864.7433501725
 21
504.5642175453
 31
0.0
  0
LINE
  5
2EE
330
1F
100
AcDbEntity
  8
0
  6
Continuous
 62
     7
370
    25
100
AcDbLine
 10
866.7433501725
 20
533.5642175453
 30
0.0
 11
866.7433501725
 21
504.5642175453
 31
0.0
  0
LINE
  5
2EF
330
1F
100
AcDbEntity
  8
0
  6
Continuous
 62
     7
370
    25
100
AcDbLine
 10
866.7433501725
 20
533.5642175453
 30
0.0
 11
866.7416830426
 21
533.6642175453
 31
0.0
  0
LINE
  5
2F0
330
1F
100
AcDbEntity
  8
0
  6
Continuous
 62
     7
370
    25
100
AcDbLine
 10
864.7433501725
 20
533.5642175453
 30
0.0
 11
864.7383376096
 21
533.6642175453
 31
0.0
  0
LINE
  5
2F1
330
1F
100
AcDbEntity
  8
0
  6
Continuous
 62
     7
370
    25
100
AcDbLine
 10
866.8036575517
 20
518.5642175453
 30
0.0
 11
866.7433501725
 21
518.5642175453
 31
0.0
  0
LINE
  5
2F2
330
1F
100
AcDbEntity
  8
0
  6
Continuous
 62
     7
370
    25
100
AcDbLine
 10
866.7433501725
 20
502.5642175453
 30
0.0
 11
866.8036575517
 21
502.5642175453
 31
0.0
  0
LWPOLYLINE
  5
2F3
330
1F
100
AcDbEntity
  8
0
  6
Continuous
 62
     7
370
    25
100
AcDbPolyline
 90
        9
 70
   128
 43
0.0
 10
868.674856274
 20
502.5642175453
 10
868.8083059138
 20
502.6026469844
 10
868.9366271588
 20
502.7164584802
 10
869.0548886955
 20
502.9012783206
 10
869.1585457993
 20
503.1500039829
 10
869.2436149859
 20
503.4530770792
 10
869.3068270943
 20
503.7988506805
 10
869.3457529184
 20
504.1740369012
 10
869.3588965607
 20
504.5642175453
  0
LINE
  5
2F4
330
1F
100
AcDbEntity
  8
0
  6
Continuous
 62
     7
370
    25
100
AcDbLine
 10
866.8036575517
 20
518.5642175453
 30
0.0
 11
868.674856274
 21
518.5642175453
 31
0.0
  0
LWPOLYLINE
  5
2F5
330
1F
100
AcDbEntity
  8
0
  6
Continuous
 62
     7
370
    25
100
AcDbPolyline
 90
        9
 70
   128
 43
0.0
 10
869.3588965607
 20
516.5642175453
 10
869.3457529184
 20
516.9543981893
 10
869.3068270943
 20
517.32958441
 10
869.2436149859
 20
517.6753580113
 10
869.1585457993
 20
517.9784311076
 10
869.0548886955
 20
518.2271567699
 10
868.9366271588
 20
518.4119766103
 10
868.8083059138
 20
518.5257881061
 10
868.674856274
 20
518.5642175453
  0
LINE
  5
2F6
330
1F
100
AcDbEntity
  8
0
  6
Continuous
 62
     7
370
    25
100
AcDbLine
 10
869.3588965607
 20
516.5642175453
 30
0.0
 11
869.3588965607
 21
513.4642175453
 31
0.0
  0
LINE
  5
2F7
330
1F
100
AcDbEntity
  8
0
  6
Continuous
 62
     7
370
    25
100
AcDbLine
 10
869.3588965607
 20
507.4642175453
 30
0.0
 11
869.3588965607
 21
504.5642175453
 31
0.0
  0
LINE
  5
2F8
330
1F
100
AcDbEntity
  8
0
  6
Continuous
 62
     7
370
    25
100
AcDbLine
 10
868.674856274
 20
502.5642175453
 30
0.0
 11
866.8036575517
 21
502.5642175453
 31
0.0
  0
LINE
  5
2F9
330
1F
100
AcDbEntity
  8
0
  6
Continuous
 62
     7
370
    25
100
AcDbLine
 10
858.9933501725
 20
528.5642175452
 30
0.0
 11
849.4933501725
 21
528.5642175452
 31
0.0
  0
LINE
  5
2FA
330
1F
100
AcDbEntity
  8
0
  6
Continuous
 62
     7
370
    25
100
AcDbLine
 10
858.9933501725
 20
529.0642175453
 30
0.0
 11
858.9933501725
 21
528.5642175452
 31
0.0
  0
LINE
  5
2FB
330
1F
100
AcDbEntity
  8
0
  6
Continuous
 62
     7
370
    25
100
AcDbLine
 10
849.4933501725
 20
528.5642175452
 30
0.0
 11
849.4933501725
 21
529.0642175452
 31
0.0
  0
ARC
  5
2FC
330
1F
100
AcDbEntity
  8
0
  6
Continuous
 62
     7
370
    25
100
AcDbCircle
 10
848.7299501725
 20
529.8008175452
 30
0.0
 40
1.236599999999953
100
AcDbArc
 50
216.5600911004
 51
270.0
  0
LINE
  5
2FD
330
1F
100
AcDbEntity
  8
0
  6
Continuous
 62
     7
370
    25
100
AcDbLine
 10
849.4933501725
 20
528.5642175452
 30
0.0
 11
848.7299501725
 21
528.5642175452
 31
0.0
  0
ARC
  5
2FE
330
1F
100
AcDbEntity
  8
0
  6
Continuous
 62
     7
370
    25
100
AcDbCircle
 10
859.7567501725
 20
529.8008175452
 30
0.0
 40
1.236599999999975
100
AcDbArc
 50
270.0
 51
323.4399088996
  0
LINE
  5
2FF
330
1F
100
AcDbEntity
  8
0
  6
Continuous
 62
     7
370
    25
100
AcDbLine
 10
859.7567501725
 20
528.5642175452
 30
0.0
 11
858.9933501725
 21
528.5642175452
 31
0.0
  0
ARC
  5
300
330
1F
100
AcDbEntity
  8
0
  6
Continuous
 62
     7
370
    25
100
AcDbCircle
 10
-47.7566498275
 20
539.6642175453
 30
0.0
 40
6.000000000000114
100
AcDbArc
 50
216.8698976459
 51
270.0
  0
ARC
  5
301
330
1F
100
AcDbEntity
  8
0
  6
Continuous
 62
     7
370
    25
100
AcDbCircle
 10
873.2433501725
 20
539.6642175453
 30
0.0
 40
6.000000000000091
100
AcDbArc
 50
270.0
 51
323.1301023541
  0
ARC
  5
302
330
1F
100
AcDbEntity
  8
0
  6
Continuous
 62
     7
370
    25
100
AcDbCircle
 10
864.4433501725
 20
34.9761944286
 30
0.0
 40
0.5
100
AcDbArc
 50
180.0
 51
0.0
  0
ARC
  5
303
330
1F
100
AcDbEntity
  8
0
  6
Continuous
 62
     7
370
    25
100
AcDbCircle
 10
864.4433501725
 20
46.5761944288
 30
0.0
 40
0.5
100
AcDbArc
 50
0.0
 51
180.0
  0
LINE
  5
304
330
1F
100
AcDbEntity
  8
0
  6
Continuous
 62
     7
370
    25
100
AcDbLine
 10
874.4021001725
 20
37.7761944287
 30
0.0
 11
874.9433501725
 21
38.3174444287
 31
0.0
  0
LINE
  5
305
330
1F
100
AcDbEntity
  8
0
  6
Continuous
 62
     7
370
    25
100
AcDbLine
 10
874.9433501725
 20
43.2349444288
 30
0.0
 11
874.4021001725
 21
43.7761944287
 31
0.0
  0
LINE
  5
306
330
1F
100
AcDbEntity
  8
0
  6
Continuous
 62
     7
370
    25
100
AcDbLine
 10
874.4021001725
 20
43.7761944287
 30
0.0
 11
865.7433501725
 21
43.7761944287
 31
0.0
  0
LINE
  5
307
330
1F
100
AcDbEntity
  8
0
  6
Continuous
 62
     7
370
    25
100
AcDbLine
 10
865.7433501725
 20
37.7761944287
 30
0.0
 11
874.4021001725
 21
37.7761944287
 31
0.0
  0
LINE
  5
308
330
1F
100
AcDbEntity
  8
0
  6
Continuous
 62
     7
370
    25
100
AcDbLine
 10
840.6628118775
 20
29.4247658292
 30
0.0
 11
841.0933501725
 21
29.1761944287
 31
0.0
  0
LINE
  5
309
330
1F
100
AcDbEntity
  8
0
  6
Continuous
 62
     7
370
    25
100
AcDbLine
 10
847.3933501725
 20
29.1761944287
 30
0.0
 11
847.7885647581
 21
29.4043716761
 31
0.0
  0
LINE
  5
30A
330
1F
100
AcDbEntity
  8
0
  6
Continuous
 62
     7
370
    25
100
AcDbLine
 10
847.7885647581
 20
32.1480171814
 30
0.0
 11
847.3933501725
 21
32.3761944287
 31
0.0
  0
LINE
  5
30B
330
1F
100
AcDbEntity
  8
0
  6
Continuous
 62
     7
370
    25
100
AcDbLine
 10
841.0933501725
 20
32.3761944287
 30
0.0
 11
840.6628118775
 21
32.1276230283
 31
0.0
  0
LINE
  5
30C
330
1F
100
AcDbEntity
  8
0
  6
Continuous
 62
     7
370
    25
100
AcDbLine
 10
257.6628118775
 20
29.4247658292
 30
0.0
 11
258.0933501725
 21
29.1761944287
 31
0.0
  0
LINE
  5
30D
330
1F
100
AcDbEntity
  8
0
  6
Continuous
 62
     7
370
    25
100
AcDbLine
 10
264.3933501725
 20
29.1761944287
 30
0.0
 11
264.7885647581
 21
29.4043716761
 31
0.0
  0
LINE
  5
30E
330
1F
100
AcDbEntity
  8
0
  6
Continuous
 62
     7
370
    25
100
AcDbLine
 10
264.7885647581
 20
32.1480171814
 30
0.0
 11
264.3933501725
 21
32.3761944287
 31
0.0
  0
LINE
  5
30F
330
1F
100
AcDbEntity
  8
0
  6
Continuous
 62
     7
370
    25
100
AcDbLine
 10
258.0933501725
 20
32.3761944287
 30
0.0
 11
257.6628118775
 21
32.1276230283
 31
0.0
  0
LINE
  5
310
330
1F
100
AcDbEntity
  8
0
  6
Continuous
 62
     7
370
    25
100
AcDbLine
 10
567.7885647581
 20
32.1480171814
 30
0.0
 11
567.3933501725
 21
32.3761944287
 31
0.0
  0
LINE
  5
311
330
1F
100
AcDbEntity
  8
0
  6
Continuous
 62
     7
370
    25
100
AcDbLine
 10
561.0933501725
 20
32.3761944287
 30
0.0
 11
560.6628118775
 21
32.1276230283
 31
0.0
  0
LINE
  5
312
330
1F
100
AcDbEntity
  8
0
  6
Continuous
 62
     7
370
    25
100
AcDbLine
 10
560.6628118775
 20
29.4247658292
 30
0.0
 11
561.0933501725
 21
29.1761944287
 31
0.0
  0
LINE
  5
313
330
1F
100
AcDbEntity
  8
0
  6
Continuous
 62
     7
370
    25
100
AcDbLine
 10
567.3933501725
 20
29.1761944287
 30
0.0
 11
567.7885647581
 21
29.4043716761
 31
0.0
  0
LINE
  5
314
330
1F
100
AcDbEntity
  8
0
  6
Continuous
 62
     7
370
    25
100
AcDbLine
 10
-22.3371881225
 20
29.4247658292
 30
0.0
 11
-21.9066498275
 21
29.1761944287
 31
0.0
  0
LINE
  5
315
330
1F
100
AcDbEntity
  8
0
  6
Continuous
 62
     7
370
    25
100
AcDbLine
 10
-15.6066498275
 20
29.1761944287
 30
0.0
 11
-15.2114352419
 21
29.4043716761
 31
0.0
  0
LINE
  5
316
330
1F
100
AcDbEntity
  8
0
  6
Continuous
 62
     7
370
    25
100
AcDbLine
 10
-15.2114352419
 20
32.1480171814
 30
0.0
 11
-15.6066498275
 21
32.3761944287
 31
0.0
  0
LINE
  5
317
330
1F
100
AcDbEntity
  8
0
  6
Continuous
 62
     7
370
    25
100
AcDbLine
 10
-21.9066498275
 20
32.3761944287
 30
0.0
 11
-22.3371881225
 21
32.1276230283
 31
0.0
  0
LINE
  5
318
330
1F
100
AcDbEntity
  8
0
  6
Continuous
 62
     7
370
    25
100
AcDbLine
 10
-39.7566498275
 20
15.7261944287
 30
0.0
 11
865.2433501725
 21
15.7261944287
 31
0.0
  0
LINE
  5
319
330
1F
100
AcDbEntity
  8
0
  6
Continuous
 62
     7
370
    25
100
AcDbLine
 10
842.2433501725
 20
37.4761944287
 30
0.0
 11
842.2433501725
 21
32.3761944287
 31
0.0
  0
LINE
  5
31A
330
1F
100
AcDbEntity
  8
0
  6
Continuous
 62
     7
370
    25
100
AcDbLine
 10
842.2433501725
 20
29.1761944287
 30
0.0
 11
842.2433501725
 21
29.0761944287
 31
0.0
  0
LINE
  5
31B
330
1F
100
AcDbEntity
  8
0
  6
Continuous
 62
     7
370
    25
100
AcDbLine
 10
846.2433501725
 20
29.0761944287
 30
0.0
 11
846.2433501725
 21
29.1761944287
 31
0.0
  0
LINE
  5
31C
330
1F
100
AcDbEntity
  8
0
  6
Continuous
 62
     7
370
    25
100
AcDbLine
 10
846.2433501725
 20
32.3761944287
 30
0.0
 11
846.2433501725
 21
37.4761944287
 31
0.0
  0
LINE
  5
31D
330
1F
100
AcDbEntity
  8
0
  6
Continuous
 62
     7
370
    25
100
AcDbLine
 10
259.2433501725
 20
37.4761944287
 30
0.0
 11
259.2433501725
 21
32.3761944287
 31
0.0
  0
LINE
  5
31E
330
1F
100
AcDbEntity
  8
0
  6
Continuous
 62
     7
370
    25
100
AcDbLine
 10
259.2433501725
 20
29.1761944287
 30
0.0
 11
259.2433501725
 21
29.0761944287
 31
0.0
  0
LINE
  5
31F
330
1F
100
AcDbEntity
  8
0
  6
Continuous
 62
     7
370
    25
100
AcDbLine
 10
263.2433501725
 20
29.0761944287
 30
0.0
 11
263.2433501725
 21
29.1761944287
 31
0.0
  0
LINE
  5
320
330
1F
100
AcDbEntity
  8
0
  6
Continuous
 62
     7
370
    25
100
AcDbLine
 10
263.2433501725
 20
32.3761944287
 30
0.0
 11
263.2433501725
 21
37.4761944287
 31
0.0
  0
LINE
  5
321
330
1F
100
AcDbEntity
  8
0
  6
Continuous
 62
     7
370
    25
100
AcDbLine
 10
562.2433501725
 20
37.4761944287
 30
0.0
 11
562.2433501725
 21
32.3761944287
 31
0.0
  0
LINE
  5
322
330
1F
100
AcDbEntity
  8
0
  6
Continuous
 62
     7
370
    25
100
AcDbLine
 10
562.2433501725
 20
29.1761944287
 30
0.0
 11
562.2433501725
 21
29.0761944287
 31
0.0
  0
LINE
  5
323
330
1F
100
AcDbEntity
  8
0
  6
Continuous
 62
     7
370
    25
100
AcDbLine
 10
566.2433501725
 20
29.0761944287
 30
0.0
 11
566.2433501725
 21
29.1761944287
 31
0.0
  0
LINE
  5
324
330
1F
100
AcDbEntity
  8
0
  6
Continuous
 62
     7
370
    25
100
AcDbLine
 10
566.2433501725
 20
32.3761944287
 30
0.0
 11
566.2433501725
 21
37.4761944287
 31
0.0
  0
LINE
  5
325
330
1F
100
AcDbEntity
  8
0
  6
Continuous
 62
     7
370
    25
100
AcDbLine
 10
-20.7566498275
 20
37.4761944287
 30
0.0
 11
-20.7566498275
 21
32.3761944287
 31
0.0
  0
LINE
  5
326
330
1F
100
AcDbEntity
  8
0
  6
Continuous
 62
     7
370
    25
100
AcDbLine
 10
-20.7566498275
 20
29.1761944287
 30
0.0
 11
-20.7566498275
 21
29.0761944287
 31
0.0
  0
LINE
  5
327
330
1F
100
AcDbEntity
  8
0
  6
Continuous
 62
     7
370
    25
100
AcDbLine
 10
-16.7566498275
 20
29.0761944287
 30
0.0
 11
-16.7566498275
 21
29.1761944287
 31
0.0
  0
LINE
  5
328
330
1F
100
AcDbEntity
  8
0
  6
Continuous
 62
     7
370
    25
100
AcDbLine
 10
-16.7566498275
 20
32.3761944287
 30
0.0
 11
-16.7566498275
 21
37.4761944287
 31
0.0
  0
ARC
  5
329
330
1F
100
AcDbEntity
  8
0
  6
Continuous
 62
     7
370
    25
100
AcDbCircle
 10
-38.9566498275
 20
46.5761944288
 30
0.0
 40
0.5
100
AcDbArc
 50
0.0
 51
180.0
  0
ARC
  5
32A
330
1F
100
AcDbEntity
  8
0
  6
Continuous
 62
     7
370
    25
100
AcDbCircle
 10
-38.9566498275
 20
34.9761944286
 30
0.0
 40
0.5
100
AcDbArc
 50
180.0
 51
0.0
  0
LINE
  5
32B
330
1F
100
AcDbEntity
  8
0
  6
Continuous
 62
     7
370
    25
100
AcDbLine
 10
-48.9153998275
 20
37.7761944287
 30
0.0
 11
-40.2566498275
 21
37.7761944287
 31
0.0
  0
LINE
  5
32C
330
1F
100
AcDbEntity
  8
0
  6
Continuous
 62
     7
370
    25
100
AcDbLine
 10
-40.2566498275
 20
43.7761944287
 30
0.0
 11
-48.9153998275
 21
43.7761944287
 31
0.0
  0
LINE
  5
32D
330
1F
100
AcDbEntity
  8
0
  6
Continuous
 62
     7
370
    25
100
AcDbLine
 10
-48.9153998275
 20
43.7761944287
 30
0.0
 11
-49.4566498275
 21
43.2349444288
 31
0.0
  0
LINE
  5
32E
330
1F
100
AcDbEntity
  8
0
  6
Continuous
 62
     7
370
    25
100
AcDbLine
 10
-49.4566498275
 20
38.3174444287
 30
0.0
 11
-48.9153998275
 21
37.7761944287
 31
0.0
  0
LINE
  5
32F
330
1F
100
AcDbEntity
  8
0
  6
Continuous
 62
     7
370
    25
100
AcDbLine
 10
-34.4566498275
 20
45.7761944287
 30
0.0
 11
-34.7861329233
 21
46.3468758908
 31
0.0
  0
LINE
  5
330
330
1F
100
AcDbEntity
  8
0
  6
Continuous
 62
     7
370
    25
100
AcDbLine
 10
-34.7861329233
 20
35.2055129666
 30
0.0
 11
-34.4566498275
 21
35.7761944287
 31
0.0
  0
LINE
  5
331
330
1F
100
AcDbEntity
  8
0
  6
Continuous
 62
     7
370
    25
100
AcDbLine
 10
867.2433501725
 20
17.5761944287
 30
0.0
 11
865.0712571492
 21
17.5761944287
 31
0.0
  0
LINE
  5
332
330
1F
100
AcDbEntity
  8
0
  6
Continuous
 62
     7
370
    25
100
AcDbLine
 10
-39.5845568043
 20
17.5761944287
 30
0.0
 11
-41.7566498275
 21
17.5761944287
 31
0.0
  0
LINE
  5
333
330
1F
100
AcDbEntity
  8
0
  6
Continuous
 62
     7
370
    25
100
AcDbLine
 10
-41.7566498275
 20
17.5761944287
 30
0.0
 11
-47.7566498275
 21
17.5761944287
 31
0.0
  0
LINE
  5
334
330
1F
100
AcDbEntity
  8
0
  6
Continuous
 62
     7
370
    25
100
AcDbLine
 10
873.2433501725
 20
17.5761944287
 30
0.0
 11
867.2433501725
 21
17.5761944287
 31
0.0
  0
SPLINE
  5
335
330
1F
100
AcDbEntity
  8
0
  6
Continuous
 62
     7
370
    25
100
AcDbSpline
210
0.0
220
0.0
230
1.0
 70
    24
 71
     3
 72
     9
 73
     5
 74
     0
 42
0.000000001
 43
0.00000001
 40
0.0
 40
0.0
 40
0.0
 40
0.0
 40
0.515394185963167
 40
1.0
 40
1.0
 40
1.0
 40
1.0
 10
864.943350172477
 20
46.45120442873669
 30
0.0
 10
864.9433501724769
 20
46.49494627679229
 30
0.0
 10
864.9433501724769
 20
46.57981694325869
 30
0.0
 10
864.943350172477
 20
46.5570605080153
 30
0.0
 10
864.943350172477
 20
46.54603260718958
 30
0.0
  0
SPLINE
  5
336
330
1F
100
AcDbEntity
  8
0
  6
Continuous
 62
     7
370
    25
100
AcDbSpline
210
0.0
220
0.0
230
1.0
 70
    24
 71
     3
 72
    17
 73
    13
 74
     0
 42
0.000000001
 43
0.00000001
 40
0.0
 40
0.0
 40
0.0
 40
0.0
 40
0.0359921626376374
 40
0.1205930661280436
 40
0.2034359252874614
 40
0.3573281084250907
 40
0.5112202915627208
 40
0.5940631507221371
 40
0.6786640542125447
 40
0.7632649577029526
 40
0.8461078168623681
 40
1.0
 40
1.0
 40
1.0
 40
1.0
 10
863.9433501724769
 20
46.54603260720052
 30
0.0
 10
863.943350172477
 20
46.55318399424179
 30
0.0
 10
863.9433501724772
 20
46.57714497983354
 30
0.0
 10
863.9433501724769
 20
46.35914005359788
 30
0.0
 10
863.943350172477
 20
45.78735295651079
 30
0.0
 10
863.9433501724768
 20
44.59033638042046
 30
0.0
 10
863.9433501724769
 20
42.94427962054339
 30
0.0
 10
863.9433501724769
 20
41.45908926832958
 30
0.0
 10
863.9433501724769
 20
40.26306114395535
 30
0.0
 10
863.9433501724769
 20
39.09329573116595
 30
0.0
 10
863.943350172477
 20
37.67134855058215
 30
0.0
 10
863.943350172477
 20
36.85908127072198
 30
0.0
 10
863.943350172477
 20
36.33105811126045
 30
0.0
  0
SPLINE
  5
337
330
1F
100
AcDbEntity
  8
0
  6
Continuous
 62
     7
370
    25
100
AcDbSpline
210
0.0
220
0.0
230
1.0
 70
     8
 71
     3
 72
     8
 73
     4
 74
     0
 42
0.000000001
 43
0.00000001
 40
0.0
 40
0.0
 40
0.0
 40
0.0
 40
1.0
 40
1.0
 40
1.0
 40
1.0
 10
859.9433501724841
 20
43.98799582641507
 30
0.0
 10
859.9433501724841
 20
43.23287502010713
 30
0.0
 10
860.1176654728635
 20
42.49842154616369
 30
0.0
 10
860.3899321598753
 20
41.77558147539336
 30
0.0
  0
SPLINE
  5
338
330
1F
100
AcDbEntity
  8
0
  6
Continuous
 62
     7
370
    25
100
AcDbSpline
210
0.0
220
0.0
230
1.0
 70
     8
 71
     3
 72
     8
 73
     4
 74
     0
 42
0.000000001
 43
0.00000001
 40
0.0
 40
0.0
 40
0.0
 40
0.0
 40
1.0
 40
1.0
 40
1.0
 40
1.0
 10
860.3899321598753
 20
46.20041017743685
 30
0.0
 10
860.1176654728639
 20
45.47757010666758
 30
0.0
 10
859.9433501724841
 20
44.74311663272189
 30
0.0
 10
859.9433501724841
 20
43.98799582641507
 30
0.0
  0
LINE
  5
339
330
1F
100
AcDbEntity
  8
0
  6
Continuous
 62
     7
370
    25
100
AcDbLine
 10
860.3899321599
 20
46.2004101774
 30
0.0
 11
863.9433501725
 21
46.2004101774
 31
0.0
  0
LINE
  5
33A
330
1F
100
AcDbEntity
  8
0
  6
Continuous
 62
     7
370
    25
100
AcDbLine
 10
863.9433501725
 20
41.7755814754
 30
0.0
 11
860.3899321599
 21
41.7755814754
 31
0.0
  0
SPLINE
  5
33B
330
1F
100
AcDbEntity
  8
0
  6
Continuous
 62
     7
370
    25
100
AcDbSpline
210
0.0
220
0.0
230
1.0
 70
     8
 71
     3
 72
     8
 73
     4
 74
     0
 42
0.000000001
 43
0.00000001
 40
0.0
 40
0.0
 40
0.0
 40
0.0
 40
1.0
 40
1.0
 40
1.0
 40
1.0
 10
859.943350172484
 20
39.06347360103807
 30
0.0
 10
859.943350172484
 20
38.13780202241777
 30
0.0
 10
860.1176654728633
 20
37.23746567759848
 30
0.0
 10
860.3899321598753
 20
36.35136572668929
 30
0.0
  0
SPLINE
  5
33C
330
1F
100
AcDbEntity
  8
0
  6
Continuous
 62
     7
370
    25
100
AcDbSpline
210
0.0
220
0.0
230
1.0
 70
     8
 71
     3
 72
     8
 73
     4
 74
     0
 42
0.000000001
 43
0.00000001
 40
0.0
 40
0.0
 40
0.0
 40
0.0
 40
1.0
 40
1.0
 40
1.0
 40
1.0
 10
860.3899321598753
 20
41.77558147538674
 30
0.0
 10
860.1176654728639
 20
40.88948152447924
 30
0.0
 10
859.943350172484
 20
39.9891451796566
 30
0.0
 10
859.943350172484
 20
39.06347360103807
 30
0.0
  0
LINE
  5
33D
330
1F
100
AcDbEntity
  8
0
  6
Continuous
 62
     7
370
    25
100
AcDbLine
 10
863.9433501725
 20
36.3513657267
 30
0.0
 11
860.3899321599
 21
36.3513657267
 31
0.0
  0
LINE
  5
33E
330
1F
100
AcDbEntity
  8
0
  6
Continuous
 62
     7
370
    25
100
AcDbLine
 10
859.9433501725
 20
43.9879958264
 30
0.0
 11
859.9433501725
 21
39.063473601
 31
0.0
  0
SPLINE
  5
33F
330
1F
100
AcDbEntity
  8
0
  6
Continuous
 62
     7
370
    25
100
AcDbSpline
210
0.0
220
0.0
230
1.0
 70
     8
 71
     3
 72
     8
 73
     4
 74
     0
 42
0.000000001
 43
0.00000001
 40
0.0
 40
0.0
 40
0.0
 40
0.0
 40
1.0
 40
1.0
 40
1.0
 40
1.0
 10
860.3899321598753
 20
36.35136572668488
 30
0.0
 10
860.1176654728639
 20
36.18810584654646
 30
0.0
 10
859.9433501724841
 20
36.02222297567005
 30
0.0
 10
859.9433501724841
 20
35.85167220335816
 30
0.0
  0
LINE
  5
340
330
1F
100
AcDbEntity
  8
0
  6
Continuous
 62
     7
370
    25
100
AcDbLine
 10
859.9433501725
 20
39.063473601
 30
0.0
 11
859.9433501725
 21
35.8516722034
 31
0.0
  0
SPLINE
  5
341
330
1F
100
AcDbEntity
  8
0
  6
Continuous
 62
     7
370
    25
100
AcDbSpline
210
0.0
220
0.0
230
1.0
 70
     8
 71
     3
 72
     8
 73
     4
 74
     0
 42
0.000000001
 43
0.00000001
 40
0.0
 40
0.0
 40
0.0
 40
0.0
 40
1.0
 40
1.0
 40
1.0
 40
1.0
 10
859.9433501724841
 20
45.70071665411245
 30
0.0
 10
859.9433501724841
 20
45.87126742642476
 30
0.0
 10
860.1176654728633
 20
46.03715029730034
 30
0.0
 10
860.3899321598753
 20
46.20041017743916
 30
0.0
  0
LINE
  5
342
330
1F
100
AcDbEntity
  8
0
  6
Continuous
 62
     7
370
    25
100
AcDbLine
 10
859.9433501725
 20
43.9879958264
 30
0.0
 11
859.9433501725
 21
45.7715563945
 31
0.0
  0
SPLINE
  5
343
330
1F
100
AcDbEntity
  8
0
  6
Continuous
 62
     7
370
    25
100
AcDbSpline
210
0.0
220
0.0
230
1.0
 70
     8
 71
     3
 72
     8
 73
     4
 74
     0
 42
0.000000001
 43
0.00000001
 40
0.0
 40
0.0
 40
0.0
 40
0.0
 40
1.0
 40
1.0
 40
1.0
 40
1.0
 10
859.9433501724841
 20
35.85167220335816
 30
0.0
 10
859.9433501724841
 20
35.68112143104597
 30
0.0
 10
860.1176654728635
 20
35.51523856017017
 30
0.0
 10
860.3899321598755
 20
35.35197868003146
 30
0.0
  0
LINE
  5
344
330
1F
100
AcDbEntity
  8
0
  6
Continuous
 62
     7
370
    25
100
AcDbLine
 10
863.9433501725
 20
35.35197868
 30
0.0
 11
860.3899321599
 21
35.35197868
 31
0.0
  0
LINE
  5
345
330
1F
100
AcDbEntity
  8
0
  6
Continuous
 62
     7
370
    25
100
AcDbLine
 10
874.9433501725
 20
38.3174444287
 30
0.0
 11
874.9433501725
 21
43.2349444288
 31
0.0
  0
LINE
  5
346
330
1F
100
AcDbEntity
  8
0
  6
Continuous
 62
     7
370
    25
100
AcDbLine
 10
874.4021001725
 20
42.7032752673
 30
0.0
 11
874.4021001725
 21
43.7761944287
 31
0.0
  0
LINE
  5
347
330
1F
100
AcDbEntity
  8
0
  6
Continuous
 62
     7
370
    25
100
AcDbLine
 10
874.4021001725
 20
37.7761944287
 30
0.0
 11
874.4021001725
 21
42.7032752673
 31
0.0
  0
ARC
  5
348
330
1F
100
AcDbEntity
  8
0
  6
Continuous
 62
     7
370
    25
100
AcDbCircle
 10
867.2433501725
 20
18.1761944287
 30
0.0
 40
3.000000000000029
100
AcDbArc
 50
227.6305369016
 51
270.0
  0
LINE
  5
349
330
1F
100
AcDbEntity
  8
0
  6
Continuous
 62
     7
370
    25
100
AcDbLine
 10
879.2433501725
 20
15.1761944287
 30
0.0
 11
867.2433501725
 21
15.1761944287
 31
0.0
  0
ARC
  5
34A
330
1F
100
AcDbEntity
  8
0
  6
Continuous
 62
     7
370
    25
100
AcDbCircle
 10
879.2433501725
 20
18.1761944287
 30
0.0
 40
3.000000000000114
100
AcDbArc
 50
270.0
 51
0.0
  0
LINE
  5
34B
330
1F
100
AcDbEntity
  8
0
  6
Continuous
 62
     7
370
    25
100
AcDbLine
 10
882.2433501725
 20
19.1761944287
 30
0.0
 11
882.2433501725
 21
18.1761944287
 31
0.0
  0
ARC
  5
34C
330
1F
100
AcDbEntity
  8
0
  6
Continuous
 62
     7
370
    25
100
AcDbCircle
 10
885.2433501725
 20
19.1761944287
 30
0.0
 40
3.0
100
AcDbArc
 50
90.0
 51
180.0
  0
LINE
  5
34D
330
1F
100
AcDbEntity
  8
0
  6
Continuous
 62
     7
370
    25
100
AcDbLine
 10
908.7726394944
 20
22.1761944287
 30
0.0
 11
885.2433501725
 21
22.1761944287
 31
0.0
  0
LINE
  5
34E
330
1F
100
AcDbEntity
  8
0
  6
Continuous
 62
     7
370
    25
100
AcDbLine
 10
908.7726394944
 20
12.5761944287
 30
0.0
 11
908.7726394944
 21
22.1761944287
 31
0.0
  0
LINE
  5
34F
330
1F
100
AcDbEntity
  8
0
  6
Continuous
 62
     7
370
    25
100
AcDbLine
 10
-83.2859391494
 20
12.5761944287
 30
0.0
 11
-83.2859391494
 21
22.1761944287
 31
0.0
  0
LINE
  5
350
330
1F
100
AcDbEntity
  8
0
  6
Continuous
 62
     7
370
    25
100
AcDbLine
 10
-59.7566498275
 20
22.1761944287
 30
0.0
 11
-83.2859391494
 21
22.1761944287
 31
0.0
  0
ARC
  5
351
330
1F
100
AcDbEntity
  8
0
  6
Continuous
 62
     7
370
    25
100
AcDbCircle
 10
-59.7566498275
 20
19.1761944287
 30
0.0
 40
3.0
100
AcDbArc
 50
0.0
 51
90.0
  0
LINE
  5
352
330
1F
100
AcDbEntity
  8
0
  6
Continuous
 62
     7
370
    25
100
AcDbLine
 10
-56.7566498275
 20
19.1761944287
 30
0.0
 11
-56.7566498275
 21
18.1761944287
 31
0.0
  0
ARC
  5
353
330
1F
100
AcDbEntity
  8
0
  6
Continuous
 62
     7
370
    25
100
AcDbCircle
 10
-53.7566498275
 20
18.1761944287
 30
0.0
 40
3.000000000000114
100
AcDbArc
 50
180.0
 51
270.0
  0
LINE
  5
354
330
1F
100
AcDbEntity
  8
0
  6
Continuous
 62
     7
370
    25
100
AcDbLine
 10
-53.7566498275
 20
15.1761944287
 30
0.0
 11
-41.7566498275
 21
15.1761944287
 31
0.0
  0
ARC
  5
355
330
1F
100
AcDbEntity
  8
0
  6
Continuous
 62
     7
370
    25
100
AcDbCircle
 10
-41.7566498275
 20
18.1761944287
 30
0.0
 40
3.00000000000006
100
AcDbArc
 50
270.0
 51
312.3694630984
  0
SPLINE
  5
356
330
1F
100
AcDbEntity
  8
0
  6
Continuous
 62
     7
370
    25
100
AcDbSpline
210
0.0
220
0.0
230
1.0
 70
     8
 71
     3
 72
    20
 73
    16
 74
     0
 42
0.000000001
 43
0.00000001
 40
0.0
 40
0.0
 40
0.0
 40
0.0
 40
0.1249999999999987
 40
0.1249999999999987
 40
0.2499999999999974
 40
0.2499999999999974
 40
0.3749999999999961
 40
0.3749999999999961
 40
0.4999999999999948
 40
0.4999999999999948
 40
0.7499999999999922
 40
0.7499999999999922
 40
0.874999999999996
 40
0.874999999999996
 40
1.0
 40
1.0
 40
1.0
 40
1.0
 10
-82.3566498275225
 20
10.17619442873673
 30
0.0
 10
-82.39569055837698
 20
10.17619442873672
 30
0.0
 10
-82.43420926257677
 20
10.19173098921157
 30
0.0
 10
-82.51161601388485
 20
10.25304934117215
 30
0.0
 10
-82.55076043187131
 20
10.29947308675898
 30
0.0
 10
-82.62791118578672
 20
10.41942395691309
 30
0.0
 10
-82.66623876752777
 20
10.49302860119648
 30
0.0
 10
-82.74378508800412
 20
10.66775896729211
 30
0.0
 10
-82.78276129567303
 20
10.76860959619366
 30
0.0
 10
-82.89825615211782
 20
11.09989487617762
 30
0.0
 10
-82.97616859578805
 20
11.36757503756149
 30
0.0
 10
-83.09164852118894
 20
11.80024906361689
 30
0.0
 10
-83.13051431705387
 20
11.95176715046804
 30
0.0
 10
-83.20828865072261
 20
12.26119290785414
 30
0.0
 10
-83.2468984176774
 20
12.41781523754793
 30
0.0
 10
-83.28593914940392
 20
12.57619442873666
 30
0.0
  0
SPLINE
  5
357
330
1F
100
AcDbEntity
  8
0
  6
Continuous
 62
     7
370
    25
100
AcDbSpline
210
0.0
220
0.0
230
1.0
 70
     8
 71
     3
 72
    20
 73
    16
 74
     0
 42
0.000000001
 43
0.00000001
 40
0.0
 40
0.0
 40
0.0
 40
0.0
 40
0.1250000000000037
 40
0.1250000000000037
 40
0.2500000000000076
 40
0.2500000000000076
 40
0.3750000000000115
 40
0.3750000000000115
 40
0.5000000000000153
 40
0.5000000000000153
 40
0.7500000000000129
 40
0.7500000000000129
 40
0.8750000000000064
 40
0.8750000000000064
 40
1.0
 40
1.0
 40
1.0
 40
1.0
 10
908.7726394943589
 20
12.57619442873666
 30
0.0
 10
908.7335987635045
 20
12.41781524108597
 30
0.0
 10
908.6950800593046
 20
12.26156951639428
 30
0.0
 10
908.6176733079967
 20
11.95357766697768
 30
0.0
 10
908.5785288900101
 20
11.80093355950658
 30
0.0
 10
908.5013781360949
 20
11.51184927031954
 30
0.0
 10
908.4630505543537
 20
11.37404473213548
 30
0.0
 10
908.3855042338771
 20
11.11242605649658
 30
0.0
 10
908.3465280262084
 20
10.98967974981396
 30
0.0
 10
908.2310331697634
 20
10.65835537286626
 30
0.0
 10
908.1531207260934
 20
10.47934424883802
 30
0.0
 10
908.0376408006928
 20
10.29972914945713
 30
0.0
 10
907.9987750048275
 20
10.25348480058941
 30
0.0
 10
907.9210006711589
 20
10.19173149457819
 30
0.0
 10
907.8823909042042
 20
10.17619442873674
 30
0.0
 10
907.8433501724774
 20
10.17619442873673
 30
0.0
  0
LINE
  5
358
330
1F
100
AcDbEntity
  8
0
  6
Continuous
 62
     7
370
    25
100
AcDbLine
 10
907.8433501725
 20
10.1761944287
 30
0.0
 11
-82.3566498275
 21
10.1761944287
 31
0.0
  0
SPLINE
  5
359
330
1F
100
AcDbEntity
  8
0
  6
Continuous
 62
     7
370
    25
100
AcDbSpline
210
0.0
220
0.0
230
1.0
 70
     8
 71
     3
 72
    20
 73
    16
 74
     0
 42
0.000000001
 43
0.00000001
 40
0.0
 40
0.0
 40
0.0
 40
0.0
 40
0.1249999999999952
 40
0.1249999999999952
 40
0.2499999999999905
 40
0.2499999999999905
 40
0.3749999999999857
 40
0.3749999999999857
 40
0.4999999999999809
 40
0.4999999999999809
 40
0.7499999999999984
 40
0.7499999999999984
 40
0.8749999999999992
 40
0.8749999999999992
 40
1.0
 40
1.0
 40
1.0
 40
1.0
 10
907.8433501724774
 20
10.17619442873668
 30
0.0
 10
908.0017293601281
 20
10.17619442873668
 30
0.0
 10
908.1579750848201
 20
10.19173098921154
 30
0.0
 10
908.4659669342367
 20
10.25304934117215
 30
0.0
 10
908.6186110417077
 20
10.29947308675895
 30
0.0
 10
908.9076953308947
 20
10.41942395691309
 30
0.0
 10
909.0454998690786
 20
10.49302860119653
 30
0.0
 10
909.3071185447176
 20
10.66775896729217
 30
0.0
 10
909.4298648514007
 20
10.76860959619365
 30
0.0
 10
909.7611892283479
 20
11.09989487617761
 30
0.0
 10
909.940200352376
 20
11.36757503756152
 30
0.0
 10
910.1198154517572
 20
11.80024906361693
 30
0.0
 10
910.1660598006248
 20
11.95176715046805
 30
0.0
 10
910.2278131066362
 20
12.26119290785416
 30
0.0
 10
910.2433501724773
 20
12.41781523754794
 30
0.0
 10
910.2433501724774
 20
12.57619442873668
 30
0.0
  0
SPLINE
  5
35A
330
1F
100
AcDbEntity
  8
0
  6
Continuous
 62
     7
370
    25
100
AcDbSpline
210
0.0
220
0.0
230
1.0
 70
     8
 71
     3
 72
     9
 73
     5
 74
     0
 42
0.000000001
 43
0.00000001
 40
0.0
 40
0.0
 40
0.0
 40
0.0
 40
0.482578428729207
 40
1.0
 40
1.0
 40
1.0
 40
1.0
 10
908.6195204044241
 20
11.96365468955866
 30
0.0
 10
908.6833285974853
 20
12.05178903087505
 30
0.0
 10
908.8155520647246
 20
12.23442119192806
 30
0.0
 10
908.8338713691809
 20
12.45965407597254
 30
0.0
 10
908.8433501724775
 20
12.57619442873668
 30
0.0
  0
LINE
  5
35B
330
1F
100
AcDbEntity
  8
0
  6
Continuous
 62
     7
370
    25
100
AcDbLine
 10
910.2433501725
 20
12.5761944287
 30
0.0
 11
908.8433501725
 21
12.5761944287
 31
0.0
  0
LINE
  5
35C
330
1F
100
AcDbEntity
  8
0
  6
Continuous
 62
     7
370
    25
100
AcDbLine
 10
-84.7566498275
 20
12.5761944287
 30
0.0
 11
-83.3566498275
 21
12.5761944287
 31
0.0
  0
SPLINE
  5
35D
330
1F
100
AcDbEntity
  8
0
  6
Continuous
 62
     7
370
    25
100
AcDbSpline
210
0.0
220
0.0
230
1.0
 70
     8
 71
     3
 72
     9
 73
     5
 74
     0
 42
0.000000001
 43
0.00000001
 40
0.0
 40
0.0
 40
0.0
 40
0.0
 40
0.6784508005732173
 40
1.0
 40
1.0
 40
1.0
 40
1.0
 10
-83.35664982752256
 20
12.57619442873668
 30
0.0
 10
-83.34340025705822
 20
12.42548722428339
 30
0.0
 10
-83.32387110261813
 20
12.20335290838904
 30
0.0
 10
-83.1830234489791
 20
12.03651980349997
 30
0.0
 10
-83.13773399871033
 20
11.982874752185
 30
0.0
  0
SPLINE
  5
35E
330
1F
100
AcDbEntity
  8
0
  6
Continuous
 62
     7
370
    25
100
AcDbSpline
210
0.0
220
0.0
230
1.0
 70
     8
 71
     3
 72
    20
 73
    16
 74
     0
 42
0.000000001
 43
0.00000001
 40
0.0
 40
0.0
 40
0.0
 40
0.0
 40
0.1249999999999999
 40
0.1249999999999999
 40
0.2499999999999999
 40
0.2499999999999999
 40
0.3749999999999998
 40
0.3749999999999998
 40
0.4999999999999999
 40
0.4999999999999999
 40
0.7499999999999999
 40
0.7499999999999999
 40
0.8749999999999999
 40
0.8749999999999999
 40
1.0
 40
1.0
 40
1.0
 40
1.0
 10
-84.75664982752251
 20
12.57619442873668
 30
0.0
 10
-84.75664982752262
 20
12.41781524108597
 30
0.0
 10
-84.74111326704764
 20
12.26156951639431
 30
0.0
 10
-84.67979491508693
 20
11.95357766697767
 30
0.0
 10
-84.63337116950026
 20
11.80093355950655
 30
0.0
 10
-84.51342029934605
 20
11.51184927031947
 30
0.0
 10
-84.43981565506259
 20
11.37404473213543
 30
0.0
 10
-84.26508528896697
 20
11.11242605649653
 30
0.0
 10
-84.16423466006535
 20
10.98967974981391
 30
0.0
 10
-83.83294938008146
 20
10.65835537286623
 30
0.0
 10
-83.565269218698
 20
10.47934424883792
 30
0.0
 10
-83.13259519264243
 20
10.29972914945702
 30
0.0
 10
-82.98107710579117
 20
10.25348480058936
 30
0.0
 10
-82.67165134840504
 20
10.19173149457814
 30
0.0
 10
-82.51502901871127
 20
10.17619442873669
 30
0.0
 10
-82.3566498275225
 20
10.17619442873669
 30
0.0
  0
LINE
  5
35F
330
1F
100
AcDbEntity
  8
0
  6
Continuous
 62
     7
370
    25
100
AcDbLine
 10
910.2433501725
 20
22.1761944287
 30
0.0
 11
908.8433501725
 21
22.1761944287
 31
0.0
  0
LINE
  5
360
330
1F
100
AcDbEntity
  8
0
  6
Continuous
 62
     7
370
    25
100
AcDbLine
 10
910.2433501725
 20
12.5761944287
 30
0.0
 11
910.2433501725
 21
22.1761944287
 31
0.0
  0
LINE
  5
361
330
1F
100
AcDbEntity
  8
0
  6
Continuous
 62
     7
370
    25
100
AcDbLine
 10
908.8433501725
 20
12.5761944287
 30
0.0
 11
908.8433501725
 21
22.1761944287
 31
0.0
  0
LINE
  5
362
330
1F
100
AcDbEntity
  8
0
  6
Continuous
 62
     7
370
    25
100
AcDbLine
 10
-83.3566498275
 20
12.5761944287
 30
0.0
 11
-83.3566498275
 21
22.1761944287
 31
0.0
  0
LINE
  5
363
330
1F
100
AcDbEntity
  8
0
  6
Continuous
 62
     7
370
    25
100
AcDbLine
 10
-84.7566498275
 20
12.5761944287
 30
0.0
 11
-84.7566498275
 21
22.1761944287
 31
0.0
  0
LINE
  5
364
330
1F
100
AcDbEntity
  8
0
  6
Continuous
 62
     7
370
    25
100
AcDbLine
 10
-84.7566498275
 20
22.1761944287
 30
0.0
 11
-83.3566498275
 21
22.1761944287
 31
0.0
  0
LINE
  5
365
330
1F
100
AcDbEntity
  8
0
  6
Continuous
 62
     7
370
    25
100
AcDbLine
 10
864.9433501725
 20
46.2761944287
 30
0.0
 11
864.9433501725
 21
29.2761944287
 31
0.0
  0
LINE
  5
366
330
1F
100
AcDbEntity
  8
0
  6
Continuous
 62
     7
370
    25
100
AcDbLine
 10
865.7433501725
 20
46.2761944287
 30
0.0
 11
865.7433501725
 21
29.2761944287
 31
0.0
  0
LINE
  5
367
330
1F
100
AcDbEntity
  8
0
  6
Continuous
 62
     7
370
    25
100
AcDbLine
 10
-40.2566498275
 20
49.2761944287
 30
0.0
 11
-39.4566498275
 21
49.2761944287
 31
0.0
  0
LINE
  5
368
330
1F
100
AcDbEntity
  8
0
  6
Continuous
 62
     7
370
    25
100
AcDbLine
 10
-39.4566498275
 20
49.2761944287
 30
0.0
 11
-39.4566498275
 21
46.2761944287
 31
0.0
  0
LINE
  5
369
330
1F
100
AcDbEntity
  8
0
  6
Continuous
 62
     7
370
    25
100
AcDbLine
 10
-40.2566498275
 20
46.2761944287
 30
0.0
 11
-40.2566498275
 21
49.2761944287
 31
0.0
  0
LINE
  5
36A
330
1F
100
AcDbEntity
  8
0
  6
Continuous
 62
     7
370
    25
100
AcDbLine
 10
-40.2566498275
 20
29.2761944287
 30
0.0
 11
-40.2566498275
 21
46.2761944287
 31
0.0
  0
LINE
  5
36B
330
1F
100
AcDbEntity
  8
0
  6
Continuous
 62
     7
370
    25
100
AcDbLine
 10
-39.4566498275
 20
29.2761944287
 30
0.0
 11
-39.4566498275
 21
46.2761944287
 31
0.0
  0
LINE
  5
36C
330
1F
100
AcDbEntity
  8
0
  6
Continuous
 62
     7
370
    25
100
AcDbLine
 10
864.9433501725
 20
49.2761944287
 30
0.0
 11
865.7433501725
 21
49.2761944287
 31
0.0
  0
LINE
  5
36D
330
1F
100
AcDbEntity
  8
0
  6
Continuous
 62
     7
370
    25
100
AcDbLine
 10
864.9433501725
 20
46.2761944287
 30
0.0
 11
864.9433501725
 21
49.2761944287
 31
0.0
  0
LINE
  5
36E
330
1F
100
AcDbEntity
  8
0
  6
Continuous
 62
     7
370
    25
100
AcDbLine
 10
865.7433501725
 20
49.2761944287
 30
0.0
 11
865.7433501725
 21
46.2761944287
 31
0.0
  0
LINE
  5
36F
330
1F
100
AcDbEntity
  8
0
  6
Continuous
 62
     7
370
    25
100
AcDbLine
 10
865.7433501725
 20
26.2761944287
 30
0.0
 11
864.9433501725
 21
26.2761944287
 31
0.0
  0
LINE
  5
370
330
1F
100
AcDbEntity
  8
0
  6
Continuous
 62
     7
370
    25
100
AcDbLine
 10
864.9433501725
 20
26.2761944287
 30
0.0
 11
864.9433501725
 21
29.2761944287
 31
0.0
  0
LINE
  5
371
330
1F
100
AcDbEntity
  8
0
  6
Continuous
 62
     7
370
    25
100
AcDbLine
 10
865.7433501725
 20
29.2761944287
 30
0.0
 11
865.7433501725
 21
26.2761944287
 31
0.0
  0
LINE
  5
372
330
1F
100
AcDbEntity
  8
0
  6
Continuous
 62
     7
370
    25
100
AcDbLine
 10
-39.4566498275
 20
26.2761944287
 30
0.0
 11
-40.2566498275
 21
26.2761944287
 31
0.0
  0
LINE
  5
373
330
1F
100
AcDbEntity
  8
0
  6
Continuous
 62
     7
370
    25
100
AcDbLine
 10
-40.2566498275
 20
26.2761944287
 30
0.0
 11
-40.2566498275
 21
29.2761944287
 31
0.0
  0
LINE
  5
374
330
1F
100
AcDbEntity
  8
0
  6
Continuous
 62
     7
370
    25
100
AcDbLine
 10
-39.4566498275
 20
29.2761944287
 30
0.0
 11
-39.4566498275
 21
26.2761944287
 31
0.0
  0
LINE
  5
375
330
1F
100
AcDbEntity
  8
0
  6
Continuous
 62
     7
370
    25
100
AcDbLine
 10
862.7433501725
 20
28.2761944287
 30
0.0
 11
862.7433501725
 21
29.0761944287
 31
0.0
  0
LINE
  5
376
330
1F
100
AcDbEntity
  8
0
  6
Continuous
 62
     7
370
    25
100
AcDbLine
 10
-37.2566498275
 20
28.2761944287
 30
0.0
 11
-37.2566498275
 21
29.0761944287
 31
0.0
  0
LINE
  5
377
330
1F
100
AcDbEntity
  8
0
  6
Continuous
 62
     7
370
    25
100
AcDbLine
 10
862.7433501725
 20
29.0761944287
 30
0.0
 11
-37.2566498275
 21
29.0761944287
 31
0.0
  0
LINE
  5
378
330
1F
100
AcDbEntity
  8
0
  6
Continuous
 62
     7
370
    25
100
AcDbLine
 10
608.2433501725
 20
69.1808078205
 30
0.0
 11
608.2433501725
 21
62.6631163669
 31
0.0
  0
ARC
  5
379
330
1F
100
AcDbEntity
  8
0
  6
Continuous
 62
     7
370
    25
100
AcDbCircle
 10
611.2433501725
 20
69.1808078205
 30
0.0
 40
3.0
100
AcDbArc
 50
90.0
 51
180.0
  0
LINE
  5
37A
330
1F
100
AcDbEntity
  8
0
  6
Continuous
 62
     7
370
    25
100
AcDbLine
 10
805.2433501725
 20
72.1808078205
 30
0.0
 11
611.2433501725
 21
72.1808078205
 31
0.0
  0
ARC
  5
37B
330
1F
100
AcDbEntity
  8
0
  6
Continuous
 62
     7
370
    25
100
AcDbCircle
 10
805.2433501725
 20
69.1808078205
 30
0.0
 40
3.0
100
AcDbArc
 50
0.0
 51
90.0
  0
LINE
  5
37C
330
1F
100
AcDbEntity
  8
0
  6
Continuous
 62
     7
370
    25
100
AcDbLine
 10
808.2433501725
 20
62.6631163669
 30
0.0
 11
808.2433501725
 21
69.1808078205
 31
0.0
  0
LINE
  5
37D
330
1F
100
AcDbEntity
  8
0
  6
Continuous
 62
     7
370
    25
100
AcDbLine
 10
17.2433501725
 20
69.1808078205
 30
0.0
 11
17.2433501725
 21
62.6631163669
 31
0.0
  0
ARC
  5
37E
330
1F
100
AcDbEntity
  8
0
  6
Continuous
 62
     7
370
    25
100
AcDbCircle
 10
20.2433501725
 20
69.1808078205
 30
0.0
 40
3.000000000000004
100
AcDbArc
 50
90.0
 51
180.0
  0
ARC
  5
37F
330
1F
100
AcDbEntity
  8
0
  6
Continuous
 62
     7
370
    25
100
AcDbCircle
 10
214.2433501725
 20
69.1808078205
 30
0.0
 40
3.0
100
AcDbArc
 50
0.0
 51
90.0
  0
LINE
  5
380
330
1F
100
AcDbEntity
  8
0
  6
Continuous
 62
     7
370
    25
100
AcDbLine
 10
217.2433501725
 20
62.6631163669
 30
0.0
 11
217.2433501725
 21
69.1808078205
 31
0.0
  0
LINE
  5
381
330
1F
100
AcDbEntity
  8
0
  6
Continuous
 62
     7
370
    25
100
AcDbLine
 10
214.2433501725
 20
72.1808078205
 30
0.0
 11
20.2433501725
 21
72.1808078205
 31
0.0
  0
LINE
  5
382
330
1F
100
AcDbEntity
  8
0
  6
Continuous
 62
     7
370
    25
100
AcDbLine
 10
312.7433501725
 20
69.1808078205
 30
0.0
 11
312.7433501725
 21
62.6631163669
 31
0.0
  0
LINE
  5
383
330
1F
100
AcDbEntity
  8
0
  6
Continuous
 62
     7
370
    25
100
AcDbLine
 10
512.7433501725
 20
62.6631163669
 30
0.0
 11
512.7433501725
 21
69.1808078205
 31
0.0
  0
LINE
  5
384
330
1F
100
AcDbEntity
  8
0
  6
Continuous
 62
     7
370
    25
100
AcDbLine
 10
509.7433501725
 20
72.1808078205
 30
0.0
 11
315.7433501725
 21
72.1808078205
 31
0.0
  0
ARC
  5
385
330
1F
100
AcDbEntity
  8
0
  6
Continuous
 62
     7
370
    25
100
AcDbCircle
 10
315.7433501725
 20
69.1808078205
 30
0.0
 40
3.0
100
AcDbArc
 50
90.0
 51
180.0
  0
ARC
  5
386
330
1F
100
AcDbEntity
  8
0
  6
Continuous
 62
     7
370
    25
100
AcDbCircle
 10
509.7433501725
 20
69.1808078205
 30
0.0
 40
3.0
100
AcDbArc
 50
0.0
 51
90.0
  0
LINE
  5
387
330
1F
100
AcDbEntity
  8
0
  6
Continuous
 62
     7
370
    25
100
AcDbLine
 10
17.2433501725
 20
61.7631163669
 30
0.0
 11
17.2433501725
 21
62.6631163669
 31
0.0
  0
LINE
  5
388
330
1F
100
AcDbEntity
  8
0
  6
Continuous
 62
     7
370
    25
100
AcDbLine
 10
217.2433501725
 20
62.6631163669
 30
0.0
 11
217.2433501725
 21
61.7631163669
 31
0.0
  0
LINE
  5
389
330
1F
100
AcDbEntity
  8
0
  6
Continuous
 62
     7
370
    25
100
AcDbLine
 10
808.2433501725
 20
62.6631163669
 30
0.0
 11
808.2433501725
 21
61.7631163669
 31
0.0
  0
LINE
  5
38A
330
1F
100
AcDbEntity
  8
0
  6
Continuous
 62
     7
370
    25
100
AcDbLine
 10
608.2433501725
 20
61.7631163669
 30
0.0
 11
608.2433501725
 21
62.6631163669
 31
0.0
  0
LINE
  5
38B
330
1F
100
AcDbEntity
  8
0
  6
Continuous
 62
     7
370
    25
100
AcDbLine
 10
312.7433501725
 20
61.7631163669
 30
0.0
 11
312.7433501725
 21
62.6631163669
 31
0.0
  0
LINE
  5
38C
330
1F
100
AcDbEntity
  8
0
  6
Continuous
 62
     7
370
    25
100
AcDbLine
 10
512.7433501725
 20
62.6631163669
 30
0.0
 11
512.7433501725
 21
61.7631163669
 31
0.0
  0
LINE
  5
38D
330
1F
100
AcDbEntity
  8
0
  6
Continuous
 62
     7
370
    25
100
AcDbLine
 10
17.2433501725
 20
55.1382452363
 30
0.0
 11
17.2433501725
 21
61.7631163669
 31
0.0
  0
LINE
  5
38E
330
1F
100
AcDbEntity
  8
0
  6
Continuous
 62
     7
370
    25
100
AcDbLine
 10
217.2433501725
 20
61.7631163669
 30
0.0
 11
217.2433501725
 21
55.1382452363
 31
0.0
  0
LINE
  5
38F
330
1F
100
AcDbEntity
  8
0
  6
Continuous
 62
     7
370
    25
100
AcDbLine
 10
512.7433501725
 20
61.7631163669
 30
0.0
 11
512.7433501725
 21
55.1382452363
 31
0.0
  0
LINE
  5
390
330
1F
100
AcDbEntity
  8
0
  6
Continuous
 62
     7
370
    25
100
AcDbLine
 10
312.7433501725
 20
55.1382452363
 30
0.0
 11
312.7433501725
 21
61.7631163669
 31
0.0
  0
LINE
  5
391
330
1F
100
AcDbEntity
  8
0
  6
Continuous
 62
     7
370
    25
100
AcDbLine
 10
808.2433501725
 20
61.7631163669
 30
0.0
 11
808.2433501725
 21
55.1382452363
 31
0.0
  0
LINE
  5
392
330
1F
100
AcDbEntity
  8
0
  6
Continuous
 62
     7
370
    25
100
AcDbLine
 10
608.2433501725
 20
55.1382452363
 30
0.0
 11
608.2433501725
 21
61.7631163669
 31
0.0
  0
LINE
  5
393
330
1F
100
AcDbEntity
  8
0
  6
Continuous
 62
     7
370
    25
100
AcDbLine
 10
864.9433501725
 20
49.2761944287
 30
0.0
 11
863.9433501725
 21
49.2761944287
 31
0.0
  0
LINE
  5
394
330
1F
100
AcDbEntity
  8
0
  6
Continuous
 62
     7
370
    25
100
AcDbLine
 10
863.9433501725
 20
30.2761944287
 30
0.0
 11
864.9433501725
 21
30.2761944287
 31
0.0
  0
LINE
  5
395
330
1F
100
AcDbEntity
  8
0
  6
Continuous
 62
     7
370
    25
100
AcDbLine
 10
-39.4566498275
 20
30.2761944287
 30
0.0
 11
-38.4566498275
 21
30.2761944287
 31
0.0
  0
LINE
  5
396
330
1F
100
AcDbEntity
  8
0
  6
Continuous
 62
     7
370
    25
100
AcDbLine
 10
-38.4566498275
 20
49.2761944287
 30
0.0
 11
-39.4566498275
 21
49.2761944287
 31
0.0
  0
LINE
  5
397
330
1F
100
AcDbEntity
  8
0
  6
Continuous
 62
     7
370
    25
100
AcDbLine
 10
-37.2566498275
 20
30.0761944287
 30
0.0
 11
-37.2566498275
 21
29.0761944287
 31
0.0
  0
LINE
  5
398
330
1F
100
AcDbEntity
  8
0
  6
Continuous
 62
     7
370
    25
100
AcDbLine
 10
862.7433501725
 20
29.0761944287
 30
0.0
 11
862.7433501725
 21
30.0761944287
 31
0.0
  0
LINE
  5
399
330
1F
100
AcDbEntity
  8
0
  6
Continuous
 62
     7
370
    25
100
AcDbLine
 10
512.7433501725
 20
54.6382452363
 30
0.0
 11
512.7433501725
 21
55.1382452363
 31
0.0
  0
LINE
  5
39A
330
1F
100
AcDbEntity
  8
0
  6
Continuous
 62
     7
370
    25
100
AcDbLine
 10
312.7433501725
 20
55.1382452363
 30
0.0
 11
312.7433501725
 21
54.6382452363
 31
0.0
  0
LINE
  5
39B
330
1F
100
AcDbEntity
  8
0
  6
Continuous
 62
     7
370
    25
100
AcDbLine
 10
217.2433501725
 20
54.6382452363
 30
0.0
 11
217.2433501725
 21
55.1382452363
 31
0.0
  0
LINE
  5
39C
330
1F
100
AcDbEntity
  8
0
  6
Continuous
 62
     7
370
    25
100
AcDbLine
 10
17.2433501725
 20
55.1382452363
 30
0.0
 11
17.2433501725
 21
54.6382452363
 31
0.0
  0
LINE
  5
39D
330
1F
100
AcDbEntity
  8
0
  6
Continuous
 62
     7
370
    25
100
AcDbLine
 10
808.2433501725
 20
54.6382452363
 30
0.0
 11
808.2433501725
 21
55.1382452363
 31
0.0
  0
LINE
  5
39E
330
1F
100
AcDbEntity
  8
0
  6
Continuous
 62
     7
370
    25
100
AcDbLine
 10
608.2433501725
 20
55.1382452363
 30
0.0
 11
608.2433501725
 21
54.6382452363
 31
0.0
  0
LINE
  5
39F
330
1F
100
AcDbEntity
  8
0
  6
Continuous
 62
     7
370
    25
100
AcDbLine
 10
-37.2566498275
 20
30.2761944287
 30
0.0
 11
-37.2566498275
 21
30.0761944287
 31
0.0
  0
LINE
  5
3A0
330
1F
100
AcDbEntity
  8
0
  6
Continuous
 62
     7
370
    25
100
AcDbLine
 10
-38.4566498275
 20
30.2761944287
 30
0.0
 11
-37.2566498275
 21
30.2761944287
 31
0.0
  0
LINE
  5
3A1
330
1F
100
AcDbEntity
  8
0
  6
Continuous
 62
     7
370
    25
100
AcDbLine
 10
-35.2566498275
 20
49.2761944287
 30
0.0
 11
-38.4566498275
 21
49.2761944287
 31
0.0
  0
LINE
  5
3A2
330
1F
100
AcDbEntity
  8
0
  6
Continuous
 62
     7
370
    25
100
AcDbLine
 10
-35.2566498275
 20
70.2761944287
 30
0.0
 11
-35.2566498275
 21
49.2761944287
 31
0.0
  0
ARC
  5
3A3
330
1F
100
AcDbEntity
  8
0
  6
Continuous
 62
     7
370
    25
100
AcDbCircle
 10
-32.2566498275
 20
70.2761944287
 30
0.0
 40
3.000000000000007
100
AcDbArc
 50
90.0
 51
180.0
  0
LINE
  5
3A4
330
1F
100
AcDbEntity
  8
0
  6
Continuous
 62
     7
370
    25
100
AcDbLine
 10
11.7433501725
 20
73.2761944287
 30
0.0
 11
-32.2566498275
 21
73.2761944287
 31
0.0
  0
ARC
  5
3A5
330
1F
100
AcDbEntity
  8
0
  6
Continuous
 62
     7
370
    25
100
AcDbCircle
 10
11.7433501725
 20
70.2761944287
 30
0.0
 40
3.000000000000002
100
AcDbArc
 50
0.0
 51
90.0
  0
LINE
  5
3A6
330
1F
100
AcDbEntity
  8
0
  6
Continuous
 62
     7
370
    25
100
AcDbLine
 10
14.7433501725
 20
70.2761944287
 30
0.0
 11
14.7433501725
 21
54.1461944287
 31
0.0
  0
LINE
  5
3A7
330
1F
100
AcDbEntity
  8
0
  6
Continuous
 62
     7
370
    25
100
AcDbLine
 10
14.7433501725
 20
54.1461944287
 30
0.0
 11
17.2433501725
 21
54.1461944287
 31
0.0
  0
LINE
  5
3A8
330
1F
100
AcDbEntity
  8
0
  6
Continuous
 62
     7
370
    25
100
AcDbLine
 10
17.2433501725
 20
54.6382452363
 30
0.0
 11
17.2433501725
 21
54.1461944287
 31
0.0
  0
LINE
  5
3A9
330
1F
100
AcDbEntity
  8
0
  6
Continuous
 62
     7
370
    25
100
AcDbLine
 10
217.2433501725
 20
54.6382452363
 30
0.0
 11
217.2433501725
 21
54.1461944287
 31
0.0
  0
LINE
  5
3AA
330
1F
100
AcDbEntity
  8
0
  6
Continuous
 62
     7
370
    25
100
AcDbLine
 10
217.2433501725
 20
54.1461944287
 30
0.0
 11
219.7433501725
 21
54.1461944287
 31
0.0
  0
LINE
  5
3AB
330
1F
100
AcDbEntity
  8
0
  6
Continuous
 62
     7
370
    25
100
AcDbLine
 10
219.7433501725
 20
54.1461944287
 30
0.0
 11
219.7433501725
 21
70.2761944287
 31
0.0
  0
ARC
  5
3AC
330
1F
100
AcDbEntity
  8
0
  6
Continuous
 62
     7
370
    25
100
AcDbCircle
 10
222.7433501725
 20
70.2761944287
 30
0.0
 40
3.000000000000028
100
AcDbArc
 50
90.0
 51
180.0
  0
LINE
  5
3AD
330
1F
100
AcDbEntity
  8
0
  6
Continuous
 62
     7
370
    25
100
AcDbLine
 10
307.2433501725
 20
73.2761944287
 30
0.0
 11
222.7433501725
 21
73.2761944287
 31
0.0
  0
ARC
  5
3AE
330
1F
100
AcDbEntity
  8
0
  6
Continuous
 62
     7
370
    25
100
AcDbCircle
 10
307.2433501725
 20
70.2761944287
 30
0.0
 40
3.0
100
AcDbArc
 50
0.0
 51
90.0
  0
LINE
  5
3AF
330
1F
100
AcDbEntity
  8
0
  6
Continuous
 62
     7
370
    25
100
AcDbLine
 10
310.2433501725
 20
70.2761944287
 30
0.0
 11
310.2433501725
 21
54.1461944287
 31
0.0
  0
LINE
  5
3B0
330
1F
100
AcDbEntity
  8
0
  6
Continuous
 62
     7
370
    25
100
AcDbLine
 10
310.2433501725
 20
54.1461944287
 30
0.0
 11
312.7433501725
 21
54.1461944287
 31
0.0
  0
LINE
  5
3B1
330
1F
100
AcDbEntity
  8
0
  6
Continuous
 62
     7
370
    25
100
AcDbLine
 10
312.7433501725
 20
54.6382452363
 30
0.0
 11
312.7433501725
 21
54.1461944287
 31
0.0
  0
LINE
  5
3B2
330
1F
100
AcDbEntity
  8
0
  6
Continuous
 62
     7
370
    25
100
AcDbLine
 10
512.7433501725
 20
54.6382452363
 30
0.0
 11
512.7433501725
 21
54.1461944287
 31
0.0
  0
LINE
  5
3B3
330
1F
100
AcDbEntity
  8
0
  6
Continuous
 62
     7
370
    25
100
AcDbLine
 10
512.7433501725
 20
54.1461944287
 30
0.0
 11
515.2433501725
 21
54.1461944287
 31
0.0
  0
LINE
  5
3B4
330
1F
100
AcDbEntity
  8
0
  6
Continuous
 62
     7
370
    25
100
AcDbLine
 10
515.2433501725
 20
54.1461944287
 30
0.0
 11
515.2433501725
 21
70.2761944287
 31
0.0
  0
ARC
  5
3B5
330
1F
100
AcDbEntity
  8
0
  6
Continuous
 62
     7
370
    25
100
AcDbCircle
 10
518.2433501725
 20
70.2761944287
 30
0.0
 40
3.0
100
AcDbArc
 50
90.0
 51
180.0
  0
LINE
  5
3B6
330
1F
100
AcDbEntity
  8
0
  6
Continuous
 62
     7
370
    25
100
AcDbLine
 10
602.7433501725
 20
73.2761944287
 30
0.0
 11
518.2433501725
 21
73.2761944287
 31
0.0
  0
ARC
  5
3B7
330
1F
100
AcDbEntity
  8
0
  6
Continuous
 62
     7
370
    25
100
AcDbCircle
 10
602.7433501725
 20
70.2761944287
 30
0.0
 40
3.0
100
AcDbArc
 50
0.0
 51
90.0
  0
LINE
  5
3B8
330
1F
100
AcDbEntity
  8
0
  6
Continuous
 62
     7
370
    25
100
AcDbLine
 10
605.7433501725
 20
70.2761944287
 30
0.0
 11
605.7433501725
 21
54.1461944287
 31
0.0
  0
LINE
  5
3B9
330
1F
100
AcDbEntity
  8
0
  6
Continuous
 62
     7
370
    25
100
AcDbLine
 10
605.7433501725
 20
54.1461944287
 30
0.0
 11
608.2433501725
 21
54.1461944287
 31
0.0
  0
LINE
  5
3BA
330
1F
100
AcDbEntity
  8
0
  6
Continuous
 62
     7
370
    25
100
AcDbLine
 10
608.2433501725
 20
54.6382452363
 30
0.0
 11
608.2433501725
 21
54.1461944287
 31
0.0
  0
LINE
  5
3BB
330
1F
100
AcDbEntity
  8
0
  6
Continuous
 62
     7
370
    25
100
AcDbLine
 10
808.2433501725
 20
54.6382452363
 30
0.0
 11
808.2433501725
 21
54.1461944287
 31
0.0
  0
LINE
  5
3BC
330
1F
100
AcDbEntity
  8
0
  6
Continuous
 62
     7
370
    25
100
AcDbLine
 10
808.2433501725
 20
54.1461944287
 30
0.0
 11
810.7433501725
 21
54.1461944287
 31
0.0
  0
LINE
  5
3BD
330
1F
100
AcDbEntity
  8
0
  6
Continuous
 62
     7
370
    25
100
AcDbLine
 10
810.7433501725
 20
54.1461944287
 30
0.0
 11
810.7433501725
 21
70.2761944287
 31
0.0
  0
ARC
  5
3BE
330
1F
100
AcDbEntity
  8
0
  6
Continuous
 62
     7
370
    25
100
AcDbCircle
 10
813.7433501725
 20
70.2761944287
 30
0.0
 40
3.0
100
AcDbArc
 50
90.0
 51
180.0
  0
LINE
  5
3BF
330
1F
100
AcDbEntity
  8
0
  6
Continuous
 62
     7
370
    25
100
AcDbLine
 10
857.7433501725
 20
73.2761944287
 30
0.0
 11
813.7433501725
 21
73.2761944287
 31
0.0
  0
ARC
  5
3C0
330
1F
100
AcDbEntity
  8
0
  6
Continuous
 62
     7
370
    25
100
AcDbCircle
 10
857.7433501725
 20
70.2761944287
 30
0.0
 40
3.0
100
AcDbArc
 50
0.0
 51
90.0
  0
LINE
  5
3C1
330
1F
100
AcDbEntity
  8
0
  6
Continuous
 62
     7
370
    25
100
AcDbLine
 10
860.7433501725
 20
49.2761944287
 30
0.0
 11
860.7433501725
 21
70.2761944287
 31
0.0
  0
LINE
  5
3C2
330
1F
100
AcDbEntity
  8
0
  6
Continuous
 62
     7
370
    25
100
AcDbLine
 10
863.9433501725
 20
49.2761944287
 30
0.0
 11
860.7433501725
 21
49.2761944287
 31
0.0
  0
LINE
  5
3C3
330
1F
100
AcDbEntity
  8
0
  6
Continuous
 62
     7
370
    25
100
AcDbLine
 10
862.7433501725
 20
30.2761944287
 30
0.0
 11
863.9433501725
 21
30.2761944287
 31
0.0
  0
LINE
  5
3C4
330
1F
100
AcDbEntity
  8
0
  6
Continuous
 62
     7
370
    25
100
AcDbLine
 10
862.7433501725
 20
30.0761944287
 30
0.0
 11
862.7433501725
 21
30.2761944287
 31
0.0
  0
SPLINE
  5
3C5
330
1F
100
AcDbEntity
  8
0
  6
Continuous
 62
     7
370
    25
100
AcDbSpline
210
0.0
220
0.0
230
1.0
 70
     8
 71
     3
 72
     9
 73
     5
 74
     0
 42
0.000000001
 43
0.00000001
 40
0.0
 40
0.0
 40
0.0
 40
0.0
 40
0.6277651913045473
 40
1.0
 40
1.0
 40
1.0
 40
1.0
 10
840.6984081338422
 20
29.48642035368199
 30
0.0
 10
840.6491010337007
 20
29.49144795315748
 30
0.0
 10
840.5705571755442
 20
29.4994566792626
 30
0.0
 10
840.4954265509532
 20
29.6389501053491
 30
0.0
 10
840.4674603172815
 20
29.69087441412268
 30
0.0
  0
SPLINE
  5
3C6
330
1F
100
AcDbEntity
  8
0
  6
Continuous
 62
     7
370
    25
100
AcDbSpline
210
0.0
220
0.0
230
1.0
 70
     8
 71
     3
 72
    12
 73
     8
 74
     0
 42
0.000000001
 43
0.00000001
 40
0.0
 40
0.0
 40
0.0
 40
0.0
 40
0.5000000000000064
 40
0.5000000000000064
 40
0.7500000000000032
 40
0.7500000000000032
 40
1.0
 40
1.0
 40
1.0
 40
1.0
 10
840.4674603172814
 20
29.6908744141217
 30
0.0
 10
840.9794664689863
 20
29.50038012469818
 30
0.0
 10
841.4991440152546
 20
29.37870571163581
 30
0.0
 10
842.2989318728169
 20
29.37804952110457
 30
0.0
 10
842.565255819665
 20
29.40788352289897
 30
0.0
 10
843.0884133226666
 20
29.51681339300657
 30
0.0
 10
843.3468779538149
 20
29.59550858006943
 30
0.0
 10
843.6032000401369
 20
29.69087441412218
 30
0.0
  0
SPLINE
  5
3C7
330
1F
100
AcDbEntity
  8
0
  6
Continuous
 62
     7
370
    25
100
AcDbSpline
210
0.0
220
0.0
230
1.0
 70
     8
 71
     3
 72
    12
 73
     8
 74
     0
 42
0.000000001
 43
0.00000001
 40
0.0
 40
0.0
 40
0.0
 40
0.0
 40
0.4999999999999847
 40
0.4999999999999847
 40
0.7499999999999923
 40
0.7499999999999923
 40
1.0
 40
1.0
 40
1.0
 40
1.0
 10
843.6032000401367
 20
29.69087441412169
 30
0.0
 10
844.219730430057
 20
29.50038012469816
 30
0.0
 10
844.8454983025068
 20
29.37870571163579
 30
0.0
 10
845.8085600118917
 20
29.37804952110456
 30
0.0
 10
846.1292530470215
 20
29.40788352289896
 30
0.0
 10
846.7592112970173
 20
29.51681339300655
 30
0.0
 10
847.0704405650482
 20
29.59550858006943
 30
0.0
 10
847.3790898953329
 20
29.69087441412219
 30
0.0
  0
SPLINE
  5
3C8
330
1F
100
AcDbEntity
  8
0
  6
Continuous
 62
     7
370
    25
100
AcDbSpline
210
0.0
220
0.0
230
1.0
 70
     8
 71
     3
 72
    14
 73
    10
 74
     0
 42
0.000000001
 43
0.00000001
 40
0.0
 40
0.0
 40
0.0
 40
0.0
 40
0.25
 40
0.25
 40
0.5
 40
0.5
 40
0.75
 40
0.75
 40
1.0
 40
1.0
 40
1.0
 40
1.0
 10
847.3790898953329
 20
29.69087441412268
 30
0.0
 10
847.4311476042236
 20
29.59599980481208
 30
0.0
 10
847.4844811425517
 20
29.51639487993632
 30
0.0
 10
847.5914131501796
 20
29.40755826504208
 30
0.0
 10
847.6451665166275
 20
29.3782346593516
 30
0.0
 10
847.753345568051
 20
29.37829944109719
 30
0.0
 10
847.8081742646391
 20
29.40845563442355
 30
0.0
 10
847.9150812472989
 20
29.51804083578927
 30
0.0
 10
847.9675027622712
 20
29.59658380959144
 30
0.0
 10
848.0192400276734
 20
29.69087441412269
 30
0.0
  0
LINE
  5
3C9
330
1F
100
AcDbEntity
  8
0
  6
Continuous
 62
     7
370
    25
100
AcDbLine
 10
847.3933501725
 20
29.1761944287
 30
0.0
 11
841.0933501725
 21
29.1761944287
 31
0.0
  0
SPLINE
  5
3CA
330
1F
100
AcDbEntity
  8
0
  6
Continuous
 62
     7
370
    25
100
AcDbSpline
210
0.0
220
0.0
230
1.0
 70
     8
 71
     3
 72
    12
 73
     8
 74
     0
 42
0.000000001
 43
0.00000001
 40
0.0
 40
0.0
 40
0.0
 40
0.0
 40
0.4999999999999847
 40
0.4999999999999847
 40
0.7499999999999923
 40
0.7499999999999923
 40
1.0
 40
1.0
 40
1.0
 40
1.0
 10
847.3790898953329
 20
31.86151444335164
 30
0.0
 10
846.7625595054127
 20
32.05200873277516
 30
0.0
 10
846.136791632963
 20
32.17368314583753
 30
0.0
 10
845.173729923578
 20
32.17433933636877
 30
0.0
 10
844.8530368884482
 20
32.14450533457438
 30
0.0
 10
844.2230786384523
 20
32.03557546446678
 30
0.0
 10
843.9118493704214
 20
31.95688027740391
 30
0.0
 10
843.6032000401368
 20
31.86151444335116
 30
0.0
  0
LINE
  5
3CB
330
1F
100
AcDbEntity
  8
0
  6
Continuous
 62
     7
370
    25
100
AcDbLine
 10
847.3790898953
 20
31.8615144434
 30
0.0
 11
847.3790898953
 21
29.6908744141
 31
0.0
  0
LINE
  5
3CC
330
1F
100
AcDbEntity
  8
0
  6
Continuous
 62
     7
370
    25
100
AcDbLine
 10
843.6032000401
 20
31.8615144434
 30
0.0
 11
843.6032000401
 21
29.6908744141
 31
0.0
  0
SPLINE
  5
3CD
330
1F
100
AcDbEntity
  8
0
  6
Continuous
 62
     7
370
    25
100
AcDbSpline
210
0.0
220
0.0
230
1.0
 70
     8
 71
     3
 72
    14
 73
    10
 74
     0
 42
0.000000001
 43
0.00000001
 40
0.0
 40
0.0
 40
0.0
 40
0.0
 40
0.25
 40
0.25
 40
0.5
 40
0.5
 40
0.75
 40
0.75
 40
1.0
 40
1.0
 40
1.0
 40
1.0
 10
847.3790898953329
 20
31.86151444335065
 30
0.0
 10
847.4311476042236
 20
31.95638905266127
 30
0.0
 10
847.4844811425517
 20
32.03599397753703
 30
0.0
 10
847.5914131501796
 20
32.14483059243124
 30
0.0
 10
847.6451665166275
 20
32.17415419812175
 30
0.0
 10
847.753345568051
 20
32.17408941637615
 30
0.0
 10
847.8081742646391
 20
32.14393322304979
 30
0.0
 10
847.9150812472989
 20
32.03434802168406
 30
0.0
 10
847.9675027622712
 20
31.9558050478819
 30
0.0
 10
848.0192400276734
 20
31.86151444335064
 30
0.0
  0
SPLINE
  5
3CE
330
1F
100
AcDbEntity
  8
0
  6
Continuous
 62
     7
370
    25
100
AcDbSpline
210
0.0
220
0.0
230
1.0
 70
     8
 71
     3
 72
    12
 73
     8
 74
     0
 42
0.000000001
 43
0.00000001
 40
0.0
 40
0.0
 40
0.0
 40
0.0
 40
0.499999999999978
 40
0.499999999999978
 40
0.749999999999989
 40
0.749999999999989
 40
1.0
 40
1.0
 40
1.0
 40
1.0
 10
843.603200040137
 20
31.86151444335164
 30
0.0
 10
843.091193888432
 20
32.05200873277515
 30
0.0
 10
842.5715163421638
 20
32.17368314583754
 30
0.0
 10
841.7717284846011
 20
32.17433933636876
 30
0.0
 10
841.5054045377533
 20
32.14450533457437
 30
0.0
 10
840.9822470347517
 20
32.03557546446677
 30
0.0
 10
840.7237824036038
 20
31.95688027740391
 30
0.0
 10
840.4674603172815
 20
31.86151444335115
 30
0.0
  0
SPLINE
  5
3CF
330
1F
100
AcDbEntity
  8
0
  6
Continuous
 62
     7
370
    25
100
AcDbSpline
210
0.0
220
0.0
230
1.0
 70
     8
 71
     3
 72
     9
 73
     5
 74
     0
 42
0.000000001
 43
0.00000001
 40
0.0
 40
0.0
 40
0.0
 40
0.0
 40
0.3722348086954393
 40
1.0
 40
1.0
 40
1.0
 40
1.0
 10
840.4674603172815
 20
31.86151444335065
 30
0.0
 10
840.4954265509532
 20
31.91343875212424
 30
0.0
 10
840.5705571755441
 20
32.05293217821075
 30
0.0
 10
840.6491010337007
 20
32.06094090431587
 30
0.0
 10
840.6984081338422
 20
32.06596850379135
 30
0.0
  0
LINE
  5
3D0
330
1F
100
AcDbEntity
  8
0
  6
Continuous
 62
     7
370
    25
100
AcDbLine
 10
847.3933501725
 20
32.3761944287
 30
0.0
 11
841.0933501725
 21
32.3761944287
 31
0.0
  0
LINE
  5
3D1
330
1F
100
AcDbEntity
  8
0
  6
Continuous
 62
     7
370
    25
100
AcDbLine
 10
840.4674603173
 20
31.8615144434
 30
0.0
 11
840.4674603173
 21
29.6908744141
 31
0.0
  0
LINE
  5
3D2
330
1F
100
AcDbEntity
  8
0
  6
Continuous
 62
     7
370
    25
100
AcDbLine
 10
848.0192400277
 20
31.8615144434
 30
0.0
 11
848.0192400277
 21
29.6908744141
 31
0.0
  0
SPLINE
  5
3D3
330
1F
100
AcDbEntity
  8
0
  6
Continuous
 62
     7
370
    25
100
AcDbSpline
210
0.0
220
0.0
230
1.0
 70
     8
 71
     3
 72
     9
 73
     5
 74
     0
 42
0.000000001
 43
0.00000001
 40
0.0
 40
0.0
 40
0.0
 40
0.0
 40
0.6277651913045491
 40
1.0
 40
1.0
 40
1.0
 40
1.0
 10
257.6984081338422
 20
29.48642035368203
 30
0.0
 10
257.6491010337007
 20
29.49144795315751
 30
0.0
 10
257.5705571755442
 20
29.49945667926263
 30
0.0
 10
257.4954265509533
 20
29.63895010534914
 30
0.0
 10
257.4674603172815
 20
29.69087441412272
 30
0.0
  0
SPLINE
  5
3D4
330
1F
100
AcDbEntity
  8
0
  6
Continuous
 62
     7
370
    25
100
AcDbSpline
210
0.0
220
0.0
230
1.0
 70
     8
 71
     3
 72
    12
 73
     8
 74
     0
 42
0.000000001
 43
0.00000001
 40
0.0
 40
0.0
 40
0.0
 40
0.0
 40
0.5000000000000142
 40
0.5000000000000142
 40
0.7500000000000071
 40
0.7500000000000071
 40
1.0
 40
1.0
 40
1.0
 40
1.0
 10
257.4674603172814
 20
29.69087441412172
 30
0.0
 10
257.9794664689863
 20
29.5003801246982
 30
0.0
 10
258.4991440152546
 20
29.37870571163583
 30
0.0
 10
259.2989318728171
 20
29.3780495211046
 30
0.0
 10
259.5652558196651
 20
29.40788352289899
 30
0.0
 10
260.0884133226666
 20
29.51681339300659
 30
0.0
 10
260.3468779538149
 20
29.59550858006946
 30
0.0
 10
260.6032000401369
 20
29.69087441412221
 30
0.0
  0
SPLINE
  5
3D5
330
1F
100
AcDbEntity
  8
0
  6
Continuous
 62
     7
370
    25
100
AcDbSpline
210
0.0
220
0.0
230
1.0
 70
     8
 71
     3
 72
    12
 73
     8
 74
     0
 42
0.000000001
 43
0.00000001
 40
0.0
 40
0.0
 40
0.0
 40
0.0
 40
0.4999999999999942
 40
0.4999999999999942
 40
0.7499999999999971
 40
0.7499999999999971
 40
1.0
 40
1.0
 40
1.0
 40
1.0
 10
260.6032000401367
 20
29.69087441412173
 30
0.0
 10
261.219730430057
 20
29.50038012469821
 30
0.0
 10
261.8454983025068
 20
29.37870571163583
 30
0.0
 10
262.8085600118917
 20
29.3780495211046
 30
0.0
 10
263.1292530470214
 20
29.40788352289899
 30
0.0
 10
263.7592112970174
 20
29.51681339300658
 30
0.0
 10
264.0704405650483
 20
29.59550858006946
 30
0.0
 10
264.3790898953329
 20
29.69087441412221
 30
0.0
  0
SPLINE
  5
3D6
330
1F
100
AcDbEntity
  8
0
  6
Continuous
 62
     7
370
    25
100
AcDbSpline
210
0.0
220
0.0
230
1.0
 70
     8
 71
     3
 72
    14
 73
    10
 74
     0
 42
0.000000001
 43
0.00000001
 40
0.0
 40
0.0
 40
0.0
 40
0.0
 40
0.25
 40
0.25
 40
0.5
 40
0.5
 40
0.75
 40
0.75
 40
1.0
 40
1.0
 40
1.0
 40
1.0
 10
264.3790898953328
 20
29.6908744141227
 30
0.0
 10
264.4311476042236
 20
29.5959998048121
 30
0.0
 10
264.4844811425517
 20
29.51639487993633
 30
0.0
 10
264.5914131501798
 20
29.40755826504211
 30
0.0
 10
264.6451665166273
 20
29.37823465935161
 30
0.0
 10
264.7533455680511
 20
29.37829944109722
 30
0.0
 10
264.808174264639
 20
29.40845563442357
 30
0.0
 10
264.9150812472989
 20
29.51804083578928
 30
0.0
 10
264.9675027622713
 20
29.59658380959145
 30
0.0
 10
265.0192400276734
 20
29.69087441412271
 30
0.0
  0
LINE
  5
3D7
330
1F
100
AcDbEntity
  8
0
  6
Continuous
 62
     7
370
    25
100
AcDbLine
 10
264.3933501725
 20
29.1761944287
 30
0.0
 11
258.0933501725
 21
29.1761944287
 31
0.0
  0
SPLINE
  5
3D8
330
1F
100
AcDbEntity
  8
0
  6
Continuous
 62
     7
370
    25
100
AcDbSpline
210
0.0
220
0.0
230
1.0
 70
     8
 71
     3
 72
    12
 73
     8
 74
     0
 42
0.000000001
 43
0.00000001
 40
0.0
 40
0.0
 40
0.0
 40
0.0
 40
0.5000000000000131
 40
0.5000000000000131
 40
0.7500000000000066
 40
0.7500000000000066
 40
1.0
 40
1.0
 40
1.0
 40
1.0
 10
264.3790898953329
 20
31.86151444335168
 30
0.0
 10
263.7625595054126
 20
32.05200873277519
 30
0.0
 10
263.1367916329629
 20
32.17368314583756
 30
0.0
 10
262.1737299235781
 20
32.1743393363688
 30
0.0
 10
261.8530368884483
 20
32.14450533457441
 30
0.0
 10
261.2230786384523
 20
32.03557546446682
 30
0.0
 10
260.9118493704214
 20
31.95688027740395
 30
0.0
 10
260.6032000401368
 20
31.8615144433512
 30
0.0
  0
LINE
  5
3D9
330
1F
100
AcDbEntity
  8
0
  6
Continuous
 62
     7
370
    25
100
AcDbLine
 10
264.3790898953
 20
31.8615144434
 30
0.0
 11
264.3790898953
 21
29.6908744141
 31
0.0
  0
LINE
  5
3DA
330
1F
100
AcDbEntity
  8
0
  6
Continuous
 62
     7
370
    25
100
AcDbLine
 10
260.6032000401
 20
31.8615144434
 30
0.0
 11
260.6032000401
 21
29.6908744141
 31
0.0
  0
SPLINE
  5
3DB
330
1F
100
AcDbEntity
  8
0
  6
Continuous
 62
     7
370
    25
100
AcDbSpline
210
0.0
220
0.0
230
1.0
 70
     8
 71
     3
 72
    14
 73
    10
 74
     0
 42
0.000000001
 43
0.00000001
 40
0.0
 40
0.0
 40
0.0
 40
0.0
 40
0.25
 40
0.25
 40
0.5
 40
0.5
 40
0.75
 40
0.75
 40
1.0
 40
1.0
 40
1.0
 40
1.0
 10
264.3790898953328
 20
31.8615144433507
 30
0.0
 10
264.4311476042236
 20
31.95638905266132
 30
0.0
 10
264.4844811425517
 20
32.03599397753707
 30
0.0
 10
264.5914131501798
 20
32.1448305924313
 30
0.0
 10
264.6451665166273
 20
32.17415419812179
 30
0.0
 10
264.7533455680511
 20
32.1740894163762
 30
0.0
 10
264.808174264639
 20
32.14393322304984
 30
0.0
 10
264.9150812472989
 20
32.03434802168413
 30
0.0
 10
264.9675027622713
 20
31.95580504788195
 30
0.0
 10
265.0192400276734
 20
31.8615144433507
 30
0.0
  0
SPLINE
  5
3DC
330
1F
100
AcDbEntity
  8
0
  6
Continuous
 62
     7
370
    25
100
AcDbSpline
210
0.0
220
0.0
230
1.0
 70
     8
 71
     3
 72
    12
 73
     8
 74
     0
 42
0.000000001
 43
0.00000001
 40
0.0
 40
0.0
 40
0.0
 40
0.0
 40
0.4999999999999984
 40
0.4999999999999984
 40
0.7499999999999992
 40
0.7499999999999992
 40
1.0
 40
1.0
 40
1.0
 40
1.0
 10
260.603200040137
 20
31.86151444335169
 30
0.0
 10
260.091193888432
 20
32.05200873277521
 30
0.0
 10
259.5715163421639
 20
32.17368314583757
 30
0.0
 10
258.7717284846013
 20
32.1743393363688
 30
0.0
 10
258.5054045377533
 20
32.14450533457441
 30
0.0
 10
257.9822470347518
 20
32.03557546446682
 30
0.0
 10
257.7237824036035
 20
31.95688027740395
 30
0.0
 10
257.4674603172815
 20
31.8615144433512
 30
0.0
  0
SPLINE
  5
3DD
330
1F
100
AcDbEntity
  8
0
  6
Continuous
 62
     7
370
    25
100
AcDbSpline
210
0.0
220
0.0
230
1.0
 70
     8
 71
     3
 72
     9
 73
     5
 74
     0
 42
0.000000001
 43
0.00000001
 40
0.0
 40
0.0
 40
0.0
 40
0.0
 40
0.3722348086954365
 40
1.0
 40
1.0
 40
1.0
 40
1.0
 10
257.4674603172815
 20
31.8615144433507
 30
0.0
 10
257.4954265509533
 20
31.91343875212428
 30
0.0
 10
257.5705571755441
 20
32.05293217821079
 30
0.0
 10
257.6491010337007
 20
32.06094090431591
 30
0.0
 10
257.6984081338422
 20
32.06596850379138
 30
0.0
  0
LINE
  5
3DE
330
1F
100
AcDbEntity
  8
0
  6
Continuous
 62
     7
370
    25
100
AcDbLine
 10
264.3933501725
 20
32.3761944287
 30
0.0
 11
258.0933501725
 21
32.3761944287
 31
0.0
  0
LINE
  5
3DF
330
1F
100
AcDbEntity
  8
0
  6
Continuous
 62
     7
370
    25
100
AcDbLine
 10
257.4674603173
 20
31.8615144434
 30
0.0
 11
257.4674603173
 21
29.6908744141
 31
0.0
  0
LINE
  5
3E0
330
1F
100
AcDbEntity
  8
0
  6
Continuous
 62
     7
370
    25
100
AcDbLine
 10
265.0192400277
 20
31.8615144434
 30
0.0
 11
265.0192400277
 21
29.6908744141
 31
0.0
  0
SPLINE
  5
3E1
330
1F
100
AcDbEntity
  8
0
  6
Continuous
 62
     7
370
    25
100
AcDbSpline
210
0.0
220
0.0
230
1.0
 70
     8
 71
     3
 72
    12
 73
     8
 74
     0
 42
0.000000001
 43
0.00000001
 40
0.0
 40
0.0
 40
0.0
 40
0.0
 40
0.5000000000000131
 40
0.5000000000000131
 40
0.7500000000000066
 40
0.7500000000000066
 40
1.0
 40
1.0
 40
1.0
 40
1.0
 10
567.3790898953329
 20
31.86151444335165
 30
0.0
 10
566.7625595054127
 20
32.05200873277516
 30
0.0
 10
566.1367916329629
 20
32.17368314583753
 30
0.0
 10
565.173729923578
 20
32.17433933636877
 30
0.0
 10
564.8530368884484
 20
32.14450533457438
 30
0.0
 10
564.2230786384523
 20
32.0355754644668
 30
0.0
 10
563.9118493704214
 20
31.95688027740392
 30
0.0
 10
563.6032000401367
 20
31.86151444335116
 30
0.0
  0
LINE
  5
3E2
330
1F
100
AcDbEntity
  8
0
  6
Continuous
 62
     7
370
    25
100
AcDbLine
 10
567.3790898953
 20
31.8615144434
 30
0.0
 11
567.3790898953
 21
29.6908744141
 31
0.0
  0
SPLINE
  5
3E3
330
1F
100
AcDbEntity
  8
0
  6
Continuous
 62
     7
370
    25
100
AcDbSpline
210
0.0
220
0.0
230
1.0
 70
     8
 71
     3
 72
    12
 73
     8
 74
     0
 42
0.000000001
 43
0.00000001
 40
0.0
 40
0.0
 40
0.0
 40
0.0
 40
0.4999999999999942
 40
0.4999999999999942
 40
0.7499999999999971
 40
0.7499999999999971
 40
1.0
 40
1.0
 40
1.0
 40
1.0
 10
563.6032000401367
 20
29.69087441412169
 30
0.0
 10
564.2197304300569
 20
29.50038012469817
 30
0.0
 10
564.8454983025068
 20
29.3787057116358
 30
0.0
 10
565.8085600118916
 20
29.37804952110455
 30
0.0
 10
566.1292530470213
 20
29.40788352289896
 30
0.0
 10
566.7592112970173
 20
29.51681339300655
 30
0.0
 10
567.0704405650482
 20
29.59550858006942
 30
0.0
 10
567.3790898953328
 20
29.69087441412217
 30
0.0
  0
LINE
  5
3E4
330
1F
100
AcDbEntity
  8
0
  6
Continuous
 62
     7
370
    25
100
AcDbLine
 10
563.6032000401
 20
31.8615144434
 30
0.0
 11
563.6032000401
 21
29.6908744141
 31
0.0
  0
SPLINE
  5
3E5
330
1F
100
AcDbEntity
  8
0
  6
Continuous
 62
     7
370
    25
100
AcDbSpline
210
0.0
220
0.0
230
1.0
 70
     8
 71
     3
 72
    14
 73
    10
 74
     0
 42
0.000000001
 43
0.00000001
 40
0.0
 40
0.0
 40
0.0
 40
0.0
 40
0.25
 40
0.25
 40
0.5
 40
0.5
 40
0.75
 40
0.75
 40
1.0
 40
1.0
 40
1.0
 40
1.0
 10
567.3790898953328
 20
31.86151444335067
 30
0.0
 10
567.4311476042236
 20
31.95638905266128
 30
0.0
 10
567.4844811425517
 20
32.03599397753704
 30
0.0
 10
567.5914131501798
 20
32.14483059243125
 30
0.0
 10
567.6451665166273
 20
32.17415419812176
 30
0.0
 10
567.753345568051
 20
32.17408941637616
 30
0.0
 10
567.808174264639
 20
32.1439332230498
 30
0.0
 10
567.9150812472989
 20
32.03434802168409
 30
0.0
 10
567.9675027622712
 20
31.95580504788192
 30
0.0
 10
568.0192400276734
 20
31.86151444335066
 30
0.0
  0
SPLINE
  5
3E6
330
1F
100
AcDbEntity
  8
0
  6
Continuous
 62
     7
370
    25
100
AcDbSpline
210
0.0
220
0.0
230
1.0
 70
     8
 71
     3
 72
    12
 73
     8
 74
     0
 42
0.000000001
 43
0.00000001
 40
0.0
 40
0.0
 40
0.0
 40
0.0
 40
0.4999999999999984
 40
0.4999999999999984
 40
0.7499999999999992
 40
0.7499999999999992
 40
1.0
 40
1.0
 40
1.0
 40
1.0
 10
563.6032000401369
 20
31.86151444335166
 30
0.0
 10
563.0911938884321
 20
32.05200873277518
 30
0.0
 10
562.5715163421637
 20
32.17368314583753
 30
0.0
 10
561.7717284846012
 20
32.17433933636877
 30
0.0
 10
561.5054045377532
 20
32.14450533457438
 30
0.0
 10
560.9822470347518
 20
32.03557546446679
 30
0.0
 10
560.7237824036035
 20
31.95688027740391
 30
0.0
 10
560.4674603172815
 20
31.86151444335117
 30
0.0
  0
SPLINE
  5
3E7
330
1F
100
AcDbEntity
  8
0
  6
Continuous
 62
     7
370
    25
100
AcDbSpline
210
0.0
220
0.0
230
1.0
 70
     8
 71
     3
 72
     9
 73
     5
 74
     0
 42
0.000000001
 43
0.00000001
 40
0.0
 40
0.0
 40
0.0
 40
0.0
 40
0.3722348086954365
 40
1.0
 40
1.0
 40
1.0
 40
1.0
 10
560.4674603172815
 20
31.86151444335065
 30
0.0
 10
560.4954265509533
 20
31.91343875212424
 30
0.0
 10
560.5705571755442
 20
32.05293217821076
 30
0.0
 10
560.6491010337008
 20
32.06094090431587
 30
0.0
 10
560.6984081338423
 20
32.06596850379135
 30
0.0
  0
LINE
  5
3E8
330
1F
100
AcDbEntity
  8
0
  6
Continuous
 62
     7
370
    25
100
AcDbLine
 10
567.3933501725
 20
32.3761944287
 30
0.0
 11
561.0933501725
 21
32.3761944287
 31
0.0
  0
SPLINE
  5
3E9
330
1F
100
AcDbEntity
  8
0
  6
Continuous
 62
     7
370
    25
100
AcDbSpline
210
0.0
220
0.0
230
1.0
 70
     8
 71
     3
 72
     9
 73
     5
 74
     0
 42
0.000000001
 43
0.00000001
 40
0.0
 40
0.0
 40
0.0
 40
0.0
 40
0.6277651913045491
 40
1.0
 40
1.0
 40
1.0
 40
1.0
 10
560.6984081338422
 20
29.48642035368199
 30
0.0
 10
560.6491010337007
 20
29.49144795315748
 30
0.0
 10
560.5705571755441
 20
29.4994566792626
 30
0.0
 10
560.4954265509533
 20
29.6389501053491
 30
0.0
 10
560.4674603172815
 20
29.69087441412268
 30
0.0
  0
SPLINE
  5
3EA
330
1F
100
AcDbEntity
  8
0
  6
Continuous
 62
     7
370
    25
100
AcDbSpline
210
0.0
220
0.0
230
1.0
 70
     8
 71
     3
 72
    12
 73
     8
 74
     0
 42
0.000000001
 43
0.00000001
 40
0.0
 40
0.0
 40
0.0
 40
0.0
 40
0.5000000000000142
 40
0.5000000000000142
 40
0.7500000000000071
 40
0.7500000000000071
 40
1.0
 40
1.0
 40
1.0
 40
1.0
 10
560.4674603172815
 20
29.69087441412169
 30
0.0
 10
560.9794664689863
 20
29.50038012469818
 30
0.0
 10
561.4991440152546
 20
29.3787057116358
 30
0.0
 10
562.2989318728171
 20
29.37804952110456
 30
0.0
 10
562.5652558196651
 20
29.40788352289895
 30
0.0
 10
563.0884133226666
 20
29.51681339300655
 30
0.0
 10
563.3468779538149
 20
29.59550858006943
 30
0.0
 10
563.6032000401369
 20
29.69087441412218
 30
0.0
  0
SPLINE
  5
3EB
330
1F
100
AcDbEntity
  8
0
  6
Continuous
 62
     7
370
    25
100
AcDbSpline
210
0.0
220
0.0
230
1.0
 70
     8
 71
     3
 72
    14
 73
    10
 74
     0
 42
0.000000001
 43
0.00000001
 40
0.0
 40
0.0
 40
0.0
 40
0.0
 40
0.25
 40
0.25
 40
0.5
 40
0.5
 40
0.75
 40
0.75
 40
1.0
 40
1.0
 40
1.0
 40
1.0
 10
567.3790898953328
 20
29.69087441412267
 30
0.0
 10
567.4311476042236
 20
29.59599980481206
 30
0.0
 10
567.4844811425517
 20
29.51639487993631
 30
0.0
 10
567.5914131501798
 20
29.40755826504208
 30
0.0
 10
567.6451665166273
 20
29.37823465935158
 30
0.0
 10
567.753345568051
 20
29.37829944109717
 30
0.0
 10
567.808174264639
 20
29.40845563442354
 30
0.0
 10
567.9150812472989
 20
29.51804083578925
 30
0.0
 10
567.9675027622712
 20
29.59658380959142
 30
0.0
 10
568.0192400276734
 20
29.69087441412267
 30
0.0
  0
LINE
  5
3EC
330
1F
100
AcDbEntity
  8
0
  6
Continuous
 62
     7
370
    25
100
AcDbLine
 10
567.3933501725
 20
29.1761944287
 30
0.0
 11
561.0933501725
 21
29.1761944287
 31
0.0
  0
LINE
  5
3ED
330
1F
100
AcDbEntity
  8
0
  6
Continuous
 62
     7
370
    25
100
AcDbLine
 10
560.4674603173
 20
31.8615144434
 30
0.0
 11
560.4674603173
 21
29.6908744141
 31
0.0
  0
LINE
  5
3EE
330
1F
100
AcDbEntity
  8
0
  6
Continuous
 62
     7
370
    25
100
AcDbLine
 10
568.0192400277
 20
31.8615144434
 30
0.0
 11
568.0192400277
 21
29.6908744141
 31
0.0
  0
SPLINE
  5
3EF
330
1F
100
AcDbEntity
  8
0
  6
Continuous
 62
     7
370
    25
100
AcDbSpline
210
0.0
220
0.0
230
1.0
 70
     8
 71
     3
 72
    12
 73
     8
 74
     0
 42
0.000000001
 43
0.00000001
 40
0.0
 40
0.0
 40
0.0
 40
0.0
 40
0.4999999999999847
 40
0.4999999999999847
 40
0.7499999999999923
 40
0.7499999999999923
 40
1.0
 40
1.0
 40
1.0
 40
1.0
 10
-15.6209101046671
 20
31.86151444335171
 30
0.0
 10
-16.23744049458742
 20
32.05200873277522
 30
0.0
 10
-16.86320836703714
 20
32.1736831458376
 30
0.0
 10
-17.82627007642201
 20
32.17433933636884
 30
0.0
 10
-18.14696311155178
 20
32.14450533457445
 30
0.0
 10
-18.77692136154768
 20
32.03557546446686
 30
0.0
 10
-19.08815062957864
 20
31.95688027740398
 30
0.0
 10
-19.39679995986321
 20
31.86151444335123
 30
0.0
  0
LINE
  5
3F0
330
1F
100
AcDbEntity
  8
0
  6
Continuous
 62
     7
370
    25
100
AcDbLine
 10
-15.6209101047
 20
31.8615144434
 30
0.0
 11
-15.6209101047
 21
29.6908744141
 31
0.0
  0
SPLINE
  5
3F1
330
1F
100
AcDbEntity
  8
0
  6
Continuous
 62
     7
370
    25
100
AcDbSpline
210
0.0
220
0.0
230
1.0
 70
     8
 71
     3
 72
    12
 73
     8
 74
     0
 42
0.000000001
 43
0.00000001
 40
0.0
 40
0.0
 40
0.0
 40
0.0
 40
0.4999999999999847
 40
0.4999999999999847
 40
0.7499999999999923
 40
0.7499999999999923
 40
1.0
 40
1.0
 40
1.0
 40
1.0
 10
-19.39679995986332
 20
29.69087441412176
 30
0.0
 10
-18.78026956994305
 20
29.50038012469823
 30
0.0
 10
-18.15450169749311
 20
29.37870571163587
 30
0.0
 10
-17.19143998810824
 20
29.37804952110464
 30
0.0
 10
-16.87074695297858
 20
29.40788352289903
 30
0.0
 10
-16.24078870298268
 20
29.51681339300662
 30
0.0
 10
-15.92955943495183
 20
29.59550858006951
 30
0.0
 10
-15.62091010466715
 20
29.69087441412226
 30
0.0
  0
LINE
  5
3F2
330
1F
100
AcDbEntity
  8
0
  6
Continuous
 62
     7
370
    25
100
AcDbLine
 10
-19.3967999599
 20
31.8615144434
 30
0.0
 11
-19.3967999599
 21
29.6908744141
 31
0.0
  0
SPLINE
  5
3F3
330
1F
100
AcDbEntity
  8
0
  6
Continuous
 62
     7
370
    25
100
AcDbSpline
210
0.0
220
0.0
230
1.0
 70
     8
 71
     3
 72
     9
 73
     5
 74
     0
 42
0.000000001
 43
0.00000001
 40
0.0
 40
0.0
 40
0.0
 40
0.0
 40
0.6277651913045494
 40
1.0
 40
1.0
 40
1.0
 40
1.0
 10
-22.30159186615771
 20
29.48642035368206
 30
0.0
 10
-22.35089896629927
 20
29.49144795315755
 30
0.0
 10
-22.42944282445591
 20
29.49945667926267
 30
0.0
 10
-22.50457344904677
 20
29.63895010534917
 30
0.0
 10
-22.53253968271851
 20
29.69087441412275
 30
0.0
  0
SPLINE
  5
3F4
330
1F
100
AcDbEntity
  8
0
  6
Continuous
 62
     7
370
    25
100
AcDbSpline
210
0.0
220
0.0
230
1.0
 70
     8
 71
     3
 72
    12
 73
     8
 74
     0
 42
0.000000001
 43
0.00000001
 40
0.0
 40
0.0
 40
0.0
 40
0.0
 40
0.5000000000000064
 40
0.5000000000000064
 40
0.7500000000000032
 40
0.7500000000000032
 40
1.0
 40
1.0
 40
1.0
 40
1.0
 10
-22.53253968271862
 20
29.69087441412177
 30
0.0
 10
-22.02053353101374
 20
29.50038012469825
 30
0.0
 10
-21.50085598474544
 20
29.37870571163588
 30
0.0
 10
-20.70106812718292
 20
29.37804952110464
 30
0.0
 10
-20.43474418033497
 20
29.40788352289904
 30
0.0
 10
-19.91158667733356
 20
29.51681339300663
 30
0.0
 10
-19.65312204618514
 20
29.5955085800695
 30
0.0
 10
-19.3967999598631
 20
29.69087441412225
 30
0.0
  0
SPLINE
  5
3F5
330
1F
100
AcDbEntity
  8
0
  6
Continuous
 62
     7
370
    25
100
AcDbSpline
210
0.0
220
0.0
230
1.0
 70
     8
 71
     3
 72
    14
 73
    10
 74
     0
 42
0.000000001
 43
0.00000001
 40
0.0
 40
0.0
 40
0.0
 40
0.0
 40
0.25
 40
0.25
 40
0.5
 40
0.5
 40
0.75
 40
0.75
 40
1.0
 40
1.0
 40
1.0
 40
1.0
 10
-15.62091010466721
 20
29.69087441412275
 30
0.0
 10
-15.56885239577638
 20
29.59599980481214
 30
0.0
 10
-15.5155188574484
 20
29.51639487993639
 30
0.0
 10
-15.40858684982011
 20
29.40755826504216
 30
0.0
 10
-15.35483348337269
 20
29.37823465935167
 30
0.0
 10
-15.24665443194895
 20
29.37829944109726
 30
0.0
 10
-15.19182573536093
 20
29.40845563442362
 30
0.0
 10
-15.08491875270124
 20
29.51804083578934
 30
0.0
 10
-15.03249723772876
 20
29.59658380959151
 30
0.0
 10
-14.98075997232662
 20
29.69087441412276
 30
0.0
  0
LINE
  5
3F6
330
1F
100
AcDbEntity
  8
0
  6
Continuous
 62
     7
370
    25
100
AcDbLine
 10
-15.6066498275
 20
29.1761944287
 30
0.0
 11
-21.9066498275
 21
29.1761944287
 31
0.0
  0
SPLINE
  5
3F7
330
1F
100
AcDbEntity
  8
0
  6
Continuous
 62
     7
370
    25
100
AcDbSpline
210
0.0
220
0.0
230
1.0
 70
     8
 71
     3
 72
    14
 73
    10
 74
     0
 42
0.000000001
 43
0.00000001
 40
0.0
 40
0.0
 40
0.0
 40
0.0
 40
0.25
 40
0.25
 40
0.5
 40
0.5
 40
0.75
 40
0.75
 40
1.0
 40
1.0
 40
1.0
 40
1.0
 10
-15.62091010466721
 20
31.86151444335072
 30
0.0
 10
-15.56885239577638
 20
31.95638905266134
 30
0.0
 10
-15.5155188574484
 20
32.03599397753709
 30
0.0
 10
-15.40858684982011
 20
32.14483059243131
 30
0.0
 10
-15.35483348337269
 20
32.17415419812181
 30
0.0
 10
-15.24665443194895
 20
32.17408941637621
 30
0.0
 10
-15.19182573536093
 20
32.14393322304986
 30
0.0
 10
-15.08491875270124
 20
32.03434802168415
 30
0.0
 10
-15.03249723772876
 20
31.95580504788197
 30
0.0
 10
-14.98075997232662
 20
31.86151444335071
 30
0.0
  0
SPLINE
  5
3F8
330
1F
100
AcDbEntity
  8
0
  6
Continuous
 62
     7
370
    25
100
AcDbSpline
210
0.0
220
0.0
230
1.0
 70
     8
 71
     3
 72
    12
 73
     8
 74
     0
 42
0.000000001
 43
0.00000001
 40
0.0
 40
0.0
 40
0.0
 40
0.0
 40
0.499999999999978
 40
0.499999999999978
 40
0.749999999999989
 40
0.749999999999989
 40
1.0
 40
1.0
 40
1.0
 40
1.0
 10
-19.39679995986304
 20
31.86151444335171
 30
0.0
 10
-19.90880611156787
 20
32.05200873277523
 30
0.0
 10
-20.42848365783628
 20
32.17368314583761
 30
0.0
 10
-21.2282715153988
 20
32.17433933636882
 30
0.0
 10
-21.49459546224675
 20
32.14450533457444
 30
0.0
 10
-22.01775296524822
 20
32.03557546446684
 30
0.0
 10
-22.27621759639658
 20
31.95688027740398
 30
0.0
 10
-22.53253968271857
 20
31.86151444335123
 30
0.0
  0
SPLINE
  5
3F9
330
1F
100
AcDbEntity
  8
0
  6
Continuous
 62
     7
370
    25
100
AcDbSpline
210
0.0
220
0.0
230
1.0
 70
     8
 71
     3
 72
     9
 73
     5
 74
     0
 42
0.000000001
 43
0.00000001
 40
0.0
 40
0.0
 40
0.0
 40
0.0
 40
0.3722348086954371
 40
1.0
 40
1.0
 40
1.0
 40
1.0
 10
-22.53253968271851
 20
31.86151444335072
 30
0.0
 10
-22.50457344904677
 20
31.91343875212431
 30
0.0
 10
-22.42944282445597
 20
32.05293217821082
 30
0.0
 10
-22.35089896629933
 20
32.06094090431593
 30
0.0
 10
-22.30159186615776
 20
32.06596850379142
 30
0.0
  0
LINE
  5
3FA
330
1F
100
AcDbEntity
  8
0
  6
Continuous
 62
     7
370
    25
100
AcDbLine
 10
-15.6066498275
 20
32.3761944287
 30
0.0
 11
-21.9066498275
 21
32.3761944287
 31
0.0
  0
LINE
  5
3FB
330
1F
100
AcDbEntity
  8
0
  6
Continuous
 62
     7
370
    25
100
AcDbLine
 10
-22.5325396827
 20
31.8615144434
 30
0.0
 11
-22.5325396827
 21
29.6908744141
 31
0.0
  0
LINE
  5
3FC
330
1F
100
AcDbEntity
  8
0
  6
Continuous
 62
     7
370
    25
100
AcDbLine
 10
-14.9807599723
 20
31.8615144434
 30
0.0
 11
-14.9807599723
 21
29.6908744141
 31
0.0
  0
LINE
  5
3FD
330
1F
100
AcDbEntity
  8
0
  6
Continuous
 62
     7
370
    25
100
AcDbLine
 10
-39.6775800601
 20
16.5761944287
 30
0.0
 11
-38.7566498275
 21
26.4761944287
 31
0.0
  0
LINE
  5
3FE
330
1F
100
AcDbEntity
  8
0
  6
Continuous
 62
     7
370
    25
100
AcDbLine
 10
864.2433501725
 20
26.4761944287
 30
0.0
 11
865.164280405
 21
16.5761944287
 31
0.0
  0
LINE
  5
3FF
330
1F
100
AcDbEntity
  8
0
  6
Continuous
 62
     7
370
    25
100
AcDbLine
 10
-38.7566498275
 20
28.2761944287
 30
0.0
 11
864.2433501725
 21
28.2761944287
 31
0.0
  0
LINE
  5
400
330
1F
100
AcDbEntity
  8
0
  6
Continuous
 62
     7
370
    25
100
AcDbLine
 10
864.2433501725
 20
28.2761944287
 30
0.0
 11
864.2433501725
 21
26.4761944287
 31
0.0
  0
LINE
  5
401
330
1F
100
AcDbEntity
  8
0
  6
Continuous
 62
     7
370
    25
100
AcDbLine
 10
-38.7566498275
 20
26.4761944287
 30
0.0
 11
-38.7566498275
 21
28.2761944287
 31
0.0
  0
LINE
  5
402
330
1F
100
AcDbEntity
  8
0
  6
Continuous
 62
     7
370
    25
100
AcDbLine
 10
-39.7566498275
 20
15.7261944287
 30
0.0
 11
-39.6775800601
 21
16.5761944287
 31
0.0
  0
LINE
  5
403
330
1F
100
AcDbEntity
  8
0
  6
Continuous
 62
     7
370
    25
100
AcDbLine
 10
865.164280405
 20
16.5761944287
 30
0.0
 11
865.2433501725
 21
15.7261944287
 31
0.0
  0
LINE
  5
404
330
1F
100
AcDbEntity
  8
0
  6
Continuous
 62
     7
370
    25
100
AcDbLine
 10
843.9265580143
 20
37.4761944287
 30
0.0
 11
846.2433501725
 21
37.4761944287
 31
0.0
  0
LINE
  5
405
330
1F
100
AcDbEntity
  8
0
  6
Continuous
 62
     7
370
    25
100
AcDbLine
 10
842.2433501725
 20
37.4761944287
 30
0.0
 11
843.9265580143
 21
37.4761944287
 31
0.0
  0
LINE
  5
406
330
1F
100
AcDbEntity
  8
0
  6
Continuous
 62
     7
370
    25
100
AcDbLine
 10
260.9265580143
 20
37.4761944287
 30
0.0
 11
263.2433501725
 21
37.4761944287
 31
0.0
  0
LINE
  5
407
330
1F
100
AcDbEntity
  8
0
  6
Continuous
 62
     7
370
    25
100
AcDbLine
 10
259.2433501725
 20
37.4761944287
 30
0.0
 11
260.9265580143
 21
37.4761944287
 31
0.0
  0
LINE
  5
408
330
1F
100
AcDbEntity
  8
0
  6
Continuous
 62
     7
370
    25
100
AcDbLine
 10
563.9265580143
 20
37.4761944287
 30
0.0
 11
566.2433501725
 21
37.4761944287
 31
0.0
  0
LINE
  5
409
330
1F
100
AcDbEntity
  8
0
  6
Continuous
 62
     7
370
    25
100
AcDbLine
 10
562.2433501725
 20
37.4761944287
 30
0.0
 11
563.9265580143
 21
37.4761944287
 31
0.0
  0
LINE
  5
40A
330
1F
100
AcDbEntity
  8
0
  6
Continuous
 62
     7
370
    25
100
AcDbLine
 10
-19.0734419857
 20
37.4761944287
 30
0.0
 11
-16.7566498275
 21
37.4761944287
 31
0.0
  0
LINE
  5
40B
330
1F
100
AcDbEntity
  8
0
  6
Continuous
 62
     7
370
    25
100
AcDbLine
 10
-20.7566498275
 20
37.4761944287
 30
0.0
 11
-19.0734419857
 21
37.4761944287
 31
0.0
  0
LINE
  5
40C
330
1F
100
AcDbEntity
  8
0
  6
Continuous
 62
     7
370
    25
100
AcDbLine
 10
865.7433501725
 20
48.6761944287
 30
0.0
 11
866.7433501725
 21
48.6761944287
 31
0.0
  0
LINE
  5
40D
330
1F
100
AcDbEntity
  8
0
  6
Continuous
 62
     7
370
    25
100
AcDbLine
 10
866.7433501725
 20
48.6761944287
 30
0.0
 11
866.7433501725
 21
46.6761944287
 31
0.0
  0
LINE
  5
40E
330
1F
100
AcDbEntity
  8
0
  6
Continuous
 62
     7
370
    25
100
AcDbLine
 10
866.7433501725
 20
46.6761944287
 30
0.0
 11
866.7433501725
 21
43.7761944287
 31
0.0
  0
LINE
  5
40F
330
1F
100
AcDbEntity
  8
0
  6
Continuous
 62
     7
370
    25
100
AcDbLine
 10
866.7433501725
 20
37.7761944287
 30
0.0
 11
866.7433501725
 21
17.6761944287
 31
0.0
  0
LINE
  5
410
330
1F
100
AcDbEntity
  8
0
  6
Continuous
 62
     7
370
    25
100
AcDbLine
 10
864.7433501725
 20
30.2761944287
 30
0.0
 11
864.7433501725
 21
21.1011944287
 31
0.0
  0
LINE
  5
411
330
1F
100
AcDbEntity
  8
0
  6
Continuous
 62
     7
370
    25
100
AcDbLine
 10
866.7416830426
 20
17.5761944287
 30
0.0
 11
866.7433501725
 21
17.6761944287
 31
0.0
  0
LINE
  5
412
330
1F
100
AcDbEntity
  8
0
  6
Continuous
 62
     7
370
    25
100
AcDbLine
 10
866.8036575517
 20
48.6761944287
 30
0.0
 11
866.7433501725
 21
48.6761944287
 31
0.0
  0
LINE
  5
413
330
1F
100
AcDbEntity
  8
0
  6
Continuous
 62
     7
370
    25
100
AcDbLine
 10
866.7433501725
 20
32.6761944287
 30
0.0
 11
866.8036575517
 21
32.6761944287
 31
0.0
  0
LWPOLYLINE
  5
414
330
1F
100
AcDbEntity
  8
0
  6
Continuous
 62
     7
370
    25
100
AcDbPolyline
 90
        9
 70
   128
 43
0.0
 10
869.3588965607
 20
46.6761944287
 10
869.3457529184
 20
47.0663750728
 10
869.3068270943
 20
47.4415612935
 10
869.2436149859
 20
47.7873348948
 10
869.1585457993
 20
48.0904079911
 10
869.0548886955
 20
48.3391336533
 10
868.9366271588
 20
48.5239534938
 10
868.8083059138
 20
48.6377649895
 10
868.674856274
 20
48.6761944287
  0
LINE
  5
415
330
1F
100
AcDbEntity
  8
0
  6
Continuous
 62
     7
370
    25
100
AcDbLine
 10
869.3588965607
 20
46.6761944287
 30
0.0
 11
869.3588965607
 21
43.7761944287
 31
0.0
  0
LINE
  5
416
330
1F
100
AcDbEntity
  8
0
  6
Continuous
 62
     7
370
    25
100
AcDbLine
 10
869.3588965607
 20
37.7761944287
 30
0.0
 11
869.3588965607
 21
34.6761944287
 31
0.0
  0
LWPOLYLINE
  5
417
330
1F
100
AcDbEntity
  8
0
  6
Continuous
 62
     7
370
    25
100
AcDbPolyline
 90
        9
 70
   128
 43
0.0
 10
868.674856274
 20
32.6761944287
 10
868.8083059138
 20
32.7146238679
 10
868.9366271588
 20
32.8284353637
 10
869.0548886955
 20
33.0132552041
 10
869.1585457993
 20
33.2619808664
 10
869.2436149859
 20
33.5650539627
 10
869.3068270943
 20
33.910827564
 10
869.3457529184
 20
34.2860137847
 10
869.3588965607
 20
34.6761944287
  0
LINE
  5
418
330
1F
100
AcDbEntity
  8
0
  6
Continuous
 62
     7
370
    25
100
AcDbLine
 10
868.674856274
 20
32.6761944287
 30
0.0
 11
866.8036575517
 21
32.6761944287
 31
0.0
  0
LINE
  5
419
330
1F
100
AcDbEntity
  8
0
  6
Continuous
 62
     7
370
    25
100
AcDbLine
 10
866.8036575517
 20
48.6761944287
 30
0.0
 11
868.674856274
 21
48.6761944287
 31
0.0
  0
LINE
  5
41A
330
1F
100
AcDbEntity
  8
0
  6
Continuous
 62
     7
370
    25
100
AcDbLine
 10
-41.2566498275
 20
48.6761944287
 30
0.0
 11
-40.2566498275
 21
48.6761944287
 31
0.0
  0
LINE
  5
41B
330
1F
100
AcDbEntity
  8
0
  6
Continuous
 62
     7
370
    25
100
AcDbLine
 10
-41.2566498275
 20
46.6761944287
 30
0.0
 11
-41.2566498275
 21
48.6761944287
 31
0.0
  0
LINE
  5
41C
330
1F
100
AcDbEntity
  8
0
  6
Continuous
 62
     7
370
    25
100
AcDbLine
 10
-41.2566498275
 20
17.6761944287
 30
0.0
 11
-41.2566498275
 21
37.7761944287
 31
0.0
  0
LINE
  5
41D
330
1F
100
AcDbEntity
  8
0
  6
Continuous
 62
     7
370
    25
100
AcDbLine
 10
-41.2566498275
 20
43.7761944287
 30
0.0
 11
-41.2566498275
 21
46.6761944287
 31
0.0
  0
LINE
  5
41E
330
1F
100
AcDbEntity
  8
0
  6
Continuous
 62
     7
370
    25
100
AcDbLine
 10
-39.2566498275
 20
21.1011944287
 30
0.0
 11
-39.2566498275
 21
30.2761944287
 31
0.0
  0
LINE
  5
41F
330
1F
100
AcDbEntity
  8
0
  6
Continuous
 62
     7
370
    25
100
AcDbLine
 10
-41.2566498275
 20
17.6761944287
 30
0.0
 11
-41.2549826976
 21
17.5761944287
 31
0.0
  0
LINE
  5
420
330
1F
100
AcDbEntity
  8
0
  6
Continuous
 62
     7
370
    25
100
AcDbLine
 10
-41.3169572067
 20
32.6761944287
 30
0.0
 11
-41.2566498275
 21
32.6761944287
 31
0.0
  0
LINE
  5
421
330
1F
100
AcDbEntity
  8
0
  6
Continuous
 62
     7
370
    25
100
AcDbLine
 10
-41.2566498275
 20
48.6761944287
 30
0.0
 11
-41.3169572067
 21
48.6761944287
 31
0.0
  0
LWPOLYLINE
  5
422
330
1F
100
AcDbEntity
  8
0
  6
Continuous
 62
     7
370
    25
100
AcDbPolyline
 90
        9
 70
   128
 43
0.0
 10
-43.188155929
 20
48.6761944287
 10
-43.3216055688
 20
48.6377649895
 10
-43.4499268138
 20
48.5239534938
 10
-43.5681883505
 20
48.3391336533
 10
-43.6718454543
 20
48.0904079911
 10
-43.756914641
 20
47.7873348948
 10
-43.8201267493
 20
47.4415612935
 10
-43.8590525734
 20
47.0663750728
 10
-43.8721962157
 20
46.6761944287
  0
LINE
  5
423
330
1F
100
AcDbEntity
  8
0
  6
Continuous
 62
     7
370
    25
100
AcDbLine
 10
-43.188155929
 20
48.6761944287
 30
0.0
 11
-41.3169572067
 21
48.6761944287
 31
0.0
  0
LINE
  5
424
330
1F
100
AcDbEntity
  8
0
  6
Continuous
 62
     7
370
    25
100
AcDbLine
 10
-41.3169572067
 20
32.6761944287
 30
0.0
 11
-43.188155929
 21
32.6761944287
 31
0.0
  0
LWPOLYLINE
  5
425
330
1F
100
AcDbEntity
  8
0
  6
Continuous
 62
     7
370
    25
100
AcDbPolyline
 90
        9
 70
   128
 43
0.0
 10
-43.8721962157
 20
34.6761944287
 10
-43.8590525734
 20
34.2860137847
 10
-43.8201267493
 20
33.910827564
 10
-43.756914641
 20
33.5650539627
 10
-43.6718454543
 20
33.2619808664
 10
-43.5681883505
 20
33.0132552041
 10
-43.4499268138
 20
32.8284353637
 10
-43.3216055688
 20
32.7146238679
 10
-43.188155929
 20
32.6761944287
  0
LINE
  5
426
330
1F
100
AcDbEntity
  8
0
  6
Continuous
 62
     7
370
    25
100
AcDbLine
 10
-43.8721962157
 20
34.6761944287
 30
0.0
 11
-43.8721962157
 21
37.7761944287
 31
0.0
  0
LINE
  5
427
330
1F
100
AcDbEntity
  8
0
  6
Continuous
 62
     7
370
    25
100
AcDbLine
 10
-43.8721962157
 20
43.7761944287
 30
0.0
 11
-43.8721962157
 21
46.6761944287
 31
0.0
  0
SPLINE
  5
428
330
1F
100
AcDbEntity
  8
0
  6
Continuous
 62
     7
370
    25
100
AcDbSpline
210
0.0
220
0.0
230
1.0
 70
    24
 71
     3
 72
     9
 73
     5
 74
     0
 42
0.000000001
 43
0.00000001
 40
0.0
 40
0.0
 40
0.0
 40
0.0
 40
0.7059102712403224
 40
1.0
 40
1.0
 40
1.0
 40
1.0
 10
-39.45664982752256
 20
46.54944323812667
 30
0.0
 10
-39.4566498275225
 20
46.55969600742323
 30
0.0
 10
-39.45664982752245
 20
46.5742201894819
 30
0.0
 10
-39.4566498275225
 20
46.47916823287362
 30
0.0
 10
-39.4566498275225
 20
46.45121442873662
 30
0.0
  0
SPLINE
  5
429
330
1F
100
AcDbEntity
  8
0
  6
Continuous
 62
     7
370
    25
100
AcDbSpline
210
0.0
220
0.0
230
1.0
 70
    24
 71
     3
 72
    12
 73
     8
 74
     0
 42
0.000000001
 43
0.00000001
 40
0.0
 40
0.0
 40
0.0
 40
0.0
 40
0.3344405486782615
 40
0.5144757571369828
 40
0.6983315710265335
 40
0.8821873849160835
 40
1.0
 40
1.0
 40
1.0
 40
1.0
 10
-38.4566498275225
 20
43.28250173379319
 30
0.0
 10
-38.4566498275225
 20
43.90664726929504
 30
0.0
 10
-38.45664982752256
 20
44.86678128477263
 30
0.0
 10
-38.45664982752228
 20
45.77469219106789
 30
0.0
 10
-38.45664982752262
 20
46.28040952898405
 30
0.0
 10
-38.4566498275225
 20
46.55202926312224
 30
0.0
 10
-38.45664982752256
 20
46.5501695316625
 30
0.0
 10
-38.4566498275225
 20
46.54944323813762
 30
0.0
  0
SPLINE
  5
42A
330
1F
100
AcDbEntity
  8
0
  6
Continuous
 62
     7
370
    25
100
AcDbSpline
210
0.0
220
0.0
230
1.0
 70
    24
 71
     3
 72
    15
 73
    11
 74
     0
 42
0.000000001
 43
0.00000001
 40
0.0
 40
0.0
 40
0.0
 40
0.0
 40
0.034696749791865
 40
0.2211884951269639
 40
0.4076802404620633
 40
0.5080720152630784
 40
0.6105942475634817
 40
0.7131164798638854
 40
0.8135082546649
 40
1.0
 40
1.0
 40
1.0
 40
1.0
 10
-38.4566498275225
 20
35.00294561933189
 30
0.0
 10
-38.45664982752239
 20
34.99622451570047
 30
0.0
 10
-38.45664982752234
 20
34.95337811634767
 30
0.0
 10
-38.4566498275225
 20
35.44141907910617
 30
0.0
 10
-38.4566498275225
 20
36.53733013657473
 30
0.0
 10
-38.45664982752239
 20
37.75622726902221
 30
0.0
 10
-38.4566498275225
 20
38.83640249687917
 30
0.0
 10
-38.45664982752256
 20
39.99687939934486
 30
0.0
 10
-38.45664982752245
 20
41.52745429445998
 30
0.0
 10
-38.4566498275225
 20
42.59108018311005
 30
0.0
 10
-38.45664982752256
 20
43.2825017337932
 30
0.0
  0
SPLINE
  5
42B
330
1F
100
AcDbEntity
  8
0
  6
Continuous
 62
     7
370
    25
100
AcDbSpline
210
0.0
220
0.0
230
1.0
 70
     8
 71
     3
 72
     8
 73
     4
 74
     0
 42
0.000000001
 43
0.00000001
 40
0.0
 40
0.0
 40
0.0
 40
0.0
 40
1.0
 40
1.0
 40
1.0
 40
1.0
 10
-34.4566498275295
 20
40.39279940104829
 30
0.0
 10
-34.4566498275295
 20
41.37517784562106
 30
0.0
 10
-34.63096512790892
 20
42.33066901381079
 30
0.0
 10
-34.90323181492089
 20
43.27105166313837
 30
0.0
  0
SPLINE
  5
42C
330
1F
100
AcDbEntity
  8
0
  6
Continuous
 62
     7
370
    25
100
AcDbSpline
210
0.0
220
0.0
230
1.0
 70
     8
 71
     3
 72
     8
 73
     4
 74
     0
 42
0.000000001
 43
0.00000001
 40
0.0
 40
0.0
 40
0.0
 40
0.0
 40
1.0
 40
1.0
 40
1.0
 40
1.0
 10
-34.90323181492083
 20
37.5145471389583
 30
0.0
 10
-34.63096512790942
 20
38.45492978828409
 30
0.0
 10
-34.4566498275295
 20
39.41042095647737
 30
0.0
 10
-34.4566498275295
 20
40.39279940104829
 30
0.0
  0
LINE
  5
42D
330
1F
100
AcDbEntity
  8
0
  6
Continuous
 62
     7
370
    25
100
AcDbLine
 10
-38.4566498275
 20
37.514547139
 30
0.0
 11
-34.9032318149
 21
37.514547139
 31
0.0
  0
LINE
  5
42E
330
1F
100
AcDbEntity
  8
0
  6
Continuous
 62
     7
370
    25
100
AcDbLine
 10
-38.4566498275
 20
43.2710516631
 30
0.0
 11
-34.9032318149
 21
43.2710516631
 31
0.0
  0
LINE
  5
42F
330
1F
100
AcDbEntity
  8
0
  6
Continuous
 62
     7
370
    25
100
AcDbLine
 10
-34.4566498275
 20
40.392799401
 30
0.0
 11
-34.4566498275
 21
44.901875308
 31
0.0
  0
SPLINE
  5
430
330
1F
100
AcDbEntity
  8
0
  6
Continuous
 62
     7
370
    25
100
AcDbSpline
210
0.0
220
0.0
230
1.0
 70
     8
 71
     3
 72
     8
 73
     4
 74
     0
 42
0.000000001
 43
0.00000001
 40
0.0
 40
0.0
 40
0.0
 40
0.0
 40
1.0
 40
1.0
 40
1.0
 40
1.0
 10
-34.903231814921
 20
43.27105166314449
 30
0.0
 10
-34.63096512790958
 20
43.80387440420933
 30
0.0
 10
-34.45664982752966
 20
44.34525766310392
 30
0.0
 10
-34.45664982752966
 20
44.90187530803237
 30
0.0
  0
LINE
  5
431
330
1F
100
AcDbEntity
  8
0
  6
Continuous
 62
     7
370
    25
100
AcDbLine
 10
-34.4566498275
 20
36.2671185218
 30
0.0
 11
-34.4566498275
 21
40.392799401
 31
0.0
  0
SPLINE
  5
432
330
1F
100
AcDbEntity
  8
0
  6
Continuous
 62
     7
370
    25
100
AcDbSpline
210
0.0
220
0.0
230
1.0
 70
     8
 71
     3
 72
     8
 73
     4
 74
     0
 42
0.000000001
 43
0.00000001
 40
0.0
 40
0.0
 40
0.0
 40
0.0
 40
1.0
 40
1.0
 40
1.0
 40
1.0
 10
-34.45664982752966
 20
36.26711852175077
 30
0.0
 10
-34.45664982752966
 20
36.69287932139398
 30
0.0
 10
-34.63096512790909
 20
37.10698723069105
 30
0.0
 10
-34.90323181492094
 20
37.51454713895271
 30
0.0
  0
SPLINE
  5
433
330
1F
100
AcDbEntity
  8
0
  6
Continuous
 62
     7
370
    25
100
AcDbSpline
210
0.0
220
0.0
230
1.0
 70
     8
 71
     3
 72
     8
 73
     4
 74
     0
 42
0.000000001
 43
0.00000001
 40
0.0
 40
0.0
 40
0.0
 40
0.0
 40
1.0
 40
1.0
 40
1.0
 40
1.0
 10
-34.45664982752966
 20
44.90187530803237
 30
0.0
 10
-34.45664982752966
 20
45.45849295296182
 30
0.0
 10
-34.63096512790909
 20
45.99987621185443
 30
0.0
 10
-34.903231814921
 20
46.53269895292024
 30
0.0
  0
LINE
  5
434
330
1F
100
AcDbEntity
  8
0
  6
Continuous
 62
     7
370
    25
100
AcDbLine
 10
-38.4566498275
 20
46.5326989529
 30
0.0
 11
-34.9032318149
 21
46.5326989529
 31
0.0
  0
SPLINE
  5
435
330
1F
100
AcDbEntity
  8
0
  6
Continuous
 62
     7
370
    25
100
AcDbSpline
210
0.0
220
0.0
230
1.0
 70
     8
 71
     3
 72
     8
 73
     4
 74
     0
 42
0.000000001
 43
0.00000001
 40
0.0
 40
0.0
 40
0.0
 40
0.0
 40
1.0
 40
1.0
 40
1.0
 40
1.0
 10
-34.90323181492094
 20
35.01968990454877
 30
0.0
 10
-34.63096512790948
 20
35.42724981280983
 30
0.0
 10
-34.45664982752966
 20
35.84135772210819
 30
0.0
 10
-34.45664982752966
 20
36.26711852175077
 30
0.0
  0
LINE
  5
436
330
1F
100
AcDbEntity
  8
0
  6
Continuous
 62
     7
370
    25
100
AcDbLine
 10
-34.9032318149
 20
35.0196899045
 30
0.0
 11
-38.4566498275
 21
35.0196899045
 31
0.0
  0
LINE
  5
437
330
1F
100
AcDbEntity
  8
0
  6
Continuous
 62
     7
370
    25
100
AcDbLine
 10
-48.9153998275
 20
38.0707488845
 30
0.0
 11
-48.9153998275
 21
37.7761944287
 31
0.0
  0
LINE
  5
438
330
1F
100
AcDbEntity
  8
0
  6
Continuous
 62
     7
370
    25
100
AcDbLine
 10
-48.9153998275
 20
43.7761944287
 30
0.0
 11
-48.9153998275
 21
38.0707488845
 31
0.0
  0
LINE
  5
439
330
1F
100
AcDbEntity
  8
0
  6
Continuous
 62
     7
370
    25
100
AcDbLine
 10
-49.4566498275
 20
43.2349444288
 30
0.0
 11
-49.4566498275
 21
38.3174444287
 31
0.0
  0
LINE
  5
43A
330
1F
100
AcDbEntity
  8
0
  6
Continuous
 62
     7
370
    25
100
AcDbLine
 10
-34.9032318149
 20
46.5326989529
 30
0.0
 11
-34.8280440594
 21
46.3226784851
 31
0.0
  0
LINE
  5
43B
330
1F
100
AcDbEntity
  8
0
  6
Continuous
 62
     7
370
    25
100
AcDbLine
 10
-34.4566498275
 20
44.901875308
 30
0.0
 11
-34.4566498275
 21
45.7761944287
 31
0.0
  0
LINE
  5
43C
330
1F
100
AcDbEntity
  8
0
  6
Continuous
 62
     7
370
    25
100
AcDbLine
 10
-34.4566498275
 20
35.7761944287
 30
0.0
 11
-34.4566498275
 21
36.2671185218
 31
0.0
  0
ARC
  5
43D
330
1F
100
AcDbEntity
  8
0
  6
Continuous
 62
     7
370
    25
100
AcDbCircle
 10
-47.7566498275
 20
11.5761944287
 30
0.0
 40
6.000000000000062
100
AcDbArc
 50
90.0
 51
143.1301023541
  0
ARC
  5
43E
330
1F
100
AcDbEntity
  8
0
  6
Continuous
 62
     7
370
    25
100
AcDbCircle
 10
873.2433501725
 20
11.5761944287
 30
0.0
 40
6.000000000000083
100
AcDbArc
 50
36.8698976459
 51
90.0
  0
LINE
  5
43F
330
1F
100
AcDbEntity
  8
0
  6
Continuous
 62
     7
370
    25
100
AcDbLine
 10
-174.7089937414
 20
397.6075204992
 30
0.0
 11
-175.0719315197
 21
396.9788938271
 31
0.0
  0
LINE
  5
440
330
1F
100
AcDbEntity
  8
0
  6
Continuous
 62
     7
370
    25
100
AcDbLine
 10
-175.0719315197
 20
390.6788938271
 30
0.0
 11
-174.7089937414
 21
390.050267155
 31
0.0
  0
LINE
  5
441
330
1F
100
AcDbEntity
  8
0
  6
Continuous
 62
     7
370
    25
100
AcDbLine
 10
-176.7719315197
 20
397.8288938271
 30
0.0
 11
-178.7719315197
 21
397.8288938271
 31
0.0
  0
LINE
  5
442
330
1F
100
AcDbEntity
  8
0
  6
Continuous
 62
     7
370
    25
100
AcDbLine
 10
-178.7719315197
 20
389.8288938271
 30
0.0
 11
-176.7719315197
 21
389.8288938271
 31
0.0
  0
ARC
  5
443
330
1F
100
AcDbEntity
  8
0
  6
Continuous
 62
     7
370
    25
100
AcDbCircle
 10
-171.8437282895
 20
393.8288938271
 30
0.0
 40
8.00000000000002
100
AcDbArc
 50
195.2747479997
 51
210.0
  0
ARC
  5
444
330
1F
100
AcDbEntity
  8
0
  6
Continuous
 62
     7
370
    25
100
AcDbCircle
 10
-171.8437282895
 20
393.8288938271
 30
0.0
 40
7.999999999999992
100
AcDbArc
 50
150.0
 51
164.7252520003
  0
LINE
  5
445
330
1F
100
AcDbEntity
  8
0
  6
Continuous
 62
     7
370
    25
100
AcDbLine
 10
-175.0719315197
 20
395.8288938271
 30
0.0
 11
-175.1719315197
 21
395.8288938271
 31
0.0
  0
LINE
  5
446
330
1F
100
AcDbEntity
  8
0
  6
Continuous
 62
     7
370
    25
100
AcDbLine
 10
-175.1719315197
 20
391.8288938271
 30
0.0
 11
-175.0719315197
 21
391.8288938271
 31
0.0
  0
CIRCLE
  5
447
330
1F
100
AcDbEntity
  8
0
  6
Continuous
 62
     7
370
    25
100
AcDbCircle
 10
-163.4719315197
 20
192.8288938271
 30
0.0
 40
2.458750000016591
  0
CIRCLE
  5
448
330
1F
100
AcDbEntity
  8
0
  6
Continuous
 62
     7
370
    25
100
AcDbCircle
 10
-163.4719315197
 20
192.8288938271
 30
0.0
 40
2.999999999999999
  0
CIRCLE
  5
449
330
1F
100
AcDbEntity
  8
0
  6
Continuous
 62
     7
370
    25
100
AcDbCircle
 10
-163.4719315197
 20
418.8288938271
 30
0.0
 40
2.458750000016638
  0
CIRCLE
  5
44A
330
1F
100
AcDbEntity
  8
0
  6
Continuous
 62
     7
370
    25
100
AcDbCircle
 10
-163.4719315197
 20
418.8288938271
 30
0.0
 40
2.999999999999977
  0
LINE
  5
44B
330
1F
100
AcDbEntity
  8
0
  6
Continuous
 62
     7
370
    25
100
AcDbLine
 10
-182.0719315197
 20
146.2996045052
 30
0.0
 11
-182.0719315197
 21
389.358183149
 31
0.0
  0
LINE
  5
44C
330
1F
100
AcDbEntity
  8
0
  6
Continuous
 62
     7
370
    25
100
AcDbLine
 10
-191.6719315197
 20
146.2996045052
 30
0.0
 11
-182.0719315197
 21
146.2996045052
 31
0.0
  0
LINE
  5
44D
330
1F
100
AcDbEntity
  8
0
  6
Continuous
 62
     7
370
    25
100
AcDbLine
 10
-191.6719315197
 20
389.358183149
 30
0.0
 11
-182.0719315197
 21
389.358183149
 31
0.0
  0
SPLINE
  5
44E
330
1F
100
AcDbEntity
  8
0
  6
Continuous
 62
     7
370
    25
100
AcDbSpline
210
0.0
220
0.0
230
1.0
 70
     8
 71
     3
 72
    20
 73
    16
 74
     0
 42
0.000000001
 43
0.00000001
 40
0.0
 40
0.0
 40
0.0
 40
0.0
 40
0.1249999999999952
 40
0.1249999999999952
 40
0.2499999999999905
 40
0.2499999999999905
 40
0.3749999999999857
 40
0.3749999999999857
 40
0.4999999999999809
 40
0.4999999999999809
 40
0.7499999999999984
 40
0.7499999999999984
 40
0.8749999999999992
 40
0.8749999999999992
 40
1.0
 40
1.0
 40
1.0
 40
1.0
 10
-194.0719315197464
 20
388.4288938270926
 30
0.0
 10
-194.0719315197464
 20
388.4679345579472
 30
0.0
 10
-194.0563949592715
 20
388.5064532621469
 30
0.0
 10
-193.9950766073109
 20
388.5838600134549
 30
0.0
 10
-193.9486528617241
 20
388.6230044314416
 30
0.0
 10
-193.82870199157
 20
388.7001551853568
 30
0.0
 10
-193.7550973472865
 20
388.7384827670978
 30
0.0
 10
-193.5803669811909
 20
388.8160290875743
 30
0.0
 10
-193.4795163522894
 20
388.855005295243
 30
0.0
 10
-193.1482310723054
 20
388.970500151688
 30
0.0
 10
-192.8805509109216
 20
389.0484125953582
 30
0.0
 10
-192.4478768848661
 20
389.163892520759
 30
0.0
 10
-192.296358798015
 20
389.2027583166241
 30
0.0
 10
-191.9869330406289
 20
389.2805326502926
 30
0.0
 10
-191.8303107109351
 20
389.3191424172473
 30
0.0
 10
-191.6719315197464
 20
389.358183148974
 30
0.0
  0
SPLINE
  5
44F
330
1F
100
AcDbEntity
  8
0
  6
Continuous
 62
     7
370
    25
100
AcDbSpline
210
0.0
220
0.0
230
1.0
 70
     8
 71
     3
 72
    20
 73
    16
 74
     0
 42
0.000000001
 43
0.00000001
 40
0.0
 40
0.0
 40
0.0
 40
0.0
 40
0.1249999999999996
 40
0.1249999999999996
 40
0.2499999999999993
 40
0.2499999999999993
 40
0.3749999999999989
 40
0.3749999999999989
 40
0.4999999999999987
 40
0.4999999999999987
 40
0.749999999999998
 40
0.749999999999998
 40
0.874999999999999
 40
0.874999999999999
 40
1.0
 40
1.0
 40
1.0
 40
1.0
 10
-191.6719315197464
 20
146.2996045052113
 30
0.0
 10
-191.8303107073971
 20
146.3386452360658
 30
0.0
 10
-191.9865564320887
 20
146.3771639402657
 30
0.0
 10
-192.2945482815054
 20
146.4545706915736
 30
0.0
 10
-192.4471923889765
 20
146.4937151095602
 30
0.0
 10
-192.7362766781636
 20
146.5708658634754
 30
0.0
 10
-192.8740812163477
 20
146.6091934452164
 30
0.0
 10
-193.1356998919866
 20
146.686739765693
 30
0.0
 10
-193.2584461986692
 20
146.7257159733617
 30
0.0
 10
-193.5897705756169
 20
146.8412108298068
 30
0.0
 10
-193.7687816996452
 20
146.9191232734767
 30
0.0
 10
-193.948396799026
 20
147.0346031988777
 30
0.0
 10
-193.9946411478937
 20
147.0734689947427
 30
0.0
 10
-194.0563944539049
 20
147.1512433284113
 30
0.0
 10
-194.0719315197464
 20
147.189853095366
 30
0.0
 10
-194.0719315197464
 20
147.2288938270926
 30
0.0
  0
LINE
  5
450
330
1F
100
AcDbEntity
  8
0
  6
Continuous
 62
     7
370
    25
100
AcDbLine
 10
-194.0719315197
 20
147.2288938271
 30
0.0
 11
-194.0719315197
 21
388.4288938271
 31
0.0
  0
LINE
  5
451
330
1F
100
AcDbEntity
  8
0
  6
Continuous
 62
     7
370
    25
100
AcDbLine
 10
-191.6719315197
 20
390.8288938271
 30
0.0
 11
-191.6719315197
 21
389.4288938271
 31
0.0
  0
SPLINE
  5
452
330
1F
100
AcDbEntity
  8
0
  6
Continuous
 62
     7
370
    25
100
AcDbSpline
210
0.0
220
0.0
230
1.0
 70
     8
 71
     3
 72
     9
 73
     5
 74
     0
 42
0.000000001
 43
0.00000001
 40
0.0
 40
0.0
 40
0.0
 40
0.0
 40
0.7584558214374779
 40
1.0
 40
1.0
 40
1.0
 40
1.0
 10
-191.6719315197464
 20
389.4288938270925
 30
0.0
 10
-191.8236392976826
 20
389.417839291259
 30
0.0
 10
-192.0236612022528
 20
389.4032642355722
 30
0.0
 10
-192.1742152936443
 20
389.2801678519725
 30
0.0
 10
-192.2105807579786
 20
389.2504346371118
 30
0.0
  0
SPLINE
  5
453
330
1F
100
AcDbEntity
  8
0
  6
Continuous
 62
     7
370
    25
100
AcDbSpline
210
0.0
220
0.0
230
1.0
 70
     8
 71
     3
 72
    20
 73
    16
 74
     0
 42
0.000000001
 43
0.00000001
 40
0.0
 40
0.0
 40
0.0
 40
0.0
 40
0.1250000000000037
 40
0.1250000000000037
 40
0.2500000000000076
 40
0.2500000000000076
 40
0.3750000000000115
 40
0.3750000000000115
 40
0.5000000000000153
 40
0.5000000000000153
 40
0.7500000000000129
 40
0.7500000000000129
 40
0.8750000000000064
 40
0.8750000000000064
 40
1.0
 40
1.0
 40
1.0
 40
1.0
 10
-191.6719315197464
 20
390.8288938270925
 30
0.0
 10
-191.8303107073971
 20
390.8288938270925
 30
0.0
 10
-191.9865564320888
 20
390.8133572666177
 30
0.0
 10
-192.2945482815054
 20
390.752038914657
 30
0.0
 10
-192.4471923889765
 20
390.7056151690703
 30
0.0
 10
-192.7362766781635
 20
390.5856642989162
 30
0.0
 10
-192.8740812163476
 20
390.5120596546328
 30
0.0
 10
-193.1356998919865
 20
390.3373292885371
 30
0.0
 10
-193.2584461986691
 20
390.2364786596356
 30
0.0
 10
-193.5897705756168
 20
389.9051933796516
 30
0.0
 10
-193.768781699645
 20
389.6375132182678
 30
0.0
 10
-193.9483967990259
 20
389.2048391922124
 30
0.0
 10
-193.9946411478937
 20
389.0533211053613
 30
0.0
 10
-194.0563944539049
 20
388.7438953479751
 30
0.0
 10
-194.0719315197463
 20
388.5872730182815
 30
0.0
 10
-194.0719315197463
 20
388.4288938270927
 30
0.0
  0
SPLINE
  5
454
330
1F
100
AcDbEntity
  8
0
  6
Continuous
 62
     7
370
    25
100
AcDbSpline
210
0.0
220
0.0
230
1.0
 70
     8
 71
     3
 72
    20
 73
    16
 74
     0
 42
0.000000001
 43
0.00000001
 40
0.0
 40
0.0
 40
0.0
 40
0.0
 40
0.125
 40
0.125
 40
0.2499999999999999
 40
0.2499999999999999
 40
0.3749999999999999
 40
0.3749999999999999
 40
0.4999999999999999
 40
0.4999999999999999
 40
0.7499999999999998
 40
0.7499999999999998
 40
0.8749999999999998
 40
0.8749999999999998
 40
1.0
 40
1.0
 40
1.0
 40
1.0
 10
-194.0719315197463
 20
147.2288938270927
 30
0.0
 10
-194.0719315197463
 20
147.0705146394421
 30
0.0
 10
-194.0563949592715
 20
146.9142689147503
 30
0.0
 10
-193.9950766073109
 20
146.6062770653337
 30
0.0
 10
-193.9486528617241
 20
146.4536329578625
 30
0.0
 10
-193.8287019915699
 20
146.1645486686755
 30
0.0
 10
-193.7550973472866
 20
146.0267441304914
 30
0.0
 10
-193.5803669811909
 20
145.7651254548525
 30
0.0
 10
-193.4795163522894
 20
145.6423791481699
 30
0.0
 10
-193.1482310723054
 20
145.3110547712221
 30
0.0
 10
-192.8805509109216
 20
145.132043647194
 30
0.0
 10
-192.4478768848661
 20
144.952428547813
 30
0.0
 10
-192.296358798015
 20
144.9061841989453
 30
0.0
 10
-191.9869330406289
 20
144.844430892934
 30
0.0
 10
-191.8303107109352
 20
144.8288938270927
 30
0.0
 10
-191.6719315197464
 20
144.8288938270926
 30
0.0
  0
SPLINE
  5
455
330
1F
100
AcDbEntity
  8
0
  6
Continuous
 62
     7
370
    25
100
AcDbSpline
210
0.0
220
0.0
230
1.0
 70
     8
 71
     3
 72
     9
 73
     5
 74
     0
 42
0.000000001
 43
0.00000001
 40
0.0
 40
0.0
 40
0.0
 40
0.0
 40
0.4258694941522713
 40
1.0
 40
1.0
 40
1.0
 40
1.0
 10
-192.2283229467555
 20
146.4189723897699
 30
0.0
 10
-192.1579187701506
 20
146.3690507649253
 30
0.0
 10
-191.9926001042881
 20
146.2518279407269
 30
0.0
 10
-191.7888885420317
 20
146.2372585555653
 30
0.0
 10
-191.6719315197464
 20
146.2288938270926
 30
0.0
  0
LINE
  5
456
330
1F
100
AcDbEntity
  8
0
  6
Continuous
 62
     7
370
    25
100
AcDbLine
 10
-191.6719315197
 20
144.8288938271
 30
0.0
 11
-191.6719315197
 21
146.2288938271
 31
0.0
  0
LINE
  5
457
330
1F
100
AcDbEntity
  8
0
  6
Continuous
 62
     7
370
    25
100
AcDbLine
 10
-191.6719315197
 20
390.8288938271
 30
0.0
 11
-182.0719315197
 21
390.8288938271
 31
0.0
  0
LINE
  5
458
330
1F
100
AcDbEntity
  8
0
  6
Continuous
 62
     7
370
    25
100
AcDbLine
 10
-191.6719315197
 20
389.4288938271
 30
0.0
 11
-182.0719315197
 21
389.4288938271
 31
0.0
  0
LINE
  5
459
330
1F
100
AcDbEntity
  8
0
  6
Continuous
 62
     7
370
    25
100
AcDbLine
 10
-182.0719315197
 20
390.8288938271
 30
0.0
 11
-182.0719315197
 21
389.4288938271
 31
0.0
  0
LINE
  5
45A
330
1F
100
AcDbEntity
  8
0
  6
Continuous
 62
     7
370
    25
100
AcDbLine
 10
-182.0719315197
 20
144.8288938271
 30
0.0
 11
-182.0719315197
 21
146.2288938271
 31
0.0
  0
LINE
  5
45B
330
1F
100
AcDbEntity
  8
0
  6
Continuous
 62
     7
370
    25
100
AcDbLine
 10
-191.6719315197
 20
146.2288938271
 30
0.0
 11
-182.0719315197
 21
146.2288938271
 31
0.0
  0
LINE
  5
45C
330
1F
100
AcDbEntity
  8
0
  6
Continuous
 62
     7
370
    25
100
AcDbLine
 10
-191.6719315197
 20
144.8288938271
 30
0.0
 11
-182.0719315197
 21
144.8288938271
 31
0.0
  0
ARC
  5
45D
330
1F
100
AcDbEntity
  8
0
  6
Continuous
 62
     7
370
    25
100
AcDbCircle
 10
-157.9719315197
 20
422.3288938271
 30
0.0
 40
3.0
100
AcDbArc
 50
0.0
 51
90.0
  0
LINE
  5
45E
330
1F
100
AcDbEntity
  8
0
  6
Continuous
 62
     7
370
    25
100
AcDbLine
 10
-154.9719315197
 20
388.1288938271
 30
0.0
 11
-154.9719315197
 21
422.3288938271
 31
0.0
  0
LINE
  5
45F
330
1F
100
AcDbEntity
  8
0
  6
Continuous
 62
     7
370
    25
100
AcDbLine
 10
-173.9719315197
 20
405.3288938271
 30
0.0
 11
-173.9719315197
 21
388.1288938271
 31
0.0
  0
LINE
  5
460
330
1F
100
AcDbEntity
  8
0
  6
Continuous
 62
     7
370
    25
100
AcDbLine
 10
-177.9719315197
 20
405.3288938271
 30
0.0
 11
-173.9719315197
 21
405.3288938271
 31
0.0
  0
LINE
  5
461
330
1F
100
AcDbEntity
  8
0
  6
Continuous
 62
     7
370
    25
100
AcDbLine
 10
-177.9719315197
 20
422.3288938271
 30
0.0
 11
-177.9719315197
 21
405.3288938271
 31
0.0
  0
ARC
  5
462
330
1F
100
AcDbEntity
  8
0
  6
Continuous
 62
     7
370
    25
100
AcDbCircle
 10
-174.9719315197
 20
422.3288938271
 30
0.0
 40
3.0
100
AcDbArc
 50
90.0
 51
180.0
  0
LINE
  5
463
330
1F
100
AcDbEntity
  8
0
  6
Continuous
 62
     7
370
    25
100
AcDbLine
 10
-157.9719315197
 20
425.3288938271
 30
0.0
 11
-174.9719315197
 21
425.3288938271
 31
0.0
  0
CIRCLE
  5
464
330
1F
100
AcDbEntity
  8
0
  6
Continuous
 62
     7
370
    25
100
AcDbCircle
 10
-163.4719315197
 20
418.8288938271
 30
0.0
 40
3.249999999999773
  0
CIRCLE
  5
465
330
1F
100
AcDbEntity
  8
0
  6
Continuous
 62
     7
370
    25
100
AcDbCircle
 10
-163.4719315197
 20
393.8288938271
 30
0.0
 40
3.249999999999716
  0
LINE
  5
466
330
1F
100
AcDbEntity
  8
0
  6
Continuous
 62
     7
370
    25
100
AcDbLine
 10
-173.9719315197
 20
386.3288938271
 30
0.0
 11
-173.9719315197
 21
388.1288938271
 31
0.0
  0
LINE
  5
467
330
1F
100
AcDbEntity
  8
0
  6
Continuous
 62
     7
370
    25
100
AcDbLine
 10
-154.9719315197
 20
386.3288938271
 30
0.0
 11
-173.9719315197
 21
386.3288938271
 31
0.0
  0
LINE
  5
468
330
1F
100
AcDbEntity
  8
0
  6
Continuous
 62
     7
370
    25
100
AcDbLine
 10
-154.9719315197
 20
388.1288938271
 30
0.0
 11
-154.9719315197
 21
386.3288938271
 31
0.0
  0
ARC
  5
469
330
1F
100
AcDbEntity
  8
0
  6
Continuous
 62
     7
370
    25
100
AcDbCircle
 10
-174.1719315197
 20
388.1288938271
 30
0.0
 40
1.800000000000011
100
AcDbArc
 50
180.0
 51
270.0
  0
ARC
  5
46A
330
1F
100
AcDbEntity
  8
0
  6
Continuous
 62
     7
370
    25
100
AcDbCircle
 10
-174.1719315197
 20
388.1288938271
 30
0.0
 40
1.0
100
AcDbArc
 50
180.0
 51
270.0
  0
LINE
  5
46B
330
1F
100
AcDbEntity
  8
0
  6
Continuous
 62
     7
370
    25
100
AcDbLine
 10
-174.1719315197
 20
386.3288938271
 30
0.0
 11
-173.9719315197
 21
386.3288938271
 31
0.0
  0
LINE
  5
46C
330
1F
100
AcDbEntity
  8
0
  6
Continuous
 62
     7
370
    25
100
AcDbLine
 10
-174.1719315197
 20
387.1288938271
 30
0.0
 11
-173.9719315197
 21
387.1288938271
 31
0.0
  0
LINE
  5
46D
330
1F
100
AcDbEntity
  8
0
  6
Continuous
 62
     7
370
    25
100
AcDbLine
 10
-175.9719315197
 20
398.3288938271
 30
0.0
 11
-175.1719315197
 21
398.3288938271
 31
0.0
  0
LINE
  5
46E
330
1F
100
AcDbEntity
  8
0
  6
Continuous
 62
     7
370
    25
100
AcDbLine
 10
-175.1719315197
 20
388.1288938271
 30
0.0
 11
-175.1719315197
 21
398.3288938271
 31
0.0
  0
LINE
  5
46F
330
1F
100
AcDbEntity
  8
0
  6
Continuous
 62
     7
370
    25
100
AcDbLine
 10
-130.9719315197
 20
387.1288938271
 30
0.0
 11
-130.9719315197
 21
386.3288938271
 31
0.0
  0
LINE
  5
470
330
1F
100
AcDbEntity
  8
0
  6
Continuous
 62
     7
370
    25
100
AcDbLine
 10
-130.9719315197
 20
386.3288938271
 30
0.0
 11
-133.9719315197
 21
386.3288938271
 31
0.0
  0
LINE
  5
471
330
1F
100
AcDbEntity
  8
0
  6
Continuous
 62
     7
370
    25
100
AcDbLine
 10
-133.9719315197
 20
387.1288938271
 30
0.0
 11
-130.9719315197
 21
387.1288938271
 31
0.0
  0
LINE
  5
472
330
1F
100
AcDbEntity
  8
0
  6
Continuous
 62
     7
370
    25
100
AcDbLine
 10
-154.9719315197
 20
386.3288938271
 30
0.0
 11
-133.9719315197
 21
386.3288938271
 31
0.0
  0
LINE
  5
473
330
1F
100
AcDbEntity
  8
0
  6
Continuous
 62
     7
370
    25
100
AcDbLine
 10
-154.9719315197
 20
387.1288938271
 30
0.0
 11
-133.9719315197
 21
387.1288938271
 31
0.0
  0
ARC
  5
474
330
1F
100
AcDbEntity
  8
0
  6
Continuous
 62
     7
370
    25
100
AcDbCircle
 10
-149.6098807122
 20
388.1288938271
 30
0.0
 40
1.0
100
AcDbArc
 50
270.0
 51
300.0
  0
LINE
  5
475
330
1F
100
AcDbEntity
  8
0
  6
Continuous
 62
     7
370
    25
100
AcDbLine
 10
-142.0850095816
 20
390.3949192309
 30
0.0
 11
-147.7419315197
 21
387.1288938271
 31
0.0
  0
LINE
  5
476
330
1F
100
AcDbEntity
  8
0
  6
Continuous
 62
     7
370
    25
100
AcDbLine
 10
-142.4850095816
 20
391.0877395539
 30
0.0
 11
-149.1098807122
 21
387.2628684233
 31
0.0
  0
LINE
  5
477
330
1F
100
AcDbEntity
  8
0
  6
Continuous
 62
     7
370
    25
100
AcDbLine
 10
-132.067318128
 20
391.3288938271
 30
0.0
 11
-132.067318128
 21
390.5288938271
 31
0.0
  0
LINE
  5
478
330
1F
100
AcDbEntity
  8
0
  6
Continuous
 62
     7
370
    25
100
AcDbLine
 10
-132.067318128
 20
390.5288938271
 30
0.0
 11
-135.067318128
 21
390.5288938271
 31
0.0
  0
LINE
  5
479
330
1F
100
AcDbEntity
  8
0
  6
Continuous
 62
     7
370
    25
100
AcDbLine
 10
-135.067318128
 20
391.3288938271
 30
0.0
 11
-132.067318128
 21
391.3288938271
 31
0.0
  0
LINE
  5
47A
330
1F
100
AcDbEntity
  8
0
  6
Continuous
 62
     7
370
    25
100
AcDbLine
 10
-141.5850095816
 20
391.3288938271
 30
0.0
 11
-135.067318128
 21
391.3288938271
 31
0.0
  0
LINE
  5
47B
330
1F
100
AcDbEntity
  8
0
  6
Continuous
 62
     7
370
    25
100
AcDbLine
 10
-141.5850095816
 20
390.5288938271
 30
0.0
 11
-135.067318128
 21
390.5288938271
 31
0.0
  0
ARC
  5
47C
330
1F
100
AcDbEntity
  8
0
  6
Continuous
 62
     7
370
    25
100
AcDbCircle
 10
-141.5850095816
 20
389.5288938271
 30
0.0
 40
1.800000000000011
100
AcDbArc
 50
90.0
 51
120.0
  0
ARC
  5
47D
330
1F
100
AcDbEntity
  8
0
  6
Continuous
 62
     7
370
    25
100
AcDbCircle
 10
-141.5850095816
 20
389.5288938271
 30
0.0
 40
1.000000000000019
100
AcDbArc
 50
90.0
 51
120.0
  0
CIRCLE
  5
47E
330
1F
100
AcDbEntity
  8
0
  6
Continuous
 62
     7
370
    25
100
AcDbCircle
 10
-163.4719315197
 20
393.8288938271
 30
0.0
 40
2.458750000016638
  0
CIRCLE
  5
47F
330
1F
100
AcDbEntity
  8
0
  6
Continuous
 62
     7
370
    25
100
AcDbCircle
 10
-163.4719315197
 20
393.8288938271
 30
0.0
 40
2.99999999999996
  0
SPLINE
  5
480
330
1F
100
AcDbEntity
  8
0
  6
Continuous
 62
     7
370
    25
100
AcDbSpline
210
0.0
220
0.0
230
1.0
 70
     8
 71
     3
 72
    12
 73
     8
 74
     0
 42
0.000000001
 43
0.00000001
 40
0.0
 40
0.0
 40
0.0
 40
0.0
 40
0.4999999999999969
 40
0.4999999999999969
 40
0.7499999999999984
 40
0.7499999999999984
 40
1.0
 40
1.0
 40
1.0
 40
1.0
 10
-174.5572515343614
 20
392.3880645052222
 30
0.0
 10
-174.7477458237849
 20
391.9717634215677
 30
0.0
 10
-174.8694202368472
 20
391.5492248935793
 30
0.0
 10
-174.8700764273785
 20
390.8989347541183
 30
0.0
 10
-174.8402424255841
 20
390.682392536204
 30
0.0
 10
-174.7313125554765
 20
390.2570245309636
 30
0.0
 10
-174.6526173684136
 20
390.0468725519784
 30
0.0
 10
-174.5572515343609
 20
389.8384626296656
 30
0.0
  0
LINE
  5
481
330
1F
100
AcDbEntity
  8
0
  6
Continuous
 62
     7
370
    25
100
AcDbLine
 10
-174.5572515344
 20
389.8384626297
 30
0.0
 11
-174.6551265716
 21
390.08136738
 31
0.0
  0
SPLINE
  5
482
330
1F
100
AcDbEntity
  8
0
  6
Continuous
 62
     7
370
    25
100
AcDbSpline
210
0.0
220
0.0
230
1.0
 70
     8
 71
     3
 72
    12
 73
     8
 74
     0
 42
0.000000001
 43
0.00000001
 40
0.0
 40
0.0
 40
0.0
 40
0.0
 40
0.4999999999999847
 40
0.4999999999999847
 40
0.7499999999999923
 40
0.7499999999999923
 40
1.0
 40
1.0
 40
1.0
 40
1.0
 10
-174.5572515343614
 20
397.8193250245196
 30
0.0
 10
-174.7477458237849
 20
397.5840652320764
 30
0.0
 10
-174.8694202368472
 20
397.3452805392259
 30
0.0
 10
-174.8700764273785
 20
396.9777890066689
 30
0.0
 10
-174.8402424255841
 20
396.8554168120196
 30
0.0
 10
-174.7313125554765
 20
396.6150331268601
 30
0.0
 10
-174.6526173684136
 20
396.4962721797986
 30
0.0
 10
-174.5572515343609
 20
396.3784957026489
 30
0.0
  0
SPLINE
  5
483
330
1F
100
AcDbEntity
  8
0
  6
Continuous
 62
     7
370
    25
100
AcDbSpline
210
0.0
220
0.0
230
1.0
 70
     8
 71
     3
 72
    14
 73
    10
 74
     0
 42
0.000000001
 43
0.00000001
 40
0.0
 40
0.0
 40
0.0
 40
0.0
 40
0.25
 40
0.25
 40
0.5
 40
0.5
 40
0.75
 40
0.75
 40
1.0
 40
1.0
 40
1.0
 40
1.0
 10
-174.5572515343604
 20
396.3784957026489
 30
0.0
 10
-174.652126143671
 20
396.0539894733603
 30
0.0
 10
-174.7317310685468
 20
395.7215302509659
 30
0.0
 10
-174.840567683441
 20
395.0549603360578
 30
0.0
 10
-174.8698912891315
 20
394.7198840787826
 30
0.0
 10
-174.8698265073859
 20
394.0455406085549
 30
0.0
 10
-174.8396703140595
 20
393.703761187876
 30
0.0
 10
-174.7300851126938
 20
393.0373472682712
 30
0.0
 10
-174.6515421388916
 20
392.7105732223184
 30
0.0
 10
-174.5572515343604
 20
392.3880645052221
 30
0.0
  0
LINE
  5
484
330
1F
100
AcDbEntity
  8
0
  6
Continuous
 62
     7
370
    25
100
AcDbLine
 10
-175.0719315197
 20
390.6788938271
 30
0.0
 11
-175.0719315197
 21
396.9788938271
 31
0.0
  0
LINE
  5
485
330
1F
100
AcDbEntity
  8
0
  6
Continuous
 62
     7
370
    25
100
AcDbLine
 10
-173.9719315197
 20
392.3880645052
 30
0.0
 11
-174.5572515344
 21
392.3880645052
 31
0.0
  0
LINE
  5
486
330
1F
100
AcDbEntity
  8
0
  6
Continuous
 62
     7
370
    25
100
AcDbLine
 10
-173.9719315197
 20
396.3784957026
 30
0.0
 11
-174.5572515344
 21
396.3784957026
 31
0.0
  0
LINE
  5
487
330
1F
100
AcDbEntity
  8
0
  6
Continuous
 62
     7
370
    25
100
AcDbLine
 10
-173.9719315197
 20
389.8384626297
 30
0.0
 11
-174.5572515344
 21
389.8384626297
 31
0.0
  0
LINE
  5
488
330
1F
100
AcDbEntity
  8
0
  6
Continuous
 62
     7
370
    25
100
AcDbLine
 10
-173.9719315197
 20
397.8193250245
 30
0.0
 11
-174.5572515344
 21
397.8193250245
 31
0.0
  0
LINE
  5
489
330
1F
100
AcDbEntity
  8
0
  6
Continuous
 62
     7
370
    25
100
AcDbLine
 10
-177.7719315197
 20
403.8288938271
 30
0.0
 11
-187.6719315197
 21
403.8288938271
 31
0.0
  0
LINE
  5
48A
330
1F
100
AcDbEntity
  8
0
  6
Continuous
 62
     7
370
    25
100
AcDbLine
 10
-177.7719315197
 20
403.0288938271
 30
0.0
 11
-177.7719315197
 21
403.8288938271
 31
0.0
  0
LINE
  5
48B
330
1F
100
AcDbEntity
  8
0
  6
Continuous
 62
     7
370
    25
100
AcDbLine
 10
-187.6719315197
 20
403.0288938271
 30
0.0
 11
-177.7719315197
 21
403.0288938271
 31
0.0
  0
LINE
  5
48C
330
1F
100
AcDbEntity
  8
0
  6
Continuous
 62
     7
370
    25
100
AcDbLine
 10
-187.6719315197
 20
403.0288938271
 30
0.0
 11
-187.6719315197
 21
402.9288938271
 31
0.0
  0
LINE
  5
48D
330
1F
100
AcDbEntity
  8
0
  6
Continuous
 62
     7
370
    25
100
AcDbLine
 10
-187.6719315197
 20
402.9288938271
 30
0.0
 11
-182.5219315197
 21
402.9288938271
 31
0.0
  0
LINE
  5
48E
330
1F
100
AcDbEntity
  8
0
  6
Continuous
 62
     7
370
    25
100
AcDbLine
 10
-182.5219315197
 20
402.1288938271
 30
0.0
 11
-182.5219315197
 21
402.9288938271
 31
0.0
  0
LINE
  5
48F
330
1F
100
AcDbEntity
  8
0
  6
Continuous
 62
     7
370
    25
100
AcDbLine
 10
-187.6719315197
 20
402.1288938271
 30
0.0
 11
-182.5219315197
 21
402.1288938271
 31
0.0
  0
ARC
  5
490
330
1F
100
AcDbEntity
  8
0
  6
Continuous
 62
     7
370
    25
100
AcDbCircle
 10
-187.6719315197
 20
402.9788938271
 30
0.0
 40
0.8500000000000227
100
AcDbArc
 50
90.0
 51
270.0
  0
LINE
  5
491
330
1F
100
AcDbEntity
  8
0
  6
Continuous
 62
     7
370
    25
100
AcDbLine
 10
-177.7719315197
 20
384.6288938271
 30
0.0
 11
-182.0719315197
 21
384.6288938271
 31
0.0
  0
LINE
  5
492
330
1F
100
AcDbEntity
  8
0
  6
Continuous
 62
     7
370
    25
100
AcDbLine
 10
-177.7719315197
 20
383.8288938271
 30
0.0
 11
-177.7719315197
 21
384.6288938271
 31
0.0
  0
LINE
  5
493
330
1F
100
AcDbEntity
  8
0
  6
Continuous
 62
     7
370
    25
100
AcDbLine
 10
-177.7719315197
 20
383.8288938271
 30
0.0
 11
-182.0719315197
 21
383.8288938271
 31
0.0
  0
LINE
  5
494
330
1F
100
AcDbEntity
  8
0
  6
Continuous
 62
     7
370
    25
100
AcDbLine
 10
-175.9719315197
 20
385.6288938271
 30
0.0
 11
-175.9719315197
 21
402.0288938271
 31
0.0
  0
ARC
  5
495
330
1F
100
AcDbEntity
  8
0
  6
Continuous
 62
     7
370
    25
100
AcDbCircle
 10
-177.7719315197
 20
385.6288938271
 30
0.0
 40
1.800000000000182
100
AcDbArc
 50
270.0
 51
0.0
  0
ARC
  5
496
330
1F
100
AcDbEntity
  8
0
  6
Continuous
 62
     7
370
    25
100
AcDbCircle
 10
-177.7719315197
 20
385.6288938271
 30
0.0
 40
1.000000000000057
100
AcDbArc
 50
270.0
 51
0.0
  0
LINE
  5
497
330
1F
100
AcDbEntity
  8
0
  6
Continuous
 62
     7
370
    25
100
AcDbLine
 10
-176.7719315197
 20
385.6288938271
 30
0.0
 11
-176.7719315197
 21
402.0288938271
 31
0.0
  0
ARC
  5
498
330
1F
100
AcDbEntity
  8
0
  6
Continuous
 62
     7
370
    25
100
AcDbCircle
 10
-177.7719315197
 20
402.0288938271
 30
0.0
 40
1.000000000000057
100
AcDbArc
 50
360.0
 51
90.0
  0
ARC
  5
499
330
1F
100
AcDbEntity
  8
0
  6
Continuous
 62
     7
370
    25
100
AcDbCircle
 10
-177.7719315197
 20
402.0288938271
 30
0.0
 40
1.800000000000068
100
AcDbArc
 50
0.0
 51
90.0
  0
LINE
  5
49A
330
1F
100
AcDbEntity
  8
0
  6
Continuous
 62
     7
370
    25
100
AcDbLine
 10
-178.7719315197
 20
397.8288938271
 30
0.0
 11
-178.7719315197
 21
389.8288938271
 31
0.0
  0
LWPOLYLINE
  5
49B
330
1F
100
AcDbEntity
  8
0
  6
Continuous
 62
     7
370
    25
100
AcDbPolyline
 90
        3
 70
   128
 43
0.0
 10
-179.7779756366
 20
394.5526752278
 10
-179.7823761613
 20
394.5099799009
 10
-179.79860101
 20
394.326281572
  0
ARC
  5
49C
330
1F
100
AcDbEntity
  8
0
  6
Continuous
 62
     7
370
    25
100
AcDbCircle
 10
-179.2742080856
 20
394.6394094095
 30
0.0
 40
0.6107675350075294
100
AcDbArc
 50
210.8424581413
 51
243.3898036634
  0
ARC
  5
49D
330
1F
100
AcDbEntity
  8
0
  6
Continuous
 62
     7
370
    25
100
AcDbCircle
 10
-170.3912741641
 20
393.4978964582
 30
0.0
 40
9.175815043725907
100
AcDbArc
 50
177.9327321266
 51
179.6562101049
  0
ARC
  5
49E
330
1F
100
AcDbEntity
  8
0
  6
Continuous
 62
     7
370
    25
100
AcDbCircle
 10
-172.034951622
 20
393.734756552
 30
0.0
 40
7.786288415097032
100
AcDbArc
 50
184.3702527064
 51
195.2299003794
  0
ARC
  5
49F
330
1F
100
AcDbEntity
  8
0
  6
Continuous
 62
     7
370
    25
100
AcDbCircle
 10
-179.3266599547
 20
391.7843927108
 30
0.0
 40
0.2406805056721156
100
AcDbArc
 50
156.7420981704
 51
203.2579018295
  0
ARC
  5
4A0
330
1F
100
AcDbEntity
  8
0
  6
Continuous
 62
     7
370
    25
100
AcDbCircle
 10
-172.034951622
 20
393.9248318469
 30
0.0
 40
7.786288415093876
100
AcDbArc
 50
184.3702527064
 51
195.2299003794
  0
ARC
  5
4A1
330
1F
100
AcDbEntity
  8
0
  6
Continuous
 62
     7
370
    25
100
AcDbCircle
 10
-179.2742080856
 20
393.0183782446
 30
0.0
 40
0.6107675350082797
100
AcDbArc
 50
116.6101963367
 51
149.1575418587
  0
ARC
  5
4A2
330
1F
100
AcDbEntity
  8
0
  6
Continuous
 62
     7
370
    25
100
AcDbCircle
 10
-170.4681459441
 20
394.1568753397
 30
0.0
 40
9.098942710236818
100
AcDbArc
 50
176.2668736477
 51
183.7331263523
  0
ARC
  5
4A3
330
1F
100
AcDbEntity
  8
0
  6
Continuous
 62
     7
370
    25
100
AcDbCircle
 10
-179.2742080856
 20
394.2032290294
 30
0.0
 40
0.6107675350088899
100
AcDbArc
 50
116.6101963367
 51
149.1575418587
  0
ARC
  5
4A4
330
1F
100
AcDbEntity
  8
0
  6
Continuous
 62
     7
370
    25
100
AcDbCircle
 10
-172.034951622
 20
393.9230311022
 30
0.0
 40
7.786288415096703
100
AcDbArc
 50
164.7700996206
 51
175.6297472936
  0
ARC
  5
4A5
330
1F
100
AcDbEntity
  8
0
  6
Continuous
 62
     7
370
    25
100
AcDbCircle
 10
-179.4146977411
 20
395.8944962039
 30
0.0
 40
0.1522432420599304
100
AcDbArc
 50
150.9451665855
 51
179.1449116552
  0
LINE
  5
4A6
330
1F
100
AcDbEntity
  8
0
  6
Continuous
 62
     7
370
    25
100
AcDbLine
 10
-179.79860101
 20
394.516356867
 30
0.0
 11
-179.5600453521
 21
394.516356867
 31
0.0
  0
LINE
  5
4A7
330
1F
100
AcDbEntity
  8
0
  6
Continuous
 62
     7
370
    25
100
AcDbLine
 10
-179.79860101
 20
393.1414307872
 30
0.0
 11
-179.7817340183
 21
393.1414307872
 31
0.0
  0
LINE
  5
4A8
330
1F
100
AcDbEntity
  8
0
  6
Continuous
 62
     7
370
    25
100
AcDbLine
 10
-179.79860101
 20
394.326281572
 30
0.0
 11
-179.5655506936
 21
394.326281572
 31
0.0
  0
LINE
  5
4A9
330
1F
100
AcDbEntity
  8
0
  6
Continuous
 62
     7
370
    25
100
AcDbLine
 10
-155.5719315197
 20
335.1632006645
 30
0.0
 11
-155.5719315197
 21
330.0221244276
 31
0.0
  0
ARC
  5
4AA
330
1F
100
AcDbEntity
  8
0
  6
Continuous
 62
     7
370
    25
100
AcDbCircle
 10
-157.5134426305
 20
330.0843670035
 30
0.0
 40
1.942508566655133
100
AcDbArc
 50
268.2745645851
 51
358.1637932023
  0
LINE
  5
4AB
330
1F
100
AcDbEntity
  8
0
  6
Continuous
 62
     7
370
    25
100
AcDbLine
 10
-157.5719315197
 20
328.142739186
 30
0.0
 11
-169.5719315197
 21
328.142739186
 31
0.0
  0
ARC
  5
4AC
330
1F
100
AcDbEntity
  8
0
  6
Continuous
 62
     7
370
    25
100
AcDbCircle
 10
-169.630420409
 20
330.0843670035
 30
0.0
 40
1.942508566655244
100
AcDbArc
 50
181.8362067977
 51
271.7254354149
  0
LINE
  5
4AD
330
1F
100
AcDbEntity
  8
0
  6
Continuous
 62
     7
370
    25
100
AcDbLine
 10
-171.5719315197
 20
330.0221244276
 30
0.0
 11
-171.5719315197
 21
335.1632006645
 31
0.0
  0
LINE
  5
4AE
330
1F
100
AcDbEntity
  8
0
  6
Continuous
 62
     7
370
    25
100
AcDbLine
 10
-155.5719315197
 20
330.0221244276
 30
0.0
 11
-155.5719315197
 21
329.338084141
 31
0.0
  0
ARC
  5
4AF
330
1F
100
AcDbEntity
  8
0
  6
Continuous
 62
     7
370
    25
100
AcDbCircle
 10
-157.5134426305
 20
329.4003267168
 30
0.0
 40
1.942508566655299
100
AcDbArc
 50
268.2745645851
 51
358.1637932023
  0
LINE
  5
4B0
330
1F
100
AcDbEntity
  8
0
  6
Continuous
 62
     7
370
    25
100
AcDbLine
 10
-157.5719315197
 20
327.4586988994
 30
0.0
 11
-169.5719315197
 21
327.4586988994
 31
0.0
  0
LINE
  5
4B1
330
1F
100
AcDbEntity
  8
0
  6
Continuous
 62
     7
370
    25
100
AcDbLine
 10
-171.5719315197
 20
329.338084141
 30
0.0
 11
-171.5719315197
 21
330.0221244276
 31
0.0
  0
ARC
  5
4B2
330
1F
100
AcDbEntity
  8
0
  6
Continuous
 62
     7
370
    25
100
AcDbCircle
 10
-169.630420409
 20
329.4003267168
 30
0.0
 40
1.942508566655299
100
AcDbArc
 50
181.8362067977
 51
271.7254354149
  0
LINE
  5
4B3
330
1F
100
AcDbEntity
  8
0
  6
Continuous
 62
     7
370
    25
100
AcDbLine
 10
-171.5719315197
 20
335.5052208078
 30
0.0
 11
-171.5719315197
 21
335.1632006645
 31
0.0
  0
LINE
  5
4B4
330
1F
100
AcDbEntity
  8
0
  6
Continuous
 62
     7
370
    25
100
AcDbLine
 10
-155.5719315197
 20
335.1632006645
 30
0.0
 11
-155.5719315197
 21
335.5052208078
 31
0.0
  0
LINE
  5
4B5
330
1F
100
AcDbEntity
  8
0
  6
Continuous
 62
     7
370
    25
100
AcDbLine
 10
-182.0719315197
 20
335.3288938271
 30
0.0
 11
-171.5719315197
 21
335.3288938271
 31
0.0
  0
LINE
  5
4B6
330
1F
100
AcDbEntity
  8
0
  6
Continuous
 62
     7
370
    25
100
AcDbLine
 10
-157.5719315197
 20
350.3288938271
 30
0.0
 11
-182.0719315197
 21
350.3288938271
 31
0.0
  0
LINE
  5
4B7
330
1F
100
AcDbEntity
  8
0
  6
Continuous
 62
     7
370
    25
100
AcDbLine
 10
-155.5719315197
 20
335.5052208078
 30
0.0
 11
-155.5719315197
 21
348.3288938271
 31
0.0
  0
CIRCLE
  5
4B8
330
1F
100
AcDbEntity
  8
0
  6
Continuous
 62
     7
370
    25
100
AcDbCircle
 10
-163.4719315197
 20
342.8288938271
 30
0.0
 40
3.5
  0
ARC
  5
4B9
330
1F
100
AcDbEntity
  8
0
  6
Continuous
 62
     7
370
    25
100
AcDbCircle
 10
-157.5719315197
 20
348.3288938271
 30
0.0
 40
2.0
100
AcDbArc
 50
0.0
 51
90.0
  0
ARC
  5
4BA
330
1F
100
AcDbEntity
  8
0
  6
Continuous
 62
     7
370
    25
100
AcDbCircle
 10
-157.5134426305
 20
205.5734206507
 30
0.0
 40
1.942508566655244
100
AcDbArc
 50
1.8362067977
 51
91.7254354149
  0
LINE
  5
4BB
330
1F
100
AcDbEntity
  8
0
  6
Continuous
 62
     7
370
    25
100
AcDbLine
 10
-155.5719315197
 20
205.6356632266
 30
0.0
 11
-155.5719315197
 21
200.4945869897
 31
0.0
  0
LINE
  5
4BC
330
1F
100
AcDbEntity
  8
0
  6
Continuous
 62
     7
370
    25
100
AcDbLine
 10
-171.5719315197
 20
200.4945869897
 30
0.0
 11
-171.5719315197
 21
205.6356632266
 31
0.0
  0
ARC
  5
4BD
330
1F
100
AcDbEntity
  8
0
  6
Continuous
 62
     7
370
    25
100
AcDbCircle
 10
-169.630420409
 20
205.5734206507
 30
0.0
 40
1.942508566655271
100
AcDbArc
 50
88.2745645851
 51
178.1637932023
  0
LINE
  5
4BE
330
1F
100
AcDbEntity
  8
0
  6
Continuous
 62
     7
370
    25
100
AcDbLine
 10
-169.5719315197
 20
207.5150484681
 30
0.0
 11
-157.5719315197
 21
207.5150484681
 31
0.0
  0
LINE
  5
4BF
330
1F
100
AcDbEntity
  8
0
  6
Continuous
 62
     7
370
    25
100
AcDbLine
 10
-155.5719315197
 20
206.3197035132
 30
0.0
 11
-155.5719315197
 21
205.6356632266
 31
0.0
  0
ARC
  5
4C0
330
1F
100
AcDbEntity
  8
0
  6
Continuous
 62
     7
370
    25
100
AcDbCircle
 10
-157.5134426305
 20
206.2574609374
 30
0.0
 40
1.942508566655215
100
AcDbArc
 50
1.8362067977
 51
91.7254354149
  0
LINE
  5
4C1
330
1F
100
AcDbEntity
  8
0
  6
Continuous
 62
     7
370
    25
100
AcDbLine
 10
-169.5719315197
 20
208.1990887548
 30
0.0
 11
-157.5719315197
 21
208.1990887548
 31
0.0
  0
LINE
  5
4C2
330
1F
100
AcDbEntity
  8
0
  6
Continuous
 62
     7
370
    25
100
AcDbLine
 10
-171.5719315197
 20
205.6356632266
 30
0.0
 11
-171.5719315197
 21
206.3197035132
 31
0.0
  0
ARC
  5
4C3
330
1F
100
AcDbEntity
  8
0
  6
Continuous
 62
     7
370
    25
100
AcDbCircle
 10
-169.630420409
 20
206.2574609374
 30
0.0
 40
1.942508566655187
100
AcDbArc
 50
88.2745645851
 51
178.1637932023
  0
LINE
  5
4C4
330
1F
100
AcDbEntity
  8
0
  6
Continuous
 62
     7
370
    25
100
AcDbLine
 10
-171.5719315197
 20
200.4945869897
 30
0.0
 11
-171.5719315197
 21
200.1525668464
 31
0.0
  0
LINE
  5
4C5
330
1F
100
AcDbEntity
  8
0
  6
Continuous
 62
     7
370
    25
100
AcDbLine
 10
-155.5719315197
 20
200.1525668464
 30
0.0
 11
-155.5719315197
 21
200.4945869897
 31
0.0
  0
LINE
  5
4C6
330
1F
100
AcDbEntity
  8
0
  6
Continuous
 62
     7
370
    25
100
AcDbLine
 10
-171.5719315197
 20
200.3288938271
 30
0.0
 11
-182.0719315197
 21
200.3288938271
 31
0.0
  0
CIRCLE
  5
4C7
330
1F
100
AcDbEntity
  8
0
  6
Continuous
 62
     7
370
    25
100
AcDbCircle
 10
-163.4719315197
 20
192.8288938271
 30
0.0
 40
3.5
  0
ARC
  5
4C8
330
1F
100
AcDbEntity
  8
0
  6
Continuous
 62
     7
370
    25
100
AcDbCircle
 10
-157.5719315197
 20
187.3288938271
 30
0.0
 40
2.0
100
AcDbArc
 50
270.0
 51
0.0
  0
LINE
  5
4C9
330
1F
100
AcDbEntity
  8
0
  6
Continuous
 62
     7
370
    25
100
AcDbLine
 10
-155.5719315197
 20
187.3288938271
 30
0.0
 11
-155.5719315197
 21
200.1525668464
 31
0.0
  0
LINE
  5
4CA
330
1F
100
AcDbEntity
  8
0
  6
Continuous
 62
     7
370
    25
100
AcDbLine
 10
-182.0719315197
 20
185.3288938271
 30
0.0
 11
-157.5719315197
 21
185.3288938271
 31
0.0
  0
CIRCLE
  5
4CB
330
1F
100
AcDbEntity
  8
0
  6
Continuous
 62
     7
370
    25
100
AcDbCircle
 10
-163.4719315197
 20
342.8288938271
 30
0.0
 40
2.458750000016587
  0
CIRCLE
  5
4CC
330
1F
100
AcDbEntity
  8
0
  6
Continuous
 62
     7
370
    25
100
AcDbCircle
 10
-163.4719315197
 20
342.8288938271
 30
0.0
 40
2.999999999999999
  0
ENDSEC
  0
SECTION
  2
OBJECTS
  0
DICTIONARY
  5
C
330
0
100
AcDbDictionary
281
     1
  3
ACAD_GROUP
350
D
  3
ACAD_LAYOUT
350
1A
  3
ACAD_MLINESTYLE
350
17
  3
ACAD_PLOTSETTINGS
350
19
  3
ACAD_PLOTSTYLENAME
350
E
  3
ACAD_SCALELIST
350
47
  0
DICTIONARY
  5
D
102
{ACAD_REACTORS
330
C
102
}
330
C
100
AcDbDictionary
281
     1
  0
DICTIONARY
  5
1A
102
{ACAD_REACTORS
330
C
102
}
330
C
100
AcDbDictionary
281
     1
  3
Layout1
350
1E
  3
Layout2
350
26
  3
Model
350
22
  0
DICTIONARY
  5
17
102
{ACAD_REACTORS
330
C
102
}
330
C
100
AcDbDictionary
281
     1
  3
Standard
350
18
  0
DICTIONARY
  5
19
102
{ACAD_REACTORS
330
C
102
}
330
C
100
AcDbDictionary
281
     1
  0
ACDBDICTIONARYWDFLT
  5
E
102
{ACAD_REACTORS
330
C
102
}
330
C
100
AcDbDictionary
281
     1
  3
Normal
350
F
100
AcDbDictionaryWithDefault
340
F
  0
DICTIONARY
  5
47
102
{ACAD_REACTORS
330
C
102
}
330
C
100
AcDbDictionary
281
     1
  3
A0
350
48
  3
A1
350
49
  3
A2
350
4A
  3
A3
350
4B
  3
A4
350
4C
  3
A5
350
4D
  3
A6
350
4E
  3
A7
350
4F
  3
A8
350
50
  3
A9
350
51
  3
B0
350
52
  3
B1
350
53
  3
B2
350
54
  3
B3
350
55
  3
B4
350
56
  3
B5
350
57
  3
B6
350
58
  3
B7
350
59
  3
B8
350
5A
  3
B9
350
5B
  3
C0
350
5C
  3
C1
350
5D
  3
C2
350
5E
  3
C3
350
5F
  3
C4
350
60
  3
C5
350
61
  3
C6
350
62
  3
C7
350
63
  3
C8
350
64
  3
C9
350
65
  3
D0
350
66
  3
D1
350
67
  3
D2
350
68
  0
LAYOUT
  5
1E
102
{ACAD_REACTORS
330
1A
102
}
330
1A
100
AcDbPlotSettings
  1

  2
none_device
  4

  6

 40
0.0
 41
0.0
 42
0.0
 43
0.0
 44
0.0
 45
0.0
 46
0.0
 47
0.0
 48
0.0
 49
0.0
140
0.0
141
0.0
142
1.0
143
1.0
 70
   688
 72
     1
 73
     0
 74
     5
  7

 75
    16
147
1.0
148
0.0
149
0.0
100
AcDbLayout
  1
Layout1
 70
     1
 71
     1
 10
0.0
 20
0.0
 11
420.0
 21
297.0
 12
0.0
 22
0.0
 32
0.0
 14
1.0000000000E+20
 24
1.0000000000E+20
 34
1.0000000000E+20
 15
-1.0000000000E+20
 25
-1.0000000000E+20
 35
-1.0000000000E+20
146
0.0
 13
0.0
 23
0.0
 33
0.0
 16
1.0
 26
0.0
 36
0.0
 17
0.0
 27
1.0
 37
0.0
 76
     0
330
1B
  0
LAYOUT
  5
26
102
{ACAD_REACTORS
330
1A
102
}
330
1A
100
AcDbPlotSettings
  1

  2
none_device
  4

  6

 40
0.0
 41
0.0
 42
0.0
 43
0.0
 44
0.0
 45
0.0
 46
0.0
 47
0.0
 48
0.0
 49
0.0
140
0.0
141
0.0
142
1.0
143
1.0
 70
   688
 72
     1
 73
     0
 74
     5
  7

 75
    16
147
1.0
148
0.0
149
0.0
100
AcDbLayout
  1
Layout2
 70
     1
 71
     2
 10
0.0
 20
0.0
 11
0.0
 21
0.0
 12
0.0
 22
0.0
 32
0.0
 14
0.0
 24
0.0
 34
0.0
 15
0.0
 25
0.0
 35
0.0
146
0.0
 13
0.0
 23
0.0
 33
0.0
 16
1.0
 26
0.0
 36
0.0
 17
0.0
 27
1.0
 37
0.0
 76
     0
330
23
  0
LAYOUT
  5
22
102
{ACAD_REACTORS
330
1A
102
}
330
1A
100
AcDbPlotSettings
  1

  2
none_device
  4
Letter_(8.50_x_11.00_Inches)
  6

 40
6.35
 41
6.35
 42
6.35000508
 43
6.35000508
 44
215.9
 45
279.4
 46
0.0
 47
0.0
 48
0.0
 49
0.0
140
0.0
141
0.0
142
1.0
143
1.0
 70
  1712
 72
     1
 73
     0
 74
     0
  7

 75
     0
147
1.0
148
0.0
149
0.0
100
AcDbLayout
  1
Model
 70
     1
 71
     0
 10
0.0
 20
0.0
 11
841.0
 21
594.0
 12
0.0
 22
0.0
 32
0.0
 14
0.0
 24
0.0
 34
0.0
 15
841.0
 25
594.0
 35
0.0
146
0.0
 13
0.0
 23
0.0
 33
0.0
 16
1.0
 26
0.0
 36
0.0
 17
0.0
 27
1.0
 37
0.0
 76
     0
330
1F
331
29
  0
MLINESTYLE
  5
18
102
{ACAD_REACTORS
330
17
102
}
330
17
100
AcDbMlineStyle
  2
Standard
 70
     0
  3

 62
   256
 51
90.0
 52
90.0
 71
     2
 49
0.5
 62
   256
  6
BYLAYER
 49
-0.5
 62
   256
  6
BYLAYER
  0
ACDBPLACEHOLDER
  5
F
102
{ACAD_REACTORS
330
E
102
}
330
E
  0
SCALE
  5
48
102
{ACAD_REACTORS
330
47
102
}
330
47
100
AcDbScale
 70
     0
300
1:1
140
1.0
141
1.0
290
     1
  0
SCALE
  5
49
102
{ACAD_REACTORS
330
47
102
}
330
47
100
AcDbScale
 70
     0
300
1:2
140
1.0
141
2.0
290
     0
  0
SCALE
  5
4A
102
{ACAD_REACTORS
330
47
102
}
330
47
100
AcDbScale
 70
     0
300
1:4
140
1.0
141
4.0
290
     0
  0
SCALE
  5
4B
102
{ACAD_REACTORS
330
47
102
}
330
47
100
AcDbScale
 70
     0
300
1:5
140
1.0
141
5.0
290
     0
  0
SCALE
  5
4C
102
{ACAD_REACTORS
330
47
102
}
330
47
100
AcDbScale
 70
     0
300
1:8
140
1.0
141
8.0
290
     0
  0
SCALE
  5
4D
102
{ACAD_REACTORS
330
47
102
}
330
47
100
AcDbScale
 70
     0
300
1:10
140
1.0
141
10.0
290
     0
  0
SCALE
  5
4E
102
{ACAD_REACTORS
330
47
102
}
330
47
100
AcDbScale
 70
     0
300
1:16
140
1.0
141
16.0
290
     0
  0
SCALE
  5
4F
102
{ACAD_REACTORS
330
47
102
}
330
47
100
AcDbScale
 70
     0
300
1:20
140
1.0
141
20.0
290
     0
  0
SCALE
  5
50
102
{ACAD_REACTORS
330
47
102
}
330
47
100
AcDbScale
 70
     0
300
1:30
140
1.0
141
30.0
290
     0
  0
SCALE
  5
51
102
{ACAD_REACTORS
330
47
102
}
330
47
100
AcDbScale
 70
     0
300
1:40
140
1.0
141
40.0
290
     0
  0
SCALE
  5
52
102
{ACAD_REACTORS
330
47
102
}
330
47
100
AcDbScale
 70
     0
300
1:50
140
1.0
141
50.0
290
     0
  0
SCALE
  5
53
102
{ACAD_REACTORS
330
47
102
}
330
47
100
AcDbScale
 70
     0
300
1:100
140
1.0
141
100.0
290
     0
  0
SCALE
  5
54
102
{ACAD_REACTORS
330
47
102
}
330
47
100
AcDbScale
 70
     0
300
2:1
140
2.0
141
1.0
290
     0
  0
SCALE
  5
55
102
{ACAD_REACTORS
330
47
102
}
330
47
100
AcDbScale
 70
     0
300
4:1
140
4.0
141
1.0
290
     0
  0
SCALE
  5
56
102
{ACAD_REACTORS
330
47
102
}
330
47
100
AcDbScale
 70
     0
300
8:1
140
8.0
141
1.0
290
     0
  0
SCALE
  5
57
102
{ACAD_REACTORS
330
47
102
}
330
47
100
AcDbScale
 70
     0
300
10:1
140
10.0
141
1.0
290
     0
  0
SCALE
  5
58
102
{ACAD_REACTORS
330
47
102
}
330
47
100
AcDbScale
 70
     0
300
100:1
140
100.0
141
1.0
290
     0
  0
SCALE
  5
59
102
{ACAD_REACTORS
330
47
102
}
330
47
100
AcDbScale
 70
     0
300
1/128" = 1'-0"
140
0.0078125
141
12.0
290
     0
  0
SCALE
  5
5A
102
{ACAD_REACTORS
330
47
102
}
330
47
100
AcDbScale
 70
     0
300
1/64" = 1'-0"
140
0.015625
141
12.0
290
     0
  0
SCALE
  5
5B
102
{ACAD_REACTORS
330
47
102
}
330
47
100
AcDbScale
 70
     0
300
1/32" = 1'-0"
140
0.03125
141
12.0
290
     0
  0
SCALE
  5
5C
102
{ACAD_REACTORS
330
47
102
}
330
47
100
AcDbScale
 70
     0
300
1/16" = 1'-0"
140
0.0625
141
12.0
290
     0
  0
SCALE
  5
5D
102
{ACAD_REACTORS
330
47
102
}
330
47
100
AcDbScale
 70
     0
300
3/32" = 1'-0"
140
0.09375
141
12.0
290
     0
  0
SCALE
  5
5E
102
{ACAD_REACTORS
330
47
102
}
330
47
100
AcDbScale
 70
     0
300
1/8" = 1'-0"
140
0.125
141
12.0
290
     0
  0
SCALE
  5
5F
102
{ACAD_REACTORS
330
47
102
}
330
47
100
AcDbScale
 70
     0
300
3/16" = 1'-0"
140
0.1875
141
12.0
290
     0
  0
SCALE
  5
60
102
{ACAD_REACTORS
330
47
102
}
330
47
100
AcDbScale
 70
     0
300
1/4" = 1'-0"
140
0.25
141
12.0
290
     0
  0
SCALE
  5
61
102
{ACAD_REACTORS
330
47
102
}
330
47
100
AcDbScale
 70
     0
300
3/8" = 1'-0"
140
0.375
141
12.0
290
     0
  0
SCALE
  5
62
102
{ACAD_REACTORS
330
47
102
}
330
47
100
AcDbScale
 70
     0
300
1/2" = 1'-0"
140
0.5
141
12.0
290
     0
  0
SCALE
  5
63
102
{ACAD_REACTORS
330
47
102
}
330
47
100
AcDbScale
 70
     0
300
3/4" = 1'-0"
140
0.75
141
12.0
290
     0
  0
SCALE
  5
64
102
{ACAD_REACTORS
330
47
102
}
330
47
100
AcDbScale
 70
     0
300
1" = 1'-0"
140
1.0
141
12.0
290
     0
  0
SCALE
  5
65
102
{ACAD_REACTORS
330
47
102
}
330
47
100
AcDbScale
 70
     0
300
1-1/2" = 1'-0"
140
1.5
141
12.0
290
     0
  0
SCALE
  5
66
102
{ACAD_REACTORS
330
47
102
}
330
47
100
AcDbScale
 70
     0
300
3" = 1'-0"
140
3.0
141
12.0
290
     0
  0
SCALE
  5
67
102
{ACAD_REACTORS
330
47
102
}
330
47
100
AcDbScale
 70
     0
300
6" = 1'-0"
140
6.0
141
12.0
290
     0
  0
SCALE
  5
68
102
{ACAD_REACTORS
330
47
102
}
330
47
100
AcDbScale
 70
     0
300
1'-0" = 1'-0"
140
12.0
141
12.0
290
     0
  0
ENDSEC
  0
EOF
