ISO-10303-21;
HEADER;
FILE_DESCRIPTION (( 'STEP AP203' ),
    '1' );
FILE_NAME ('CLP1K-150-3-M-HDZ Êðûøêà íà ëîòîê îñí. 150 IEK HDZ.STEP',
    '2016-02-05T12:06:56',
    ( '' ),
    ( '' ),
    'SwSTEP 2.0',
    'SolidWorks 2014',
    '' );
FILE_SCHEMA (( 'CONFIG_CONTROL_DESIGN' ));
ENDSEC;

DATA;
#1 = CC_DESIGN_PERSON_AND_ORGANIZATION_ASSIGNMENT ( #355, #223, ( #295 ) ) ;
#2 = VECTOR ( 'NONE', #106, 1000.000000000000000 ) ;
#3 = CARTESIAN_POINT ( 'NONE',  ( 0.0000000000000000000, 0.0000000000000000000, -1.000000000000000000 ) ) ;
#4 = ORIENTED_EDGE ( 'NONE', *, *, #199, .F. ) ;
#5 = CALENDAR_DATE ( 2016, 5, 2 ) ;
#6 = CARTESIAN_POINT ( 'NONE',  ( -1492.500000000000000, 0.0000000000000000000, -1.000000000000000000 ) ) ;
#7 = CARTESIAN_POINT ( 'NONE',  ( 1492.500000000000000, 0.0000000000000000000, -1.000000000000000000 ) ) ;
#8 = UNCERTAINTY_MEASURE_WITH_UNIT (LENGTH_MEASURE( 1.000000000000000100E-005 ), #280, 'distance_accuracy_value', 'NONE');
#9 = VERTEX_POINT ( 'NONE', #145 ) ;
#10 = EDGE_LOOP ( 'NONE', ( #285, #230, #289, #293, #13, #51, #243, #275 ) ) ;
#11 = AXIS2_PLACEMENT_3D ( 'NONE', #210, #47, #245 ) ;
#12 = VECTOR ( 'NONE', #179, 1000.000000000000000 ) ;
#13 = ORIENTED_EDGE ( 'NONE', *, *, #246, .F. ) ;
#14 = DATE_AND_TIME ( #96, #163 ) ;
#15 = CARTESIAN_POINT ( 'NONE',  ( -1492.500000000000000, -16.15000000000000200, -1.000000000000056400 ) ) ;
#16 = PLANE ( 'NONE',  #303 ) ;
#17 = EDGE_CURVE ( 'NONE', #221, #258, #294, .T. ) ;
#18 = PLANE ( 'NONE',  #338 ) ;
#19 = EDGE_CURVE ( 'NONE', #368, #129, #81, .T. ) ;
#20 = DIRECTION ( 'NONE',  ( 0.0000000000000000000, -1.000000000000000000, 3.491481338843133400E-015 ) ) ;
#21 = DIRECTION ( 'NONE',  ( 0.0000000000000000000, -1.000000000000000000, -3.491481338843133400E-015 ) ) ;
#22 = LINE ( 'NONE', #301, #316 ) ;
#23 = SECURITY_CLASSIFICATION ( '', '', #56 ) ;
#24 = ORIENTED_EDGE ( 'NONE', *, *, #17, .F. ) ;
#25 = PERSON_AND_ORGANIZATION ( #254, #168 ) ;
#26 = APPLICATION_CONTEXT ( 'configuration controlled 3d designs of mechanical parts and assemblies' ) ;
#27 = PERSON_AND_ORGANIZATION_ROLE ( 'creator' ) ;
#28 = LINE ( 'NONE', #244, #12 ) ;
#29 = ORIENTED_EDGE ( 'NONE', *, *, #36, .T. ) ;
#30 = CARTESIAN_POINT ( 'NONE',  ( -1492.500000000000000, 5.087090019954277100E-013, 149.0000000000000000 ) ) ;
#31 = VECTOR ( 'NONE', #352, 1000.000000000000000 ) ;
#32 = DIRECTION ( 'NONE',  ( 0.0000000000000000000, 1.000000000000000000, 3.491481338843133700E-015 ) ) ;
#33 = CARTESIAN_POINT ( 'NONE',  ( 0.0000000000000000000, 2.444036937190193300E-015, -1.700000000000000200 ) ) ;
#34 = CARTESIAN_POINT ( 'NONE',  ( -1492.500000000000000, 5.127050073817025300E-016, 149.0000000000000000 ) ) ;
#35 = EDGE_CURVE ( 'NONE', #9, #286, #369, .T. ) ;
#36 = EDGE_CURVE ( 'NONE', #258, #368, #359, .T. ) ;
#37 = VECTOR ( 'NONE', #154, 1000.000000000000000 ) ;
#38 = EDGE_LOOP ( 'NONE', ( #321, #41, #297, #61, #340, #156, #101, #331 ) ) ;
#39 = FACE_OUTER_BOUND ( 'NONE', #10, .T. ) ;
#40 = CC_DESIGN_PERSON_AND_ORGANIZATION_ASSIGNMENT ( #282, #255, ( #23 ) ) ;
#41 = ORIENTED_EDGE ( 'NONE', *, *, #35, .T. ) ;
#42 = DIRECTION ( 'NONE',  ( -1.000000000000000000, 0.0000000000000000000, 0.0000000000000000000 ) ) ;
#43 = PLANE ( 'NONE',  #265 ) ;
#44 = DIRECTION ( 'NONE',  ( 0.0000000000000000000, -3.437222986455592900E-015, -1.000000000000000000 ) ) ;
#45 = COORDINATED_UNIVERSAL_TIME_OFFSET ( 3, 0, .AHEAD. ) ;
#46 = DIRECTION ( 'NONE',  ( 0.0000000000000000000, -0.0000000000000000000, -1.000000000000000000 ) ) ;
#47 = DIRECTION ( 'NONE',  ( 0.0000000000000000000, -1.000000000000000000, 0.0000000000000000000 ) ) ;
#48 = AXIS2_PLACEMENT_3D ( 'NONE', #358, #20, #214 ) ;
#49 = ORIENTED_EDGE ( 'NONE', *, *, #60, .F. ) ;
#50 = CARTESIAN_POINT ( 'NONE',  ( 0.0000000000000000000, -16.15000000000000200, 149.0000000000000600 ) ) ;
#51 = ORIENTED_EDGE ( 'NONE', *, *, #199, .T. ) ;
#52 = LINE ( 'NONE', #98, #267 ) ;
#53 = CARTESIAN_POINT ( 'NONE',  ( 0.0000000000000000000, 0.0000000000000000000, 0.0000000000000000000 ) ) ;
#54 = DIRECTION ( 'NONE',  ( 1.000000000000000000, 0.0000000000000000000, 0.0000000000000000000 ) ) ;
#55 = DIRECTION ( 'NONE',  ( 1.000000000000000000, 0.0000000000000000000, 0.0000000000000000000 ) ) ;
#56 = SECURITY_CLASSIFICATION_LEVEL ( 'unclassified' ) ;
#57 = ADVANCED_FACE ( 'NONE', ( #62 ), #342, .F. ) ;
#58 = CALENDAR_DATE ( 2016, 5, 2 ) ;
#59 = EDGE_CURVE ( 'NONE', #286, #185, #278, .T. ) ;
#60 = EDGE_CURVE ( 'NONE', #258, #80, #350, .T. ) ;
#61 = ORIENTED_EDGE ( 'NONE', *, *, #347, .F. ) ;
#62 = FACE_OUTER_BOUND ( 'NONE', #268, .T. ) ;
#63 = CC_DESIGN_DATE_AND_TIME_ASSIGNMENT ( #345, #89, ( #23 ) ) ;
#64 = DIRECTION ( 'NONE',  ( -1.000000000000000000, -0.0000000000000000000, -0.0000000000000000000 ) ) ;
#65 = CARTESIAN_POINT ( 'NONE',  ( 0.0000000000000000000, -3.851859888774471700E-031, -1.000000000000000000 ) ) ;
#66 = DIRECTION ( 'NONE',  ( 0.0000000000000000000, 1.000000000000000000, 3.491481338843133700E-015 ) ) ;
#67 = PERSON_AND_ORGANIZATION ( #254, #168 ) ;
#68 = DIRECTION ( 'NONE',  ( 1.000000000000000000, 0.0000000000000000000, 0.0000000000000000000 ) ) ;
#69 =( GEOMETRIC_REPRESENTATION_CONTEXT ( 3 ) GLOBAL_UNCERTAINTY_ASSIGNED_CONTEXT ( ( #8 ) ) GLOBAL_UNIT_ASSIGNED_CONTEXT ( ( #280, #135, #334 ) ) REPRESENTATION_CONTEXT ( 'NONE', 'WORKASPACE' ) );
#70 = ORIENTED_EDGE ( 'NONE', *, *, #346, .T. ) ;
#71 = VECTOR ( 'NONE', #260, 1000.000000000000000 ) ;
#72 = DESIGN_CONTEXT ( 'detailed design', #281, 'design' ) ;
#73 = VECTOR ( 'NONE', #183, 1000.000000000000000 ) ;
#74 = DIRECTION ( 'NONE',  ( -0.0000000000000000000, -0.0000000000000000000, -1.000000000000000000 ) ) ;
#75 = COORDINATED_UNIVERSAL_TIME_OFFSET ( 3, 0, .AHEAD. ) ;
#76 = DIRECTION ( 'NONE',  ( 0.0000000000000000000, -3.437222986455592900E-015, -1.000000000000000000 ) ) ;
#77 = DIRECTION ( 'NONE',  ( 0.0000000000000000000, -3.491481338843133400E-015, -1.000000000000000000 ) ) ;
#78 = CARTESIAN_POINT ( 'NONE',  ( 1492.500000000000000, 0.7000000000000001800, -1.700000000000000200 ) ) ;
#79 = EDGE_CURVE ( 'NONE', #198, #84, #202, .T. ) ;
#80 = VERTEX_POINT ( 'NONE', #343 ) ;
#81 = LINE ( 'NONE', #30, #71 ) ;
#82 = APPROVAL ( #283, 'UNSPECIFIED' ) ;
#83 = FACE_OUTER_BOUND ( 'NONE', #304, .T. ) ;
#84 = VERTEX_POINT ( 'NONE', #6 ) ;
#85 = DIRECTION ( 'NONE',  ( -0.0000000000000000000, -0.0000000000000000000, -1.000000000000000000 ) ) ;
#86 = LOCAL_TIME ( 15, 6, 56.00000000000000000, #153 ) ;
#87 = PERSON_AND_ORGANIZATION_ROLE ( 'design_owner' ) ;
#88 = ADVANCED_FACE ( 'NONE', ( #193 ), #195, .T. ) ;
#89 = DATE_TIME_ROLE ( 'classification_date' ) ;
#90 = MANIFOLD_SOLID_BREP ( 'Áîáûøêà-Âûòÿíóòü1', #147 ) ;
#91 = VECTOR ( 'NONE', #104, 1000.000000000000000 ) ;
#92 = ORIENTED_EDGE ( 'NONE', *, *, #366, .F. ) ;
#93 = AXIS2_PLACEMENT_3D ( 'NONE', #160, #21, #216 ) ;
#94 = LINE ( 'NONE', #127, #237 ) ;
#95 = EDGE_LOOP ( 'NONE', ( #173, #226, #348, #151 ) ) ;
#96 = CALENDAR_DATE ( 2016, 5, 2 ) ;
#97 = DIRECTION ( 'NONE',  ( 0.0000000000000000000, -3.491481338843133400E-015, 1.000000000000000000 ) ) ;
#98 = CARTESIAN_POINT ( 'NONE',  ( 1492.500000000000000, 0.0000000000000000000, 148.0000000000000000 ) ) ;
#99 = EDGE_CURVE ( 'NONE', #349, #198, #52, .T. ) ;
#100 = LINE ( 'NONE', #329, #2 ) ;
#101 = ORIENTED_EDGE ( 'NONE', *, *, #36, .F. ) ;
#102 = CC_DESIGN_APPROVAL ( #82, ( #23 ) ) ;
#103 = PERSON_AND_ORGANIZATION ( #254, #168 ) ;
#104 = DIRECTION ( 'NONE',  ( 0.0000000000000000000, -3.491481338843133400E-015, 1.000000000000000000 ) ) ;
#105 = CARTESIAN_POINT ( 'NONE',  ( 1492.500000000000000, 2.444036937190193300E-015, 149.6999999999999900 ) ) ;
#106 = DIRECTION ( 'NONE',  ( 1.000000000000000000, 0.0000000000000000000, 0.0000000000000000000 ) ) ;
#107 = VECTOR ( 'NONE', #241, 1000.000000000000000 ) ;
#108 = ORIENTED_EDGE ( 'NONE', *, *, #347, .T. ) ;
#109 = LINE ( 'NONE', #269, #324 ) ;
#110 = APPLICATION_PROTOCOL_DEFINITION ( 'international standard', 'config_control_design', 1994, #281 ) ;
#111 = ADVANCED_FACE ( 'NONE', ( #39 ), #320, .T. ) ;
#112 = APPROVAL_ROLE ( '' ) ;
#113 = AXIS2_PLACEMENT_3D ( 'NONE', #3, #194, #32 ) ;
#114 = APPROVAL_DATE_TIME ( #178, #82 ) ;
#115 = EDGE_CURVE ( 'NONE', #129, #349, #259, .T. ) ;
#116 = LINE ( 'NONE', #176, #37 ) ;
#117 = VERTEX_POINT ( 'NONE', #197 ) ;
#118 = VECTOR ( 'NONE', #68, 1000.000000000000000 ) ;
#119 = CC_DESIGN_SECURITY_CLASSIFICATION ( #23, ( #295 ) ) ;
#120 = CARTESIAN_POINT ( 'NONE',  ( -1492.500000000000000, -16.14999999999999900, 149.7000000000000500 ) ) ;
#121 = DIRECTION ( 'NONE',  ( -0.0000000000000000000, 1.000000000000000000, -3.437222986455592900E-015 ) ) ;
#122 = ORIENTED_EDGE ( 'NONE', *, *, #346, .F. ) ;
#123 = EDGE_LOOP ( 'NONE', ( #4, #92, #49, #24 ) ) ;
#124 = VECTOR ( 'NONE', #121, 1000.000000000000000 ) ;
#125 = LOCAL_TIME ( 15, 6, 56.00000000000000000, #196 ) ;
#126 = CARTESIAN_POINT ( 'NONE',  ( -1492.500000000000000, -16.14999999999999900, 149.7000000000000500 ) ) ;
#127 = CARTESIAN_POINT ( 'NONE',  ( -1493.489949493661000, 0.7000000000000001800, -1.700000000000000200 ) ) ;
#128 = EDGE_CURVE ( 'NONE', #117, #198, #187, .T. ) ;
#129 = VERTEX_POINT ( 'NONE', #34 ) ;
#130 = DIRECTION ( 'NONE',  ( 1.000000000000000000, -0.0000000000000000000, -0.0000000000000000000 ) ) ;
#131 = ORIENTED_EDGE ( 'NONE', *, *, #366, .T. ) ;
#132 = VECTOR ( 'NONE', #142, 1000.000000000000000 ) ;
#133 = CARTESIAN_POINT ( 'NONE',  ( 1492.500000000000000, 0.0000000000000000000, 149.0000000000000000 ) ) ;
#134 = PRODUCT_RELATED_PRODUCT_CATEGORY ( 'detail', '', ( #309 ) ) ;
#135 =( NAMED_UNIT ( * ) PLANE_ANGLE_UNIT ( ) SI_UNIT ( $, .RADIAN. ) );
#136 = LINE ( 'NONE', #217, #361 ) ;
#137 = ADVANCED_FACE ( 'NONE', ( #174 ), #152, .T. ) ;
#138 = APPROVAL_ROLE ( '' ) ;
#139 = APPROVAL_DATE_TIME ( #205, #315 ) ;
#140 = ORIENTED_EDGE ( 'NONE', *, *, #79, .T. ) ;
#141 = VECTOR ( 'NONE', #97, 1000.000000000000000 ) ;
#142 = DIRECTION ( 'NONE',  ( 0.0000000000000000000, -3.491481338843133400E-015, -1.000000000000000000 ) ) ;
#143 = LINE ( 'NONE', #307, #296 ) ;
#144 = APPROVAL_PERSON_ORGANIZATION ( #220, #315, #188 ) ;
#145 = CARTESIAN_POINT ( 'NONE',  ( -1492.500000000000000, 0.7000000000000001800, -1.700000000000000200 ) ) ;
#146 = AXIS2_PLACEMENT_3D ( 'NONE', #33, #233, #66 ) ;
#147 = CLOSED_SHELL ( 'NONE', ( #313, #137, #253, #111, #363, #88, #57, #336, #222, #189 ) ) ;
#148 = ORIENTED_EDGE ( 'NONE', *, *, #17, .T. ) ;
#149 = EDGE_CURVE ( 'NONE', #80, #9, #109, .T. ) ;
#150 = LINE ( 'NONE', #306, #161 ) ;
#151 = ORIENTED_EDGE ( 'NONE', *, *, #165, .T. ) ;
#152 = PLANE ( 'NONE',  #224 ) ;
#153 = COORDINATED_UNIVERSAL_TIME_OFFSET ( 3, 0, .AHEAD. ) ;
#154 = DIRECTION ( 'NONE',  ( -0.0000000000000000000, 1.000000000000000000, 3.491481338843133700E-015 ) ) ;
#155 = CARTESIAN_POINT ( 'NONE',  ( -1492.500000000000000, 0.0000000000000000000, 148.0000000000000000 ) ) ;
#156 = ORIENTED_EDGE ( 'NONE', *, *, #19, .F. ) ;
#157 = ORIENTED_EDGE ( 'NONE', *, *, #35, .F. ) ;
#158 = PLANE ( 'NONE',  #48 ) ;
#159 = AXIS2_PLACEMENT_3D ( 'NONE', #53, #219, #55 ) ;
#160 = CARTESIAN_POINT ( 'NONE',  ( 1492.500000000000000, -16.14999999999999900, -1.700000000000056600 ) ) ;
#161 = VECTOR ( 'NONE', #130, 1000.000000000000000 ) ;
#162 = EDGE_LOOP ( 'NONE', ( #325, #70, #323, #169 ) ) ;
#163 = LOCAL_TIME ( 15, 6, 56.00000000000000000, #239 ) ;
#164 = DATE_TIME_ROLE ( 'creation_date' ) ;
#165 = EDGE_CURVE ( 'NONE', #238, #117, #249, .T. ) ;
#166 = VECTOR ( 'NONE', #77, 1000.000000000000000 ) ;
#167 = ORIENTED_EDGE ( 'NONE', *, *, #182, .F. ) ;
#168 = ORGANIZATION ( 'UNSPECIFIED', 'UNSPECIFIED', '' ) ;
#169 = ORIENTED_EDGE ( 'NONE', *, *, #115, .T. ) ;
#170 = DIRECTION ( 'NONE',  ( -0.0000000000000000000, 0.0000000000000000000, -1.000000000000000000 ) ) ;
#171 = CC_DESIGN_PERSON_AND_ORGANIZATION_ASSIGNMENT ( #103, #87, ( #309 ) ) ;
#172 = LINE ( 'NONE', #105, #107 ) ;
#173 = ORIENTED_EDGE ( 'NONE', *, *, #314, .F. ) ;
#174 = FACE_OUTER_BOUND ( 'NONE', #38, .T. ) ;
#175 = CARTESIAN_POINT ( 'NONE',  ( -1492.500000000000000, 0.0000000000000000000, 148.0000000000000000 ) ) ;
#176 = CARTESIAN_POINT ( 'NONE',  ( 1492.500000000000000, 2.444036937190193300E-015, -1.700000000000000200 ) ) ;
#177 = CARTESIAN_POINT ( 'NONE',  ( 1492.500000000000000, 0.7000000000000086200, 149.6999999999999900 ) ) ;
#178 = DATE_AND_TIME ( #264, #337 ) ;
#179 = DIRECTION ( 'NONE',  ( 0.0000000000000000000, -1.000000000000000000, 3.437222986455592900E-015 ) ) ;
#180 = AXIS2_PLACEMENT_3D ( 'NONE', #291, #344, #170 ) ;
#181 = DIRECTION ( 'NONE',  ( 1.000000000000000000, 0.0000000000000000000, 0.0000000000000000000 ) ) ;
#182 = EDGE_CURVE ( 'NONE', #238, #261, #116, .T. ) ;
#183 = DIRECTION ( 'NONE',  ( -1.000000000000000000, 0.0000000000000000000, 0.0000000000000000000 ) ) ;
#184 = ORIENTED_EDGE ( 'NONE', *, *, #292, .F. ) ;
#185 = VERTEX_POINT ( 'NONE', #15 ) ;
#186 = CARTESIAN_POINT ( 'NONE',  ( -1492.500000000000000, 0.0000000000000000000, 148.0000000000000000 ) ) ;
#187 = LINE ( 'NONE', #7, #31 ) ;
#188 = APPROVAL_ROLE ( '' ) ;
#189 = ADVANCED_FACE ( 'NONE', ( #256 ), #43, .T. ) ;
#190 = APPROVAL_PERSON_ORGANIZATION ( #272, #82, #112 ) ;
#191 = ORIENTED_EDGE ( 'NONE', *, *, #227, .F. ) ;
#192 = PRODUCT_DEFINITION ( 'UNKNOWN', '', #295, #72 ) ;
#193 = FACE_OUTER_BOUND ( 'NONE', #266, .T. ) ;
#194 = DIRECTION ( 'NONE',  ( 0.0000000000000000000, 3.491481338843133700E-015, -1.000000000000000000 ) ) ;
#195 = PLANE ( 'NONE',  #146 ) ;
#196 = COORDINATED_UNIVERSAL_TIME_OFFSET ( 3, 0, .AHEAD. ) ;
#197 = CARTESIAN_POINT ( 'NONE',  ( 1492.500000000000000, -16.15000000000000200, -1.000000000000056400 ) ) ;
#198 = VERTEX_POINT ( 'NONE', #354 ) ;
#199 = EDGE_CURVE ( 'NONE', #211, #221, #172, .T. ) ;
#200 = ORIENTED_EDGE ( 'NONE', *, *, #292, .T. ) ;
#201 = EDGE_LOOP ( 'NONE', ( #317, #184, #248, #131 ) ) ;
#202 = LINE ( 'NONE', #65, #341 ) ;
#203 = ORIENTED_EDGE ( 'NONE', *, *, #326, .F. ) ;
#204 = FACE_OUTER_BOUND ( 'NONE', #95, .T. ) ;
#205 = DATE_AND_TIME ( #290, #364 ) ;
#206 = CARTESIAN_POINT ( 'NONE',  ( 0.0000000000000000000, 5.087090019954277100E-013, 149.0000000000000000 ) ) ;
#207 = CARTESIAN_POINT ( 'NONE',  ( 1492.500000000000000, -16.14999999999999900, 149.7000000000000500 ) ) ;
#208 = CARTESIAN_POINT ( 'NONE',  ( 0.0000000000000000000, 5.111530389326178900E-013, 149.6999999999999900 ) ) ;
#209 = DIRECTION ( 'NONE',  ( 0.0000000000000000000, -1.000000000000000000, 0.0000000000000000000 ) ) ;
#210 = CARTESIAN_POINT ( 'NONE',  ( -1492.500000000000000, 0.6999999999999999600, 148.0000000000000000 ) ) ;
#211 = VERTEX_POINT ( 'NONE', #177 ) ;
#212 = VECTOR ( 'NONE', #64, 1000.000000000000000 ) ;
#213 = ADVANCED_BREP_SHAPE_REPRESENTATION ( 'CLP1K-150-3-M-HDZ ¦¨v°úð ýð ûþªþú þ¸ý. 150 IEK HDZ', ( #90, #159 ), #69 ) ;
#214 = DIRECTION ( 'NONE',  ( 0.0000000000000000000, -3.491481338843133400E-015, -1.000000000000000000 ) ) ;
#215 = APPROVAL ( #312, 'UNSPECIFIED' ) ;
#216 = DIRECTION ( 'NONE',  ( 0.0000000000000000000, 3.491481338843133400E-015, -1.000000000000000000 ) ) ;
#217 = CARTESIAN_POINT ( 'NONE',  ( -1493.489949493661000, 0.7000000000000086200, 149.6999999999999900 ) ) ;
#218 = LINE ( 'NONE', #186, #353 ) ;
#219 = DIRECTION ( 'NONE',  ( 0.0000000000000000000, 0.0000000000000000000, 1.000000000000000000 ) ) ;
#220 = PERSON_AND_ORGANIZATION ( #254, #168 ) ;
#221 = VERTEX_POINT ( 'NONE', #300 ) ;
#222 = ADVANCED_FACE ( 'NONE', ( #330 ), #16, .F. ) ;
#223 = PERSON_AND_ORGANIZATION_ROLE ( 'design_supplier' ) ;
#224 = AXIS2_PLACEMENT_3D ( 'NONE', #175, #42, #240 ) ;
#225 = ORIENTED_EDGE ( 'NONE', *, *, #128, .T. ) ;
#226 = ORIENTED_EDGE ( 'NONE', *, *, #59, .F. ) ;
#227 = EDGE_CURVE ( 'NONE', #221, #339, #322, .T. ) ;
#228 = DIRECTION ( 'NONE',  ( 0.0000000000000000000, -1.000000000000000000, -3.491481338843133700E-015 ) ) ;
#229 = FACE_OUTER_BOUND ( 'NONE', #201, .T. ) ;
#230 = ORIENTED_EDGE ( 'NONE', *, *, #128, .F. ) ;
#231 = DIRECTION ( 'NONE',  ( -1.000000000000000000, -0.0000000000000000000, -0.0000000000000000000 ) ) ;
#232 = PERSON_AND_ORGANIZATION ( #254, #168 ) ;
#233 = DIRECTION ( 'NONE',  ( 0.0000000000000000000, 3.491481338843133700E-015, -1.000000000000000000 ) ) ;
#234 = CARTESIAN_POINT ( 'NONE',  ( 0.0000000000000000000, 0.0000000000000000000, 149.0000000000000000 ) ) ;
#235 = ORIENTED_EDGE ( 'NONE', *, *, #115, .F. ) ;
#236 = CC_DESIGN_APPROVAL ( #215, ( #192 ) ) ;
#237 = VECTOR ( 'NONE', #181, 1000.000000000000000 ) ;
#238 = VERTEX_POINT ( 'NONE', #327 ) ;
#239 = COORDINATED_UNIVERSAL_TIME_OFFSET ( 3, 0, .AHEAD. ) ;
#240 = DIRECTION ( 'NONE',  ( 0.0000000000000000000, 0.0000000000000000000, 1.000000000000000000 ) ) ;
#241 = DIRECTION ( 'NONE',  ( -0.0000000000000000000, -1.000000000000000000, 3.437222986455592900E-015 ) ) ;
#242 = DIRECTION ( 'NONE',  ( 0.0000000000000000000, 1.000000000000000000, -3.437222986455592900E-015 ) ) ;
#243 = ORIENTED_EDGE ( 'NONE', *, *, #227, .T. ) ;
#244 = CARTESIAN_POINT ( 'NONE',  ( 1492.500000000000000, 5.087090019954277100E-013, 149.0000000000000000 ) ) ;
#245 = DIRECTION ( 'NONE',  ( 0.0000000000000000000, 0.0000000000000000000, -1.000000000000000000 ) ) ;
#246 = EDGE_CURVE ( 'NONE', #211, #261, #22, .T. ) ;
#247 = FACE_OUTER_BOUND ( 'NONE', #357, .T. ) ;
#248 = ORIENTED_EDGE ( 'NONE', *, *, #149, .F. ) ;
#249 = LINE ( 'NONE', #299, #91 ) ;
#250 = SHAPE_DEFINITION_REPRESENTATION ( #277, #213 ) ;
#251 = CARTESIAN_POINT ( 'NONE',  ( -1492.500000000000000, -16.15000000000000200, 149.0000000000000600 ) ) ;
#252 = MECHANICAL_CONTEXT ( 'NONE', #26, 'mechanical' ) ;
#253 = ADVANCED_FACE ( 'NONE', ( #247 ), #18, .T. ) ;
#254 = PERSON ( 'UNSPECIFIED', 'UNSPECIFIED', 'UNSPECIFIED', ('UNSPECIFIED'), ('UNSPECIFIED'), ('UNSPECIFIED') ) ;
#255 = PERSON_AND_ORGANIZATION_ROLE ( 'classification_officer' ) ;
#256 = FACE_OUTER_BOUND ( 'NONE', #162, .T. ) ;
#257 = CC_DESIGN_PERSON_AND_ORGANIZATION_ASSIGNMENT ( #232, #335, ( #192 ) ) ;
#258 = VERTEX_POINT ( 'NONE', #126 ) ;
#259 = LINE ( 'NONE', #234, #118 ) ;
#260 = DIRECTION ( 'NONE',  ( 0.0000000000000000000, 1.000000000000000000, -3.437222986455592900E-015 ) ) ;
#261 = VERTEX_POINT ( 'NONE', #78 ) ;
#262 = CARTESIAN_POINT ( 'NONE',  ( -1492.500000000000000, -16.14999999999999900, -1.700000000000056600 ) ) ;
#263 = DIRECTION ( 'NONE',  ( -0.0000000000000000000, -0.0000000000000000000, -1.000000000000000000 ) ) ;
#264 = CALENDAR_DATE ( 2016, 5, 2 ) ;
#265 = AXIS2_PLACEMENT_3D ( 'NONE', #206, #76, #270 ) ;
#266 = EDGE_LOOP ( 'NONE', ( #157, #200, #167, #203 ) ) ;
#267 = VECTOR ( 'NONE', #263, 1000.000000000000000 ) ;
#268 = EDGE_LOOP ( 'NONE', ( #140, #108, #276, #225 ) ) ;
#269 = CARTESIAN_POINT ( 'NONE',  ( -1492.500000000000000, 0.6999999999999999600, 148.0000000000000000 ) ) ;
#270 = DIRECTION ( 'NONE',  ( 0.0000000000000000000, 1.000000000000000000, -3.437222986455592900E-015 ) ) ;
#271 = EDGE_CURVE ( 'NONE', #349, #339, #28, .T. ) ;
#272 = PERSON_AND_ORGANIZATION ( #254, #168 ) ;
#273 = CARTESIAN_POINT ( 'NONE',  ( 1492.500000000000000, -16.14999999999999900, 149.7000000000000500 ) ) ;
#274 = PLANE ( 'NONE',  #11 ) ;
#275 = ORIENTED_EDGE ( 'NONE', *, *, #271, .F. ) ;
#276 = ORIENTED_EDGE ( 'NONE', *, *, #314, .T. ) ;
#277 = PRODUCT_DEFINITION_SHAPE ( 'NONE', 'NONE',  #192 ) ;
#278 = LINE ( 'NONE', #262, #141 ) ;
#279 = CC_DESIGN_DATE_AND_TIME_ASSIGNMENT ( #298, #164, ( #192 ) ) ;
#280 =( LENGTH_UNIT ( ) NAMED_UNIT ( * ) SI_UNIT ( .MILLI., .METRE. ) );
#281 = APPLICATION_CONTEXT ( 'configuration controlled 3d designs of mechanical parts and assemblies' ) ;
#282 = PERSON_AND_ORGANIZATION ( #254, #168 ) ;
#283 = APPROVAL_STATUS ( 'not_yet_approved' ) ;
#284 = ORIENTED_EDGE ( 'NONE', *, *, #79, .F. ) ;
#285 = ORIENTED_EDGE ( 'NONE', *, *, #99, .T. ) ;
#286 = VERTEX_POINT ( 'NONE', #328 ) ;
#287 = VECTOR ( 'NONE', #228, 1000.000000000000000 ) ;
#288 = CARTESIAN_POINT ( 'NONE',  ( -1492.500000000000000, -16.14999999999999900, -1.700000000000056600 ) ) ;
#289 = ORIENTED_EDGE ( 'NONE', *, *, #165, .F. ) ;
#290 = CALENDAR_DATE ( 2016, 5, 2 ) ;
#291 = CARTESIAN_POINT ( 'NONE',  ( 1492.500000000000000, 0.6999999999999999600, 148.0000000000000000 ) ) ;
#292 = EDGE_CURVE ( 'NONE', #9, #261, #94, .T. ) ;
#293 = ORIENTED_EDGE ( 'NONE', *, *, #182, .T. ) ;
#294 = LINE ( 'NONE', #207, #212 ) ;
#295 = PRODUCT_DEFINITION_FORMATION_WITH_SPECIFIED_SOURCE ( 'ANY', '', #309, .NOT_KNOWN. ) ;
#296 = VECTOR ( 'NONE', #332, 1000.000000000000000 ) ;
#297 = ORIENTED_EDGE ( 'NONE', *, *, #59, .T. ) ;
#298 = DATE_AND_TIME ( #5, #86 ) ;
#299 = CARTESIAN_POINT ( 'NONE',  ( 1492.500000000000000, -16.14999999999999900, -1.700000000000056600 ) ) ;
#300 = CARTESIAN_POINT ( 'NONE',  ( 1492.500000000000000, -16.14999999999999900, 149.7000000000000500 ) ) ;
#301 = CARTESIAN_POINT ( 'NONE',  ( 1492.500000000000000, 0.6999999999999999600, 148.0000000000000000 ) ) ;
#302 = CARTESIAN_POINT ( 'NONE',  ( 1492.500000000000000, -16.15000000000000200, 149.0000000000000600 ) ) ;
#303 = AXIS2_PLACEMENT_3D ( 'NONE', #208, #44, #242 ) ;
#304 = EDGE_LOOP ( 'NONE', ( #122, #191, #148, #29 ) ) ;
#305 = ORIENTED_EDGE ( 'NONE', *, *, #367, .T. ) ;
#306 = CARTESIAN_POINT ( 'NONE',  ( 0.0000000000000000000, -16.15000000000000200, -1.000000000000056400 ) ) ;
#307 = CARTESIAN_POINT ( 'NONE',  ( -1492.500000000000000, 0.0000000000000000000, -1.000000000000000000 ) ) ;
#308 = LINE ( 'NONE', #50, #73 ) ;
#309 = PRODUCT ( 'CLP1K-150-3-M-HDZ Êðûøêà íà ëîòîê îñí. 150 IEK HDZ', 'CLP1K-150-3-M-HDZ Êðûøêà íà ëîòîê îñí. 150 IEK HDZ', '', ( #252 ) ) ;
#310 = ORIENTED_EDGE ( 'NONE', *, *, #99, .F. ) ;
#311 = APPROVAL_DATE_TIME ( #14, #215 ) ;
#312 = APPROVAL_STATUS ( 'not_yet_approved' ) ;
#313 = ADVANCED_FACE ( 'NONE', ( #229 ), #274, .F. ) ;
#314 = EDGE_CURVE ( 'NONE', #185, #117, #150, .T. ) ;
#315 = APPROVAL ( #365, 'UNSPECIFIED' ) ;
#316 = VECTOR ( 'NONE', #356, 1000.000000000000000 ) ;
#317 = ORIENTED_EDGE ( 'NONE', *, *, #246, .T. ) ;
#318 = CARTESIAN_POINT ( 'NONE',  ( -1492.500000000000000, -16.14999999999999900, 149.7000000000000500 ) ) ;
#319 = APPROVAL_PERSON_ORGANIZATION ( #25, #215, #138 ) ;
#320 = PLANE ( 'NONE',  #180 ) ;
#321 = ORIENTED_EDGE ( 'NONE', *, *, #149, .T. ) ;
#322 = LINE ( 'NONE', #273, #166 ) ;
#323 = ORIENTED_EDGE ( 'NONE', *, *, #19, .T. ) ;
#324 = VECTOR ( 'NONE', #74, 1000.000000000000000 ) ;
#325 = ORIENTED_EDGE ( 'NONE', *, *, #271, .T. ) ;
#326 = EDGE_CURVE ( 'NONE', #286, #238, #100, .T. ) ;
#327 = CARTESIAN_POINT ( 'NONE',  ( 1492.500000000000000, -16.14999999999999900, -1.700000000000056600 ) ) ;
#328 = CARTESIAN_POINT ( 'NONE',  ( -1492.500000000000000, -16.14999999999999900, -1.700000000000056600 ) ) ;
#329 = CARTESIAN_POINT ( 'NONE',  ( 1492.500000000000000, -16.14999999999999900, -1.700000000000056600 ) ) ;
#330 = FACE_OUTER_BOUND ( 'NONE', #123, .T. ) ;
#331 = ORIENTED_EDGE ( 'NONE', *, *, #60, .T. ) ;
#332 = DIRECTION ( 'NONE',  ( -0.0000000000000000000, -1.000000000000000000, -3.491481338843133700E-015 ) ) ;
#333 = CC_DESIGN_APPROVAL ( #315, ( #295 ) ) ;
#334 =( NAMED_UNIT ( * ) SI_UNIT ( $, .STERADIAN. ) SOLID_ANGLE_UNIT ( ) );
#335 = PERSON_AND_ORGANIZATION_ROLE ( 'creator' ) ;
#336 = ADVANCED_FACE ( 'NONE', ( #83 ), #158, .T. ) ;
#337 = LOCAL_TIME ( 15, 6, 56.00000000000000000, #45 ) ;
#338 = AXIS2_PLACEMENT_3D ( 'NONE', #155, #209, #46 ) ;
#339 = VERTEX_POINT ( 'NONE', #302 ) ;
#340 = ORIENTED_EDGE ( 'NONE', *, *, #367, .F. ) ;
#341 = VECTOR ( 'NONE', #231, 1000.000000000000000 ) ;
#342 = PLANE ( 'NONE',  #113 ) ;
#343 = CARTESIAN_POINT ( 'NONE',  ( -1492.500000000000000, 0.7000000000000086200, 149.6999999999999900 ) ) ;
#344 = DIRECTION ( 'NONE',  ( 1.000000000000000000, 0.0000000000000000000, -0.0000000000000000000 ) ) ;
#345 = DATE_AND_TIME ( #58, #125 ) ;
#346 = EDGE_CURVE ( 'NONE', #339, #368, #308, .T. ) ;
#347 = EDGE_CURVE ( 'NONE', #84, #185, #143, .T. ) ;
#348 = ORIENTED_EDGE ( 'NONE', *, *, #326, .T. ) ;
#349 = VERTEX_POINT ( 'NONE', #133 ) ;
#350 = LINE ( 'NONE', #120, #124 ) ;
#351 = CC_DESIGN_PERSON_AND_ORGANIZATION_ASSIGNMENT ( #67, #27, ( #295 ) ) ;
#352 = DIRECTION ( 'NONE',  ( -0.0000000000000000000, 1.000000000000000000, 3.491481338843133700E-015 ) ) ;
#353 = VECTOR ( 'NONE', #85, 1000.000000000000000 ) ;
#354 = CARTESIAN_POINT ( 'NONE',  ( 1492.500000000000000, -3.851859888774471700E-031, -1.000000000000000000 ) ) ;
#355 = PERSON_AND_ORGANIZATION ( #254, #168 ) ;
#356 = DIRECTION ( 'NONE',  ( -0.0000000000000000000, -0.0000000000000000000, -1.000000000000000000 ) ) ;
#357 = EDGE_LOOP ( 'NONE', ( #305, #284, #310, #235 ) ) ;
#358 = CARTESIAN_POINT ( 'NONE',  ( 1492.500000000000000, -16.14999999999999900, 149.7000000000000500 ) ) ;
#359 = LINE ( 'NONE', #318, #132 ) ;
#360 = PLANE ( 'NONE',  #93 ) ;
#361 = VECTOR ( 'NONE', #54, 1000.000000000000000 ) ;
#362 = APPLICATION_PROTOCOL_DEFINITION ( 'international standard', 'config_control_design', 1994, #26 ) ;
#363 = ADVANCED_FACE ( 'NONE', ( #204 ), #360, .T. ) ;
#364 = LOCAL_TIME ( 15, 6, 56.00000000000000000, #75 ) ;
#365 = APPROVAL_STATUS ( 'not_yet_approved' ) ;
#366 = EDGE_CURVE ( 'NONE', #80, #211, #136, .T. ) ;
#367 = EDGE_CURVE ( 'NONE', #129, #84, #218, .T. ) ;
#368 = VERTEX_POINT ( 'NONE', #251 ) ;
#369 = LINE ( 'NONE', #288, #287 ) ;
ENDSEC;
END-ISO-10303-21;
