  0
SECTION
  2
HEADER
  9
$ACADVER
  1
AC1015
  9
$ACADMAINTVER
 70
     6
  9
$DWGCODEPAGE
  3
ANSI_1251
  9
$INSBASE
 10
0.0
 20
0.0
 30
0.0
  9
$EXTMIN
 10
0.0
 20
0.0
 30
0.0
  9
$EXTMAX
 10
1182.0
 20
840.0
 30
0.0
  9
$LIMMIN
 10
0.0
 20
0.0
  9
$LIMMAX
 10
1182.0
 20
840.0
  9
$ORTHOMODE
 70
     0
  9
$REGENMODE
 70
     1
  9
$FILLMODE
 70
     1
  9
$QTEXTMODE
 70
     0
  9
$MIRRTEXT
 70
     1
  9
$LTSCALE
 40
1.0
  9
$ATTMODE
 70
     1
  9
$TEXTSIZE
 40
3.5
  9
$TRACEWID
 40
1.0
  9
$TEXTSTYLE
  7
Standard
  9
$CLAYER
  8
0
  9
$CELTYPE
  6
ByLayer
  9
$CECOLOR
 62
   256
  9
$CELTSCALE
 40
1.0
  9
$DISPSILH
 70
     0
  9
$DIMSCALE
 40
1.0
  9
$DIMASZ
 40
3.302
  9
$DIMEXO
 40
0.0
  9
$DIMDLI
 40
3.75
  9
$DIMRND
 40
0.0
  9
$DIMDLE
 40
0.0
  9
$DIMEXE
 40
1.0
  9
$DIMTP
 40
0.0
  9
$DIMTM
 40
0.0
  9
$DIMTXT
 40
3.5
  9
$DIMCEN
 40
2.5
  9
$DIMTSZ
 40
0.0
  9
$DIMTOL
 70
     0
  9
$DIMLIM
 70
     0
  9
$DIMTIH
 70
     1
  9
$DIMTOH
 70
     1
  9
$DIMSE1
 70
     0
  9
$DIMSE2
 70
     0
  9
$DIMTAD
 70
     1
  9
$DIMZIN
 70
     1
  9
$DIMBLK
  1

  9
$DIMASO
 70
     1
  9
$DIMSHO
 70
     1
  9
$DIMPOST
  1

  9
$DIMAPOST
  1

  9
$DIMALT
 70
     0
  9
$DIMALTD
 70
     3
  9
$DIMALTF
 40
0.0393700787
  9
$DIMLFAC
 40
1.0
  9
$DIMTOFL
 70
     1
  9
$DIMTVP
 40
0.0
  9
$DIMTIX
 70
     0
  9
$DIMSOXD
 70
     0
  9
$DIMSAH
 70
     0
  9
$DIMBLK1
  1

  9
$DIMBLK2
  1

  9
$DIMSTYLE
  2
ISO-25
  9
$DIMCLRD
 70
     0
  9
$DIMCLRE
 70
     0
  9
$DIMCLRT
 70
     0
  9
$DIMTFAC
 40
1.0
  9
$DIMGAP
 40
1.524
  9
$DIMJUST
 70
     0
  9
$DIMSD1
 70
     0
  9
$DIMSD2
 70
     0
  9
$DIMTOLJ
 70
     0
  9
$DIMTZIN
 70
     1
  9
$DIMALTZ
 70
     0
  9
$DIMALTTZ
 70
     0
  9
$DIMUPT
 70
     0
  9
$DIMDEC
 70
     2
  9
$DIMTDEC
 70
     2
  9
$DIMALTU
 70
     2
  9
$DIMALTTD
 70
     3
  9
$DIMTXSTY
  7
Standard
  9
$DIMAUNIT
 70
     0
  9
$DIMADEC
 70
     2
  9
$DIMALTRND
 40
0.0
  9
$DIMAZIN
 70
     0
  9
$DIMDSEP
 70
    44
  9
$DIMATFIT
 70
     3
  9
$DIMFRAC
 70
     0
  9
$DIMLDRBLK
  1

  9
$DIMLUNIT
 70
     2
  9
$DIMLWD
 70
    -2
  9
$DIMLWE
 70
    -2
  9
$DIMTMOVE
 70
     0
  9
$LUNITS
 70
     2
  9
$LUPREC
 70
     2
  9
$SKETCHINC
 40
1.0
  9
$FILLETRAD
 40
0.0
  9
$AUNITS
 70
     0
  9
$AUPREC
 70
     2
  9
$MENU
  1
.
  9
$ELEVATION
 40
0.0
  9
$PELEVATION
 40
0.0
  9
$THICKNESS
 40
0.0
  9
$LIMCHECK
 70
     0
  9
$CHAMFERA
 40
0.0
  9
$CHAMFERB
 40
0.0
  9
$CHAMFERC
 40
0.0
  9
$CHAMFERD
 40
0.0
  9
$SKPOLY
 70
     0
  9
$TDCREATE
 40
2459941.508341331
  9
$TDUCREATE
 40
2459941.383341331
  9
$TDUPDATE
 40
2459941.508342778
  9
$TDUUPDATE
 40
2459941.383342778
  9
$TDINDWG
 40
0.0000000116
  9
$TDUSRTIMER
 40
0.0000000116
  9
$USRTIMER
 70
     1
  9
$ANGBASE
 50
0.0
  9
$ANGDIR
 70
     0
  9
$PDMODE
 70
     0
  9
$PDSIZE
 40
-1.0
  9
$PLINEWID
 40
0.0
  9
$SPLFRAME
 70
     0
  9
$SPLINETYPE
 70
     6
  9
$SPLINESEGS
 70
     8
  9
$HANDSEED
  5
4D9
  9
$SURFTAB1
 70
     6
  9
$SURFTAB2
 70
     6
  9
$SURFTYPE
 70
     6
  9
$SURFU
 70
     6
  9
$SURFV
 70
     6
  9
$UCSBASE
  2

  9
$UCSNAME
  2

  9
$UCSORG
 10
0.0
 20
0.0
 30
0.0
  9
$UCSXDIR
 10
1.0
 20
0.0
 30
0.0
  9
$UCSYDIR
 10
0.0
 20
1.0
 30
0.0
  9
$UCSORTHOREF
  2

  9
$UCSORTHOVIEW
 70
     0
  9
$UCSORGTOP
 10
0.0
 20
0.0
 30
0.0
  9
$UCSORGBOTTOM
 10
0.0
 20
0.0
 30
0.0
  9
$UCSORGLEFT
 10
0.0
 20
0.0
 30
0.0
  9
$UCSORGRIGHT
 10
0.0
 20
0.0
 30
0.0
  9
$UCSORGFRONT
 10
0.0
 20
0.0
 30
0.0
  9
$UCSORGBACK
 10
0.0
 20
0.0
 30
0.0
  9
$PUCSBASE
  2

  9
$PUCSNAME
  2

  9
$PUCSORG
 10
0.0
 20
0.0
 30
0.0
  9
$PUCSXDIR
 10
1.0
 20
0.0
 30
0.0
  9
$PUCSYDIR
 10
0.0
 20
1.0
 30
0.0
  9
$PUCSORTHOREF
  2

  9
$PUCSORTHOVIEW
 70
     0
  9
$PUCSORGTOP
 10
0.0
 20
0.0
 30
0.0
  9
$PUCSORGBOTTOM
 10
0.0
 20
0.0
 30
0.0
  9
$PUCSORGLEFT
 10
0.0
 20
0.0
 30
0.0
  9
$PUCSORGRIGHT
 10
0.0
 20
0.0
 30
0.0
  9
$PUCSORGFRONT
 10
0.0
 20
0.0
 30
0.0
  9
$PUCSORGBACK
 10
0.0
 20
0.0
 30
0.0
  9
$USERI1
 70
     0
  9
$USERI2
 70
     0
  9
$USERI3
 70
     0
  9
$USERI4
 70
     0
  9
$USERI5
 70
     0
  9
$USERR1
 40
0.0
  9
$USERR2
 40
0.0
  9
$USERR3
 40
0.0
  9
$USERR4
 40
0.0
  9
$USERR5
 40
0.0
  9
$WORLDVIEW
 70
     1
  9
$SHADEDGE
 70
     3
  9
$SHADEDIF
 70
    70
  9
$TILEMODE
 70
     1
  9
$MAXACTVP
 70
    64
  9
$PINSBASE
 10
0.0
 20
0.0
 30
0.0
  9
$PLIMCHECK
 70
     0
  9
$PEXTMIN
 10
1.0000000000E+20
 20
1.0000000000E+20
 30
1.0000000000E+20
  9
$PEXTMAX
 10
-1.0000000000E+20
 20
-1.0000000000E+20
 30
-1.0000000000E+20
  9
$PLIMMIN
 10
0.0
 20
0.0
  9
$PLIMMAX
 10
420.0
 20
297.0
  9
$UNITMODE
 70
     0
  9
$VISRETAIN
 70
     1
  9
$PLINEGEN
 70
     0
  9
$PSLTSCALE
 70
     1
  9
$TREEDEPTH
 70
  3020
  9
$CMLSTYLE
  2
Standard
  9
$CMLJUST
 70
     0
  9
$CMLSCALE
 40
20.0
  9
$PROXYGRAPHICS
 70
     1
  9
$MEASUREMENT
 70
     1
  9
$CELWEIGHT
370
    -1
  9
$ENDCAPS
280
     0
  9
$JOINSTYLE
280
     0
  9
$LWDISPLAY
290
     1
  9
$INSUNITS
 70
     4
  9
$HYPERLINKBASE
  1

  9
$STYLESHEET
  1

  9
$XEDIT
290
     1
  9
$CEPSNTYPE
380
     0
  9
$PSTYLEMODE
290
     1
  9
$FINGERPRINTGUID
  2
{2c16cdfb-8eb8-42fb-9b0e-31a424b0cb5e}
  9
$VERSIONGUID
  2
{FAEB1C32-E019-11D5-929B-00C0DF256EC4}
  9
$EXTNAMES
290
     1
  9
$PSVPSCALE
 40
0.0
  9
$OLESTARTUP
290
     0
  0
ENDSEC
  0
SECTION
  2
CLASSES
  0
CLASS
  1
ACDBDICTIONARYWDFLT
  2
AcDbDictionaryWithDefault
  3
ObjectDBX Classes
 90
        0
280
     0
281
     0
  0
CLASS
  1
VISUALSTYLE
  2
AcDbVisualStyle
  3
ObjectDBX Classes
 90
     4095
280
     0
281
     0
  0
CLASS
  1
MATERIAL
  2
AcDbMaterial
  3
ObjectDBX Classes
 90
     1153
280
     0
281
     0
  0
CLASS
  1
SCALE
  2
AcDbScale
  3
ObjectDBX Classes
 90
     1153
280
     0
281
     0
  0
CLASS
  1
TABLESTYLE
  2
AcDbTableStyle
  3
ObjectDBX Classes
 90
     4095
280
     0
281
     0
  0
CLASS
  1
MLEADERSTYLE
  2
AcDbMLeaderStyle
  3
ACDB_MLEADERSTYLE_CLASS
 90
     4095
280
     0
281
     0
  0
CLASS
  1
SUN
  2
AcDbSun
  3
SCENEOE
 90
     1153
280
     0
281
     0
  0
CLASS
  1
ACDBPLACEHOLDER
  2
AcDbPlaceHolder
  3
ObjectDBX Classes
 90
        0
280
     0
281
     0
  0
CLASS
  1
LAYOUT
  2
AcDbLayout
  3
ObjectDBX Classes
 90
        0
280
     0
281
     0
  0
ENDSEC
  0
SECTION
  2
TABLES
  0
TABLE
  2
VPORT
  5
8
330
0
100
AcDbSymbolTable
 70
     1
  0
VPORT
  5
29
330
8
100
AcDbSymbolTableRecord
100
AcDbViewportTableRecord
  2
*Active
 70
     0
 10
0.0
 20
0.0
 11
1.0
 21
1.0
 12
591.0
 22
420.0
 13
0.0
 23
0.0
 14
10.0
 24
10.0
 15
10.0
 25
10.0
 16
0.0
 26
0.0
 36
1.0
 17
0.0
 27
0.0
 37
0.0
 40
840.0
 41
1.4071428571
 42
50.0
 43
0.0
 44
0.0
 50
0.0
 51
0.0
 71
     0
 72
  2000
 73
     1
 74
     3
 75
     0
 76
     0
 77
     0
 78
     0
281
     0
 65
     1
110
0.0
120
0.0
130
0.0
111
1.0
121
0.0
131
0.0
112
0.0
122
1.0
132
0.0
 79
     0
146
0.0
  0
ENDTAB
  0
TABLE
  2
LTYPE
  5
5
330
0
100
AcDbSymbolTable
 70
     6
  0
LTYPE
  5
14
330
5
100
AcDbSymbolTableRecord
100
AcDbLinetypeTableRecord
  2
ByBlock
 70
     0
  3

 72
    65
 73
     0
 40
0.0
  0
LTYPE
  5
15
330
5
100
AcDbSymbolTableRecord
100
AcDbLinetypeTableRecord
  2
ByLayer
 70
     0
  3

 72
    65
 73
     0
 40
0.0
  0
LTYPE
  5
16
330
5
100
AcDbSymbolTableRecord
100
AcDbLinetypeTableRecord
  2
Continuous
 70
     0
  3
Solid line
 72
    65
 73
     0
 40
0.0
  0
LTYPE
  5
5E
330
5
100
AcDbSymbolTableRecord
100
AcDbLinetypeTableRecord
  2
HIDDEN
 70
     0
  3
Hidden __ __ __ __ __ __ __ __ __ __ __ __ __ __
 72
    65
 73
     2
 40
1.905
 49
1.27
 74
     0
 49
-0.635
 74
     0
  0
LTYPE
  5
5F
330
5
100
AcDbSymbolTableRecord
100
AcDbLinetypeTableRecord
  2
PHANTOM
 70
     0
  3
Phantom ______  __  __  ______  __  __  ______
 72
    65
 73
     6
 40
12.7
 49
6.35
 74
     0
 49
-1.27
 74
     0
 49
1.27
 74
     0
 49
-1.27
 74
     0
 49
1.27
 74
     0
 49
-1.27
 74
     0
  0
LTYPE
  5
60
330
5
100
AcDbSymbolTableRecord
100
AcDbLinetypeTableRecord
  2
CENTER
 70
     0
  3
Center ____ _ ____ _ ____ _ ____ _ ____ _ ____
 72
    65
 73
     4
 40
10.16
 49
6.35
 74
     0
 49
-1.27
 74
     0
 49
1.27
 74
     0
 49
-1.27
 74
     0
  0
LTYPE
  5
61
330
5
100
AcDbSymbolTableRecord
100
AcDbLinetypeTableRecord
  2
CENTERX2
 70
     0
  3
Center (2x) ________  __  ________  __  _____
 72
    65
 73
     4
 40
20.32
 49
12.7
 74
     0
 49
-2.54
 74
     0
 49
2.54
 74
     0
 49
-2.54
 74
     0
  0
LTYPE
  5
62
330
5
100
AcDbSymbolTableRecord
100
AcDbLinetypeTableRecord
  2
DOT2
 70
     0
  3
Dot (.5x) ........................................
 72
    65
 73
     2
 40
0.635
 49
0.0
 74
     0
 49
-0.635
 74
     0
  0
ENDTAB
  0
TABLE
  2
LAYER
  5
2
330
0
100
AcDbSymbolTable
 70
     1
  0
LAYER
  5
10
330
2
100
AcDbSymbolTableRecord
100
AcDbLayerTableRecord
  2
0
 70
     0
 62
     7
  6
Continuous
370
    -3
390
F
  0
ENDTAB
  0
TABLE
  2
STYLE
  5
3
330
0
100
AcDbSymbolTable
 70
     1
  0
STYLE
  5
11
330
3
100
AcDbSymbolTableRecord
100
AcDbTextStyleTableRecord
  2
Standard
 70
     0
 40
0.0
 41
1.0
 50
0.0
 71
     0
 42
3.5
  3
txt
  4

  0
ENDTAB
  0
TABLE
  2
VIEW
  5
6
330
0
100
AcDbSymbolTable
 70
     0
  0
ENDTAB
  0
TABLE
  2
UCS
  5
7
330
0
100
AcDbSymbolTable
 70
     0
  0
ENDTAB
  0
TABLE
  2
APPID
  5
9
330
0
100
AcDbSymbolTable
 70
     1
  0
APPID
  5
12
330
9
100
AcDbSymbolTableRecord
100
AcDbRegAppTableRecord
  2
ACAD
 70
     0
  0
ENDTAB
  0
TABLE
  2
DIMSTYLE
  5
A
330
0
100
AcDbSymbolTable
 70
     1
100
AcDbDimStyleTable
  0
DIMSTYLE
105
27
330
A
100
AcDbSymbolTableRecord
100
AcDbDimStyleTableRecord
  2
ISO-25
 70
     0
 41
2.5
 42
0.625
 43
3.75
 44
1.25
 73
     0
 74
     0
 77
     1
 78
     8
140
2.5
141
2.5
143
0.0393700787
147
0.625
171
     3
172
     1
178
     0
271
     2
272
     2
274
     3
278
    44
283
     0
284
     8
340
11
  0
ENDTAB
  0
TABLE
  2
BLOCK_RECORD
  5
1
330
0
100
AcDbSymbolTable
 70
    23
  0
BLOCK_RECORD
  5
1F
330
1
100
AcDbSymbolTableRecord
100
AcDbBlockTableRecord
  2
*Model_Space
340
22
  0
BLOCK_RECORD
  5
1B
330
1
100
AcDbSymbolTableRecord
100
AcDbBlockTableRecord
  2
*Paper_Space
340
1E
  0
BLOCK_RECORD
  5
23
330
1
100
AcDbSymbolTableRecord
100
AcDbBlockTableRecord
  2
*Paper_Space0
340
26
  0
BLOCK_RECORD
  5
3D0
330
1
100
AcDbSymbolTableRecord
100
AcDbBlockTableRecord
  2
SW_CENTERMARKSYMBOL_0
340
0
102
{BLKREFS
331
3DB
102
}
  0
BLOCK_RECORD
  5
3DC
330
1
100
AcDbSymbolTableRecord
100
AcDbBlockTableRecord
  2
SW_CENTERMARKSYMBOL_1
340
0
102
{BLKREFS
331
3E7
102
}
  0
BLOCK_RECORD
  5
3E8
330
1
100
AcDbSymbolTableRecord
100
AcDbBlockTableRecord
  2
SW_CENTERMARKSYMBOL_2
340
0
102
{BLKREFS
331
3F3
102
}
  0
BLOCK_RECORD
  5
3F4
330
1
100
AcDbSymbolTableRecord
100
AcDbBlockTableRecord
  2
SW_CENTERMARKSYMBOL_3
340
0
102
{BLKREFS
331
3FF
102
}
  0
BLOCK_RECORD
  5
400
330
1
100
AcDbSymbolTableRecord
100
AcDbBlockTableRecord
  2
SW_CENTERMARKSYMBOL_4
340
0
102
{BLKREFS
331
40B
102
}
  0
BLOCK_RECORD
  5
40C
330
1
100
AcDbSymbolTableRecord
100
AcDbBlockTableRecord
  2
SW_CENTERMARKSYMBOL_5
340
0
102
{BLKREFS
331
417
102
}
  0
BLOCK_RECORD
  5
418
330
1
100
AcDbSymbolTableRecord
100
AcDbBlockTableRecord
  2
SW_CENTERMARKSYMBOL_6
340
0
102
{BLKREFS
331
423
102
}
  0
BLOCK_RECORD
  5
424
330
1
100
AcDbSymbolTableRecord
100
AcDbBlockTableRecord
  2
SW_CENTERMARKSYMBOL_7
340
0
102
{BLKREFS
331
42F
102
}
  0
BLOCK_RECORD
  5
430
330
1
100
AcDbSymbolTableRecord
100
AcDbBlockTableRecord
  2
SW_CENTERMARKSYMBOL_8
340
0
102
{BLKREFS
331
43B
102
}
  0
BLOCK_RECORD
  5
43C
330
1
100
AcDbSymbolTableRecord
100
AcDbBlockTableRecord
  2
SW_CENTERMARKSYMBOL_9
340
0
102
{BLKREFS
331
447
102
}
  0
BLOCK_RECORD
  5
448
330
1
100
AcDbSymbolTableRecord
100
AcDbBlockTableRecord
  2
SW_CENTERMARKSYMBOL_10
340
0
102
{BLKREFS
331
453
102
}
  0
BLOCK_RECORD
  5
454
330
1
100
AcDbSymbolTableRecord
100
AcDbBlockTableRecord
  2
SW_CENTERMARKSYMBOL_11
340
0
102
{BLKREFS
331
45F
102
}
  0
BLOCK_RECORD
  5
460
330
1
100
AcDbSymbolTableRecord
100
AcDbBlockTableRecord
  2
SW_CENTERMARKSYMBOL_12
340
0
102
{BLKREFS
331
46B
102
}
  0
BLOCK_RECORD
  5
46C
330
1
100
AcDbSymbolTableRecord
100
AcDbBlockTableRecord
  2
SW_CENTERMARKSYMBOL_13
340
0
102
{BLKREFS
331
477
102
}
  0
BLOCK_RECORD
  5
478
330
1
100
AcDbSymbolTableRecord
100
AcDbBlockTableRecord
  2
SW_CENTERMARKSYMBOL_14
340
0
102
{BLKREFS
331
483
102
}
  0
BLOCK_RECORD
  5
484
330
1
100
AcDbSymbolTableRecord
100
AcDbBlockTableRecord
  2
SW_CENTERMARKSYMBOL_15
340
0
102
{BLKREFS
331
48F
102
}
  0
BLOCK_RECORD
  5
490
330
1
100
AcDbSymbolTableRecord
100
AcDbBlockTableRecord
  2
SW_CENTERMARKSYMBOL_16
340
0
102
{BLKREFS
331
49B
102
}
  0
BLOCK_RECORD
  5
49C
330
1
100
AcDbSymbolTableRecord
100
AcDbBlockTableRecord
  2
SW_CENTERMARKSYMBOL_17
340
0
102
{BLKREFS
331
4A7
102
}
  0
BLOCK_RECORD
  5
4A8
330
1
100
AcDbSymbolTableRecord
100
AcDbBlockTableRecord
  2
SW_CENTERMARKSYMBOL_18
340
0
102
{BLKREFS
331
4B3
102
}
  0
BLOCK_RECORD
  5
4B4
330
1
100
AcDbSymbolTableRecord
100
AcDbBlockTableRecord
  2
SW_CENTERMARKSYMBOL_19
340
0
102
{BLKREFS
331
4BF
102
}
  0
BLOCK_RECORD
  5
4C0
330
1
100
AcDbSymbolTableRecord
100
AcDbBlockTableRecord
  2
SW_CENTERMARKSYMBOL_20
340
0
102
{BLKREFS
331
4CB
102
}
  0
BLOCK_RECORD
  5
4CC
330
1
100
AcDbSymbolTableRecord
100
AcDbBlockTableRecord
  2
SW_CENTERMARKSYMBOL_21
340
0
102
{BLKREFS
331
4D7
102
}
  0
ENDTAB
  0
ENDSEC
  0
SECTION
  2
BLOCKS
  0
BLOCK
  5
20
330
1F
100
AcDbEntity
  8
0
100
AcDbBlockBegin
  2
*Model_Space
 70
     0
 10
0.0
 20
0.0
 30
0.0
  3
*Model_Space
  1

  0
ENDBLK
  5
21
330
1F
100
AcDbEntity
  8
0
100
AcDbBlockEnd
  0
BLOCK
  5
1C
330
1B
100
AcDbEntity
 67
     1
  8
0
100
AcDbBlockBegin
  2
*Paper_Space
 70
     0
 10
0.0
 20
0.0
 30
0.0
  3
*Paper_Space
  1

  0
ENDBLK
  5
1D
330
1B
100
AcDbEntity
 67
     1
  8
0
100
AcDbBlockEnd
  0
BLOCK
  5
24
330
23
100
AcDbEntity
  8
0
100
AcDbBlockBegin
  2
*Paper_Space0
 70
     0
 10
0.0
 20
0.0
 30
0.0
  3
*Paper_Space0
  1

  0
ENDBLK
  5
25
330
23
100
AcDbEntity
  8
0
100
AcDbBlockEnd
  0
BLOCK
  5
3D1
330
3D0
100
AcDbEntity
  8
0
100
AcDbBlockBegin
  2
SW_CENTERMARKSYMBOL_0
 70
     0
 10
0.0
 20
0.0
 30
0.0
  3
SW_CENTERMARKSYMBOL_0
  1

  0
LINE
  5
3D3
330
3D0
100
AcDbEntity
  8
0
  6
Continuous
 62
     0
370
    18
100
AcDbLine
 10
0.0
 20
0.0
 30
0.0
 11
0.0
 21
2.5
 31
0.0
  0
LINE
  5
3D4
330
3D0
100
AcDbEntity
  8
0
  6
Continuous
 62
     0
370
    18
100
AcDbLine
 10
0.0
 20
0.0
 30
0.0
 11
-2.5
 21
0.0
 31
0.0
  0
LINE
  5
3D5
330
3D0
100
AcDbEntity
  8
0
  6
Continuous
 62
     0
370
    18
100
AcDbLine
 10
0.0
 20
0.0
 30
0.0
 11
0.0
 21
-2.5
 31
0.0
  0
LINE
  5
3D6
330
3D0
100
AcDbEntity
  8
0
  6
Continuous
 62
     0
370
    18
100
AcDbLine
 10
0.0
 20
0.0
 30
0.0
 11
2.5
 21
0.0
 31
0.0
  0
LINE
  5
3D7
330
3D0
100
AcDbEntity
  8
0
  6
Continuous
 62
     0
370
    18
100
AcDbLine
 10
0.0
 20
2.5
 30
0.0
 11
0.0
 21
3.9825475936
 31
0.0
  0
LINE
  5
3D8
330
3D0
100
AcDbEntity
  8
0
  6
Continuous
 62
     0
370
    18
100
AcDbLine
 10
-2.5
 20
0.0
 30
0.0
 11
-3.9825475936
 21
0.0
 31
0.0
  0
LINE
  5
3D9
330
3D0
100
AcDbEntity
  8
0
  6
Continuous
 62
     0
370
    18
100
AcDbLine
 10
0.0
 20
-2.5
 30
0.0
 11
0.0
 21
-3.9825475936
 31
0.0
  0
LINE
  5
3DA
330
3D0
100
AcDbEntity
  8
0
  6
Continuous
 62
     0
370
    18
100
AcDbLine
 10
2.5
 20
0.0
 30
0.0
 11
3.9825475936
 21
0.0
 31
0.0
  0
ENDBLK
  5
3D2
330
3D0
100
AcDbEntity
  8
0
100
AcDbBlockEnd
  0
BLOCK
  5
3DD
330
3DC
100
AcDbEntity
  8
0
100
AcDbBlockBegin
  2
SW_CENTERMARKSYMBOL_1
 70
     0
 10
0.0
 20
0.0
 30
0.0
  3
SW_CENTERMARKSYMBOL_1
  1

  0
LINE
  5
3DF
330
3DC
100
AcDbEntity
  8
0
  6
Continuous
 62
     0
370
    18
100
AcDbLine
 10
0.0
 20
0.0
 30
0.0
 11
0.0
 21
2.5
 31
0.0
  0
LINE
  5
3E0
330
3DC
100
AcDbEntity
  8
0
  6
Continuous
 62
     0
370
    18
100
AcDbLine
 10
0.0
 20
0.0
 30
0.0
 11
-2.5
 21
0.0
 31
0.0
  0
LINE
  5
3E1
330
3DC
100
AcDbEntity
  8
0
  6
Continuous
 62
     0
370
    18
100
AcDbLine
 10
0.0
 20
0.0
 30
0.0
 11
0.0
 21
-2.5
 31
0.0
  0
LINE
  5
3E2
330
3DC
100
AcDbEntity
  8
0
  6
Continuous
 62
     0
370
    18
100
AcDbLine
 10
0.0
 20
0.0
 30
0.0
 11
2.5
 21
0.0
 31
0.0
  0
LINE
  5
3E3
330
3DC
100
AcDbEntity
  8
0
  6
Continuous
 62
     0
370
    18
100
AcDbLine
 10
0.0
 20
2.5
 30
0.0
 11
0.0
 21
3.9825475936
 31
0.0
  0
LINE
  5
3E4
330
3DC
100
AcDbEntity
  8
0
  6
Continuous
 62
     0
370
    18
100
AcDbLine
 10
-2.5
 20
0.0
 30
0.0
 11
-3.9825475936
 21
0.0
 31
0.0
  0
LINE
  5
3E5
330
3DC
100
AcDbEntity
  8
0
  6
Continuous
 62
     0
370
    18
100
AcDbLine
 10
0.0
 20
-2.5
 30
0.0
 11
0.0
 21
-3.9825475936
 31
0.0
  0
LINE
  5
3E6
330
3DC
100
AcDbEntity
  8
0
  6
Continuous
 62
     0
370
    18
100
AcDbLine
 10
2.5
 20
0.0
 30
0.0
 11
3.9825475936
 21
0.0
 31
0.0
  0
ENDBLK
  5
3DE
330
3DC
100
AcDbEntity
  8
0
100
AcDbBlockEnd
  0
BLOCK
  5
3E9
330
3E8
100
AcDbEntity
  8
0
100
AcDbBlockBegin
  2
SW_CENTERMARKSYMBOL_2
 70
     0
 10
0.0
 20
0.0
 30
0.0
  3
SW_CENTERMARKSYMBOL_2
  1

  0
LINE
  5
3EB
330
3E8
100
AcDbEntity
  8
0
  6
Continuous
 62
     0
370
    18
100
AcDbLine
 10
0.0
 20
0.0
 30
0.0
 11
0.0
 21
2.5
 31
0.0
  0
LINE
  5
3EC
330
3E8
100
AcDbEntity
  8
0
  6
Continuous
 62
     0
370
    18
100
AcDbLine
 10
0.0
 20
0.0
 30
0.0
 11
-2.5
 21
0.0
 31
0.0
  0
LINE
  5
3ED
330
3E8
100
AcDbEntity
  8
0
  6
Continuous
 62
     0
370
    18
100
AcDbLine
 10
0.0
 20
0.0
 30
0.0
 11
0.0
 21
-2.5
 31
0.0
  0
LINE
  5
3EE
330
3E8
100
AcDbEntity
  8
0
  6
Continuous
 62
     0
370
    18
100
AcDbLine
 10
0.0
 20
0.0
 30
0.0
 11
2.5
 21
0.0
 31
0.0
  0
LINE
  5
3EF
330
3E8
100
AcDbEntity
  8
0
  6
Continuous
 62
     0
370
    18
100
AcDbLine
 10
0.0
 20
2.5
 30
0.0
 11
0.0
 21
3.9825475936
 31
0.0
  0
LINE
  5
3F0
330
3E8
100
AcDbEntity
  8
0
  6
Continuous
 62
     0
370
    18
100
AcDbLine
 10
-2.5
 20
0.0
 30
0.0
 11
-3.9825475936
 21
0.0
 31
0.0
  0
LINE
  5
3F1
330
3E8
100
AcDbEntity
  8
0
  6
Continuous
 62
     0
370
    18
100
AcDbLine
 10
0.0
 20
-2.5
 30
0.0
 11
0.0
 21
-3.9825475936
 31
0.0
  0
LINE
  5
3F2
330
3E8
100
AcDbEntity
  8
0
  6
Continuous
 62
     0
370
    18
100
AcDbLine
 10
2.5
 20
0.0
 30
0.0
 11
3.9825475936
 21
0.0
 31
0.0
  0
ENDBLK
  5
3EA
330
3E8
100
AcDbEntity
  8
0
100
AcDbBlockEnd
  0
BLOCK
  5
3F5
330
3F4
100
AcDbEntity
  8
0
100
AcDbBlockBegin
  2
SW_CENTERMARKSYMBOL_3
 70
     0
 10
0.0
 20
0.0
 30
0.0
  3
SW_CENTERMARKSYMBOL_3
  1

  0
LINE
  5
3F7
330
3F4
100
AcDbEntity
  8
0
  6
Continuous
 62
     0
370
    18
100
AcDbLine
 10
0.0
 20
0.0
 30
0.0
 11
0.0
 21
2.5
 31
0.0
  0
LINE
  5
3F8
330
3F4
100
AcDbEntity
  8
0
  6
Continuous
 62
     0
370
    18
100
AcDbLine
 10
0.0
 20
0.0
 30
0.0
 11
-2.5
 21
0.0
 31
0.0
  0
LINE
  5
3F9
330
3F4
100
AcDbEntity
  8
0
  6
Continuous
 62
     0
370
    18
100
AcDbLine
 10
0.0
 20
0.0
 30
0.0
 11
0.0
 21
-2.5
 31
0.0
  0
LINE
  5
3FA
330
3F4
100
AcDbEntity
  8
0
  6
Continuous
 62
     0
370
    18
100
AcDbLine
 10
0.0
 20
0.0
 30
0.0
 11
2.5
 21
0.0
 31
0.0
  0
LINE
  5
3FB
330
3F4
100
AcDbEntity
  8
0
  6
Continuous
 62
     0
370
    18
100
AcDbLine
 10
0.0
 20
2.5
 30
0.0
 11
0.0
 21
4.2
 31
0.0
  0
LINE
  5
3FC
330
3F4
100
AcDbEntity
  8
0
  6
Continuous
 62
     0
370
    18
100
AcDbLine
 10
-2.5
 20
0.0
 30
0.0
 11
-4.2
 21
0.0
 31
0.0
  0
LINE
  5
3FD
330
3F4
100
AcDbEntity
  8
0
  6
Continuous
 62
     0
370
    18
100
AcDbLine
 10
0.0
 20
-2.5
 30
0.0
 11
0.0
 21
-4.2
 31
0.0
  0
LINE
  5
3FE
330
3F4
100
AcDbEntity
  8
0
  6
Continuous
 62
     0
370
    18
100
AcDbLine
 10
2.5
 20
0.0
 30
0.0
 11
4.2
 21
0.0
 31
0.0
  0
ENDBLK
  5
3F6
330
3F4
100
AcDbEntity
  8
0
100
AcDbBlockEnd
  0
BLOCK
  5
401
330
400
100
AcDbEntity
  8
0
100
AcDbBlockBegin
  2
SW_CENTERMARKSYMBOL_4
 70
     0
 10
0.0
 20
0.0
 30
0.0
  3
SW_CENTERMARKSYMBOL_4
  1

  0
LINE
  5
403
330
400
100
AcDbEntity
  8
0
  6
Continuous
 62
     0
370
    18
100
AcDbLine
 10
0.0
 20
0.0
 30
0.0
 11
0.0
 21
2.5
 31
0.0
  0
LINE
  5
404
330
400
100
AcDbEntity
  8
0
  6
Continuous
 62
     0
370
    18
100
AcDbLine
 10
0.0
 20
0.0
 30
0.0
 11
-2.5
 21
0.0
 31
0.0
  0
LINE
  5
405
330
400
100
AcDbEntity
  8
0
  6
Continuous
 62
     0
370
    18
100
AcDbLine
 10
0.0
 20
0.0
 30
0.0
 11
0.0
 21
-2.5
 31
0.0
  0
LINE
  5
406
330
400
100
AcDbEntity
  8
0
  6
Continuous
 62
     0
370
    18
100
AcDbLine
 10
0.0
 20
0.0
 30
0.0
 11
2.5
 21
0.0
 31
0.0
  0
LINE
  5
407
330
400
100
AcDbEntity
  8
0
  6
Continuous
 62
     0
370
    18
100
AcDbLine
 10
0.0
 20
5.0
 30
0.0
 11
0.0
 21
12.1523651948
 31
0.0
  0
LINE
  5
408
330
400
100
AcDbEntity
  8
0
  6
Continuous
 62
     0
370
    18
100
AcDbLine
 10
-5.0
 20
0.0
 30
0.0
 11
-12.1523651948
 21
0.0
 31
0.0
  0
LINE
  5
409
330
400
100
AcDbEntity
  8
0
  6
Continuous
 62
     0
370
    18
100
AcDbLine
 10
0.0
 20
-5.0
 30
0.0
 11
0.0
 21
-12.1523651948
 31
0.0
  0
LINE
  5
40A
330
400
100
AcDbEntity
  8
0
  6
Continuous
 62
     0
370
    18
100
AcDbLine
 10
5.0
 20
0.0
 30
0.0
 11
12.1523651948
 21
0.0
 31
0.0
  0
ENDBLK
  5
402
330
400
100
AcDbEntity
  8
0
100
AcDbBlockEnd
  0
BLOCK
  5
40D
330
40C
100
AcDbEntity
  8
0
100
AcDbBlockBegin
  2
SW_CENTERMARKSYMBOL_5
 70
     0
 10
0.0
 20
0.0
 30
0.0
  3
SW_CENTERMARKSYMBOL_5
  1

  0
LINE
  5
40F
330
40C
100
AcDbEntity
  8
0
  6
Continuous
 62
     0
370
    18
100
AcDbLine
 10
0.0
 20
0.0
 30
0.0
 11
0.0
 21
2.5
 31
0.0
  0
LINE
  5
410
330
40C
100
AcDbEntity
  8
0
  6
Continuous
 62
     0
370
    18
100
AcDbLine
 10
0.0
 20
0.0
 30
0.0
 11
-2.5
 21
0.0
 31
0.0
  0
LINE
  5
411
330
40C
100
AcDbEntity
  8
0
  6
Continuous
 62
     0
370
    18
100
AcDbLine
 10
0.0
 20
0.0
 30
0.0
 11
0.0
 21
-2.5
 31
0.0
  0
LINE
  5
412
330
40C
100
AcDbEntity
  8
0
  6
Continuous
 62
     0
370
    18
100
AcDbLine
 10
0.0
 20
0.0
 30
0.0
 11
2.5
 21
0.0
 31
0.0
  0
LINE
  5
413
330
40C
100
AcDbEntity
  8
0
  6
Continuous
 62
     0
370
    18
100
AcDbLine
 10
0.0
 20
2.5
 30
0.0
 11
0.0
 21
3.9822348431
 31
0.0
  0
LINE
  5
414
330
40C
100
AcDbEntity
  8
0
  6
Continuous
 62
     0
370
    18
100
AcDbLine
 10
-2.5
 20
0.0
 30
0.0
 11
-3.9822348431
 21
0.0
 31
0.0
  0
LINE
  5
415
330
40C
100
AcDbEntity
  8
0
  6
Continuous
 62
     0
370
    18
100
AcDbLine
 10
0.0
 20
-2.5
 30
0.0
 11
0.0
 21
-3.9822348431
 31
0.0
  0
LINE
  5
416
330
40C
100
AcDbEntity
  8
0
  6
Continuous
 62
     0
370
    18
100
AcDbLine
 10
2.5
 20
0.0
 30
0.0
 11
3.9822348431
 21
0.0
 31
0.0
  0
ENDBLK
  5
40E
330
40C
100
AcDbEntity
  8
0
100
AcDbBlockEnd
  0
BLOCK
  5
419
330
418
100
AcDbEntity
  8
0
100
AcDbBlockBegin
  2
SW_CENTERMARKSYMBOL_6
 70
     0
 10
0.0
 20
0.0
 30
0.0
  3
SW_CENTERMARKSYMBOL_6
  1

  0
LINE
  5
41B
330
418
100
AcDbEntity
  8
0
  6
Continuous
 62
     0
370
    18
100
AcDbLine
 10
0.0
 20
0.0
 30
0.0
 11
0.0
 21
2.5
 31
0.0
  0
LINE
  5
41C
330
418
100
AcDbEntity
  8
0
  6
Continuous
 62
     0
370
    18
100
AcDbLine
 10
0.0
 20
0.0
 30
0.0
 11
-2.5
 21
0.0
 31
0.0
  0
LINE
  5
41D
330
418
100
AcDbEntity
  8
0
  6
Continuous
 62
     0
370
    18
100
AcDbLine
 10
0.0
 20
0.0
 30
0.0
 11
0.0
 21
-2.5
 31
0.0
  0
LINE
  5
41E
330
418
100
AcDbEntity
  8
0
  6
Continuous
 62
     0
370
    18
100
AcDbLine
 10
0.0
 20
0.0
 30
0.0
 11
2.5
 21
0.0
 31
0.0
  0
LINE
  5
41F
330
418
100
AcDbEntity
  8
0
  6
Continuous
 62
     0
370
    18
100
AcDbLine
 10
0.0
 20
2.5
 30
0.0
 11
0.0
 21
3.9822348431
 31
0.0
  0
LINE
  5
420
330
418
100
AcDbEntity
  8
0
  6
Continuous
 62
     0
370
    18
100
AcDbLine
 10
-2.5
 20
0.0
 30
0.0
 11
-3.9822348431
 21
0.0
 31
0.0
  0
LINE
  5
421
330
418
100
AcDbEntity
  8
0
  6
Continuous
 62
     0
370
    18
100
AcDbLine
 10
0.0
 20
-2.5
 30
0.0
 11
0.0
 21
-3.9822348431
 31
0.0
  0
LINE
  5
422
330
418
100
AcDbEntity
  8
0
  6
Continuous
 62
     0
370
    18
100
AcDbLine
 10
2.5
 20
0.0
 30
0.0
 11
3.9822348431
 21
0.0
 31
0.0
  0
ENDBLK
  5
41A
330
418
100
AcDbEntity
  8
0
100
AcDbBlockEnd
  0
BLOCK
  5
425
330
424
100
AcDbEntity
  8
0
100
AcDbBlockBegin
  2
SW_CENTERMARKSYMBOL_7
 70
     0
 10
0.0
 20
0.0
 30
0.0
  3
SW_CENTERMARKSYMBOL_7
  1

  0
LINE
  5
427
330
424
100
AcDbEntity
  8
0
  6
Continuous
 62
     0
370
    18
100
AcDbLine
 10
0.0
 20
0.0
 30
0.0
 11
0.0
 21
2.5
 31
0.0
  0
LINE
  5
428
330
424
100
AcDbEntity
  8
0
  6
Continuous
 62
     0
370
    18
100
AcDbLine
 10
0.0
 20
0.0
 30
0.0
 11
-2.5
 21
0.0
 31
0.0
  0
LINE
  5
429
330
424
100
AcDbEntity
  8
0
  6
Continuous
 62
     0
370
    18
100
AcDbLine
 10
0.0
 20
0.0
 30
0.0
 11
0.0
 21
-2.5
 31
0.0
  0
LINE
  5
42A
330
424
100
AcDbEntity
  8
0
  6
Continuous
 62
     0
370
    18
100
AcDbLine
 10
0.0
 20
0.0
 30
0.0
 11
2.5
 21
0.0
 31
0.0
  0
LINE
  5
42B
330
424
100
AcDbEntity
  8
0
  6
Continuous
 62
     0
370
    18
100
AcDbLine
 10
0.0
 20
2.5
 30
0.0
 11
0.0
 21
3.9822348431
 31
0.0
  0
LINE
  5
42C
330
424
100
AcDbEntity
  8
0
  6
Continuous
 62
     0
370
    18
100
AcDbLine
 10
-2.5
 20
0.0
 30
0.0
 11
-3.9822348431
 21
0.0
 31
0.0
  0
LINE
  5
42D
330
424
100
AcDbEntity
  8
0
  6
Continuous
 62
     0
370
    18
100
AcDbLine
 10
0.0
 20
-2.5
 30
0.0
 11
0.0
 21
-3.9822348431
 31
0.0
  0
LINE
  5
42E
330
424
100
AcDbEntity
  8
0
  6
Continuous
 62
     0
370
    18
100
AcDbLine
 10
2.5
 20
0.0
 30
0.0
 11
3.9822348431
 21
0.0
 31
0.0
  0
ENDBLK
  5
426
330
424
100
AcDbEntity
  8
0
100
AcDbBlockEnd
  0
BLOCK
  5
431
330
430
100
AcDbEntity
  8
0
100
AcDbBlockBegin
  2
SW_CENTERMARKSYMBOL_8
 70
     0
 10
0.0
 20
0.0
 30
0.0
  3
SW_CENTERMARKSYMBOL_8
  1

  0
LINE
  5
433
330
430
100
AcDbEntity
  8
0
  6
Continuous
 62
     0
370
    18
100
AcDbLine
 10
0.0
 20
0.0
 30
0.0
 11
0.0
 21
2.5
 31
0.0
  0
LINE
  5
434
330
430
100
AcDbEntity
  8
0
  6
Continuous
 62
     0
370
    18
100
AcDbLine
 10
0.0
 20
0.0
 30
0.0
 11
-2.5
 21
0.0
 31
0.0
  0
LINE
  5
435
330
430
100
AcDbEntity
  8
0
  6
Continuous
 62
     0
370
    18
100
AcDbLine
 10
0.0
 20
0.0
 30
0.0
 11
0.0
 21
-2.5
 31
0.0
  0
LINE
  5
436
330
430
100
AcDbEntity
  8
0
  6
Continuous
 62
     0
370
    18
100
AcDbLine
 10
0.0
 20
0.0
 30
0.0
 11
2.5
 21
0.0
 31
0.0
  0
LINE
  5
437
330
430
100
AcDbEntity
  8
0
  6
Continuous
 62
     0
370
    18
100
AcDbLine
 10
0.0
 20
2.5
 30
0.0
 11
0.0
 21
4.2
 31
0.0
  0
LINE
  5
438
330
430
100
AcDbEntity
  8
0
  6
Continuous
 62
     0
370
    18
100
AcDbLine
 10
-2.5
 20
0.0
 30
0.0
 11
-4.2
 21
0.0
 31
0.0
  0
LINE
  5
439
330
430
100
AcDbEntity
  8
0
  6
Continuous
 62
     0
370
    18
100
AcDbLine
 10
0.0
 20
-2.5
 30
0.0
 11
0.0
 21
-4.2
 31
0.0
  0
LINE
  5
43A
330
430
100
AcDbEntity
  8
0
  6
Continuous
 62
     0
370
    18
100
AcDbLine
 10
2.5
 20
0.0
 30
0.0
 11
4.2
 21
0.0
 31
0.0
  0
ENDBLK
  5
432
330
430
100
AcDbEntity
  8
0
100
AcDbBlockEnd
  0
BLOCK
  5
43D
330
43C
100
AcDbEntity
  8
0
100
AcDbBlockBegin
  2
SW_CENTERMARKSYMBOL_9
 70
     0
 10
0.0
 20
0.0
 30
0.0
  3
SW_CENTERMARKSYMBOL_9
  1

  0
LINE
  5
43F
330
43C
100
AcDbEntity
  8
0
  6
Continuous
 62
     0
370
    18
100
AcDbLine
 10
0.0
 20
0.0
 30
0.0
 11
0.0
 21
2.5
 31
0.0
  0
LINE
  5
440
330
43C
100
AcDbEntity
  8
0
  6
Continuous
 62
     0
370
    18
100
AcDbLine
 10
0.0
 20
0.0
 30
0.0
 11
-2.5
 21
0.0
 31
0.0
  0
LINE
  5
441
330
43C
100
AcDbEntity
  8
0
  6
Continuous
 62
     0
370
    18
100
AcDbLine
 10
0.0
 20
0.0
 30
0.0
 11
0.0
 21
-2.5
 31
0.0
  0
LINE
  5
442
330
43C
100
AcDbEntity
  8
0
  6
Continuous
 62
     0
370
    18
100
AcDbLine
 10
0.0
 20
0.0
 30
0.0
 11
2.5
 21
0.0
 31
0.0
  0
LINE
  5
443
330
43C
100
AcDbEntity
  8
0
  6
Continuous
 62
     0
370
    18
100
AcDbLine
 10
0.0
 20
5.0
 30
0.0
 11
0.0
 21
12.1523651948
 31
0.0
  0
LINE
  5
444
330
43C
100
AcDbEntity
  8
0
  6
Continuous
 62
     0
370
    18
100
AcDbLine
 10
-5.0
 20
0.0
 30
0.0
 11
-12.1523651948
 21
0.0
 31
0.0
  0
LINE
  5
445
330
43C
100
AcDbEntity
  8
0
  6
Continuous
 62
     0
370
    18
100
AcDbLine
 10
0.0
 20
-5.0
 30
0.0
 11
0.0
 21
-12.1523651948
 31
0.0
  0
LINE
  5
446
330
43C
100
AcDbEntity
  8
0
  6
Continuous
 62
     0
370
    18
100
AcDbLine
 10
5.0
 20
0.0
 30
0.0
 11
12.1523651948
 21
0.0
 31
0.0
  0
ENDBLK
  5
43E
330
43C
100
AcDbEntity
  8
0
100
AcDbBlockEnd
  0
BLOCK
  5
449
330
448
100
AcDbEntity
  8
0
100
AcDbBlockBegin
  2
SW_CENTERMARKSYMBOL_10
 70
     0
 10
0.0
 20
0.0
 30
0.0
  3
SW_CENTERMARKSYMBOL_10
  1

  0
LINE
  5
44B
330
448
100
AcDbEntity
  8
0
  6
Continuous
 62
     0
370
    18
100
AcDbLine
 10
0.0
 20
0.0
 30
0.0
 11
0.0
 21
2.5
 31
0.0
  0
LINE
  5
44C
330
448
100
AcDbEntity
  8
0
  6
Continuous
 62
     0
370
    18
100
AcDbLine
 10
0.0
 20
0.0
 30
0.0
 11
-2.5
 21
0.0
 31
0.0
  0
LINE
  5
44D
330
448
100
AcDbEntity
  8
0
  6
Continuous
 62
     0
370
    18
100
AcDbLine
 10
0.0
 20
0.0
 30
0.0
 11
0.0
 21
-2.5
 31
0.0
  0
LINE
  5
44E
330
448
100
AcDbEntity
  8
0
  6
Continuous
 62
     0
370
    18
100
AcDbLine
 10
0.0
 20
0.0
 30
0.0
 11
2.5
 21
0.0
 31
0.0
  0
LINE
  5
44F
330
448
100
AcDbEntity
  8
0
  6
Continuous
 62
     0
370
    18
100
AcDbLine
 10
0.0
 20
2.5
 30
0.0
 11
0.0
 21
3.9825475936
 31
0.0
  0
LINE
  5
450
330
448
100
AcDbEntity
  8
0
  6
Continuous
 62
     0
370
    18
100
AcDbLine
 10
-2.5
 20
0.0
 30
0.0
 11
-3.9825475936
 21
0.0
 31
0.0
  0
LINE
  5
451
330
448
100
AcDbEntity
  8
0
  6
Continuous
 62
     0
370
    18
100
AcDbLine
 10
0.0
 20
-2.5
 30
0.0
 11
0.0
 21
-3.9825475936
 31
0.0
  0
LINE
  5
452
330
448
100
AcDbEntity
  8
0
  6
Continuous
 62
     0
370
    18
100
AcDbLine
 10
2.5
 20
0.0
 30
0.0
 11
3.9825475936
 21
0.0
 31
0.0
  0
ENDBLK
  5
44A
330
448
100
AcDbEntity
  8
0
100
AcDbBlockEnd
  0
BLOCK
  5
455
330
454
100
AcDbEntity
  8
0
100
AcDbBlockBegin
  2
SW_CENTERMARKSYMBOL_11
 70
     0
 10
0.0
 20
0.0
 30
0.0
  3
SW_CENTERMARKSYMBOL_11
  1

  0
LINE
  5
457
330
454
100
AcDbEntity
  8
0
  6
Continuous
 62
     0
370
    18
100
AcDbLine
 10
0.0
 20
0.0
 30
0.0
 11
0.0
 21
2.5
 31
0.0
  0
LINE
  5
458
330
454
100
AcDbEntity
  8
0
  6
Continuous
 62
     0
370
    18
100
AcDbLine
 10
0.0
 20
0.0
 30
0.0
 11
-2.5
 21
0.0
 31
0.0
  0
LINE
  5
459
330
454
100
AcDbEntity
  8
0
  6
Continuous
 62
     0
370
    18
100
AcDbLine
 10
0.0
 20
0.0
 30
0.0
 11
0.0
 21
-2.5
 31
0.0
  0
LINE
  5
45A
330
454
100
AcDbEntity
  8
0
  6
Continuous
 62
     0
370
    18
100
AcDbLine
 10
0.0
 20
0.0
 30
0.0
 11
2.5
 21
0.0
 31
0.0
  0
LINE
  5
45B
330
454
100
AcDbEntity
  8
0
  6
Continuous
 62
     0
370
    18
100
AcDbLine
 10
0.0
 20
2.5
 30
0.0
 11
0.0
 21
3.9825475936
 31
0.0
  0
LINE
  5
45C
330
454
100
AcDbEntity
  8
0
  6
Continuous
 62
     0
370
    18
100
AcDbLine
 10
-2.5
 20
0.0
 30
0.0
 11
-3.9825475936
 21
0.0
 31
0.0
  0
LINE
  5
45D
330
454
100
AcDbEntity
  8
0
  6
Continuous
 62
     0
370
    18
100
AcDbLine
 10
0.0
 20
-2.5
 30
0.0
 11
0.0
 21
-3.9825475936
 31
0.0
  0
LINE
  5
45E
330
454
100
AcDbEntity
  8
0
  6
Continuous
 62
     0
370
    18
100
AcDbLine
 10
2.5
 20
0.0
 30
0.0
 11
3.9825475936
 21
0.0
 31
0.0
  0
ENDBLK
  5
456
330
454
100
AcDbEntity
  8
0
100
AcDbBlockEnd
  0
BLOCK
  5
461
330
460
100
AcDbEntity
  8
0
100
AcDbBlockBegin
  2
SW_CENTERMARKSYMBOL_12
 70
     0
 10
0.0
 20
0.0
 30
0.0
  3
SW_CENTERMARKSYMBOL_12
  1

  0
LINE
  5
463
330
460
100
AcDbEntity
  8
0
  6
Continuous
 62
     0
370
    18
100
AcDbLine
 10
0.0
 20
0.0
 30
0.0
 11
0.0
 21
2.5
 31
0.0
  0
LINE
  5
464
330
460
100
AcDbEntity
  8
0
  6
Continuous
 62
     0
370
    18
100
AcDbLine
 10
0.0
 20
0.0
 30
0.0
 11
-2.5
 21
0.0
 31
0.0
  0
LINE
  5
465
330
460
100
AcDbEntity
  8
0
  6
Continuous
 62
     0
370
    18
100
AcDbLine
 10
0.0
 20
0.0
 30
0.0
 11
0.0
 21
-2.5
 31
0.0
  0
LINE
  5
466
330
460
100
AcDbEntity
  8
0
  6
Continuous
 62
     0
370
    18
100
AcDbLine
 10
0.0
 20
0.0
 30
0.0
 11
2.5
 21
0.0
 31
0.0
  0
LINE
  5
467
330
460
100
AcDbEntity
  8
0
  6
Continuous
 62
     0
370
    18
100
AcDbLine
 10
0.0
 20
2.5
 30
0.0
 11
0.0
 21
3.9825475936
 31
0.0
  0
LINE
  5
468
330
460
100
AcDbEntity
  8
0
  6
Continuous
 62
     0
370
    18
100
AcDbLine
 10
-2.5
 20
0.0
 30
0.0
 11
-3.9825475936
 21
0.0
 31
0.0
  0
LINE
  5
469
330
460
100
AcDbEntity
  8
0
  6
Continuous
 62
     0
370
    18
100
AcDbLine
 10
0.0
 20
-2.5
 30
0.0
 11
0.0
 21
-3.9825475936
 31
0.0
  0
LINE
  5
46A
330
460
100
AcDbEntity
  8
0
  6
Continuous
 62
     0
370
    18
100
AcDbLine
 10
2.5
 20
0.0
 30
0.0
 11
3.9825475936
 21
0.0
 31
0.0
  0
ENDBLK
  5
462
330
460
100
AcDbEntity
  8
0
100
AcDbBlockEnd
  0
BLOCK
  5
46D
330
46C
100
AcDbEntity
  8
0
100
AcDbBlockBegin
  2
SW_CENTERMARKSYMBOL_13
 70
     0
 10
0.0
 20
0.0
 30
0.0
  3
SW_CENTERMARKSYMBOL_13
  1

  0
LINE
  5
46F
330
46C
100
AcDbEntity
  8
0
  6
Continuous
 62
     0
370
    18
100
AcDbLine
 10
0.0
 20
0.0
 30
0.0
 11
0.0
 21
2.5
 31
0.0
  0
LINE
  5
470
330
46C
100
AcDbEntity
  8
0
  6
Continuous
 62
     0
370
    18
100
AcDbLine
 10
0.0
 20
0.0
 30
0.0
 11
-2.5
 21
0.0
 31
0.0
  0
LINE
  5
471
330
46C
100
AcDbEntity
  8
0
  6
Continuous
 62
     0
370
    18
100
AcDbLine
 10
0.0
 20
0.0
 30
0.0
 11
0.0
 21
-2.5
 31
0.0
  0
LINE
  5
472
330
46C
100
AcDbEntity
  8
0
  6
Continuous
 62
     0
370
    18
100
AcDbLine
 10
0.0
 20
0.0
 30
0.0
 11
2.5
 21
0.0
 31
0.0
  0
LINE
  5
473
330
46C
100
AcDbEntity
  8
0
  6
Continuous
 62
     0
370
    18
100
AcDbLine
 10
0.0
 20
2.5
 30
0.0
 11
0.0
 21
4.2
 31
0.0
  0
LINE
  5
474
330
46C
100
AcDbEntity
  8
0
  6
Continuous
 62
     0
370
    18
100
AcDbLine
 10
-2.5
 20
0.0
 30
0.0
 11
-4.2
 21
0.0
 31
0.0
  0
LINE
  5
475
330
46C
100
AcDbEntity
  8
0
  6
Continuous
 62
     0
370
    18
100
AcDbLine
 10
0.0
 20
-2.5
 30
0.0
 11
0.0
 21
-4.2
 31
0.0
  0
LINE
  5
476
330
46C
100
AcDbEntity
  8
0
  6
Continuous
 62
     0
370
    18
100
AcDbLine
 10
2.5
 20
0.0
 30
0.0
 11
4.2
 21
0.0
 31
0.0
  0
ENDBLK
  5
46E
330
46C
100
AcDbEntity
  8
0
100
AcDbBlockEnd
  0
BLOCK
  5
479
330
478
100
AcDbEntity
  8
0
100
AcDbBlockBegin
  2
SW_CENTERMARKSYMBOL_14
 70
     0
 10
0.0
 20
0.0
 30
0.0
  3
SW_CENTERMARKSYMBOL_14
  1

  0
LINE
  5
47B
330
478
100
AcDbEntity
  8
0
  6
Continuous
 62
     0
370
    18
100
AcDbLine
 10
0.0
 20
0.0
 30
0.0
 11
0.0
 21
2.5
 31
0.0
  0
LINE
  5
47C
330
478
100
AcDbEntity
  8
0
  6
Continuous
 62
     0
370
    18
100
AcDbLine
 10
0.0
 20
0.0
 30
0.0
 11
-2.5
 21
0.0
 31
0.0
  0
LINE
  5
47D
330
478
100
AcDbEntity
  8
0
  6
Continuous
 62
     0
370
    18
100
AcDbLine
 10
0.0
 20
0.0
 30
0.0
 11
0.0
 21
-2.5
 31
0.0
  0
LINE
  5
47E
330
478
100
AcDbEntity
  8
0
  6
Continuous
 62
     0
370
    18
100
AcDbLine
 10
0.0
 20
0.0
 30
0.0
 11
2.5
 21
0.0
 31
0.0
  0
LINE
  5
47F
330
478
100
AcDbEntity
  8
0
  6
Continuous
 62
     0
370
    18
100
AcDbLine
 10
0.0
 20
5.0
 30
0.0
 11
0.0
 21
12.1523651948
 31
0.0
  0
LINE
  5
480
330
478
100
AcDbEntity
  8
0
  6
Continuous
 62
     0
370
    18
100
AcDbLine
 10
-5.0
 20
0.0
 30
0.0
 11
-12.1523651948
 21
0.0
 31
0.0
  0
LINE
  5
481
330
478
100
AcDbEntity
  8
0
  6
Continuous
 62
     0
370
    18
100
AcDbLine
 10
0.0
 20
-5.0
 30
0.0
 11
0.0
 21
-12.1523651948
 31
0.0
  0
LINE
  5
482
330
478
100
AcDbEntity
  8
0
  6
Continuous
 62
     0
370
    18
100
AcDbLine
 10
5.0
 20
0.0
 30
0.0
 11
12.1523651948
 21
0.0
 31
0.0
  0
ENDBLK
  5
47A
330
478
100
AcDbEntity
  8
0
100
AcDbBlockEnd
  0
BLOCK
  5
485
330
484
100
AcDbEntity
  8
0
100
AcDbBlockBegin
  2
SW_CENTERMARKSYMBOL_15
 70
     0
 10
0.0
 20
0.0
 30
0.0
  3
SW_CENTERMARKSYMBOL_15
  1

  0
LINE
  5
487
330
484
100
AcDbEntity
  8
0
  6
Continuous
 62
     0
370
    18
100
AcDbLine
 10
0.0
 20
0.0
 30
0.0
 11
0.0
 21
2.5
 31
0.0
  0
LINE
  5
488
330
484
100
AcDbEntity
  8
0
  6
Continuous
 62
     0
370
    18
100
AcDbLine
 10
0.0
 20
0.0
 30
0.0
 11
-2.5
 21
0.0
 31
0.0
  0
LINE
  5
489
330
484
100
AcDbEntity
  8
0
  6
Continuous
 62
     0
370
    18
100
AcDbLine
 10
0.0
 20
0.0
 30
0.0
 11
0.0
 21
-2.5
 31
0.0
  0
LINE
  5
48A
330
484
100
AcDbEntity
  8
0
  6
Continuous
 62
     0
370
    18
100
AcDbLine
 10
0.0
 20
0.0
 30
0.0
 11
2.5
 21
0.0
 31
0.0
  0
LINE
  5
48B
330
484
100
AcDbEntity
  8
0
  6
Continuous
 62
     0
370
    18
100
AcDbLine
 10
0.0
 20
2.5
 30
0.0
 11
0.0
 21
3.9822348431
 31
0.0
  0
LINE
  5
48C
330
484
100
AcDbEntity
  8
0
  6
Continuous
 62
     0
370
    18
100
AcDbLine
 10
-2.5
 20
0.0
 30
0.0
 11
-3.9822348431
 21
0.0
 31
0.0
  0
LINE
  5
48D
330
484
100
AcDbEntity
  8
0
  6
Continuous
 62
     0
370
    18
100
AcDbLine
 10
0.0
 20
-2.5
 30
0.0
 11
0.0
 21
-3.9822348431
 31
0.0
  0
LINE
  5
48E
330
484
100
AcDbEntity
  8
0
  6
Continuous
 62
     0
370
    18
100
AcDbLine
 10
2.5
 20
0.0
 30
0.0
 11
3.9822348431
 21
0.0
 31
0.0
  0
ENDBLK
  5
486
330
484
100
AcDbEntity
  8
0
100
AcDbBlockEnd
  0
BLOCK
  5
491
330
490
100
AcDbEntity
  8
0
100
AcDbBlockBegin
  2
SW_CENTERMARKSYMBOL_16
 70
     0
 10
0.0
 20
0.0
 30
0.0
  3
SW_CENTERMARKSYMBOL_16
  1

  0
LINE
  5
493
330
490
100
AcDbEntity
  8
0
  6
Continuous
 62
     0
370
    18
100
AcDbLine
 10
0.0
 20
0.0
 30
0.0
 11
0.0
 21
2.5
 31
0.0
  0
LINE
  5
494
330
490
100
AcDbEntity
  8
0
  6
Continuous
 62
     0
370
    18
100
AcDbLine
 10
0.0
 20
0.0
 30
0.0
 11
-2.5
 21
0.0
 31
0.0
  0
LINE
  5
495
330
490
100
AcDbEntity
  8
0
  6
Continuous
 62
     0
370
    18
100
AcDbLine
 10
0.0
 20
0.0
 30
0.0
 11
0.0
 21
-2.5
 31
0.0
  0
LINE
  5
496
330
490
100
AcDbEntity
  8
0
  6
Continuous
 62
     0
370
    18
100
AcDbLine
 10
0.0
 20
0.0
 30
0.0
 11
2.5
 21
0.0
 31
0.0
  0
LINE
  5
497
330
490
100
AcDbEntity
  8
0
  6
Continuous
 62
     0
370
    18
100
AcDbLine
 10
0.0
 20
2.5
 30
0.0
 11
0.0
 21
3.9822348431
 31
0.0
  0
LINE
  5
498
330
490
100
AcDbEntity
  8
0
  6
Continuous
 62
     0
370
    18
100
AcDbLine
 10
-2.5
 20
0.0
 30
0.0
 11
-3.9822348431
 21
0.0
 31
0.0
  0
LINE
  5
499
330
490
100
AcDbEntity
  8
0
  6
Continuous
 62
     0
370
    18
100
AcDbLine
 10
0.0
 20
-2.5
 30
0.0
 11
0.0
 21
-3.9822348431
 31
0.0
  0
LINE
  5
49A
330
490
100
AcDbEntity
  8
0
  6
Continuous
 62
     0
370
    18
100
AcDbLine
 10
2.5
 20
0.0
 30
0.0
 11
3.9822348431
 21
0.0
 31
0.0
  0
ENDBLK
  5
492
330
490
100
AcDbEntity
  8
0
100
AcDbBlockEnd
  0
BLOCK
  5
49D
330
49C
100
AcDbEntity
  8
0
100
AcDbBlockBegin
  2
SW_CENTERMARKSYMBOL_17
 70
     0
 10
0.0
 20
0.0
 30
0.0
  3
SW_CENTERMARKSYMBOL_17
  1

  0
LINE
  5
49F
330
49C
100
AcDbEntity
  8
0
  6
Continuous
 62
     0
370
    18
100
AcDbLine
 10
0.0
 20
0.0
 30
0.0
 11
0.0
 21
2.5
 31
0.0
  0
LINE
  5
4A0
330
49C
100
AcDbEntity
  8
0
  6
Continuous
 62
     0
370
    18
100
AcDbLine
 10
0.0
 20
0.0
 30
0.0
 11
-2.5
 21
0.0
 31
0.0
  0
LINE
  5
4A1
330
49C
100
AcDbEntity
  8
0
  6
Continuous
 62
     0
370
    18
100
AcDbLine
 10
0.0
 20
0.0
 30
0.0
 11
0.0
 21
-2.5
 31
0.0
  0
LINE
  5
4A2
330
49C
100
AcDbEntity
  8
0
  6
Continuous
 62
     0
370
    18
100
AcDbLine
 10
0.0
 20
0.0
 30
0.0
 11
2.5
 21
0.0
 31
0.0
  0
LINE
  5
4A3
330
49C
100
AcDbEntity
  8
0
  6
Continuous
 62
     0
370
    18
100
AcDbLine
 10
0.0
 20
2.5
 30
0.0
 11
0.0
 21
3.9822348431
 31
0.0
  0
LINE
  5
4A4
330
49C
100
AcDbEntity
  8
0
  6
Continuous
 62
     0
370
    18
100
AcDbLine
 10
-2.5
 20
0.0
 30
0.0
 11
-3.9822348431
 21
0.0
 31
0.0
  0
LINE
  5
4A5
330
49C
100
AcDbEntity
  8
0
  6
Continuous
 62
     0
370
    18
100
AcDbLine
 10
0.0
 20
-2.5
 30
0.0
 11
0.0
 21
-3.9822348431
 31
0.0
  0
LINE
  5
4A6
330
49C
100
AcDbEntity
  8
0
  6
Continuous
 62
     0
370
    18
100
AcDbLine
 10
2.5
 20
0.0
 30
0.0
 11
3.9822348431
 21
0.0
 31
0.0
  0
ENDBLK
  5
49E
330
49C
100
AcDbEntity
  8
0
100
AcDbBlockEnd
  0
BLOCK
  5
4A9
330
4A8
100
AcDbEntity
  8
0
100
AcDbBlockBegin
  2
SW_CENTERMARKSYMBOL_18
 70
     0
 10
0.0
 20
0.0
 30
0.0
  3
SW_CENTERMARKSYMBOL_18
  1

  0
LINE
  5
4AB
330
4A8
100
AcDbEntity
  8
0
  6
Continuous
 62
     0
370
    18
100
AcDbLine
 10
0.0
 20
0.0
 30
0.0
 11
0.0
 21
2.5
 31
0.0
  0
LINE
  5
4AC
330
4A8
100
AcDbEntity
  8
0
  6
Continuous
 62
     0
370
    18
100
AcDbLine
 10
0.0
 20
0.0
 30
0.0
 11
-2.5
 21
0.0
 31
0.0
  0
LINE
  5
4AD
330
4A8
100
AcDbEntity
  8
0
  6
Continuous
 62
     0
370
    18
100
AcDbLine
 10
0.0
 20
0.0
 30
0.0
 11
0.0
 21
-2.5
 31
0.0
  0
LINE
  5
4AE
330
4A8
100
AcDbEntity
  8
0
  6
Continuous
 62
     0
370
    18
100
AcDbLine
 10
0.0
 20
0.0
 30
0.0
 11
2.5
 21
0.0
 31
0.0
  0
LINE
  5
4AF
330
4A8
100
AcDbEntity
  8
0
  6
Continuous
 62
     0
370
    18
100
AcDbLine
 10
0.0
 20
2.5
 30
0.0
 11
0.0
 21
4.2
 31
0.0
  0
LINE
  5
4B0
330
4A8
100
AcDbEntity
  8
0
  6
Continuous
 62
     0
370
    18
100
AcDbLine
 10
-2.5
 20
0.0
 30
0.0
 11
-4.2
 21
0.0
 31
0.0
  0
LINE
  5
4B1
330
4A8
100
AcDbEntity
  8
0
  6
Continuous
 62
     0
370
    18
100
AcDbLine
 10
0.0
 20
-2.5
 30
0.0
 11
0.0
 21
-4.2
 31
0.0
  0
LINE
  5
4B2
330
4A8
100
AcDbEntity
  8
0
  6
Continuous
 62
     0
370
    18
100
AcDbLine
 10
2.5
 20
0.0
 30
0.0
 11
4.2
 21
0.0
 31
0.0
  0
ENDBLK
  5
4AA
330
4A8
100
AcDbEntity
  8
0
100
AcDbBlockEnd
  0
BLOCK
  5
4B5
330
4B4
100
AcDbEntity
  8
0
100
AcDbBlockBegin
  2
SW_CENTERMARKSYMBOL_19
 70
     0
 10
0.0
 20
0.0
 30
0.0
  3
SW_CENTERMARKSYMBOL_19
  1

  0
LINE
  5
4B7
330
4B4
100
AcDbEntity
  8
0
  6
Continuous
 62
     0
370
    18
100
AcDbLine
 10
0.0
 20
0.0
 30
0.0
 11
0.0
 21
2.5
 31
0.0
  0
LINE
  5
4B8
330
4B4
100
AcDbEntity
  8
0
  6
Continuous
 62
     0
370
    18
100
AcDbLine
 10
0.0
 20
0.0
 30
0.0
 11
-2.5
 21
0.0
 31
0.0
  0
LINE
  5
4B9
330
4B4
100
AcDbEntity
  8
0
  6
Continuous
 62
     0
370
    18
100
AcDbLine
 10
0.0
 20
0.0
 30
0.0
 11
0.0
 21
-2.5
 31
0.0
  0
LINE
  5
4BA
330
4B4
100
AcDbEntity
  8
0
  6
Continuous
 62
     0
370
    18
100
AcDbLine
 10
0.0
 20
0.0
 30
0.0
 11
2.5
 21
0.0
 31
0.0
  0
LINE
  5
4BB
330
4B4
100
AcDbEntity
  8
0
  6
Continuous
 62
     0
370
    18
100
AcDbLine
 10
0.0
 20
5.0
 30
0.0
 11
0.0
 21
12.1523651948
 31
0.0
  0
LINE
  5
4BC
330
4B4
100
AcDbEntity
  8
0
  6
Continuous
 62
     0
370
    18
100
AcDbLine
 10
-5.0
 20
0.0
 30
0.0
 11
-12.1523651948
 21
0.0
 31
0.0
  0
LINE
  5
4BD
330
4B4
100
AcDbEntity
  8
0
  6
Continuous
 62
     0
370
    18
100
AcDbLine
 10
0.0
 20
-5.0
 30
0.0
 11
0.0
 21
-12.1523651948
 31
0.0
  0
LINE
  5
4BE
330
4B4
100
AcDbEntity
  8
0
  6
Continuous
 62
     0
370
    18
100
AcDbLine
 10
5.0
 20
0.0
 30
0.0
 11
12.1523651948
 21
0.0
 31
0.0
  0
ENDBLK
  5
4B6
330
4B4
100
AcDbEntity
  8
0
100
AcDbBlockEnd
  0
BLOCK
  5
4C1
330
4C0
100
AcDbEntity
  8
0
100
AcDbBlockBegin
  2
SW_CENTERMARKSYMBOL_20
 70
     0
 10
0.0
 20
0.0
 30
0.0
  3
SW_CENTERMARKSYMBOL_20
  1

  0
LINE
  5
4C3
330
4C0
100
AcDbEntity
  8
0
  6
Continuous
 62
     0
370
    18
100
AcDbLine
 10
0.0
 20
0.0
 30
0.0
 11
0.0
 21
2.5
 31
0.0
  0
LINE
  5
4C4
330
4C0
100
AcDbEntity
  8
0
  6
Continuous
 62
     0
370
    18
100
AcDbLine
 10
0.0
 20
0.0
 30
0.0
 11
-2.5
 21
0.0
 31
0.0
  0
LINE
  5
4C5
330
4C0
100
AcDbEntity
  8
0
  6
Continuous
 62
     0
370
    18
100
AcDbLine
 10
0.0
 20
0.0
 30
0.0
 11
0.0
 21
-2.5
 31
0.0
  0
LINE
  5
4C6
330
4C0
100
AcDbEntity
  8
0
  6
Continuous
 62
     0
370
    18
100
AcDbLine
 10
0.0
 20
0.0
 30
0.0
 11
2.5
 21
0.0
 31
0.0
  0
LINE
  5
4C7
330
4C0
100
AcDbEntity
  8
0
  6
Continuous
 62
     0
370
    18
100
AcDbLine
 10
0.0
 20
2.5
 30
0.0
 11
0.0
 21
4.0911963035
 31
0.0
  0
LINE
  5
4C8
330
4C0
100
AcDbEntity
  8
0
  6
Continuous
 62
     0
370
    18
100
AcDbLine
 10
-2.5
 20
0.0
 30
0.0
 11
-4.0911963035
 21
0.0
 31
0.0
  0
LINE
  5
4C9
330
4C0
100
AcDbEntity
  8
0
  6
Continuous
 62
     0
370
    18
100
AcDbLine
 10
0.0
 20
-2.5
 30
0.0
 11
0.0
 21
-4.0911963035
 31
0.0
  0
LINE
  5
4CA
330
4C0
100
AcDbEntity
  8
0
  6
Continuous
 62
     0
370
    18
100
AcDbLine
 10
2.5
 20
0.0
 30
0.0
 11
4.0911963035
 21
0.0
 31
0.0
  0
ENDBLK
  5
4C2
330
4C0
100
AcDbEntity
  8
0
100
AcDbBlockEnd
  0
BLOCK
  5
4CD
330
4CC
100
AcDbEntity
  8
0
100
AcDbBlockBegin
  2
SW_CENTERMARKSYMBOL_21
 70
     0
 10
0.0
 20
0.0
 30
0.0
  3
SW_CENTERMARKSYMBOL_21
  1

  0
LINE
  5
4CF
330
4CC
100
AcDbEntity
  8
0
  6
Continuous
 62
     0
370
    18
100
AcDbLine
 10
0.0
 20
0.0
 30
0.0
 11
0.0
 21
2.5
 31
0.0
  0
LINE
  5
4D0
330
4CC
100
AcDbEntity
  8
0
  6
Continuous
 62
     0
370
    18
100
AcDbLine
 10
0.0
 20
0.0
 30
0.0
 11
-2.5
 21
0.0
 31
0.0
  0
LINE
  5
4D1
330
4CC
100
AcDbEntity
  8
0
  6
Continuous
 62
     0
370
    18
100
AcDbLine
 10
0.0
 20
0.0
 30
0.0
 11
0.0
 21
-2.5
 31
0.0
  0
LINE
  5
4D2
330
4CC
100
AcDbEntity
  8
0
  6
Continuous
 62
     0
370
    18
100
AcDbLine
 10
0.0
 20
0.0
 30
0.0
 11
2.5
 21
0.0
 31
0.0
  0
LINE
  5
4D3
330
4CC
100
AcDbEntity
  8
0
  6
Continuous
 62
     0
370
    18
100
AcDbLine
 10
0.0
 20
2.5
 30
0.0
 11
0.0
 21
4.0912734645
 31
0.0
  0
LINE
  5
4D4
330
4CC
100
AcDbEntity
  8
0
  6
Continuous
 62
     0
370
    18
100
AcDbLine
 10
-2.5
 20
0.0
 30
0.0
 11
-4.0912734645
 21
0.0
 31
0.0
  0
LINE
  5
4D5
330
4CC
100
AcDbEntity
  8
0
  6
Continuous
 62
     0
370
    18
100
AcDbLine
 10
0.0
 20
-2.5
 30
0.0
 11
0.0
 21
-4.0912734645
 31
0.0
  0
LINE
  5
4D6
330
4CC
100
AcDbEntity
  8
0
  6
Continuous
 62
     0
370
    18
100
AcDbLine
 10
2.5
 20
0.0
 30
0.0
 11
4.0912734645
 21
0.0
 31
0.0
  0
ENDBLK
  5
4CE
330
4CC
100
AcDbEntity
  8
0
100
AcDbBlockEnd
  0
ENDSEC
  0
SECTION
  2
ENTITIES
  0
LINE
  5
63
330
1F
100
AcDbEntity
  8
0
  6
Continuous
 62
     7
370
    25
100
AcDbLine
 10
250.7215133469
 20
331.8266051908
 30
0.0
 11
248.8968466802
 21
333.0430496352
 31
0.0
  0
LINE
  5
64
330
1F
100
AcDbEntity
  8
0
  6
Continuous
 62
     7
370
    25
100
AcDbLine
 10
248.8968466802
 20
333.4992163019
 30
0.0
 11
250.7215133469
 21
333.4992163019
 31
0.0
  0
LINE
  5
65
330
1F
100
AcDbEntity
  8
0
  6
Continuous
 62
     7
370
    25
100
AcDbLine
 10
250.7215133469
 20
333.4992163019
 30
0.0
 11
250.7215133469
 21
334.8677163019
 31
0.0
  0
LINE
  5
66
330
1F
100
AcDbEntity
  8
0
  6
Continuous
 62
     7
370
    25
100
AcDbLine
 10
250.7215133469
 20
334.8677163019
 30
0.0
 11
245.7036800136
 21
334.8677163019
 31
0.0
  0
LINE
  5
67
330
1F
100
AcDbEntity
  8
0
  6
Continuous
 62
     7
370
    25
100
AcDbLine
 10
245.7036800136
 20
334.8677163019
 30
0.0
 11
245.7036800136
 21
333.4992163019
 31
0.0
  0
LINE
  5
68
330
1F
100
AcDbEntity
  8
0
  6
Continuous
 62
     7
370
    25
100
AcDbLine
 10
245.7036800136
 20
333.4992163019
 30
0.0
 11
247.5283466802
 21
333.4992163019
 31
0.0
  0
LINE
  5
69
330
1F
100
AcDbEntity
  8
0
  6
Continuous
 62
     7
370
    25
100
AcDbLine
 10
247.5283466802
 20
333.4992163019
 30
0.0
 11
247.5283466802
 21
333.0430496352
 31
0.0
  0
LINE
  5
6A
330
1F
100
AcDbEntity
  8
0
  6
Continuous
 62
     7
370
    25
100
AcDbLine
 10
247.5283466802
 20
333.0430496352
 30
0.0
 11
245.7036800136
 21
331.8266051908
 31
0.0
  0
LINE
  5
6B
330
1F
100
AcDbEntity
  8
0
  6
Continuous
 62
     7
370
    25
100
AcDbLine
 10
245.7036800136
 20
331.8266051908
 30
0.0
 11
245.7036800136
 21
330.0323496352
 31
0.0
  0
LINE
  5
6C
330
1F
100
AcDbEntity
  8
0
  6
Continuous
 62
     7
370
    25
100
AcDbLine
 10
245.7036800136
 20
330.0323496352
 30
0.0
 11
248.2125966802
 21
331.7049607463
 31
0.0
  0
LINE
  5
6D
330
1F
100
AcDbEntity
  8
0
  6
Continuous
 62
     7
370
    25
100
AcDbLine
 10
248.2125966802
 20
331.7049607463
 30
0.0
 11
250.7215133469
 21
330.0323496352
 31
0.0
  0
LINE
  5
6E
330
1F
100
AcDbEntity
  8
0
  6
Continuous
 62
     7
370
    25
100
AcDbLine
 10
250.7215133469
 20
330.0323496352
 30
0.0
 11
250.7215133469
 21
331.8266051908
 31
0.0
  0
LINE
  5
6F
330
1F
100
AcDbEntity
  8
0
  6
Continuous
 62
     7
370
    25
100
AcDbLine
 10
248.8968466802
 20
333.0430496352
 30
0.0
 11
248.8968466802
 21
333.4992163019
 31
0.0
  0
LINE
  5
70
330
1F
100
AcDbEntity
  8
0
  6
Continuous
 62
     7
370
    25
100
AcDbLine
 10
249.3530133469
 20
338.4714329686
 30
0.0
 11
249.3530133469
 21
335.3238829686
 31
0.0
  0
LINE
  5
71
330
1F
100
AcDbEntity
  8
0
  6
Continuous
 62
     7
370
    25
100
AcDbLine
 10
249.3530133469
 20
335.3238829686
 30
0.0
 11
250.7215133469
 21
335.3238829686
 31
0.0
  0
LINE
  5
72
330
1F
100
AcDbEntity
  8
0
  6
Continuous
 62
     7
370
    25
100
AcDbLine
 10
250.7215133469
 20
335.3238829686
 30
0.0
 11
250.7215133469
 21
338.4714329686
 31
0.0
  0
LINE
  5
73
330
1F
100
AcDbEntity
  8
0
  6
Continuous
 62
     7
370
    25
100
AcDbLine
 10
250.7215133469
 20
338.4714329686
 30
0.0
 11
249.3530133469
 21
338.4714329686
 31
0.0
  0
LINE
  5
74
330
1F
100
AcDbEntity
  8
0
  6
Continuous
 62
     7
370
    25
100
AcDbLine
 10
245.7036800136
 20
340.2960996352
 30
0.0
 11
245.7036800136
 21
338.9275996352
 31
0.0
  0
LINE
  5
75
330
1F
100
AcDbEntity
  8
0
  6
Continuous
 62
     7
370
    25
100
AcDbLine
 10
245.7036800136
 20
338.9275996352
 30
0.0
 11
248.8968466802
 21
338.9275996352
 31
0.0
  0
LINE
  5
76
330
1F
100
AcDbEntity
  8
0
  6
Continuous
 62
     7
370
    25
100
AcDbLine
 10
248.8968466802
 20
338.9275996352
 30
0.0
 11
248.8968466802
 21
340.2960996352
 31
0.0
  0
LINE
  5
77
330
1F
100
AcDbEntity
  8
0
  6
Continuous
 62
     7
370
    25
100
AcDbLine
 10
248.8968466802
 20
340.2960996352
 30
0.0
 11
245.7036800136
 21
340.2960996352
 31
0.0
  0
LINE
  5
78
330
1F
100
AcDbEntity
  8
0
  6
Continuous
 62
     7
370
    25
100
AcDbLine
 10
249.3530133469
 20
340.2960996352
 30
0.0
 11
249.3530133469
 21
338.9275996352
 31
0.0
  0
LINE
  5
79
330
1F
100
AcDbEntity
  8
0
  6
Continuous
 62
     7
370
    25
100
AcDbLine
 10
249.3530133469
 20
338.9275996352
 30
0.0
 11
250.7215133469
 21
338.9275996352
 31
0.0
  0
LINE
  5
7A
330
1F
100
AcDbEntity
  8
0
  6
Continuous
 62
     7
370
    25
100
AcDbLine
 10
250.7215133469
 20
338.9275996352
 30
0.0
 11
250.7215133469
 21
340.2960996352
 31
0.0
  0
LINE
  5
7B
330
1F
100
AcDbEntity
  8
0
  6
Continuous
 62
     7
370
    25
100
AcDbLine
 10
250.7215133469
 20
340.2960996352
 30
0.0
 11
249.3530133469
 21
340.2960996352
 31
0.0
  0
LINE
  5
7C
330
1F
100
AcDbEntity
  8
0
  6
Continuous
 62
     7
370
    25
100
AcDbLine
 10
247.0721800136
 20
335.3238829686
 30
0.0
 11
247.0721800136
 21
337.1029329686
 31
0.0
  0
LINE
  5
7D
330
1F
100
AcDbEntity
  8
0
  6
Continuous
 62
     7
370
    25
100
AcDbLine
 10
247.5283466802
 20
337.1029329686
 30
0.0
 11
247.5283466802
 21
335.3238829686
 31
0.0
  0
LINE
  5
7E
330
1F
100
AcDbEntity
  8
0
  6
Continuous
 62
     7
370
    25
100
AcDbLine
 10
247.5283466802
 20
335.3238829686
 30
0.0
 11
248.8968466802
 21
335.3238829686
 31
0.0
  0
LINE
  5
7F
330
1F
100
AcDbEntity
  8
0
  6
Continuous
 62
     7
370
    25
100
AcDbLine
 10
245.7036800136
 20
338.4714329686
 30
0.0
 11
245.7036800136
 21
335.3238829686
 31
0.0
  0
LINE
  5
80
330
1F
100
AcDbEntity
  8
0
  6
Continuous
 62
     7
370
    25
100
AcDbLine
 10
245.7036800136
 20
335.3238829686
 30
0.0
 11
247.0721800136
 21
335.3238829686
 31
0.0
  0
LINE
  5
81
330
1F
100
AcDbEntity
  8
0
  6
Continuous
 62
     7
370
    25
100
AcDbLine
 10
248.8968466802
 20
335.3238829686
 30
0.0
 11
248.8968466802
 21
338.4714329686
 31
0.0
  0
LINE
  5
82
330
1F
100
AcDbEntity
  8
0
  6
Continuous
 62
     7
370
    25
100
AcDbLine
 10
247.0721800136
 20
337.1029329686
 30
0.0
 11
247.5283466802
 21
337.1029329686
 31
0.0
  0
LINE
  5
83
330
1F
100
AcDbEntity
  8
0
  6
Continuous
 62
     7
370
    25
100
AcDbLine
 10
248.8968466802
 20
338.4714329686
 30
0.0
 11
245.7036800136
 21
338.4714329686
 31
0.0
  0
LINE
  5
84
330
1F
100
AcDbEntity
  8
0
  6
Continuous
 62
     7
370
    25
100
AcDbLine
 10
262.0016389847
 20
481.1642246352
 30
0.0
 11
252.2036800136
 21
481.1642246352
 31
0.0
  0
LINE
  5
85
330
1F
100
AcDbEntity
  8
0
  6
Continuous
 62
     7
370
    25
100
AcDbLine
 10
262.0016389847
 20
189.1642246352
 30
0.0
 11
252.2036800136
 21
189.1642246352
 31
0.0
  0
LINE
  5
86
330
1F
100
AcDbEntity
  8
0
  6
Continuous
 62
     7
370
    25
100
AcDbLine
 10
252.2036800136
 20
189.1642246352
 30
0.0
 11
252.2036800136
 21
481.1642246352
 31
0.0
  0
LINE
  5
87
330
1F
100
AcDbEntity
  8
0
  6
Continuous
 62
     7
370
    25
100
AcDbLine
 10
210.3782173694
 20
443.9896872794
 30
0.0
 11
228.8782173694
 21
443.9896872794
 31
0.0
  0
LINE
  5
88
330
1F
100
AcDbEntity
  8
0
  6
Continuous
 62
     7
370
    25
100
AcDbLine
 10
228.8782173694
 20
443.9896872794
 30
0.0
 11
228.8782173694
 21
481.1642246352
 31
0.0
  0
LINE
  5
89
330
1F
100
AcDbEntity
  8
0
  6
Continuous
 62
     7
370
    25
100
AcDbLine
 10
228.8782173694
 20
189.1642246352
 30
0.0
 11
228.8782173694
 21
226.338761991
 31
0.0
  0
LINE
  5
8A
330
1F
100
AcDbEntity
  8
0
  6
Continuous
 62
     7
370
    25
100
AcDbLine
 10
228.8782173694
 20
226.338761991
 30
0.0
 11
210.3782173694
 21
226.338761991
 31
0.0
  0
LINE
  5
8B
330
1F
100
AcDbEntity
  8
0
  6
Continuous
 62
     7
370
    25
100
AcDbLine
 10
210.3782173694
 20
226.338761991
 30
0.0
 11
210.3782173694
 21
308.475709934
 31
0.0
  0
LINE
  5
8C
330
1F
100
AcDbEntity
  8
0
  6
Continuous
 62
     7
370
    25
100
AcDbLine
 10
210.3782173694
 20
308.475709934
 30
0.0
 11
227.2036800136
 21
308.475709934
 31
0.0
  0
ARC
  5
8D
330
1F
100
AcDbEntity
  8
0
  6
Continuous
 62
     7
370
    25
100
AcDbCircle
 10
227.2036800136
 20
316.1642246352
 30
0.0
 40
7.68851470122479
100
AcDbArc
 50
270.0
 51
333.425030481
  0
LINE
  5
8E
330
1F
100
AcDbEntity
  8
0
  6
Continuous
 62
     7
370
    25
100
AcDbLine
 10
234.0799013027
 20
312.7246259531
 30
0.0
 11
241.6818742752
 21
327.9219943741
 31
0.0
  0
ARC
  5
8F
330
1F
100
AcDbEntity
  8
0
  6
Continuous
 62
     7
370
    25
100
AcDbCircle
 10
227.2036800136
 20
335.1642246352
 30
0.0
 40
16.1885147012247
100
AcDbArc
 50
333.425030481
 51
26.574969519
  0
LINE
  5
90
330
1F
100
AcDbEntity
  8
0
  6
Continuous
 62
     7
370
    25
100
AcDbLine
 10
241.6818742752
 20
342.4064548963
 30
0.0
 11
234.0799013027
 21
357.6038233173
 31
0.0
  0
ARC
  5
91
330
1F
100
AcDbEntity
  8
0
  6
Continuous
 62
     7
370
    25
100
AcDbCircle
 10
227.2036800136
 20
354.1642246352
 30
0.0
 40
7.688514701224756
100
AcDbArc
 50
26.574969519
 51
90.0
  0
LINE
  5
92
330
1F
100
AcDbEntity
  8
0
  6
Continuous
 62
     7
370
    25
100
AcDbLine
 10
227.2036800136
 20
361.8527393364
 30
0.0
 11
210.3782173694
 21
361.8527393364
 31
0.0
  0
LINE
  5
93
330
1F
100
AcDbEntity
  8
0
  6
Continuous
 62
     7
370
    25
100
AcDbLine
 10
210.3782173694
 20
443.9896872794
 30
0.0
 11
210.3782173694
 21
361.8527393364
 31
0.0
  0
LINE
  5
94
330
1F
100
AcDbEntity
  8
0
  6
Continuous
 62
     7
370
    25
100
AcDbLine
 10
252.2036800136
 20
189.1642246352
 30
0.0
 11
228.8782173694
 21
189.1642246352
 31
0.0
  0
LINE
  5
95
330
1F
100
AcDbEntity
  8
0
  6
Continuous
 62
     7
370
    25
100
AcDbLine
 10
252.2036800136
 20
481.1642246352
 30
0.0
 11
228.8782173694
 21
481.1642246352
 31
0.0
  0
LINE
  5
96
330
1F
100
AcDbEntity
  8
0
  6
Continuous
 62
     7
370
    25
100
AcDbLine
 10
228.8607636338
 20
192.6991347651
 30
0.0
 11
228.7036800136
 21
193.0133259338
 31
0.0
  0
LINE
  5
97
330
1F
100
AcDbEntity
  8
0
  6
Continuous
 62
     7
370
    25
100
AcDbLine
 10
228.7036800136
 20
193.0133259338
 30
0.0
 11
228.7036800136
 21
226.1642246352
 31
0.0
  0
LINE
  5
98
330
1F
100
AcDbEntity
  8
0
  6
Continuous
 62
     7
370
    25
100
AcDbLine
 10
228.7036800136
 20
226.1642246352
 30
0.0
 11
228.8782173694
 21
226.338761991
 31
0.0
  0
LINE
  5
99
330
1F
100
AcDbEntity
  8
0
  6
Continuous
 62
     7
370
    25
100
AcDbLine
 10
228.8607636338
 20
189.1642246352
 30
0.0
 11
228.8607636338
 21
192.6991347651
 31
0.0
  0
LINE
  5
9A
330
1F
100
AcDbEntity
  8
0
  6
Continuous
 62
     7
370
    25
100
AcDbLine
 10
228.8782173694
 20
189.1642246352
 30
0.0
 11
228.8607636338
 21
189.1642246352
 31
0.0
  0
LINE
  5
9B
330
1F
100
AcDbEntity
  8
0
  6
Continuous
 62
     7
370
    25
100
AcDbLine
 10
410.0291426578
 20
204.038761991
 30
0.0
 11
391.5527813121
 21
204.038761991
 31
0.0
  0
LINE
  5
9C
330
1F
100
AcDbEntity
  8
0
  6
Continuous
 62
     7
370
    25
100
AcDbLine
 10
391.5527813121
 20
204.038761991
 30
0.0
 11
391.5527813121
 21
189.1642246352
 31
0.0
  0
LINE
  5
9D
330
1F
100
AcDbEntity
  8
0
  6
Continuous
 62
     7
370
    25
100
AcDbLine
 10
368.2036800136
 20
481.1642246352
 30
0.0
 11
368.2036800136
 21
189.1642246352
 31
0.0
  0
LINE
  5
9E
330
1F
100
AcDbEntity
  8
0
  6
Continuous
 62
     7
370
    25
100
AcDbLine
 10
391.5527813121
 20
466.2896872794
 30
0.0
 11
410.0291426578
 21
466.2896872794
 31
0.0
  0
LINE
  5
9F
330
1F
100
AcDbEntity
  8
0
  6
Continuous
 62
     7
370
    25
100
AcDbLine
 10
410.0291426578
 20
204.038761991
 30
0.0
 11
410.0291426578
 21
466.2896872794
 31
0.0
  0
LINE
  5
A0
330
1F
100
AcDbEntity
  8
0
  6
Continuous
 62
     7
370
    25
100
AcDbLine
 10
391.5527813121
 20
466.2896872794
 30
0.0
 11
391.5527813121
 21
481.1642246352
 31
0.0
  0
LINE
  5
A1
330
1F
100
AcDbEntity
  8
0
  6
Continuous
 62
     7
370
    25
100
AcDbLine
 10
391.5527813121
 20
189.1642246352
 30
0.0
 11
368.2036800136
 21
189.1642246352
 31
0.0
  0
LINE
  5
A2
330
1F
100
AcDbEntity
  8
0
  6
Continuous
 62
     7
370
    25
100
AcDbLine
 10
391.5527813121
 20
481.1642246352
 30
0.0
 11
368.2036800136
 21
481.1642246352
 31
0.0
  0
LINE
  5
A3
330
1F
100
AcDbEntity
  8
0
  6
Continuous
 62
     7
370
    25
100
AcDbLine
 10
233.9113032246
 20
357.5194877931
 30
0.0
 11
241.5132761971
 21
342.3221193721
 31
0.0
  0
LINE
  5
A4
330
1F
100
AcDbEntity
  8
0
  6
Continuous
 62
     7
370
    25
100
AcDbLine
 10
210.2036800136
 20
226.1642246352
 30
0.0
 11
210.3782173694
 21
226.338761991
 31
0.0
  0
LINE
  5
A5
330
1F
100
AcDbEntity
  8
0
  6
Continuous
 62
     7
370
    25
100
AcDbLine
 10
228.7036800136
 20
226.1642246352
 30
0.0
 11
210.2036800136
 21
226.1642246352
 31
0.0
  0
LINE
  5
A6
330
1F
100
AcDbEntity
  8
0
  6
Continuous
 62
     7
370
    25
100
AcDbLine
 10
210.2839671972
 20
308.6642246352
 30
0.0
 11
210.3782173694
 21
308.475709934
 31
0.0
  0
LINE
  5
A7
330
1F
100
AcDbEntity
  8
0
  6
Continuous
 62
     7
370
    25
100
AcDbLine
 10
210.2036800136
 20
250.1642246352
 30
0.0
 11
210.2036800136
 21
226.1642246352
 31
0.0
  0
LINE
  5
A8
330
1F
100
AcDbEntity
  8
0
  6
Continuous
 62
     7
370
    25
100
AcDbLine
 10
210.2036800136
 20
250.1642246352
 30
0.0
 11
210.3090116464
 21
250.3749039459
 31
0.0
  0
ELLIPSE
  5
A9
330
1F
100
AcDbEntity
  8
0
  6
Continuous
 62
     7
370
    25
100
AcDbEllipse
 10
210.3084024271
 20
254.3742947265
 30
0.0
 11
0.0
 21
4.000000000000028
 31
0.0
210
0.0
220
0.0
230
1.0
 40
0.0087268678
 41
3.159045946111431
 42
4.71238898038469
  0
LINE
  5
AA
330
1F
100
AcDbEntity
  8
0
  6
Continuous
 62
     7
370
    25
100
AcDbLine
 10
210.3433098982
 20
254.3742947265
 30
0.0
 11
210.3433098982
 21
285.9541545439
 31
0.0
  0
ELLIPSE
  5
AB
330
1F
100
AcDbEntity
  8
0
  6
Continuous
 62
     7
370
    25
100
AcDbEllipse
 10
210.3084024271
 20
285.9541545439
 30
0.0
 11
0.0
 21
4.0
 31
0.0
210
0.0
220
0.0
230
1.0
 40
0.0087268678
 41
4.71238898038469
 42
6.265732014661111
  0
LINE
  5
AC
330
1F
100
AcDbEntity
  8
0
  6
Continuous
 62
     7
370
    25
100
AcDbLine
 10
210.3090116464
 20
289.9535453245
 30
0.0
 11
210.2036800136
 21
290.1642246352
 31
0.0
  0
LINE
  5
AD
330
1F
100
AcDbEntity
  8
0
  6
Continuous
 62
     7
370
    25
100
AcDbLine
 10
210.2036800136
 20
380.1642246352
 30
0.0
 11
210.2036800136
 21
290.1642246352
 31
0.0
  0
LINE
  5
AE
330
1F
100
AcDbEntity
  8
0
  6
Continuous
 62
     7
370
    25
100
AcDbLine
 10
210.3090116464
 20
380.3749039459
 30
0.0
 11
210.2036800136
 21
380.1642246352
 31
0.0
  0
ELLIPSE
  5
AF
330
1F
100
AcDbEntity
  8
0
  6
Continuous
 62
     7
370
    25
100
AcDbEllipse
 10
210.3084024271
 20
384.3742947265
 30
0.0
 11
0.0
 21
4.0
 31
0.0
210
0.0
220
0.0
230
1.0
 40
0.0087268678
 41
3.15904594611143
 42
4.712388980384675
  0
LINE
  5
B0
330
1F
100
AcDbEntity
  8
0
  6
Continuous
 62
     7
370
    25
100
AcDbLine
 10
210.3433098982
 20
415.9541545439
 30
0.0
 11
210.3433098982
 21
384.3742947265
 31
0.0
  0
ELLIPSE
  5
B1
330
1F
100
AcDbEntity
  8
0
  6
Continuous
 62
     7
370
    25
100
AcDbEllipse
 10
210.3084024271
 20
415.9541545439
 30
0.0
 11
0.0
 21
4.0
 31
0.0
210
0.0
220
0.0
230
1.0
 40
0.0087268678
 41
4.71238898038469
 42
6.265732014661111
  0
LINE
  5
B2
330
1F
100
AcDbEntity
  8
0
  6
Continuous
 62
     7
370
    25
100
AcDbLine
 10
210.2036800136
 20
420.1642246352
 30
0.0
 11
210.3090116464
 21
419.9535453245
 31
0.0
  0
LINE
  5
B3
330
1F
100
AcDbEntity
  8
0
  6
Continuous
 62
     7
370
    25
100
AcDbLine
 10
210.2036800136
 20
444.1642246352
 30
0.0
 11
210.2036800136
 21
420.1642246352
 31
0.0
  0
LINE
  5
B4
330
1F
100
AcDbEntity
  8
0
  6
Continuous
 62
     7
370
    25
100
AcDbLine
 10
210.2036800136
 20
444.1642246352
 30
0.0
 11
210.3782173694
 21
443.9896872794
 31
0.0
  0
LINE
  5
B5
330
1F
100
AcDbEntity
  8
0
  6
Continuous
 62
     7
370
    25
100
AcDbLine
 10
210.2839671972
 20
361.6642246352
 30
0.0
 11
210.3782173694
 21
361.8527393364
 31
0.0
  0
LINE
  5
B6
330
1F
100
AcDbEntity
  8
0
  6
Continuous
 62
     7
370
    25
100
AcDbLine
 10
210.2839671972
 20
361.6642246352
 30
0.0
 11
210.2839671972
 21
308.6642246352
 31
0.0
  0
LINE
  5
B7
330
1F
100
AcDbEntity
  8
0
  6
Continuous
 62
     7
370
    25
100
AcDbLine
 10
368.2036800136
 20
189.1642246352
 30
0.0
 11
358.4057210424
 21
189.1642246352
 31
0.0
  0
LINE
  5
B8
330
1F
100
AcDbEntity
  8
0
  6
Continuous
 62
     7
370
    25
100
AcDbLine
 10
368.2036800136
 20
481.1642246352
 30
0.0
 11
358.4057210424
 21
481.1642246352
 31
0.0
  0
LINE
  5
B9
330
1F
100
AcDbEntity
  8
0
  6
Continuous
 62
     7
370
    25
100
AcDbLine
 10
410.1863772767
 20
466.4469218983
 30
0.0
 11
410.0291426578
 21
466.2896872794
 31
0.0
  0
LINE
  5
BA
330
1F
100
AcDbEntity
  8
0
  6
Continuous
 62
     7
370
    25
100
AcDbLine
 10
410.1863772767
 20
203.8815273721
 30
0.0
 11
410.1863772767
 21
466.4469218983
 31
0.0
  0
LINE
  5
BB
330
1F
100
AcDbEntity
  8
0
  6
Continuous
 62
     7
370
    25
100
AcDbLine
 10
410.1863772767
 20
203.8815273721
 30
0.0
 11
410.0291426578
 21
204.038761991
 31
0.0
  0
ARC
  5
BC
330
1F
100
AcDbEntity
  8
0
  6
Continuous
 62
     7
370
    25
100
AcDbCircle
 10
227.2036800136
 20
354.1642246352
 30
0.0
 40
7.5
100
AcDbArc
 50
26.574969519
 51
90.0
  0
LINE
  5
BD
330
1F
100
AcDbEntity
  8
0
  6
Continuous
 62
     7
370
    25
100
AcDbLine
 10
228.7036800136
 20
444.1642246352
 30
0.0
 11
228.8782173694
 21
443.9896872794
 31
0.0
  0
LINE
  5
BE
330
1F
100
AcDbEntity
  8
0
  6
Continuous
 62
     7
370
    25
100
AcDbLine
 10
228.7036800136
 20
444.1642246352
 30
0.0
 11
228.7036800136
 21
477.3151233367
 31
0.0
  0
LINE
  5
BF
330
1F
100
AcDbEntity
  8
0
  6
Continuous
 62
     7
370
    25
100
AcDbLine
 10
228.7036800136
 20
477.3151233367
 30
0.0
 11
228.8607636338
 21
477.6293145054
 31
0.0
  0
LINE
  5
C0
330
1F
100
AcDbEntity
  8
0
  6
Continuous
 62
     7
370
    25
100
AcDbLine
 10
228.8607636338
 20
481.1642246352
 30
0.0
 11
228.8607636338
 21
477.6293145054
 31
0.0
  0
LINE
  5
C1
330
1F
100
AcDbEntity
  8
0
  6
Continuous
 62
     7
370
    25
100
AcDbLine
 10
228.8782173694
 20
481.1642246352
 30
0.0
 11
228.8607636338
 21
481.1642246352
 31
0.0
  0
LINE
  5
C2
330
1F
100
AcDbEntity
  8
0
  6
Continuous
 62
     7
370
    25
100
AcDbLine
 10
408.2036800136
 20
203.8642246352
 30
0.0
 11
410.1863772767
 21
203.8815273721
 31
0.0
  0
LINE
  5
C3
330
1F
100
AcDbEntity
  8
0
  6
Continuous
 62
     7
370
    25
100
AcDbLine
 10
408.2036800136
 20
203.8642246352
 30
0.0
 11
391.5527813121
 21
203.8642246352
 31
0.0
  0
ARC
  5
C4
330
1F
100
AcDbEntity
  8
0
  6
Continuous
 62
     7
370
    25
100
AcDbCircle
 10
227.2036800136
 20
316.1642246352
 30
0.0
 40
7.5
100
AcDbArc
 50
270.0
 51
333.425030481
  0
LINE
  5
C5
330
1F
100
AcDbEntity
  8
0
  6
Continuous
 62
     7
370
    25
100
AcDbLine
 10
241.5132761971
 20
328.0063298984
 30
0.0
 11
233.9113032246
 21
312.8089614773
 31
0.0
  0
LINE
  5
C6
330
1F
100
AcDbEntity
  8
0
  6
Continuous
 62
     7
370
    25
100
AcDbLine
 10
391.5527813121
 20
466.4642246352
 30
0.0
 11
408.2036800136
 21
466.4642246352
 31
0.0
  0
LINE
  5
C7
330
1F
100
AcDbEntity
  8
0
  6
Continuous
 62
     7
370
    25
100
AcDbLine
 10
410.1863772767
 20
466.4469218983
 30
0.0
 11
408.2036800136
 21
466.4642246352
 31
0.0
  0
LINE
  5
C8
330
1F
100
AcDbEntity
  8
0
  6
Continuous
 62
     7
370
    25
100
AcDbLine
 10
210.2839671972
 20
361.6642246352
 30
0.0
 11
227.2036800136
 21
361.6642246352
 31
0.0
  0
LINE
  5
C9
330
1F
100
AcDbEntity
  8
0
  6
Continuous
 62
     7
370
    25
100
AcDbLine
 10
210.2036800136
 20
444.1642246352
 30
0.0
 11
228.7036800136
 21
444.1642246352
 31
0.0
  0
LINE
  5
CA
330
1F
100
AcDbEntity
  8
0
  6
Continuous
 62
     7
370
    25
100
AcDbLine
 10
227.2036800136
 20
308.6642246352
 30
0.0
 11
210.2839671972
 21
308.6642246352
 31
0.0
  0
ARC
  5
CB
330
1F
100
AcDbEntity
  8
0
  6
Continuous
 62
     7
370
    25
100
AcDbCircle
 10
227.2036800136
 20
335.1642246352
 30
0.0
 40
15.99999999999998
100
AcDbArc
 50
333.425030481
 51
26.574969519
  0
LINE
  5
CC
330
1F
100
AcDbEntity
  8
0
  6
Continuous
 62
     7
370
    25
100
AcDbLine
 10
233.8369295943
 20
316.6642246352
 30
0.0
 11
240.0279625363
 21
328.3975579686
 31
0.0
  0
ARC
  5
CD
330
1F
100
AcDbEntity
  8
0
  6
Continuous
 62
     7
370
    25
100
AcDbCircle
 10
227.2036800136
 20
320.1642246352
 30
0.0
 40
7.50000000000001
100
AcDbArc
 50
207.8181392847
 51
332.1818607153
  0
ARC
  5
CE
330
1F
100
AcDbEntity
  8
0
  6
Continuous
 62
     7
370
    25
100
AcDbCircle
 10
227.2036800136
 20
335.1642246352
 30
0.0
 40
14.49999999999998
100
AcDbArc
 50
332.1818607153
 51
207.8181392847
  0
LINE
  5
CF
330
1F
100
AcDbEntity
  8
0
  6
Continuous
 62
     7
370
    25
100
AcDbLine
 10
214.3793974909
 20
328.3975579686
 30
0.0
 11
220.5704304329
 21
316.6642246352
 31
0.0
  0
LINE
  5
D0
330
1F
100
AcDbEntity
  8
0
  6
Continuous
 62
     7
370
    25
100
AcDbLine
 10
358.4057210424
 20
189.1642246352
 30
0.0
 11
262.0016389847
 21
189.1642246352
 31
0.0
  0
LINE
  5
D1
330
1F
100
AcDbEntity
  8
0
  6
Continuous
 62
     7
370
    25
100
AcDbLine
 10
358.4057210424
 20
481.1642246352
 30
0.0
 11
262.0016389847
 21
481.1642246352
 31
0.0
  0
LINE
  5
D2
330
1F
100
AcDbEntity
  8
0
  6
Continuous
 62
     7
370
    25
100
AcDbLine
 10
409.8022135202
 20
202.763506676
 30
0.0
 11
410.2036800136
 21
202.9642246352
 31
0.0
  0
LINE
  5
D3
330
1F
100
AcDbEntity
  8
0
  6
Continuous
 62
     7
370
    25
100
AcDbLine
 10
410.2036800136
 20
185.1642246352
 30
0.0
 11
410.2036800136
 21
202.9642246352
 31
0.0
  0
LINE
  5
D4
330
1F
100
AcDbEntity
  8
0
  6
Continuous
 62
     7
370
    25
100
AcDbLine
 10
409.8022135202
 20
185.5656911286
 30
0.0
 11
410.2036800136
 21
185.1642246352
 31
0.0
  0
LINE
  5
D5
330
1F
100
AcDbEntity
  8
0
  6
Continuous
 62
     7
370
    25
100
AcDbLine
 10
409.8022135202
 20
201.6042964262
 30
0.0
 11
409.8022135202
 21
185.5656911286
 31
0.0
  0
LINE
  5
D6
330
1F
100
AcDbEntity
  8
0
  6
Continuous
 62
     7
370
    25
100
AcDbLine
 10
409.8022135202
 20
202.763506676
 30
0.0
 11
409.8022135202
 21
201.6042964262
 31
0.0
  0
LINE
  5
D7
330
1F
100
AcDbEntity
  8
0
  6
Continuous
 62
     7
370
    25
100
AcDbLine
 10
210.6051465069
 20
445.5656911286
 30
0.0
 11
210.2036800136
 21
445.1642246352
 31
0.0
  0
LINE
  5
D8
330
1F
100
AcDbEntity
  8
0
  6
Continuous
 62
     7
370
    25
100
AcDbLine
 10
210.6051465069
 20
445.5656911286
 30
0.0
 11
227.3022135202
 21
445.5656911286
 31
0.0
  0
LINE
  5
D9
330
1F
100
AcDbEntity
  8
0
  6
Continuous
 62
     7
370
    25
100
AcDbLine
 10
227.3022135202
 20
445.5656911286
 30
0.0
 11
227.7036800136
 21
445.1642246352
 31
0.0
  0
LINE
  5
DA
330
1F
100
AcDbEntity
  8
0
  6
Continuous
 62
     7
370
    25
100
AcDbLine
 10
210.2036800136
 20
445.1642246352
 30
0.0
 11
227.7036800136
 21
445.1642246352
 31
0.0
  0
ELLIPSE
  5
DB
330
1F
100
AcDbEntity
  8
0
  6
Continuous
 62
     7
370
    25
100
AcDbEllipse
 10
358.5056782978
 20
483.1671576219
 30
0.0
 11
25.00000000000006
 21
0.0
 31
0.0
210
0.0
220
0.0
230
1.0
 40
0.0174550649
 41
4.71238898038469
 42
5.115104821965469
  0
ELLIPSE
  5
DC
330
1F
100
AcDbEntity
  8
0
  6
Continuous
 62
     7
370
    25
100
AcDbEllipse
 10
358.5056782978
 20
484.3612916485
 30
0.0
 11
25.00000000000006
 21
0.0
 31
0.0
210
0.0
220
0.0
230
1.0
 40
0.0174550649
 41
1.168080485214241
 42
1.570796326794897
  0
LINE
  5
DD
330
1F
100
AcDbEntity
  8
0
  6
Continuous
 62
     7
370
    25
100
AcDbLine
 10
368.3036372689
 20
484.7627581419
 30
0.0
 11
368.3036372689
 21
482.7656911286
 31
0.0
  0
LINE
  5
DE
330
1F
100
AcDbEntity
  8
0
  6
Continuous
 62
     7
370
    25
100
AcDbLine
 10
409.8022135202
 20
467.5649425944
 30
0.0
 11
392.6043979728
 21
467.5649425944
 31
0.0
  0
LINE
  5
DF
330
1F
100
AcDbEntity
  8
0
  6
Continuous
 62
     7
370
    25
100
AcDbLine
 10
409.8022135202
 20
467.5649425944
 30
0.0
 11
410.2036800136
 21
467.3642246352
 31
0.0
  0
LINE
  5
E0
330
1F
100
AcDbEntity
  8
0
  6
Continuous
 62
     7
370
    25
100
AcDbLine
 10
410.2036800136
 20
467.3642246352
 30
0.0
 11
392.4036800136
 21
467.3642246352
 31
0.0
  0
LINE
  5
E1
330
1F
100
AcDbEntity
  8
0
  6
Continuous
 62
     7
370
    25
100
AcDbLine
 10
392.6043979728
 20
467.5649425944
 30
0.0
 11
392.4036800136
 21
467.3642246352
 31
0.0
  0
LINE
  5
E2
330
1F
100
AcDbEntity
  8
0
  6
Continuous
 62
     7
370
    25
100
AcDbLine
 10
210.2036800136
 20
185.1642246352
 30
0.0
 11
210.6051465069
 21
185.5656911286
 31
0.0
  0
LINE
  5
E3
330
1F
100
AcDbEntity
  8
0
  6
Continuous
 62
     7
370
    25
100
AcDbLine
 10
210.6051465069
 20
185.5656911286
 30
0.0
 11
252.1037227582
 21
185.5656911286
 31
0.0
  0
ELLIPSE
  5
E4
330
1F
100
AcDbEntity
  8
0
  6
Continuous
 62
     7
370
    25
100
AcDbEllipse
 10
261.9016817294
 20
185.9671576219
 30
0.0
 11
25.00000000000006
 21
0.0
 31
0.0
210
0.0
220
0.0
230
1.0
 40
0.0174550649
 41
4.309673138804111
 42
4.71238898038469
  0
LINE
  5
E5
330
1F
100
AcDbEntity
  8
0
  6
Continuous
 62
     7
370
    25
100
AcDbLine
 10
261.9016817294
 20
185.5307809987
 30
0.0
 11
358.5056782978
 21
185.5307809987
 31
0.0
  0
ELLIPSE
  5
E6
330
1F
100
AcDbEntity
  8
0
  6
Continuous
 62
     7
370
    25
100
AcDbEllipse
 10
358.5056782978
 20
185.9671576219
 30
0.0
 11
25.00000000000006
 21
0.0
 31
0.0
210
0.0
220
0.0
230
1.0
 40
0.0174550649
 41
4.71238898038469
 42
5.115104821965515
  0
LINE
  5
E7
330
1F
100
AcDbEntity
  8
0
  6
Continuous
 62
     7
370
    25
100
AcDbLine
 10
368.3036372689
 20
185.5656911286
 30
0.0
 11
394.0867990216
 21
185.5656911286
 31
0.0
  0
LINE
  5
E8
330
1F
100
AcDbEntity
  8
0
  6
Continuous
 62
     7
370
    25
100
AcDbLine
 10
394.0867990216
 20
185.5656911286
 30
0.0
 11
409.8022135202
 21
185.5656911286
 31
0.0
  0
LINE
  5
E9
330
1F
100
AcDbEntity
  8
0
  6
Continuous
 62
     7
370
    25
100
AcDbLine
 10
210.2036800136
 20
185.1642246352
 30
0.0
 11
410.2036800136
 21
185.1642246352
 31
0.0
  0
LINE
  5
EA
330
1F
100
AcDbEntity
  8
0
  6
Continuous
 62
     7
370
    25
100
AcDbLine
 10
227.3022135202
 20
187.5627581419
 30
0.0
 11
227.3022135202
 21
224.7627581419
 31
0.0
  0
LINE
  5
EB
330
1F
100
AcDbEntity
  8
0
  6
Continuous
 62
     7
370
    25
100
AcDbLine
 10
227.3022135202
 20
224.7627581419
 30
0.0
 11
227.7036800136
 21
225.1642246352
 31
0.0
  0
LINE
  5
EC
330
1F
100
AcDbEntity
  8
0
  6
Continuous
 62
     7
370
    25
100
AcDbLine
 10
227.7036800136
 20
187.9642246352
 30
0.0
 11
227.7036800136
 21
225.1642246352
 31
0.0
  0
LINE
  5
ED
330
1F
100
AcDbEntity
  8
0
  6
Continuous
 62
     7
370
    25
100
AcDbLine
 10
227.7036800136
 20
187.9642246352
 30
0.0
 11
227.3022135202
 21
187.5627581419
 31
0.0
  0
LINE
  5
EE
330
1F
100
AcDbEntity
  8
0
  6
Continuous
 62
     7
370
    25
100
AcDbLine
 10
210.6051465069
 20
224.7627581419
 30
0.0
 11
210.2036800136
 21
225.1642246352
 31
0.0
  0
LINE
  5
EF
330
1F
100
AcDbEntity
  8
0
  6
Continuous
 62
     7
370
    25
100
AcDbLine
 10
227.7036800136
 20
225.1642246352
 30
0.0
 11
210.2036800136
 21
225.1642246352
 31
0.0
  0
LINE
  5
F0
330
1F
100
AcDbEntity
  8
0
  6
Continuous
 62
     7
370
    25
100
AcDbLine
 10
227.3022135202
 20
224.7627581419
 30
0.0
 11
210.6051465069
 21
224.7627581419
 31
0.0
  0
LINE
  5
F1
330
1F
100
AcDbEntity
  8
0
  6
Continuous
 62
     7
370
    25
100
AcDbLine
 10
210.6051465069
 20
224.7627581419
 30
0.0
 11
210.6051465069
 21
185.5656911286
 31
0.0
  0
LINE
  5
F2
330
1F
100
AcDbEntity
  8
0
  6
Continuous
 62
     7
370
    25
100
AcDbLine
 10
210.2036800136
 20
225.1642246352
 30
0.0
 11
210.2036800136
 21
185.1642246352
 31
0.0
  0
LINE
  5
F3
330
1F
100
AcDbEntity
  8
0
  6
Continuous
 62
     7
370
    25
100
AcDbLine
 10
210.2036800136
 20
485.1642246352
 30
0.0
 11
210.2036800136
 21
445.1642246352
 31
0.0
  0
LINE
  5
F4
330
1F
100
AcDbEntity
  8
0
  6
Continuous
 62
     7
370
    25
100
AcDbLine
 10
210.2036800136
 20
485.1642246352
 30
0.0
 11
210.6051465069
 21
484.7627581419
 31
0.0
  0
LINE
  5
F5
330
1F
100
AcDbEntity
  8
0
  6
Continuous
 62
     7
370
    25
100
AcDbLine
 10
210.6051465069
 20
445.5656911286
 30
0.0
 11
210.6051465069
 21
484.7627581419
 31
0.0
  0
LINE
  5
F6
330
1F
100
AcDbEntity
  8
0
  6
Continuous
 62
     7
370
    25
100
AcDbLine
 10
252.1037227582
 20
187.5627581419
 30
0.0
 11
252.1037227582
 21
185.5656911286
 31
0.0
  0
LINE
  5
F7
330
1F
100
AcDbEntity
  8
0
  6
Continuous
 62
     7
370
    25
100
AcDbLine
 10
252.1037227582
 20
187.5627581419
 30
0.0
 11
227.3022135202
 21
187.5627581419
 31
0.0
  0
LINE
  5
F8
330
1F
100
AcDbEntity
  8
0
  6
Continuous
 62
     7
370
    25
100
AcDbLine
 10
368.3036372689
 20
187.5627581419
 30
0.0
 11
368.3036372689
 21
185.5656911286
 31
0.0
  0
LINE
  5
F9
330
1F
100
AcDbEntity
  8
0
  6
Continuous
 62
     7
370
    25
100
AcDbLine
 10
392.6043979728
 20
187.5627581419
 30
0.0
 11
368.3036372689
 21
187.5627581419
 31
0.0
  0
LINE
  5
FA
330
1F
100
AcDbEntity
  8
0
  6
Continuous
 62
     7
370
    25
100
AcDbLine
 10
392.6043979728
 20
202.763506676
 30
0.0
 11
392.6043979728
 21
187.5627581419
 31
0.0
  0
LINE
  5
FB
330
1F
100
AcDbEntity
  8
0
  6
Continuous
 62
     7
370
    25
100
AcDbLine
 10
409.8022135202
 20
202.763506676
 30
0.0
 11
392.6043979728
 21
202.763506676
 31
0.0
  0
LINE
  5
FC
330
1F
100
AcDbEntity
  8
0
  6
Continuous
 62
     7
370
    25
100
AcDbLine
 10
210.6051465069
 20
484.7627581419
 30
0.0
 11
252.1037227582
 21
484.7627581419
 31
0.0
  0
LINE
  5
FD
330
1F
100
AcDbEntity
  8
0
  6
Continuous
 62
     7
370
    25
100
AcDbLine
 10
252.1037227582
 20
484.7627581419
 30
0.0
 11
252.1037227582
 21
482.7656911286
 31
0.0
  0
LINE
  5
FE
330
1F
100
AcDbEntity
  8
0
  6
Continuous
 62
     7
370
    25
100
AcDbLine
 10
252.1037227582
 20
482.7656911286
 30
0.0
 11
227.3022135202
 21
482.7656911286
 31
0.0
  0
LINE
  5
FF
330
1F
100
AcDbEntity
  8
0
  6
Continuous
 62
     7
370
    25
100
AcDbLine
 10
227.3022135202
 20
445.5656911286
 30
0.0
 11
227.3022135202
 21
482.7656911286
 31
0.0
  0
LINE
  5
100
330
1F
100
AcDbEntity
  8
0
  6
Continuous
 62
     7
370
    25
100
AcDbLine
 10
227.3022135202
 20
482.7656911286
 30
0.0
 11
227.7036800136
 21
482.3642246352
 31
0.0
  0
LINE
  5
101
330
1F
100
AcDbEntity
  8
0
  6
Continuous
 62
     7
370
    25
100
AcDbLine
 10
227.7036800136
 20
445.1642246352
 30
0.0
 11
227.7036800136
 21
482.3642246352
 31
0.0
  0
ELLIPSE
  5
102
330
1F
100
AcDbEntity
  8
0
  6
Continuous
 62
     7
370
    25
100
AcDbEllipse
 10
358.5056782978
 20
187.1612916485
 30
0.0
 11
25.00000000000006
 21
0.0
 31
0.0
210
0.0
220
0.0
230
1.0
 40
0.0174550649
 41
1.168080485214292
 42
1.570796326794897
  0
LINE
  5
103
330
1F
100
AcDbEntity
  8
0
  6
Continuous
 62
     7
370
    25
100
AcDbLine
 10
261.9016817294
 20
187.5976682717
 30
0.0
 11
358.5056782978
 21
187.5976682717
 31
0.0
  0
ELLIPSE
  5
104
330
1F
100
AcDbEntity
  8
0
  6
Continuous
 62
     7
370
    25
100
AcDbEllipse
 10
261.9016817294
 20
187.1612916485
 30
0.0
 11
25.00000000000006
 21
0.0
 31
0.0
210
0.0
220
0.0
230
1.0
 40
0.0174550649
 41
1.570796326794897
 42
1.973512168375496
  0
LINE
  5
105
330
1F
100
AcDbEntity
  8
0
  6
Continuous
 62
     7
370
    25
100
AcDbLine
 10
392.4036800136
 20
187.9642246352
 30
0.0
 11
227.7036800136
 21
187.9642246352
 31
0.0
  0
LINE
  5
106
330
1F
100
AcDbEntity
  8
0
  6
Continuous
 62
     7
370
    25
100
AcDbLine
 10
392.6043979728
 20
187.5627581419
 30
0.0
 11
392.4036800136
 21
187.9642246352
 31
0.0
  0
LINE
  5
107
330
1F
100
AcDbEntity
  8
0
  6
Continuous
 62
     7
370
    25
100
AcDbLine
 10
409.8022135202
 20
467.5649425944
 30
0.0
 11
409.8022135202
 21
468.7241528443
 31
0.0
  0
LINE
  5
108
330
1F
100
AcDbEntity
  8
0
  6
Continuous
 62
     7
370
    25
100
AcDbLine
 10
409.8022135202
 20
468.7241528443
 30
0.0
 11
409.8022135202
 21
484.7627581419
 31
0.0
  0
LINE
  5
109
330
1F
100
AcDbEntity
  8
0
  6
Continuous
 62
     7
370
    25
100
AcDbLine
 10
410.2036800136
 20
485.1642246352
 30
0.0
 11
409.8022135202
 21
484.7627581419
 31
0.0
  0
LINE
  5
10A
330
1F
100
AcDbEntity
  8
0
  6
Continuous
 62
     7
370
    25
100
AcDbLine
 10
410.2036800136
 20
467.3642246352
 30
0.0
 11
410.2036800136
 21
485.1642246352
 31
0.0
  0
LINE
  5
10B
330
1F
100
AcDbEntity
  8
0
  6
Continuous
 62
     7
370
    25
100
AcDbLine
 10
392.6043979728
 20
467.5649425944
 30
0.0
 11
392.6043979728
 21
482.7656911286
 31
0.0
  0
LINE
  5
10C
330
1F
100
AcDbEntity
  8
0
  6
Continuous
 62
     7
370
    25
100
AcDbLine
 10
392.4036800136
 20
467.3642246352
 30
0.0
 11
392.4036800136
 21
482.3642246352
 31
0.0
  0
LINE
  5
10D
330
1F
100
AcDbEntity
  8
0
  6
Continuous
 62
     7
370
    25
100
AcDbLine
 10
392.6043979728
 20
482.7656911286
 30
0.0
 11
392.4036800136
 21
482.3642246352
 31
0.0
  0
LINE
  5
10E
330
1F
100
AcDbEntity
  8
0
  6
Continuous
 62
     7
370
    25
100
AcDbLine
 10
392.6043979728
 20
202.763506676
 30
0.0
 11
392.4036800136
 21
202.9642246352
 31
0.0
  0
LINE
  5
10F
330
1F
100
AcDbEntity
  8
0
  6
Continuous
 62
     7
370
    25
100
AcDbLine
 10
392.4036800136
 20
202.9642246352
 30
0.0
 11
392.4036800136
 21
187.9642246352
 31
0.0
  0
LINE
  5
110
330
1F
100
AcDbEntity
  8
0
  6
Continuous
 62
     7
370
    25
100
AcDbLine
 10
410.2036800136
 20
202.9642246352
 30
0.0
 11
392.4036800136
 21
202.9642246352
 31
0.0
  0
LINE
  5
111
330
1F
100
AcDbEntity
  8
0
  6
Continuous
 62
     7
370
    25
100
AcDbLine
 10
261.9016817294
 20
484.7976682717
 30
0.0
 11
358.5056782978
 21
484.7976682717
 31
0.0
  0
ELLIPSE
  5
112
330
1F
100
AcDbEntity
  8
0
  6
Continuous
 62
     7
370
    25
100
AcDbEllipse
 10
261.9016817294
 20
484.3612916485
 30
0.0
 11
25.00000000000006
 21
0.0
 31
0.0
210
0.0
220
0.0
230
1.0
 40
0.0174550649
 41
1.570796326794897
 42
1.973512168375551
  0
LINE
  5
113
330
1F
100
AcDbEntity
  8
0
  6
Continuous
 62
     7
370
    25
100
AcDbLine
 10
410.2036800136
 20
485.1642246352
 30
0.0
 11
210.2036800136
 21
485.1642246352
 31
0.0
  0
LINE
  5
114
330
1F
100
AcDbEntity
  8
0
  6
Continuous
 62
     7
370
    25
100
AcDbLine
 10
409.8022135202
 20
484.7627581419
 30
0.0
 11
394.0867990216
 21
484.7627581419
 31
0.0
  0
LINE
  5
115
330
1F
100
AcDbEntity
  8
0
  6
Continuous
 62
     7
370
    25
100
AcDbLine
 10
368.3036372689
 20
484.7627581419
 30
0.0
 11
394.0867990216
 21
484.7627581419
 31
0.0
  0
LINE
  5
116
330
1F
100
AcDbEntity
  8
0
  6
Continuous
 62
     7
370
    25
100
AcDbLine
 10
392.6043979728
 20
482.7656911286
 30
0.0
 11
368.3036372689
 21
482.7656911286
 31
0.0
  0
ELLIPSE
  5
117
330
1F
100
AcDbEntity
  8
0
  6
Continuous
 62
     7
370
    25
100
AcDbEllipse
 10
261.9016817294
 20
483.1671576219
 30
0.0
 11
25.00000000000006
 21
0.0
 31
0.0
210
0.0
220
0.0
230
1.0
 40
0.0174550649
 41
4.309673138804158
 42
4.71238898038469
  0
LINE
  5
118
330
1F
100
AcDbEntity
  8
0
  6
Continuous
 62
     7
370
    25
100
AcDbLine
 10
261.9016817294
 20
482.7307809987
 30
0.0
 11
358.5056782978
 21
482.7307809987
 31
0.0
  0
LINE
  5
119
330
1F
100
AcDbEntity
  8
0
  6
Continuous
 62
     7
370
    25
100
AcDbLine
 10
227.7036800136
 20
482.3642246352
 30
0.0
 11
392.4036800136
 21
482.3642246352
 31
0.0
  0
LINE
  5
11A
330
1F
100
AcDbEntity
  8
0
  6
Continuous
 62
     7
370
    25
100
AcDbLine
 10
410.2036800136
 20
202.9642246352
 30
0.0
 11
410.2036800136
 21
467.3642246352
 31
0.0
  0
LINE
  5
11B
330
1F
100
AcDbEntity
  8
0
  6
Continuous
 62
     7
370
    25
100
AcDbLine
 10
210.2036800136
 20
445.1642246352
 30
0.0
 11
210.2036800136
 21
444.1642246352
 31
0.0
  0
LINE
  5
11C
330
1F
100
AcDbEntity
  8
0
  6
Continuous
 62
     7
370
    25
100
AcDbLine
 10
210.2036800136
 20
420.1642246352
 30
0.0
 11
210.2036800136
 21
380.1642246352
 31
0.0
  0
LINE
  5
11D
330
1F
100
AcDbEntity
  8
0
  6
Continuous
 62
     7
370
    25
100
AcDbLine
 10
210.2036800136
 20
290.1642246352
 30
0.0
 11
210.2036800136
 21
250.1642246352
 31
0.0
  0
LINE
  5
11E
330
1F
100
AcDbEntity
  8
0
  6
Continuous
 62
     7
370
    25
100
AcDbLine
 10
210.2036800136
 20
226.1642246352
 30
0.0
 11
210.2036800136
 21
225.1642246352
 31
0.0
  0
LINE
  5
11F
330
1F
100
AcDbEntity
  8
0
  6
Continuous
 62
     7
370
    25
100
AcDbLine
 10
588.7788569393
 20
349.6642246352
 30
0.0
 11
578.7788569393
 21
349.6642246352
 31
0.0
  0
LINE
  5
120
330
1F
100
AcDbEntity
  8
0
  6
Continuous
 62
     7
370
    25
100
AcDbLine
 10
578.7788569393
 20
312.6642246352
 30
0.0
 11
588.7788569393
 21
312.6642246352
 31
0.0
  0
LINE
  5
121
330
1F
100
AcDbEntity
  8
0
  6
Continuous
 62
     7
370
    25
100
AcDbLine
 10
578.7788569393
 20
308.6642246352
 30
0.0
 11
589.5788569393
 21
308.475709934
 31
0.0
  0
LINE
  5
122
330
1F
100
AcDbEntity
  8
0
  6
Continuous
 62
     7
370
    25
100
AcDbLine
 10
589.5788569393
 20
226.338761991
 30
0.0
 11
589.5788569393
 21
308.475709934
 31
0.0
  0
LINE
  5
123
330
1F
100
AcDbEntity
  8
0
  6
Continuous
 62
     7
370
    25
100
AcDbLine
 10
569.5788569393
 20
226.1642246352
 30
0.0
 11
589.5788569393
 21
226.338761991
 31
0.0
  0
LINE
  5
124
330
1F
100
AcDbEntity
  8
0
  6
Continuous
 62
     7
370
    25
100
AcDbLine
 10
569.5788569393
 20
250.1642246352
 30
0.0
 11
569.5788569393
 21
226.1642246352
 31
0.0
  0
LINE
  5
125
330
1F
100
AcDbEntity
  8
0
  6
Continuous
 62
     7
370
    25
100
AcDbLine
 10
569.5788569393
 20
250.1642246352
 30
0.0
 11
581.648666565
 21
250.3749039459
 31
0.0
  0
ARC
  5
126
330
1F
100
AcDbEntity
  8
0
  6
Continuous
 62
     7
370
    25
100
AcDbCircle
 10
581.5788569393
 20
254.3742947265
 30
0.0
 40
4.0
100
AcDbArc
 50
271.0
 51
0.0
  0
LINE
  5
127
330
1F
100
AcDbEntity
  8
0
  6
Continuous
 62
     7
370
    25
100
AcDbLine
 10
585.5788569393
 20
254.3742947265
 30
0.0
 11
585.5788569393
 21
285.9541545439
 31
0.0
  0
ARC
  5
128
330
1F
100
AcDbEntity
  8
0
  6
Continuous
 62
     7
370
    25
100
AcDbCircle
 10
581.5788569393
 20
285.9541545439
 30
0.0
 40
4.0
100
AcDbArc
 50
0.0
 51
89.0
  0
LINE
  5
129
330
1F
100
AcDbEntity
  8
0
  6
Continuous
 62
     7
370
    25
100
AcDbLine
 10
581.648666565
 20
289.9535453245
 30
0.0
 11
569.5788569393
 21
290.1642246352
 31
0.0
  0
LINE
  5
12A
330
1F
100
AcDbEntity
  8
0
  6
Continuous
 62
     7
370
    25
100
AcDbLine
 10
569.5788569393
 20
380.1642246352
 30
0.0
 11
569.5788569393
 21
290.1642246352
 31
0.0
  0
LINE
  5
12B
330
1F
100
AcDbEntity
  8
0
  6
Continuous
 62
     7
370
    25
100
AcDbLine
 10
581.648666565
 20
380.3749039459
 30
0.0
 11
569.5788569393
 21
380.1642246352
 31
0.0
  0
ARC
  5
12C
330
1F
100
AcDbEntity
  8
0
  6
Continuous
 62
     7
370
    25
100
AcDbCircle
 10
581.5788569393
 20
384.3742947265
 30
0.0
 40
4.0
100
AcDbArc
 50
271.0
 51
0.0
  0
LINE
  5
12D
330
1F
100
AcDbEntity
  8
0
  6
Continuous
 62
     7
370
    25
100
AcDbLine
 10
585.5788569393
 20
415.9541545439
 30
0.0
 11
585.5788569393
 21
384.3742947265
 31
0.0
  0
ARC
  5
12E
330
1F
100
AcDbEntity
  8
0
  6
Continuous
 62
     7
370
    25
100
AcDbCircle
 10
581.5788569393
 20
415.9541545439
 30
0.0
 40
4.0
100
AcDbArc
 50
0.0
 51
89.0
  0
LINE
  5
12F
330
1F
100
AcDbEntity
  8
0
  6
Continuous
 62
     7
370
    25
100
AcDbLine
 10
569.5788569393
 20
420.1642246352
 30
0.0
 11
581.648666565
 21
419.9535453245
 31
0.0
  0
LINE
  5
130
330
1F
100
AcDbEntity
  8
0
  6
Continuous
 62
     7
370
    25
100
AcDbLine
 10
569.5788569393
 20
444.1642246352
 30
0.0
 11
569.5788569393
 21
420.1642246352
 31
0.0
  0
LINE
  5
131
330
1F
100
AcDbEntity
  8
0
  6
Continuous
 62
     7
370
    25
100
AcDbLine
 10
569.5788569393
 20
444.1642246352
 30
0.0
 11
589.5788569393
 21
443.9896872794
 31
0.0
  0
LINE
  5
132
330
1F
100
AcDbEntity
  8
0
  6
Continuous
 62
     7
370
    25
100
AcDbLine
 10
589.5788569393
 20
443.9896872794
 30
0.0
 11
589.5788569393
 21
361.8527393364
 31
0.0
  0
LINE
  5
133
330
1F
100
AcDbEntity
  8
0
  6
Continuous
 62
     7
370
    25
100
AcDbLine
 10
578.7788569393
 20
361.6642246352
 30
0.0
 11
589.5788569393
 21
361.8527393364
 31
0.0
  0
LINE
  5
134
330
1F
100
AcDbEntity
  8
0
  6
Continuous
 62
     7
370
    25
100
AcDbLine
 10
578.7788569393
 20
361.6642246352
 30
0.0
 11
578.7788569393
 21
308.6642246352
 31
0.0
  0
LINE
  5
135
330
1F
100
AcDbEntity
  8
0
  6
Continuous
 62
     7
370
    25
100
AcDbLine
 10
588.7788569393
 20
349.6642246352
 30
0.0
 11
588.7788569393
 21
328.3975579686
 31
0.0
  0
LINE
  5
136
330
1F
100
AcDbEntity
  8
0
  6
Continuous
 62
     7
370
    25
100
AcDbLine
 10
569.5788569393
 20
417.1646815498
 30
0.0
 11
569.5788569393
 21
420.1642246352
 31
0.0
  0
LINE
  5
137
330
1F
100
AcDbEntity
  8
0
  6
Continuous
 62
     7
370
    25
100
AcDbLine
 10
569.5788569393
 20
250.1642246352
 30
0.0
 11
569.5788569393
 21
253.1637677207
 31
0.0
  0
LINE
  5
138
330
1F
100
AcDbEntity
  8
0
  6
Continuous
 62
     7
370
    25
100
AcDbLine
 10
569.5788569393
 20
380.1642246352
 30
0.0
 11
569.5788569393
 21
383.1637677207
 31
0.0
  0
LINE
  5
139
330
1F
100
AcDbEntity
  8
0
  6
Continuous
 62
     7
370
    25
100
AcDbLine
 10
569.5788569393
 20
287.1646815498
 30
0.0
 11
569.5788569393
 21
290.1642246352
 31
0.0
  0
LINE
  5
13A
330
1F
100
AcDbEntity
  8
0
  6
Continuous
 62
     7
370
    25
100
AcDbLine
 10
588.7788569393
 20
328.3975579686
 30
0.0
 11
588.7788569393
 21
316.6642246352
 31
0.0
  0
LINE
  5
13B
330
1F
100
AcDbEntity
  8
0
  6
Continuous
 62
     7
370
    25
100
AcDbLine
 10
569.5788569393
 20
287.1646815498
 30
0.0
 11
569.5788569393
 21
253.1637677207
 31
0.0
  0
LINE
  5
13C
330
1F
100
AcDbEntity
  8
0
  6
Continuous
 62
     7
370
    25
100
AcDbLine
 10
569.5788569393
 20
383.1637677207
 30
0.0
 11
569.5788569393
 21
417.1646815498
 31
0.0
  0
LINE
  5
13D
330
1F
100
AcDbEntity
  8
0
  6
Continuous
 62
     7
370
    25
100
AcDbLine
 10
588.7788569393
 20
316.6642246352
 30
0.0
 11
588.7788569393
 21
312.6642246352
 31
0.0
  0
LINE
  5
13E
330
1F
100
AcDbEntity
  8
0
  6
Continuous
 62
     7
370
    25
100
AcDbLine
 10
589.5788569393
 20
308.475709934
 30
0.0
 11
589.5788569393
 21
312.7246259531
 31
0.0
  0
LINE
  5
13F
330
1F
100
AcDbEntity
  8
0
  6
Continuous
 62
     7
370
    25
100
AcDbLine
 10
589.5788569393
 20
357.6038233173
 30
0.0
 11
589.5788569393
 21
361.8527393364
 31
0.0
  0
LINE
  5
140
330
1F
100
AcDbEntity
  8
0
  6
Continuous
 62
     7
370
    25
100
AcDbLine
 10
589.5788569393
 20
224.7627581419
 30
0.0
 11
589.5788569393
 21
226.338761991
 31
0.0
  0
LINE
  5
141
330
1F
100
AcDbEntity
  8
0
  6
Continuous
 62
     7
370
    25
100
AcDbLine
 10
569.5788569393
 20
225.1118594404
 30
0.0
 11
569.5788569393
 21
226.1642246352
 31
0.0
  0
LINE
  5
142
330
1F
100
AcDbEntity
  8
0
  6
Continuous
 62
     7
370
    25
100
AcDbLine
 10
589.5788569393
 20
443.9896872794
 30
0.0
 11
589.5788569393
 21
445.5656911286
 31
0.0
  0
LINE
  5
143
330
1F
100
AcDbEntity
  8
0
  6
Continuous
 62
     7
370
    25
100
AcDbLine
 10
569.5788569393
 20
444.1642246352
 30
0.0
 11
569.5788569393
 21
445.21658983
 31
0.0
  0
LINE
  5
144
330
1F
100
AcDbEntity
  8
0
  6
Continuous
 62
     7
370
    25
100
AcDbLine
 10
589.5788569393
 20
312.7246259531
 30
0.0
 11
589.5788569393
 21
327.9219943741
 31
0.0
  0
LINE
  5
145
330
1F
100
AcDbEntity
  8
0
  6
Continuous
 62
     7
370
    25
100
AcDbLine
 10
589.5788569393
 20
342.4064548963
 30
0.0
 11
589.5788569393
 21
357.6038233173
 31
0.0
  0
LINE
  5
146
330
1F
100
AcDbEntity
  8
0
  6
Continuous
 62
     7
370
    25
100
AcDbLine
 10
589.5788569393
 20
327.9219943741
 30
0.0
 11
589.5788569393
 21
342.4064548963
 31
0.0
  0
LINE
  5
147
330
1F
100
AcDbEntity
  8
0
  6
Continuous
 62
     7
370
    25
100
AcDbLine
 10
589.8788569393
 20
340.2960996352
 30
0.0
 11
589.8788569393
 21
338.9275996352
 31
0.0
  0
LINE
  5
148
330
1F
100
AcDbEntity
  8
0
  6
Continuous
 62
     7
370
    25
100
AcDbLine
 10
589.5788569393
 20
338.9275996352
 30
0.0
 11
589.8788569393
 21
338.9275996352
 31
0.0
  0
LINE
  5
149
330
1F
100
AcDbEntity
  8
0
  6
Continuous
 62
     7
370
    25
100
AcDbLine
 10
589.5788569393
 20
340.2960996352
 30
0.0
 11
589.8788569393
 21
340.2960996352
 31
0.0
  0
LINE
  5
14A
330
1F
100
AcDbEntity
  8
0
  6
Continuous
 62
     7
370
    25
100
AcDbLine
 10
589.5788569393
 20
335.3238829686
 30
0.0
 11
589.8788569393
 21
335.3238829686
 31
0.0
  0
LINE
  5
14B
330
1F
100
AcDbEntity
  8
0
  6
Continuous
 62
     7
370
    25
100
AcDbLine
 10
589.8788569393
 20
338.4714329686
 30
0.0
 11
589.8788569393
 21
335.3238829686
 31
0.0
  0
LINE
  5
14C
330
1F
100
AcDbEntity
  8
0
  6
Continuous
 62
     7
370
    25
100
AcDbLine
 10
589.5788569393
 20
338.4714329686
 30
0.0
 11
589.8788569393
 21
338.4714329686
 31
0.0
  0
LINE
  5
14D
330
1F
100
AcDbEntity
  8
0
  6
Continuous
 62
     7
370
    25
100
AcDbLine
 10
589.5788569393
 20
333.4992163019
 30
0.0
 11
589.8788569393
 21
333.4992163019
 31
0.0
  0
LINE
  5
14E
330
1F
100
AcDbEntity
  8
0
  6
Continuous
 62
     7
370
    25
100
AcDbLine
 10
589.5788569393
 20
334.8677163019
 30
0.0
 11
589.8788569393
 21
334.8677163019
 31
0.0
  0
LINE
  5
14F
330
1F
100
AcDbEntity
  8
0
  6
Continuous
 62
     7
370
    25
100
AcDbLine
 10
589.8788569393
 20
334.8677163019
 30
0.0
 11
589.8788569393
 21
333.4992163019
 31
0.0
  0
LINE
  5
150
330
1F
100
AcDbEntity
  8
0
  6
Continuous
 62
     7
370
    25
100
AcDbLine
 10
589.5788569393
 20
331.8266051908
 30
0.0
 11
589.8788569393
 21
331.8266051908
 31
0.0
  0
LINE
  5
151
330
1F
100
AcDbEntity
  8
0
  6
Continuous
 62
     7
370
    25
100
AcDbLine
 10
589.5788569393
 20
333.0430496352
 30
0.0
 11
589.8788569393
 21
333.0430496352
 31
0.0
  0
LINE
  5
152
330
1F
100
AcDbEntity
  8
0
  6
Continuous
 62
     7
370
    25
100
AcDbLine
 10
589.8788569393
 20
333.0430496352
 30
0.0
 11
589.8788569393
 21
331.8266051908
 31
0.0
  0
LINE
  5
153
330
1F
100
AcDbEntity
  8
0
  6
Continuous
 62
     7
370
    25
100
AcDbLine
 10
589.5788569393
 20
330.0323496352
 30
0.0
 11
589.8788569393
 21
330.0323496352
 31
0.0
  0
LINE
  5
154
330
1F
100
AcDbEntity
  8
0
  6
Continuous
 62
     7
370
    25
100
AcDbLine
 10
589.8788569393
 20
331.8266051908
 30
0.0
 11
589.8788569393
 21
330.0323496352
 31
0.0
  0
LINE
  5
155
330
1F
100
AcDbEntity
  8
0
  6
Continuous
 62
     7
370
    25
100
AcDbLine
 10
589.8788569393
 20
333.4992163019
 30
0.0
 11
589.8788569393
 21
333.0430496352
 31
0.0
  0
LINE
  5
156
330
1F
100
AcDbEntity
  8
0
  6
Continuous
 62
     7
370
    25
100
AcDbLine
 10
459.0788569393
 20
484.695164422
 30
0.0
 11
566.5788569393
 21
485.1642246352
 31
0.0
  0
LINE
  5
157
330
1F
100
AcDbEntity
  8
0
  6
Continuous
 62
     7
370
    25
100
AcDbLine
 10
566.5788569393
 20
485.1642246352
 30
0.0
 11
566.5788569393
 21
445.1642246352
 31
0.0
  0
LINE
  5
158
330
1F
100
AcDbEntity
  8
0
  6
Continuous
 62
     7
370
    25
100
AcDbLine
 10
566.5788569393
 20
445.1642246352
 30
0.0
 11
566.5788569393
 21
225.1642246352
 31
0.0
  0
LINE
  5
159
330
1F
100
AcDbEntity
  8
0
  6
Continuous
 62
     7
370
    25
100
AcDbLine
 10
566.5788569393
 20
225.1642246352
 30
0.0
 11
566.5788569393
 21
185.1642246352
 31
0.0
  0
LINE
  5
15A
330
1F
100
AcDbEntity
  8
0
  6
Continuous
 62
     7
370
    25
100
AcDbLine
 10
459.0788569393
 20
484.695164422
 30
0.0
 11
459.0788569393
 21
185.6332848484
 31
0.0
  0
LINE
  5
15B
330
1F
100
AcDbEntity
  8
0
  6
Continuous
 62
     7
370
    25
100
AcDbLine
 10
459.0788569393
 20
185.6332848484
 30
0.0
 11
566.5788569393
 21
185.1642246352
 31
0.0
  0
LINE
  5
15C
330
1F
100
AcDbEntity
  8
0
  6
Continuous
 62
     7
370
    25
100
AcDbLine
 10
589.5788569393
 20
224.7627581419
 30
0.0
 11
566.5788569393
 21
225.1642246352
 31
0.0
  0
LINE
  5
15D
330
1F
100
AcDbEntity
  8
0
  6
Continuous
 62
     7
370
    25
100
AcDbLine
 10
589.5788569393
 20
224.7627581419
 30
0.0
 11
589.5788569393
 21
185.5656911286
 31
0.0
  0
LINE
  5
15E
330
1F
100
AcDbEntity
  8
0
  6
Continuous
 62
     7
370
    25
100
AcDbLine
 10
566.5788569393
 20
185.1642246352
 30
0.0
 11
589.5788569393
 21
185.5656911286
 31
0.0
  0
LINE
  5
15F
330
1F
100
AcDbEntity
  8
0
  6
Continuous
 62
     7
370
    25
100
AcDbLine
 10
589.5788569393
 20
445.5656911286
 30
0.0
 11
589.5788569393
 21
484.7627581419
 31
0.0
  0
LINE
  5
160
330
1F
100
AcDbEntity
  8
0
  6
Continuous
 62
     7
370
    25
100
AcDbLine
 10
589.5788569393
 20
445.5656911286
 30
0.0
 11
566.5788569393
 21
445.1642246352
 31
0.0
  0
LINE
  5
161
330
1F
100
AcDbEntity
  8
0
  6
Continuous
 62
     7
370
    25
100
AcDbLine
 10
566.5788569393
 20
485.1642246352
 30
0.0
 11
589.5788569393
 21
484.7627581419
 31
0.0
  0
LINE
  5
162
330
1F
100
AcDbEntity
  8
0
  6
Continuous
 62
     7
370
    25
100
AcDbLine
 10
458.7788569393
 20
239.1642246352
 30
0.0
 11
459.0788569393
 21
239.1642246352
 31
0.0
  0
LINE
  5
163
330
1F
100
AcDbEntity
  8
0
  6
Continuous
 62
     7
370
    25
100
AcDbLine
 10
458.7788569393
 20
232.6642246352
 30
0.0
 11
458.7788569393
 21
239.1642246352
 31
0.0
  0
LINE
  5
164
330
1F
100
AcDbEntity
  8
0
  6
Continuous
 62
     7
370
    25
100
AcDbLine
 10
458.7788569393
 20
232.6642246352
 30
0.0
 11
459.0788569393
 21
232.6642246352
 31
0.0
  0
LINE
  5
165
330
1F
100
AcDbEntity
  8
0
  6
Continuous
 62
     7
370
    25
100
AcDbLine
 10
458.7788569393
 20
232.2083436982
 30
0.0
 11
459.0788569393
 21
232.2083436982
 31
0.0
  0
LINE
  5
166
330
1F
100
AcDbEntity
  8
0
  6
Continuous
 62
     7
370
    25
100
AcDbLine
 10
458.7788569393
 20
232.2083436982
 30
0.0
 11
458.7788569393
 21
232.6642246352
 31
0.0
  0
LINE
  5
167
330
1F
100
AcDbEntity
  8
0
  6
Continuous
 62
     7
370
    25
100
AcDbLine
 10
458.7788569393
 20
419.6642246352
 30
0.0
 11
459.0788569393
 21
419.6642246352
 31
0.0
  0
LINE
  5
168
330
1F
100
AcDbEntity
  8
0
  6
Continuous
 62
     7
370
    25
100
AcDbLine
 10
458.7788569393
 20
419.6642246352
 30
0.0
 11
458.7788569393
 21
420.6642246352
 31
0.0
  0
LINE
  5
169
330
1F
100
AcDbEntity
  8
0
  6
Continuous
 62
     7
370
    25
100
AcDbLine
 10
458.7788569393
 20
420.6642246352
 30
0.0
 11
459.0788569393
 21
420.6642246352
 31
0.0
  0
LINE
  5
16A
330
1F
100
AcDbEntity
  8
0
  6
Continuous
 62
     7
370
    25
100
AcDbLine
 10
458.7788569393
 20
249.6642246352
 30
0.0
 11
459.0788569393
 21
249.6642246352
 31
0.0
  0
LINE
  5
16B
330
1F
100
AcDbEntity
  8
0
  6
Continuous
 62
     7
370
    25
100
AcDbLine
 10
458.7788569393
 20
249.6642246352
 30
0.0
 11
458.7788569393
 21
250.6642246352
 31
0.0
  0
LINE
  5
16C
330
1F
100
AcDbEntity
  8
0
  6
Continuous
 62
     7
370
    25
100
AcDbLine
 10
458.7788569393
 20
250.6642246352
 30
0.0
 11
459.0788569393
 21
250.6642246352
 31
0.0
  0
LINE
  5
16D
330
1F
100
AcDbEntity
  8
0
  6
Continuous
 62
     7
370
    25
100
AcDbLine
 10
458.7788569393
 20
251.6642246352
 30
0.0
 11
459.0788569393
 21
251.6642246352
 31
0.0
  0
LINE
  5
16E
330
1F
100
AcDbEntity
  8
0
  6
Continuous
 62
     7
370
    25
100
AcDbLine
 10
458.7788569393
 20
251.6642246352
 30
0.0
 11
458.7788569393
 21
255.6642246352
 31
0.0
  0
LINE
  5
16F
330
1F
100
AcDbEntity
  8
0
  6
Continuous
 62
     7
370
    25
100
AcDbLine
 10
458.7788569393
 20
255.6642246352
 30
0.0
 11
459.0788569393
 21
255.6642246352
 31
0.0
  0
LINE
  5
170
330
1F
100
AcDbEntity
  8
0
  6
Continuous
 62
     7
370
    25
100
AcDbLine
 10
458.7788569393
 20
414.6642246352
 30
0.0
 11
458.7788569393
 21
418.6642246352
 31
0.0
  0
LINE
  5
171
330
1F
100
AcDbEntity
  8
0
  6
Continuous
 62
     7
370
    25
100
AcDbLine
 10
458.7788569393
 20
418.6642246352
 30
0.0
 11
459.0788569393
 21
418.6642246352
 31
0.0
  0
LINE
  5
172
330
1F
100
AcDbEntity
  8
0
  6
Continuous
 62
     7
370
    25
100
AcDbLine
 10
458.7788569393
 20
414.6642246352
 30
0.0
 11
459.0788569393
 21
414.6642246352
 31
0.0
  0
LINE
  5
173
330
1F
100
AcDbEntity
  8
0
  6
Continuous
 62
     7
370
    25
100
AcDbLine
 10
458.7788569393
 20
255.6642246352
 30
0.0
 11
458.7788569393
 21
414.6642246352
 31
0.0
  0
LINE
  5
174
330
1F
100
AcDbEntity
  8
0
  6
Continuous
 62
     7
370
    25
100
AcDbLine
 10
458.7788569393
 20
240.8882094068
 30
0.0
 11
459.0788569393
 21
240.8882094068
 31
0.0
  0
SPLINE
  5
175
330
1F
100
AcDbEntity
  8
0
  6
Continuous
 62
     7
370
    25
100
AcDbSpline
210
0.0
220
0.0
230
1.0
 70
    24
 71
     3
 72
    15
 73
    11
 74
     0
 42
0.00000001
 43
0.00000001
 40
0.0
 40
0.0
 40
0.0
 40
0.0
 40
0.0996223219296958
 40
0.2015541967271639
 40
0.3107216333302908
 40
0.4266739999696189
 40
0.5509963918131817
 40
0.6823455313543964
 40
0.8298901071772238
 40
1.0
 40
1.0
 40
1.0
 40
1.0
 10
458.7788569392625
 20
240.8882094067957
 30
0.0
 10
458.7788569392625
 20
240.9066807090433
 30
0.0
 10
458.7788569392625
 20
240.9440515353292
 30
0.0
 10
458.7788569392625
 20
240.9989981925405
 30
0.0
 10
458.7788569392625
 20
241.0529537987848
 30
0.0
 10
458.7788569392625
 20
241.1055504266457
 30
0.0
 10
458.7788569392625
 20
241.1521701050166
 30
0.0
 10
458.7788569392625
 20
241.1832306260912
 30
0.0
 10
458.7788569392625
 20
241.2040603054991
 30
0.0
 10
458.7788569392625
 20
241.2056659611211
 30
0.0
 10
458.7788569392625
 20
241.2065258196552
 30
0.0
  0
LINE
  5
176
330
1F
100
AcDbEntity
  8
0
  6
Continuous
 62
     7
370
    25
100
AcDbLine
 10
458.7788569393
 20
241.2065258197
 30
0.0
 11
459.0788569393
 21
241.2065258197
 31
0.0
  0
LINE
  5
177
330
1F
100
AcDbEntity
  8
0
  6
Continuous
 62
     7
370
    25
100
AcDbLine
 10
458.7788569393
 20
240.5762381716
 30
0.0
 11
459.0788569393
 21
240.5762381716
 31
0.0
  0
SPLINE
  5
178
330
1F
100
AcDbEntity
  8
0
  6
Continuous
 62
     7
370
    25
100
AcDbSpline
210
0.0
220
0.0
230
1.0
 70
    24
 71
     3
 72
    15
 73
    11
 74
     0
 42
0.00000001
 43
0.00000001
 40
0.0
 40
0.0
 40
0.0
 40
0.0
 40
0.1672525445744203
 40
0.3154752479719865
 40
0.4508367510229712
 40
0.5800525603503607
 40
0.701892124421859
 40
0.8095098059291508
 40
0.9083016612776763
 40
1.0
 40
1.0
 40
1.0
 40
1.0
 10
458.7788569392625
 20
240.5762381716011
 30
0.0
 10
458.7788569392625
 20
240.5772026221873
 30
0.0
 10
458.7788569392625
 20
240.5790217890562
 30
0.0
 10
458.7788569392625
 20
240.5991719493216
 30
0.0
 10
458.7788569392625
 20
240.6332321388581
 30
0.0
 10
458.7788569392625
 20
240.6806168986893
 30
0.0
 10
458.7788569392625
 20
240.7328360958915
 30
0.0
 10
458.7788569392625
 20
240.7857933967992
 30
0.0
 10
458.7788569392625
 20
240.8366868127423
 30
0.0
 10
458.7788569392625
 20
240.8714669253256
 30
0.0
 10
458.7788569392625
 20
240.8882094067957
 30
0.0
  0
LINE
  5
179
330
1F
100
AcDbEntity
  8
0
  6
Continuous
 62
     7
370
    25
100
AcDbLine
 10
458.7788569393
 20
239.2405782731
 30
0.0
 11
459.0788569393
 21
239.2405782731
 31
0.0
  0
LINE
  5
17A
330
1F
100
AcDbEntity
  8
0
  6
Continuous
 62
     7
370
    25
100
AcDbLine
 10
458.7788569393
 20
239.2405782731
 30
0.0
 11
458.7788569393
 21
240.5762381716
 31
0.0
  0
LINE
  5
17B
330
1F
100
AcDbEntity
  8
0
  6
Continuous
 62
     7
370
    25
100
AcDbLine
 10
458.7788569393
 20
239.1642246352
 30
0.0
 11
458.7788569393
 21
239.2405782731
 31
0.0
  0
LINE
  5
17C
330
1F
100
AcDbEntity
  8
0
  6
Continuous
 62
     7
370
    25
100
AcDbLine
 10
54.9689623908
 20
466.4469218983
 30
0.0
 11
36.9516596539
 21
466.2896872794
 31
0.0
  0
LINE
  5
17D
330
1F
100
AcDbEntity
  8
0
  6
Continuous
 62
     7
370
    25
100
AcDbLine
 10
54.9689623908
 20
203.8815273721
 30
0.0
 11
54.9689623908
 21
466.4469218983
 31
0.0
  0
LINE
  5
17E
330
1F
100
AcDbEntity
  8
0
  6
Continuous
 62
     7
370
    25
100
AcDbLine
 10
54.9689623908
 20
203.8815273721
 30
0.0
 11
36.9516596539
 21
204.038761991
 31
0.0
  0
LINE
  5
17F
330
1F
100
AcDbEntity
  8
0
  6
Continuous
 62
     7
370
    25
100
AcDbLine
 10
36.9516596539
 20
204.038761991
 30
0.0
 11
36.9516596539
 21
466.2896872794
 31
0.0
  0
LINE
  5
180
330
1F
100
AcDbEntity
  8
0
  6
Continuous
 62
     7
370
    25
100
AcDbLine
 10
54.9689623908
 20
466.4469218983
 30
0.0
 11
56.9516596539
 21
466.4642246352
 31
0.0
  0
LINE
  5
181
330
1F
100
AcDbEntity
  8
0
  6
Continuous
 62
     7
370
    25
100
AcDbLine
 10
56.9516596539
 20
466.4642246352
 30
0.0
 11
56.9516596539
 21
203.8642246352
 31
0.0
  0
LINE
  5
182
330
1F
100
AcDbEntity
  8
0
  6
Continuous
 62
     7
370
    25
100
AcDbLine
 10
56.9516596539
 20
203.8642246352
 30
0.0
 11
54.9689623908
 21
203.8815273721
 31
0.0
  0
LINE
  5
183
330
1F
100
AcDbEntity
  8
0
  6
Continuous
 62
     7
370
    25
100
AcDbLine
 10
36.9516596539
 20
204.038761991
 30
0.0
 11
36.9516596539
 21
202.763506676
 31
0.0
  0
LINE
  5
184
330
1F
100
AcDbEntity
  8
0
  6
Continuous
 62
     7
370
    25
100
AcDbLine
 10
36.9516596539
 20
466.2896872794
 30
0.0
 11
36.9516596539
 21
467.5649425944
 31
0.0
  0
LINE
  5
185
330
1F
100
AcDbEntity
  8
0
  6
Continuous
 62
     7
370
    25
100
AcDbLine
 10
54.9516596539
 20
203.8816783708
 30
0.0
 11
54.9516596539
 21
202.9205902963
 31
0.0
  0
LINE
  5
186
330
1F
100
AcDbEntity
  8
0
  6
Continuous
 62
     7
370
    25
100
AcDbLine
 10
54.9516596539
 20
467.4078589742
 30
0.0
 11
54.9516596539
 21
466.4467708996
 31
0.0
  0
LINE
  5
187
330
1F
100
AcDbEntity
  8
0
  6
Continuous
 62
     7
370
    25
100
AcDbLine
 10
36.6516596539
 20
330.0323496352
 30
0.0
 11
36.6516596539
 21
331.8266051908
 31
0.0
  0
LINE
  5
188
330
1F
100
AcDbEntity
  8
0
  6
Continuous
 62
     7
370
    25
100
AcDbLine
 10
36.9516596539
 20
331.8266051908
 30
0.0
 11
36.6516596539
 21
331.8266051908
 31
0.0
  0
LINE
  5
189
330
1F
100
AcDbEntity
  8
0
  6
Continuous
 62
     7
370
    25
100
AcDbLine
 10
36.9516596539
 20
330.0323496352
 30
0.0
 11
36.6516596539
 21
330.0323496352
 31
0.0
  0
LINE
  5
18A
330
1F
100
AcDbEntity
  8
0
  6
Continuous
 62
     7
370
    25
100
AcDbLine
 10
36.9516596539
 20
333.0430496352
 30
0.0
 11
36.6516596539
 21
333.0430496352
 31
0.0
  0
LINE
  5
18B
330
1F
100
AcDbEntity
  8
0
  6
Continuous
 62
     7
370
    25
100
AcDbLine
 10
36.6516596539
 20
331.8266051908
 30
0.0
 11
36.6516596539
 21
333.0430496352
 31
0.0
  0
LINE
  5
18C
330
1F
100
AcDbEntity
  8
0
  6
Continuous
 62
     7
370
    25
100
AcDbLine
 10
36.9516596539
 20
334.8677163019
 30
0.0
 11
36.6516596539
 21
334.8677163019
 31
0.0
  0
LINE
  5
18D
330
1F
100
AcDbEntity
  8
0
  6
Continuous
 62
     7
370
    25
100
AcDbLine
 10
36.9516596539
 20
333.4992163019
 30
0.0
 11
36.6516596539
 21
333.4992163019
 31
0.0
  0
LINE
  5
18E
330
1F
100
AcDbEntity
  8
0
  6
Continuous
 62
     7
370
    25
100
AcDbLine
 10
36.6516596539
 20
333.4992163019
 30
0.0
 11
36.6516596539
 21
334.8677163019
 31
0.0
  0
LINE
  5
18F
330
1F
100
AcDbEntity
  8
0
  6
Continuous
 62
     7
370
    25
100
AcDbLine
 10
36.9516596539
 20
338.4714329686
 30
0.0
 11
36.6516596539
 21
338.4714329686
 31
0.0
  0
LINE
  5
190
330
1F
100
AcDbEntity
  8
0
  6
Continuous
 62
     7
370
    25
100
AcDbLine
 10
36.6516596539
 20
335.3238829686
 30
0.0
 11
36.6516596539
 21
338.4714329686
 31
0.0
  0
LINE
  5
191
330
1F
100
AcDbEntity
  8
0
  6
Continuous
 62
     7
370
    25
100
AcDbLine
 10
36.9516596539
 20
335.3238829686
 30
0.0
 11
36.6516596539
 21
335.3238829686
 31
0.0
  0
LINE
  5
192
330
1F
100
AcDbEntity
  8
0
  6
Continuous
 62
     7
370
    25
100
AcDbLine
 10
36.6516596539
 20
338.9275996352
 30
0.0
 11
36.6516596539
 21
340.2960996352
 31
0.0
  0
LINE
  5
193
330
1F
100
AcDbEntity
  8
0
  6
Continuous
 62
     7
370
    25
100
AcDbLine
 10
36.9516596539
 20
340.2960996352
 30
0.0
 11
36.6516596539
 21
340.2960996352
 31
0.0
  0
LINE
  5
194
330
1F
100
AcDbEntity
  8
0
  6
Continuous
 62
     7
370
    25
100
AcDbLine
 10
36.9516596539
 20
338.9275996352
 30
0.0
 11
36.6516596539
 21
338.9275996352
 31
0.0
  0
LINE
  5
195
330
1F
100
AcDbEntity
  8
0
  6
Continuous
 62
     7
370
    25
100
AcDbLine
 10
36.6516596539
 20
333.0430496352
 30
0.0
 11
36.6516596539
 21
333.4992163019
 31
0.0
  0
LINE
  5
196
330
1F
100
AcDbEntity
  8
0
  6
Continuous
 62
     7
370
    25
100
AcDbLine
 10
59.9516596539
 20
185.1642246352
 30
0.0
 11
167.4516596539
 21
185.6332848484
 31
0.0
  0
LINE
  5
197
330
1F
100
AcDbEntity
  8
0
  6
Continuous
 62
     7
370
    25
100
AcDbLine
 10
59.9516596539
 20
185.1642246352
 30
0.0
 11
59.9516596539
 21
202.9642246352
 31
0.0
  0
LINE
  5
198
330
1F
100
AcDbEntity
  8
0
  6
Continuous
 62
     7
370
    25
100
AcDbLine
 10
59.9516596539
 20
202.9642246352
 30
0.0
 11
59.9516596539
 21
467.3642246352
 31
0.0
  0
LINE
  5
199
330
1F
100
AcDbEntity
  8
0
  6
Continuous
 62
     7
370
    25
100
AcDbLine
 10
59.9516596539
 20
467.3642246352
 30
0.0
 11
59.9516596539
 21
485.1642246352
 31
0.0
  0
LINE
  5
19A
330
1F
100
AcDbEntity
  8
0
  6
Continuous
 62
     7
370
    25
100
AcDbLine
 10
167.4516596539
 20
484.695164422
 30
0.0
 11
59.9516596539
 21
485.1642246352
 31
0.0
  0
LINE
  5
19B
330
1F
100
AcDbEntity
  8
0
  6
Continuous
 62
     7
370
    25
100
AcDbLine
 10
167.4516596539
 20
185.6332848484
 30
0.0
 11
167.4516596539
 21
484.695164422
 31
0.0
  0
LINE
  5
19C
330
1F
100
AcDbEntity
  8
0
  6
Continuous
 62
     7
370
    25
100
AcDbLine
 10
36.9516596539
 20
467.5649425944
 30
0.0
 11
59.9516596539
 21
467.3642246352
 31
0.0
  0
LINE
  5
19D
330
1F
100
AcDbEntity
  8
0
  6
Continuous
 62
     7
370
    25
100
AcDbLine
 10
36.9516596539
 20
467.5649425944
 30
0.0
 11
36.9516596539
 21
468.7241528443
 31
0.0
  0
LINE
  5
19E
330
1F
100
AcDbEntity
  8
0
  6
Continuous
 62
     7
370
    25
100
AcDbLine
 10
36.9516596539
 20
468.7241528443
 30
0.0
 11
36.9516596539
 21
484.7627581419
 31
0.0
  0
LINE
  5
19F
330
1F
100
AcDbEntity
  8
0
  6
Continuous
 62
     7
370
    25
100
AcDbLine
 10
59.9516596539
 20
485.1642246352
 30
0.0
 11
36.9516596539
 21
484.7627581419
 31
0.0
  0
LINE
  5
1A0
330
1F
100
AcDbEntity
  8
0
  6
Continuous
 62
     7
370
    25
100
AcDbLine
 10
36.9516596539
 20
185.5656911286
 30
0.0
 11
59.9516596539
 21
185.1642246352
 31
0.0
  0
LINE
  5
1A1
330
1F
100
AcDbEntity
  8
0
  6
Continuous
 62
     7
370
    25
100
AcDbLine
 10
36.9516596539
 20
201.6042964262
 30
0.0
 11
36.9516596539
 21
185.5656911286
 31
0.0
  0
LINE
  5
1A2
330
1F
100
AcDbEntity
  8
0
  6
Continuous
 62
     7
370
    25
100
AcDbLine
 10
36.9516596539
 20
202.763506676
 30
0.0
 11
36.9516596539
 21
201.6042964262
 31
0.0
  0
LINE
  5
1A3
330
1F
100
AcDbEntity
  8
0
  6
Continuous
 62
     7
370
    25
100
AcDbLine
 10
36.9516596539
 20
202.763506676
 30
0.0
 11
59.9516596539
 21
202.9642246352
 31
0.0
  0
LINE
  5
1A4
330
1F
100
AcDbEntity
  8
0
  6
Continuous
 62
     7
370
    25
100
AcDbLine
 10
55.9516596539
 20
202.9293171641
 30
0.0
 11
55.9516596539
 21
203.872951503
 31
0.0
  0
LINE
  5
1A5
330
1F
100
AcDbEntity
  8
0
  6
Continuous
 62
     7
370
    25
100
AcDbLine
 10
55.9516596539
 20
466.4554977674
 30
0.0
 11
55.9516596539
 21
467.3991321064
 31
0.0
  0
LINE
  5
1A6
330
1F
100
AcDbEntity
  8
0
  6
Continuous
 62
     7
370
    25
100
AcDbLine
 10
167.7516596539
 20
239.1642246352
 30
0.0
 11
167.4516596539
 21
239.1642246352
 31
0.0
  0
LINE
  5
1A7
330
1F
100
AcDbEntity
  8
0
  6
Continuous
 62
     7
370
    25
100
AcDbLine
 10
167.7516596539
 20
239.1642246352
 30
0.0
 11
167.7516596539
 21
232.6642246352
 31
0.0
  0
LINE
  5
1A8
330
1F
100
AcDbEntity
  8
0
  6
Continuous
 62
     7
370
    25
100
AcDbLine
 10
167.7516596539
 20
232.6642246352
 30
0.0
 11
167.4516596539
 21
232.6642246352
 31
0.0
  0
LINE
  5
1A9
330
1F
100
AcDbEntity
  8
0
  6
Continuous
 62
     7
370
    25
100
AcDbLine
 10
167.7516596539
 20
232.6642246352
 30
0.0
 11
167.7516596539
 21
232.2083436982
 31
0.0
  0
LINE
  5
1AA
330
1F
100
AcDbEntity
  8
0
  6
Continuous
 62
     7
370
    25
100
AcDbLine
 10
167.7516596539
 20
232.2083436982
 30
0.0
 11
167.4516596539
 21
232.2083436982
 31
0.0
  0
LINE
  5
1AB
330
1F
100
AcDbEntity
  8
0
  6
Continuous
 62
     7
370
    25
100
AcDbLine
 10
167.7516596539
 20
241.2065258197
 30
0.0
 11
167.4516596539
 21
241.2065258197
 31
0.0
  0
SPLINE
  5
1AC
330
1F
100
AcDbEntity
  8
0
  6
Continuous
 62
     7
370
    25
100
AcDbSpline
210
0.0
220
0.0
230
1.0
 70
    24
 71
     3
 72
    23
 73
    19
 74
     0
 42
0.00000001
 43
0.00000001
 40
0.0
 40
0.0
 40
0.0
 40
0.0
 40
0.065289997579177
 40
0.1278595048737107
 40
0.1897293757484393
 40
0.250586774325212
 40
0.3114978804897806
 40
0.3729002266827138
 40
0.4355578623861412
 40
0.4998097669577956
 40
0.5640616715294545
 40
0.6270997733172812
 40
0.6885021195102213
 40
0.7494132256747874
 40
0.8102706242515587
 40
0.8721404951262901
 40
0.9347100024208194
 40
1.0
 40
1.0
 40
1.0
 40
1.0
 10
167.7516596538838
 20
241.2065258196552
 30
0.0
 10
167.7516596538838
 20
241.2053574207314
 30
0.0
 10
167.7516596538838
 20
241.2030693074916
 30
0.0
 10
167.7516596538838
 20
241.1895304039228
 30
0.0
 10
167.7516596538838
 20
241.1645859827801
 30
0.0
 10
167.7516596538838
 20
241.1323133634001
 30
0.0
 10
167.7516596538838
 20
241.0884449201152
 30
0.0
 10
167.7516596538838
 20
241.0347691201357
 30
0.0
 10
167.7516596538838
 20
240.9740210792734
 30
0.0
 10
167.7516596538838
 20
240.9017029521799
 30
0.0
 10
167.7516596538838
 20
240.824452097581
 30
0.0
 10
167.7516596538838
 20
240.7406707625903
 30
0.0
 10
167.7516596538838
 20
240.65345803167
 30
0.0
 10
167.7516596538838
 20
240.5622406347705
 30
0.0
 10
167.7516596538838
 20
240.4660824872192
 30
0.0
 10
167.7516596538838
 20
240.3668605052117
 30
0.0
 10
167.7516596538838
 20
240.2628728630298
 30
0.0
 10
167.7516596538838
 20
240.1923901231663
 30
0.0
 10
167.7516596538838
 20
240.156398916102
 30
0.0
  0
LINE
  5
1AD
330
1F
100
AcDbEntity
  8
0
  6
Continuous
 62
     7
370
    25
100
AcDbLine
 10
167.7516596539
 20
240.1563989161
 30
0.0
 11
167.4516596539
 21
240.1563989161
 31
0.0
  0
LINE
  5
1AE
330
1F
100
AcDbEntity
  8
0
  6
Continuous
 62
     7
370
    25
100
AcDbLine
 10
167.7516596539
 20
239.172896378
 30
0.0
 11
167.4516596539
 21
239.172896378
 31
0.0
  0
LINE
  5
1AF
330
1F
100
AcDbEntity
  8
0
  6
Continuous
 62
     7
370
    25
100
AcDbLine
 10
167.7516596539
 20
240.1563989161
 30
0.0
 11
167.7516596539
 21
239.172896378
 31
0.0
  0
LINE
  5
1B0
330
1F
100
AcDbEntity
  8
0
  6
Continuous
 62
     7
370
    25
100
AcDbLine
 10
167.7516596539
 20
239.172896378
 30
0.0
 11
167.7516596539
 21
239.1642246352
 31
0.0
  0
LINE
  5
1B1
330
1F
100
AcDbEntity
  8
0
  6
Continuous
 62
     7
370
    25
100
AcDbLine
 10
167.7516596539
 20
339.3938542649
 30
0.0
 11
167.4516596539
 21
339.3938542649
 31
0.0
  0
SPLINE
  5
1B2
330
1F
100
AcDbEntity
  8
0
  6
Continuous
 62
     7
370
    25
100
AcDbSpline
210
0.0
220
0.0
230
1.0
 70
    24
 71
     3
 72
    23
 73
    19
 74
     0
 42
0.00000001
 43
0.00000001
 40
0.0
 40
0.0
 40
0.0
 40
0.0
 40
0.0682895820365391
 40
0.134184333693836
 40
0.1982607136304886
 40
0.2616970604103178
 40
0.3240520880430467
 40
0.3867633009533595
 40
0.4510304479080119
 40
0.5162639143929985
 40
0.5810344016889034
 40
0.6437889796059781
 40
0.7038098606851854
 40
0.7632700659433295
 40
0.8217615925700055
 40
0.8803228419113611
 40
0.9398659145933574
 40
1.0
 40
1.0
 40
1.0
 40
1.0
 10
167.7516596538838
 20
338.2033780743755
 30
0.0
 10
167.7516596538838
 20
338.2446993806565
 30
0.0
 10
167.7516596538838
 20
338.325892906599
 30
0.0
 10
167.7516596538838
 20
338.4449776038656
 30
0.0
 10
167.7516596538838
 20
338.5590417656379
 30
0.0
 10
167.7516596538838
 20
338.668154887591
 30
0.0
 10
167.7516596538838
 20
338.7714869565659
 30
0.0
 10
167.7516596538838
 20
338.8709025865761
 30
0.0
 10
167.7516596538838
 20
338.9650087911385
 30
0.0
 10
167.7516596538838
 20
339.0517828471388
 30
0.0
 10
167.7516596538838
 20
339.132036497452
 30
0.0
 10
167.7516596538838
 20
339.2018227036725
 30
0.0
 10
167.7516596538838
 20
339.2606663270629
 30
0.0
 10
167.7516596538838
 20
339.3099603733495
 30
0.0
 10
167.7516596538838
 20
339.3465501952614
 30
0.0
 10
167.7516596538838
 20
339.374947855609
 30
0.0
 10
167.7516596538838
 20
339.3907209334738
 30
0.0
 10
167.7516596538838
 20
339.3928063881282
 30
0.0
 10
167.7516596538838
 20
339.3938542648517
 30
0.0
  0
LINE
  5
1B3
330
1F
100
AcDbEntity
  8
0
  6
Continuous
 62
     7
370
    25
100
AcDbLine
 10
167.7516596539
 20
338.2033780744
 30
0.0
 11
167.4516596539
 21
338.2033780744
 31
0.0
  0
LINE
  5
1B4
330
1F
100
AcDbEntity
  8
0
  6
Continuous
 62
     7
370
    25
100
AcDbLine
 10
167.7516596539
 20
337.8531135241
 30
0.0
 11
167.4516596539
 21
337.8531135241
 31
0.0
  0
SPLINE
  5
1B5
330
1F
100
AcDbEntity
  8
0
  6
Continuous
 62
     7
370
    25
100
AcDbSpline
210
0.0
220
0.0
230
1.0
 70
    24
 71
     3
 72
    23
 73
    19
 74
     0
 42
0.00000001
 43
0.00000001
 40
0.0
 40
0.0
 40
0.0
 40
0.0
 40
0.0626721334200282
 40
0.124047461766518
 40
0.184194443843448
 40
0.2449288829797974
 40
0.3049673399405117
 40
0.3668014017309812
 40
0.4296438440973718
 40
0.4948766886890693
 40
0.5604446950036089
 40
0.6235316894031899
 40
0.6854857520891303
 40
0.7471320284998372
 40
0.808433522726359
 40
0.8704781637115815
 40
0.9343215725794244
 40
0.9999999999999999
 40
0.9999999999999999
 40
0.9999999999999999
 40
0.9999999999999999
 10
167.7516596538838
 20
336.7335368045342
 30
0.0
 10
167.7516596538838
 20
336.7346346336789
 30
0.0
 10
167.7516596538838
 20
336.7368075758052
 30
0.0
 10
167.7516596538838
 20
336.7516541137522
 30
0.0
 10
167.7516596538838
 20
336.7774540983494
 30
0.0
 10
167.7516596538838
 20
336.8131514953325
 30
0.0
 10
167.7516596538838
 20
336.8595219675538
 30
0.0
 10
167.7516596538838
 20
336.9155141341759
 30
0.0
 10
167.7516596538838
 20
336.9817327222988
 30
0.0
 10
167.7516596538838
 20
337.0575104461369
 30
0.0
 10
167.7516596538838
 20
337.1394940556761
 30
0.0
 10
167.7516596538838
 20
337.2284151565301
 30
0.0
 10
167.7516596538838
 20
337.3207234154951
 30
0.0
 10
167.7516596538838
 20
337.4182279839107
 30
0.0
 10
167.7516596538838
 20
337.5208154106115
 30
0.0
 10
167.7516596538838
 20
337.6272945508649
 30
0.0
 10
167.7516596538838
 20
337.7386887200025
 30
0.0
 10
167.7516596538838
 20
337.8146133651001
 30
0.0
 10
167.7516596538838
 20
337.8531135241109
 30
0.0
  0
LINE
  5
1B6
330
1F
100
AcDbEntity
  8
0
  6
Continuous
 62
     7
370
    25
100
AcDbLine
 10
167.7516596539
 20
336.7335368045
 30
0.0
 11
167.4516596539
 21
336.7335368045
 31
0.0
  0
LINE
  5
1B7
330
1F
100
AcDbEntity
  8
0
  6
Continuous
 62
     7
370
    25
100
AcDbLine
 10
167.7516596539
 20
333.7261293971
 30
0.0
 11
167.4516596539
 21
333.7261293971
 31
0.0
  0
SPLINE
  5
1B8
330
1F
100
AcDbEntity
  8
0
  6
Continuous
 62
     7
370
    25
100
AcDbSpline
210
0.0
220
0.0
230
1.0
 70
    24
 71
     3
 72
    15
 73
    11
 74
     0
 42
0.00000001
 43
0.00000001
 40
0.0
 40
0.0
 40
0.0
 40
0.0
 40
0.1451267753689136
 40
0.2739154070584304
 40
0.3890388443023413
 40
0.5000000000000022
 40
0.6109611556976658
 40
0.7260845929415725
 40
0.8548732246310927
 40
1.0
 40
1.0
 40
1.0
 40
1.0
 10
167.7516596538838
 20
333.4827431537406
 30
0.0
 10
167.7516596538838
 20
333.4836909704306
 30
0.0
 10
167.7516596538838
 20
333.4854799001013
 30
0.0
 10
167.7516596538838
 20
333.4950502423727
 30
0.0
 10
167.7516596538838
 20
333.515112563128
 30
0.0
 10
167.7516596538838
 20
333.5413982993609
 30
0.0
 10
167.7516596538838
 20
333.5777826344783
 30
0.0
 10
167.7516596538838
 20
333.6203136145116
 30
0.0
 10
167.7516596538838
 20
333.6710577794979
 30
0.0
 10
167.7516596538838
 20
333.7070564574181
 30
0.0
 10
167.7516596538838
 20
333.7261293971268
 30
0.0
  0
LINE
  5
1B9
330
1F
100
AcDbEntity
  8
0
  6
Continuous
 62
     7
370
    25
100
AcDbLine
 10
167.7516596539
 20
333.4827431537
 30
0.0
 11
167.4516596539
 21
333.4827431537
 31
0.0
  0
LINE
  5
1BA
330
1F
100
AcDbEntity
  8
0
  6
Continuous
 62
     7
370
    25
100
AcDbLine
 10
167.7516596539
 20
336.1462352172
 30
0.0
 11
167.4516596539
 21
336.1462352172
 31
0.0
  0
SPLINE
  5
1BB
330
1F
100
AcDbEntity
  8
0
  6
Continuous
 62
     7
370
    25
100
AcDbSpline
210
0.0
220
0.0
230
1.0
 70
    24
 71
     3
 72
    15
 73
    11
 74
     0
 42
0.00000001
 43
0.00000001
 40
0.0
 40
0.0
 40
0.0
 40
0.0
 40
0.1633120513087286
 40
0.3079368125304067
 40
0.4430813263982372
 40
0.5720618085776704
 40
0.69078909282403
 40
0.7980967316976906
 40
0.8997667626794623
 40
0.9999999999999999
 40
0.9999999999999999
 40
0.9999999999999999
 40
0.9999999999999999
 10
167.7516596538838
 20
335.8330077040051
 30
0.0
 10
167.7516596538838
 20
335.8567275897375
 30
0.0
 10
167.7516596538838
 20
335.9014531684531
 30
0.0
 10
167.7516596538838
 20
335.964476457452
 30
0.0
 10
167.7516596538838
 20
336.019652768061
 30
0.0
 10
167.7516596538838
 20
336.0645024485989
 30
0.0
 10
167.7516596538838
 20
336.1010701788451
 30
0.0
 10
167.7516596538838
 20
336.1268697507229
 30
0.0
 10
167.7516596538838
 20
336.1445680109459
 30
0.0
 10
167.7516596538838
 20
336.1456821245732
 30
0.0
 10
167.7516596538838
 20
336.1462352172326
 30
0.0
  0
LINE
  5
1BC
330
1F
100
AcDbEntity
  8
0
  6
Continuous
 62
     7
370
    25
100
AcDbLine
 10
167.7516596539
 20
335.833007704
 30
0.0
 11
167.4516596539
 21
335.833007704
 31
0.0
  0
LINE
  5
1BD
330
1F
100
AcDbEntity
  8
0
  6
Continuous
 62
     7
370
    25
100
AcDbLine
 10
167.7516596539
 20
333.7261293971
 30
0.0
 11
167.7516596539
 21
335.833007704
 31
0.0
  0
LINE
  5
1BE
330
1F
100
AcDbEntity
  8
0
  6
Continuous
 62
     7
370
    25
100
AcDbLine
 10
167.7516596539
 20
337.8531135241
 30
0.0
 11
167.7516596539
 21
338.2033780744
 31
0.0
  0
LINE
  5
1BF
330
1F
100
AcDbEntity
  8
0
  6
Continuous
 62
     7
370
    25
100
AcDbLine
 10
167.7516596539
 20
332.5388278098
 30
0.0
 11
167.4516596539
 21
332.5388278098
 31
0.0
  0
LINE
  5
1C0
330
1F
100
AcDbEntity
  8
0
  6
Continuous
 62
     7
370
    25
100
AcDbLine
 10
167.7516596539
 20
332.3716320426
 30
0.0
 11
167.4516596539
 21
332.3716320426
 31
0.0
  0
SPLINE
  5
1C1
330
1F
100
AcDbEntity
  8
0
  6
Continuous
 62
     7
370
    25
100
AcDbSpline
210
0.0
220
0.0
230
1.0
 70
    24
 71
     3
 72
    11
 73
     7
 74
     0
 42
0.00000001
 43
0.00000001
 40
0.0
 40
0.0
 40
0.0
 40
0.0
 40
0.2511722490493003
 40
0.4987584675373678
 40
0.7423724569383192
 40
1.0
 40
1.0
 40
1.0
 40
1.0
 10
167.7516596538838
 20
332.3716320426295
 30
0.0
 10
167.7516596538838
 20
332.3832770579856
 30
0.0
 10
167.7516596538838
 20
332.4064008307569
 30
0.0
 10
167.7516596538838
 20
332.4469452672905
 30
0.0
 10
167.7516596538838
 20
332.4918044456986
 30
0.0
 10
167.7516596538838
 20
332.5228639049078
 30
0.0
 10
167.7516596538838
 20
332.5388278098252
 30
0.0
  0
LINE
  5
1C2
330
1F
100
AcDbEntity
  8
0
  6
Continuous
 62
     7
370
    25
100
AcDbLine
 10
167.7516596539
 20
332.8531135241
 30
0.0
 11
167.4516596539
 21
332.8531135241
 31
0.0
  0
SPLINE
  5
1C3
330
1F
100
AcDbEntity
  8
0
  6
Continuous
 62
     7
370
    25
100
AcDbSpline
210
0.0
220
0.0
230
1.0
 70
    24
 71
     3
 72
    15
 73
    11
 74
     0
 42
0.00000001
 43
0.00000001
 40
0.0
 40
0.0
 40
0.0
 40
0.0
 40
0.1533598080942379
 40
0.2959507726065742
 40
0.4308858858096634
 40
0.5630590384549281
 40
0.6867434286385142
 40
0.7972473370592285
 40
0.8996570402522049
 40
1.0
 40
1.0
 40
1.0
 40
1.0
 10
167.7516596538838
 20
332.5388278098252
 30
0.0
 10
167.7516596538838
 20
332.5611681226422
 30
0.0
 10
167.7516596538838
 20
332.6042800234761
 30
0.0
 10
167.7516596538838
 20
332.6651274072946
 30
0.0
 10
167.7516596538838
 20
332.7207651117331
 30
0.0
 10
167.7516596538838
 20
332.766038371602
 30
0.0
 10
167.7516596538838
 20
332.8048285899879
 30
0.0
 10
167.7516596538838
 20
332.831254906609
 30
0.0
 10
167.7516596538838
 20
332.850391749016
 30
0.0
 10
167.7516596538838
 20
332.8522124521444
 30
0.0
 10
167.7516596538838
 20
332.8531135241109
 30
0.0
  0
LINE
  5
1C4
330
1F
100
AcDbEntity
  8
0
  6
Continuous
 62
     7
370
    25
100
AcDbLine
 10
167.7516596539
 20
331.3176637887
 30
0.0
 11
167.4516596539
 21
331.3176637887
 31
0.0
  0
LINE
  5
1C5
330
1F
100
AcDbEntity
  8
0
  6
Continuous
 62
     7
370
    25
100
AcDbLine
 10
167.7516596539
 20
331.3176637887
 30
0.0
 11
167.7516596539
 21
332.3716320426
 31
0.0
  0
LINE
  5
1C6
330
1F
100
AcDbEntity
  8
0
  6
Continuous
 62
     7
370
    25
100
AcDbLine
 10
167.7516596539
 20
331.2520553231
 30
0.0
 11
167.4516596539
 21
331.2520553231
 31
0.0
  0
SPLINE
  5
1C7
330
1F
100
AcDbEntity
  8
0
  6
Continuous
 62
     7
370
    25
100
AcDbSpline
210
0.0
220
0.0
230
1.0
 70
    24
 71
     3
 72
    11
 73
     7
 74
     0
 42
0.00000001
 43
0.00000001
 40
0.0
 40
0.0
 40
0.0
 40
0.0
 40
0.1581938786560213
 40
0.3730917312655884
 40
0.6582798017449926
 40
1.0
 40
1.0
 40
1.0
 40
1.0
 10
167.7516596538838
 20
331.2520553230527
 30
0.0
 10
167.7516596538838
 20
331.2531873845433
 30
0.0
 10
167.7516596538838
 20
331.2558572905155
 30
0.0
 10
167.7516596538838
 20
331.2687786499038
 30
0.0
 10
167.7516596538838
 20
331.2901284517664
 30
0.0
 10
167.7516596538838
 20
331.3079496607955
 30
0.0
 10
167.7516596538838
 20
331.3176637886612
 30
0.0
  0
LINE
  5
1C8
330
1F
100
AcDbEntity
  8
0
  6
Continuous
 62
     7
370
    25
100
AcDbLine
 10
167.7516596539
 20
255.6642246352
 30
0.0
 11
167.4516596539
 21
255.6642246352
 31
0.0
  0
LINE
  5
1C9
330
1F
100
AcDbEntity
  8
0
  6
Continuous
 62
     7
370
    25
100
AcDbLine
 10
167.7516596539
 20
255.6642246352
 30
0.0
 11
167.7516596539
 21
251.6642246352
 31
0.0
  0
LINE
  5
1CA
330
1F
100
AcDbEntity
  8
0
  6
Continuous
 62
     7
370
    25
100
AcDbLine
 10
167.7516596539
 20
251.6642246352
 30
0.0
 11
167.4516596539
 21
251.6642246352
 31
0.0
  0
LINE
  5
1CB
330
1F
100
AcDbEntity
  8
0
  6
Continuous
 62
     7
370
    25
100
AcDbLine
 10
167.7516596539
 20
418.6642246352
 30
0.0
 11
167.4516596539
 21
418.6642246352
 31
0.0
  0
LINE
  5
1CC
330
1F
100
AcDbEntity
  8
0
  6
Continuous
 62
     7
370
    25
100
AcDbLine
 10
167.7516596539
 20
418.6642246352
 30
0.0
 11
167.7516596539
 21
414.6642246352
 31
0.0
  0
LINE
  5
1CD
330
1F
100
AcDbEntity
  8
0
  6
Continuous
 62
     7
370
    25
100
AcDbLine
 10
167.7516596539
 20
414.6642246352
 30
0.0
 11
167.4516596539
 21
414.6642246352
 31
0.0
  0
LINE
  5
1CE
330
1F
100
AcDbEntity
  8
0
  6
Continuous
 62
     7
370
    25
100
AcDbLine
 10
167.7516596539
 20
420.6642246352
 30
0.0
 11
167.4516596539
 21
420.6642246352
 31
0.0
  0
LINE
  5
1CF
330
1F
100
AcDbEntity
  8
0
  6
Continuous
 62
     7
370
    25
100
AcDbLine
 10
167.7516596539
 20
420.6642246352
 30
0.0
 11
167.7516596539
 21
419.6642246352
 31
0.0
  0
LINE
  5
1D0
330
1F
100
AcDbEntity
  8
0
  6
Continuous
 62
     7
370
    25
100
AcDbLine
 10
167.7516596539
 20
419.6642246352
 30
0.0
 11
167.4516596539
 21
419.6642246352
 31
0.0
  0
LINE
  5
1D1
330
1F
100
AcDbEntity
  8
0
  6
Continuous
 62
     7
370
    25
100
AcDbLine
 10
167.7516596539
 20
249.6642246352
 30
0.0
 11
167.4516596539
 21
249.6642246352
 31
0.0
  0
LINE
  5
1D2
330
1F
100
AcDbEntity
  8
0
  6
Continuous
 62
     7
370
    25
100
AcDbLine
 10
167.7516596539
 20
250.6642246352
 30
0.0
 11
167.7516596539
 21
249.6642246352
 31
0.0
  0
LINE
  5
1D3
330
1F
100
AcDbEntity
  8
0
  6
Continuous
 62
     7
370
    25
100
AcDbLine
 10
167.7516596539
 20
250.6642246352
 30
0.0
 11
167.4516596539
 21
250.6642246352
 31
0.0
  0
LINE
  5
1D4
330
1F
100
AcDbEntity
  8
0
  6
Continuous
 62
     7
370
    25
100
AcDbLine
 10
167.7516596539
 20
414.6642246352
 30
0.0
 11
167.7516596539
 21
339.5247847773
 31
0.0
  0
LINE
  5
1D5
330
1F
100
AcDbEntity
  8
0
  6
Continuous
 62
     7
370
    25
100
AcDbLine
 10
167.7516596539
 20
336.6026062921
 30
0.0
 11
167.7516596539
 21
336.1777205521
 31
0.0
  0
LINE
  5
1D6
330
1F
100
AcDbEntity
  8
0
  6
Continuous
 62
     7
370
    25
100
AcDbLine
 10
167.7516596539
 20
333.454439137
 30
0.0
 11
167.7516596539
 21
332.8846326291
 31
0.0
  0
LINE
  5
1D7
330
1F
100
AcDbEntity
  8
0
  6
Continuous
 62
     7
370
    25
100
AcDbLine
 10
167.7516596539
 20
331.2392176359
 30
0.0
 11
167.7516596539
 21
255.6642246352
 31
0.0
  0
ARC
  5
1D8
330
1F
100
AcDbEntity
  8
0
  6
Continuous
 62
     7
370
    25
100
AcDbCircle
 10
262.0016389847
 20
-13.0848150933
 30
0.0
 40
24.99999999999999
100
AcDbArc
 50
90.0
 51
113.0739180656
  0
ARC
  5
1D9
330
1F
100
AcDbEntity
  8
0
  6
Continuous
 62
     7
370
    25
100
AcDbCircle
 10
358.4057210424
 20
-13.0848150933
 30
0.0
 40
25.00000000000003
100
AcDbArc
 50
66.9260819344
 51
90.0
  0
LINE
  5
1DA
330
1F
100
AcDbEntity
  8
0
  6
Continuous
 62
     7
370
    25
100
AcDbLine
 10
410.1863772767
 20
27.9324876436
 30
0.0
 11
410.0291426578
 21
9.9151849067
 31
0.0
  0
LINE
  5
1DB
330
1F
100
AcDbEntity
  8
0
  6
Continuous
 62
     7
370
    25
100
AcDbLine
 10
410.1863772767
 20
27.9324876436
 30
0.0
 11
410.1179019506
 21
28.0009629697
 31
0.0
  0
LINE
  5
1DC
330
1F
100
AcDbEntity
  8
0
  6
Continuous
 62
     7
370
    25
100
AcDbLine
 10
409.8022135202
 20
9.9151849067
 30
0.0
 11
410.0291426578
 21
9.9151849067
 31
0.0
  0
LINE
  5
1DD
330
1F
100
AcDbEntity
  8
0
  6
Continuous
 62
     7
370
    25
100
AcDbLine
 10
210.2036800136
 20
29.9151849067
 30
0.0
 11
210.3782173694
 21
9.9151849067
 31
0.0
  0
LINE
  5
1DE
330
1F
100
AcDbEntity
  8
0
  6
Continuous
 62
     7
370
    25
100
AcDbLine
 10
210.2036800136
 20
29.9151849067
 30
0.0
 11
210.2560452084
 21
29.9151849067
 31
0.0
  0
LINE
  5
1DF
330
1F
100
AcDbEntity
  8
0
  6
Continuous
 62
     7
370
    25
100
AcDbLine
 10
210.3782173694
 20
9.9151849067
 30
0.0
 11
210.6051465069
 21
9.9151849067
 31
0.0
  0
LINE
  5
1E0
330
1F
100
AcDbEntity
  8
0
  6
Continuous
 62
     7
370
    25
100
AcDbLine
 10
250.7215133469
 20
9.6151849067
 30
0.0
 11
249.3530133469
 21
9.6151849067
 31
0.0
  0
LINE
  5
1E1
330
1F
100
AcDbEntity
  8
0
  6
Continuous
 62
     7
370
    25
100
AcDbLine
 10
249.3530133469
 20
9.9151849067
 30
0.0
 11
249.3530133469
 21
9.6151849067
 31
0.0
  0
LINE
  5
1E2
330
1F
100
AcDbEntity
  8
0
  6
Continuous
 62
     7
370
    25
100
AcDbLine
 10
250.7215133469
 20
9.9151849067
 30
0.0
 11
250.7215133469
 21
9.6151849067
 31
0.0
  0
LINE
  5
1E3
330
1F
100
AcDbEntity
  8
0
  6
Continuous
 62
     7
370
    25
100
AcDbLine
 10
248.8968466802
 20
9.6151849067
 30
0.0
 11
245.7036800136
 21
9.6151849067
 31
0.0
  0
LINE
  5
1E4
330
1F
100
AcDbEntity
  8
0
  6
Continuous
 62
     7
370
    25
100
AcDbLine
 10
245.7036800136
 20
9.9151849067
 30
0.0
 11
245.7036800136
 21
9.6151849067
 31
0.0
  0
LINE
  5
1E5
330
1F
100
AcDbEntity
  8
0
  6
Continuous
 62
     7
370
    25
100
AcDbLine
 10
248.8968466802
 20
9.9151849067
 30
0.0
 11
248.8968466802
 21
9.6151849067
 31
0.0
  0
LINE
  5
1E6
330
1F
100
AcDbEntity
  8
0
  6
Continuous
 62
     7
370
    25
100
AcDbLine
 10
249.3530133469
 20
9.6151849067
 30
0.0
 11
248.8968466802
 21
9.6151849067
 31
0.0
  0
LINE
  5
1E7
330
1F
100
AcDbEntity
  8
0
  6
Continuous
 62
     7
370
    25
100
AcDbLine
 10
410.2036800136
 20
32.9151849067
 30
0.0
 11
210.2036800136
 21
32.9151849067
 31
0.0
  0
LINE
  5
1E8
330
1F
100
AcDbEntity
  8
0
  6
Continuous
 62
     7
370
    25
100
AcDbLine
 10
210.6727402268
 20
140.4151849067
 30
0.0
 11
210.2036800136
 21
32.9151849067
 31
0.0
  0
LINE
  5
1E9
330
1F
100
AcDbEntity
  8
0
  6
Continuous
 62
     7
370
    25
100
AcDbLine
 10
409.7346198003
 20
140.4151849067
 30
0.0
 11
210.6727402268
 21
140.4151849067
 31
0.0
  0
LINE
  5
1EA
330
1F
100
AcDbEntity
  8
0
  6
Continuous
 62
     7
370
    25
100
AcDbLine
 10
409.7346198003
 20
140.4151849067
 30
0.0
 11
410.2036800136
 21
32.9151849067
 31
0.0
  0
ARC
  5
1EB
330
1F
100
AcDbEntity
  8
0
  6
Continuous
 62
     7
370
    25
100
AcDbCircle
 10
358.5056782978
 20
-13.0848150933
 30
0.0
 40
25.00000000000003
100
AcDbArc
 50
66.9260819344
 51
90.0
  0
LINE
  5
1EC
330
1F
100
AcDbEntity
  8
0
  6
Continuous
 62
     7
370
    25
100
AcDbLine
 10
261.9016817294
 20
11.9151849067
 30
0.0
 11
358.5056782978
 21
11.9151849067
 31
0.0
  0
ARC
  5
1ED
330
1F
100
AcDbEntity
  8
0
  6
Continuous
 62
     7
370
    25
100
AcDbCircle
 10
261.9016817294
 20
-13.0848150933
 30
0.0
 40
25.00000000000002
100
AcDbArc
 50
90.0
 51
113.0739180656
  0
LINE
  5
1EE
330
1F
100
AcDbEntity
  8
0
  6
Continuous
 62
     7
370
    25
100
AcDbLine
 10
210.6051465069
 20
9.9151849067
 30
0.0
 11
252.1037227582
 21
9.9151849067
 31
0.0
  0
LINE
  5
1EF
330
1F
100
AcDbEntity
  8
0
  6
Continuous
 62
     7
370
    25
100
AcDbLine
 10
210.2036800136
 20
32.9151849067
 30
0.0
 11
210.6051465069
 21
9.9151849067
 31
0.0
  0
LINE
  5
1F0
330
1F
100
AcDbEntity
  8
0
  6
Continuous
 62
     7
370
    25
100
AcDbLine
 10
410.2036800136
 20
32.9151849067
 30
0.0
 11
409.8022135202
 21
9.9151849067
 31
0.0
  0
LINE
  5
1F1
330
1F
100
AcDbEntity
  8
0
  6
Continuous
 62
     7
370
    25
100
AcDbLine
 10
409.8022135202
 20
9.9151849067
 30
0.0
 11
394.0867990216
 21
9.9151849067
 31
0.0
  0
LINE
  5
1F2
330
1F
100
AcDbEntity
  8
0
  6
Continuous
 62
     7
370
    25
100
AcDbLine
 10
368.3036372689
 20
9.9151849067
 30
0.0
 11
394.0867990216
 21
9.9151849067
 31
0.0
  0
LINE
  5
1F3
330
1F
100
AcDbEntity
  8
0
  6
Continuous
 62
     7
370
    25
100
AcDbLine
 10
276.2036800136
 20
140.7151849067
 30
0.0
 11
276.2036800136
 21
140.4151849067
 31
0.0
  0
LINE
  5
1F4
330
1F
100
AcDbEntity
  8
0
  6
Continuous
 62
     7
370
    25
100
AcDbLine
 10
282.7036800136
 20
140.7151849067
 30
0.0
 11
282.7036800136
 21
140.4151849067
 31
0.0
  0
LINE
  5
1F5
330
1F
100
AcDbEntity
  8
0
  6
Continuous
 62
     7
370
    25
100
AcDbLine
 10
276.2036800136
 20
140.7151849067
 30
0.0
 11
282.7036800136
 21
140.7151849067
 31
0.0
  0
LINE
  5
1F6
330
1F
100
AcDbEntity
  8
0
  6
Continuous
 62
     7
370
    25
100
AcDbLine
 10
283.1595609506
 20
140.7151849067
 30
0.0
 11
283.1595609506
 21
140.4151849067
 31
0.0
  0
LINE
  5
1F7
330
1F
100
AcDbEntity
  8
0
  6
Continuous
 62
     7
370
    25
100
AcDbLine
 10
282.7036800136
 20
140.7151849067
 30
0.0
 11
283.1595609506
 21
140.7151849067
 31
0.0
  0
LINE
  5
1F8
330
1F
100
AcDbEntity
  8
0
  6
Continuous
 62
     7
370
    25
100
AcDbLine
 10
285.3232567331
 20
140.7151849067
 30
0.0
 11
285.3232567331
 21
140.4151849067
 31
0.0
  0
LINE
  5
1F9
330
1F
100
AcDbEntity
  8
0
  6
Continuous
 62
     7
370
    25
100
AcDbLine
 10
288.1274895374
 20
140.7151849067
 30
0.0
 11
285.3232567331
 21
140.7151849067
 31
0.0
  0
LINE
  5
1FA
330
1F
100
AcDbEntity
  8
0
  6
Continuous
 62
     7
370
    25
100
AcDbLine
 10
288.1274895374
 20
140.7151849067
 30
0.0
 11
288.1274895374
 21
140.4151849067
 31
0.0
  0
LINE
  5
1FB
330
1F
100
AcDbEntity
  8
0
  6
Continuous
 62
     7
370
    25
100
AcDbLine
 10
284.2036800136
 20
140.7151849067
 30
0.0
 11
284.2036800136
 21
140.4151849067
 31
0.0
  0
SPLINE
  5
1FC
330
1F
100
AcDbEntity
  8
0
  6
Continuous
 62
     7
370
    25
100
AcDbSpline
210
0.0
220
0.0
230
1.0
 70
    24
 71
     3
 72
    23
 73
    19
 74
     0
 42
0.00000001
 43
0.00000001
 40
0.0
 40
0.0
 40
0.0
 40
0.0
 40
0.0600802379279144
 40
0.118417650902238
 40
0.1767783336872073
 40
0.2346718431964963
 40
0.2938182525822915
 40
0.3539718933939363
 40
0.4158528637850492
 40
0.4805968166492593
 40
0.5457718693797977
 40
0.6090442066624696
 40
0.6722923977812442
 40
0.7356505135642869
 40
0.7990300558328189
 40
0.8636165316853407
 40
0.930607378634263
 40
0.9999999999999999
 40
0.9999999999999999
 40
0.9999999999999999
 40
0.9999999999999999
 10
285.3232567331496
 20
140.7151849066826
 30
0.0
 10
285.2868620436992
 20
140.7151849066826
 30
0.0
 10
285.2151284124973
 20
140.7151849066826
 30
0.0
 10
285.1091399118779
 20
140.7151849066826
 30
0.0
 10
285.0065354331415
 20
140.7151849066826
 30
0.0
 10
284.9070101181922
 20
140.7151849066826
 30
0.0
 10
284.8109279846925
 20
140.7151849066826
 30
0.0
 10
284.7168324947972
 20
140.7151849066826
 30
0.0
 10
284.627983356697
 20
140.7151849066826
 30
0.0
 10
284.5417546985488
 20
140.7151849066826
 30
0.0
 10
284.463367414918
 20
140.7151849066826
 30
0.0
 10
284.3937143840222
 20
140.7151849066826
 30
0.0
 10
284.3337755206894
 20
140.7151849066826
 30
0.0
 10
284.2866999303999
 20
140.7151849066826
 30
0.0
 10
284.2491438909288
 20
140.7151849066826
 30
0.0
 10
284.2227883157876
 20
140.7151849066826
 30
0.0
 10
284.2065908404651
 20
140.7151849066826
 30
0.0
 10
284.2046616140529
 20
140.7151849066826
 30
0.0
 10
284.2036800135729
 20
140.7151849066826
 30
0.0
  0
LINE
  5
1FD
330
1F
100
AcDbEntity
  8
0
  6
Continuous
 62
     7
370
    25
100
AcDbLine
 10
289.247066257
 20
140.7151849067
 30
0.0
 11
289.247066257
 21
140.4151849067
 31
0.0
  0
SPLINE
  5
1FE
330
1F
100
AcDbEntity
  8
0
  6
Continuous
 62
     7
370
    25
100
AcDbSpline
210
0.0
220
0.0
230
1.0
 70
    24
 71
     3
 72
    23
 73
    19
 74
     0
 42
0.00000001
 43
0.00000001
 40
0.0
 40
0.0
 40
0.0
 40
0.0
 40
0.0682895820365391
 40
0.134184333693836
 40
0.1982607136304886
 40
0.2616970604103178
 40
0.3240520880430467
 40
0.3867633009533595
 40
0.4510304479080119
 40
0.5162639143929985
 40
0.5810344016889034
 40
0.6437889796059781
 40
0.7038098606851854
 40
0.7632700659433295
 40
0.8217615925700055
 40
0.8803228419113611
 40
0.9398659145933574
 40
1.0
 40
1.0
 40
1.0
 40
1.0
 10
289.2470662569592
 20
140.7151849066826
 30
0.0
 10
289.246086191621
 20
140.7151849066826
 30
0.0
 10
289.2441604306124
 20
140.7151849066826
 30
0.0
 10
289.2279045088861
 20
140.7151849066826
 30
0.0
 10
289.2013180883332
 20
140.7151849066826
 30
0.0
 10
289.1647050407582
 20
140.7151849066826
 30
0.0
 10
289.116061629431
 20
140.7151849066826
 30
0.0
 10
289.0589065624463
 20
140.7151849066826
 30
0.0
 10
288.9901584531581
 20
140.7151849066826
 30
0.0
 10
288.9106911023633
 20
140.7151849066826
 30
0.0
 10
288.8259442212407
 20
140.7151849066826
 30
0.0
 10
288.7362369380774
 20
140.7151849066826
 30
0.0
 10
288.6428735151917
 20
140.7151849066826
 30
0.0
 10
288.5469069950927
 20
140.7151849066826
 30
0.0
 10
288.4463939879158
 20
140.7151849066826
 30
0.0
 10
288.3432621343082
 20
140.7151849066826
 30
0.0
 10
288.2362678365045
 20
140.7151849066826
 30
0.0
 10
288.1638681497687
 20
140.7151849066826
 30
0.0
 10
288.1274895373824
 20
140.7151849066826
 30
0.0
  0
LINE
  5
1FF
330
1F
100
AcDbEntity
  8
0
  6
Continuous
 62
     7
370
    25
100
AcDbLine
 10
311.8967849205
 20
140.7151849067
 30
0.0
 11
311.8967849205
 21
140.4151849067
 31
0.0
  0
SPLINE
  5
200
330
1F
100
AcDbEntity
  8
0
  6
Continuous
 62
     7
370
    25
100
AcDbSpline
210
0.0
220
0.0
230
1.0
 70
    24
 71
     3
 72
    15
 73
    11
 74
     0
 42
0.00000001
 43
0.00000001
 40
0.0
 40
0.0
 40
0.0
 40
0.0
 40
0.1456324620833369
 40
0.2736891853570448
 40
0.3900290224672495
 40
0.5009341166106053
 40
0.6118392107539595
 40
0.7263108146429521
 40
0.8543675379166364
 40
1.0
 40
1.0
 40
1.0
 40
1.0
 10
311.8967849205104
 20
140.7151849066826
 30
0.0
 10
311.9219016777914
 20
140.7151849066826
 30
0.0
 10
311.9691039618201
 20
140.7151849066826
 30
0.0
 10
312.0350338502388
 20
140.7151849066826
 30
0.0
 10
312.0917276777908
 20
140.7151849066826
 30
0.0
 10
312.1387327368272
 20
140.7151849066826
 30
0.0
 10
312.1740250636467
 20
140.7151849066826
 30
0.0
 10
312.1987600980555
 20
140.7151849066826
 30
0.0
 10
312.21339955833
 20
140.7151849066826
 30
0.0
 10
312.2152005429599
 20
140.7151849066826
 30
0.0
 10
312.2161588629807
 20
140.7151849066826
 30
0.0
  0
LINE
  5
201
330
1F
100
AcDbEntity
  8
0
  6
Continuous
 62
     7
370
    25
100
AcDbLine
 10
312.216158863
 20
140.7151849067
 30
0.0
 11
312.216158863
 21
140.4151849067
 31
0.0
  0
LINE
  5
202
330
1F
100
AcDbEntity
  8
0
  6
Continuous
 62
     7
370
    25
100
AcDbLine
 10
309.5596444806
 20
140.7151849067
 30
0.0
 11
309.5596444806
 21
140.4151849067
 31
0.0
  0
SPLINE
  5
203
330
1F
100
AcDbEntity
  8
0
  6
Continuous
 62
     7
370
    25
100
AcDbSpline
210
0.0
220
0.0
230
1.0
 70
    24
 71
     3
 72
    15
 73
    11
 74
     0
 42
0.00000001
 43
0.00000001
 40
0.0
 40
0.0
 40
0.0
 40
0.0
 40
0.0996223219296958
 40
0.2015541967271639
 40
0.3107216333302908
 40
0.4266739999696189
 40
0.5509963918131817
 40
0.6823455313543964
 40
0.8298901071772238
 40
1.0
 40
1.0
 40
1.0
 40
1.0
 10
309.5596444805781
 20
140.7151849066826
 30
0.0
 10
309.5605760290558
 20
140.7151849066826
 30
0.0
 10
309.5624607221801
 20
140.7151849066826
 30
0.0
 10
309.5810978130587
 20
140.7151849066826
 30
0.0
 10
309.608613598799
 20
140.7151849066826
 30
0.0
 10
309.6466313494829
 20
140.7151849066826
 30
0.0
 10
309.6983439999769
 20
140.7151849066826
 30
0.0
 10
309.7669401478922
 20
140.7151849066826
 30
0.0
 10
309.8478279945713
 20
140.7151849066826
 30
0.0
 10
309.9067084820021
 20
140.7151849066826
 30
0.0
 10
309.9382400812549
 20
140.7151849066826
 30
0.0
  0
LINE
  5
204
330
1F
100
AcDbEntity
  8
0
  6
Continuous
 62
     7
370
    25
100
AcDbLine
 10
309.9382400813
 20
140.7151849067
 30
0.0
 11
309.9382400813
 21
140.4151849067
 31
0.0
  0
LINE
  5
205
330
1F
100
AcDbEntity
  8
0
  6
Continuous
 62
     7
370
    25
100
AcDbLine
 10
309.9382400813
 20
140.7151849067
 30
0.0
 11
311.8967849205
 21
140.7151849067
 31
0.0
  0
LINE
  5
206
330
1F
100
AcDbEntity
  8
0
  6
Continuous
 62
     7
370
    25
100
AcDbLine
 10
313.4735615703
 20
140.7151849067
 30
0.0
 11
313.4735615703
 21
140.4151849067
 31
0.0
  0
LINE
  5
207
330
1F
100
AcDbEntity
  8
0
  6
Continuous
 62
     7
370
    25
100
AcDbLine
 10
314.2645937192
 20
140.7151849067
 30
0.0
 11
314.2645937192
 21
140.4151849067
 31
0.0
  0
SPLINE
  5
208
330
1F
100
AcDbEntity
  8
0
  6
Continuous
 62
     7
370
    25
100
AcDbSpline
210
0.0
220
0.0
230
1.0
 70
    24
 71
     3
 72
    15
 73
    11
 74
     0
 42
0.00000001
 43
0.00000001
 40
0.0
 40
0.0
 40
0.0
 40
0.0
 40
0.1217918398812444
 40
0.241282872101143
 40
0.3607923390796548
 40
0.4817492739864447
 40
0.6043823107218624
 40
0.7310970628762044
 40
0.8629242352176701
 40
1.0
 40
1.0
 40
1.0
 40
1.0
 10
313.4735615702565
 20
140.7151849066826
 30
0.0
 10
313.4991532554473
 20
140.7151849066826
 30
0.0
 10
313.5498531653159
 20
140.7151849066826
 30
0.0
 10
313.6343634931974
 20
140.7151849066826
 30
0.0
 10
313.7247302314207
 20
140.7151849066826
 30
0.0
 10
313.8213068560023
 20
140.7151849066826
 30
0.0
 10
313.9236703052752
 20
140.7151849066826
 30
0.0
 10
314.03200685055
 20
140.7151849066826
 30
0.0
 10
314.1465240804471
 20
140.7151849066826
 30
0.0
 10
314.2247283618173
 20
140.7151849066826
 30
0.0
 10
314.2645937191567
 20
140.7151849066826
 30
0.0
  0
LINE
  5
209
330
1F
100
AcDbEntity
  8
0
  6
Continuous
 62
     7
370
    25
100
AcDbLine
 10
314.7521148697
 20
140.7151849067
 30
0.0
 11
314.7521148697
 21
140.4151849067
 31
0.0
  0
LINE
  5
20A
330
1F
100
AcDbEntity
  8
0
  6
Continuous
 62
     7
370
    25
100
AcDbLine
 10
314.2645937192
 20
140.7151849067
 30
0.0
 11
314.7521148697
 21
140.7151849067
 31
0.0
  0
LINE
  5
20B
330
1F
100
AcDbEntity
  8
0
  6
Continuous
 62
     7
370
    25
100
AcDbLine
 10
315.8032993029
 20
140.7151849067
 30
0.0
 11
315.8032993029
 21
140.4151849067
 31
0.0
  0
SPLINE
  5
20C
330
1F
100
AcDbEntity
  8
0
  6
Continuous
 62
     7
370
    25
100
AcDbSpline
210
0.0
220
0.0
230
1.0
 70
    24
 71
     3
 72
    23
 73
    19
 74
     0
 42
0.00000001
 43
0.00000001
 40
0.0
 40
0.0
 40
0.0
 40
0.0
 40
0.065289997579177
 40
0.1278595048737107
 40
0.1897293757484393
 40
0.250586774325212
 40
0.3114978804897806
 40
0.3729002266827138
 40
0.4355578623861412
 40
0.4998097669577956
 40
0.5640616715294545
 40
0.6270997733172812
 40
0.6885021195102213
 40
0.7494132256747874
 40
0.8102706242515587
 40
0.8721404951262901
 40
0.9347100024208194
 40
1.0
 40
1.0
 40
1.0
 40
1.0
 10
314.752114869749
 20
140.7151849066826
 30
0.0
 10
314.7881061564156
 20
140.7151849066826
 30
0.0
 10
314.8585890521666
 20
140.7151849066826
 30
0.0
 10
314.9625755666644
 20
140.7151849066826
 30
0.0
 10
315.0618017266676
 20
140.7151849066826
 30
0.0
 10
315.1579445345805
 20
140.7151849066826
 30
0.0
 10
315.2492191960643
 20
140.7151849066826
 30
0.0
 10
315.3360359780154
 20
140.7151849066826
 30
0.0
 10
315.4204977185569
 20
140.7151849066826
 30
0.0
 10
315.4974372595918
 20
140.7151849066826
 30
0.0
 10
315.5696317095397
 20
140.7151849066826
 30
0.0
 10
315.6316673926771
 20
140.7151849066826
 30
0.0
 10
315.6851566410119
 20
140.7151849066826
 30
0.0
 10
315.7291033133938
 20
140.7151849066826
 30
0.0
 10
315.7613549773076
 20
140.7151849066826
 30
0.0
 10
315.7863051060064
 20
140.7151849066826
 30
0.0
 10
315.7998424690469
 20
140.7151849066826
 30
0.0
 10
315.8021307952447
 20
140.7151849066826
 30
0.0
 10
315.803299302913
 20
140.7151849066826
 30
0.0
  0
LINE
  5
20D
330
1F
100
AcDbEntity
  8
0
  6
Continuous
 62
     7
370
    25
100
AcDbLine
 10
313.1467849205
 20
140.7151849067
 30
0.0
 11
313.1467849205
 21
140.4151849067
 31
0.0
  0
SPLINE
  5
20E
330
1F
100
AcDbEntity
  8
0
  6
Continuous
 62
     7
370
    25
100
AcDbSpline
210
0.0
220
0.0
230
1.0
 70
    24
 71
     3
 72
    15
 73
    11
 74
     0
 42
0.00000001
 43
0.00000001
 40
0.0
 40
0.0
 40
0.0
 40
0.0
 40
0.1232406891787205
 40
0.2450821769322784
 40
0.3644945982713231
 40
0.4853809719892985
 40
0.6090845447468802
 40
0.7351089704797162
 40
0.8653117837086554
 40
0.9999999999999999
 40
0.9999999999999999
 40
0.9999999999999999
 40
0.9999999999999999
 10
313.1467849205104
 20
140.7151849066826
 30
0.0
 10
313.1478954637564
 20
140.7151849066826
 30
0.0
 10
313.1501039418017
 20
140.7151849066826
 30
0.0
 10
313.1648929594957
 20
140.7151849066826
 30
0.0
 10
313.190688675591
 20
140.7151849066826
 30
0.0
 10
313.2268918479394
 20
140.7151849066826
 30
0.0
 10
313.2736964439092
 20
140.7151849066826
 30
0.0
 10
313.3300023850605
 20
140.7151849066826
 30
0.0
 10
313.3968407838819
 20
140.7151849066826
 30
0.0
 10
313.4477009031233
 20
140.7151849066826
 30
0.0
 10
313.4735615702565
 20
140.7151849066826
 30
0.0
  0
LINE
  5
20F
330
1F
100
AcDbEntity
  8
0
  6
Continuous
 62
     7
370
    25
100
AcDbLine
 10
264.7036800136
 20
140.7151849067
 30
0.0
 11
264.7036800136
 21
140.4151849067
 31
0.0
  0
LINE
  5
210
330
1F
100
AcDbEntity
  8
0
  6
Continuous
 62
     7
370
    25
100
AcDbLine
 10
264.7036800136
 20
140.7151849067
 30
0.0
 11
265.7036800136
 21
140.7151849067
 31
0.0
  0
LINE
  5
211
330
1F
100
AcDbEntity
  8
0
  6
Continuous
 62
     7
370
    25
100
AcDbLine
 10
265.7036800136
 20
140.7151849067
 30
0.0
 11
265.7036800136
 21
140.4151849067
 31
0.0
  0
LINE
  5
212
330
1F
100
AcDbEntity
  8
0
  6
Continuous
 62
     7
370
    25
100
AcDbLine
 10
359.7036800136
 20
140.7151849067
 30
0.0
 11
359.7036800136
 21
140.4151849067
 31
0.0
  0
LINE
  5
213
330
1F
100
AcDbEntity
  8
0
  6
Continuous
 62
     7
370
    25
100
AcDbLine
 10
359.7036800136
 20
140.7151849067
 30
0.0
 11
360.7036800136
 21
140.7151849067
 31
0.0
  0
LINE
  5
214
330
1F
100
AcDbEntity
  8
0
  6
Continuous
 62
     7
370
    25
100
AcDbLine
 10
360.7036800136
 20
140.7151849067
 30
0.0
 11
360.7036800136
 21
140.4151849067
 31
0.0
  0
LINE
  5
215
330
1F
100
AcDbEntity
  8
0
  6
Continuous
 62
     7
370
    25
100
AcDbLine
 10
354.7036800136
 20
140.7151849067
 30
0.0
 11
354.7036800136
 21
140.4151849067
 31
0.0
  0
LINE
  5
216
330
1F
100
AcDbEntity
  8
0
  6
Continuous
 62
     7
370
    25
100
AcDbLine
 10
354.7036800136
 20
140.7151849067
 30
0.0
 11
358.7036800136
 21
140.7151849067
 31
0.0
  0
LINE
  5
217
330
1F
100
AcDbEntity
  8
0
  6
Continuous
 62
     7
370
    25
100
AcDbLine
 10
358.7036800136
 20
140.7151849067
 30
0.0
 11
358.7036800136
 21
140.4151849067
 31
0.0
  0
LINE
  5
218
330
1F
100
AcDbEntity
  8
0
  6
Continuous
 62
     7
370
    25
100
AcDbLine
 10
266.7036800136
 20
140.7151849067
 30
0.0
 11
266.7036800136
 21
140.4151849067
 31
0.0
  0
LINE
  5
219
330
1F
100
AcDbEntity
  8
0
  6
Continuous
 62
     7
370
    25
100
AcDbLine
 10
270.7036800136
 20
140.7151849067
 30
0.0
 11
270.7036800136
 21
140.4151849067
 31
0.0
  0
LINE
  5
21A
330
1F
100
AcDbEntity
  8
0
  6
Continuous
 62
     7
370
    25
100
AcDbLine
 10
266.7036800136
 20
140.7151849067
 30
0.0
 11
270.7036800136
 21
140.7151849067
 31
0.0
  0
LINE
  5
21B
330
1F
100
AcDbEntity
  8
0
  6
Continuous
 62
     7
370
    25
100
AcDbLine
 10
270.7036800136
 20
140.7151849067
 30
0.0
 11
276.2036800136
 21
140.7151849067
 31
0.0
  0
LINE
  5
21C
330
1F
100
AcDbEntity
  8
0
  6
Continuous
 62
     7
370
    25
100
AcDbLine
 10
283.1595609506
 20
140.7151849067
 30
0.0
 11
284.0727495011
 21
140.7151849067
 31
0.0
  0
LINE
  5
21D
330
1F
100
AcDbEntity
  8
0
  6
Continuous
 62
     7
370
    25
100
AcDbLine
 10
289.3779967694
 20
140.7151849067
 30
0.0
 11
309.4287139681
 21
140.7151849067
 31
0.0
  0
LINE
  5
21E
330
1F
100
AcDbEntity
  8
0
  6
Continuous
 62
     7
370
    25
100
AcDbLine
 10
312.2533301208
 20
140.7151849067
 30
0.0
 11
313.0860104086
 21
140.7151849067
 31
0.0
  0
LINE
  5
21F
330
1F
100
AcDbEntity
  8
0
  6
Continuous
 62
     7
370
    25
100
AcDbLine
 10
315.9342298154
 20
140.7151849067
 30
0.0
 11
354.7036800136
 21
140.7151849067
 31
0.0
  0
ARC
  5
220
330
1F
100
AcDbEntity
  8
0
  6
Continuous
 62
     7
370
    25
100
AcDbCircle
 10
262.0016389847
 20
676.4016632236
 30
0.0
 40
25.0
100
AcDbArc
 50
246.9260819344
 51
270.0
  0
ARC
  5
221
330
1F
100
AcDbEntity
  8
0
  6
Continuous
 62
     7
370
    25
100
AcDbCircle
 10
358.4057210424
 20
676.4016632236
 30
0.0
 40
25.00000000000004
100
AcDbArc
 50
270.0
 51
293.0739180656
  0
LINE
  5
222
330
1F
100
AcDbEntity
  8
0
  6
Continuous
 62
     7
370
    25
100
AcDbLine
 10
410.1863772767
 20
635.3843604867
 30
0.0
 11
410.0291426578
 21
653.4016632236
 31
0.0
  0
LINE
  5
223
330
1F
100
AcDbEntity
  8
0
  6
Continuous
 62
     7
370
    25
100
AcDbLine
 10
410.1179019506
 20
635.3158851606
 30
0.0
 11
410.1863772767
 21
635.3843604867
 31
0.0
  0
LINE
  5
224
330
1F
100
AcDbEntity
  8
0
  6
Continuous
 62
     7
370
    25
100
AcDbLine
 10
410.0291426578
 20
653.4016632236
 30
0.0
 11
409.8022135202
 21
653.4016632236
 31
0.0
  0
LINE
  5
225
330
1F
100
AcDbEntity
  8
0
  6
Continuous
 62
     7
370
    25
100
AcDbLine
 10
210.2036800136
 20
633.4016632236
 30
0.0
 11
210.3782173694
 21
653.4016632236
 31
0.0
  0
LINE
  5
226
330
1F
100
AcDbEntity
  8
0
  6
Continuous
 62
     7
370
    25
100
AcDbLine
 10
210.2560452084
 20
633.4016632236
 30
0.0
 11
210.2036800136
 21
633.4016632236
 31
0.0
  0
LINE
  5
227
330
1F
100
AcDbEntity
  8
0
  6
Continuous
 62
     7
370
    25
100
AcDbLine
 10
210.6051465069
 20
653.4016632236
 30
0.0
 11
210.3782173694
 21
653.4016632236
 31
0.0
  0
LINE
  5
228
330
1F
100
AcDbEntity
  8
0
  6
Continuous
 62
     7
370
    25
100
AcDbLine
 10
245.7036800136
 20
653.7016632236
 30
0.0
 11
248.2125966802
 21
653.7016632236
 31
0.0
  0
LINE
  5
229
330
1F
100
AcDbEntity
  8
0
  6
Continuous
 62
     7
370
    25
100
AcDbLine
 10
248.2125966802
 20
653.4016632236
 30
0.0
 11
248.2125966802
 21
653.7016632236
 31
0.0
  0
LINE
  5
22A
330
1F
100
AcDbEntity
  8
0
  6
Continuous
 62
     7
370
    25
100
AcDbLine
 10
245.7036800136
 20
653.4016632236
 30
0.0
 11
245.7036800136
 21
653.7016632236
 31
0.0
  0
LINE
  5
22B
330
1F
100
AcDbEntity
  8
0
  6
Continuous
 62
     7
370
    25
100
AcDbLine
 10
250.7215133469
 20
653.4016632236
 30
0.0
 11
250.7215133469
 21
653.7016632236
 31
0.0
  0
LINE
  5
22C
330
1F
100
AcDbEntity
  8
0
  6
Continuous
 62
     7
370
    25
100
AcDbLine
 10
248.2125966802
 20
653.7016632236
 30
0.0
 11
250.7215133469
 21
653.7016632236
 31
0.0
  0
LINE
  5
22D
330
1F
100
AcDbEntity
  8
0
  6
Continuous
 62
     7
370
    25
100
AcDbLine
 10
210.6727402268
 20
522.9016632236
 30
0.0
 11
210.2036800136
 21
630.4016632236
 31
0.0
  0
LINE
  5
22E
330
1F
100
AcDbEntity
  8
0
  6
Continuous
 62
     7
370
    25
100
AcDbLine
 10
210.2036800136
 20
630.4016632236
 30
0.0
 11
410.2036800136
 21
630.4016632236
 31
0.0
  0
LINE
  5
22F
330
1F
100
AcDbEntity
  8
0
  6
Continuous
 62
     7
370
    25
100
AcDbLine
 10
410.2036800136
 20
630.4016632236
 30
0.0
 11
409.7346198003
 21
522.9016632236
 31
0.0
  0
LINE
  5
230
330
1F
100
AcDbEntity
  8
0
  6
Continuous
 62
     7
370
    25
100
AcDbLine
 10
210.6727402268
 20
522.9016632236
 30
0.0
 11
409.7346198003
 21
522.9016632236
 31
0.0
  0
LINE
  5
231
330
1F
100
AcDbEntity
  8
0
  6
Continuous
 62
     7
370
    25
100
AcDbLine
 10
210.2036800136
 20
630.4016632236
 30
0.0
 11
210.6051465069
 21
653.4016632236
 31
0.0
  0
LINE
  5
232
330
1F
100
AcDbEntity
  8
0
  6
Continuous
 62
     7
370
    25
100
AcDbLine
 10
210.6051465069
 20
653.4016632236
 30
0.0
 11
252.1037227582
 21
653.4016632236
 31
0.0
  0
ARC
  5
233
330
1F
100
AcDbEntity
  8
0
  6
Continuous
 62
     7
370
    25
100
AcDbCircle
 10
261.9016817294
 20
676.4016632236
 30
0.0
 40
25.0
100
AcDbArc
 50
246.9260819344
 51
270.0
  0
LINE
  5
234
330
1F
100
AcDbEntity
  8
0
  6
Continuous
 62
     7
370
    25
100
AcDbLine
 10
261.9016817294
 20
651.4016632236
 30
0.0
 11
358.5056782978
 21
651.4016632236
 31
0.0
  0
ARC
  5
235
330
1F
100
AcDbEntity
  8
0
  6
Continuous
 62
     7
370
    25
100
AcDbCircle
 10
358.5056782978
 20
676.4016632236
 30
0.0
 40
25.00000000000001
100
AcDbArc
 50
270.0
 51
293.0739180656
  0
LINE
  5
236
330
1F
100
AcDbEntity
  8
0
  6
Continuous
 62
     7
370
    25
100
AcDbLine
 10
368.3036372689
 20
653.4016632236
 30
0.0
 11
394.0867990216
 21
653.4016632236
 31
0.0
  0
LINE
  5
237
330
1F
100
AcDbEntity
  8
0
  6
Continuous
 62
     7
370
    25
100
AcDbLine
 10
394.0867990216
 20
653.4016632236
 30
0.0
 11
409.8022135202
 21
653.4016632236
 31
0.0
  0
LINE
  5
238
330
1F
100
AcDbEntity
  8
0
  6
Continuous
 62
     7
370
    25
100
AcDbLine
 10
409.8022135202
 20
653.4016632236
 30
0.0
 11
410.2036800136
 21
630.4016632236
 31
0.0
  0
LINE
  5
239
330
1F
100
AcDbEntity
  8
0
  6
Continuous
 62
     7
370
    25
100
AcDbLine
 10
358.7036800136
 20
522.6016632236
 30
0.0
 11
358.7036800136
 21
522.9016632236
 31
0.0
  0
LINE
  5
23A
330
1F
100
AcDbEntity
  8
0
  6
Continuous
 62
     7
370
    25
100
AcDbLine
 10
358.7036800136
 20
522.6016632236
 30
0.0
 11
354.7036800136
 21
522.6016632236
 31
0.0
  0
LINE
  5
23B
330
1F
100
AcDbEntity
  8
0
  6
Continuous
 62
     7
370
    25
100
AcDbLine
 10
354.7036800136
 20
522.6016632236
 30
0.0
 11
354.7036800136
 21
522.9016632236
 31
0.0
  0
LINE
  5
23C
330
1F
100
AcDbEntity
  8
0
  6
Continuous
 62
     7
370
    25
100
AcDbLine
 10
270.7036800136
 20
522.6016632236
 30
0.0
 11
270.7036800136
 21
522.9016632236
 31
0.0
  0
LINE
  5
23D
330
1F
100
AcDbEntity
  8
0
  6
Continuous
 62
     7
370
    25
100
AcDbLine
 10
266.7036800136
 20
522.6016632236
 30
0.0
 11
266.7036800136
 21
522.9016632236
 31
0.0
  0
LINE
  5
23E
330
1F
100
AcDbEntity
  8
0
  6
Continuous
 62
     7
370
    25
100
AcDbLine
 10
270.7036800136
 20
522.6016632236
 30
0.0
 11
266.7036800136
 21
522.6016632236
 31
0.0
  0
LINE
  5
23F
330
1F
100
AcDbEntity
  8
0
  6
Continuous
 62
     7
370
    25
100
AcDbLine
 10
265.7036800136
 20
522.6016632236
 30
0.0
 11
265.7036800136
 21
522.9016632236
 31
0.0
  0
LINE
  5
240
330
1F
100
AcDbEntity
  8
0
  6
Continuous
 62
     7
370
    25
100
AcDbLine
 10
265.7036800136
 20
522.6016632236
 30
0.0
 11
264.7036800136
 21
522.6016632236
 31
0.0
  0
LINE
  5
241
330
1F
100
AcDbEntity
  8
0
  6
Continuous
 62
     7
370
    25
100
AcDbLine
 10
264.7036800136
 20
522.6016632236
 30
0.0
 11
264.7036800136
 21
522.9016632236
 31
0.0
  0
LINE
  5
242
330
1F
100
AcDbEntity
  8
0
  6
Continuous
 62
     7
370
    25
100
AcDbLine
 10
360.7036800136
 20
522.6016632236
 30
0.0
 11
360.7036800136
 21
522.9016632236
 31
0.0
  0
LINE
  5
243
330
1F
100
AcDbEntity
  8
0
  6
Continuous
 62
     7
370
    25
100
AcDbLine
 10
360.7036800136
 20
522.6016632236
 30
0.0
 11
359.7036800136
 21
522.6016632236
 31
0.0
  0
LINE
  5
244
330
1F
100
AcDbEntity
  8
0
  6
Continuous
 62
     7
370
    25
100
AcDbLine
 10
359.7036800136
 20
522.6016632236
 30
0.0
 11
359.7036800136
 21
522.9016632236
 31
0.0
  0
LINE
  5
245
330
1F
100
AcDbEntity
  8
0
  6
Continuous
 62
     7
370
    25
100
AcDbLine
 10
354.7036800136
 20
522.6016632236
 30
0.0
 11
270.7036800136
 21
522.6016632236
 31
0.0
  0
LINE
  5
246
330
1F
100
AcDbEntity
  8
0
  6
Continuous
 62
     7
370
    25
100
AcDbLine
 10
1027.9485708807
 20
645.9589479106
 30
0.0
 11
1027.9485708807
 21
658.0985630069
 31
0.0
  0
LINE
  5
247
330
1F
100
AcDbEntity
  8
0
  6
Continuous
 62
     7
370
    25
100
AcDbLine
 10
1027.9485708807
 20
419.6686459363
 30
0.0
 11
1027.9485708807
 21
431.1209678594
 31
0.0
  0
LINE
  5
248
330
1F
100
AcDbEntity
  8
0
  6
Continuous
 62
     7
370
    25
100
AcDbLine
 10
911.6887153685
 20
622.4955659126
 30
0.0
 11
904.6176475566
 21
618.4135253535
 31
0.0
  0
LINE
  5
249
330
1F
100
AcDbEntity
  8
0
  6
Continuous
 62
     7
370
    25
100
AcDbLine
 10
915.6167536156
 20
587.1123382028
 30
0.0
 11
918.7880725314
 21
588.943101644
 31
0.0
  0
LINE
  5
24A
330
1F
100
AcDbEntity
  8
0
  6
Continuous
 62
     7
370
    25
100
AcDbLine
 10
1040.5784973525
 20
423.8298665026
 30
0.0
 11
1027.5137369534
 21
431.3719921424
 31
0.0
  0
LINE
  5
24B
330
1F
100
AcDbEntity
  8
0
  6
Continuous
 62
     7
370
    25
100
AcDbLine
 10
1027.5137369534
 20
431.3719921424
 30
0.0
 11
1027.5137369534
 21
419.2263253335
 31
0.0
  0
LINE
  5
24C
330
1F
100
AcDbEntity
  8
0
  6
Continuous
 62
     7
370
    25
100
AcDbLine
 10
1027.5137369534
 20
419.2263253335
 30
0.0
 11
1011.0034290906
 21
428.7575231854
 31
0.0
  0
LINE
  5
24D
330
1F
100
AcDbEntity
  8
0
  6
Continuous
 62
     7
370
    25
100
AcDbLine
 10
1011.0034290906
 20
667.1874402561
 30
0.0
 11
1011.0034290906
 21
428.7575231854
 31
0.0
  0
LINE
  5
24E
330
1F
100
AcDbEntity
  8
0
  6
Continuous
 62
     7
370
    25
100
AcDbLine
 10
1027.5137369534
 20
657.6562424041
 30
0.0
 11
1011.0034290906
 21
667.1874402561
 31
0.0
  0
LINE
  5
24F
330
1F
100
AcDbEntity
  8
0
  6
Continuous
 62
     7
370
    25
100
AcDbLine
 10
1027.5137369534
 20
645.5105755952
 30
0.0
 11
1027.5137369534
 21
657.6562424041
 31
0.0
  0
LINE
  5
250
330
1F
100
AcDbEntity
  8
0
  6
Continuous
 62
     7
370
    25
100
AcDbLine
 10
1027.5137369534
 20
645.5105755952
 30
0.0
 11
1040.5784973525
 21
637.9684499554
 31
0.0
  0
LINE
  5
251
330
1F
100
AcDbEntity
  8
0
  6
Continuous
 62
     7
370
    25
100
AcDbLine
 10
1040.5784973525
 20
423.8298665026
 30
0.0
 11
1040.5784973525
 21
637.9684499554
 31
0.0
  0
LINE
  5
252
330
1F
100
AcDbEntity
  8
0
  6
Continuous
 62
     7
370
    25
100
AcDbLine
 10
1027.7142563056
 20
645.6283536799
 30
0.0
 11
1027.5137369534
 21
645.5105755952
 31
0.0
  0
ELLIPSE
  5
253
330
1F
100
AcDbEntity
  8
0
  6
Continuous
 62
     7
370
    25
100
AcDbEllipse
 10
1027.1485708807
 20
645.9549169247
 30
0.0
 11
0.7999921166178865
 21
0.006099094704836717
 31
0.0
210
0.0
220
0.0
230
1.0
 40
0.5823040753
 41
5.493347719572187
 42
6.278745882969578
  0
ELLIPSE
  5
254
330
1F
100
AcDbEntity
  8
0
  6
Continuous
 62
     7
370
    25
100
AcDbEllipse
 10
1030.3920749147
 20
647.201211081
 30
0.0
 11
3.070554323793431
 21
0.02340973270645464
 31
0.0
210
0.0
220
0.0
230
1.0
 40
0.5823040753
 41
2.369208358502187
 42
2.486648303214404
  0
LINE
  5
255
330
1F
100
AcDbEntity
  8
0
  6
Continuous
 62
     7
370
    25
100
AcDbLine
 10
1028.2573422253
 20
648.4772213061
 30
0.0
 11
1028.1832812146
 21
648.4321881073
 31
0.0
  0
LINE
  5
256
330
1F
100
AcDbEntity
  8
0
  6
Continuous
 62
     7
370
    25
100
AcDbLine
 10
1053.4298359617
 20
645.3873906834
 30
0.0
 11
1053.4298359617
 21
646.2273275941
 31
0.0
  0
LINE
  5
257
330
1F
100
AcDbEntity
  8
0
  6
Continuous
 62
     7
370
    25
100
AcDbLine
 10
1053.4298359617
 20
645.3873906834
 30
0.0
 11
1040.5784973525
 21
637.9684499554
 31
0.0
  0
LINE
  5
258
330
1F
100
AcDbEntity
  8
0
  6
Continuous
 62
     7
370
    25
100
AcDbLine
 10
1053.4298359617
 20
430.9920302638
 30
0.0
 11
1053.4298359617
 21
645.3873906834
 31
0.0
  0
LINE
  5
259
330
1F
100
AcDbEntity
  8
0
  6
Continuous
 62
     7
370
    25
100
AcDbLine
 10
1053.4298359617
 20
430.9920302638
 30
0.0
 11
1040.5784973525
 21
423.8298665026
 31
0.0
  0
ARC
  5
25A
330
1F
100
AcDbEntity
  8
0
  6
Continuous
 62
     7
370
    25
100
AcDbCircle
 10
997.3397807624
 20
657.1079918588
 30
0.0
 40
16.97912146217854
100
AcDbArc
 50
36.4155851163
 51
61.315827506
  0
LINE
  5
25B
330
1F
100
AcDbEntity
  8
0
  6
Continuous
 62
     7
370
    25
100
AcDbLine
 10
1005.4894394227
 20
672.0034149595
 30
0.0
 11
937.3214592656
 21
711.3559522619
 31
0.0
  0
ARC
  5
25C
330
1F
100
AcDbEntity
  8
0
  6
Continuous
 62
     7
370
    25
100
AcDbCircle
 10
922.3514548207
 20
684.6460636152
 30
0.0
 40
30.61893506640004
100
AcDbArc
 50
60.730819368
 51
77.4991620862
  0
LINE
  5
25D
330
1F
100
AcDbEntity
  8
0
  6
Continuous
 62
     7
370
    25
100
AcDbLine
 10
928.9790424729
 20
714.5391107418
 30
0.0
 11
912.4854496629
 21
724.0606591991
 31
0.0
  0
LINE
  5
25E
330
1F
100
AcDbEntity
  8
0
  6
Continuous
 62
     7
370
    25
100
AcDbLine
 10
912.4854496629
 20
724.0606591991
 30
0.0
 11
913.6081575637
 21
724.7201964744
 31
0.0
  0
LINE
  5
25F
330
1F
100
AcDbEntity
  8
0
  6
Continuous
 62
     7
370
    25
100
AcDbLine
 10
929.9107193774
 20
715.6340813368
 30
0.0
 11
930.1103567146
 21
715.5188331552
 31
0.0
  0
LWPOLYLINE
  5
260
330
1F
100
AcDbEntity
  8
0
  6
Continuous
 62
     7
370
    25
100
AcDbPolyline
 90
        3
 70
   128
 43
0.0
 10
930.1103567146
 20
715.5188331552
 10
931.3026010864
 20
715.2095801057
 10
931.9079295682
 20
715.0368809893
  0
ARC
  5
261
330
1F
100
AcDbEntity
  8
0
  6
Continuous
 62
     7
370
    25
100
AcDbCircle
 10
1028.7350803241
 20
659.4580884372
 30
0.0
 40
1.437307342084535
100
AcDbArc
 50
196.2728625252
 51
230.4028589398
  0
LWPOLYLINE
  5
262
330
1F
100
AcDbEntity
  8
0
  6
Continuous
 62
     7
370
    25
100
AcDbPolyline
 90
        9
 70
   128
 43
0.0
 10
1027.7142563056
 20
657.7719997622
 10
1027.8019563613
 20
657.8320789616
 10
1027.8707468518
 20
657.8998704497
 10
1027.9186369182
 20
657.9734122796
 10
1027.9442405788
 20
658.0505760845
 10
1027.9468168405
 20
658.1291286743
 10
1027.9262911441
 20
658.206796666
 10
1027.8832575216
 20
658.281332278
 10
1027.818961405
 20
658.3505783824
  0
LINE
  5
263
330
1F
100
AcDbEntity
  8
0
  6
Continuous
 62
     7
370
    25
100
AcDbLine
 10
1027.7142563056
 20
657.7719997622
 30
0.0
 11
1027.5137369534
 21
657.6562424041
 31
0.0
  0
ELLIPSE
  5
264
330
1F
100
AcDbEntity
  8
0
  6
Continuous
 62
     7
370
    25
100
AcDbEllipse
 10
1030.3920749147
 20
656.4019615812
 30
0.0
 11
3.07047558307886
 21
-0.04561990592753773
 31
0.0
210
0.0
220
0.0
230
0.9999999999999998
 40
0.5671245594
 41
2.382073694618458
 42
2.499513639330722
  0
LINE
  5
265
330
1F
100
AcDbEntity
  8
0
  6
Continuous
 62
     7
370
    25
100
AcDbLine
 10
1028.1832812146
 20
657.6340842681
 30
0.0
 11
1028.2573422253
 21
657.6768385327
 31
0.0
  0
ARC
  5
266
330
1F
100
AcDbEntity
  8
0
  6
Continuous
 62
     7
370
    25
100
AcDbCircle
 10
997.3397807624
 20
418.6780747882
 30
0.0
 40
16.97912146218179
100
AcDbArc
 50
36.4155851163
 51
61.315827506
  0
LINE
  5
267
330
1F
100
AcDbEntity
  8
0
  6
Continuous
 62
     7
370
    25
100
AcDbLine
 10
1005.4894394227
 20
433.5734978889
 30
0.0
 11
937.3214592656
 21
472.9260351913
 31
0.0
  0
ARC
  5
268
330
1F
100
AcDbEntity
  8
0
  6
Continuous
 62
     7
370
    25
100
AcDbCircle
 10
922.3514548207
 20
446.2161465445
 30
0.0
 40
30.61893506639154
100
AcDbArc
 50
60.730819368
 51
77.4991620862
  0
LINE
  5
269
330
1F
100
AcDbEntity
  8
0
  6
Continuous
 62
     7
370
    25
100
AcDbLine
 10
928.9790424729
 20
476.1091936711
 30
0.0
 11
928.9790424729
 21
714.5391107418
 31
0.0
  0
LINE
  5
26A
330
1F
100
AcDbEntity
  8
0
  6
Continuous
 62
     7
370
    25
100
AcDbLine
 10
927.9309923721
 20
599.0021279293
 30
0.0
 11
927.9309923721
 21
600.1195640303
 31
0.0
  0
LINE
  5
26B
330
1F
100
AcDbEntity
  8
0
  6
Continuous
 62
     7
370
    25
100
AcDbLine
 10
927.9309923721
 20
600.1195640303
 30
0.0
 11
926.963316742
 21
600.6781912808
 31
0.0
  0
LINE
  5
26C
330
1F
100
AcDbEntity
  8
0
  6
Continuous
 62
     7
370
    25
100
AcDbLine
 10
927.9309923721
 20
593.2038761604
 30
0.0
 11
926.6407581987
 21
594.9419890287
 31
0.0
  0
LINE
  5
26D
330
1F
100
AcDbEntity
  8
0
  6
Continuous
 62
     7
370
    25
100
AcDbLine
 10
926.6407581987
 20
594.9419890287
 30
0.0
 11
926.6407581987
 21
595.0695452955
 31
0.0
  0
LINE
  5
26E
330
1F
100
AcDbEntity
  8
0
  6
Continuous
 62
     7
370
    25
100
AcDbLine
 10
927.9309923721
 20
594.569631395
 30
0.0
 11
927.9309923721
 21
595.6870674961
 31
0.0
  0
LINE
  5
26F
330
1F
100
AcDbEntity
  8
0
  6
Continuous
 62
     7
370
    25
100
AcDbLine
 10
927.9309923721
 20
595.6870674961
 30
0.0
 11
924.3828483952
 21
597.7353674146
 31
0.0
  0
LINE
  5
270
330
1F
100
AcDbEntity
  8
0
  6
Continuous
 62
     7
370
    25
100
AcDbLine
 10
925.4609505343
 20
595.4597693336
 30
0.0
 11
924.3828483952
 21
595.2521760789
 31
0.0
  0
LINE
  5
271
330
1F
100
AcDbEntity
  8
0
  6
Continuous
 62
     7
370
    25
100
AcDbLine
 10
927.9309923721
 20
591.7387932723
 30
0.0
 11
927.9309923721
 21
593.2038761604
 31
0.0
  0
LINE
  5
272
330
1F
100
AcDbEntity
  8
0
  6
Continuous
 62
     7
370
    25
100
AcDbLine
 10
927.9309923721
 20
596.0595461964
 30
0.0
 11
927.9309923721
 21
598.6296492289
 31
0.0
  0
LINE
  5
273
330
1F
100
AcDbEntity
  8
0
  6
Continuous
 62
     7
370
    25
100
AcDbLine
 10
927.9309923721
 20
598.6296492289
 30
0.0
 11
926.963316742
 21
599.1882764794
 31
0.0
  0
LINE
  5
274
330
1F
100
AcDbEntity
  8
0
  6
Continuous
 62
     7
370
    25
100
AcDbLine
 10
926.6407581987
 20
599.7469642633
 30
0.0
 11
926.6407581987
 21
600.8644003643
 31
0.0
  0
LINE
  5
275
330
1F
100
AcDbEntity
  8
0
  6
Continuous
 62
     7
370
    25
100
AcDbLine
 10
926.6407581987
 20
600.8644003643
 30
0.0
 11
924.3828483952
 21
602.1678639489
 31
0.0
  0
LINE
  5
276
330
1F
100
AcDbEntity
  8
0
  6
Continuous
 62
     7
370
    25
100
AcDbLine
 10
925.3505240253
 20
597.5492188645
 30
0.0
 11
925.3505240253
 21
598.7569633623
 31
0.0
  0
LINE
  5
277
330
1F
100
AcDbEntity
  8
0
  6
Continuous
 62
     7
370
    25
100
AcDbLine
 10
926.6407581987
 20
596.8043825305
 30
0.0
 11
926.6407581987
 21
599.3744855629
 31
0.0
  0
LINE
  5
278
330
1F
100
AcDbEntity
  8
0
  6
Continuous
 62
     7
370
    25
100
AcDbLine
 10
926.6407581987
 20
599.3744855629
 30
0.0
 11
924.3828483952
 21
600.6779491475
 31
0.0
  0
LINE
  5
279
330
1F
100
AcDbEntity
  8
0
  6
Continuous
 62
     7
370
    25
100
AcDbLine
 10
899.4039742109
 20
701.2579073195
 30
0.0
 11
912.4854496629
 21
693.7061322851
 31
0.0
  0
LINE
  5
27A
330
1F
100
AcDbEntity
  8
0
  6
Continuous
 62
     7
370
    25
100
AcDbLine
 10
912.4854496629
 20
693.7061322851
 30
0.0
 11
912.4854496629
 21
724.0606591991
 31
0.0
  0
LINE
  5
27B
330
1F
100
AcDbEntity
  8
0
  6
Continuous
 62
     7
370
    25
100
AcDbLine
 10
928.9790424729
 20
476.1091936711
 30
0.0
 11
912.4854496629
 21
485.6307421285
 31
0.0
  0
LINE
  5
27C
330
1F
100
AcDbEntity
  8
0
  6
Continuous
 62
     7
370
    25
100
AcDbLine
 10
912.4854496629
 20
485.6307421285
 30
0.0
 11
912.4854496629
 21
515.9852690425
 31
0.0
  0
LINE
  5
27D
330
1F
100
AcDbEntity
  8
0
  6
Continuous
 62
     7
370
    25
100
AcDbLine
 10
912.4854496629
 20
515.9852690425
 30
0.0
 11
899.4039742109
 21
523.5370440769
 31
0.0
  0
LINE
  5
27E
330
1F
100
AcDbEntity
  8
0
  6
Continuous
 62
     7
370
    25
100
AcDbLine
 10
899.4039742109
 20
523.5370440769
 30
0.0
 11
899.4039742109
 21
590.605214236
 31
0.0
  0
LINE
  5
27F
330
1F
100
AcDbEntity
  8
0
  6
Continuous
 62
     7
370
    25
100
AcDbLine
 10
899.4039742109
 20
590.605214236
 30
0.0
 11
911.3013729433
 21
583.7369921421
 31
0.0
  0
ARC
  5
280
330
1F
100
AcDbEntity
  8
0
  6
Continuous
 62
     7
370
    25
100
AcDbCircle
 10
913.4306108315
 20
586.2837192015
 30
0.0
 40
3.319559112331666
100
AcDbArc
 50
230.1020716587
 51
325.4162645246
  0
LINE
  5
281
330
1F
100
AcDbEntity
  8
0
  6
Continuous
 62
     7
370
    25
100
AcDbLine
 10
916.1635956457
 20
584.3995040584
 30
0.0
 11
921.539002285
 21
593.7056194071
 31
0.0
  0
LWPOLYLINE
  5
282
330
1F
100
AcDbEntity
  8
0
  6
Continuous
 62
     7
370
    25
100
AcDbPolyline
 90
        9
 70
   128
 43
0.0
 10
921.539002285
 20
593.7056194071
 10
922.0627339859
 20
594.8107433034
 10
922.4419347433
 20
596.0598226343
 10
922.6715116844
 20
597.4360815838
 10
922.7483814658
 20
598.921036244
 10
922.6715116844
 20
600.4947428647
 10
922.4419347433
 20
602.1360657084
 10
922.0627339859
 20
603.8229609146
 10
921.539002285
 20
605.5327725616
  0
LINE
  5
283
330
1F
100
AcDbEntity
  8
0
  6
Continuous
 62
     7
370
    25
100
AcDbLine
 10
921.539002285
 20
605.5327725616
 30
0.0
 11
916.1635956457
 21
621.045200311
 31
0.0
  0
ARC
  5
284
330
1F
100
AcDbEntity
  8
0
  6
Continuous
 62
     7
370
    25
100
AcDbCircle
 10
904.8645030022
 20
617.3133867511
 30
0.0
 40
11.89940868334695
100
AcDbArc
 50
18.2771239905
 51
57.2523265308
  0
LINE
  5
285
330
1F
100
AcDbEntity
  8
0
  6
Continuous
 62
     7
370
    25
100
AcDbLine
 10
911.3013729433
 20
627.3215150664
 30
0.0
 11
899.4039742109
 21
634.1897371603
 31
0.0
  0
LINE
  5
286
330
1F
100
AcDbEntity
  8
0
  6
Continuous
 62
     7
370
    25
100
AcDbLine
 10
899.4039742109
 20
701.2579073195
 30
0.0
 11
899.4039742109
 21
634.1897371603
 31
0.0
  0
LINE
  5
287
330
1F
100
AcDbEntity
  8
0
  6
Continuous
 62
     7
370
    25
100
AcDbLine
 10
900.49927146
 20
701.9124771391
 30
0.0
 11
899.4039742109
 21
701.2579073195
 31
0.0
  0
LINE
  5
288
330
1F
100
AcDbEntity
  8
0
  6
Continuous
 62
     7
370
    25
100
AcDbLine
 10
1027.7142563056
 20
419.3420826915
 30
0.0
 11
1027.5137369534
 21
419.2263253335
 31
0.0
  0
ARC
  5
289
330
1F
100
AcDbEntity
  8
0
  6
Continuous
 62
     7
370
    25
100
AcDbCircle
 10
1027.5472261351
 20
419.7092735552
 30
0.0
 40
0.4033958456008641
100
AcDbArc
 50
294.4601476787
 51
354.2197113637
  0
LINE
  5
28A
330
1F
100
AcDbEntity
  8
0
  6
Continuous
 62
     7
370
    25
100
AcDbLine
 10
918.5468140947
 20
588.5254255516
 30
0.0
 11
918.3056860093
 21
588.6646258323
 31
0.0
  0
ARC
  5
28B
330
1F
100
AcDbEntity
  8
0
  6
Continuous
 62
     7
370
    25
100
AcDbCircle
 10
914.3815385781
 20
617.5501734185
 30
0.0
 40
5.631003796731354
100
AcDbArc
 50
81.3446683804
 51
118.5688013698
  0
LINE
  5
28C
330
1F
100
AcDbEntity
  8
0
  6
Continuous
 62
     7
370
    25
100
AcDbLine
 10
906.9740825119
 20
629.819606659
 30
0.0
 11
906.9740825119
 21
619.7738662975
 31
0.0
  0
ELLIPSE
  5
28D
330
1F
100
AcDbEntity
  8
0
  6
Continuous
 62
     7
370
    25
100
AcDbEllipse
 10
1030.3920749147
 20
423.8038644289
 30
0.0
 11
3.07045925034322
 21
0.04724002468174149
 31
0.0
210
0.0
220
0.0
230
1.0
 40
0.5872748834
 41
2.364612611489556
 42
2.48205255620181
  0
LINE
  5
28E
330
1F
100
AcDbEntity
  8
0
  6
Continuous
 62
     7
370
    25
100
AcDbLine
 10
927.7188603377
 20
598.8796667125
 30
0.0
 11
927.7188603377
 21
599.9971028135
 31
0.0
  0
LINE
  5
28F
330
1F
100
AcDbEntity
  8
0
  6
Continuous
 62
     7
370
    25
100
AcDbLine
 10
927.9309923721
 20
600.1195640303
 30
0.0
 11
927.7188603377
 21
599.9971028135
 31
0.0
  0
LINE
  5
290
330
1F
100
AcDbEntity
  8
0
  6
Continuous
 62
     7
370
    25
100
AcDbLine
 10
927.9309923721
 20
599.0021279293
 30
0.0
 11
927.7188603377
 21
598.8796667125
 31
0.0
  0
LINE
  5
291
330
1F
100
AcDbEntity
  8
0
  6
Continuous
 62
     7
370
    25
100
AcDbLine
 10
927.7188603377
 20
599.9971028135
 30
0.0
 11
926.7511847077
 21
600.5557300641
 31
0.0
  0
LINE
  5
292
330
1F
100
AcDbEntity
  8
0
  6
Continuous
 62
     7
370
    25
100
AcDbLine
 10
926.963316742
 20
600.6781912808
 30
0.0
 11
926.7511847077
 21
600.5557300641
 31
0.0
  0
LINE
  5
293
330
1F
100
AcDbEntity
  8
0
  6
Continuous
 62
     7
370
    25
100
AcDbLine
 10
926.7511847077
 20
599.438293963
 30
0.0
 11
927.7188603377
 21
598.8796667125
 31
0.0
  0
LINE
  5
294
330
1F
100
AcDbEntity
  8
0
  6
Continuous
 62
     7
370
    25
100
AcDbLine
 10
926.7511847077
 20
600.5557300641
 30
0.0
 11
926.7511847077
 21
599.438293963
 31
0.0
  0
LWPOLYLINE
  5
295
330
1F
100
AcDbEntity
  8
0
  6
Continuous
 62
     7
370
    25
100
AcDbPolyline
 90
       31
 70
   128
 43
0.0
 10
920.9351955039
 20
595.0956332153
 10
921.5039983182
 20
596.2501351447
 10
921.8919773956
 20
597.5848742939
 10
922.0918528496
 20
599.0748061442
 10
922.0998742961
 20
600.6919742025
 10
921.915891224
 20
602.4060345659
 10
921.543355819
 20
604.1848252822
 10
920.9892581883
 20
605.9949698247
 10
920.2639952011
 20
607.8025033557
 10
919.3811754059
 20
609.5735100295
 10
918.3573636847
 20
611.274759376
 10
917.2117704367
 20
612.874329824
 10
915.9658911212
 20
614.3422076652
 10
914.6431029259
 20
615.650850219
 10
913.2682261264
 20
616.7757026333
 10
911.8670583682
 20
617.6956586213
 10
910.46589061
 20
618.3934564921
 10
909.0910138105
 20
618.8560030418
 10
907.7682256152
 20
619.0746192296
 10
906.5223462997
 20
619.0452030276
 10
905.3767530517
 20
618.7683063898
 10
904.3529413305
 20
618.2491248955
 10
903.4701215353
 20
617.4974002612
 10
902.7448585481
 20
616.5272375513
 10
902.1907609174
 20
615.3568405159
 10
901.8182255124
 20
614.0081700229
 10
901.6342424403
 20
612.506531993
 10
901.6422638868
 20
610.8801025695
 10
901.8421393408
 20
609.1593994322
 10
902.2301184182
 20
607.3767091753
 10
902.7989212325
 20
605.5654814951
  0
LINE
  5
296
330
1F
100
AcDbEntity
  8
0
  6
Continuous
 62
     7
370
    25
100
AcDbLine
 10
916.557474128
 20
588.0420924464
 30
0.0
 11
920.9351955039
 21
595.0956332153
 31
0.0
  0
LWPOLYLINE
  5
297
330
1F
100
AcDbEntity
  8
0
  6
Continuous
 62
     7
370
    25
100
AcDbPolyline
 90
       12
 70
   128
 43
0.0
 10
907.1766426084
 20
593.4575312118
 10
907.7528481982
 20
592.1185088494
 10
908.4887275806
 20
590.8372826459
 10
909.355721045
 20
589.6635773938
 10
910.3201803019
 20
588.6429449637
 10
911.3446743838
 20
587.8149964216
 10
912.3894423526
 20
587.2118647112
 10
913.4139364345
 20
586.8569575641
 10
914.3783956914
 20
586.7640490386
 10
915.2453891558
 20
586.9367449438
 10
915.9812685382
 20
587.3683428973
 10
916.557474128
 20
588.0420924464
  0
LINE
  5
298
330
1F
100
AcDbEntity
  8
0
  6
Continuous
 62
     7
370
    25
100
AcDbLine
 10
902.7989212325
 20
605.5654814951
 30
0.0
 11
907.1766426084
 21
593.4575312118
 31
0.0
  0
LINE
  5
299
330
1F
100
AcDbEntity
  8
0
  6
Continuous
 62
     7
370
    25
100
AcDbLine
 10
927.7188603377
 20
595.9370849797
 30
0.0
 11
927.7188603377
 21
598.5071880121
 31
0.0
  0
LINE
  5
29A
330
1F
100
AcDbEntity
  8
0
  6
Continuous
 62
     7
370
    25
100
AcDbLine
 10
927.9309923721
 20
598.6296492289
 30
0.0
 11
927.7188603377
 21
598.5071880121
 31
0.0
  0
LINE
  5
29B
330
1F
100
AcDbEntity
  8
0
  6
Continuous
 62
     7
370
    25
100
AcDbLine
 10
927.9309923721
 20
596.0595461964
 30
0.0
 11
927.7188603377
 21
595.9370849797
 31
0.0
  0
LINE
  5
29C
330
1F
100
AcDbEntity
  8
0
  6
Continuous
 62
     7
370
    25
100
AcDbLine
 10
926.7511847077
 20
596.4957122302
 30
0.0
 11
927.7188603377
 21
595.9370849797
 31
0.0
  0
LINE
  5
29D
330
1F
100
AcDbEntity
  8
0
  6
Continuous
 62
     7
370
    25
100
AcDbLine
 10
926.7511847077
 20
599.0658152626
 30
0.0
 11
926.7511847077
 21
596.4957122302
 31
0.0
  0
LINE
  5
29E
330
1F
100
AcDbEntity
  8
0
  6
Continuous
 62
     7
370
    25
100
AcDbLine
 10
927.7188603377
 20
598.5071880121
 30
0.0
 11
926.7511847077
 21
599.0658152626
 31
0.0
  0
LINE
  5
29F
330
1F
100
AcDbEntity
  8
0
  6
Continuous
 62
     7
370
    25
100
AcDbLine
 10
926.963316742
 20
599.1882764794
 30
0.0
 11
926.7511847077
 21
599.0658152626
 31
0.0
  0
LINE
  5
2A0
330
1F
100
AcDbEntity
  8
0
  6
Continuous
 62
     7
370
    25
100
AcDbLine
 10
926.4286261643
 20
599.6245030465
 30
0.0
 11
926.4286261643
 21
600.7419391476
 31
0.0
  0
LINE
  5
2A1
330
1F
100
AcDbEntity
  8
0
  6
Continuous
 62
     7
370
    25
100
AcDbLine
 10
924.1707163608
 20
600.927966631
 30
0.0
 11
926.4286261643
 21
599.6245030465
 31
0.0
  0
LINE
  5
2A2
330
1F
100
AcDbEntity
  8
0
  6
Continuous
 62
     7
370
    25
100
AcDbLine
 10
924.1707163608
 20
602.0454027321
 30
0.0
 11
924.1707163608
 21
600.927966631
 31
0.0
  0
LINE
  5
2A3
330
1F
100
AcDbEntity
  8
0
  6
Continuous
 62
     7
370
    25
100
AcDbLine
 10
926.4286261643
 20
600.7419391476
 30
0.0
 11
924.1707163608
 21
602.0454027321
 31
0.0
  0
LINE
  5
2A4
330
1F
100
AcDbEntity
  8
0
  6
Continuous
 62
     7
370
    25
100
AcDbLine
 10
926.6407581987
 20
600.8644003643
 30
0.0
 11
926.4286261643
 21
600.7419391476
 31
0.0
  0
LINE
  5
2A5
330
1F
100
AcDbEntity
  8
0
  6
Continuous
 62
     7
370
    25
100
AcDbLine
 10
926.6407581987
 20
599.7469642633
 30
0.0
 11
926.4286261643
 21
599.6245030465
 31
0.0
  0
LINE
  5
2A6
330
1F
100
AcDbEntity
  8
0
  6
Continuous
 62
     7
370
    25
100
AcDbLine
 10
924.3828483952
 20
602.1678639489
 30
0.0
 11
924.1707163608
 21
602.0454027321
 31
0.0
  0
LINE
  5
2A7
330
1F
100
AcDbEntity
  8
0
  6
Continuous
 62
     7
370
    25
100
AcDbLine
 10
1028.2573422253
 20
425.0802524503
 30
0.0
 11
1028.1832812146
 21
425.0344595296
 31
0.0
  0
LINE
  5
2A8
330
1F
100
AcDbEntity
  8
0
  6
Continuous
 62
     7
370
    25
100
AcDbLine
 10
926.4286261643
 20
596.6819213137
 30
0.0
 11
926.4286261643
 21
599.2520243461
 31
0.0
  0
LINE
  5
2A9
330
1F
100
AcDbEntity
  8
0
  6
Continuous
 62
     7
370
    25
100
AcDbLine
 10
926.6407581987
 20
599.3744855629
 30
0.0
 11
926.4286261643
 21
599.2520243461
 31
0.0
  0
LINE
  5
2AA
330
1F
100
AcDbEntity
  8
0
  6
Continuous
 62
     7
370
    25
100
AcDbLine
 10
926.6407581987
 20
596.8043825305
 30
0.0
 11
926.4286261643
 21
596.6819213137
 31
0.0
  0
LINE
  5
2AB
330
1F
100
AcDbEntity
  8
0
  6
Continuous
 62
     7
370
    25
100
AcDbLine
 10
925.4609505343
 20
597.2405485642
 30
0.0
 11
926.4286261643
 21
596.6819213137
 31
0.0
  0
LINE
  5
2AC
330
1F
100
AcDbEntity
  8
0
  6
Continuous
 62
     7
370
    25
100
AcDbLine
 10
925.4609505343
 20
598.6932154956
 30
0.0
 11
925.4609505343
 21
597.2405485642
 31
0.0
  0
LINE
  5
2AD
330
1F
100
AcDbEntity
  8
0
  6
Continuous
 62
     7
370
    25
100
AcDbLine
 10
925.1383919909
 20
598.8794245791
 30
0.0
 11
925.4609505343
 21
598.6932154956
 31
0.0
  0
LINE
  5
2AE
330
1F
100
AcDbEntity
  8
0
  6
Continuous
 62
     7
370
    25
100
AcDbLine
 10
925.1383919909
 20
597.4267576477
 30
0.0
 11
925.1383919909
 21
598.8794245791
 31
0.0
  0
LINE
  5
2AF
330
1F
100
AcDbEntity
  8
0
  6
Continuous
 62
     7
370
    25
100
AcDbLine
 10
924.1707163608
 20
597.9853848982
 30
0.0
 11
925.1383919909
 21
597.4267576477
 31
0.0
  0
LINE
  5
2B0
330
1F
100
AcDbEntity
  8
0
  6
Continuous
 62
     7
370
    25
100
AcDbLine
 10
924.1707163608
 20
600.5554879307
 30
0.0
 11
924.1707163608
 21
597.9853848982
 31
0.0
  0
LINE
  5
2B1
330
1F
100
AcDbEntity
  8
0
  6
Continuous
 62
     7
370
    25
100
AcDbLine
 10
926.4286261643
 20
599.2520243461
 30
0.0
 11
924.1707163608
 21
600.5554879307
 31
0.0
  0
LINE
  5
2B2
330
1F
100
AcDbEntity
  8
0
  6
Continuous
 62
     7
370
    25
100
AcDbLine
 10
924.3828483952
 20
600.6779491475
 30
0.0
 11
924.1707163608
 21
600.5554879307
 31
0.0
  0
LINE
  5
2B3
330
1F
100
AcDbEntity
  8
0
  6
Continuous
 62
     7
370
    25
100
AcDbLine
 10
925.9447883493
 20
594.0062372495
 30
0.0
 11
927.7188603377
 21
591.6163320556
 31
0.0
  0
LINE
  5
2B4
330
1F
100
AcDbEntity
  8
0
  6
Continuous
 62
     7
370
    25
100
AcDbLine
 10
924.1707163608
 20
593.6646319741
 30
0.0
 11
925.9447883493
 21
594.0062372495
 31
0.0
  0
LINE
  5
2B5
330
1F
100
AcDbEntity
  8
0
  6
Continuous
 62
     7
370
    25
100
AcDbLine
 10
924.1707163608
 20
595.1297148622
 30
0.0
 11
924.1707163608
 21
593.6646319741
 31
0.0
  0
LINE
  5
2B6
330
1F
100
AcDbEntity
  8
0
  6
Continuous
 62
     7
370
    25
100
AcDbLine
 10
925.4609505343
 20
595.3781550624
 30
0.0
 11
924.1707163608
 21
595.1297148622
 31
0.0
  0
LINE
  5
2B7
330
1F
100
AcDbEntity
  8
0
  6
Continuous
 62
     7
370
    25
100
AcDbLine
 10
925.4609505343
 20
595.7506337628
 30
0.0
 11
925.4609505343
 21
595.3781550624
 31
0.0
  0
LINE
  5
2B8
330
1F
100
AcDbEntity
  8
0
  6
Continuous
 62
     7
370
    25
100
AcDbLine
 10
924.1707163608
 20
596.4954700968
 30
0.0
 11
925.4609505343
 21
595.7506337628
 31
0.0
  0
LINE
  5
2B9
330
1F
100
AcDbEntity
  8
0
  6
Continuous
 62
     7
370
    25
100
AcDbLine
 10
924.1707163608
 20
597.6129061979
 30
0.0
 11
924.1707163608
 21
596.4954700968
 31
0.0
  0
LINE
  5
2BA
330
1F
100
AcDbEntity
  8
0
  6
Continuous
 62
     7
370
    25
100
AcDbLine
 10
927.7188603377
 20
595.5646062793
 30
0.0
 11
924.1707163608
 21
597.6129061979
 31
0.0
  0
LINE
  5
2BB
330
1F
100
AcDbEntity
  8
0
  6
Continuous
 62
     7
370
    25
100
AcDbLine
 10
927.7188603377
 20
594.4471701783
 30
0.0
 11
927.7188603377
 21
595.5646062793
 31
0.0
  0
LINE
  5
2BC
330
1F
100
AcDbEntity
  8
0
  6
Continuous
 62
     7
370
    25
100
AcDbLine
 10
926.4286261643
 20
595.1920065123
 30
0.0
 11
927.7188603377
 21
594.4471701783
 31
0.0
  0
LINE
  5
2BD
330
1F
100
AcDbEntity
  8
0
  6
Continuous
 62
     7
370
    25
100
AcDbLine
 10
926.4286261643
 20
594.8195278119
 30
0.0
 11
926.4286261643
 21
595.1920065123
 31
0.0
  0
LINE
  5
2BE
330
1F
100
AcDbEntity
  8
0
  6
Continuous
 62
     7
370
    25
100
AcDbLine
 10
927.7188603377
 20
593.0814149436
 30
0.0
 11
926.4286261643
 21
594.8195278119
 31
0.0
  0
LINE
  5
2BF
330
1F
100
AcDbEntity
  8
0
  6
Continuous
 62
     7
370
    25
100
AcDbLine
 10
927.7188603377
 20
591.6163320556
 30
0.0
 11
927.7188603377
 21
593.0814149436
 31
0.0
  0
LINE
  5
2C0
330
1F
100
AcDbEntity
  8
0
  6
Continuous
 62
     7
370
    25
100
AcDbLine
 10
927.9309923721
 20
595.6870674961
 30
0.0
 11
927.7188603377
 21
595.5646062793
 31
0.0
  0
LINE
  5
2C1
330
1F
100
AcDbEntity
  8
0
  6
Continuous
 62
     7
370
    25
100
AcDbLine
 10
927.9309923721
 20
594.569631395
 30
0.0
 11
927.7188603377
 21
594.4471701783
 31
0.0
  0
LINE
  5
2C2
330
1F
100
AcDbEntity
  8
0
  6
Continuous
 62
     7
370
    25
100
AcDbLine
 10
924.3828483952
 20
597.7353674146
 30
0.0
 11
924.1707163608
 21
597.6129061979
 31
0.0
  0
LINE
  5
2C3
330
1F
100
AcDbEntity
  8
0
  6
Continuous
 62
     7
370
    25
100
AcDbLine
 10
925.3505240253
 20
597.5492188645
 30
0.0
 11
925.1383919909
 21
597.4267576477
 31
0.0
  0
LINE
  5
2C4
330
1F
100
AcDbEntity
  8
0
  6
Continuous
 62
     7
370
    25
100
AcDbLine
 10
926.6407581987
 20
594.9419890287
 30
0.0
 11
926.4286261643
 21
594.8195278119
 31
0.0
  0
LINE
  5
2C5
330
1F
100
AcDbEntity
  8
0
  6
Continuous
 62
     7
370
    25
100
AcDbLine
 10
927.9309923721
 20
593.2038761604
 30
0.0
 11
927.7188603377
 21
593.0814149436
 31
0.0
  0
LINE
  5
2C6
330
1F
100
AcDbEntity
  8
0
  6
Continuous
 62
     7
370
    25
100
AcDbLine
 10
927.9309923721
 20
591.7387932723
 30
0.0
 11
927.7188603377
 21
591.6163320556
 31
0.0
  0
LINE
  5
2C7
330
1F
100
AcDbEntity
  8
0
  6
Continuous
 62
     7
370
    25
100
AcDbLine
 10
924.3828483952
 20
595.2521760789
 30
0.0
 11
924.1707163608
 21
595.1297148622
 31
0.0
  0
LINE
  5
2C8
330
1F
100
AcDbEntity
  8
0
  6
Continuous
 62
     7
370
    25
100
AcDbLine
 10
906.6218036136
 20
594.9921110508
 30
0.0
 11
899.4039742109
 21
590.605214236
 31
0.0
  0
LINE
  5
2C9
330
1F
100
AcDbEntity
  8
0
  6
Continuous
 62
     7
370
    25
100
AcDbLine
 10
1040.4180342205
 20
639.10238136
 30
0.0
 11
1056.9653698677
 21
648.1632999897
 31
0.0
  0
LINE
  5
2CA
330
1F
100
AcDbEntity
  8
0
  6
Continuous
 62
     7
370
    25
100
AcDbLine
 10
1040.4180342205
 20
639.10238136
 30
0.0
 11
1040.4180342205
 21
640.0489238386
 31
0.0
  0
LINE
  5
2CB
330
1F
100
AcDbEntity
  8
0
  6
Continuous
 62
     7
370
    25
100
AcDbLine
 10
1040.4180342205
 20
640.0489238386
 30
0.0
 11
1040.4180342205
 21
653.1450996298
 31
0.0
  0
LINE
  5
2CC
330
1F
100
AcDbEntity
  8
0
  6
Continuous
 62
     7
370
    25
100
AcDbLine
 10
1056.9653698677
 20
662.6977264413
 30
0.0
 11
1040.4180342205
 21
653.1450996298
 31
0.0
  0
LINE
  5
2CD
330
1F
100
AcDbEntity
  8
0
  6
Continuous
 62
     7
370
    25
100
AcDbLine
 10
1056.9653698677
 20
648.1632999897
 30
0.0
 11
1056.9653698677
 21
662.6977264413
 31
0.0
  0
ELLIPSE
  5
2CE
330
1F
100
AcDbEntity
  8
0
  6
Continuous
 62
     7
370
    25
100
AcDbEllipse
 10
987.8824503461
 20
664.3680462994
 30
0.0
 11
24.99897957795406
 21
0.3846175167927868
 31
0.0
210
0.0
220
0.0
230
1.0
 40
0.5872748834
 41
0.3736471505939551
 42
0.7763629921746202
  0
LINE
  5
2CF
330
1F
100
AcDbEntity
  8
0
  6
Continuous
 62
     7
370
    25
100
AcDbLine
 10
937.2507788125
 20
714.3636102359
 30
0.0
 11
1005.5601198757
 21
674.9294670194
 31
0.0
  0
ELLIPSE
  5
2D0
330
1F
100
AcDbEntity
  8
0
  6
Continuous
 62
     7
370
    25
100
AcDbEllipse
 10
919.5731092828
 20
703.8021895159
 30
0.0
 11
24.99897957795406
 21
0.3846175167929005
 31
0.0
210
0.0
220
0.0
230
1.0
 40
0.5872748834
 41
0.7763629921746311
 42
1.179078833755286
  0
LINE
  5
2D1
330
1F
100
AcDbEntity
  8
0
  6
Continuous
 62
     7
370
    25
100
AcDbLine
 10
899.5644373429
 20
734.4581503103
 30
0.0
 11
928.9083620198
 21
717.5182631699
 31
0.0
  0
LINE
  5
2D2
330
1F
100
AcDbEntity
  8
0
  6
Continuous
 62
     7
370
    25
100
AcDbLine
 10
915.5440136304
 20
744.3385376236
 30
0.0
 11
899.5644373429
 21
734.4581503103
 31
0.0
  0
LINE
  5
2D3
330
1F
100
AcDbEntity
  8
0
  6
Continuous
 62
     7
370
    25
100
AcDbLine
 10
1056.9653698677
 20
662.6977264413
 30
0.0
 11
915.5440136304
 21
744.3385376236
 31
0.0
  0
LINE
  5
2D4
330
1F
100
AcDbEntity
  8
0
  6
Continuous
 62
     7
370
    25
100
AcDbLine
 10
1040.4180342205
 20
653.1450996298
 30
0.0
 11
1029.3055580594
 21
659.5601955685
 31
0.0
  0
LINE
  5
2D5
330
1F
100
AcDbEntity
  8
0
  6
Continuous
 62
     7
370
    25
100
AcDbLine
 10
1011.0741095436
 20
670.0849867701
 30
0.0
 11
1029.3055580594
 21
659.5601955685
 31
0.0
  0
LINE
  5
2D6
330
1F
100
AcDbEntity
  8
0
  6
Continuous
 62
     7
370
    25
100
AcDbLine
 10
1040.4180342205
 20
639.10238136
 30
0.0
 11
1028.2573422253
 21
646.1225994193
 31
0.0
  0
LINE
  5
2D7
330
1F
100
AcDbEntity
  8
0
  6
Continuous
 62
     7
370
    25
100
AcDbLine
 10
1028.2573422253
 20
646.1225994193
 30
0.0
 11
1028.2573422253
 21
658.5346309687
 31
0.0
  0
LINE
  5
2D8
330
1F
100
AcDbEntity
  8
0
  6
Continuous
 62
     7
370
    25
100
AcDbLine
 10
1028.2573422253
 20
658.5346309687
 30
0.0
 11
1011.0741095436
 21
668.4543000497
 31
0.0
  0
LINE
  5
2D9
330
1F
100
AcDbEntity
  8
0
  6
Continuous
 62
     7
370
    25
100
AcDbLine
 10
1011.0741095436
 20
670.0849867701
 30
0.0
 11
1011.0741095436
 21
668.4543000497
 31
0.0
  0
LINE
  5
2DA
330
1F
100
AcDbEntity
  8
0
  6
Continuous
 62
     7
370
    25
100
AcDbLine
 10
1056.9653698677
 20
417.7354828756
 30
0.0
 11
1132.6476731877
 21
462.1918979749
 31
0.0
  0
LINE
  5
2DB
330
1F
100
AcDbEntity
  8
0
  6
Continuous
 62
     7
370
    25
100
AcDbLine
 10
1056.9653698677
 20
417.7354828756
 30
0.0
 11
1056.9653698677
 21
432.2699093271
 31
0.0
  0
LINE
  5
2DC
330
1F
100
AcDbEntity
  8
0
  6
Continuous
 62
     7
370
    25
100
AcDbLine
 10
1056.9653698677
 20
432.2699093271
 30
0.0
 11
1056.9653698677
 21
648.1632999897
 31
0.0
  0
LINE
  5
2DD
330
1F
100
AcDbEntity
  8
0
  6
Continuous
 62
     7
370
    25
100
AcDbLine
 10
1132.6476731877
 20
706.3881279259
 30
0.0
 11
1056.9653698677
 21
662.6977264413
 31
0.0
  0
LINE
  5
2DE
330
1F
100
AcDbEntity
  8
0
  6
Continuous
 62
     7
370
    25
100
AcDbLine
 10
1132.6476731877
 20
462.1918979749
 30
0.0
 11
1132.6476731877
 21
706.3881279259
 31
0.0
  0
LINE
  5
2DF
330
1F
100
AcDbEntity
  8
0
  6
Continuous
 62
     7
370
    25
100
AcDbLine
 10
991.8896682655
 20
787.6459945452
 30
0.0
 11
915.5440136304
 21
744.3385376236
 31
0.0
  0
LINE
  5
2E0
330
1F
100
AcDbEntity
  8
0
  6
Continuous
 62
     7
370
    25
100
AcDbLine
 10
1132.6476731877
 20
706.3881279259
 30
0.0
 11
991.8896682655
 21
787.6459945452
 31
0.0
  0
LINE
  5
2E1
330
1F
100
AcDbEntity
  8
0
  6
Continuous
 62
     7
370
    25
100
AcDbLine
 10
1056.9653698677
 20
432.2699093271
 30
0.0
 11
1053.4298359617
 21
434.3109296067
 31
0.0
  0
ELLIPSE
  5
2E2
330
1F
100
AcDbEntity
  8
0
  6
Continuous
 62
     7
370
    25
100
AcDbEllipse
 10
987.8824503461
 20
663.3929871318
 30
0.0
 11
24.99911255535745
 21
-0.3714268790583901
 31
0.0
210
0.0
220
0.0
230
1.0
 40
0.5671245594
 41
0.3911082337230987
 42
0.793824075303762
  0
LINE
  5
2E3
330
1F
100
AcDbEntity
  8
0
  6
Continuous
 62
     7
370
    25
100
AcDbLine
 10
937.2507788125
 20
712.6759124239
 30
0.0
 11
1005.5601198757
 21
673.2417692074
 31
0.0
  0
LINE
  5
2E4
330
1F
100
AcDbEntity
  8
0
  6
Continuous
 62
     7
370
    25
100
AcDbLine
 10
928.9083620198
 20
717.5182631699
 30
0.0
 11
928.9083620198
 21
715.8875764495
 31
0.0
  0
ELLIPSE
  5
2E5
330
1F
100
AcDbEntity
  8
0
  6
Continuous
 62
     7
370
    25
100
AcDbEllipse
 10
919.5731092828
 20
702.8271303483
 30
0.0
 11
24.99911255535721
 21
-0.3714268790585038
 31
0.0
210
0.0
220
0.0
230
0.9999999999999998
 40
0.5671245594
 41
0.7938240753037691
 42
1.19653991688443
  0
LINE
  5
2E6
330
1F
100
AcDbEntity
  8
0
  6
Continuous
 62
     7
370
    25
100
AcDbLine
 10
899.5644373429
 20
702.4521453877
 30
0.0
 11
899.5644373429
 21
734.4581503103
 31
0.0
  0
LINE
  5
2E7
330
1F
100
AcDbEntity
  8
0
  6
Continuous
 62
     7
370
    25
100
AcDbLine
 10
911.371046654
 20
695.636334911
 30
0.0
 11
911.371046654
 21
726.0116531132
 31
0.0
  0
LINE
  5
2E8
330
1F
100
AcDbEntity
  8
0
  6
Continuous
 62
     7
370
    25
100
AcDbLine
 10
899.5644373429
 20
702.4521453877
 30
0.0
 11
911.371046654
 21
695.636334911
 31
0.0
  0
LINE
  5
2E9
330
1F
100
AcDbEntity
  8
0
  6
Continuous
 62
     7
370
    25
100
AcDbLine
 10
928.9083620198
 20
715.8875764495
 30
0.0
 11
911.371046654
 21
726.0116531132
 31
0.0
  0
LINE
  5
2EA
330
1F
100
AcDbEntity
  8
0
  6
Continuous
 62
     7
370
    25
100
AcDbLine
 10
911.371046654
 20
695.636334911
 30
0.0
 11
912.4854496629
 21
696.2355155257
 31
0.0
  0
LINE
  5
2EB
330
1F
100
AcDbEntity
  8
0
  6
Continuous
 62
     7
370
    25
100
AcDbLine
 10
1040.4180342205
 20
422.8812018867
 30
0.0
 11
1056.9653698677
 21
432.2699093271
 31
0.0
  0
LINE
  5
2EC
330
1F
100
AcDbEntity
  8
0
  6
Continuous
 62
     7
370
    25
100
AcDbLine
 10
1040.4180342205
 20
422.8812018867
 30
0.0
 11
1028.2573422253
 21
429.901419946
 31
0.0
  0
LINE
  5
2ED
330
1F
100
AcDbEntity
  8
0
  6
Continuous
 62
     7
370
    25
100
AcDbLine
 10
1028.2573422253
 20
429.901419946
 30
0.0
 11
1029.1436240952
 21
430.4310783233
 31
0.0
  0
LINE
  5
2EE
330
1F
100
AcDbEntity
  8
0
  6
Continuous
 62
     7
370
    25
100
AcDbLine
 10
1040.4180342205
 20
408.8384836169
 30
0.0
 11
1056.9653698677
 21
417.7354828756
 31
0.0
  0
LINE
  5
2EF
330
1F
100
AcDbEntity
  8
0
  6
Continuous
 62
     7
370
    25
100
AcDbLine
 10
1040.4180342205
 20
421.9346594081
 30
0.0
 11
1040.4180342205
 21
408.8384836169
 31
0.0
  0
LINE
  5
2F0
330
1F
100
AcDbEntity
  8
0
  6
Continuous
 62
     7
370
    25
100
AcDbLine
 10
1040.4180342205
 20
422.8812018867
 30
0.0
 11
1040.4180342205
 21
421.9346594081
 31
0.0
  0
LINE
  5
2F1
330
1F
100
AcDbEntity
  8
0
  6
Continuous
 62
     7
370
    25
100
AcDbLine
 10
1011.0741095436
 20
427.4090574777
 30
0.0
 11
1011.0741095436
 21
425.7783707572
 31
0.0
  0
LINE
  5
2F2
330
1F
100
AcDbEntity
  8
0
  6
Continuous
 62
     7
370
    25
100
AcDbLine
 10
1028.2573422253
 20
417.4893883966
 30
0.0
 11
1011.0741095436
 21
427.4090574777
 31
0.0
  0
LINE
  5
2F3
330
1F
100
AcDbEntity
  8
0
  6
Continuous
 62
     7
370
    25
100
AcDbLine
 10
1028.2573422253
 20
429.901419946
 30
0.0
 11
1028.2573422253
 21
417.4893883966
 31
0.0
  0
LINE
  5
2F4
330
1F
100
AcDbEntity
  8
0
  6
Continuous
 62
     7
370
    25
100
AcDbLine
 10
1029.3055580594
 20
415.2535795556
 30
0.0
 11
1040.4180342205
 21
408.8384836169
 31
0.0
  0
LINE
  5
2F5
330
1F
100
AcDbEntity
  8
0
  6
Continuous
 62
     7
370
    25
100
AcDbLine
 10
1011.0741095436
 20
425.7783707572
 30
0.0
 11
1029.3055580594
 21
415.2535795556
 31
0.0
  0
ELLIPSE
  5
2F6
330
1F
100
AcDbEntity
  8
0
  6
Continuous
 62
     7
370
    25
100
AcDbEllipse
 10
987.8824503461
 20
421.692117007
 30
0.0
 11
24.99897957795406
 21
0.3846175167928436
 31
0.0
210
0.0
220
0.0
230
1.0
 40
0.5872748834
 41
0.3736471505939663
 42
0.7763629921746261
  0
LINE
  5
2F7
330
1F
100
AcDbEntity
  8
0
  6
Continuous
 62
     7
370
    25
100
AcDbLine
 10
937.2507788125
 20
471.6876809434
 30
0.0
 11
1005.5601198757
 21
432.2535377269
 31
0.0
  0
ELLIPSE
  5
2F8
330
1F
100
AcDbEntity
  8
0
  6
Continuous
 62
     7
370
    25
100
AcDbEllipse
 10
919.5731092828
 20
461.1262602234
 30
0.0
 11
24.99897957795406
 21
0.3846175167929005
 31
0.0
210
0.0
220
0.0
230
1.0
 40
0.5872748834
 41
0.7763629921746283
 42
1.179078833755286
  0
LINE
  5
2F9
330
1F
100
AcDbEntity
  8
0
  6
Continuous
 62
     7
370
    25
100
AcDbLine
 10
928.9083620198
 20
474.8423338775
 30
0.0
 11
911.371046654
 21
484.9664105412
 31
0.0
  0
LINE
  5
2FA
330
1F
100
AcDbEntity
  8
0
  6
Continuous
 62
     7
370
    25
100
AcDbLine
 10
912.5036353761
 20
485.6202437397
 30
0.0
 11
911.371046654
 21
484.9664105412
 31
0.0
  0
ELLIPSE
  5
2FB
330
1F
100
AcDbEntity
  8
0
  6
Continuous
 62
     7
370
    25
100
AcDbEllipse
 10
987.8824503461
 20
420.7170578394
 30
0.0
 11
24.99911255535745
 21
-0.371426879058447
 31
0.0
210
0.0
220
0.0
230
1.0
 40
0.5671245594
 41
0.3911082337231037
 42
0.7938240753037665
  0
LINE
  5
2FC
330
1F
100
AcDbEntity
  8
0
  6
Continuous
 62
     7
370
    25
100
AcDbLine
 10
937.2507788125
 20
469.9999831314
 30
0.0
 11
1005.5601198757
 21
430.565839915
 31
0.0
  0
LINE
  5
2FD
330
1F
100
AcDbEntity
  8
0
  6
Continuous
 62
     7
370
    25
100
AcDbLine
 10
928.9083620198
 20
474.8423338775
 30
0.0
 11
928.9083620198
 21
473.2116471571
 31
0.0
  0
LINE
  5
2FE
330
1F
100
AcDbEntity
  8
0
  6
Continuous
 62
     7
370
    25
100
AcDbLine
 10
899.5644373429
 20
522.15753922
 30
0.0
 11
899.5644373429
 21
490.1515342974
 31
0.0
  0
LINE
  5
2FF
330
1F
100
AcDbEntity
  8
0
  6
Continuous
 62
     7
370
    25
100
AcDbLine
 10
911.371046654
 20
515.3417287433
 30
0.0
 11
899.5644373429
 21
522.15753922
 31
0.0
  0
LINE
  5
300
330
1F
100
AcDbEntity
  8
0
  6
Continuous
 62
     7
370
    25
100
AcDbLine
 10
911.371046654
 20
484.9664105412
 30
0.0
 11
911.371046654
 21
515.3417287433
 31
0.0
  0
LINE
  5
301
330
1F
100
AcDbEntity
  8
0
  6
Continuous
 62
     7
370
    25
100
AcDbLine
 10
899.5644373429
 20
490.1515342974
 30
0.0
 11
928.9083620198
 21
473.2116471571
 31
0.0
  0
LINE
  5
302
330
1F
100
AcDbEntity
  8
0
  6
Continuous
 62
     7
370
    25
100
AcDbLine
 10
911.371046654
 20
515.3417287433
 30
0.0
 11
912.4854496629
 21
515.9850634945
 31
0.0
  0
LINE
  5
303
330
1F
100
AcDbEntity
  8
0
  6
Continuous
 62
     7
370
    25
100
AcDbLine
 10
899.5644373429
 20
522.15753922
 30
0.0
 11
900.6407757394
 21
522.8230537522
 31
0.0
  0
ELLIPSE
  5
304
330
1F
100
AcDbEntity
  8
0
  6
Continuous
 62
     7
370
    25
100
AcDbEllipse
 10
919.5731092828
 20
460.1512010559
 30
0.0
 11
24.99911255535721
 21
-0.371426879058447
 31
0.0
210
0.0
220
0.0
230
1.0
 40
0.5671245594
 41
0.7938240753037663
 42
1.196539916884428
  0
LINE
  5
305
330
1F
100
AcDbEntity
  8
0
  6
Continuous
 62
     7
370
    25
100
AcDbLine
 10
694.7545395453
 20
232.6642246352
 30
0.0
 11
694.7545395453
 21
239.1642246352
 31
0.0
  0
LINE
  5
306
330
1F
100
AcDbEntity
  8
0
  6
Continuous
 62
     7
370
    25
100
AcDbLine
 10
694.7545395453
 20
239.1642246352
 30
0.0
 11
693.7545395453
 21
239.1642246352
 31
0.0
  0
LINE
  5
307
330
1F
100
AcDbEntity
  8
0
  6
Continuous
 62
     7
370
    25
100
AcDbLine
 10
693.7545395453
 20
239.1642246352
 30
0.0
 11
693.7545395453
 21
232.6642246352
 31
0.0
  0
LINE
  5
308
330
1F
100
AcDbEntity
  8
0
  6
Continuous
 62
     7
370
    25
100
AcDbLine
 10
693.7545395453
 20
232.6642246352
 30
0.0
 11
694.7545395453
 21
232.6642246352
 31
0.0
  0
LINE
  5
309
330
1F
100
AcDbEntity
  8
0
  6
Continuous
 62
     7
370
    25
100
AcDbLine
 10
699.7545395453
 20
233.1642246352
 30
0.0
 11
783.7545395453
 21
233.1642246352
 31
0.0
  0
LINE
  5
30A
330
1F
100
AcDbEntity
  8
0
  6
Continuous
 62
     7
370
    25
100
AcDbLine
 10
699.7545395453
 20
232.2083436982
 30
0.0
 11
699.7545395453
 21
233.1642246352
 31
0.0
  0
LINE
  5
30B
330
1F
100
AcDbEntity
  8
0
  6
Continuous
 62
     7
370
    25
100
AcDbLine
 10
695.7545395453
 20
233.6642246352
 30
0.0
 11
699.7545395453
 21
232.2083436982
 31
0.0
  0
LINE
  5
30C
330
1F
100
AcDbEntity
  8
0
  6
Continuous
 62
     7
370
    25
100
AcDbLine
 10
699.7545395453
 20
235.1201055723
 30
0.0
 11
695.7545395453
 21
233.6642246352
 31
0.0
  0
LINE
  5
30D
330
1F
100
AcDbEntity
  8
0
  6
Continuous
 62
     7
370
    25
100
AcDbLine
 10
699.7545395453
 20
234.1642246352
 30
0.0
 11
699.7545395453
 21
235.1201055723
 31
0.0
  0
LINE
  5
30E
330
1F
100
AcDbEntity
  8
0
  6
Continuous
 62
     7
370
    25
100
AcDbLine
 10
783.7545395453
 20
234.1642246352
 30
0.0
 11
699.7545395453
 21
234.1642246352
 31
0.0
  0
LINE
  5
30F
330
1F
100
AcDbEntity
  8
0
  6
Continuous
 62
     7
370
    25
100
AcDbLine
 10
783.7545395453
 20
235.1201055723
 30
0.0
 11
783.7545395453
 21
234.1642246352
 31
0.0
  0
LINE
  5
310
330
1F
100
AcDbEntity
  8
0
  6
Continuous
 62
     7
370
    25
100
AcDbLine
 10
787.7545395453
 20
233.6642246352
 30
0.0
 11
783.7545395453
 21
235.1201055723
 31
0.0
  0
LINE
  5
311
330
1F
100
AcDbEntity
  8
0
  6
Continuous
 62
     7
370
    25
100
AcDbLine
 10
783.7545395453
 20
232.2083436982
 30
0.0
 11
787.7545395453
 21
233.6642246352
 31
0.0
  0
LINE
  5
312
330
1F
100
AcDbEntity
  8
0
  6
Continuous
 62
     7
370
    25
100
AcDbLine
 10
783.7545395453
 20
233.1642246352
 30
0.0
 11
783.7545395453
 21
232.2083436982
 31
0.0
  0
SPLINE
  5
313
330
1F
100
AcDbEntity
  8
0
  6
Continuous
 62
     7
370
    25
100
AcDbSpline
210
0.0
220
0.0
230
1.0
 70
     8
 71
     3
 72
    23
 73
    19
 74
     0
 42
0.00000001
 43
0.00000001
 40
0.0
 40
0.0
 40
0.0
 40
0.0
 40
0.0652905168975725
 40
0.1278605218716492
 40
0.1897308848609847
 40
0.2505887674991367
 40
0.3115003581522824
 40
0.3729031927411238
 40
0.4354307208798497
 40
0.4996831365128808
 40
0.5639355521459074
 40
0.6264630802846392
 40
0.6878659148734848
 40
0.7487775055266219
 40
0.8096353881647754
 40
0.8715057511541183
 40
0.9347094831024313
 40
1.0
 40
1.0
 40
1.0
 40
1.0
 10
738.6549202559606
 20
239.172896378031
 30
0.0
 10
738.6560888535108
 20
239.1369052400453
 30
0.0
 10
738.6583773557273
 20
239.066422635461
 30
0.0
 10
738.6719134454562
 20
238.9624340146756
 30
0.0
 10
738.6968682916913
 20
238.8632156583299
 30
0.0
 10
738.729102635027
 20
238.767044199051
 30
0.0
 10
738.773113967062
 20
238.6758764963176
 30
0.0
 10
738.8262109583287
 20
238.588716119018
 30
0.0
 10
738.8889874369166
 20
238.5058635522569
 30
0.0
 10
738.9606424163619
 20
238.4284916224949
 30
0.0
 10
739.0380143362999
 20
238.3568367068659
 30
0.0
 10
739.1208668791011
 20
238.294059990587
 30
0.0
 10
739.2080273590904
 20
238.2409638654938
 30
0.0
 10
739.2991946789091
 20
238.1969493378156
 30
0.0
 10
739.3953675728837
 20
238.1647269587715
 30
0.0
 10
739.4949197800013
 20
238.1396410716312
 30
0.0
 10
739.5992891649921
 20
238.1262977913469
 30
0.0
 10
739.670116097573
 20
238.1239582450773
 30
0.0
 10
739.7061046891247
 20
238.1227694744776
 30
0.0
  0
LINE
  5
314
330
1F
100
AcDbEntity
  8
0
  6
Continuous
 62
     7
370
    25
100
AcDbLine
 10
738.654920256
 20
240.1563989161
 30
0.0
 11
738.654920256
 21
239.172896378
 31
0.0
  0
SPLINE
  5
315
330
1F
100
AcDbEntity
  8
0
  6
Continuous
 62
     7
370
    25
100
AcDbSpline
210
0.0
220
0.0
230
1.0
 70
     8
 71
     3
 72
    23
 73
    19
 74
     0
 42
0.00000001
 43
0.00000001
 40
0.0
 40
0.0
 40
0.0
 40
0.0
 40
0.065289997579177
 40
0.1278595048737107
 40
0.1897293757484393
 40
0.250586774325212
 40
0.3114978804897806
 40
0.3729002266827138
 40
0.4355578623861412
 40
0.4998097669577956
 40
0.5640616715294545
 40
0.6270997733172812
 40
0.6885021195102213
 40
0.7494132256747874
 40
0.8102706242515587
 40
0.8721404951262901
 40
0.9347100024208194
 40
1.0
 40
1.0
 40
1.0
 40
1.0
 10
739.7061046891247
 20
241.2065258196553
 30
0.0
 10
739.670113402458
 20
241.2053574207315
 30
0.0
 10
739.599630506707
 20
241.2030693074916
 30
0.0
 10
739.4956439922092
 20
241.1895304039228
 30
0.0
 10
739.396417832206
 20
241.1645859827802
 30
0.0
 10
739.3002750242932
 20
241.1323133634002
 30
0.0
 10
739.2090003628092
 20
241.0884449201153
 30
0.0
 10
739.1221835808582
 20
241.0347691201358
 30
0.0
 10
739.0377218403166
 20
240.9740210792735
 30
0.0
 10
738.9607822992818
 20
240.90170295218
 30
0.0
 10
738.8885878493339
 20
240.8244520975811
 30
0.0
 10
738.8265521661965
 20
240.7406707625904
 30
0.0
 10
738.7730629178617
 20
240.6534580316701
 30
0.0
 10
738.7291162454798
 20
240.5622406347706
 30
0.0
 10
738.696864581566
 20
240.4660824872192
 30
0.0
 10
738.6719144528672
 20
240.3668605052117
 30
0.0
 10
738.6583770898267
 20
240.2628728630299
 30
0.0
 10
738.6560887636289
 20
240.1923901231664
 30
0.0
 10
738.6549202559606
 20
240.156398916102
 30
0.0
  0
LINE
  5
316
330
1F
100
AcDbEntity
  8
0
  6
Continuous
 62
     7
370
    25
100
AcDbLine
 10
740.1936258397
 20
241.2065258197
 30
0.0
 11
739.7061046891
 21
241.2065258197
 31
0.0
  0
SPLINE
  5
317
330
1F
100
AcDbEntity
  8
0
  6
Continuous
 62
     7
370
    25
100
AcDbSpline
210
0.0
220
0.0
230
1.0
 70
     8
 71
     3
 72
    15
 73
    11
 74
     0
 42
0.00000001
 43
0.00000001
 40
0.0
 40
0.0
 40
0.0
 40
0.0
 40
0.1217918398812444
 40
0.241282872101143
 40
0.3607923390796548
 40
0.4817492739864447
 40
0.6043823107218624
 40
0.7310970628762044
 40
0.8629242352176701
 40
1.0
 40
1.0
 40
1.0
 40
1.0
 10
740.984657988617
 20
240.898784702904
 30
0.0
 10
740.9590663034263
 20
240.9233225469554
 30
0.0
 10
740.9083663935577
 20
240.9719346829873
 30
0.0
 10
740.8238560656762
 20
241.0346389961367
 30
0.0
 10
740.7334893274528
 20
241.0878901352292
 30
0.0
 10
740.6369127028713
 20
241.1311611828106
 30
0.0
 10
740.5345492535985
 20
241.1652088259846
 30
0.0
 10
740.4262127083235
 20
241.1897241640687
 30
0.0
 10
740.3116954784265
 20
241.2030327254101
 30
0.0
 10
740.2334911970563
 20
241.2053464017133
 30
0.0
 10
740.1936258397169
 20
241.2065258196553
 30
0.0
  0
SPLINE
  5
318
330
1F
100
AcDbEntity
  8
0
  6
Continuous
 62
     7
370
    25
100
AcDbSpline
210
0.0
220
0.0
230
1.0
 70
     8
 71
     3
 72
    15
 73
    11
 74
     0
 42
0.00000001
 43
0.00000001
 40
0.0
 40
0.0
 40
0.0
 40
0.0
 40
0.1232406891787205
 40
0.2450821769322784
 40
0.3644945982713231
 40
0.4853809719892985
 40
0.6090845447468802
 40
0.7351089704797162
 40
0.8653117837086554
 40
0.9999999999999999
 40
0.9999999999999999
 40
0.9999999999999999
 40
0.9999999999999999
 10
741.3114346383633
 20
240.156398916102
 30
0.0
 10
741.3103240951173
 20
240.1906389876765
 30
0.0
 10
741.308115617072
 20
240.2587303894344
 30
0.0
 10
741.293326599378
 20
240.3591757558754
 30
0.0
 10
741.2675308832827
 20
240.4566150603959
 30
0.0
 10
741.2313277109341
 20
240.5512510535309
 30
0.0
 10
741.1845231149645
 20
240.6431480282446
 30
0.0
 10
741.128217173813
 20
240.7325961396527
 30
0.0
 10
741.0613787749916
 20
240.8184819406417
 30
0.0
 10
741.0105186557502
 20
240.871716640872
 30
0.0
 10
740.984657988617
 20
240.898784702904
 30
0.0
  0
LINE
  5
319
330
1F
100
AcDbEntity
  8
0
  6
Continuous
 62
     7
370
    25
100
AcDbLine
 10
741.3114346384
 20
238.9370672748
 30
0.0
 11
741.3114346384
 21
240.1563989161
 31
0.0
  0
SPLINE
  5
31A
330
1F
100
AcDbEntity
  8
0
  6
Continuous
 62
     7
370
    25
100
AcDbSpline
210
0.0
220
0.0
230
1.0
 70
     8
 71
     3
 72
    15
 73
    11
 74
     0
 42
0.00000001
 43
0.00000001
 40
0.0
 40
0.0
 40
0.0
 40
0.0
 40
0.124348367864529
 40
0.248033738918226
 40
0.372104733019618
 40
0.4954150148970916
 40
0.6205154686031026
 40
0.7454793054827406
 40
0.8721254036484724
 40
1.0
 40
1.0
 40
1.0
 40
1.0
 10
741.040707057991
 20
237.5834293729548
 30
0.0
 10
741.0624221959807
 20
237.636796468097
 30
0.0
 10
741.105736691854
 20
237.7432461173416
 30
0.0
 10
741.1606087014586
 20
237.9067831216358
 30
0.0
 10
741.2069055139692
 20
238.0723866361894
 30
0.0
 10
741.2454849530611
 20
238.2406535986683
 30
0.0
 10
741.2747217106318
 20
238.4112170658931
 30
0.0
 10
741.2959803272979
 20
238.5844816514378
 30
0.0
 10
741.3090112662774
 20
238.7599055523187
 30
0.0
 10
741.3106242525276
 20
238.8778236484057
 30
0.0
 10
741.3114346383633
 20
238.9370672748161
 30
0.0
  0
SPLINE
  5
31B
330
1F
100
AcDbEntity
  8
0
  6
Continuous
 62
     7
370
    25
100
AcDbSpline
210
0.0
220
0.0
230
1.0
 70
     8
 71
     3
 72
    15
 73
    11
 74
     0
 42
0.00000001
 43
0.00000001
 40
0.0
 40
0.0
 40
0.0
 40
0.0
 40
0.1283459052780204
 40
0.2543902224554925
 40
0.3812510652926827
 40
0.5086522835256982
 40
0.6349305863942856
 40
0.758136834587627
 40
0.8796184960567225
 40
1.0
 40
1.0
 40
1.0
 40
1.0
 10
739.6289050275342
 20
236.1991231123795
 30
0.0
 10
739.7083221466773
 20
236.234173226858
 30
0.0
 10
739.86573222191
 20
236.3036449127679
 30
0.0
 10
740.0873789337883
 20
236.4362149723653
 30
0.0
 10
740.2951336926092
 20
236.5881399398561
 30
0.0
 10
740.4858071941176
 20
236.7614564546769
 30
0.0
 10
740.6570907679157
 20
236.9503885148366
 30
0.0
 10
740.8098936881713
 20
237.1495321929635
 30
0.0
 10
740.9390178861579
 20
237.3605564301858
 30
0.0
 10
741.0069136126332
 20
237.509364017938
 30
0.0
 10
741.040707057991
 20
237.5834293729548
 30
0.0
  0
SPLINE
  5
31C
330
1F
100
AcDbEntity
  8
0
  6
Continuous
 62
     7
370
    25
100
AcDbSpline
210
0.0
220
0.0
230
1.0
 70
     8
 71
     3
 72
     9
 73
     5
 74
     0
 42
0.00000001
 43
0.00000001
 40
0.0
 40
0.0
 40
0.0
 40
0.0
 40
0.5390714131966452
 40
1.0
 40
1.0
 40
1.0
 40
1.0
 10
739.4544126417474
 20
236.1642246352221
 30
0.0
 10
739.4869142819425
 20
236.165026774902
 30
0.0
 10
739.5472061827919
 20
236.1665147775306
 30
0.0
 10
739.6031287278637
 20
236.1888350573468
 30
0.0
 10
739.6289050275342
 20
236.1991231123795
 30
0.0
  0
SPLINE
  5
31D
330
1F
100
AcDbEntity
  8
0
  6
Continuous
 62
     7
370
    25
100
AcDbSpline
210
0.0
220
0.0
230
1.0
 70
     8
 71
     3
 72
    15
 73
    11
 74
     0
 42
0.00000001
 43
0.00000001
 40
0.0
 40
0.0
 40
0.0
 40
0.0
 40
0.1243866527483803
 40
0.2482583969768965
 40
0.3705724105935433
 40
0.5004884349439673
 40
0.6274362847514894
 40
0.7501973812365379
 40
0.871160232052029
 40
1.0
 40
1.0
 40
1.0
 40
1.0
 10
739.1498441138285
 20
236.4899437553575
 30
0.0
 10
739.150901395087
 20
236.4694179496973
 30
0.0
 10
739.1530115809032
 20
236.4284513065948
 30
0.0
 10
739.1687421350385
 20
236.3687320913216
 30
0.0
 10
739.1979009868924
 20
236.3135787125897
 30
0.0
 10
739.2348345192121
 20
236.2628190539642
 30
0.0
 10
739.2801189785854
 20
236.2189942842888
 30
0.0
 10
739.3324733903972
 20
236.1863273503205
 30
0.0
 10
739.3918848361022
 20
236.1678274846817
 30
0.0
 10
739.4331364501419
 20
236.1654505684631
 30
0.0
 10
739.4544126417474
 20
236.1642246352221
 30
0.0
  0
SPLINE
  5
31E
330
1F
100
AcDbEntity
  8
0
  6
Continuous
 62
     7
370
    25
100
AcDbSpline
210
0.0
220
0.0
230
1.0
 70
     8
 71
     3
 72
    13
 73
     9
 74
     0
 42
0.00000001
 43
0.00000001
 40
0.0
 40
0.0
 40
0.0
 40
0.0
 40
0.1436231783237154
 40
0.274705566912768
 40
0.4026352121795747
 40
0.5257189344253783
 40
0.7673701213291912
 40
1.0
 40
1.0
 40
1.0
 40
1.0
 10
739.3444295622211
 20
236.7680740430056
 30
0.0
 10
739.3283476974949
 20
236.7614837379797
 30
0.0
 10
739.2975881932268
 20
236.7488785756417
 30
0.0
 10
739.2560256536243
 20
236.7230053373626
 30
0.0
 10
739.2220804112695
 20
236.6911946615037
 30
0.0
 10
739.1871058965518
 20
236.6428162005108
 30
0.0
 10
739.1569571080593
 20
236.5755504265538
 30
0.0
 10
739.1521848541981
 20
236.5181151533192
 30
0.0
 10
739.1498441138285
 20
236.4899437553575
 30
0.0
  0
SPLINE
  5
31F
330
1F
100
AcDbEntity
  8
0
  6
Continuous
 62
     7
370
    25
100
AcDbSpline
210
0.0
220
0.0
230
1.0
 70
     8
 71
     3
 72
    15
 73
    11
 74
     0
 42
0.00000001
 43
0.00000001
 40
0.0
 40
0.0
 40
0.0
 40
0.0
 40
0.1292495347363787
 40
0.2559057909370297
 40
0.3807093632630841
 40
0.5051925640655011
 40
0.6291648995218876
 40
0.7520414509802761
 40
0.8753736744320327
 40
1.0
 40
1.0
 40
1.0
 40
1.0
 10
740.3956139953852
 20
237.8277187130563
 30
0.0
 10
740.3688333366443
 20
237.7672721397326
 30
0.0
 10
740.3158093495881
 20
237.6475918005547
 30
0.0
 10
740.218246893624
 20
237.4786401979312
 30
0.0
 10
740.1042522799529
 20
237.3234334234305
 30
0.0
 10
739.9759314874806
 20
237.1818259869551
 30
0.0
 10
739.8357930758448
 20
237.0531607749898
 30
0.0
 10
739.6819902802076
 20
236.9423804325445
 30
0.0
 10
739.5191134758461
 20
236.8444944562602
 30
0.0
 10
739.4028597771219
 20
236.7936359913075
 30
0.0
 10
739.3444295622211
 20
236.7680740430056
 30
0.0
  0
SPLINE
  5
320
330
1F
100
AcDbEntity
  8
0
  6
Continuous
 62
     7
370
    25
100
AcDbSpline
210
0.0
220
0.0
230
1.0
 70
     8
 71
     3
 72
    13
 73
     9
 74
     0
 42
0.00000001
 43
0.00000001
 40
0.0
 40
0.0
 40
0.0
 40
0.0
 40
0.0552968573818379
 40
0.1354953801592186
 40
0.2444078765266361
 40
0.3842990899474538
 40
0.6936651162922342
 40
1.0
 40
1.0
 40
1.0
 40
1.0
 10
740.5278051967389
 20
238.1227694744776
 30
0.0
 10
740.5229298817516
 20
238.1191492762131
 30
0.0
 10
740.510983766025
 20
238.1102786068236
 30
0.0
 10
740.4989448631817
 20
238.0859141478092
 30
0.0
 10
740.482257197275
 20
238.0545865497232
 30
0.0
 10
740.4611807651273
 20
237.9975307340814
 30
0.0
 10
740.4317111248375
 20
237.9211114069032
 30
0.0
 10
740.4076068160846
 20
237.8587472698676
 30
0.0
 10
740.3956139953852
 20
237.8277187130563
 30
0.0
  0
LINE
  5
321
330
1F
100
AcDbEntity
  8
0
  6
Continuous
 62
     7
370
    25
100
AcDbLine
 10
739.7061046891
 20
238.1227694745
 30
0.0
 11
740.5278051967
 21
238.1227694745
 31
0.0
  0
LINE
  5
322
330
1F
100
AcDbEntity
  8
0
  6
Continuous
 62
     7
370
    25
100
AcDbLine
 10
740.6208678025
 20
240.1563989161
 30
0.0
 11
740.6208678025
 21
239.3812297114
 31
0.0
  0
SPLINE
  5
323
330
1F
100
AcDbEntity
  8
0
  6
Continuous
 62
     7
370
    25
100
AcDbSpline
210
0.0
220
0.0
230
1.0
 70
     8
 71
     3
 72
    15
 73
    11
 74
     0
 42
0.00000001
 43
0.00000001
 40
0.0
 40
0.0
 40
0.0
 40
0.0
 40
0.1302887834403378
 40
0.2535900943970664
 40
0.3753985240898053
 40
0.5005058416591429
 40
0.62638207443345
 40
0.7475509770856199
 40
0.8712885387466226
 40
1.0
 40
1.0
 40
1.0
 40
1.0
 10
740.1936258397169
 20
240.5762381716012
 30
0.0
 10
740.2226675844297
 20
240.5748845816902
 30
0.0
 10
740.2791935461333
 20
240.5722499957784
 30
0.0
 10
740.3605839663111
 20
240.5496082177806
 30
0.0
 10
740.4333921693267
 20
240.5100243618569
 30
0.0
 10
740.4994272024295
 20
240.458869210983
 30
0.0
 10
740.55249374767
 20
240.3944498940294
 30
0.0
 10
740.59325863473
 20
240.3221334868354
 30
0.0
 10
740.6170295845815
 20
240.2414056265759
 30
0.0
 10
740.6195717010953
 20
240.1851042472575
 30
0.0
 10
740.6208678024918
 20
240.156398916102
 30
0.0
  0
LINE
  5
324
330
1F
100
AcDbEntity
  8
0
  6
Continuous
 62
     7
370
    25
100
AcDbLine
 10
739.7061046891
 20
240.5762381716
 30
0.0
 11
740.1936258397
 21
240.5762381716
 31
0.0
  0
SPLINE
  5
325
330
1F
100
AcDbEntity
  8
0
  6
Continuous
 62
     7
370
    25
100
AcDbSpline
210
0.0
220
0.0
230
1.0
 70
     8
 71
     3
 72
    15
 73
    11
 74
     0
 42
0.00000001
 43
0.00000001
 40
0.0
 40
0.0
 40
0.0
 40
0.0
 40
0.1546502847509112
 40
0.2954038237689793
 40
0.426338197508937
 40
0.5532220704713634
 40
0.6736632184525975
 40
0.7862623186344175
 40
0.8936365934108048
 40
1.0
 40
1.0
 40
1.0
 40
1.0
 10
739.3528897991077
 20
240.156398916102
 30
0.0
 10
739.3543754298425
 20
240.1878739660829
 30
0.0
 10
739.357213193772
 20
240.2479957442787
 30
0.0
 10
739.3768209996708
 20
240.3331596519556
 30
0.0
 10
739.4121668646163
 20
240.4069985011998
 30
0.0
 10
739.4614000944317
 20
240.4669887090921
 30
0.0
 10
739.5176009390691
 20
240.514364962278
 30
0.0
 10
739.5770665562586
 20
240.5506787056677
 30
0.0
 10
739.6409911970769
 20
240.5713717032925
 30
0.0
 10
739.6844687338289
 20
240.5746211382112
 30
0.0
 10
739.7061046891247
 20
240.5762381716011
 30
0.0
  0
LINE
  5
326
330
1F
100
AcDbEntity
  8
0
  6
Continuous
 62
     7
370
    25
100
AcDbLine
 10
739.3528897991
 20
239.172896378
 30
0.0
 11
739.3528897991
 21
240.1563989161
 31
0.0
  0
SPLINE
  5
327
330
1F
100
AcDbEntity
  8
0
  6
Continuous
 62
     7
370
    25
100
AcDbSpline
210
0.0
220
0.0
230
1.0
 70
     8
 71
     3
 72
    15
 73
    11
 74
     0
 42
0.00000001
 43
0.00000001
 40
0.0
 40
0.0
 40
0.0
 40
0.0
 40
0.1077009559241269
 40
0.2154157899432675
 40
0.3269351736000364
 40
0.4482759620587079
 40
0.5749211107858014
 40
0.7048635572870213
 40
0.8457666206954744
 40
1.0
 40
1.0
 40
1.0
 40
1.0
 10
739.7061046891247
 20
238.7530571225318
 30
0.0
 10
739.6840509184924
 20
238.7540688066468
 30
0.0
 10
739.6399405354304
 20
238.7560923052402
 30
0.0
 10
739.5766038827287
 20
238.7792609701961
 30
0.0
 10
739.5157902685607
 20
238.8134452231103
 30
0.0
 10
739.4608718663151
 20
238.8625506902498
 30
0.0
 10
739.4107184530809
 20
238.9219004210644
 30
0.0
 10
739.3774941125897
 20
238.9966380624778
 30
0.0
 10
739.355432469449
 20
239.0810235818405
 30
0.0
 10
739.3537624982076
 20
239.1413636601484
 30
0.0
 10
739.3528897991077
 20
239.172896378031
 30
0.0
  0
LINE
  5
328
330
1F
100
AcDbEntity
  8
0
  6
Continuous
 62
     7
370
    25
100
AcDbLine
 10
740.6071199176
 20
238.7530571225
 30
0.0
 11
739.7061046891
 21
238.7530571225
 31
0.0
  0
LINE
  5
329
330
1F
100
AcDbEntity
  8
0
  6
Continuous
 62
     7
370
    25
100
AcDbLine
 10
740.6071199176
 20
238.700180642
 30
0.0
 11
740.6071199176
 21
238.7530571225
 31
0.0
  0
SPLINE
  5
32A
330
1F
100
AcDbEntity
  8
0
  6
Continuous
 62
     7
370
    25
100
AcDbSpline
210
0.0
220
0.0
230
1.0
 70
     8
 71
     3
 72
    17
 73
    13
 74
     0
 42
0.00000001
 43
0.00000001
 40
0.0
 40
0.0
 40
0.0
 40
0.0
 40
0.1878186576604167
 40
0.352361332283228
 40
0.4920697834751506
 40
0.6084966544939264
 40
0.704784372394803
 40
0.7824574519537252
 40
0.8430139410827838
 40
0.8865868416170986
 40
0.9487532166360342
 40
1.0
 40
1.0
 40
1.0
 40
1.0
 10
740.6208678024918
 20
239.3812297113643
 30
0.0
 10
740.6209749534158
 20
239.33857557984
 30
0.0
 10
740.6211759762685
 20
239.258553356284
 30
0.0
 10
740.6198767119367
 20
239.1468094078782
 30
0.0
 10
740.6187618541323
 20
239.0512809929803
 30
0.0
 10
740.6180710915875
 20
238.9712458567338
 30
0.0
 10
740.6159689611889
 20
238.9053255465922
 30
0.0
 10
740.6131533576487
 20
238.8521383876856
 30
0.0
 10
740.6131251659145
 20
238.8108164331967
 30
0.0
 10
740.6097232504203
 20
238.7731838324878
 30
0.0
 10
740.6081632547426
 20
238.7375599348933
 30
0.0
 10
740.6074446332923
 20
238.711814124338
 30
0.0
 10
740.607119917551
 20
238.7001806419903
 30
0.0
  0
LINE
  5
32B
330
1F
100
AcDbEntity
  8
0
  6
Continuous
 62
     7
370
    25
100
AcDbLine
 10
743.5364769395
 20
239.2405782731
 30
0.0
 11
742.940030239
 21
239.2405782731
 31
0.0
  0
SPLINE
  5
32C
330
1F
100
AcDbEntity
  8
0
  6
Continuous
 62
     7
370
    25
100
AcDbSpline
210
0.0
220
0.0
230
1.0
 70
     8
 71
     3
 72
    23
 73
    19
 74
     0
 42
0.00000001
 43
0.00000001
 40
0.0
 40
0.0
 40
0.0
 40
0.0
 40
0.0607975944416444
 40
0.1206229760322853
 40
0.1796555910468132
 40
0.2384077748263508
 40
0.2974750792018989
 40
0.3577099363142261
 40
0.4201550776158238
 40
0.4846237870446654
 40
0.5494667363320327
 40
0.6131240840846784
 40
0.675520001067015
 40
0.7377926870199509
 40
0.8008397378644537
 40
0.8652786526237238
 40
0.931620607582777
 40
1.0
 40
1.0
 40
1.0
 40
1.0
 10
744.8985750782956
 20
237.9461620294692
 30
0.0
 10
744.8972737621948
 20
237.9885213871838
 30
0.0
 10
744.8946919393072
 20
238.0725627351561
 30
0.0
 10
744.8765343723633
 20
238.19671057286
 30
0.0
 10
744.8455934509386
 20
238.3167208274957
 30
0.0
 10
744.803062471723
 20
238.4325551583592
 30
0.0
 10
744.7489632157052
 20
238.5444326265003
 30
0.0
 10
744.6815012845524
 20
238.6518546845506
 30
0.0
 10
744.6019240267832
 20
238.7553245144971
 30
0.0
 10
744.511804531528
 20
238.8541734193386
 30
0.0
 10
744.4119973385912
 20
238.9445478472685
 30
0.0
 10
744.3051660672935
 20
239.0240880122931
 30
0.0
 10
744.1923084750431
 20
239.0915060397448
 30
0.0
 10
744.0729228736187
 20
239.1454897544277
 30
0.0
 10
743.9475104578665
 20
239.187909705342
 30
0.0
 10
743.8158379246172
 20
239.2187327245574
 30
0.0
 10
743.6779810860148
 20
239.2367606728708
 30
0.0
 10
743.5841181621732
 20
239.2392929740843
 30
0.0
 10
743.5364769395477
 20
239.240578273124
 30
0.0
  0
LINE
  5
32D
330
1F
100
AcDbEntity
  8
0
  6
Continuous
 62
     7
370
    25
100
AcDbLine
 10
744.8985750783
 20
237.4586408789
 30
0.0
 11
744.8985750783
 21
237.9461620295
 31
0.0
  0
SPLINE
  5
32E
330
1F
100
AcDbEntity
  8
0
  6
Continuous
 62
     7
370
    25
100
AcDbSpline
210
0.0
220
0.0
230
1.0
 70
     8
 71
     3
 72
    23
 73
    19
 74
     0
 42
0.00000001
 43
0.00000001
 40
0.0
 40
0.0
 40
0.0
 40
0.0
 40
0.0688802745431155
 40
0.1347160875061117
 40
0.199150664541996
 40
0.2621934713568176
 40
0.3244619654066596
 40
0.3872891710891957
 40
0.450536725407964
 40
0.5153753097742493
 40
0.5798396794740688
 40
0.6418795662648994
 40
0.7025402689044294
 40
0.7616035971480258
 40
0.8203518260080478
 40
0.8793804672257538
 40
0.9387011438151869
 40
0.9999999999999999
 40
0.9999999999999999
 40
0.9999999999999999
 40
0.9999999999999999
 10
743.5364769395477
 20
236.1642246352221
 30
0.0
 10
743.5844736518959
 20
236.165476988883
 30
0.0
 10
743.6783456543465
 20
236.1679263430193
 30
0.0
 10
743.8161772404472
 20
236.1861823087946
 30
0.0
 10
743.9475009244153
 20
236.2169006624964
 30
0.0
 10
744.0729613421327
 20
236.2592537752474
 30
0.0
 10
744.1924421699156
 20
236.3136503140765
 30
0.0
 10
744.3059790404898
 20
236.380031826907
 30
0.0
 10
744.4120270816773
 20
236.4606857796882
 30
0.0
 10
744.5119134497038
 20
236.5505200360014
 30
0.0
 10
744.6014872662744
 20
236.649462288428
 30
0.0
 10
744.6821941875638
 20
236.7521116137516
 30
0.0
 10
744.748607040298
 20
236.8602478986291
 30
0.0
 10
744.8031190536726
 20
236.9722092222148
 30
0.0
 10
744.8455886899415
 20
237.0880910322709
 30
0.0
 10
744.8764091366102
 20
237.2077568648349
 30
0.0
 10
744.8948203922852
 20
237.3318726469883
 30
0.0
 10
744.8973099068135
 20
237.4159253092206
 30
0.0
 10
744.8985750782956
 20
237.458640878877
 30
0.0
  0
LINE
  5
32F
330
1F
100
AcDbEntity
  8
0
  6
Continuous
 62
     7
370
    25
100
AcDbLine
 10
742.5614346384
 20
236.1642246352
 30
0.0
 11
743.5364769395
 21
236.1642246352
 31
0.0
  0
SPLINE
  5
330
330
1F
100
AcDbEntity
  8
0
  6
Continuous
 62
     7
370
    25
100
AcDbSpline
210
0.0
220
0.0
230
1.0
 70
     8
 71
     3
 72
    15
 73
    11
 74
     0
 42
0.00000001
 43
0.00000001
 40
0.0
 40
0.0
 40
0.0
 40
0.0
 40
0.1252890641863902
 40
0.2438771824272311
 40
0.3631241809095506
 40
0.4850629052430464
 40
0.6080800264570474
 40
0.7320578794846806
 40
0.859946542051451
 40
1.0
 40
1.0
 40
1.0
 40
1.0
 10
742.2420606958929
 20
236.4761958704167
 30
0.0
 10
742.2430141294409
 20
236.4552919533496
 30
0.0
 10
742.2448700032066
 20
236.4146021419194
 30
0.0
 10
742.2613273823606
 20
236.3558077269886
 30
0.0
 10
742.2892771903587
 20
236.302305416196
 30
0.0
 10
742.3276955780531
 20
236.2550188225905
 30
0.0
 10
742.373883997547
 20
236.213626649849
 30
0.0
 10
742.4302749126961
 20
236.1856957277956
 30
0.0
 10
742.4931737709669
 20
236.1661491436449
 30
0.0
 10
742.5380025939343
 20
236.1648852650762
 30
0.0
 10
742.5614346383633
 20
236.1642246352221
 30
0.0
  0
SPLINE
  5
331
330
1F
100
AcDbEntity
  8
0
  6
Continuous
 62
     7
370
    25
100
AcDbSpline
210
0.0
220
0.0
230
1.0
 70
     8
 71
     3
 72
    15
 73
    11
 74
     0
 42
0.00000001
 43
0.00000001
 40
0.0
 40
0.0
 40
0.0
 40
0.0
 40
0.1441667755934864
 40
0.2760241378677287
 40
0.3980375377627938
 40
0.5209635412479806
 40
0.6431782986273948
 40
0.7604460446328373
 40
0.8769104464341297
 40
1.0
 40
1.0
 40
1.0
 40
1.0
 10
742.5614346383633
 20
236.7871095760005
 30
0.0
 10
742.5373254284387
 20
236.786399138561
 30
0.0
 10
742.4911655288593
 20
236.7850389230678
 30
0.0
 10
742.4267981751585
 20
236.7663925276518
 30
0.0
 10
742.370622395964
 20
236.737256249762
 30
0.0
 10
742.3242107072324
 20
236.6965654323322
 30
0.0
 10
742.2871281370147
 20
236.648274729687
 30
0.0
 10
742.2619499244898
 20
236.5942396579986
 30
0.0
 10
742.244704312009
 20
236.5368207928258
 30
0.0
 10
742.2429580000484
 20
236.4967733644308
 30
0.0
 10
742.2420606958929
 20
236.4761958704167
 30
0.0
  0
LINE
  5
332
330
1F
100
AcDbEntity
  8
0
  6
Continuous
 62
     7
370
    25
100
AcDbLine
 10
743.5364769395
 20
236.787109576
 30
0.0
 11
742.5614346384
 21
236.787109576
 31
0.0
  0
SPLINE
  5
333
330
1F
100
AcDbEntity
  8
0
  6
Continuous
 62
     7
370
    25
100
AcDbSpline
210
0.0
220
0.0
230
1.0
 70
     8
 71
     3
 72
    15
 73
    11
 74
     0
 42
0.00000001
 43
0.00000001
 40
0.0
 40
0.0
 40
0.0
 40
0.0
 40
0.1260932155774019
 40
0.2502687356950951
 40
0.3738419326173128
 40
0.4974151295395474
 40
0.6213590204071578
 40
0.7458143570449126
 40
0.8719075726223077
 40
1.0
 40
1.0
 40
1.0
 40
1.0
 10
744.2080082424242
 20
237.458640878877
 30
0.0
 10
744.2057334275651
 20
237.4142684181749
 30
0.0
 10
744.2012183944912
 20
237.3261983377291
 30
0.0
 10
744.1599559301287
 20
237.2000927270907
 30
0.0
 10
744.0968961252314
 20
237.0854069109524
 30
0.0
 10
744.0152505669512
 20
236.9830513281473
 30
0.0
 10
743.9155228105296
 20
236.8971630658341
 30
0.0
 10
743.7987549952311
 20
236.8351665430628
 30
0.0
 10
743.6710229678158
 20
236.7938639378698
 30
0.0
 10
743.5815601621869
 20
236.7893728044574
 30
0.0
 10
743.5364769395477
 20
236.7871095760005
 30
0.0
  0
LINE
  5
334
330
1F
100
AcDbEntity
  8
0
  6
Continuous
 62
     7
370
    25
100
AcDbLine
 10
744.2080082424
 20
237.9461620295
 30
0.0
 11
744.2080082424
 21
237.4586408789
 31
0.0
  0
SPLINE
  5
335
330
1F
100
AcDbEntity
  8
0
  6
Continuous
 62
     7
370
    25
100
AcDbSpline
210
0.0
220
0.0
230
1.0
 70
     8
 71
     3
 72
    15
 73
    11
 74
     0
 42
0.00000001
 43
0.00000001
 40
0.0
 40
0.0
 40
0.0
 40
0.0
 40
0.1259530268573574
 40
0.2528648836523665
 40
0.378064845336633
 40
0.4999422669306696
 40
0.6218196885246912
 40
0.746136657413924
 40
0.8730485142089249
 40
1.0
 40
1.0
 40
1.0
 40
1.0
 10
743.5364769395477
 20
238.6176933323457
 30
0.0
 10
743.5808322163244
 20
238.6153283135603
 30
0.0
 10
743.6698804288316
 20
238.610580272049
 30
0.0
 10
743.7977481036903
 20
238.5697634226496
 30
0.0
 10
743.9142981178666
 20
238.5077023181028
 30
0.0
 10
744.0154608053246
 20
238.4251284095127
 30
0.0
 10
744.097684218858
 20
238.3241605648804
 30
0.0
 10
744.1603519630673
 20
238.208286217851
 30
0.0
 10
744.2009608041009
 20
238.0802605173346
 30
0.0
 10
744.2056588518557
 20
237.9908661770188
 30
0.0
 10
744.2080082424242
 20
237.9461620294692
 30
0.0
  0
LINE
  5
336
330
1F
100
AcDbEntity
  8
0
  6
Continuous
 62
     7
370
    25
100
AcDbLine
 10
742.5614346384
 20
238.6176933323
 30
0.0
 11
743.5364769395
 21
238.6176933323
 31
0.0
  0
LINE
  5
337
330
1F
100
AcDbEntity
  8
0
  6
Continuous
 62
     7
370
    25
100
AcDbLine
 10
742.2420606959
 20
240.8882094068
 30
0.0
 11
742.2420606959
 21
238.9296645675
 31
0.0
  0
SPLINE
  5
338
330
1F
100
AcDbEntity
  8
0
  6
Continuous
 62
     7
370
    25
100
AcDbSpline
210
0.0
220
0.0
230
1.0
 70
     8
 71
     3
 72
    15
 73
    11
 74
     0
 42
0.00000001
 43
0.00000001
 40
0.0
 40
0.0
 40
0.0
 40
0.0
 40
0.1456324620833369
 40
0.2736891853570448
 40
0.3900290224672495
 40
0.5009341166106053
 40
0.6118392107539595
 40
0.7263108146429521
 40
0.8543675379166364
 40
1.0
 40
1.0
 40
1.0
 40
1.0
 10
742.5614346383633
 20
241.2065258196553
 30
0.0
 10
742.5363178810823
 20
241.2055863885613
 30
0.0
 10
742.4891155970536
 20
241.2038209021639
 30
0.0
 10
742.4231857086347
 20
241.1888763581222
 30
0.0
 10
742.3664918810829
 20
241.1647002425204
 30
0.0
 10
742.3194868220464
 20
241.1290825304131
 30
0.0
 10
742.2841944952269
 20
241.0823126481414
 30
0.0
 10
742.2594594608181
 20
241.0262191510329
 30
0.0
 10
742.2448200005434
 20
240.9605051832882
 30
0.0
 10
742.2430190159138
 20
240.9133180840918
 30
0.0
 10
742.2420606958929
 20
240.8882094067957
 30
0.0
  0
LINE
  5
339
330
1F
100
AcDbEntity
  8
0
  6
Continuous
 62
     7
370
    25
100
AcDbLine
 10
744.5199794776
 20
241.2065258197
 30
0.0
 11
742.5614346384
 21
241.2065258197
 31
0.0
  0
SPLINE
  5
33A
330
1F
100
AcDbEntity
  8
0
  6
Continuous
 62
     7
370
    25
100
AcDbSpline
210
0.0
220
0.0
230
1.0
 70
     8
 71
     3
 72
    15
 73
    11
 74
     0
 42
0.00000001
 43
0.00000001
 40
0.0
 40
0.0
 40
0.0
 40
0.0
 40
0.0996223219296958
 40
0.2015541967271639
 40
0.3107216333302908
 40
0.4266739999696189
 40
0.5509963918131817
 40
0.6823455313543964
 40
0.8298901071772238
 40
1.0
 40
1.0
 40
1.0
 40
1.0
 10
744.8985750782956
 20
240.8882094067957
 30
0.0
 10
744.8976435298177
 20
240.9066807090434
 30
0.0
 10
744.8957588366934
 20
240.9440515353293
 30
0.0
 10
744.8771217458149
 20
240.9989981925406
 30
0.0
 10
744.8496059600745
 20
241.0529537987849
 30
0.0
 10
744.8115882093907
 20
241.1055504266457
 30
0.0
 10
744.7598755588966
 20
241.1521701050167
 30
0.0
 10
744.6912794109813
 20
241.1832306260913
 30
0.0
 10
744.6103915643023
 20
241.2040603054992
 30
0.0
 10
744.5515110768715
 20
241.2056659611212
 30
0.0
 10
744.5199794776187
 20
241.2065258196553
 30
0.0
  0
SPLINE
  5
33B
330
1F
100
AcDbEntity
  8
0
  6
Continuous
 62
     7
370
    25
100
AcDbSpline
210
0.0
220
0.0
230
1.0
 70
     8
 71
     3
 72
    15
 73
    11
 74
     0
 42
0.00000001
 43
0.00000001
 40
0.0
 40
0.0
 40
0.0
 40
0.0
 40
0.1672525445744203
 40
0.3154752479719865
 40
0.4508367510229712
 40
0.5800525603503607
 40
0.701892124421859
 40
0.8095098059291508
 40
0.9083016612776763
 40
1.0
 40
1.0
 40
1.0
 40
1.0
 10
744.5199794776187
 20
240.5762381716012
 30
0.0
 10
744.5504230777959
 20
240.5772026221873
 30
0.0
 10
744.6078464332342
 20
240.5790217890562
 30
0.0
 10
744.6879599117373
 20
240.5991719493216
 30
0.0
 10
744.7556602374822
 20
240.6332321388582
 30
0.0
 10
744.8083366471021
 20
240.6806168986894
 30
0.0
 10
744.8479837878969
 20
240.7328360958915
 30
0.0
 10
744.8754284611337
 20
240.7857933967992
 30
0.0
 10
744.8958000850366
 20
240.8366868127423
 30
0.0
 10
744.8976733326814
 20
240.8714669253256
 30
0.0
 10
744.8985750782956
 20
240.8882094067957
 30
0.0
  0
LINE
  5
33C
330
1F
100
AcDbEntity
  8
0
  6
Continuous
 62
     7
370
    25
100
AcDbLine
 10
742.940030239
 20
240.5762381716
 30
0.0
 11
744.5199794776
 21
240.5762381716
 31
0.0
  0
LINE
  5
33D
330
1F
100
AcDbEntity
  8
0
  6
Continuous
 62
     7
370
    25
100
AcDbLine
 10
742.940030239
 20
239.2405782731
 30
0.0
 11
742.940030239
 21
240.5762381716
 31
0.0
  0
SPLINE
  5
33E
330
1F
100
AcDbEntity
  8
0
  6
Continuous
 62
     7
370
    25
100
AcDbSpline
210
0.0
220
0.0
230
1.0
 70
     8
 71
     3
 72
    15
 73
    11
 74
     0
 42
0.00000001
 43
0.00000001
 40
0.0
 40
0.0
 40
0.0
 40
0.0
 40
0.1429421979721464
 40
0.2702447794675647
 40
0.3858417033756924
 40
0.4945878791347545
 40
0.6065832325076798
 40
0.7240667554165913
 40
0.8529358891981106
 40
1.0
 40
1.0
 40
1.0
 40
1.0
 10
742.2420606958929
 20
238.9296645675402
 30
0.0
 10
742.2430136567538
 20
238.9052466529996
 30
0.0
 10
742.2448153129569
 20
238.8590824410053
 30
0.0
 10
742.2597821866913
 20
238.7946218770584
 30
0.0
 10
742.2835289435124
 20
238.7389152453496
 30
0.0
 10
742.3202761584147
 20
238.6939865514172
 30
0.0
 10
742.3664107438663
 20
238.6584649399262
 30
0.0
 10
742.4230725565176
 20
238.6340124836485
 30
0.0
 10
742.489271110757
 20
238.6207858397748
 30
0.0
 10
742.5363454389046
 20
238.6187685089382
 30
0.0
 10
742.5614346383633
 20
238.6176933323457
 30
0.0
  0
LINE
  5
33F
330
1F
100
AcDbEntity
  8
0
  6
Continuous
 62
     7
370
    25
100
AcDbLine
 10
765.4460739368
 20
336.1462352172
 30
0.0
 11
765.4979257887
 21
336.1388278098
 31
0.0
  0
LINE
  5
340
330
1F
100
AcDbEntity
  8
0
  6
Continuous
 62
     7
370
    25
100
AcDbLine
 10
765.4979257887
 20
336.1388278098
 30
0.0
 11
770.0682961591
 21
335.0795685506
 31
0.0
  0
SPLINE
  5
341
330
1F
100
AcDbEntity
  8
0
  6
Continuous
 62
     7
370
    25
100
AcDbSpline
210
0.0
220
0.0
230
1.0
 70
     8
 71
     3
 72
    11
 73
     7
 74
     0
 42
0.00000001
 43
0.00000001
 40
0.0
 40
0.0
 40
0.0
 40
0.0
 40
0.0948047932634183
 40
0.2860041687392111
 40
0.5946058566902086
 40
1.0
 40
1.0
 40
1.0
 40
1.0
 10
770.0682961590572
 20
335.079568550566
 30
0.0
 10
770.0725662538615
 20
335.0771578575543
 30
0.0
 10
770.0854481438259
 20
335.0698853534207
 30
0.0
 10
770.1101130272905
 20
335.0514483719975
 30
0.0
 10
770.1487770445306
 20
335.0251290221415
 30
0.0
 10
770.1784388436649
 20
335.0031557149654
 30
0.0
 10
770.1952802860415
 20
334.9906796616772
 30
0.0
  0
LINE
  5
342
330
1F
100
AcDbEntity
  8
0
  6
Continuous
 62
     7
370
    25
100
AcDbLine
 10
770.195280286
 20
334.9906796617
 30
0.0
 11
770.2545395453
 21
334.8129018839
 31
0.0
  0
SPLINE
  5
343
330
1F
100
AcDbEntity
  8
0
  6
Continuous
 62
     7
370
    25
100
AcDbSpline
210
0.0
220
0.0
230
1.0
 70
     8
 71
     3
 72
    11
 73
     7
 74
     0
 42
0.00000001
 43
0.00000001
 40
0.0
 40
0.0
 40
0.0
 40
0.0
 40
0.2682877722890921
 40
0.5210354831253967
 40
0.7624108948600283
 40
1.0
 40
1.0
 40
1.0
 40
1.0
 10
770.2545395453006
 20
334.8129018838993
 30
0.0
 10
770.2540865090052
 20
334.7941390376985
 30
0.0
 10
770.2532066776841
 20
334.7577001476528
 30
0.0
 10
770.2418996747224
 20
334.7055057541657
 30
0.0
 10
770.2256819787242
 20
334.6567609504233
 30
0.0
 10
770.2081899605017
 20
334.62815165278
 30
0.0
 10
770.1995130902742
 20
334.6139600849576
 30
0.0
  0
SPLINE
  5
344
330
1F
100
AcDbEntity
  8
0
  6
Continuous
 62
     7
370
    25
100
AcDbSpline
210
0.0
220
0.0
230
1.0
 70
     8
 71
     3
 72
    11
 73
     7
 74
     0
 42
0.00000001
 43
0.00000001
 40
0.0
 40
0.0
 40
0.0
 40
0.0
 40
0.2462740768471401
 40
0.488638379348627
 40
0.7313177818347503
 40
0.9999999999999999
 40
0.9999999999999999
 40
0.9999999999999999
 40
0.9999999999999999
 10
770.1995130902742
 20
334.6139600849576
 30
0.0
 10
770.1876858005124
 20
334.6013743502263
 30
0.0
 10
770.1642189875402
 20
334.5764026881629
 30
0.0
 10
770.1199346059694
 20
334.5495069861141
 30
0.0
 10
770.0689167034225
 20
334.5342824183797
 30
0.0
 10
770.033130744998
 20
334.5324062095722
 30
0.0
 10
770.0143279050891
 20
334.5314204024179
 30
0.0
  0
LINE
  5
345
330
1F
100
AcDbEntity
  8
0
  6
Continuous
 62
     7
370
    25
100
AcDbLine
 10
770.0143279051
 20
334.5314204024
 30
0.0
 11
769.958243249
 21
334.5388278098
 31
0.0
  0
LINE
  5
346
330
1F
100
AcDbEntity
  8
0
  6
Continuous
 62
     7
370
    25
100
AcDbLine
 10
769.958243249
 20
334.5388278098
 30
0.0
 11
765.6979257887
 21
335.5441188151
 31
0.0
  0
LINE
  5
347
330
1F
100
AcDbEntity
  8
0
  6
Continuous
 62
     7
370
    25
100
AcDbLine
 10
765.6979257887
 20
335.5441188151
 30
0.0
 11
765.6979257887
 21
334.0372405082
 31
0.0
  0
LINE
  5
348
330
1F
100
AcDbEntity
  8
0
  6
Continuous
 62
     7
370
    25
100
AcDbLine
 10
765.6979257887
 20
334.0372405082
 30
0.0
 11
765.9772908681
 21
334.0372405082
 31
0.0
  0
SPLINE
  5
349
330
1F
100
AcDbEntity
  8
0
  6
Continuous
 62
     7
370
    25
100
AcDbSpline
210
0.0
220
0.0
230
1.0
 70
     8
 71
     3
 72
    11
 73
     7
 74
     0
 42
0.00000001
 43
0.00000001
 40
0.0
 40
0.0
 40
0.0
 40
0.0
 40
0.2167097471816165
 40
0.4504013154729806
 40
0.7065240899743042
 40
0.9999999999999999
 40
0.9999999999999999
 40
0.9999999999999999
 40
0.9999999999999999
 10
765.977290868052
 20
334.037240508238
 30
0.0
 10
765.9925769761527
 20
334.0357500746129
 30
0.0
 10
766.0243470431965
 20
334.0326524139211
 30
0.0
 10
766.0717732454135
 20
334.0150686741169
 30
0.0
 10
766.1179371466678
 20
333.9838641964143
 30
0.0
 10
766.1462821338204
 20
333.9572644206271
 30
0.0
 10
766.1614178521789
 20
333.9430606140581
 30
0.0
  0
SPLINE
  5
34A
330
1F
100
AcDbEntity
  8
0
  6
Continuous
 62
     7
370
    25
100
AcDbSpline
210
0.0
220
0.0
230
1.0
 70
     8
 71
     3
 72
    11
 73
     7
 74
     0
 42
0.00000001
 43
0.00000001
 40
0.0
 40
0.0
 40
0.0
 40
0.0
 40
0.2079962266857612
 40
0.4392964162386505
 40
0.6988691857267166
 40
0.9999999999999999
 40
0.9999999999999999
 40
0.9999999999999999
 40
0.9999999999999999
 10
766.1614178521789
 20
333.9430606140581
 30
0.0
 10
766.1705522682505
 20
333.9300017870986
 30
0.0
 10
766.1898445232522
 20
333.9024210180867
 30
0.0
 10
766.2062977149777
 20
333.8511972607739
 30
0.0
 10
766.2189265397202
 20
333.7920136987342
 30
0.0
 10
766.2193769913513
 20
333.7491498212781
 30
0.0
 10
766.2196189103801
 20
333.7261293971269
 30
0.0
  0
SPLINE
  5
34B
330
1F
100
AcDbEntity
  8
0
  6
Continuous
 62
     7
370
    25
100
AcDbSpline
210
0.0
220
0.0
230
1.0
 70
     8
 71
     3
 72
    11
 73
     7
 74
     0
 42
0.00000001
 43
0.00000001
 40
0.0
 40
0.0
 40
0.0
 40
0.0
 40
0.1690717968076022
 40
0.3962730550688195
 40
0.6700387638577173
 40
1.0
 40
1.0
 40
1.0
 40
1.0
 10
766.2196189103801
 20
333.7261293971269
 30
0.0
 10
766.2188286533401
 20
333.7169107523076
 30
0.0
 10
766.2169764368414
 20
333.6953039520305
 30
0.0
 10
766.2063781077326
 20
333.6600956216723
 30
0.0
 10
766.1916693438209
 20
333.6171983835624
 30
0.0
 10
766.1782667320557
 20
333.5870507466257
 30
0.0
 10
766.1709416617027
 20
333.5705738415713
 30
0.0
  0
SPLINE
  5
34C
330
1F
100
AcDbEntity
  8
0
  6
Continuous
 62
     7
370
    25
100
AcDbSpline
210
0.0
220
0.0
230
1.0
 70
     8
 71
     3
 72
    11
 73
     7
 74
     0
 42
0.00000001
 43
0.00000001
 40
0.0
 40
0.0
 40
0.0
 40
0.0
 40
0.244845461775564
 40
0.4865057289992707
 40
0.7344021960444713
 40
1.0
 40
1.0
 40
1.0
 40
1.0
 10
766.1709416617027
 20
333.5705738415713
 30
0.0
 10
766.1588551101821
 20
333.5571540178137
 30
0.0
 10
766.1348392410865
 20
333.5304889487824
 30
0.0
 10
766.0876463456842
 20
333.5031354110617
 30
0.0
 10
766.0346677092181
 20
333.4851228928215
 30
0.0
 10
765.9968510246772
 20
333.4835544230298
 30
0.0
 10
765.977290868052
 20
333.4827431537407
 30
0.0
  0
LINE
  5
34D
330
1F
100
AcDbEntity
  8
0
  6
Continuous
 62
     7
370
    25
100
AcDbLine
 10
765.9772908681
 20
333.4827431537
 30
0.0
 11
765.4545395453
 21
333.4827431537
 31
0.0
  0
SPLINE
  5
34E
330
1F
100
AcDbEntity
  8
0
  6
Continuous
 62
     7
370
    25
100
AcDbSpline
210
0.0
220
0.0
230
1.0
 70
     8
 71
     3
 72
    15
 73
    11
 74
     0
 42
0.00000001
 43
0.00000001
 40
0.0
 40
0.0
 40
0.0
 40
0.0
 40
0.1451267753689136
 40
0.2739154070584304
 40
0.3890388443023413
 40
0.5000000000000022
 40
0.6109611556976658
 40
0.7260845929415725
 40
0.8548732246310927
 40
1.0
 40
1.0
 40
1.0
 40
1.0
 10
765.4545395453006
 20
333.4827431537407
 30
0.0
 10
765.4354666055921
 20
333.4836909704306
 30
0.0
 10
765.3994679276718
 20
333.4854799001013
 30
0.0
 10
765.3487237626855
 20
333.4950502423728
 30
0.0
 10
765.3061927826521
 20
333.5151125631281
 30
0.0
 10
765.2698084475347
 20
333.5413982993609
 30
0.0
 10
765.2435227113018
 20
333.5777826344784
 30
0.0
 10
765.2234603905465
 20
333.6203136145117
 30
0.0
 10
765.2138900482751
 20
333.671057779498
 30
0.0
 10
765.2121011186044
 20
333.7070564574182
 30
0.0
 10
765.2111533019145
 20
333.7261293971269
 30
0.0
  0
LINE
  5
34F
330
1F
100
AcDbEntity
  8
0
  6
Continuous
 62
     7
370
    25
100
AcDbLine
 10
765.2111533019
 20
333.7261293971
 30
0.0
 11
765.2111533019
 21
335.833007704
 31
0.0
  0
SPLINE
  5
350
330
1F
100
AcDbEntity
  8
0
  6
Continuous
 62
     7
370
    25
100
AcDbSpline
210
0.0
220
0.0
230
1.0
 70
     8
 71
     3
 72
    15
 73
    11
 74
     0
 42
0.00000001
 43
0.00000001
 40
0.0
 40
0.0
 40
0.0
 40
0.0
 40
0.1633120513087286
 40
0.3079368125304067
 40
0.4430813263982372
 40
0.5720618085776704
 40
0.69078909282403
 40
0.7980967316976906
 40
0.8997667626794623
 40
0.9999999999999999
 40
0.9999999999999999
 40
0.9999999999999999
 40
0.9999999999999999
 10
765.2111533019145
 20
335.8330077040052
 30
0.0
 10
765.2117441233313
 20
335.8567275897375
 30
0.0
 10
765.212858160308
 20
335.9014531684531
 30
0.0
 10
765.22704757902
 20
335.964476457452
 30
0.0
 10
765.2499324289547
 20
336.019652768061
 30
0.0
 10
765.2832467279017
 20
336.064502448599
 30
0.0
 10
765.3198925000567
 20
336.1010701788452
 30
0.0
 10
765.3599889473736
 20
336.126869750723
 30
0.0
 10
765.4019702224941
 20
336.1445680109459
 30
0.0
 10
765.4314426096569
 20
336.1456821245733
 30
0.0
 10
765.4460739368351
 20
336.1462352172327
 30
0.0
  0
SPLINE
  5
351
330
1F
100
AcDbEntity
  8
0
  6
Continuous
 62
     7
370
    25
100
AcDbSpline
210
0.0
220
0.0
230
1.0
 70
     8
 71
     3
 72
    15
 73
    11
 74
     0
 42
0.00000001
 43
0.00000001
 40
0.0
 40
0.0
 40
0.0
 40
0.0
 40
0.1249158383492395
 40
0.2469908014943305
 40
0.3688202385936005
 40
0.497162486203416
 40
0.626185226666408
 40
0.7498739195145636
 40
0.8729674014286802
 40
1.0
 40
1.0
 40
1.0
 40
1.0
 10
766.3307300214911
 20
338.8404151114126
 30
0.0
 10
766.2892319982697
 20
338.8382003382127
 30
0.0
 10
766.2071797128962
 20
338.8338211608805
 30
0.0
 10
766.0886510768033
 20
338.7981161553618
 30
0.0
 10
765.9808786165452
 20
338.7362585882334
 30
0.0
 10
765.883456090966
 20
338.6556967383876
 30
0.0
 10
765.8013612417335
 20
338.5584990936842
 30
0.0
 10
765.7405576516089
 20
338.4487333422114
 30
0.0
 10
765.7043481384948
 20
338.3287241504304
 30
0.0
 10
765.700088930702
 20
338.2455964791112
 30
0.0
 10
765.6979257886869
 20
338.2033780743756
 30
0.0
  0
LINE
  5
352
330
1F
100
AcDbEntity
  8
0
  6
Continuous
 62
     7
370
    25
100
AcDbLine
 10
765.6979257887
 20
338.2033780744
 30
0.0
 11
765.6979257887
 21
337.8531135241
 31
0.0
  0
SPLINE
  5
353
330
1F
100
AcDbEntity
  8
0
  6
Continuous
 62
     7
370
    25
100
AcDbSpline
210
0.0
220
0.0
230
1.0
 70
     8
 71
     3
 72
    15
 73
    11
 74
     0
 42
0.00000001
 43
0.00000001
 40
0.0
 40
0.0
 40
0.0
 40
0.0
 40
0.1118317764327485
 40
0.2241425644053952
 40
0.3399909971379538
 40
0.4659173877703783
 40
0.5952874039737205
 40
0.7229620604024631
 40
0.8568235554502095
 40
1.0
 40
1.0
 40
1.0
 40
1.0
 10
765.6979257886869
 20
337.853113524111
 30
0.0
 10
765.6998893040287
 20
337.8179414045884
 30
0.0
 10
765.7038247450815
 20
337.7474465120198
 30
0.0
 10
765.7383813015904
 20
337.6451134306265
 30
0.0
 10
765.7954440054848
 20
337.5490694095544
 30
0.0
 10
765.8720955263816
 20
337.4606980578416
 30
0.0
 10
765.964771374317
 20
337.3829366806772
 30
0.0
 10
766.0748893619368
 20
337.3267045813826
 30
0.0
 10
766.19862905335
 20
337.2933289531721
 30
0.0
 10
766.2857202653915
 20
337.2898382138861
 30
0.0
 10
766.3307300214911
 20
337.2880341590316
 30
0.0
  0
LINE
  5
354
330
1F
100
AcDbEntity
  8
0
  6
Continuous
 62
     7
370
    25
100
AcDbLine
 10
766.3307300215
 20
337.288034159
 30
0.0
 11
769.1349628257
 21
337.288034159
 31
0.0
  0
SPLINE
  5
355
330
1F
100
AcDbEntity
  8
0
  6
Continuous
 62
     7
370
    25
100
AcDbSpline
210
0.0
220
0.0
230
1.0
 70
     8
 71
     3
 72
    15
 73
    11
 74
     0
 42
0.00000001
 43
0.00000001
 40
0.0
 40
0.0
 40
0.0
 40
0.0
 40
0.14275424940716
 40
0.2753101731660495
 40
0.405049156380881
 40
0.5372779236154158
 40
0.6645985210969834
 40
0.7824845242155001
 40
0.8920592649944213
 40
1.0
 40
1.0
 40
1.0
 40
1.0
 10
769.134962825724
 20
337.2880341590316
 30
0.0
 10
769.1796616552284
 20
337.2901153344152
 30
0.0
 10
769.2658660417338
 20
337.2941290065659
 30
0.0
 10
769.3885179112953
 20
337.3295651663471
 30
0.0
 10
769.4991602606663
 20
337.3860193335732
 30
0.0
 10
769.5922629681654
 20
337.4657070553349
 30
0.0
 10
769.6691437890032
 20
337.5557137449701
 30
0.0
 10
769.7265480786651
 20
337.6512027367923
 30
0.0
 10
769.7615366903449
 20
337.751303408538
 30
0.0
 10
769.7664079343211
 20
337.8193472036611
 30
0.0
 10
769.7688252595864
 20
337.853113524111
 30
0.0
  0
LINE
  5
356
330
1F
100
AcDbEntity
  8
0
  6
Continuous
 62
     7
370
    25
100
AcDbLine
 10
769.7688252596
 20
337.8531135241
 30
0.0
 11
769.7688252596
 21
338.2033780744
 31
0.0
  0
SPLINE
  5
357
330
1F
100
AcDbEntity
  8
0
  6
Continuous
 62
     7
370
    25
100
AcDbSpline
210
0.0
220
0.0
230
1.0
 70
     8
 71
     3
 72
    15
 73
    11
 74
     0
 42
0.00000001
 43
0.00000001
 40
0.0
 40
0.0
 40
0.0
 40
0.0
 40
0.1255330472267983
 40
0.2458636809201152
 40
0.3676217961810896
 40
0.4950003642493327
 40
0.6219554240961745
 40
0.7452109875992382
 40
0.8691926579049424
 40
1.0
 40
1.0
 40
1.0
 40
1.0
 10
769.7688252595864
 20
338.2033780743756
 30
0.0
 10
769.7666626070412
 20
338.2452583520063
 30
0.0
 10
769.7624269278551
 20
338.3272832804512
 30
0.0
 10
769.7265423185424
 20
338.4454948506013
 30
0.0
 10
769.6697277563998
 20
338.5553667636646
 30
0.0
 10
769.5906958403333
 20
338.6534991236613
 30
0.0
 10
769.495167568041
 20
338.7365594144106
 30
0.0
 10
769.3850756506087
 20
338.796586821741
 30
0.0
 10
769.2637037894019
 20
338.8346266240956
 30
0.0
 10
769.1786361205596
 20
338.8384514604811
 30
0.0
 10
769.134962825724
 20
338.8404151114126
 30
0.0
  0
LINE
  5
358
330
1F
100
AcDbEntity
  8
0
  6
Continuous
 62
     7
370
    25
100
AcDbLine
 10
769.1349628257
 20
338.8404151114
 30
0.0
 11
766.3307300215
 21
338.8404151114
 31
0.0
  0
SPLINE
  5
359
330
1F
100
AcDbEntity
  8
0
  6
Continuous
 62
     7
370
    25
100
AcDbSpline
210
0.0
220
0.0
230
1.0
 70
     8
 71
     3
 72
    23
 73
    19
 74
     0
 42
0.00000001
 43
0.00000001
 40
0.0
 40
0.0
 40
0.0
 40
0.0
 40
0.0600802379279144
 40
0.118417650902238
 40
0.1767783336872073
 40
0.2346718431964963
 40
0.2938182525822915
 40
0.3539718933939363
 40
0.4158528637850492
 40
0.4805968166492593
 40
0.5457718693797977
 40
0.6090442066624696
 40
0.6722923977812442
 40
0.7356505135642869
 40
0.7990300558328189
 40
0.8636165316853407
 40
0.930607378634263
 40
0.9999999999999999
 40
0.9999999999999999
 40
0.9999999999999999
 40
0.9999999999999999
 10
769.134962825724
 20
339.3938542648518
 30
0.0
 10
769.1713575151743
 20
339.3928862984562
 30
0.0
 10
769.2430911463764
 20
339.390978444715
 30
0.0
 10
769.3490796469957
 20
339.3742865734563
 30
0.0
 10
769.4516841257321
 20
339.3482311606341
 30
0.0
 10
769.5512094406813
 20
339.3105229851379
 30
0.0
 10
769.6472915741812
 20
339.2625653469688
 30
0.0
 10
769.7413870640764
 20
339.2057506198994
 30
0.0
 10
769.8302362021766
 20
339.1354892764525
 30
0.0
 10
769.9164648603247
 20
339.0575480727224
 30
0.0
 10
769.9948521439555
 20
338.9704482963816
 30
0.0
 10
770.0645051748513
 20
338.8774551797466
 30
0.0
 10
770.1244440381843
 20
338.7790455185128
 30
0.0
 10
770.1715196284737
 20
338.6738384418924
 30
0.0
 10
770.2090756679447
 20
338.5640789591391
 30
0.0
 10
770.235431243086
 20
338.4488399577716
 30
0.0
 10
770.2516287184085
 20
338.3280037769292
 30
0.0
 10
770.2535579448207
 20
338.2454048433902
 30
0.0
 10
770.2545395453006
 20
338.2033780743756
 30
0.0
  0
LINE
  5
35A
330
1F
100
AcDbEntity
  8
0
  6
Continuous
 62
     7
370
    25
100
AcDbLine
 10
770.2545395453
 20
338.2033780744
 30
0.0
 11
770.2545395453
 21
337.8531135241
 31
0.0
  0
SPLINE
  5
35B
330
1F
100
AcDbEntity
  8
0
  6
Continuous
 62
     7
370
    25
100
AcDbSpline
210
0.0
220
0.0
230
1.0
 70
     8
 71
     3
 72
    23
 73
    19
 74
     0
 42
0.00000001
 43
0.00000001
 40
0.0
 40
0.0
 40
0.0
 40
0.0
 40
0.0604053634103582
 40
0.1201290143700311
 40
0.1798282833523827
 40
0.2395671679944761
 40
0.2997431278367884
 40
0.360891085312352
 40
0.4243638630405892
 40
0.4906527781147587
 40
0.5567877756064855
 40
0.6211404018935472
 40
0.6835608161617978
 40
0.7456157253890786
 40
0.8072616482783723
 40
0.8701815267455294
 40
0.9341711527737497
 40
1.0
 40
1.0
 40
1.0
 40
1.0
 10
770.2545395453006
 20
337.853113524111
 30
0.0
 10
770.2534444155422
 20
337.8177908927163
 30
0.0
 10
770.251266515252
 20
337.7475442679989
 30
0.0
 10
770.2361321318888
 20
337.6432628815666
 30
0.0
 10
770.2108783084689
 20
337.5414132922304
 30
0.0
 10
770.1744431386062
 20
337.4427171075529
 30
0.0
 10
770.1287479109243
 20
337.347072627806
 30
0.0
 10
770.0732082536396
 20
337.2541956120484
 30
0.0
 10
770.0070633039442
 20
337.1641261229777
 30
0.0
 10
769.9321331175346
 20
337.0772958583777
 30
0.0
 10
769.8488950901245
 20
336.9976821576255
 30
0.0
 10
769.7614865463376
 20
336.9261141447897
 30
0.0
 10
769.6683567184083
 20
336.8664085148552
 30
0.0
 10
769.570981539199
 20
336.8172827907973
 30
0.0
 10
769.4680449531721
 20
336.7804720915808
 30
0.0
 10
769.3612507751125
 20
336.7524930093082
 30
0.0
 10
769.2493762754025
 20
336.7365535816697
 30
0.0
 10
769.173459164345
 20
336.7345518501821
 30
0.0
 10
769.134962825724
 20
336.7335368045343
 30
0.0
  0
LINE
  5
35C
330
1F
100
AcDbEntity
  8
0
  6
Continuous
 62
     7
370
    25
100
AcDbLine
 10
769.1349628257
 20
336.7335368045
 30
0.0
 11
766.3307300215
 21
336.7335368045
 31
0.0
  0
LINE
  5
35D
330
1F
100
AcDbEntity
  8
0
  6
Continuous
 62
     7
370
    25
100
AcDbLine
 10
765.2111533019
 20
337.8531135241
 30
0.0
 11
765.2111533019
 21
338.2033780744
 31
0.0
  0
LINE
  5
35E
330
1F
100
AcDbEntity
  8
0
  6
Continuous
 62
     7
370
    25
100
AcDbLine
 10
766.3307300215
 20
339.3938542649
 30
0.0
 11
769.1349628257
 21
339.3938542649
 31
0.0
  0
SPLINE
  5
35F
330
1F
100
AcDbEntity
  8
0
  6
Continuous
 62
     7
370
    25
100
AcDbSpline
210
0.0
220
0.0
230
1.0
 70
     8
 71
     3
 72
    23
 73
    19
 74
     0
 42
0.00000001
 43
0.00000001
 40
0.0
 40
0.0
 40
0.0
 40
0.0
 40
0.0682895820365391
 40
0.134184333693836
 40
0.1982607136304886
 40
0.2616970604103178
 40
0.3240520880430467
 40
0.3867633009533595
 40
0.4510304479080119
 40
0.5162639143929985
 40
0.5810344016889034
 40
0.6437889796059781
 40
0.7038098606851854
 40
0.7632700659433295
 40
0.8217615925700055
 40
0.8803228419113611
 40
0.9398659145933574
 40
1.0
 40
1.0
 40
1.0
 40
1.0
 10
765.2111533019145
 20
338.2033780743756
 30
0.0
 10
765.2121333672526
 20
338.2446993806566
 30
0.0
 10
765.2140591282613
 20
338.325892906599
 30
0.0
 10
765.2303150499876
 20
338.4449776038657
 30
0.0
 10
765.2569014705405
 20
338.559041765638
 30
0.0
 10
765.2935145181153
 20
338.6681548875911
 30
0.0
 10
765.3421579294426
 20
338.771486956566
 30
0.0
 10
765.3993129964273
 20
338.8709025865762
 30
0.0
 10
765.4680611057155
 20
338.9650087911386
 30
0.0
 10
765.5475284565103
 20
339.0517828471388
 30
0.0
 10
765.6322753376329
 20
339.1320364974521
 30
0.0
 10
765.7219826207962
 20
339.2018227036726
 30
0.0
 10
765.815346043682
 20
339.2606663270629
 30
0.0
 10
765.9113125637808
 20
339.3099603733496
 30
0.0
 10
766.0118255709579
 20
339.3465501952615
 30
0.0
 10
766.1149574245654
 20
339.3749478556091
 30
0.0
 10
766.2219517223691
 20
339.3907209334739
 30
0.0
 10
766.2943514091049
 20
339.3928063881282
 30
0.0
 10
766.3307300214911
 20
339.3938542648518
 30
0.0
  0
SPLINE
  5
360
330
1F
100
AcDbEntity
  8
0
  6
Continuous
 62
     7
370
    25
100
AcDbSpline
210
0.0
220
0.0
230
1.0
 70
     8
 71
     3
 72
    23
 73
    19
 74
     0
 42
0.00000001
 43
0.00000001
 40
0.0
 40
0.0
 40
0.0
 40
0.0
 40
0.0626721334200282
 40
0.124047461766518
 40
0.184194443843448
 40
0.2449288829797974
 40
0.3049673399405117
 40
0.3668014017309812
 40
0.4296438440973718
 40
0.4948766886890693
 40
0.5604446950036089
 40
0.6235316894031899
 40
0.6854857520891303
 40
0.7471320284998372
 40
0.808433522726359
 40
0.8704781637115815
 40
0.9343215725794244
 40
0.9999999999999999
 40
0.9999999999999999
 40
0.9999999999999999
 40
0.9999999999999999
 10
766.3307300214911
 20
336.7335368045343
 30
0.0
 10
766.2940010856698
 20
336.734634633679
 30
0.0
 10
766.2213032052339
 20
336.7368075758052
 30
0.0
 10
766.1141351618131
 20
336.7516541137522
 30
0.0
 10
766.0103188962013
 20
336.7774540983494
 30
0.0
 10
765.9102854618963
 20
336.8131514953325
 30
0.0
 10
765.8136452561049
 20
336.8595219675539
 30
0.0
 10
765.7208267420007
 20
336.9155141341759
 30
0.0
 10
765.6311631879738
 20
336.9817327222989
 30
0.0
 10
765.5465425804655
 20
337.0575104461369
 30
0.0
 10
765.4676091505497
 20
337.1394940556762
 30
0.0
 10
765.3996906651716
 20
337.2284151565302
 30
0.0
 10
765.3407024429526
 20
337.3207234154952
 30
0.0
 10
765.2927877555816
 20
337.4182279839108
 30
0.0
 10
765.2571353637425
 20
337.5208154106115
 30
0.0
 10
765.2302375100156
 20
337.6272945508649
 30
0.0
 10
765.2141207586675
 20
337.7386887200025
 30
0.0
 10
765.2121517528861
 20
337.8146133651002
 30
0.0
 10
765.2111533019145
 20
337.853113524111
 30
0.0
  0
SPLINE
  5
361
330
1F
100
AcDbEntity
  8
0
  6
Continuous
 62
     7
370
    25
100
AcDbSpline
210
0.0
220
0.0
230
1.0
 70
     8
 71
     3
 72
    11
 73
     7
 74
     0
 42
0.00000001
 43
0.00000001
 40
0.0
 40
0.0
 40
0.0
 40
0.0
 40
0.2222296264580995
 40
0.4518310366067926
 40
0.7128264966695843
 40
1.0
 40
1.0
 40
1.0
 40
1.0
 10
770.0111533019144
 20
332.853113524111
 30
0.0
 10
770.0268210211663
 20
332.8517131091759
 30
0.0
 10
770.0586761880209
 20
332.8488658248515
 30
0.0
 10
770.1060475691512
 20
332.8303656317682
 30
0.0
 10
770.152346321522
 20
332.8004279122131
 30
0.0
 10
770.1805204749531
 20
332.7738929213427
 30
0.0
 10
770.1952802860415
 20
332.7599918309893
 30
0.0
  0
SPLINE
  5
362
330
1F
100
AcDbEntity
  8
0
  6
Continuous
 62
     7
370
    25
100
AcDbSpline
210
0.0
220
0.0
230
1.0
 70
     8
 71
     3
 72
    11
 73
     7
 74
     0
 42
0.00000001
 43
0.00000001
 40
0.0
 40
0.0
 40
0.0
 40
0.0
 40
0.2077893116931336
 40
0.4404725581962773
 40
0.6989201742747867
 40
1.0
 40
1.0
 40
1.0
 40
1.0
 10
770.1952802860415
 20
332.7599918309893
 30
0.0
 10
770.2042991642135
 20
332.7468947628353
 30
0.0
 10
770.2234174158126
 20
332.7191315488968
 30
0.0
 10
770.2419185914085
 20
332.6685153821086
 30
0.0
 10
770.2520246010072
 20
332.6087247903756
 30
0.0
 10
770.2536597026383
 20
332.5660329494171
 30
0.0
 10
770.2545395453006
 20
332.5430606140581
 30
0.0
  0
SPLINE
  5
363
330
1F
100
AcDbEntity
  8
0
  6
Continuous
 62
     7
370
    25
100
AcDbSpline
210
0.0
220
0.0
230
1.0
 70
     8
 71
     3
 72
    11
 73
     7
 74
     0
 42
0.00000001
 43
0.00000001
 40
0.0
 40
0.0
 40
0.0
 40
0.0
 40
0.1686362874528465
 40
0.3952523016032614
 40
0.6683128216531715
 40
1.0
 40
1.0
 40
1.0
 40
1.0
 10
770.2545395453006
 20
332.5430606140581
 30
0.0
 10
770.2537511527953
 20
332.5338411544218
 30
0.0
 10
770.251903306421
 20
332.5122324443641
 30
0.0
 10
770.241260409572
 20
332.4770435904782
 30
0.0
 10
770.2267355148323
 20
332.4339126969476
 30
0.0
 10
770.2125722498218
 20
332.4039427404299
 30
0.0
 10
770.2048040955652
 20
332.3875050585025
 30
0.0
  0
SPLINE
  5
364
330
1F
100
AcDbEntity
  8
0
  6
Continuous
 62
     7
370
    25
100
AcDbSpline
210
0.0
220
0.0
230
1.0
 70
     8
 71
     3
 72
    11
 73
     7
 74
     0
 42
0.00000001
 43
0.00000001
 40
0.0
 40
0.0
 40
0.0
 40
0.0
 40
0.2448454617755641
 40
0.4865057289992704
 40
0.734402196044471
 40
1.0
 40
1.0
 40
1.0
 40
1.0
 10
770.2048040955652
 20
332.3875050585025
 30
0.0
 10
770.1927175440445
 20
332.3740852347449
 30
0.0
 10
770.1687016749489
 20
332.3474201657136
 30
0.0
 10
770.1215087795467
 20
332.3200666279929
 30
0.0
 10
770.0685301430805
 20
332.3020541097527
 30
0.0
 10
770.0307134585396
 20
332.300485639961
 30
0.0
 10
770.0111533019144
 20
332.2996743706719
 30
0.0
  0
LINE
  5
365
330
1F
100
AcDbEntity
  8
0
  6
Continuous
 62
     7
370
    25
100
AcDbLine
 10
770.0111533019
 20
332.2996743707
 30
0.0
 11
765.9434284342
 21
332.2996743707
 31
0.0
  0
LINE
  5
366
330
1F
100
AcDbEntity
  8
0
  6
Continuous
 62
     7
370
    25
100
AcDbLine
 10
765.9434284342
 20
332.2996743707
 30
0.0
 11
766.6778199686
 21
331.7113145823
 31
0.0
  0
SPLINE
  5
367
330
1F
100
AcDbEntity
  8
0
  6
Continuous
 62
     7
370
    25
100
AcDbSpline
210
0.0
220
0.0
230
1.0
 70
     8
 71
     3
 72
    11
 73
     7
 74
     0
 42
0.00000001
 43
0.00000001
 40
0.0
 40
0.0
 40
0.0
 40
0.0
 40
0.2241314516646937
 40
0.4573312773040286
 40
0.7134789660544973
 40
1.0
 40
1.0
 40
1.0
 40
1.0
 10
766.677819968581
 20
331.7113145823121
 30
0.0
 10
766.6887030072648
 20
331.6979751679997
 30
0.0
 10
766.7109094131272
 20
331.6707566257531
 30
0.0
 10
766.7328141044131
 20
331.620163547379
 30
0.0
 10
766.7470028625127
 20
331.5621911473856
 30
0.0
 10
766.7481262876673
 20
331.5205840825291
 30
0.0
 10
766.7487194394805
 20
331.4986161696136
 30
0.0
  0
SPLINE
  5
368
330
1F
100
AcDbEntity
  8
0
  6
Continuous
 62
     7
370
    25
100
AcDbSpline
210
0.0
220
0.0
230
1.0
 70
     8
 71
     3
 72
    15
 73
    11
 74
     0
 42
0.00000001
 43
0.00000001
 40
0.0
 40
0.0
 40
0.0
 40
0.0
 40
0.1288898105340689
 40
0.2516377353297932
 40
0.3750831832872552
 40
0.4992823654918491
 40
0.6273294650389185
 40
0.7483622646702036
 40
0.8711101894659335
 40
1.0
 40
1.0
 40
1.0
 40
1.0
 10
766.7487194394805
 20
331.4986161696136
 30
0.0
 10
766.7480747300876
 20
331.4819171025554
 30
0.0
 10
766.7468160331363
 20
331.449314716073
 30
0.0
 10
766.7318798359852
 20
331.4027739443576
 30
0.0
 10
766.7100034596775
 20
331.3599476706721
 30
0.0
 10
766.6784107781352
 20
331.3227069047529
 30
0.0
 10
766.6414394695585
 20
331.2913495159273
 30
0.0
 10
766.5988502687144
 20
331.2686247066989
 30
0.0
 10
766.5524941273028
 20
331.2540050847331
 30
0.0
 10
766.5199076911939
 20
331.2527157336231
 30
0.0
 10
766.5032167939779
 20
331.2520553230528
 30
0.0
  0
SPLINE
  5
369
330
1F
100
AcDbEntity
  8
0
  6
Continuous
 62
     7
370
    25
100
AcDbSpline
210
0.0
220
0.0
230
1.0
 70
     8
 71
     3
 72
    11
 73
     7
 74
     0
 42
0.00000001
 43
0.00000001
 40
0.0
 40
0.0
 40
0.0
 40
0.0
 40
0.1581938786560213
 40
0.3730917312655884
 40
0.6582798017449926
 40
1.0
 40
1.0
 40
1.0
 40
1.0
 10
766.5032167939779
 20
331.2520553230528
 30
0.0
 10
766.493986622807
 20
331.2531873845433
 30
0.0
 10
766.4722177618921
 20
331.2558572905155
 30
0.0
 10
766.4355488610678
 20
331.2687786499039
 30
0.0
 10
766.3910306594236
 20
331.2901284517665
 30
0.0
 10
766.3588521517105
 20
331.3079496607956
 30
0.0
 10
766.3413120320731
 20
331.3176637886613
 30
0.0
  0
LINE
  5
36A
330
1F
100
AcDbEntity
  8
0
  6
Continuous
 62
     7
370
    25
100
AcDbLine
 10
766.3413120321
 20
331.3176637887
 30
0.0
 11
765.2841691749
 21
332.3716320426
 31
0.0
  0
SPLINE
  5
36B
330
1F
100
AcDbEntity
  8
0
  6
Continuous
 62
     7
370
    25
100
AcDbSpline
210
0.0
220
0.0
230
1.0
 70
     8
 71
     3
 72
    11
 73
     7
 74
     0
 42
0.00000001
 43
0.00000001
 40
0.0
 40
0.0
 40
0.0
 40
0.0
 40
0.2511722490493003
 40
0.4987584675373678
 40
0.7423724569383192
 40
1.0
 40
1.0
 40
1.0
 40
1.0
 10
765.2841691749303
 20
332.3716320426295
 30
0.0
 10
765.2738308986414
 20
332.3832770579857
 30
0.0
 10
765.2533019474602
 20
332.4064008307569
 30
0.0
 10
765.2308756413247
 20
332.4469452672906
 30
0.0
 10
765.217625182576
 20
332.4918044456987
 30
0.0
 10
765.2161462474913
 20
332.5228639049079
 30
0.0
 10
765.2153861061472
 20
332.5388278098253
 30
0.0
  0
SPLINE
  5
36C
330
1F
100
AcDbEntity
  8
0
  6
Continuous
 62
     7
370
    25
100
AcDbSpline
210
0.0
220
0.0
230
1.0
 70
     8
 71
     3
 72
    15
 73
    11
 74
     0
 42
0.00000001
 43
0.00000001
 40
0.0
 40
0.0
 40
0.0
 40
0.0
 40
0.1533598080942379
 40
0.2959507726065742
 40
0.4308858858096634
 40
0.5630590384549281
 40
0.6867434286385142
 40
0.7972473370592285
 40
0.8996570402522049
 40
1.0
 40
1.0
 40
1.0
 40
1.0
 10
765.2153861061472
 20
332.5388278098253
 30
0.0
 10
765.2159053099551
 20
332.5611681226422
 30
0.0
 10
765.2169072593575
 20
332.6042800234761
 30
0.0
 10
765.2328709012978
 20
332.6651274072946
 30
0.0
 10
765.2552031157593
 20
332.7207651117332
 30
0.0
 10
765.2900374530795
 20
332.766038371602
 30
0.0
 10
765.3268924538091
 20
332.8048285899879
 30
0.0
 10
765.368242702703
 20
332.831254906609
 30
0.0
 10
765.4102561472072
 20
332.850391749016
 30
0.0
 10
765.4398790655715
 20
332.8522124521444
 30
0.0
 10
765.4545395453006
 20
332.853113524111
 30
0.0
  0
LINE
  5
36D
330
1F
100
AcDbEntity
  8
0
  6
Continuous
 62
     7
370
    25
100
AcDbLine
 10
765.4545395453
 20
332.8531135241
 30
0.0
 11
770.0111533019
 21
332.8531135241
 31
0.0
  0
LINE
  5
36E
330
1F
100
AcDbEntity
  8
0
  6
Continuous
 62
     7
370
    25
100
AcDbLine
 10
771.2986586082
 20
414.6642246352
 30
0.0
 11
772.2545395453
 21
414.6642246352
 31
0.0
  0
LINE
  5
36F
330
1F
100
AcDbEntity
  8
0
  6
Continuous
 62
     7
370
    25
100
AcDbLine
 10
772.7545395453
 20
418.6642246352
 30
0.0
 11
771.2986586082
 21
414.6642246352
 31
0.0
  0
LINE
  5
370
330
1F
100
AcDbEntity
  8
0
  6
Continuous
 62
     7
370
    25
100
AcDbLine
 10
774.2104204824
 20
414.6642246352
 30
0.0
 11
772.7545395453
 21
418.6642246352
 31
0.0
  0
LINE
  5
371
330
1F
100
AcDbEntity
  8
0
  6
Continuous
 62
     7
370
    25
100
AcDbLine
 10
773.2545395453
 20
414.6642246352
 30
0.0
 11
774.2104204824
 21
414.6642246352
 31
0.0
  0
LINE
  5
372
330
1F
100
AcDbEntity
  8
0
  6
Continuous
 62
     7
370
    25
100
AcDbLine
 10
773.2545395453
 20
255.6642246352
 30
0.0
 11
773.2545395453
 21
414.6642246352
 31
0.0
  0
LINE
  5
373
330
1F
100
AcDbEntity
  8
0
  6
Continuous
 62
     7
370
    25
100
AcDbLine
 10
774.2104204824
 20
255.6642246352
 30
0.0
 11
773.2545395453
 21
255.6642246352
 31
0.0
  0
LINE
  5
374
330
1F
100
AcDbEntity
  8
0
  6
Continuous
 62
     7
370
    25
100
AcDbLine
 10
772.7545395453
 20
251.6642246352
 30
0.0
 11
774.2104204824
 21
255.6642246352
 31
0.0
  0
LINE
  5
375
330
1F
100
AcDbEntity
  8
0
  6
Continuous
 62
     7
370
    25
100
AcDbLine
 10
771.2986586082
 20
255.6642246352
 30
0.0
 11
772.7545395453
 21
251.6642246352
 31
0.0
  0
LINE
  5
376
330
1F
100
AcDbEntity
  8
0
  6
Continuous
 62
     7
370
    25
100
AcDbLine
 10
772.2545395453
 20
255.6642246352
 30
0.0
 11
771.2986586082
 21
255.6642246352
 31
0.0
  0
LINE
  5
377
330
1F
100
AcDbEntity
  8
0
  6
Continuous
 62
     7
370
    25
100
AcDbLine
 10
772.2545395453
 20
414.6642246352
 30
0.0
 11
772.2545395453
 21
255.6642246352
 31
0.0
  0
LINE
  5
378
330
1F
100
AcDbEntity
  8
0
  6
Continuous
 62
     7
370
    25
100
AcDbLine
 10
771.7545395453
 20
250.6642246352
 30
0.0
 11
771.7545395453
 21
249.6642246352
 31
0.0
  0
LINE
  5
379
330
1F
100
AcDbEntity
  8
0
  6
Continuous
 62
     7
370
    25
100
AcDbLine
 10
778.2545395453
 20
250.6642246352
 30
0.0
 11
771.7545395453
 21
250.6642246352
 31
0.0
  0
LINE
  5
37A
330
1F
100
AcDbEntity
  8
0
  6
Continuous
 62
     7
370
    25
100
AcDbLine
 10
778.2545395453
 20
249.6642246352
 30
0.0
 11
778.2545395453
 21
250.6642246352
 31
0.0
  0
LINE
  5
37B
330
1F
100
AcDbEntity
  8
0
  6
Continuous
 62
     7
370
    25
100
AcDbLine
 10
771.7545395453
 20
249.6642246352
 30
0.0
 11
778.2545395453
 21
249.6642246352
 31
0.0
  0
LINE
  5
37C
330
1F
100
AcDbEntity
  8
0
  6
Continuous
 62
     7
370
    25
100
AcDbLine
 10
778.2545395453
 20
419.6642246352
 30
0.0
 11
778.2545395453
 21
420.6642246352
 31
0.0
  0
LINE
  5
37D
330
1F
100
AcDbEntity
  8
0
  6
Continuous
 62
     7
370
    25
100
AcDbLine
 10
771.7545395453
 20
420.6642246352
 30
0.0
 11
771.7545395453
 21
419.6642246352
 31
0.0
  0
LINE
  5
37E
330
1F
100
AcDbEntity
  8
0
  6
Continuous
 62
     7
370
    25
100
AcDbLine
 10
771.7545395453
 20
419.6642246352
 30
0.0
 11
778.2545395453
 21
419.6642246352
 31
0.0
  0
LINE
  5
37F
330
1F
100
AcDbEntity
  8
0
  6
Continuous
 62
     7
370
    25
100
AcDbLine
 10
778.2545395453
 20
420.6642246352
 30
0.0
 11
771.7545395453
 21
420.6642246352
 31
0.0
  0
LINE
  5
380
330
1F
100
AcDbEntity
  8
0
  6
Continuous
 62
     7
370
    25
100
AcDbLine
 10
788.7545395453
 20
239.1642246352
 30
0.0
 11
788.7545395453
 21
232.6642246352
 31
0.0
  0
LINE
  5
381
330
1F
100
AcDbEntity
  8
0
  6
Continuous
 62
     7
370
    25
100
AcDbLine
 10
789.7545395453
 20
239.1642246352
 30
0.0
 11
788.7545395453
 21
239.1642246352
 31
0.0
  0
LINE
  5
382
330
1F
100
AcDbEntity
  8
0
  6
Continuous
 62
     7
370
    25
100
AcDbLine
 10
789.7545395453
 20
232.6642246352
 30
0.0
 11
789.7545395453
 21
239.1642246352
 31
0.0
  0
LINE
  5
383
330
1F
100
AcDbEntity
  8
0
  6
Continuous
 62
     7
370
    25
100
AcDbLine
 10
788.7545395453
 20
232.6642246352
 30
0.0
 11
789.7545395453
 21
232.6642246352
 31
0.0
  0
LINE
  5
384
330
1F
100
AcDbEntity
  8
0
  6
Continuous
 62
     7
370
    25
100
AcDbLine
 10
843.7854793321
 20
185.6332848484
 30
0.0
 11
844.2545395453
 21
185.1642246352
 31
0.0
  0
LINE
  5
385
330
1F
100
AcDbEntity
  8
0
  6
Continuous
 62
     7
370
    25
100
AcDbLine
 10
844.2545395453
 20
185.1642246352
 30
0.0
 11
644.2545395453
 21
185.1642246352
 31
0.0
  0
LINE
  5
386
330
1F
100
AcDbEntity
  8
0
  6
Continuous
 62
     7
370
    25
100
AcDbLine
 10
644.2545395453
 20
185.1642246352
 30
0.0
 11
644.7235997585
 21
185.6332848484
 31
0.0
  0
LINE
  5
387
330
1F
100
AcDbEntity
  8
0
  6
Continuous
 62
     7
370
    25
100
AcDbLine
 10
843.7854793321
 20
185.6332848484
 30
0.0
 11
644.7235997585
 21
185.6332848484
 31
0.0
  0
LINE
  5
388
330
1F
100
AcDbEntity
  8
0
  6
Continuous
 62
     7
370
    25
100
AcDbLine
 10
644.2545395453
 20
185.1642246352
 30
0.0
 11
644.2545395453
 21
202.9642246352
 31
0.0
  0
LINE
  5
389
330
1F
100
AcDbEntity
  8
0
  6
Continuous
 62
     7
370
    25
100
AcDbLine
 10
644.2545395453
 20
202.9642246352
 30
0.0
 11
644.2545395453
 21
467.3642246352
 31
0.0
  0
LINE
  5
38A
330
1F
100
AcDbEntity
  8
0
  6
Continuous
 62
     7
370
    25
100
AcDbLine
 10
644.2545395453
 20
467.3642246352
 30
0.0
 11
644.2545395453
 21
485.1642246352
 31
0.0
  0
LINE
  5
38B
330
1F
100
AcDbEntity
  8
0
  6
Continuous
 62
     7
370
    25
100
AcDbLine
 10
644.7235997585
 20
484.695164422
 30
0.0
 11
644.2545395453
 21
485.1642246352
 31
0.0
  0
LINE
  5
38C
330
1F
100
AcDbEntity
  8
0
  6
Continuous
 62
     7
370
    25
100
AcDbLine
 10
644.7235997585
 20
185.6332848484
 30
0.0
 11
644.7235997585
 21
484.695164422
 31
0.0
  0
LINE
  5
38D
330
1F
100
AcDbEntity
  8
0
  6
Continuous
 62
     7
370
    25
100
AcDbLine
 10
644.2545395453
 20
485.1642246352
 30
0.0
 11
844.2545395453
 21
485.1642246352
 31
0.0
  0
LINE
  5
38E
330
1F
100
AcDbEntity
  8
0
  6
Continuous
 62
     7
370
    25
100
AcDbLine
 10
843.7854793321
 20
484.695164422
 30
0.0
 11
844.2545395453
 21
485.1642246352
 31
0.0
  0
LINE
  5
38F
330
1F
100
AcDbEntity
  8
0
  6
Continuous
 62
     7
370
    25
100
AcDbLine
 10
644.7235997585
 20
484.695164422
 30
0.0
 11
843.7854793321
 21
484.695164422
 31
0.0
  0
CIRCLE
  5
390
330
1F
100
AcDbEntity
  8
0
  6
Continuous
 62
     7
370
    25
100
AcDbCircle
 10
789.2545395453
 20
250.1642246352
 30
0.0
 40
9.652365194784693
  0
CIRCLE
  5
391
330
1F
100
AcDbEntity
  8
0
  6
Continuous
 62
     7
370
    25
100
AcDbCircle
 10
789.2545395453
 20
420.1642246352
 30
0.0
 40
9.652365194784693
  0
CIRCLE
  5
392
330
1F
100
AcDbEntity
  8
0
  6
Continuous
 62
     7
370
    25
100
AcDbCircle
 10
694.2545395453
 20
250.1642246352
 30
0.0
 40
9.652365194784807
  0
CIRCLE
  5
393
330
1F
100
AcDbEntity
  8
0
  6
Continuous
 62
     7
370
    25
100
AcDbCircle
 10
694.2545395453
 20
420.1642246352
 30
0.0
 40
9.652365194784807
  0
CIRCLE
  5
394
330
1F
100
AcDbEntity
  8
0
  6
Continuous
 62
     7
370
    25
100
AcDbCircle
 10
786.7545395453
 20
227.6642246352
 30
0.0
 40
1.699999999999932
  0
CIRCLE
  5
395
330
1F
100
AcDbEntity
  8
0
  6
Continuous
 62
     7
370
    25
100
AcDbCircle
 10
696.7545395453
 20
227.6642246352
 30
0.0
 40
1.700000000000045
  0
CIRCLE
  5
396
330
1F
100
AcDbEntity
  8
0
  6
Continuous
 62
     7
370
    25
100
AcDbCircle
 10
696.7545395453
 20
442.6642246352
 30
0.0
 40
1.700000000000045
  0
CIRCLE
  5
397
330
1F
100
AcDbEntity
  8
0
  6
Continuous
 62
     7
370
    25
100
AcDbCircle
 10
786.7545395453
 20
442.6642246352
 30
0.0
 40
1.699999999999932
  0
CIRCLE
  5
398
330
1F
100
AcDbEntity
  8
0
  6
Continuous
 62
     7
370
    25
100
AcDbCircle
 10
796.7545395453
 20
216.2642246352
 30
0.0
 40
2.517920191070857
  0
CIRCLE
  5
399
330
1F
100
AcDbEntity
  8
0
  6
Continuous
 62
     7
370
    25
100
AcDbCircle
 10
796.7545395453
 20
230.2642246352
 30
0.0
 40
2.517920191070857
  0
CIRCLE
  5
39A
330
1F
100
AcDbEntity
  8
0
  6
Continuous
 62
     7
370
    25
100
AcDbCircle
 10
782.7545395453
 20
216.2642246352
 30
0.0
 40
2.517920191070743
  0
CIRCLE
  5
39B
330
1F
100
AcDbEntity
  8
0
  6
Continuous
 62
     7
370
    25
100
AcDbCircle
 10
700.7545395453
 20
216.2642246352
 30
0.0
 40
2.500000000000114
  0
CIRCLE
  5
39C
330
1F
100
AcDbEntity
  8
0
  6
Continuous
 62
     7
370
    25
100
AcDbCircle
 10
686.7545395453
 20
216.2642246352
 30
0.0
 40
2.499999999999886
  0
CIRCLE
  5
39D
330
1F
100
AcDbEntity
  8
0
  6
Continuous
 62
     7
370
    25
100
AcDbCircle
 10
686.7545395453
 20
230.2642246352
 30
0.0
 40
2.499999999999886
  0
CIRCLE
  5
39E
330
1F
100
AcDbEntity
  8
0
  6
Continuous
 62
     7
370
    25
100
AcDbCircle
 10
700.7545395453
 20
454.0642246352
 30
0.0
 40
2.517920191070743
  0
CIRCLE
  5
39F
330
1F
100
AcDbEntity
  8
0
  6
Continuous
 62
     7
370
    25
100
AcDbCircle
 10
686.7545395453
 20
454.0642246352
 30
0.0
 40
2.517920191070857
  0
CIRCLE
  5
3A0
330
1F
100
AcDbEntity
  8
0
  6
Continuous
 62
     7
370
    25
100
AcDbCircle
 10
686.7545395453
 20
440.0642246352
 30
0.0
 40
2.517920191070857
  0
CIRCLE
  5
3A1
330
1F
100
AcDbEntity
  8
0
  6
Continuous
 62
     7
370
    25
100
AcDbCircle
 10
796.7545395453
 20
454.0642246352
 30
0.0
 40
2.499999999999886
  0
CIRCLE
  5
3A2
330
1F
100
AcDbEntity
  8
0
  6
Continuous
 62
     7
370
    25
100
AcDbCircle
 10
796.7545395453
 20
440.0642246352
 30
0.0
 40
2.499999999999886
  0
CIRCLE
  5
3A3
330
1F
100
AcDbEntity
  8
0
  6
Continuous
 62
     7
370
    25
100
AcDbCircle
 10
782.7545395453
 20
454.0642246352
 30
0.0
 40
2.5
  0
LINE
  5
3A4
330
1F
100
AcDbEntity
  8
0
  6
Continuous
 62
     7
370
    25
100
AcDbLine
 10
843.7854793321
 20
484.695164422
 30
0.0
 11
843.7854793321
 21
185.6332848484
 31
0.0
  0
CIRCLE
  5
3A5
330
1F
100
AcDbEntity
  8
0
  6
Continuous
 62
     7
370
    25
100
AcDbCircle
 10
686.7545395453
 20
440.0642246352
 30
0.0
 40
1.482547593562686
  0
CIRCLE
  5
3A6
330
1F
100
AcDbEntity
  8
0
  6
Continuous
 62
     7
370
    25
100
AcDbCircle
 10
686.7545395453
 20
454.0642246352
 30
0.0
 40
1.482547593562686
  0
CIRCLE
  5
3A7
330
1F
100
AcDbEntity
  8
0
  6
Continuous
 62
     7
370
    25
100
AcDbCircle
 10
686.7545395453
 20
216.2642246352
 30
0.0
 40
1.48223484310472
  0
CIRCLE
  5
3A8
330
1F
100
AcDbEntity
  8
0
  6
Continuous
 62
     7
370
    25
100
AcDbCircle
 10
686.7545395453
 20
230.2642246352
 30
0.0
 40
1.48223484310472
  0
CIRCLE
  5
3A9
330
1F
100
AcDbEntity
  8
0
  6
Continuous
 62
     7
370
    25
100
AcDbCircle
 10
694.2545395453
 20
250.1642246352
 30
0.0
 40
9.603491012985728
  0
CIRCLE
  5
3AA
330
1F
100
AcDbEntity
  8
0
  6
Continuous
 62
     7
370
    25
100
AcDbCircle
 10
694.2545395453
 20
420.1642246352
 30
0.0
 40
9.603491012985728
  0
CIRCLE
  5
3AB
330
1F
100
AcDbEntity
  8
0
  6
Continuous
 62
     7
370
    25
100
AcDbCircle
 10
694.2545395453
 20
420.1642246352
 30
0.0
 40
6.796508987014477
  0
CIRCLE
  5
3AC
330
1F
100
AcDbEntity
  8
0
  6
Continuous
 62
     7
370
    25
100
AcDbCircle
 10
694.2545395453
 20
420.1642246352
 30
0.0
 40
6.747634805215398
  0
CIRCLE
  5
3AD
330
1F
100
AcDbEntity
  8
0
  6
Continuous
 62
     7
370
    25
100
AcDbCircle
 10
694.2545395453
 20
250.1642246352
 30
0.0
 40
6.796508987014477
  0
CIRCLE
  5
3AE
330
1F
100
AcDbEntity
  8
0
  6
Continuous
 62
     7
370
    25
100
AcDbCircle
 10
694.2545395453
 20
250.1642246352
 30
0.0
 40
6.747634805215398
  0
CIRCLE
  5
3AF
330
1F
100
AcDbEntity
  8
0
  6
Continuous
 62
     7
370
    25
100
AcDbCircle
 10
696.7545395453
 20
442.6642246352
 30
0.0
 40
1.675564770185815
  0
CIRCLE
  5
3B0
330
1F
100
AcDbEntity
  8
0
  6
Continuous
 62
     7
370
    25
100
AcDbCircle
 10
696.7545395453
 20
227.6642246352
 30
0.0
 40
1.675564770185815
  0
CIRCLE
  5
3B1
330
1F
100
AcDbEntity
  8
0
  6
Continuous
 62
     7
370
    25
100
AcDbCircle
 10
700.7545395453
 20
454.0642246352
 30
0.0
 40
1.482547593562686
  0
CIRCLE
  5
3B2
330
1F
100
AcDbEntity
  8
0
  6
Continuous
 62
     7
370
    25
100
AcDbCircle
 10
700.7545395453
 20
216.2642246352
 30
0.0
 40
1.48223484310472
  0
CIRCLE
  5
3B3
330
1F
100
AcDbEntity
  8
0
  6
Continuous
 62
     7
370
    25
100
AcDbCircle
 10
789.2545395453
 20
250.1642246352
 30
0.0
 40
9.603491012985614
  0
CIRCLE
  5
3B4
330
1F
100
AcDbEntity
  8
0
  6
Continuous
 62
     7
370
    25
100
AcDbCircle
 10
789.2545395453
 20
420.1642246352
 30
0.0
 40
9.603491012985614
  0
CIRCLE
  5
3B5
330
1F
100
AcDbEntity
  8
0
  6
Continuous
 62
     7
370
    25
100
AcDbCircle
 10
782.7545395453
 20
216.2642246352
 30
0.0
 40
1.482547593562686
  0
CIRCLE
  5
3B6
330
1F
100
AcDbEntity
  8
0
  6
Continuous
 62
     7
370
    25
100
AcDbCircle
 10
782.7545395453
 20
454.0642246352
 30
0.0
 40
1.48223484310472
  0
CIRCLE
  5
3B7
330
1F
100
AcDbEntity
  8
0
  6
Continuous
 62
     7
370
    25
100
AcDbCircle
 10
789.2545395453
 20
420.1642246352
 30
0.0
 40
6.796508987014363
  0
CIRCLE
  5
3B8
330
1F
100
AcDbEntity
  8
0
  6
Continuous
 62
     7
370
    25
100
AcDbCircle
 10
789.2545395453
 20
420.1642246352
 30
0.0
 40
6.747634805215398
  0
CIRCLE
  5
3B9
330
1F
100
AcDbEntity
  8
0
  6
Continuous
 62
     7
370
    25
100
AcDbCircle
 10
789.2545395453
 20
250.1642246352
 30
0.0
 40
6.796508987014363
  0
CIRCLE
  5
3BA
330
1F
100
AcDbEntity
  8
0
  6
Continuous
 62
     7
370
    25
100
AcDbCircle
 10
789.2545395453
 20
250.1642246352
 30
0.0
 40
6.747634805215398
  0
CIRCLE
  5
3BB
330
1F
100
AcDbEntity
  8
0
  6
Continuous
 62
     7
370
    25
100
AcDbCircle
 10
786.7545395453
 20
442.6642246352
 30
0.0
 40
1.675564770185929
  0
CIRCLE
  5
3BC
330
1F
100
AcDbEntity
  8
0
  6
Continuous
 62
     7
370
    25
100
AcDbCircle
 10
786.7545395453
 20
227.6642246352
 30
0.0
 40
1.675564770185929
  0
CIRCLE
  5
3BD
330
1F
100
AcDbEntity
  8
0
  6
Continuous
 62
     7
370
    25
100
AcDbCircle
 10
796.7545395453
 20
216.2642246352
 30
0.0
 40
1.482547593562686
  0
CIRCLE
  5
3BE
330
1F
100
AcDbEntity
  8
0
  6
Continuous
 62
     7
370
    25
100
AcDbCircle
 10
796.7545395453
 20
230.2642246352
 30
0.0
 40
1.482547593562686
  0
CIRCLE
  5
3BF
330
1F
100
AcDbEntity
  8
0
  6
Continuous
 62
     7
370
    25
100
AcDbCircle
 10
796.7545395453
 20
454.0642246352
 30
0.0
 40
1.48223484310472
  0
CIRCLE
  5
3C0
330
1F
100
AcDbEntity
  8
0
  6
Continuous
 62
     7
370
    25
100
AcDbCircle
 10
796.7545395453
 20
440.0642246352
 30
0.0
 40
1.48223484310472
  0
LINE
  5
3C1
330
1F
100
AcDbEntity
  8
0
  6
Continuous
 62
     7
370
    25
100
AcDbLine
 10
844.2545395453
 20
485.1642246352
 30
0.0
 11
844.2545395453
 21
445.1642246352
 31
0.0
  0
LINE
  5
3C2
330
1F
100
AcDbEntity
  8
0
  6
Continuous
 62
     7
370
    25
100
AcDbLine
 10
844.2545395453
 20
445.1642246352
 30
0.0
 11
844.2545395453
 21
225.1642246352
 31
0.0
  0
LINE
  5
3C3
330
1F
100
AcDbEntity
  8
0
  6
Continuous
 62
     7
370
    25
100
AcDbLine
 10
844.2545395453
 20
225.1642246352
 30
0.0
 11
844.2545395453
 21
185.1642246352
 31
0.0
  0
CIRCLE
  5
3C4
330
1F
100
AcDbEntity
  8
0
  6
Continuous
 62
     7
370
    25
100
AcDbCircle
 10
686.7545395453
 20
454.0642246352
 30
0.0
 40
1.451125818200921
  0
CIRCLE
  5
3C5
330
1F
100
AcDbEntity
  8
0
  6
Continuous
 62
     7
370
    25
100
AcDbCircle
 10
686.7545395453
 20
440.0642246352
 30
0.0
 40
1.451125818200921
  0
CIRCLE
  5
3C6
330
1F
100
AcDbEntity
  8
0
  6
Continuous
 62
     7
370
    25
100
AcDbCircle
 10
700.7545395453
 20
454.0642246352
 30
0.0
 40
1.451125818200921
  0
CIRCLE
  5
3C7
330
1F
100
AcDbEntity
  8
0
  6
Continuous
 62
     7
370
    25
100
AcDbCircle
 10
782.7545395453
 20
216.2642246352
 30
0.0
 40
1.451125818201035
  0
CIRCLE
  5
3C8
330
1F
100
AcDbEntity
  8
0
  6
Continuous
 62
     7
370
    25
100
AcDbCircle
 10
796.7545395453
 20
230.2642246352
 30
0.0
 40
1.451125818201035
  0
CIRCLE
  5
3C9
330
1F
100
AcDbEntity
  8
0
  6
Continuous
 62
     7
370
    25
100
AcDbCircle
 10
796.7545395453
 20
216.2642246352
 30
0.0
 40
1.451125818201035
  0
CIRCLE
  5
3CA
330
1F
100
AcDbEntity
  8
0
  6
Continuous
 62
     7
370
    25
100
AcDbCircle
 10
686.7545395453
 20
216.2642246352
 30
0.0
 40
1.451125818200921
  0
CIRCLE
  5
3CB
330
1F
100
AcDbEntity
  8
0
  6
Continuous
 62
     7
370
    25
100
AcDbCircle
 10
686.7545395453
 20
230.2642246352
 30
0.0
 40
1.451125818200921
  0
CIRCLE
  5
3CC
330
1F
100
AcDbEntity
  8
0
  6
Continuous
 62
     7
370
    25
100
AcDbCircle
 10
700.7545395453
 20
216.2642246352
 30
0.0
 40
1.451125818200921
  0
CIRCLE
  5
3CD
330
1F
100
AcDbEntity
  8
0
  6
Continuous
 62
     7
370
    25
100
AcDbCircle
 10
782.7545395453
 20
454.0642246352
 30
0.0
 40
1.451125818201035
  0
CIRCLE
  5
3CE
330
1F
100
AcDbEntity
  8
0
  6
Continuous
 62
     7
370
    25
100
AcDbCircle
 10
796.7545395453
 20
454.0642246352
 30
0.0
 40
1.451125818201035
  0
CIRCLE
  5
3CF
330
1F
100
AcDbEntity
  8
0
  6
Continuous
 62
     7
370
    25
100
AcDbCircle
 10
796.7545395453
 20
440.0642246352
 30
0.0
 40
1.451125818201035
  0
INSERT
  5
3DB
330
1F
100
AcDbEntity
  8
0
  6
Continuous
 62
     7
370
    18
100
AcDbBlockReference
  2
SW_CENTERMARKSYMBOL_0
 10
686.7545395453
 20
440.0642246352
 30
0.0
  0
INSERT
  5
3E7
330
1F
100
AcDbEntity
  8
0
  6
Continuous
 62
     7
370
    18
100
AcDbBlockReference
  2
SW_CENTERMARKSYMBOL_1
 10
686.7545395453
 20
454.0642246352
 30
0.0
  0
INSERT
  5
3F3
330
1F
100
AcDbEntity
  8
0
  6
Continuous
 62
     7
370
    18
100
AcDbBlockReference
  2
SW_CENTERMARKSYMBOL_2
 10
700.7545395453
 20
454.0642246352
 30
0.0
  0
INSERT
  5
3FF
330
1F
100
AcDbEntity
  8
0
  6
Continuous
 62
     7
370
    18
100
AcDbBlockReference
  2
SW_CENTERMARKSYMBOL_3
 10
696.7545395453
 20
442.6642246352
 30
0.0
  0
INSERT
  5
40B
330
1F
100
AcDbEntity
  8
0
  6
Continuous
 62
     7
370
    18
100
AcDbBlockReference
  2
SW_CENTERMARKSYMBOL_4
 10
694.2545395453
 20
420.1642246352
 30
0.0
  0
INSERT
  5
417
330
1F
100
AcDbEntity
  8
0
  6
Continuous
 62
     7
370
    18
100
AcDbBlockReference
  2
SW_CENTERMARKSYMBOL_5
 10
796.7545395453
 20
440.0642246352
 30
0.0
  0
INSERT
  5
423
330
1F
100
AcDbEntity
  8
0
  6
Continuous
 62
     7
370
    18
100
AcDbBlockReference
  2
SW_CENTERMARKSYMBOL_6
 10
796.7545395453
 20
454.0642246352
 30
0.0
  0
INSERT
  5
42F
330
1F
100
AcDbEntity
  8
0
  6
Continuous
 62
     7
370
    18
100
AcDbBlockReference
  2
SW_CENTERMARKSYMBOL_7
 10
782.7545395453
 20
454.0642246352
 30
0.0
  0
INSERT
  5
43B
330
1F
100
AcDbEntity
  8
0
  6
Continuous
 62
     7
370
    18
100
AcDbBlockReference
  2
SW_CENTERMARKSYMBOL_8
 10
786.7545395453
 20
442.6642246352
 30
0.0
  0
INSERT
  5
447
330
1F
100
AcDbEntity
  8
0
  6
Continuous
 62
     7
370
    18
100
AcDbBlockReference
  2
SW_CENTERMARKSYMBOL_9
 10
789.2545395453
 20
420.1642246352
 30
0.0
  0
INSERT
  5
453
330
1F
100
AcDbEntity
  8
0
  6
Continuous
 62
     7
370
    18
100
AcDbBlockReference
  2
SW_CENTERMARKSYMBOL_10
 10
796.7545395453
 20
230.2642246352
 30
0.0
  0
INSERT
  5
45F
330
1F
100
AcDbEntity
  8
0
  6
Continuous
 62
     7
370
    18
100
AcDbBlockReference
  2
SW_CENTERMARKSYMBOL_11
 10
796.7545395453
 20
216.2642246352
 30
0.0
  0
INSERT
  5
46B
330
1F
100
AcDbEntity
  8
0
  6
Continuous
 62
     7
370
    18
100
AcDbBlockReference
  2
SW_CENTERMARKSYMBOL_12
 10
782.7545395453
 20
216.2642246352
 30
0.0
  0
INSERT
  5
477
330
1F
100
AcDbEntity
  8
0
  6
Continuous
 62
     7
370
    18
100
AcDbBlockReference
  2
SW_CENTERMARKSYMBOL_13
 10
786.7545395453
 20
227.6642246352
 30
0.0
  0
INSERT
  5
483
330
1F
100
AcDbEntity
  8
0
  6
Continuous
 62
     7
370
    18
100
AcDbBlockReference
  2
SW_CENTERMARKSYMBOL_14
 10
789.2545395453
 20
250.1642246352
 30
0.0
  0
INSERT
  5
48F
330
1F
100
AcDbEntity
  8
0
  6
Continuous
 62
     7
370
    18
100
AcDbBlockReference
  2
SW_CENTERMARKSYMBOL_15
 10
686.7545395453
 20
230.2642246352
 30
0.0
  0
INSERT
  5
49B
330
1F
100
AcDbEntity
  8
0
  6
Continuous
 62
     7
370
    18
100
AcDbBlockReference
  2
SW_CENTERMARKSYMBOL_16
 10
686.7545395453
 20
216.2642246352
 30
0.0
  0
INSERT
  5
4A7
330
1F
100
AcDbEntity
  8
0
  6
Continuous
 62
     7
370
    18
100
AcDbBlockReference
  2
SW_CENTERMARKSYMBOL_17
 10
700.7545395453
 20
216.2642246352
 30
0.0
  0
INSERT
  5
4B3
330
1F
100
AcDbEntity
  8
0
  6
Continuous
 62
     7
370
    18
100
AcDbBlockReference
  2
SW_CENTERMARKSYMBOL_18
 10
696.7545395453
 20
227.6642246352
 30
0.0
  0
INSERT
  5
4BF
330
1F
100
AcDbEntity
  8
0
  6
Continuous
 62
     7
370
    18
100
AcDbBlockReference
  2
SW_CENTERMARKSYMBOL_19
 10
694.2545395453
 20
250.1642246352
 30
0.0
  0
INSERT
  5
4CB
330
1F
100
AcDbEntity
  8
0
  6
Continuous
 62
     7
370
    18
100
AcDbBlockReference
  2
SW_CENTERMARKSYMBOL_20
 10
693.2545395453
 20
335.1642246352
 30
0.0
  0
INSERT
  5
4D7
330
1F
100
AcDbEntity
  8
0
  6
Continuous
 62
     7
370
    18
100
AcDbBlockReference
  2
SW_CENTERMARKSYMBOL_21
 10
790.2545395453
 20
335.1642246352
 30
0.0
  0
ENDSEC
  0
SECTION
  2
OBJECTS
  0
DICTIONARY
  5
C
330
0
100
AcDbDictionary
281
     1
  3
ACAD_GROUP
350
D
  3
ACAD_LAYOUT
350
1A
  3
ACAD_MLINESTYLE
350
17
  3
ACAD_PLOTSETTINGS
350
19
  3
ACAD_PLOTSTYLENAME
350
E
  3
ACAD_SCALELIST
350
47
  3
DWGPROPS
350
4D8
  0
DICTIONARY
  5
D
102
{ACAD_REACTORS
330
C
102
}
330
C
100
AcDbDictionary
281
     1
  0
DICTIONARY
  5
1A
102
{ACAD_REACTORS
330
C
102
}
330
C
100
AcDbDictionary
281
     1
  3
Layout1
350
1E
  3
Layout2
350
26
  3
Model
350
22
  0
DICTIONARY
  5
17
102
{ACAD_REACTORS
330
C
102
}
330
C
100
AcDbDictionary
281
     1
  3
Standard
350
18
  0
DICTIONARY
  5
19
102
{ACAD_REACTORS
330
C
102
}
330
C
100
AcDbDictionary
281
     1
  0
ACDBDICTIONARYWDFLT
  5
E
102
{ACAD_REACTORS
330
C
102
}
330
C
100
AcDbDictionary
281
     1
  3
Normal
350
F
100
AcDbDictionaryWithDefault
340
F
  0
DICTIONARY
  5
47
102
{ACAD_REACTORS
330
C
102
}
330
C
100
AcDbDictionary
281
     1
  3
A0
350
48
  3
A1
350
49
  3
A2
350
4A
  3
A3
350
4B
  3
A4
350
4C
  3
A5
350
4D
  3
A6
350
4E
  3
A7
350
4F
  3
A8
350
50
  3
A9
350
51
  3
B0
350
52
  3
B1
350
53
  3
B2
350
54
  3
B3
350
55
  3
B4
350
56
  3
B5
350
57
  3
B6
350
58
  0
XRECORD
  5
4D8
102
{ACAD_REACTORS
330
C
102
}
330
C
100
AcDbXrecord
280
     1
  1
DWGPROPS COOKIE
  2

  3

  4

  6

  7

  8
grigorievsin
  9

300
=
301
=
302
=
303
=
304
=
305
=
306
=
307
=
308
=
309
=
 40
0.0
 41
2459941.383341331
 42
2459941.383342778
  1

 90
        0
  0
LAYOUT
  5
1E
102
{ACAD_REACTORS
330
1A
102
}
330
1A
100
AcDbPlotSettings
  1

  2
none_device
  4

  6

 40
0.0
 41
0.0
 42
0.0
 43
0.0
 44
0.0
 45
0.0
 46
0.0
 47
0.0
 48
0.0
 49
0.0
140
0.0
141
0.0
142
1.0
143
1.0
 70
   688
 72
     1
 73
     0
 74
     5
  7

 75
    16
147
1.0
148
0.0
149
0.0
100
AcDbLayout
  1
Layout1
 70
     1
 71
     1
 10
0.0
 20
0.0
 11
420.0
 21
297.0
 12
0.0
 22
0.0
 32
0.0
 14
1.0000000000E+20
 24
1.0000000000E+20
 34
1.0000000000E+20
 15
-1.0000000000E+20
 25
-1.0000000000E+20
 35
-1.0000000000E+20
146
0.0
 13
0.0
 23
0.0
 33
0.0
 16
1.0
 26
0.0
 36
0.0
 17
0.0
 27
1.0
 37
0.0
 76
     0
330
1B
  0
LAYOUT
  5
26
102
{ACAD_REACTORS
330
1A
102
}
330
1A
100
AcDbPlotSettings
  1

  2
none_device
  4

  6

 40
0.0
 41
0.0
 42
0.0
 43
0.0
 44
0.0
 45
0.0
 46
0.0
 47
0.0
 48
0.0
 49
0.0
140
0.0
141
0.0
142
1.0
143
1.0
 70
   688
 72
     1
 73
     0
 74
     5
  7

 75
    16
147
1.0
148
0.0
149
0.0
100
AcDbLayout
  1
Layout2
 70
     1
 71
     2
 10
0.0
 20
0.0
 11
0.0
 21
0.0
 12
0.0
 22
0.0
 32
0.0
 14
0.0
 24
0.0
 34
0.0
 15
0.0
 25
0.0
 35
0.0
146
0.0
 13
0.0
 23
0.0
 33
0.0
 16
1.0
 26
0.0
 36
0.0
 17
0.0
 27
1.0
 37
0.0
 76
     0
330
23
  0
LAYOUT
  5
22
102
{ACAD_REACTORS
330
1A
102
}
330
1A
100
AcDbPlotSettings
  1

  2
none_device
  4
Letter_(8.50_x_11.00_Inches)
  6

 40
6.35
 41
6.35
 42
6.35000508
 43
6.35000508
 44
215.9
 45
279.4
 46
0.0
 47
0.0
 48
0.0
 49
0.0
140
0.0
141
0.0
142
1.0
143
1.0
 70
  1712
 72
     1
 73
     0
 74
     0
  7

 75
     0
147
1.0
148
0.0
149
0.0
100
AcDbLayout
  1
Model
 70
     1
 71
     0
 10
0.0
 20
0.0
 11
1182.0
 21
840.0
 12
0.0
 22
0.0
 32
0.0
 14
0.0
 24
0.0
 34
0.0
 15
1182.0
 25
840.0
 35
0.0
146
0.0
 13
0.0
 23
0.0
 33
0.0
 16
1.0
 26
0.0
 36
0.0
 17
0.0
 27
1.0
 37
0.0
 76
     0
330
1F
331
29
  0
MLINESTYLE
  5
18
102
{ACAD_REACTORS
330
17
102
}
330
17
100
AcDbMlineStyle
  2
Standard
 70
     0
  3

 62
   256
 51
90.0
 52
90.0
 71
     2
 49
0.5
 62
   256
  6
BYLAYER
 49
-0.5
 62
   256
  6
BYLAYER
  0
ACDBPLACEHOLDER
  5
F
102
{ACAD_REACTORS
330
E
102
}
330
E
  0
SCALE
  5
48
102
{ACAD_REACTORS
330
47
102
}
330
47
100
AcDbScale
 70
     0
300
1:1
140
1.0
141
1.0
290
     1
  0
SCALE
  5
49
102
{ACAD_REACTORS
330
47
102
}
330
47
100
AcDbScale
 70
     0
300
1:2
140
1.0
141
2.0
290
     0
  0
SCALE
  5
4A
102
{ACAD_REACTORS
330
47
102
}
330
47
100
AcDbScale
 70
     0
300
1:4
140
1.0
141
4.0
290
     0
  0
SCALE
  5
4B
102
{ACAD_REACTORS
330
47
102
}
330
47
100
AcDbScale
 70
     0
300
1:5
140
1.0
141
5.0
290
     0
  0
SCALE
  5
4C
102
{ACAD_REACTORS
330
47
102
}
330
47
100
AcDbScale
 70
     0
300
1:8
140
1.0
141
8.0
290
     0
  0
SCALE
  5
4D
102
{ACAD_REACTORS
330
47
102
}
330
47
100
AcDbScale
 70
     0
300
1:10
140
1.0
141
10.0
290
     0
  0
SCALE
  5
4E
102
{ACAD_REACTORS
330
47
102
}
330
47
100
AcDbScale
 70
     0
300
1:16
140
1.0
141
16.0
290
     0
  0
SCALE
  5
4F
102
{ACAD_REACTORS
330
47
102
}
330
47
100
AcDbScale
 70
     0
300
1:20
140
1.0
141
20.0
290
     0
  0
SCALE
  5
50
102
{ACAD_REACTORS
330
47
102
}
330
47
100
AcDbScale
 70
     0
300
1:30
140
1.0
141
30.0
290
     0
  0
SCALE
  5
51
102
{ACAD_REACTORS
330
47
102
}
330
47
100
AcDbScale
 70
     0
300
1:40
140
1.0
141
40.0
290
     0
  0
SCALE
  5
52
102
{ACAD_REACTORS
330
47
102
}
330
47
100
AcDbScale
 70
     0
300
1:50
140
1.0
141
50.0
290
     0
  0
SCALE
  5
53
102
{ACAD_REACTORS
330
47
102
}
330
47
100
AcDbScale
 70
     0
300
1:100
140
1.0
141
100.0
290
     0
  0
SCALE
  5
54
102
{ACAD_REACTORS
330
47
102
}
330
47
100
AcDbScale
 70
     0
300
2:1
140
2.0
141
1.0
290
     0
  0
SCALE
  5
55
102
{ACAD_REACTORS
330
47
102
}
330
47
100
AcDbScale
 70
     0
300
4:1
140
4.0
141
1.0
290
     0
  0
SCALE
  5
56
102
{ACAD_REACTORS
330
47
102
}
330
47
100
AcDbScale
 70
     0
300
8:1
140
8.0
141
1.0
290
     0
  0
SCALE
  5
57
102
{ACAD_REACTORS
330
47
102
}
330
47
100
AcDbScale
 70
     0
300
10:1
140
10.0
141
1.0
290
     0
  0
SCALE
  5
58
102
{ACAD_REACTORS
330
47
102
}
330
47
100
AcDbScale
 70
     0
300
100:1
140
100.0
141
1.0
290
     0
  0
ENDSEC
  0
EOF
