  0
SECTION
  2
HEADER
  9
$ACADVER
  1
AC1015
  9
$ACADMAINTVER
 70
     6
  9
$DWGCODEPAGE
  3
ANSI_1251
  9
$INSBASE
 10
0.0
 20
0.0
 30
0.0
  9
$EXTMIN
 10
0.0
 20
0.0
 30
0.0
  9
$EXTMAX
 10
431.8
 20
279.4
 30
0.0
  9
$LIMMIN
 10
0.0
 20
0.0
  9
$LIMMAX
 10
431.8
 20
279.4
  9
$ORTHOMODE
 70
     0
  9
$REGENMODE
 70
     1
  9
$FILLMODE
 70
     1
  9
$QTEXTMODE
 70
     0
  9
$MIRRTEXT
 70
     1
  9
$LTSCALE
 40
1.0
  9
$ATTMODE
 70
     1
  9
$TEXTSIZE
 40
3.5
  9
$TRACEWID
 40
1.0
  9
$TEXTSTYLE
  7
STANDARD
  9
$CLAYER
  8
0
  9
$CELTYPE
  6
ByLayer
  9
$CECOLOR
 62
   256
  9
$CELTSCALE
 40
1.0
  9
$DISPSILH
 70
     0
  9
$DIMSCALE
 40
1.0
  9
$DIMASZ
 40
5.0
  9
$DIMEXO
 40
0.0
  9
$DIMDLI
 40
3.75
  9
$DIMRND
 40
0.0
  9
$DIMDLE
 40
0.0
  9
$DIMEXE
 40
1.0
  9
$DIMTP
 40
0.0
  9
$DIMTM
 40
0.0
  9
$DIMTXT
 40
3.5
  9
$DIMCEN
 40
2.5
  9
$DIMTSZ
 40
0.0
  9
$DIMTOL
 70
     0
  9
$DIMLIM
 70
     0
  9
$DIMTIH
 70
     1
  9
$DIMTOH
 70
     1
  9
$DIMSE1
 70
     0
  9
$DIMSE2
 70
     0
  9
$DIMTAD
 70
     1
  9
$DIMZIN
 70
     0
  9
$DIMBLK
  1

  9
$DIMASO
 70
     1
  9
$DIMSHO
 70
     1
  9
$DIMPOST
  1

  9
$DIMAPOST
  1

  9
$DIMALT
 70
     0
  9
$DIMALTD
 70
     3
  9
$DIMALTF
 40
0.0393700787
  9
$DIMLFAC
 40
1.0
  9
$DIMTOFL
 70
     1
  9
$DIMTVP
 40
0.0
  9
$DIMTIX
 70
     0
  9
$DIMSOXD
 70
     0
  9
$DIMSAH
 70
     0
  9
$DIMBLK1
  1

  9
$DIMBLK2
  1

  9
$DIMSTYLE
  2
ISO-25
  9
$DIMCLRD
 70
     0
  9
$DIMCLRE
 70
     0
  9
$DIMCLRT
 70
     0
  9
$DIMTFAC
 40
1.0
  9
$DIMGAP
 40
1.5
  9
$DIMJUST
 70
     0
  9
$DIMSD1
 70
     0
  9
$DIMSD2
 70
     0
  9
$DIMTOLJ
 70
     0
  9
$DIMTZIN
 70
     0
  9
$DIMALTZ
 70
     0
  9
$DIMALTTZ
 70
     0
  9
$DIMUPT
 70
     0
  9
$DIMDEC
 70
     1
  9
$DIMTDEC
 70
     3
  9
$DIMALTU
 70
     2
  9
$DIMALTTD
 70
     3
  9
$DIMTXSTY
  7
STANDARD
  9
$DIMAUNIT
 70
     0
  9
$DIMADEC
 70
     2
  9
$DIMALTRND
 40
0.0
  9
$DIMAZIN
 70
     0
  9
$DIMDSEP
 70
    44
  9
$DIMATFIT
 70
     3
  9
$DIMFRAC
 70
     0
  9
$DIMLDRBLK
  1

  9
$DIMLUNIT
 70
     2
  9
$DIMLWD
 70
    -2
  9
$DIMLWE
 70
    -2
  9
$DIMTMOVE
 70
     0
  9
$LUNITS
 70
     2
  9
$LUPREC
 70
     1
  9
$SKETCHINC
 40
1.0
  9
$FILLETRAD
 40
0.0
  9
$AUNITS
 70
     0
  9
$AUPREC
 70
     2
  9
$MENU
  1
.
  9
$ELEVATION
 40
0.0
  9
$PELEVATION
 40
0.0
  9
$THICKNESS
 40
0.0
  9
$LIMCHECK
 70
     0
  9
$CHAMFERA
 40
0.0
  9
$CHAMFERB
 40
0.0
  9
$CHAMFERC
 40
0.0
  9
$CHAMFERD
 40
0.0
  9
$SKPOLY
 70
     0
  9
$TDCREATE
 40
2460879.564924537
  9
$TDUCREATE
 40
2460879.439924537
  9
$TDUPDATE
 40
2460879.564925232
  9
$TDUUPDATE
 40
2460879.439925232
  9
$TDINDWG
 40
0.0000000116
  9
$TDUSRTIMER
 40
0.0000000116
  9
$USRTIMER
 70
     1
  9
$ANGBASE
 50
0.0
  9
$ANGDIR
 70
     0
  9
$PDMODE
 70
     0
  9
$PDSIZE
 40
-1.0
  9
$PLINEWID
 40
0.0
  9
$SPLFRAME
 70
     0
  9
$SPLINETYPE
 70
     6
  9
$SPLINESEGS
 70
     8
  9
$HANDSEED
  5
337
  9
$SURFTAB1
 70
     6
  9
$SURFTAB2
 70
     6
  9
$SURFTYPE
 70
     6
  9
$SURFU
 70
     6
  9
$SURFV
 70
     6
  9
$UCSBASE
  2

  9
$UCSNAME
  2

  9
$UCSORG
 10
0.0
 20
0.0
 30
0.0
  9
$UCSXDIR
 10
1.0
 20
0.0
 30
0.0
  9
$UCSYDIR
 10
0.0
 20
1.0
 30
0.0
  9
$UCSORTHOREF
  2

  9
$UCSORTHOVIEW
 70
     0
  9
$UCSORGTOP
 10
0.0
 20
0.0
 30
0.0
  9
$UCSORGBOTTOM
 10
0.0
 20
0.0
 30
0.0
  9
$UCSORGLEFT
 10
0.0
 20
0.0
 30
0.0
  9
$UCSORGRIGHT
 10
0.0
 20
0.0
 30
0.0
  9
$UCSORGFRONT
 10
0.0
 20
0.0
 30
0.0
  9
$UCSORGBACK
 10
0.0
 20
0.0
 30
0.0
  9
$PUCSBASE
  2

  9
$PUCSNAME
  2

  9
$PUCSORG
 10
0.0
 20
0.0
 30
0.0
  9
$PUCSXDIR
 10
1.0
 20
0.0
 30
0.0
  9
$PUCSYDIR
 10
0.0
 20
1.0
 30
0.0
  9
$PUCSORTHOREF
  2

  9
$PUCSORTHOVIEW
 70
     0
  9
$PUCSORGTOP
 10
0.0
 20
0.0
 30
0.0
  9
$PUCSORGBOTTOM
 10
0.0
 20
0.0
 30
0.0
  9
$PUCSORGLEFT
 10
0.0
 20
0.0
 30
0.0
  9
$PUCSORGRIGHT
 10
0.0
 20
0.0
 30
0.0
  9
$PUCSORGFRONT
 10
0.0
 20
0.0
 30
0.0
  9
$PUCSORGBACK
 10
0.0
 20
0.0
 30
0.0
  9
$USERI1
 70
     0
  9
$USERI2
 70
     0
  9
$USERI3
 70
     0
  9
$USERI4
 70
     0
  9
$USERI5
 70
     0
  9
$USERR1
 40
0.0
  9
$USERR2
 40
0.0
  9
$USERR3
 40
0.0
  9
$USERR4
 40
0.0
  9
$USERR5
 40
0.0
  9
$WORLDVIEW
 70
     1
  9
$SHADEDGE
 70
     3
  9
$SHADEDIF
 70
    70
  9
$TILEMODE
 70
     1
  9
$MAXACTVP
 70
    64
  9
$PINSBASE
 10
0.0
 20
0.0
 30
0.0
  9
$PLIMCHECK
 70
     0
  9
$PEXTMIN
 10
1.0000000000E+20
 20
1.0000000000E+20
 30
1.0000000000E+20
  9
$PEXTMAX
 10
-1.0000000000E+20
 20
-1.0000000000E+20
 30
-1.0000000000E+20
  9
$PLIMMIN
 10
0.0
 20
0.0
  9
$PLIMMAX
 10
420.0
 20
297.0
  9
$UNITMODE
 70
     0
  9
$VISRETAIN
 70
     1
  9
$PLINEGEN
 70
     0
  9
$PSLTSCALE
 70
     1
  9
$TREEDEPTH
 70
  3020
  9
$CMLSTYLE
  2
Standard
  9
$CMLJUST
 70
     0
  9
$CMLSCALE
 40
20.0
  9
$PROXYGRAPHICS
 70
     1
  9
$MEASUREMENT
 70
     1
  9
$CELWEIGHT
370
    -1
  9
$ENDCAPS
280
     0
  9
$JOINSTYLE
280
     0
  9
$LWDISPLAY
290
     1
  9
$INSUNITS
 70
     4
  9
$HYPERLINKBASE
  1

  9
$STYLESHEET
  1

  9
$XEDIT
290
     1
  9
$CEPSNTYPE
380
     0
  9
$PSTYLEMODE
290
     1
  9
$FINGERPRINTGUID
  2
{562f5a38-4963-43e4-9b4e-206d4db34cdf}
  9
$VERSIONGUID
  2
{FAEB1C32-E019-11D5-929B-00C0DF256EC4}
  9
$EXTNAMES
290
     1
  9
$PSVPSCALE
 40
0.0
  9
$OLESTARTUP
290
     0
  0
ENDSEC
  0
SECTION
  2
CLASSES
  0
CLASS
  1
ACDBDICTIONARYWDFLT
  2
AcDbDictionaryWithDefault
  3
ObjectDBX Classes
 90
        0
280
     0
281
     0
  0
CLASS
  1
VISUALSTYLE
  2
AcDbVisualStyle
  3
ObjectDBX Classes
 90
     4095
280
     0
281
     0
  0
CLASS
  1
MATERIAL
  2
AcDbMaterial
  3
ObjectDBX Classes
 90
     1153
280
     0
281
     0
  0
CLASS
  1
SCALE
  2
AcDbScale
  3
ObjectDBX Classes
 90
     1153
280
     0
281
     0
  0
CLASS
  1
TABLESTYLE
  2
AcDbTableStyle
  3
ObjectDBX Classes
 90
     4095
280
     0
281
     0
  0
CLASS
  1
MLEADERSTYLE
  2
AcDbMLeaderStyle
  3
ACDB_MLEADERSTYLE_CLASS
 90
     4095
280
     0
281
     0
  0
CLASS
  1
SUN
  2
AcDbSun
  3
SCENEOE
 90
     1153
280
     0
281
     0
  0
CLASS
  1
ACDBPLACEHOLDER
  2
AcDbPlaceHolder
  3
ObjectDBX Classes
 90
        0
280
     0
281
     0
  0
CLASS
  1
LAYOUT
  2
AcDbLayout
  3
ObjectDBX Classes
 90
        0
280
     0
281
     0
  0
ENDSEC
  0
SECTION
  2
TABLES
  0
TABLE
  2
VPORT
  5
8
330
0
100
AcDbSymbolTable
 70
     1
  0
VPORT
  5
29
330
8
100
AcDbSymbolTableRecord
100
AcDbViewportTableRecord
  2
*Active
 70
     0
 10
0.0
 20
0.0
 11
1.0
 21
1.0
 12
215.9
 22
139.7
 13
0.0
 23
0.0
 14
10.0
 24
10.0
 15
10.0
 25
10.0
 16
0.0
 26
0.0
 36
1.0
 17
0.0
 27
0.0
 37
0.0
 40
279.4
 41
1.5454545455
 42
50.0
 43
0.0
 44
0.0
 50
0.0
 51
0.0
 71
     0
 72
  2000
 73
     1
 74
     3
 75
     0
 76
     0
 77
     0
 78
     0
281
     0
 65
     1
110
0.0
120
0.0
130
0.0
111
1.0
121
0.0
131
0.0
112
0.0
122
1.0
132
0.0
 79
     0
146
0.0
  0
ENDTAB
  0
TABLE
  2
LTYPE
  5
5
330
0
100
AcDbSymbolTable
 70
     8
  0
LTYPE
  5
14
330
5
100
AcDbSymbolTableRecord
100
AcDbLinetypeTableRecord
  2
ByBlock
 70
     0
  3

 72
    65
 73
     0
 40
0.0
  0
LTYPE
  5
15
330
5
100
AcDbSymbolTableRecord
100
AcDbLinetypeTableRecord
  2
ByLayer
 70
     0
  3

 72
    65
 73
     0
 40
0.0
  0
LTYPE
  5
16
330
5
100
AcDbSymbolTableRecord
100
AcDbLinetypeTableRecord
  2
Continuous
 70
     0
  3
Solid line
 72
    65
 73
     0
 40
0.0
  0
LTYPE
  5
5E
330
5
100
AcDbSymbolTableRecord
100
AcDbLinetypeTableRecord
  2
SLD-Сплошная
 70
     0
  3
SolidWorks Line Style
 72
    65
 73
     0
 40
0.0
  0
LTYPE
  5
5F
330
5
100
AcDbSymbolTableRecord
100
AcDbLinetypeTableRecord
  2
SLD-Штриховая
 70
     0
  3
SolidWorks Line Style
 72
    65
 73
     2
 40
1.905
 49
1.27
 74
     0
 49
-0.635
 74
     0
  0
LTYPE
  5
60
330
5
100
AcDbSymbolTableRecord
100
AcDbLinetypeTableRecord
  2
SLD-Штрихпункт.-с-двумя-точками
 70
     0
  3
SolidWorks Line Style
 72
    65
 73
     6
 40
12.7
 49
6.35
 74
     0
 49
-1.27
 74
     0
 49
1.27
 74
     0
 49
-1.27
 74
     0
 49
1.27
 74
     0
 49
-1.27
 74
     0
  0
LTYPE
  5
61
330
5
100
AcDbSymbolTableRecord
100
AcDbLinetypeTableRecord
  2
SLD-Штрихпункт.-утолщ.
 70
     0
  3
SolidWorks Line Style
 72
    65
 73
     4
 40
10.16
 49
6.35
 74
     0
 49
-1.27
 74
     0
 49
1.27
 74
     0
 49
-1.27
 74
     0
  0
LTYPE
  5
62
330
5
100
AcDbSymbolTableRecord
100
AcDbLinetypeTableRecord
  2
SLD-Осевая
 70
     0
  3
SolidWorks Line Style
 72
    65
 73
     4
 40
19.05
 49
15.24
 74
     0
 49
-1.27
 74
     0
 49
1.27
 74
     0
 49
-1.27
 74
     0
  0
LTYPE
  5
63
330
5
100
AcDbSymbolTableRecord
100
AcDbLinetypeTableRecord
  2
SLD-Сшитая
 70
     0
  3
SolidWorks Line Style
 72
    65
 73
     2
 40
0.635
 49
0.0
 74
     0
 49
-0.635
 74
     0
  0
LTYPE
  5
64
330
5
100
AcDbSymbolTableRecord
100
AcDbLinetypeTableRecord
  2
SLD-Тонкая-Толстая
 70
     0
  3
SolidWorks Line Style
 72
    65
 73
     2
 40
5.080508
 49
0.000508
 74
     0
 49
-5.08
 74
     0
  0
ENDTAB
  0
TABLE
  2
LAYER
  5
2
330
0
100
AcDbSymbolTable
 70
     3
  0
LAYER
  5
10
330
2
100
AcDbSymbolTableRecord
100
AcDbLayerTableRecord
  2
0
 70
     0
 62
     7
  6
Continuous
370
    -3
390
F
  0
LAYER
  5
65
330
2
100
AcDbSymbolTableRecord
100
AcDbLayerTableRecord
  2
ВОДЯНОЙ_ЗНАК
 70
     0
 62
    11
  6
SLD-Сплошная
370
    -3
390
F
  0
LAYER
  5
66
330
2
100
AcDbSymbolTableRecord
100
AcDbLayerTableRecord
  2
ОСНОВНОЙ
 70
     0
 62
     7
  6
SLD-Сплошная
370
    -3
390
F
  0
ENDTAB
  0
TABLE
  2
STYLE
  5
3
330
0
100
AcDbSymbolTable
 70
     1
  0
STYLE
  5
11
330
3
100
AcDbSymbolTableRecord
100
AcDbTextStyleTableRecord
  2
STANDARD
 70
     0
 40
0.0
 41
1.0
 50
0.0
 71
     0
 42
3.5
  3
GOST-TYPE-A.TTF
  4

1001
ACAD
1000
GOST TYPE A
1071
 16777250
  0
ENDTAB
  0
TABLE
  2
VIEW
  5
6
330
0
100
AcDbSymbolTable
 70
     0
  0
ENDTAB
  0
TABLE
  2
UCS
  5
7
330
0
100
AcDbSymbolTable
 70
     0
  0
ENDTAB
  0
TABLE
  2
APPID
  5
9
330
0
100
AcDbSymbolTable
 70
     1
  0
APPID
  5
12
330
9
100
AcDbSymbolTableRecord
100
AcDbRegAppTableRecord
  2
ACAD
 70
     0
  0
ENDTAB
  0
TABLE
  2
DIMSTYLE
  5
A
330
0
100
AcDbSymbolTable
 70
     1
100
AcDbDimStyleTable
  0
DIMSTYLE
105
27
330
A
100
AcDbSymbolTableRecord
100
AcDbDimStyleTableRecord
  2
ISO-25
 70
     0
 41
2.5
 42
0.625
 43
3.75
 44
1.25
 73
     0
 74
     0
 77
     1
 78
     8
140
2.5
141
2.5
143
0.0393700787
147
0.625
171
     3
172
     1
178
     0
271
     2
272
     2
274
     3
278
    44
283
     0
284
     8
340
11
  0
ENDTAB
  0
TABLE
  2
BLOCK_RECORD
  5
1
330
0
100
AcDbSymbolTable
 70
     1
  0
BLOCK_RECORD
  5
1F
330
1
100
AcDbSymbolTableRecord
100
AcDbBlockTableRecord
  2
*Model_Space
340
22
  0
BLOCK_RECORD
  5
1B
330
1
100
AcDbSymbolTableRecord
100
AcDbBlockTableRecord
  2
*Paper_Space
340
1E
  0
BLOCK_RECORD
  5
23
330
1
100
AcDbSymbolTableRecord
100
AcDbBlockTableRecord
  2
*Paper_Space0
340
26
  0
ENDTAB
  0
ENDSEC
  0
SECTION
  2
BLOCKS
  0
BLOCK
  5
20
330
1F
100
AcDbEntity
  8
0
100
AcDbBlockBegin
  2
*Model_Space
 70
     0
 10
0.0
 20
0.0
 30
0.0
  3
*Model_Space
  1

  0
ENDBLK
  5
21
330
1F
100
AcDbEntity
  8
0
100
AcDbBlockEnd
  0
BLOCK
  5
1C
330
1B
100
AcDbEntity
 67
     1
  8
0
100
AcDbBlockBegin
  2
*Paper_Space
 70
     0
 10
0.0
 20
0.0
 30
0.0
  3
*Paper_Space
  1

  0
ENDBLK
  5
1D
330
1B
100
AcDbEntity
 67
     1
  8
0
100
AcDbBlockEnd
  0
BLOCK
  5
24
330
23
100
AcDbEntity
  8
0
100
AcDbBlockBegin
  2
*Paper_Space0
 70
     0
 10
0.0
 20
0.0
 30
0.0
  3
*Paper_Space0
  1

  0
ENDBLK
  5
25
330
23
100
AcDbEntity
  8
0
100
AcDbBlockEnd
  0
ENDSEC
  0
SECTION
  2
ENTITIES
  0
CIRCLE
  5
67
330
1F
100
AcDbEntity
  8
0
  6
SLD-Сплошная
 62
     7
370
    25
100
AcDbCircle
 10
194.3065008104
 20
143.5856497533
 30
0.0
 40
3.500000000000004
  0
CIRCLE
  5
68
330
1F
100
AcDbEntity
  8
0
  6
SLD-Сплошная
 62
     7
370
    25
100
AcDbCircle
 10
194.3065008104
 20
154.3356497533
 30
0.0
 40
21.87076892977367
  0
CIRCLE
  5
69
330
1F
100
AcDbEntity
  8
0
  6
SLD-Сплошная
 62
     7
370
    25
100
AcDbCircle
 10
194.3065008104
 20
154.3356497533
 30
0.0
 40
21.85925499231951
  0
LINE
  5
6A
330
1F
100
AcDbEntity
  8
0
  6
SLD-Сплошная
 62
     7
370
    25
100
AcDbLine
 10
197.3124255451
 20
128.466574488
 30
0.0
 11
197.3124255451
 21
129.894801947
 31
0.0
  0
ARC
  5
6B
330
1F
100
AcDbEntity
  8
0
  6
SLD-Сплошная
 62
     7
370
    25
100
AcDbCircle
 10
194.3065008104
 20
128.466574488
 30
0.0
 40
3.005924734709453
100
AcDbArc
 50
180.0
 51
0.0
  0
ARC
  5
6C
330
1F
100
AcDbEntity
  8
0
  6
SLD-Сплошная
 62
     7
370
    25
100
AcDbCircle
 10
194.3065008104
 20
154.3356497533
 30
0.0
 40
24.62500000000001
100
AcDbArc
 50
277.0114683539
 51
262.9885316461
  0
LINE
  5
6D
330
1F
100
AcDbEntity
  8
0
  6
SLD-Сплошная
 62
     7
370
    25
100
AcDbLine
 10
191.3005760757
 20
129.894801947
 30
0.0
 11
191.3005760757
 21
128.466574488
 31
0.0
  0
CIRCLE
  5
6E
330
1F
100
AcDbEntity
  8
0
  6
SLD-Сплошная
 62
     7
370
    25
100
AcDbCircle
 10
205.0565008104
 20
154.3356497533
 30
0.0
 40
2.500000000000003
  0
CIRCLE
  5
6F
330
1F
100
AcDbEntity
  8
0
  6
SLD-Сплошная
 62
     7
370
    25
100
AcDbCircle
 10
183.5565008104
 20
154.3356497533
 30
0.0
 40
2.499999999999964
  0
CIRCLE
  5
70
330
1F
100
AcDbEntity
  8
0
  6
SLD-Сплошная
 62
     7
370
    25
100
AcDbCircle
 10
194.3065008104
 20
165.0856497533
 30
0.0
 40
2.499999999999999
  0
CIRCLE
  5
71
330
1F
100
AcDbEntity
  8
0
  6
SLD-Сплошная
 62
     7
370
    25
100
AcDbCircle
 10
194.3065008104
 20
165.0856497533
 30
0.0
 40
4.75
  0
CIRCLE
  5
72
330
1F
100
AcDbEntity
  8
0
  6
SLD-Сплошная
 62
     7
370
    25
100
AcDbCircle
 10
183.5565008104
 20
154.3356497533
 30
0.0
 40
4.750000000000028
  0
CIRCLE
  5
73
330
1F
100
AcDbEntity
  8
0
  6
SLD-Сплошная
 62
     7
370
    25
100
AcDbCircle
 10
183.5565008104
 20
154.3356497533
 30
0.0
 40
5.250000000000028
  0
CIRCLE
  5
74
330
1F
100
AcDbEntity
  8
0
  6
SLD-Сплошная
 62
     7
370
    25
100
AcDbCircle
 10
194.3065008104
 20
165.0856497533
 30
0.0
 40
5.25
  0
CIRCLE
  5
75
330
1F
100
AcDbEntity
  8
0
  6
SLD-Сплошная
 62
     7
370
    25
100
AcDbCircle
 10
205.0565008104
 20
154.3356497533
 30
0.0
 40
4.75
  0
CIRCLE
  5
76
330
1F
100
AcDbEntity
  8
0
  6
SLD-Сплошная
 62
     7
370
    25
100
AcDbCircle
 10
205.0565008104
 20
154.3356497533
 30
0.0
 40
5.25
  0
ARC
  5
77
330
1F
100
AcDbEntity
  8
0
  6
SLD-Сплошная
 62
     7
370
    25
100
AcDbCircle
 10
194.3065008104
 20
154.3356497533
 30
0.0
 40
29.00000000000001
100
AcDbArc
 50
284.2935541716
 51
255.7064458284
  0
ARC
  5
78
330
1F
100
AcDbEntity
  8
0
  6
SLD-Сплошная
 62
     7
370
    25
100
AcDbCircle
 10
194.3065008104
 20
128.466574488
 30
0.0
 40
7.500000000000017
100
AcDbArc
 50
197.3230059312
 51
342.6769940688
  0
SPLINE
  5
79
330
1F
100
AcDbEntity
  8
0
  6
SLD-Сплошная
 62
     7
370
    25
100
AcDbSpline
210
0.0
220
0.0
230
1.0
 70
    24
 71
     3
 72
    11
 73
     7
 74
     0
 42
0.00000001
 43
0.00000001
 40
0.0
 40
0.0
 40
0.0
 40
0.0
 40
0.3672579509082867
 40
0.7345139637006568
 40
0.9937035816354066
 40
1.0
 40
1.0
 40
1.0
 40
1.0
 10
191.5565008103728
 20
189.2271604896143
 30
0.0
 10
191.5565008103728
 20
188.3855829124088
 30
0.0
 10
191.5565008103728
 20
186.702432199222
 30
0.0
 10
191.5565008103728
 20
184.7275283737145
 30
0.0
 10
191.5565008103728
 20
183.5523513167189
 30
0.0
 10
191.5565008103728
 20
183.1375351642243
 30
0.0
 10
191.5565008103728
 20
183.1276971475929
 30
0.0
  0
ARC
  5
7A
330
1F
100
AcDbEntity
  8
0
  6
SLD-Сплошная
 62
     7
370
    25
100
AcDbCircle
 10
194.3065008104
 20
154.4277258501
 30
0.0
 40
34.90792390313513
100
AcDbArc
 50
85.4816325916
 51
94.5183674084
  0
SPLINE
  5
7B
330
1F
100
AcDbEntity
  8
0
  6
SLD-Сплошная
 62
     7
370
    25
100
AcDbSpline
210
0.0
220
0.0
230
1.0
 70
    24
 71
     3
 72
    10
 73
     6
 74
     0
 42
0.00000001
 43
0.00000001
 40
0.0
 40
0.0
 40
0.0
 40
0.0
 40
0.167805674693785
 40
0.5717415873324317
 40
1.0
 40
1.0
 40
1.0
 40
1.0
 10
197.0565008103728
 20
183.1102744264342
 30
0.0
 10
197.0565008103728
 20
183.3804863833001
 30
0.0
 10
197.0565008103728
 20
184.3011430501062
 30
0.0
 10
197.0565008103728
 20
186.3312447301588
 30
0.0
 10
197.0565008103728
 20
188.2432280905646
 30
0.0
 10
197.0565008103728
 20
189.2271604896144
 30
0.0
  0
LINE
  5
7C
330
1F
100
AcDbEntity
  8
0
  6
SLD-Сплошная
 62
     7
370
    25
100
AcDbLine
 10
40.3400510462
 20
183.3356497533
 30
0.0
 11
37.0400510462
 21
183.3356497533
 31
0.0
  0
SPLINE
  5
7D
330
1F
100
AcDbEntity
  8
0
  6
SLD-Сплошная
 62
     7
370
    25
100
AcDbSpline
210
0.0
220
0.0
230
1.0
 70
     8
 71
     3
 72
    11
 73
     7
 74
     0
 42
0.00000001
 43
0.00000001
 40
0.0
 40
0.0
 40
0.0
 40
0.0
 40
0.2551011136297898
 40
0.5040951227260366
 40
0.7281616250292084
 40
1.0
 40
1.0
 40
1.0
 40
1.0
 10
105.2156299716585
 20
143.6909101286707
 30
0.0
 10
105.1933000364877
 20
144.2315381791998
 30
0.0
 10
105.1491747433824
 20
145.2998516789052
 30
0.0
 10
104.877584403256
 20
146.9302779319086
 30
0.0
 10
104.4596767379446
 20
148.5743938391413
 30
0.0
 10
104.0056938246376
 20
149.6328962253204
 30
0.0
 10
103.7568356603536
 20
150.2131316328513
 30
0.0
  0
ARC
  5
7E
330
1F
100
AcDbEntity
  8
0
  6
SLD-Сплошная
 62
     7
370
    25
100
AcDbCircle
 10
68.9942277031
 20
309.6485542446
 30
0.0
 40
180.0
100
AcDbArc
 50
274.3435112551
 51
280.1756820729
  0
ARC
  5
7F
330
1F
100
AcDbEntity
  8
0
  6
SLD-Сплошная
 62
     7
370
    25
100
AcDbCircle
 10
68.9942277031
 20
309.6485542446
 30
0.0
 40
180.0
100
AcDbArc
 50
268.8367595339
 51
272.515074312
  0
ARC
  5
80
330
1F
100
AcDbEntity
  8
0
  6
SLD-Сплошная
 62
     7
370
    25
100
AcDbCircle
 10
68.9942277031
 20
-0.9772547381
 30
0.0
 40
179.9999999999999
100
AcDbArc
 50
78.3831680461
 51
85.2051710619
  0
LINE
  5
81
330
1F
100
AcDbEntity
  8
0
  6
SLD-Сплошная
 62
     7
370
    25
100
AcDbLine
 10
58.2123323695
 20
129.6856497533
 30
0.0
 11
65.3400510462
 21
129.6856497533
 31
0.0
  0
LINE
  5
82
330
1F
100
AcDbEntity
  8
0
  6
SLD-Сплошная
 62
     7
370
    25
100
AcDbLine
 10
40.3400510462
 20
129.6856497533
 30
0.0
 11
52.467769723
 21
129.6856497533
 31
0.0
  0
LINE
  5
83
330
1F
100
AcDbEntity
  8
0
  6
SLD-Сплошная
 62
     7
370
    25
100
AcDbLine
 10
65.3400510462
 20
178.9856497533
 30
0.0
 11
40.3400510462
 21
178.9856497533
 31
0.0
  0
LINE
  5
84
330
1F
100
AcDbEntity
  8
0
  6
SLD-Сплошная
 62
     7
370
    25
100
AcDbLine
 10
37.0400510462
 20
178.9606497533
 30
0.0
 11
32.2150510462
 21
178.9606497533
 31
0.0
  0
LINE
  5
85
330
1F
100
AcDbEntity
  8
0
  6
SLD-Сплошная
 62
     7
370
    25
100
AcDbLine
 10
32.2150510462
 20
129.7106497533
 30
0.0
 11
37.0400510462
 21
129.7106497533
 31
0.0
  0
LINE
  5
86
330
1F
100
AcDbEntity
  8
0
  6
SLD-Сплошная
 62
     7
370
    25
100
AcDbLine
 10
13.3650510462
 20
178.9606497533
 30
0.0
 11
0.2400510462
 21
178.9606497533
 31
0.0
  0
LINE
  5
87
330
1F
100
AcDbEntity
  8
0
  6
SLD-Сплошная
 62
     7
370
    25
100
AcDbLine
 10
12.5400510462
 20
129.7106497533
 30
0.0
 11
13.3650510462
 21
129.7106497533
 31
0.0
  0
LINE
  5
88
330
1F
100
AcDbEntity
  8
0
  6
SLD-Сплошная
 62
     7
370
    25
100
AcDbLine
 10
32.2150510462
 20
178.1356497533
 30
0.0
 11
13.3650510462
 21
178.1356497533
 31
0.0
  0
LINE
  5
89
330
1F
100
AcDbEntity
  8
0
  6
SLD-Сплошная
 62
     7
370
    25
100
AcDbLine
 10
13.3650510462
 20
130.5356497533
 30
0.0
 11
32.2150510462
 21
130.5356497533
 31
0.0
  0
ARC
  5
8A
330
1F
100
AcDbEntity
  8
0
  6
SLD-Сплошная
 62
     7
370
    25
100
AcDbCircle
 10
102.9347964936
 20
133.3356497533
 30
0.0
 40
2.30525455264447
100
AcDbArc
 50
201.7925140268
 51
360.0
  0
LINE
  5
8B
330
1F
100
AcDbEntity
  8
0
  6
SLD-Сплошная
 62
     7
370
    25
100
AcDbLine
 10
113.9034732325
 20
173.9898726016
 30
0.0
 11
111.9034732325
 21
173.9898726016
 31
0.0
  0
LINE
  5
8C
330
1F
100
AcDbEntity
  8
0
  6
SLD-Сплошная
 62
     7
370
    25
100
AcDbLine
 10
111.9034732325
 20
134.6814269049
 30
0.0
 11
113.9034732325
 21
134.6814269049
 31
0.0
  0
ARC
  5
8D
330
1F
100
AcDbEntity
  8
0
  6
SLD-Сплошная
 62
     7
370
    25
100
AcDbCircle
 10
134.9130921758
 20
154.3356497533
 30
0.0
 40
15.00000000000001
100
AcDbArc
 50
309.5869195216
 51
330.0
  0
ARC
  5
8E
330
1F
100
AcDbEntity
  8
0
  6
SLD-Сплошная
 62
     7
370
    25
100
AcDbCircle
 10
134.9130921758
 20
154.3356497533
 30
0.0
 40
15.00000000000002
100
AcDbArc
 50
30.0
 51
50.4130804784
  0
LINE
  5
8F
330
1F
100
AcDbEntity
  8
0
  6
SLD-Сплошная
 62
     7
370
    25
100
AcDbLine
 10
105.2400510462
 20
143.3356497533
 30
0.0
 11
111.9034732325
 21
143.3356497533
 31
0.0
  0
LINE
  5
90
330
1F
100
AcDbEntity
  8
0
  6
SLD-Сплошная
 62
     7
370
    25
100
AcDbLine
 10
111.9034732325
 20
165.3356497533
 30
0.0
 11
105.2400510462
 21
165.3356497533
 31
0.0
  0
LINE
  5
91
330
1F
100
AcDbEntity
  8
0
  6
SLD-Сплошная
 62
     7
370
    25
100
AcDbLine
 10
37.0400510462
 20
120.966574488
 30
0.0
 11
40.3400510462
 21
120.966574488
 31
0.0
  0
LINE
  5
92
330
1F
100
AcDbEntity
  8
0
  6
SLD-Сплошная
 62
     7
370
    25
100
AcDbLine
 10
0.2400510462
 20
147.0856497533
 30
0.0
 11
-1.1099489538
 21
147.0856497533
 31
0.0
  0
LINE
  5
93
330
1F
100
AcDbEntity
  8
0
  6
SLD-Сплошная
 62
     7
370
    25
100
AcDbLine
 10
-1.1099489538
 20
140.0856497533
 30
0.0
 11
0.2400510462
 21
140.0856497533
 31
0.0
  0
LINE
  5
94
330
1F
100
AcDbEntity
  8
0
  6
SLD-Сплошная
 62
     7
370
    25
100
AcDbLine
 10
144.4015911284
 20
140.9670900842
 30
0.0
 11
144.4718131801
 21
142.7757685791
 31
0.0
  0
LINE
  5
95
330
1F
100
AcDbEntity
  8
0
  6
SLD-Сплошная
 62
     7
370
    25
100
AcDbLine
 10
144.4718131801
 20
165.8955309274
 30
0.0
 11
144.4015911284
 21
167.7042094223
 31
0.0
  0
LINE
  5
96
330
1F
100
AcDbEntity
  8
0
  6
SLD-Сплошная
 62
     7
370
    25
100
AcDbLine
 10
0.2400510462
 20
125.4606497533
 30
0.0
 11
12.5400510462
 21
125.4606497533
 31
0.0
  0
LINE
  5
97
330
1F
100
AcDbEntity
  8
0
  6
SLD-Сплошная
 62
     7
370
    25
100
AcDbLine
 10
84.0400510462
 20
189.3356497533
 30
0.0
 11
80.7400510462
 21
189.3356497533
 31
0.0
  0
ARC
  5
98
330
1F
100
AcDbEntity
  8
0
  6
SLD-Сплошная
 62
     7
370
    25
100
AcDbCircle
 10
63.7910793967
 20
197.9224046714
 30
0.0
 40
18.99999999999999
100
AcDbArc
 50
274.6772278078
 51
333.1321346052
  0
ARC
  5
99
330
1F
100
AcDbEntity
  8
0
  6
SLD-Сплошная
 62
     7
370
    25
100
AcDbCircle
 10
134.9130921758
 20
154.3356497533
 30
0.0
 40
17.49999999999998
100
AcDbArc
 50
270.0
 51
297.7766046258
  0
ARC
  5
9A
330
1F
100
AcDbEntity
  8
0
  6
SLD-Сплошная
 62
     7
370
    25
100
AcDbCircle
 10
141.9034732325
 20
141.0640796622
 30
0.0
 40
2.50000000000002
100
AcDbArc
 50
297.7766046258
 51
357.7766046258
  0
LINE
  5
9B
330
1F
100
AcDbEntity
  8
0
  6
SLD-Сплошная
 62
     7
370
    25
100
AcDbLine
 10
122.9034732325
 20
136.8356497533
 30
0.0
 11
134.9130921758
 21
136.8356497533
 31
0.0
  0
ARC
  5
9C
330
1F
100
AcDbEntity
  8
0
  6
SLD-Сплошная
 62
     7
370
    25
100
AcDbCircle
 10
141.9034732325
 20
167.6072198443
 30
0.0
 40
2.500000000000021
100
AcDbArc
 50
2.2233953742
 51
62.2233953742
  0
ARC
  5
9D
330
1F
100
AcDbEntity
  8
0
  6
SLD-Сплошная
 62
     7
370
    25
100
AcDbCircle
 10
134.9130921758
 20
154.3356497533
 30
0.0
 40
17.5
100
AcDbArc
 50
62.2233953742
 51
90.0
  0
LINE
  5
9E
330
1F
100
AcDbEntity
  8
0
  6
SLD-Сплошная
 62
     7
370
    25
100
AcDbLine
 10
134.9130921758
 20
171.8356497533
 30
0.0
 11
122.9034732325
 21
171.8356497533
 31
0.0
  0
LINE
  5
9F
330
1F
100
AcDbEntity
  8
0
  6
SLD-Сплошная
 62
     7
370
    25
100
AcDbLine
 10
37.0400510462
 20
183.3356497533
 30
0.0
 11
37.0400510462
 21
126.2333878794
 31
0.0
  0
LINE
  5
A0
330
1F
100
AcDbEntity
  8
0
  6
SLD-Сплошная
 62
     7
370
    25
100
AcDbLine
 10
40.3400510462
 20
126.2333878794
 30
0.0
 11
40.3400510462
 21
183.3356497533
 31
0.0
  0
LINE
  5
A1
330
1F
100
AcDbEntity
  8
0
  6
SLD-Сплошная
 62
     7
370
    25
100
AcDbLine
 10
40.3400510462
 20
126.2333878794
 30
0.0
 11
37.0400510462
 21
126.2333878794
 31
0.0
  0
SPLINE
  5
A2
330
1F
100
AcDbEntity
  8
0
  6
SLD-Сплошная
 62
     7
370
    25
100
AcDbSpline
210
0.0
220
0.0
230
1.0
 70
     8
 71
     3
 72
    18
 73
    14
 74
     0
 42
0.00000001
 43
0.00000001
 40
0.0
 40
0.0
 40
0.0
 40
0.0
 40
0.125
 40
0.125
 40
0.25
 40
0.25
 40
0.5
 40
0.5
 40
0.75
 40
0.75
 40
0.875
 40
0.875
 40
1.0
 40
1.0
 40
1.0
 40
1.0
 10
47.29384230727697
 20
153.525168324892
 30
0.0
 10
47.76735113111471
 20
153.3487944806494
 30
0.0
 10
48.24785249767898
 20
153.1950655241181
 30
0.0
 10
49.21669048099489
 20
152.9129702953722
 30
0.0
 10
49.70567072726661
 20
152.7850655898481
 30
0.0
 10
51.17945885729725
 20
152.445102603732
 30
0.0
 10
52.17262735938883
 20
152.2765064316405
 30
0.0
 10
54.17543400940026
 20
152.0287657868587
 30
0.0
 10
55.18031418166985
 20
151.9579347852394
 30
0.0
 10
56.68618940399592
 20
151.9426460060642
 30
0.0
 10
57.18825120886212
 20
151.9511819515297
 30
0.0
 10
58.19256486690551
 20
151.9933172615841
 30
0.0
 10
58.69481443743299
 20
152.0266148976256
 30
0.0
 10
59.19719062189387
 20
152.0766267126562
 30
0.0
  0
SPLINE
  5
A3
330
1F
100
AcDbEntity
  8
0
  6
SLD-Сплошная
 62
     7
370
    25
100
AcDbSpline
210
0.0
220
0.0
230
1.0
 70
     8
 71
     3
 72
    16
 73
    12
 74
     0
 42
0.00000001
 43
0.00000001
 40
0.0
 40
0.0
 40
0.0
 40
0.0
 40
0.2499999999999999
 40
0.2499999999999999
 40
0.4999999999999998
 40
0.4999999999999998
 40
0.7499999999999997
 40
0.7499999999999997
 40
0.8749999999999998
 40
0.8749999999999998
 40
1.0
 40
1.0
 40
1.0
 40
1.0
 10
58.75577335496138
 20
156.5909355938283
 30
0.0
 10
57.91965852567735
 20
156.507857970004
 30
0.0
 10
57.08374234529083
 20
156.4740413901035
 30
0.0
 10
55.41225830069175
 20
156.4928871520991
 30
0.0
 10
54.57521172685738
 20
156.5519837386515
 30
0.0
 10
52.90840056915705
 20
156.7554220309521
 30
0.0
 10
52.07936140224408
 20
156.8965261492436
 30
0.0
 10
50.85261341113053
 20
157.1748990707502
 30
0.0
 10
50.44671315645758
 20
157.2784414161736
 30
0.0
 10
49.64178136138165
 20
157.5099193808047
 30
0.0
 10
49.24258237870717
 20
157.6372591690843
 30
0.0
 10
48.84838945493142
 20
157.782333003327
 30
0.0
  0
SPLINE
  5
A4
330
1F
100
AcDbEntity
  8
0
  6
SLD-Сплошная
 62
     7
370
    25
100
AcDbSpline
210
0.0
220
0.0
230
1.0
 70
     8
 71
     3
 72
     8
 73
     4
 74
     0
 42
0.00000001
 43
0.00000001
 40
0.0
 40
0.0
 40
0.0
 40
0.0
 40
1.0
 40
1.0
 40
1.0
 40
1.0
 10
48.84838945493142
 20
157.782333003327
 30
0.0
 10
46.0097041149108
 20
158.8270472578106
 30
0.0
 10
43.17272930774404
 20
159.8662868992137
 30
0.0
 10
40.34005104624688
 20
160.8987345075108
 30
0.0
  0
SPLINE
  5
A5
330
1F
100
AcDbEntity
  8
0
  6
SLD-Сплошная
 62
     7
370
    25
100
AcDbSpline
210
0.0
220
0.0
230
1.0
 70
     8
 71
     3
 72
    10
 73
     6
 74
     0
 42
0.00000001
 43
0.00000001
 40
0.0
 40
0.0
 40
0.0
 40
0.0
 40
0.5
 40
0.5
 40
1.0
 40
1.0
 40
1.0
 40
1.0
 10
40.34005104624688
 20
156.1276333365072
 30
0.0
 10
41.49736985084414
 20
155.6903340437432
 30
0.0
 10
42.65661442358574
 20
155.2573630713363
 30
0.0
 10
44.97456946805991
 20
154.3895437817019
 30
0.0
 10
46.13417108961474
 20
153.9571257888711
 30
0.0
 10
47.29384230727697
 20
153.525168324892
 30
0.0
  0
SPLINE
  5
A6
330
1F
100
AcDbEntity
  8
0
  6
SLD-Сплошная
 62
     7
370
    25
100
AcDbSpline
210
0.0
220
0.0
230
1.0
 70
     8
 71
     3
 72
    32
 73
    28
 74
     0
 42
0.00000001
 43
0.00000001
 40
0.0
 40
0.0
 40
0.0
 40
0.0
 40
0.0624999999999999
 40
0.0624999999999999
 40
0.1249999999999998
 40
0.1249999999999998
 40
0.1874999999999997
 40
0.1874999999999997
 40
0.2499999999999996
 40
0.2499999999999996
 40
0.3749999999999994
 40
0.3749999999999994
 40
0.4374999999999994
 40
0.4374999999999994
 40
0.4999999999999993
 40
0.4999999999999993
 40
0.5624999999999992
 40
0.5624999999999992
 40
0.6249999999999991
 40
0.6249999999999991
 40
0.749999999999999
 40
0.749999999999999
 40
0.8124999999999994
 40
0.8124999999999994
 40
0.8749999999999998
 40
0.8749999999999998
 40
1.0
 40
1.0
 40
1.0
 40
1.0
 10
87.92402389918259
 20
154.9469272754349
 30
0.0
 10
88.3441184983437
 20
154.9891467965128
 30
0.0
 10
88.76207344620093
 20
155.0027077151809
 30
0.0
 10
89.59494756396022
 20
154.9900619297524
 30
0.0
 10
90.00984123271236
 20
154.9635049526373
 30
0.0
 10
90.83649916820434
 20
154.8698579552977
 30
0.0
 10
91.24816996385628
 20
154.8013847733893
 30
0.0
 10
92.0678484220038
 20
154.6179591540965
 30
0.0
 10
92.47265054767834
 20
154.5036572152366
 30
0.0
 10
93.65344490770674
 20
154.0982760287644
 30
0.0
 10
94.40525754973906
 20
153.7476011273058
 30
0.0
 10
95.48076895152508
 20
153.1079703500124
 30
0.0
 10
95.830103410083
 20
152.8749380477196
 30
0.0
 10
96.49312563631682
 20
152.3795526128468
 30
0.0
 10
96.80884683623154
 20
152.1158374045992
 30
0.0
 10
97.40781961791811
 20
151.5562820615359
 30
0.0
 10
97.69138969653518
 20
151.2607946454067
 30
0.0
 10
98.22762590749015
 20
150.6404344785936
 30
0.0
 10
98.48150988701344
 20
150.3135231774819
 30
0.0
 10
99.17790536587829
 20
149.3099349097993
 30
0.0
 10
99.55961134990193
 20
148.6068059012704
 30
0.0
 10
100.0170048506452
 20
147.5111982641933
 30
0.0
 10
100.151070322448
 20
147.1372457275587
 30
0.0
 10
100.3806898093768
 20
146.3908095299883
 30
0.0
 10
100.4767583663852
 20
146.0183601177962
 30
0.0
 10
100.7109133536096
 20
144.9042936249147
 30
0.0
 10
100.7942884790861
 20
144.1657373665673
 30
0.0
 10
100.7942884790862
 20
143.4308830042502
 30
0.0
  0
SPLINE
  5
A7
330
1F
100
AcDbEntity
  8
0
  6
SLD-Сплошная
 62
     7
370
    25
100
AcDbSpline
210
0.0
220
0.0
230
1.0
 70
     8
 71
     3
 72
    15
 73
    11
 74
     0
 42
0.00000001
 43
0.00000001
 40
0.0
 40
0.0
 40
0.0
 40
0.0
 40
0.1102139069661363
 40
0.2319804191882301
 40
0.3569981903246295
 40
0.4839411887784566
 40
0.6140502687570174
 40
0.7509210150632875
 40
0.891872929038633
 40
0.9999999999999999
 40
0.9999999999999999
 40
0.9999999999999999
 40
0.9999999999999999
 10
103.753672850621
 20
150.1939929671478
 30
0.0
 10
103.4260086168401
 20
150.8345800399021
 30
0.0
 10
102.7363344332652
 20
152.1829004266365
 30
0.0
 10
101.2869294364698
 20
154.0752137845792
 30
0.0
 10
99.49196193255086
 20
155.8175321181941
 30
0.0
 10
97.38316167464484
 20
157.2800319340525
 30
0.0
 10
95.0053651911557
 20
158.4432975931741
 30
0.0
 10
92.37970965965353
 20
159.2238534266586
 30
0.0
 10
89.80645921404361
 20
159.5532501653407
 30
0.0
 10
88.14815162236164
 20
159.4643779085503
 30
0.0
 10
87.42826775625737
 20
159.4257977898023
 30
0.0
  0
LINE
  5
A8
330
1F
100
AcDbEntity
  8
0
  6
SLD-Сплошная
 62
     7
370
    25
100
AcDbLine
 10
105.2157079717
 20
143.6911755814
 30
0.0
 11
105.2400510462
 21
143.8578856849
 31
0.0
  0
LINE
  5
A9
330
1F
100
AcDbEntity
  8
0
  6
SLD-Сплошная
 62
     7
370
    25
100
AcDbLine
 10
65.3400510462
 20
157.2451280244
 30
0.0
 11
65.1321558685
 21
157.2238605834
 31
0.0
  0
SPLINE
  5
AA
330
1F
100
AcDbEntity
  8
0
  6
SLD-Сплошная
 62
     7
370
    25
100
AcDbSpline
210
0.0
220
0.0
230
1.0
 70
     8
 71
     3
 72
     8
 73
     4
 74
     0
 42
0.00000001
 43
0.00000001
 40
0.0
 40
0.0
 40
0.0
 40
0.0
 40
1.0
 40
1.0
 40
1.0
 40
1.0
 10
87.42826775625737
 20
159.4257977898023
 30
0.0
 10
80.10419562504134
 20
158.7044142916963
 30
0.0
 10
72.72175360696181
 20
157.9754251807229
 30
0.0
 10
65.34005104624688
 20
157.2451280244394
 30
0.0
  0
SPLINE
  5
AB
330
1F
100
AcDbEntity
  8
0
  6
SLD-Сплошная
 62
     7
370
    25
100
AcDbSpline
210
0.0
220
0.0
230
1.0
 70
     8
 71
     3
 72
     8
 73
     4
 74
     0
 42
0.00000001
 43
0.00000001
 40
0.0
 40
0.0
 40
0.0
 40
0.0
 40
1.0
 40
1.0
 40
1.0
 40
1.0
 10
65.57236129464327
 20
152.7130711106028
 30
0.0
 10
73.0339817131458
 20
153.4558689486539
 30
0.0
 10
80.50369415144584
 20
154.2011838909377
 30
0.0
 10
87.92402389918259
 20
154.9469272754347
 30
0.0
  0
SPLINE
  5
AC
330
1F
100
AcDbEntity
  8
0
  6
SLD-Сплошная
 62
     7
370
    25
100
AcDbSpline
210
0.0
220
0.0
230
1.0
 70
     8
 71
     3
 72
    24
 73
    20
 74
     0
 42
0.00000001
 43
0.00000001
 40
0.0
 40
0.0
 40
0.0
 40
0.0
 40
0.1250000000000004
 40
0.1250000000000004
 40
0.2500000000000009
 40
0.2500000000000009
 40
0.3750000000000013
 40
0.3750000000000013
 40
0.5000000000000018
 40
0.5000000000000018
 40
0.6250000000000022
 40
0.6250000000000022
 40
0.7500000000000027
 40
0.7500000000000027
 40
0.812500000000002
 40
0.812500000000002
 40
0.8750000000000013
 40
0.8750000000000013
 40
1.0
 40
1.0
 40
1.0
 40
1.0
 10
65.13215586851281
 20
157.2238605834198
 30
0.0
 10
65.1344881596158
 20
157.1791077816549
 30
0.0
 10
65.14246297917127
 20
157.0755015772435
 30
0.0
 10
65.17210715470647
 20
156.7317148662537
 30
0.0
 10
65.19384411201537
 20
156.4910319530568
 30
0.0
 10
65.24647556874056
 20
155.9256308718357
 30
0.0
 10
65.27713040688248
 20
155.6034654235843
 30
0.0
 10
65.33814167169378
 20
154.9727084269018
 30
0.0
 10
65.36831043342737
 20
154.6659093187085
 30
0.0
 10
65.42198550162819
 20
154.126983047898
 30
0.0
 10
65.44553710375972
 20
153.8942751950622
 30
0.0
 10
65.48499798279269
 20
153.5092700102565
 30
0.0
 10
65.50099975172537
 20
153.3560103924319
 30
0.0
 10
65.52047897101477
 20
153.1722310403505
 30
0.0
 10
65.52611204782005
 20
153.1196389393654
 30
0.0
 10
65.5366434136593
 20
153.0223067507108
 30
0.0
 10
65.54183892630095
 20
152.9748461650935
 30
0.0
 10
65.55677120281888
 20
152.8407973947931
 30
0.0
 10
65.56591618830001
 20
152.7619535049677
 30
0.0
 10
65.57236129464324
 20
152.7130711106028
 30
0.0
  0
SPLINE
  5
AD
330
1F
100
AcDbEntity
  8
0
  6
SLD-Сплошная
 62
     7
370
    25
100
AcDbSpline
210
0.0
220
0.0
230
1.0
 70
     8
 71
     3
 72
    14
 73
    10
 74
     0
 42
0.00000001
 43
0.00000001
 40
0.0
 40
0.0
 40
0.0
 40
0.0
 40
0.0023052483359335
 40
0.0023052483359335
 40
0.0023052483359335
 40
0.0042393693682348
 40
0.0042393693682348
 40
0.0042393693682348
 40
0.0061734915672103
 40
0.0061734915672103
 40
0.0061734915672103
 40
0.0061734915672103
 10
65.34005104624688
 20
152.6889011365529
 30
0.0
 10
64.57544974235233
 20
152.6125986645922
 30
0.0
 10
63.81084729218041
 20
152.5363305757239
 30
0.0
 10
63.04624418250187
 20
152.4600969538012
 30
0.0
 10
62.40473628950391
 20
152.3961363583548
 30
0.0
 10
61.76322782051601
 20
152.3322000708337
 30
0.0
 10
61.12171904239798
 20
152.268288345597
 30
0.0
 10
60.48020987729686
 20
152.2043765818062
 30
0.0
 10
59.838700309243
 20
152.1404893415315
 30
0.0
 10
59.19719062189392
 20
152.0766267126562
 30
0.0
  0
SPLINE
  5
AE
330
1F
100
AcDbEntity
  8
0
  6
SLD-Сплошная
 62
     7
370
    25
100
AcDbSpline
210
0.0
220
0.0
230
1.0
 70
     8
 71
     3
 72
    14
 73
    10
 74
     0
 42
0.00000001
 43
0.00000001
 40
0.0
 40
0.0
 40
0.0
 40
0.0
 40
0.0023052483336405
 40
0.0023052483336405
 40
0.0023052483336405
 40
0.0043566551527238
 40
0.0043566551527238
 40
0.0043566551527238
 40
0.0064080633557896
 40
0.0064080633557896
 40
0.0064080633557896
 40
0.0064080633557896
 10
58.75577335496138
 20
156.5909355938283
 30
0.0
 10
59.52039260015476
 20
156.6669093091557
 30
0.0
 10
60.28501143434772
 20
156.742855539729
 30
0.0
 10
61.04962940386853
 20
156.8187738805215
 30
0.0
 10
61.7300517810955
 20
156.8863325045354
 30
0.0
 10
62.41047359742559
 20
156.953869033752
 30
0.0
 10
63.09089450017097
 20
157.0213835006253
 30
0.0
 10
63.77131586190563
 20
157.0888980130417
 30
0.0
 10
64.4517364228297
 20
157.1563904943787
 30
0.0
 10
65.13215586851283
 20
157.2238605834198
 30
0.0
  0
SPLINE
  5
AF
330
1F
100
AcDbEntity
  8
0
  6
SLD-Сплошная
 62
     7
370
    25
100
AcDbSpline
210
0.0
220
0.0
230
1.0
 70
     8
 71
     3
 72
     8
 73
     4
 74
     0
 42
0.00000001
 43
0.00000001
 40
0.0
 40
0.0
 40
0.0
 40
0.0
 40
0.0002336460431188
 40
0.0002336460431188
 40
0.0002336460431188
 40
0.0002336460431188
 10
65.57236129464327
 20
152.7130711106028
 30
0.0
 10
65.49492237911026
 20
152.705021490451
 30
0.0
 10
65.41748560746713
 20
152.6969646693015
 30
0.0
 10
65.34005104624688
 20
152.6889011365529
 30
0.0
  0
SPLINE
  5
B0
330
1F
100
AcDbEntity
  8
0
  6
SLD-Сплошная
 62
     7
370
    25
100
AcDbSpline
210
0.0
220
0.0
230
1.0
 70
     8
 71
     3
 72
    28
 73
    24
 74
     0
 42
0.00000001
 43
0.00000001
 40
0.0
 40
0.0
 40
0.0
 40
0.0
 40
0.1250000000000002
 40
0.1250000000000002
 40
0.1875000000000003
 40
0.1875000000000003
 40
0.2500000000000004
 40
0.2500000000000004
 40
0.3750000000000007
 40
0.3750000000000007
 40
0.4375000000000008
 40
0.4375000000000008
 40
0.5000000000000007
 40
0.5000000000000007
 40
0.6250000000000006
 40
0.6250000000000006
 40
0.7500000000000003
 40
0.7500000000000003
 40
0.8125000000000002
 40
0.8125000000000002
 40
0.8750000000000001
 40
0.8750000000000001
 40
1.0
 40
1.0
 40
1.0
 40
1.0
 10
57.50865554613657
 20
145.3067102752196
 30
0.0
 10
57.14443768194958
 20
144.1842916426989
 30
0.0
 10
56.79388445579963
 20
143.1018725671645
 30
0.0
 10
56.28680954387274
 20
141.5380422544639
 30
0.0
 10
56.12104360743385
 20
141.0267398683041
 30
0.0
 10
55.79635691879119
 20
140.0244262075881
 30
0.0
 10
55.63693175111975
 20
139.5319275418281
 30
0.0
 10
55.17380455037775
 20
138.0973881156796
 30
0.0
 10
54.8861683377219
 20
137.2016155292196
 30
0.0
 10
54.48268059180478
 20
135.9495667495181
 30
0.0
 10
54.35294581173881
 20
135.5475287207864
 30
0.0
 10
54.10353310838986
 20
134.7748137560146
 30
0.0
 10
53.98352179109359
 20
134.4030972592958
 30
0.0
 10
53.64541515814818
 20
133.352218008967
 30
0.0
 10
53.44752738695497
 20
132.7321271250392
 30
0.0
 10
53.10041623928641
 20
131.6519868889316
 30
0.0
 10
52.95101217255264
 20
131.191863549754
 30
0.0
 10
52.76981233273324
 20
130.6287193562078
 30
0.0
 10
52.71737289412852
 20
130.4641269521753
 30
0.0
 10
52.62810293651867
 20
130.1823558609754
 30
0.0
 10
52.59122628384083
 20
130.0648186254258
 30
0.0
 10
52.50214710347809
 20
129.78185285401
 30
0.0
 10
52.47098601034561
 20
129.6856497532747
 30
0.0
 10
52.46776972297788
 20
129.6856497532747
 30
0.0
  0
SPLINE
  5
B1
330
1F
100
AcDbEntity
  8
0
  6
SLD-Сплошная
 62
     7
370
    25
100
AcDbSpline
210
0.0
220
0.0
230
1.0
 70
     8
 71
     3
 72
    24
 73
    20
 74
     0
 42
0.00000001
 43
0.00000001
 40
0.0
 40
0.0
 40
0.0
 40
0.0
 40
0.125
 40
0.125
 40
0.2499999999999999
 40
0.2499999999999999
 40
0.375
 40
0.375
 40
0.5
 40
0.5
 40
0.625
 40
0.625
 40
0.7499999999999999
 40
0.7499999999999999
 40
0.8124999999999998
 40
0.8124999999999998
 40
0.8749999999999998
 40
0.8749999999999998
 40
1.0
 40
1.0
 40
1.0
 40
1.0
 10
58.21233236951588
 20
129.6856497532747
 30
0.0
 10
58.21336267646297
 20
129.6856497532747
 30
0.0
 10
58.24224040742637
 20
129.77028893967
 30
0.0
 10
58.35760662831693
 20
130.1024896308325
 30
0.0
 10
58.44420857991403
 20
130.3500563323165
 30
0.0
 10
58.67479314767327
 20
131.0119106535113
 30
0.0
 10
58.81638803917028
 20
131.4191464421244
 30
0.0
 10
59.15029600322919
 20
132.3777517773802
 30
0.0
 10
59.34266577385005
 20
132.9293021168915
 30
0.0
 10
59.77629694664871
 20
134.1785749661928
 30
0.0
 10
60.01343215722131
 20
134.863543769344
 30
0.0
 10
60.52629840500523
 20
136.3433743481384
 30
0.0
 10
60.80223663144729
 20
137.1388026092029
 30
0.0
 10
61.24339751395262
 20
138.4151940496903
 30
0.0
 10
61.39553971814794
 20
138.8560143523259
 30
0.0
 10
61.70646111900115
 20
139.7571171395508
 30
0.0
 10
61.86527042729131
 20
140.2174472284728
 30
0.0
 10
62.35169661368878
 20
141.6270944948085
 30
0.0
 10
62.68935278964103
 20
142.6049040571392
 30
0.0
 10
63.03881536853633
 20
143.6211406577603
 30
0.0
  0
ARC
  5
B2
330
1F
100
AcDbEntity
  8
0
  6
SLD-Сплошная
 62
     7
370
    25
100
AcDbCircle
 10
55.3400510462
 20
131.6856497533
 30
0.0
 40
3.499999999999988
100
AcDbArc
 50
214.849904579
 51
325.150095421
  0
SPLINE
  5
B3
330
1F
100
AcDbEntity
  8
0
  6
SLD-Сплошная
 62
     7
370
    25
100
AcDbSpline
210
0.0
220
0.0
230
1.0
 70
     8
 71
     3
 72
    28
 73
    24
 74
     0
 42
0.00000001
 43
0.00000001
 40
0.0
 40
0.0
 40
0.0
 40
0.0
 40
0.125
 40
0.125
 40
0.2500000000000001
 40
0.2500000000000001
 40
0.3125000000000001
 40
0.3125000000000001
 40
0.3749999999999999
 40
0.3749999999999999
 40
0.4999999999999999
 40
0.4999999999999999
 40
0.5624999999999999
 40
0.5624999999999999
 40
0.6249999999999999
 40
0.6249999999999999
 40
0.6874999999999999
 40
0.6874999999999999
 40
0.7499999999999999
 40
0.7499999999999999
 40
0.875
 40
0.875
 40
1.0
 40
1.0
 40
1.0
 40
1.0
 10
82.62682076757477
 20
130.1655399888488
 30
0.0
 10
82.62790773895628
 20
130.1656225495221
 30
0.0
 10
82.65703633176535
 20
130.2474387786965
 30
0.0
 10
82.76954460787978
 20
130.5679679719548
 30
0.0
 10
82.85312577503822
 20
130.806711204721
 30
0.0
 10
83.02195940552467
 20
131.285199640447
 30
0.0
 10
83.08521866864673
 20
131.4643135472846
 30
0.0
 10
83.22382403440498
 20
131.8569656561734
 30
0.0
 10
83.29935007531255
 20
132.0710142779274
 30
0.0
 10
83.54403669745292
 20
132.7652302850654
 30
0.0
 10
83.7312155597549
 20
133.2972085167201
 30
0.0
 10
84.04825700369834
 20
134.1994112225676
 30
0.0
 10
84.16003798772925
 20
134.5179392172495
 30
0.0
 10
84.39309473069274
 20
135.1827348193758
 30
0.0
 10
84.51465618998208
 20
135.5298100956295
 30
0.0
 10
84.76782375268378
 20
136.2530059834539
 30
0.0
 10
84.89969079376355
 20
136.629871114408
 30
0.0
 10
85.17188720502669
 20
137.4078871392632
 30
0.0
 10
85.31226068342573
 20
137.8091617992406
 30
0.0
 10
85.74611080685438
 20
139.0492591064172
 30
0.0
 10
86.05318950972388
 20
139.926456187098
 30
0.0
 10
86.68921946195724
 20
141.7467344552566
 30
0.0
 10
87.01923539826662
 20
142.6929696710954
 30
0.0
 10
87.36014600654248
 20
143.6755348892736
 30
0.0
  0
SPLINE
  5
B4
330
1F
100
AcDbEntity
  8
0
  6
SLD-Сплошная
 62
     7
370
    25
100
AcDbSpline
210
0.0
220
0.0
230
1.0
 70
     8
 71
     3
 72
    24
 73
    20
 74
     0
 42
0.00000001
 43
0.00000001
 40
0.0
 40
0.0
 40
0.0
 40
0.0
 40
0.1250000000000001
 40
0.1250000000000001
 40
0.2500000000000002
 40
0.2500000000000002
 40
0.3125000000000002
 40
0.3125000000000002
 40
0.3750000000000001
 40
0.3750000000000001
 40
0.5000000000000001
 40
0.5000000000000001
 40
0.6250000000000001
 40
0.6250000000000001
 40
0.75
 40
0.75
 40
0.875
 40
0.875
 40
1.0
 40
1.0
 40
1.0
 40
1.0
 10
81.90022855445427
 20
145.1563293698109
 30
0.0
 10
82.1270758795712
 20
145.3227756548812
 30
0.0
 10
82.37375763423489
 20
145.4639973221301
 30
0.0
 10
82.89393505323373
 20
145.688650947261
 30
0.0
 10
83.1683680719699
 20
145.7720879006712
 30
0.0
 10
83.58392409659155
 20
145.8492569627785
 30
0.0
 10
83.7238598734468
 20
145.8672698691378
 30
0.0
 10
84.00664100574384
 20
145.887472188829
 30
0.0
 10
84.14961144927346
 20
145.8895182641899
 30
0.0
 10
84.5712474763518
 20
145.8715989420361
 30
0.0
 10
84.84665979138485
 20
145.8283451181478
 30
0.0
 10
85.38576601616674
 20
145.6782499015899
 30
0.0
 10
85.64107207700839
 20
145.5734109502841
 30
0.0
 10
86.11613690574444
 20
145.3100284410755
 30
0.0
 10
86.33844170908696
 20
145.1489565015987
 30
0.0
 10
86.7259625845277
 20
144.7887166632907
 30
0.0
 10
86.8957240239519
 20
144.5862674288071
 30
0.0
 10
87.17561362129605
 20
144.1489486548164
 30
0.0
 10
87.28393634536192
 20
143.9181257301538
 30
0.0
 10
87.36014600654238
 20
143.6755348892734
 30
0.0
  0
SPLINE
  5
B5
330
1F
100
AcDbEntity
  8
0
  6
SLD-Сплошная
 62
     7
370
    25
100
AcDbSpline
210
0.0
220
0.0
230
1.0
 70
     8
 71
     3
 72
    26
 73
    22
 74
     0
 42
0.00000001
 43
0.00000001
 40
0.0
 40
0.0
 40
0.0
 40
0.0
 40
0.1249999999999994
 40
0.1249999999999994
 40
0.1874999999999991
 40
0.1874999999999991
 40
0.2499999999999989
 40
0.2499999999999989
 40
0.3749999999999986
 40
0.3749999999999986
 40
0.4374999999999985
 40
0.4374999999999985
 40
0.4999999999999986
 40
0.4999999999999986
 40
0.6249999999999989
 40
0.6249999999999989
 40
0.7499999999999993
 40
0.7499999999999993
 40
0.8749999999999997
 40
0.8749999999999997
 40
1.0
 40
1.0
 40
1.0
 40
1.0
 10
81.90022855445442
 20
145.1563293698111
 30
0.0
 10
81.54180113051945
 20
144.0554808658277
 30
0.0
 10
81.19595075346653
 20
142.9943213848189
 30
0.0
 10
80.69511303879423
 20
141.461384489754
 30
0.0
 10
80.53120000857953
 20
140.9602383105184
 30
0.0
 10
80.20977545387606
 20
139.9779062896826
 30
0.0
 10
80.05190401256513
 20
139.4955068717825
 30
0.0
 10
79.59129820836817
 20
138.0876287377096
 30
0.0
 10
79.30401688086968
 20
137.2094963818602
 30
0.0
 10
78.90263072518717
 20
135.9824349694054
 30
0.0
 10
78.77378876021268
 20
135.5884977373178
 30
0.0
 10
78.52634993456336
 20
134.8314597574508
 30
0.0
 10
78.40744561790116
 20
134.4673567942515
 30
0.0
 10
78.06985092929891
 20
133.4319743138461
 30
0.0
 10
77.86864812283659
 20
132.8165065993009
 30
0.0
 10
77.5180680989499
 20
131.7433073794974
 30
0.0
 10
77.37050577076779
 20
131.2909654536065
 30
0.0
 10
77.13153424653366
 20
130.5575802564259
 30
0.0
 10
77.04212314110615
 20
130.283585923241
 30
0.0
 10
76.9249967856597
 20
129.9158553043829
 30
0.0
 10
76.89660899194273
 20
129.8221035024661
 30
0.0
 10
76.89254411608462
 20
129.8219249656396
 30
0.0
  0
LINE
  5
B6
330
1F
100
AcDbEntity
  8
0
  6
SLD-Сплошная
 62
     7
370
    25
100
AcDbLine
 10
65.3400510462
 20
152.6889011366
 30
0.0
 11
65.3400510462
 21
129.6856497533
 31
0.0
  0
LINE
  5
B7
330
1F
100
AcDbEntity
  8
0
  6
SLD-Сплошная
 62
     7
370
    25
100
AcDbLine
 10
100.7942884791
 20
132.4798320202
 30
0.0
 11
100.7942884791
 21
143.4308830043
 31
0.0
  0
LINE
  5
B8
330
1F
100
AcDbEntity
  8
0
  6
SLD-Сплошная
 62
     7
370
    25
100
AcDbLine
 10
105.2400510462
 20
175.3356497533
 30
0.0
 11
105.2400510462
 21
143.8578856849
 31
0.0
  0
LINE
  5
B9
330
1F
100
AcDbEntity
  8
0
  6
SLD-Сплошная
 62
     7
370
    25
100
AcDbLine
 10
65.3400510462
 20
178.9856497533
 30
0.0
 11
65.3400510462
 21
157.2451280244
 31
0.0
  0
SPLINE
  5
BA
330
1F
100
AcDbEntity
  8
0
  6
SLD-Сплошная
 62
     7
370
    25
100
AcDbSpline
210
0.0
220
0.0
230
1.0
 70
     8
 71
     3
 72
     8
 73
     4
 74
     0
 42
0.00000001
 43
0.00000001
 40
0.0
 40
0.0
 40
0.0
 40
0.0
 40
1.0
 40
1.0
 40
1.0
 40
1.0
 10
65.34939151853095
 20
178.8319625025644
 30
0.0
 10
65.3431727611086
 20
178.9347424053069
 30
0.0
 10
65.34005104624984
 20
178.985649753275
 30
0.0
 10
65.34005104624984
 20
178.985649753275
 30
0.0
  0
SPLINE
  5
BB
330
1F
100
AcDbEntity
  8
0
  6
SLD-Сплошная
 62
     7
370
    25
100
AcDbSpline
210
0.0
220
0.0
230
1.0
 70
     8
 71
     3
 72
    14
 73
    10
 74
     0
 42
0.00000001
 43
0.00000001
 40
0.0
 40
0.0
 40
0.0
 40
0.0
 40
0.4999999999999983
 40
0.4999999999999983
 40
0.5624999999999983
 40
0.5624999999999983
 40
0.6249999999999983
 40
0.7499999999999984
 40
1.0
 40
1.0
 40
1.0
 40
1.0
 10
65.34939151852788
 20
178.8319625025644
 30
0.0
 10
68.450678194495
 20
178.8951681696095
 30
0.0
 10
71.55627808113799
 20
178.8778157820166
 30
0.0
 10
75.05497578987222
 20
178.7668172096208
 30
0.0
 10
75.44411383908859
 20
178.7532080881715
 30
0.0
 10
76.22850447427072
 20
178.7231817435724
 30
0.0
 10
77.40442644129733
 20
178.6742889030647
 30
0.0
 10
80.1436080652591
 20
178.5332996683619
 30
0.0
 10
82.48356770812234
 20
178.3665456095578
 30
0.0
 10
84.0400510462469
 20
178.2351240500437
 30
0.0
  0
SPLINE
  5
BC
330
1F
100
AcDbEntity
  8
0
  6
SLD-Сплошная
 62
     7
370
    25
100
AcDbSpline
210
0.0
220
0.0
230
1.0
 70
     8
 71
     3
 72
    24
 73
    20
 74
     0
 42
0.00000001
 43
0.00000001
 40
0.0
 40
0.0
 40
0.0
 40
0.0
 40
0.1249999999999998
 40
0.1249999999999998
 40
0.2499999999999995
 40
0.2499999999999995
 40
0.3749999999999992
 40
0.3749999999999992
 40
0.499999999999999
 40
0.499999999999999
 40
0.6249999999999988
 40
0.6249999999999988
 40
0.7499999999999984
 40
0.7499999999999984
 40
0.8124999999999991
 40
0.8124999999999991
 40
0.8749999999999998
 40
0.8749999999999998
 40
1.0
 40
1.0
 40
1.0
 40
1.0
 10
63.03881536853633
 20
143.6211406577603
 30
0.0
 10
62.96271081906363
 20
143.8725738632555
 30
0.0
 10
62.85240460719255
 20
144.1162213643951
 30
0.0
 10
62.57004970433949
 20
144.5745825248566
 30
0.0
 10
62.39741761848854
 20
144.7895417994504
 30
0.0
 10
62.00488922543636
 20
145.1726416587215
 30
0.0
 10
61.77980299965307
 20
145.3453656344275
 30
0.0
 10
61.29675710905458
 20
145.631942997769
 30
0.0
 10
61.03903157814876
 20
145.7471080479693
 30
0.0
 10
60.49009964647518
 20
145.9182953551561
 30
0.0
 10
60.2097523295112
 20
145.9708570840727
 30
0.0
 10
59.63929788375403
 20
146.0112689077552
 30
0.0
 10
59.34770647739743
 20
145.9979874220206
 30
0.0
 10
58.92600555751695
 20
145.929467820688
 30
0.0
 10
58.7870657916412
 20
145.8986070551942
 30
0.0
 10
58.51249247694415
 20
145.8206589771027
 30
0.0
 10
58.37618435661814
 20
145.7732087068792
 30
0.0
 10
57.98228878200307
 20
145.6097080720058
 30
0.0
 10
57.73676747367711
 20
145.4723868122153
 30
0.0
 10
57.50865554613657
 20
145.3067102752197
 30
0.0
  0
LINE
  5
BD
330
1F
100
AcDbEntity
  8
0
  6
SLD-Сплошная
 62
     7
370
    25
100
AcDbLine
 10
32.2150510462
 20
178.9606497533
 30
0.0
 11
32.2150510462
 21
129.7106497533
 31
0.0
  0
LINE
  5
BE
330
1F
100
AcDbEntity
  8
0
  6
SLD-Сплошная
 62
     7
370
    25
100
AcDbLine
 10
13.3650510462
 20
178.9606497533
 30
0.0
 11
13.3650510462
 21
129.7106497533
 31
0.0
  0
LINE
  5
BF
330
1F
100
AcDbEntity
  8
0
  6
SLD-Сплошная
 62
     7
370
    25
100
AcDbLine
 10
12.5400510462
 20
129.894801947
 30
0.0
 11
0.2400510462
 21
129.894801947
 31
0.0
  0
LINE
  5
C0
330
1F
100
AcDbEntity
  8
0
  6
SLD-Сплошная
 62
     7
370
    25
100
AcDbLine
 10
0.2400510462
 20
178.9606497533
 30
0.0
 11
0.2400510462
 21
129.894801947
 31
0.0
  0
ARC
  5
C1
330
1F
100
AcDbEntity
  8
0
  6
SLD-Сплошная
 62
     7
370
    25
100
AcDbCircle
 10
79.6400510462
 20
131.9901513534
 30
0.0
 40
3.499999999999985
100
AcDbArc
 50
218.2791386075
 51
328.5793294494
  0
LINE
  5
C2
330
1F
100
AcDbEntity
  8
0
  6
SLD-Сплошная
 62
     7
370
    25
100
AcDbLine
 10
14.4282034477
 20
167.4588135409
 30
0.0
 11
14.4282034477
 21
141.2124859656
 31
0.0
  0
LINE
  5
C3
330
1F
100
AcDbEntity
  8
0
  6
SLD-Сплошная
 62
     7
370
    25
100
AcDbLine
 10
14.4282034477
 20
141.2124859656
 30
0.0
 11
31.1650510462
 21
141.2124859656
 31
0.0
  0
LINE
  5
C4
330
1F
100
AcDbEntity
  8
0
  6
SLD-Сплошная
 62
     7
370
    25
100
AcDbLine
 10
31.1650510462
 20
167.4588135409
 30
0.0
 11
31.1650510462
 21
141.2124859656
 31
0.0
  0
LINE
  5
C5
330
1F
100
AcDbEntity
  8
0
  6
SLD-Сплошная
 62
     7
370
    25
100
AcDbLine
 10
31.1650510462
 20
167.4588135409
 30
0.0
 11
14.4282034477
 21
167.4588135409
 31
0.0
  0
LINE
  5
C6
330
1F
100
AcDbEntity
  8
0
  6
SLD-Сплошная
 62
     7
370
    25
100
AcDbLine
 10
23.970662247
 20
155.1455609585
 30
0.0
 11
21.622592247
 21
155.1455609585
 31
0.0
  0
LINE
  5
C7
330
1F
100
AcDbEntity
  8
0
  6
SLD-Сплошная
 62
     7
370
    25
100
AcDbLine
 10
23.970662247
 20
155.1455609585
 30
0.0
 11
23.970662247
 21
149.6321208038
 31
0.0
  0
LINE
  5
C8
330
1F
100
AcDbEntity
  8
0
  6
SLD-Сплошная
 62
     7
370
    25
100
AcDbLine
 10
24.753361723
 20
149.6321208038
 30
0.0
 11
23.970662247
 21
149.6321208038
 31
0.0
  0
LINE
  5
C9
330
1F
100
AcDbEntity
  8
0
  6
SLD-Сплошная
 62
     7
370
    25
100
AcDbLine
 10
24.753361723
 20
155.1455609585
 30
0.0
 11
24.753361723
 21
149.6321208038
 31
0.0
  0
LINE
  5
CA
330
1F
100
AcDbEntity
  8
0
  6
SLD-Сплошная
 62
     7
370
    25
100
AcDbLine
 10
27.101431723
 20
155.1455609585
 30
0.0
 11
24.753361723
 21
155.1455609585
 31
0.0
  0
LINE
  5
CB
330
1F
100
AcDbEntity
  8
0
  6
SLD-Сплошная
 62
     7
370
    25
100
AcDbLine
 10
27.101431723
 20
155.1455609585
 30
0.0
 11
27.101431723
 21
146.9870460849
 31
0.0
  0
LINE
  5
CC
330
1F
100
AcDbEntity
  8
0
  6
SLD-Сплошная
 62
     7
370
    25
100
AcDbLine
 10
21.622592247
 20
146.9870460849
 30
0.0
 11
27.101431723
 21
146.9870460849
 31
0.0
  0
LINE
  5
CD
330
1F
100
AcDbEntity
  8
0
  6
SLD-Сплошная
 62
     7
370
    25
100
AcDbLine
 10
21.622592247
 20
155.1455609585
 30
0.0
 11
21.622592247
 21
146.9870460849
 31
0.0
  0
LINE
  5
CE
330
1F
100
AcDbEntity
  8
0
  6
SLD-Сплошная
 62
     7
370
    25
100
AcDbLine
 10
18.491822771
 20
155.1455609585
 30
0.0
 11
18.491822771
 21
146.9870460849
 31
0.0
  0
LINE
  5
CF
330
1F
100
AcDbEntity
  8
0
  6
SLD-Сплошная
 62
     7
370
    25
100
AcDbLine
 10
20.839892771
 20
155.1455609585
 30
0.0
 11
18.491822771
 21
155.1455609585
 31
0.0
  0
LINE
  5
D0
330
1F
100
AcDbEntity
  8
0
  6
SLD-Сплошная
 62
     7
370
    25
100
AcDbLine
 10
18.491822771
 20
146.9870460849
 30
0.0
 11
20.839892771
 21
146.9870460849
 31
0.0
  0
LINE
  5
D1
330
1F
100
AcDbEntity
  8
0
  6
SLD-Сплошная
 62
     7
370
    25
100
AcDbLine
 10
20.839892771
 20
155.1455609585
 30
0.0
 11
20.839892771
 21
146.9870460849
 31
0.0
  0
LINE
  5
D2
330
1F
100
AcDbEntity
  8
0
  6
SLD-Сплошная
 62
     7
370
    25
100
AcDbLine
 10
18.491822771
 20
158.6430186484
 30
0.0
 11
18.491822771
 21
155.9271925898
 31
0.0
  0
LINE
  5
D3
330
1F
100
AcDbEntity
  8
0
  6
SLD-Сплошная
 62
     7
370
    25
100
AcDbLine
 10
22.6867078771
 20
158.6430186484
 30
0.0
 11
18.491822771
 21
158.6430186484
 31
0.0
  0
LINE
  5
D4
330
1F
100
AcDbEntity
  8
0
  6
SLD-Сплошная
 62
     7
370
    25
100
AcDbLine
 10
22.6867078771
 20
158.7334130367
 30
0.0
 11
22.6867078771
 21
158.6430186484
 31
0.0
  0
SPLINE
  5
D5
330
1F
100
AcDbEntity
  8
0
  6
SLD-Сплошная
 62
     7
370
    25
100
AcDbSpline
210
0.0
220
0.0
230
1.0
 70
     8
 71
     3
 72
     8
 73
     4
 74
     0
 42
0.00000001
 43
0.00000001
 40
0.0
 40
0.0
 40
0.0
 40
0.0
 40
1.0
 40
1.0
 40
1.0
 40
1.0
 10
18.49182277099597
 20
162.1195367089658
 30
0.0
 10
19.89074657069261
 20
161.0153477644466
 30
0.0
 10
21.28862329019808
 20
159.8827264517889
 30
0.0
 10
22.68670787713725
 20
158.7334130367378
 30
0.0
  0
LINE
  5
D6
330
1F
100
AcDbEntity
  8
0
  6
SLD-Сплошная
 62
     7
370
    25
100
AcDbLine
 10
18.491822771
 20
164.9323703633
 30
0.0
 11
18.491822771
 21
162.119536709
 31
0.0
  0
SPLINE
  5
D7
330
1F
100
AcDbEntity
  8
0
  6
SLD-Сплошная
 62
     7
370
    25
100
AcDbSpline
210
0.0
220
0.0
230
1.0
 70
     8
 71
     3
 72
     8
 73
     4
 74
     0
 42
0.00000001
 43
0.00000001
 40
0.0
 40
0.0
 40
0.0
 40
0.0
 40
1.0
 40
1.0
 40
1.0
 40
1.0
 10
22.79662724699763
 20
161.6072761217321
 30
0.0
 10
21.36218728686125
 20
162.7484289357037
 30
0.0
 10
19.92773661072757
 20
163.8608381154574
 30
0.0
 10
18.49182277099597
 20
164.9323703633009
 30
0.0
  0
SPLINE
  5
D8
330
1F
100
AcDbEntity
  8
0
  6
SLD-Сплошная
 62
     7
370
    25
100
AcDbSpline
210
0.0
220
0.0
230
1.0
 70
     8
 71
     3
 72
     8
 73
     4
 74
     0
 42
0.00000001
 43
0.00000001
 40
0.0
 40
0.0
 40
0.0
 40
0.0
 40
1.0
 40
1.0
 40
1.0
 40
1.0
 10
27.10143172299576
 20
164.9323703633017
 30
0.0
 10
25.66551740210456
 20
163.8608377563979
 30
0.0
 10
24.23106761282703
 20
162.7484292584496
 30
0.0
 10
22.79662724699763
 20
161.6072761217321
 30
0.0
  0
LINE
  5
D9
330
1F
100
AcDbEntity
  8
0
  6
SLD-Сплошная
 62
     7
370
    25
100
AcDbLine
 10
27.101431723
 20
164.9323703633
 30
0.0
 11
27.101431723
 21
162.119536709
 31
0.0
  0
SPLINE
  5
DA
330
1F
100
AcDbEntity
  8
0
  6
SLD-Сплошная
 62
     7
370
    25
100
AcDbSpline
210
0.0
220
0.0
230
1.0
 70
     8
 71
     3
 72
     8
 73
     4
 74
     0
 42
0.00000001
 43
0.00000001
 40
0.0
 40
0.0
 40
0.0
 40
0.0
 40
1.0
 40
1.0
 40
1.0
 40
1.0
 10
22.90654661685446
 20
158.7334130367396
 30
0.0
 10
24.30463098705276
 20
159.8827262736155
 30
0.0
 10
25.70250819228419
 20
161.0153479767607
 30
0.0
 10
27.10143172299666
 20
162.1195367089667
 30
0.0
  0
LINE
  5
DB
330
1F
100
AcDbEntity
  8
0
  6
SLD-Сплошная
 62
     7
370
    25
100
AcDbLine
 10
22.9065466169
 20
158.7334130367
 30
0.0
 11
22.9065466169
 21
158.6430186484
 31
0.0
  0
LINE
  5
DC
330
1F
100
AcDbEntity
  8
0
  6
SLD-Сплошная
 62
     7
370
    25
100
AcDbLine
 10
27.101431723
 20
158.6430186484
 30
0.0
 11
22.9065466169
 21
158.6430186484
 31
0.0
  0
LINE
  5
DD
330
1F
100
AcDbEntity
  8
0
  6
SLD-Сплошная
 62
     7
370
    25
100
AcDbLine
 10
27.101431723
 20
158.6430186484
 30
0.0
 11
27.101431723
 21
155.9271925898
 31
0.0
  0
LINE
  5
DE
330
1F
100
AcDbEntity
  8
0
  6
SLD-Сплошная
 62
     7
370
    25
100
AcDbLine
 10
18.491822771
 20
155.9271925898
 30
0.0
 11
27.101431723
 21
155.9271925898
 31
0.0
  0
LINE
  5
DF
330
1F
100
AcDbEntity
  8
0
  6
SLD-Сплошная
 62
     7
370
    25
100
AcDbLine
 10
31.1650510462
 20
167.2382561663
 30
0.0
 11
14.4282034477
 21
167.2382561663
 31
0.0
  0
LINE
  5
E0
330
1F
100
AcDbEntity
  8
0
  6
SLD-Сплошная
 62
     7
370
    25
100
AcDbLine
 10
14.4282034477
 20
141.4330433402
 30
0.0
 11
31.1650510462
 21
141.4330433402
 31
0.0
  0
LINE
  5
E1
330
1F
100
AcDbEntity
  8
0
  6
SLD-Сплошная
 62
     7
370
    25
100
AcDbLine
 10
21.622592247
 20
146.2482022492
 30
0.0
 11
21.622592247
 21
143.7389291432
 31
0.0
  0
LINE
  5
E2
330
1F
100
AcDbEntity
  8
0
  6
SLD-Сплошная
 62
     7
370
    25
100
AcDbLine
 10
21.622592247
 20
143.7389291432
 30
0.0
 11
27.101431723
 21
143.7389291432
 31
0.0
  0
LINE
  5
E3
330
1F
100
AcDbEntity
  8
0
  6
SLD-Сплошная
 62
     7
370
    25
100
AcDbLine
 10
27.101431723
 20
146.2482022492
 30
0.0
 11
21.622592247
 21
146.2482022492
 31
0.0
  0
LINE
  5
E4
330
1F
100
AcDbEntity
  8
0
  6
SLD-Сплошная
 62
     7
370
    25
100
AcDbLine
 10
27.101431723
 20
146.2482022492
 30
0.0
 11
27.101431723
 21
143.7389291432
 31
0.0
  0
LINE
  5
E5
330
1F
100
AcDbEntity
  8
0
  6
SLD-Сплошная
 62
     7
370
    25
100
AcDbLine
 10
18.491822771
 20
146.2482022492
 30
0.0
 11
18.491822771
 21
143.7389291432
 31
0.0
  0
LINE
  5
E6
330
1F
100
AcDbEntity
  8
0
  6
SLD-Сплошная
 62
     7
370
    25
100
AcDbLine
 10
18.491822771
 20
143.7389291432
 30
0.0
 11
20.839892771
 21
143.7389291432
 31
0.0
  0
LINE
  5
E7
330
1F
100
AcDbEntity
  8
0
  6
SLD-Сплошная
 62
     7
370
    25
100
AcDbLine
 10
20.839892771
 20
146.2482022492
 30
0.0
 11
20.839892771
 21
143.7389291432
 31
0.0
  0
LINE
  5
E8
330
1F
100
AcDbEntity
  8
0
  6
SLD-Сплошная
 62
     7
370
    25
100
AcDbLine
 10
20.839892771
 20
146.2482022492
 30
0.0
 11
18.491822771
 21
146.2482022492
 31
0.0
  0
LINE
  5
E9
330
1F
100
AcDbEntity
  8
0
  6
SLD-Сплошная
 62
     7
370
    25
100
AcDbLine
 10
105.2400510462
 20
143.8578856849
 30
0.0
 11
105.2400510462
 21
133.3356497533
 31
0.0
  0
LINE
  5
EA
330
1F
100
AcDbEntity
  8
0
  6
SLD-Сплошная
 62
     7
370
    25
100
AcDbLine
 10
113.9034732325
 20
134.6814269049
 30
0.0
 11
113.9034732325
 21
134.8010400624
 31
0.0
  0
LINE
  5
EB
330
1F
100
AcDbEntity
  8
0
  6
SLD-Сплошная
 62
     7
370
    25
100
AcDbLine
 10
113.9034732325
 20
173.8702594441
 30
0.0
 11
113.9034732325
 21
173.9898726016
 31
0.0
  0
LINE
  5
EC
330
1F
100
AcDbEntity
  8
0
  6
SLD-Сплошная
 62
     7
370
    25
100
AcDbLine
 10
113.9034732325
 20
165.9779545987
 30
0.0
 11
113.9034732325
 21
173.8702594441
 31
0.0
  0
LINE
  5
ED
330
1F
100
AcDbEntity
  8
0
  6
SLD-Сплошная
 62
     7
370
    25
100
AcDbLine
 10
113.9034732325
 20
162.2279545987
 30
0.0
 11
113.9034732325
 21
165.9779545987
 31
0.0
  0
LINE
  5
EE
330
1F
100
AcDbEntity
  8
0
  6
SLD-Сплошная
 62
     7
370
    25
100
AcDbLine
 10
113.9034732325
 20
146.4433449079
 30
0.0
 11
113.9034732325
 21
162.2279545987
 31
0.0
  0
LINE
  5
EF
330
1F
100
AcDbEntity
  8
0
  6
SLD-Сплошная
 62
     7
370
    25
100
AcDbLine
 10
113.9034732325
 20
142.6933449079
 30
0.0
 11
113.9034732325
 21
146.4433449079
 31
0.0
  0
LINE
  5
F0
330
1F
100
AcDbEntity
  8
0
  6
SLD-Сплошная
 62
     7
370
    25
100
AcDbLine
 10
113.9034732325
 20
134.8010400624
 30
0.0
 11
113.9034732325
 21
142.6933449079
 31
0.0
  0
LINE
  5
F1
330
1F
100
AcDbEntity
  8
0
  6
SLD-Сплошная
 62
     7
370
    25
100
AcDbLine
 10
111.9034732325
 20
154.3356497533
 30
0.0
 11
111.9034732325
 21
173.9898726016
 31
0.0
  0
LINE
  5
F2
330
1F
100
AcDbEntity
  8
0
  6
SLD-Сплошная
 62
     7
370
    25
100
AcDbLine
 10
111.9034732325
 20
134.6814269049
 30
0.0
 11
111.9034732325
 21
154.3356497533
 31
0.0
  0
LINE
  5
F3
330
1F
100
AcDbEntity
  8
0
  6
SLD-Сплошная
 62
     7
370
    25
100
AcDbLine
 10
122.9034732325
 20
162.2279545987
 30
0.0
 11
113.9034732325
 21
162.2279545987
 31
0.0
  0
LINE
  5
F4
330
1F
100
AcDbEntity
  8
0
  6
SLD-Сплошная
 62
     7
370
    25
100
AcDbLine
 10
122.9034732325
 20
162.2279545987
 30
0.0
 11
122.9034732325
 21
146.4433449079
 31
0.0
  0
LINE
  5
F5
330
1F
100
AcDbEntity
  8
0
  6
SLD-Сплошная
 62
     7
370
    25
100
AcDbLine
 10
113.9034732325
 20
146.4433449079
 30
0.0
 11
122.9034732325
 21
146.4433449079
 31
0.0
  0
LINE
  5
F6
330
1F
100
AcDbEntity
  8
0
  6
SLD-Сплошная
 62
     7
370
    25
100
AcDbLine
 10
113.9034732325
 20
165.9779545987
 30
0.0
 11
122.9034732325
 21
165.9779545987
 31
0.0
  0
LINE
  5
F7
330
1F
100
AcDbEntity
  8
0
  6
SLD-Сплошная
 62
     7
370
    25
100
AcDbLine
 10
122.9034732325
 20
165.9779545987
 30
0.0
 11
122.9034732325
 21
162.2279545987
 31
0.0
  0
LINE
  5
F8
330
1F
100
AcDbEntity
  8
0
  6
SLD-Сплошная
 62
     7
370
    25
100
AcDbLine
 10
122.9034732325
 20
142.6933449079
 30
0.0
 11
113.9034732325
 21
142.6933449079
 31
0.0
  0
LINE
  5
F9
330
1F
100
AcDbEntity
  8
0
  6
SLD-Сплошная
 62
     7
370
    25
100
AcDbLine
 10
122.9034732325
 20
146.4433449079
 30
0.0
 11
122.9034732325
 21
142.6933449079
 31
0.0
  0
LINE
  5
FA
330
1F
100
AcDbEntity
  8
0
  6
SLD-Сплошная
 62
     7
370
    25
100
AcDbLine
 10
134.9130921758
 20
151.2655656592
 30
0.0
 11
141.7554907641
 21
151.2655656592
 31
0.0
  0
LINE
  5
FB
330
1F
100
AcDbEntity
  8
0
  6
SLD-Сплошная
 62
     7
370
    25
100
AcDbLine
 10
134.9130921758
 20
157.4057338474
 30
0.0
 11
141.7554907641
 21
157.4057338474
 31
0.0
  0
LINE
  5
FC
330
1F
100
AcDbEntity
  8
0
  6
SLD-Сплошная
 62
     7
370
    25
100
AcDbLine
 10
134.9130921758
 20
157.4057338474
 30
0.0
 11
122.9034732325
 21
157.4057338474
 31
0.0
  0
LINE
  5
FD
330
1F
100
AcDbEntity
  8
0
  6
SLD-Сплошная
 62
     7
370
    25
100
AcDbLine
 10
134.9130921758
 20
151.2655656592
 30
0.0
 11
122.9034732325
 21
151.2655656592
 31
0.0
  0
LINE
  5
FE
330
1F
100
AcDbEntity
  8
0
  6
SLD-Сплошная
 62
     7
370
    25
100
AcDbLine
 10
122.9034732325
 20
173.8702594441
 30
0.0
 11
113.9034732325
 21
173.8702594441
 31
0.0
  0
LINE
  5
FF
330
1F
100
AcDbEntity
  8
0
  6
SLD-Сплошная
 62
     7
370
    25
100
AcDbLine
 10
122.9034732325
 20
173.8702594441
 30
0.0
 11
122.9034732325
 21
165.9779545987
 31
0.0
  0
LINE
  5
100
330
1F
100
AcDbEntity
  8
0
  6
SLD-Сплошная
 62
     7
370
    25
100
AcDbLine
 10
113.9034732325
 20
134.8010400624
 30
0.0
 11
122.9034732325
 21
134.8010400624
 31
0.0
  0
LINE
  5
101
330
1F
100
AcDbEntity
  8
0
  6
SLD-Сплошная
 62
     7
370
    25
100
AcDbLine
 10
122.9034732325
 20
142.6933449079
 30
0.0
 11
122.9034732325
 21
134.8010400624
 31
0.0
  0
ARC
  5
102
330
1F
100
AcDbEntity
  8
0
  6
SLD-Сплошная
 62
     7
370
    25
100
AcDbCircle
 10
134.9130921758
 20
154.3356497533
 30
0.0
 40
14.68245836551855
100
AcDbArc
 50
270.0
 51
297.7766046258
  0
ARC
  5
103
330
1F
100
AcDbEntity
  8
0
  6
SLD-Сплошная
 62
     7
370
    25
100
AcDbCircle
 10
141.4522672731
 20
154.3356497533
 30
0.0
 40
3.085022014554637
100
AcDbArc
 50
275.6406475517
 51
84.3593524483
  0
ARC
  5
104
330
1F
100
AcDbEntity
  8
0
  6
SLD-Сплошная
 62
     7
370
    25
100
AcDbCircle
 10
134.9130921758
 20
154.3356497533
 30
0.0
 40
14.68245836551858
100
AcDbArc
 50
62.2233953742
 51
90.0
  0
LINE
  5
105
330
1F
100
AcDbEntity
  8
0
  6
SLD-Сплошная
 62
     7
370
    25
100
AcDbLine
 10
141.7554907641
 20
167.3262681071
 30
0.0
 11
144.4718131801
 21
165.8955309274
 31
0.0
  0
LINE
  5
106
330
1F
100
AcDbEntity
  8
0
  6
SLD-Сплошная
 62
     7
370
    25
100
AcDbLine
 10
144.4718131801
 20
142.7757685791
 30
0.0
 11
141.7554907641
 21
141.3450313995
 31
0.0
  0
LINE
  5
107
330
1F
100
AcDbEntity
  8
0
  6
SLD-Сплошная
 62
     7
370
    25
100
AcDbLine
 10
147.9034732325
 20
154.3356497533
 30
0.0
 11
147.9034732325
 21
161.8356497533
 31
0.0
  0
LINE
  5
108
330
1F
100
AcDbEntity
  8
0
  6
SLD-Сплошная
 62
     7
370
    25
100
AcDbLine
 10
147.9034732325
 20
146.8356497533
 30
0.0
 11
147.9034732325
 21
154.3356497533
 31
0.0
  0
LINE
  5
109
330
1F
100
AcDbEntity
  8
0
  6
SLD-Сплошная
 62
     7
370
    25
100
AcDbLine
 10
134.9130921758
 20
139.6531913878
 30
0.0
 11
122.9034732325
 21
139.6531913878
 31
0.0
  0
LINE
  5
10A
330
1F
100
AcDbEntity
  8
0
  6
SLD-Сплошная
 62
     7
370
    25
100
AcDbLine
 10
134.9130921758
 20
169.0181081188
 30
0.0
 11
122.9034732325
 21
169.0181081188
 31
0.0
  0
LINE
  5
10B
330
1F
100
AcDbEntity
  8
0
  6
SLD-Сплошная
 62
     7
370
    25
100
AcDbLine
 10
37.0400510462
 20
120.966574488
 30
0.0
 11
37.0400510462
 21
126.2333878794
 31
0.0
  0
LINE
  5
10C
330
1F
100
AcDbEntity
  8
0
  6
SLD-Сплошная
 62
     7
370
    25
100
AcDbLine
 10
40.3400510462
 20
126.2333878794
 30
0.0
 11
40.3400510462
 21
120.966574488
 31
0.0
  0
LINE
  5
10D
330
1F
100
AcDbEntity
  8
0
  6
SLD-Сплошная
 62
     7
370
    25
100
AcDbLine
 10
-1.1099489538
 20
140.0856497533
 30
0.0
 11
-1.1099489538
 21
147.0856497533
 31
0.0
  0
LINE
  5
10E
330
1F
100
AcDbEntity
  8
0
  6
SLD-Сплошная
 62
     7
370
    25
100
AcDbLine
 10
12.5400510462
 20
125.4606497533
 30
0.0
 11
12.5400510462
 21
128.466574488
 31
0.0
  0
LINE
  5
10F
330
1F
100
AcDbEntity
  8
0
  6
SLD-Сплошная
 62
     7
370
    25
100
AcDbLine
 10
0.2400510462
 20
125.4606497533
 30
0.0
 11
0.2400510462
 21
128.466574488
 31
0.0
  0
LINE
  5
110
330
1F
100
AcDbEntity
  8
0
  6
SLD-Сплошная
 62
     7
370
    25
100
AcDbLine
 10
12.5400510462
 20
128.466574488
 30
0.0
 11
12.5400510462
 21
129.894801947
 31
0.0
  0
LINE
  5
111
330
1F
100
AcDbEntity
  8
0
  6
SLD-Сплошная
 62
     7
370
    25
100
AcDbLine
 10
0.2400510462
 20
128.466574488
 30
0.0
 11
0.2400510462
 21
129.894801947
 31
0.0
  0
LINE
  5
112
330
1F
100
AcDbEntity
  8
0
  6
SLD-Сплошная
 62
     7
370
    25
100
AcDbLine
 10
84.0400510462
 20
178.23512405
 30
0.0
 11
84.0400510462
 21
189.2271604896
 31
0.0
  0
SPLINE
  5
113
330
1F
100
AcDbEntity
  8
0
  6
SLD-Сплошная
 62
     7
370
    25
100
AcDbSpline
210
0.0
220
0.0
230
1.0
 70
     8
 71
     3
 72
    22
 73
    18
 74
     0
 42
0.00000001
 43
0.00000001
 40
0.0
 40
0.0
 40
0.0
 40
0.0
 40
0.2499999999999982
 40
0.2499999999999982
 40
0.3124999999999979
 40
0.3124999999999979
 40
0.3749999999999976
 40
0.3749999999999976
 40
0.4999999999999979
 40
0.4999999999999979
 40
0.7499999999999991
 40
0.7499999999999991
 40
0.8124999999999993
 40
0.8124999999999993
 40
0.8749999999999996
 40
0.8749999999999996
 40
1.0
 40
1.0
 40
1.0
 40
1.0
 10
65.34939151852788
 20
178.8319625025642
 30
0.0
 10
66.96515310471094
 20
178.9657710075892
 30
0.0
 10
68.53747633335946
 20
179.3021359120029
 30
0.0
 10
70.44878296860263
 20
179.9748523787111
 30
0.0
 10
70.82939058349022
 20
180.12269753656
 30
0.0
 10
71.5780116093038
 20
180.4416885111699
 30
0.0
 10
71.94622327334605
 20
180.6128037192696
 30
0.0
 10
73.03275270000783
 20
181.1606446426337
 30
0.0
 10
73.73444844036803
 20
181.572685448223
 30
0.0
 10
75.7572445686209
 20
182.9425142423214
 30
0.0
 10
76.9628628541955
 20
184.0073712816035
 30
0.0
 10
78.29632061541753
 20
185.5226045184564
 30
0.0
 10
78.55419975194178
 20
185.8350016147078
 30
0.0
 10
79.05191216051661
 20
186.4789434437535
 30
0.0
 10
79.29067575229124
 20
186.8092421489479
 30
0.0
 10
79.97032804540926
 20
187.8152005671037
 30
0.0
 10
80.37762739568288
 20
188.5095601286304
 30
0.0
 10
80.74005104624686
 20
189.2271604896143
 30
0.0
  0
LINE
  5
114
330
1F
100
AcDbEntity
  8
0
  6
SLD-Сплошная
 62
     7
370
    25
100
AcDbLine
 10
80.7400510462
 20
189.2271604896
 30
0.0
 11
84.0400510462
 21
189.2271604896
 31
0.0
  0
LINE
  5
115
330
1F
100
AcDbEntity
  8
0
  6
SLD-Сплошная
 62
     7
370
    25
100
AcDbLine
 10
80.7400510462
 20
189.3356497533
 30
0.0
 11
80.7400510462
 21
189.2271604896
 31
0.0
  0
LINE
  5
116
330
1F
100
AcDbEntity
  8
0
  6
SLD-Сплошная
 62
     7
370
    25
100
AcDbLine
 10
84.0400510462
 20
189.2271604896
 30
0.0
 11
84.0400510462
 21
189.3356497533
 31
0.0
  0
LINE
  5
117
330
1F
100
AcDbEntity
  8
0
  6
SLD-Сплошная
 62
     7
370
    25
100
AcDbLine
 10
360.5059617901
 20
183.3356497533
 30
0.0
 11
357.2059617901
 21
183.3356497533
 31
0.0
  0
SPLINE
  5
118
330
1F
100
AcDbEntity
  8
0
  6
SLD-Сплошная
 62
     7
370
    25
100
AcDbSpline
210
0.0
220
0.0
230
1.0
 70
     8
 71
     3
 72
    10
 73
     6
 74
     0
 42
0.00000001
 43
0.00000001
 40
0.0
 40
0.0
 40
0.0
 40
0.0
 40
0.0537554113207024
 40
0.5293915877002786
 40
1.0
 40
1.0
 40
1.0
 40
1.0
 10
292.6250188321999
 20
146.5140764256329
 30
0.0
 10
292.6113833637806
 20
146.462654110411
 30
0.0
 10
292.4770991661875
 20
145.956239213199
 30
0.0
 10
292.3902261020442
 20
144.9836403011308
 30
0.0
 10
292.3502598250079
 20
144.1202910832038
 30
0.0
 10
292.3303828646464
 20
143.6909101286707
 30
0.0
  0
ARC
  5
119
330
1F
100
AcDbEntity
  8
0
  6
SLD-Сплошная
 62
     7
370
    25
100
AcDbCircle
 10
328.5517851333
 20
309.6485542446
 30
0.0
 40
180.0
100
AcDbArc
 50
267.4850048021
 51
271.1632404661
  0
ARC
  5
11A
330
1F
100
AcDbEntity
  8
0
  6
SLD-Сплошная
 62
     7
370
    25
100
AcDbCircle
 10
328.5517851333
 20
309.6485542446
 30
0.0
 40
180.0
100
AcDbArc
 50
259.8243179271
 51
265.6564592771
  0
ARC
  5
11B
330
1F
100
AcDbEntity
  8
0
  6
SLD-Сплошная
 62
     7
370
    25
100
AcDbCircle
 10
328.5517851333
 20
-0.9772547381
 30
0.0
 40
179.9999999999999
100
AcDbArc
 50
94.7948289381
 51
101.6168319539
  0
LINE
  5
11C
330
1F
100
AcDbEntity
  8
0
  6
SLD-Сплошная
 62
     7
370
    25
100
AcDbLine
 10
345.0782431133
 20
129.6856497533
 30
0.0
 11
357.2059617901
 21
129.6856497533
 31
0.0
  0
LINE
  5
11D
330
1F
100
AcDbEntity
  8
0
  6
SLD-Сплошная
 62
     7
370
    25
100
AcDbLine
 10
332.2059617901
 20
129.6856497533
 30
0.0
 11
339.3336804668
 21
129.6856497533
 31
0.0
  0
LINE
  5
11E
330
1F
100
AcDbEntity
  8
0
  6
SLD-Сплошная
 62
     7
370
    25
100
AcDbLine
 10
357.2059617901
 20
178.9856497533
 30
0.0
 11
332.2059617901
 21
178.9856497533
 31
0.0
  0
LINE
  5
11F
330
1F
100
AcDbEntity
  8
0
  6
SLD-Сплошная
 62
     7
370
    25
100
AcDbLine
 10
360.5059617901
 20
129.7106497533
 30
0.0
 11
365.3309617901
 21
129.7106497533
 31
0.0
  0
LINE
  5
120
330
1F
100
AcDbEntity
  8
0
  6
SLD-Сплошная
 62
     7
370
    25
100
AcDbLine
 10
365.3309617901
 20
178.9606497533
 30
0.0
 11
360.5059617901
 21
178.9606497533
 31
0.0
  0
LINE
  5
121
330
1F
100
AcDbEntity
  8
0
  6
SLD-Сплошная
 62
     7
370
    25
100
AcDbLine
 10
384.1809617901
 20
129.7106497533
 30
0.0
 11
385.0059617901
 21
129.7106497533
 31
0.0
  0
LINE
  5
122
330
1F
100
AcDbEntity
  8
0
  6
SLD-Сплошная
 62
     7
370
    25
100
AcDbLine
 10
397.3059617901
 20
178.9606497533
 30
0.0
 11
384.1809617901
 21
178.9606497533
 31
0.0
  0
LINE
  5
123
330
1F
100
AcDbEntity
  8
0
  6
SLD-Сплошная
 62
     7
370
    25
100
AcDbLine
 10
365.3309617901
 20
130.5356497533
 30
0.0
 11
384.1809617901
 21
130.5356497533
 31
0.0
  0
LINE
  5
124
330
1F
100
AcDbEntity
  8
0
  6
SLD-Сплошная
 62
     7
370
    25
100
AcDbLine
 10
384.1809617901
 20
178.1356497533
 30
0.0
 11
365.3309617901
 21
178.1356497533
 31
0.0
  0
ARC
  5
125
330
1F
100
AcDbEntity
  8
0
  6
SLD-Сплошная
 62
     7
370
    25
100
AcDbCircle
 10
294.6112163427
 20
133.3356497533
 30
0.0
 40
2.305254552644499
100
AcDbArc
 50
180.0
 51
338.2074859732
  0
LINE
  5
126
330
1F
100
AcDbEntity
  8
0
  6
SLD-Сплошная
 62
     7
370
    25
100
AcDbLine
 10
283.6425396038
 20
134.6814269049
 30
0.0
 11
285.6425396038
 21
134.6814269049
 31
0.0
  0
LINE
  5
127
330
1F
100
AcDbEntity
  8
0
  6
SLD-Сплошная
 62
     7
370
    25
100
AcDbLine
 10
285.6425396038
 20
173.9898726016
 30
0.0
 11
283.6425396038
 21
173.9898726016
 31
0.0
  0
ARC
  5
128
330
1F
100
AcDbEntity
  8
0
  6
SLD-Сплошная
 62
     7
370
    25
100
AcDbCircle
 10
262.6329206605
 20
154.3356497533
 30
0.0
 40
14.99999999999999
100
AcDbArc
 50
210.0
 51
230.4130804784
  0
ARC
  5
129
330
1F
100
AcDbEntity
  8
0
  6
SLD-Сплошная
 62
     7
370
    25
100
AcDbCircle
 10
262.6329206605
 20
154.3356497533
 30
0.0
 40
15.00000000000002
100
AcDbArc
 50
129.5869195216
 51
150.0
  0
LINE
  5
12A
330
1F
100
AcDbEntity
  8
0
  6
SLD-Сплошная
 62
     7
370
    25
100
AcDbLine
 10
292.3059617901
 20
165.3356497533
 30
0.0
 11
285.6425396038
 21
165.3356497533
 31
0.0
  0
LINE
  5
12B
330
1F
100
AcDbEntity
  8
0
  6
SLD-Сплошная
 62
     7
370
    25
100
AcDbLine
 10
285.6425396038
 20
143.3356497533
 30
0.0
 11
292.3059617901
 21
143.3356497533
 31
0.0
  0
LINE
  5
12C
330
1F
100
AcDbEntity
  8
0
  6
SLD-Сплошная
 62
     7
370
    25
100
AcDbLine
 10
357.2059617901
 20
120.966574488
 30
0.0
 11
360.5059617901
 21
120.966574488
 31
0.0
  0
LINE
  5
12D
330
1F
100
AcDbEntity
  8
0
  6
SLD-Сплошная
 62
     7
370
    25
100
AcDbLine
 10
397.3059617901
 20
140.0856497533
 30
0.0
 11
398.6559617901
 21
140.0856497533
 31
0.0
  0
LINE
  5
12E
330
1F
100
AcDbEntity
  8
0
  6
SLD-Сплошная
 62
     7
370
    25
100
AcDbLine
 10
398.6559617901
 20
147.0856497533
 30
0.0
 11
397.3059617901
 21
147.0856497533
 31
0.0
  0
LINE
  5
12F
330
1F
100
AcDbEntity
  8
0
  6
SLD-Сплошная
 62
     7
370
    25
100
AcDbLine
 10
253.1444217079
 20
167.7042094223
 30
0.0
 11
253.0741996562
 21
165.8955309274
 31
0.0
  0
LINE
  5
130
330
1F
100
AcDbEntity
  8
0
  6
SLD-Сплошная
 62
     7
370
    25
100
AcDbLine
 10
253.0741996562
 20
142.7757685791
 30
0.0
 11
253.1444217079
 21
140.9670900842
 31
0.0
  0
LINE
  5
131
330
1F
100
AcDbEntity
  8
0
  6
SLD-Сплошная
 62
     7
370
    25
100
AcDbLine
 10
385.0059617901
 20
125.4606497533
 30
0.0
 11
397.3059617901
 21
125.4606497533
 31
0.0
  0
LINE
  5
132
330
1F
100
AcDbEntity
  8
0
  6
SLD-Сплошная
 62
     7
370
    25
100
AcDbLine
 10
316.8059617901
 20
189.3356497533
 30
0.0
 11
313.5059617901
 21
189.3356497533
 31
0.0
  0
ARC
  5
133
330
1F
100
AcDbEntity
  8
0
  6
SLD-Сплошная
 62
     7
370
    25
100
AcDbCircle
 10
333.7549334396
 20
197.9224046714
 30
0.0
 40
19.0
100
AcDbArc
 50
206.8678653948
 51
265.3272441202
  0
ARC
  5
134
330
1F
100
AcDbEntity
  8
0
  6
SLD-Сплошная
 62
     7
370
    25
100
AcDbCircle
 10
255.6425396038
 20
167.6072198443
 30
0.0
 40
2.500000000000021
100
AcDbArc
 50
117.7766046258
 51
177.7766046258
  0
ARC
  5
135
330
1F
100
AcDbEntity
  8
0
  6
SLD-Сплошная
 62
     7
370
    25
100
AcDbCircle
 10
262.6329206605
 20
154.3356497533
 30
0.0
 40
17.5
100
AcDbArc
 50
90.0
 51
117.7766046258
  0
LINE
  5
136
330
1F
100
AcDbEntity
  8
0
  6
SLD-Сплошная
 62
     7
370
    25
100
AcDbLine
 10
274.6425396038
 20
171.8356497533
 30
0.0
 11
262.6329206605
 21
171.8356497533
 31
0.0
  0
ARC
  5
137
330
1F
100
AcDbEntity
  8
0
  6
SLD-Сплошная
 62
     7
370
    25
100
AcDbCircle
 10
255.6425396038
 20
141.0640796622
 30
0.0
 40
2.50000000000002
100
AcDbArc
 50
182.2233953742
 51
242.2233953742
  0
ARC
  5
138
330
1F
100
AcDbEntity
  8
0
  6
SLD-Сплошная
 62
     7
370
    25
100
AcDbCircle
 10
262.6329206605
 20
154.3356497533
 30
0.0
 40
17.49999999999998
100
AcDbArc
 50
242.2233953742
 51
270.0
  0
LINE
  5
139
330
1F
100
AcDbEntity
  8
0
  6
SLD-Сплошная
 62
     7
370
    25
100
AcDbLine
 10
262.6329206605
 20
136.8356497533
 30
0.0
 11
274.6425396038
 21
136.8356497533
 31
0.0
  0
LINE
  5
13A
330
1F
100
AcDbEntity
  8
0
  6
SLD-Сплошная
 62
     7
370
    25
100
AcDbLine
 10
360.5059617901
 20
126.2333878794
 30
0.0
 11
360.5059617901
 21
183.3356497533
 31
0.0
  0
LINE
  5
13B
330
1F
100
AcDbEntity
  8
0
  6
SLD-Сплошная
 62
     7
370
    25
100
AcDbLine
 10
360.5059617901
 20
126.2333878794
 30
0.0
 11
357.2059617901
 21
126.2333878794
 31
0.0
  0
LINE
  5
13C
330
1F
100
AcDbEntity
  8
0
  6
SLD-Сплошная
 62
     7
370
    25
100
AcDbLine
 10
357.2059617901
 20
183.3356497533
 30
0.0
 11
357.2059617901
 21
126.2333878794
 31
0.0
  0
SPLINE
  5
13D
330
1F
100
AcDbEntity
  8
0
  6
SLD-Сплошная
 62
     7
370
    25
100
AcDbSpline
210
0.0
220
0.0
230
1.0
 70
     8
 71
     3
 72
    14
 73
    10
 74
     0
 42
0.00000001
 43
0.00000001
 40
0.0
 40
0.0
 40
0.0
 40
0.0
 40
0.2500000000000002
 40
0.2500000000000002
 40
0.5000000000000004
 40
0.5000000000000004
 40
0.7500000000000002
 40
0.7500000000000002
 40
1.0
 40
1.0
 40
1.0
 40
1.0
 10
350.2521705290279
 20
153.525168324892
 30
0.0
 10
349.3056644363054
 20
153.1726111817758
 30
0.0
 10
348.3330978289845
 20
152.8975450188507
 30
0.0
 10
346.3672937816497
 20
152.4486224045608
 30
0.0
 10
345.3749655279379
 20
152.2758252768779
 30
0.0
 10
343.3718225012434
 20
152.0310764413356
 30
0.0
 10
342.3666385165993
 20
151.9604601302747
 30
0.0
 10
340.3583862647469
 20
151.932041173518
 30
0.0
 10
339.3538144793237
 20
151.9765792008222
 30
0.0
 10
338.3488222144109
 20
152.0766267126562
 30
0.0
  0
SPLINE
  5
13E
330
1F
100
AcDbEntity
  8
0
  6
SLD-Сплошная
 62
     7
370
    25
100
AcDbSpline
210
0.0
220
0.0
230
1.0
 70
     8
 71
     3
 72
    16
 73
    12
 74
     0
 42
0.00000001
 43
0.00000001
 40
0.0
 40
0.0
 40
0.0
 40
0.0
 40
0.25
 40
0.25
 40
0.5
 40
0.5
 40
0.75
 40
0.75
 40
0.875
 40
0.875
 40
1.0
 40
1.0
 40
1.0
 40
1.0
 10
338.7902394813435
 20
156.5909355938283
 30
0.0
 10
339.6264534312061
 20
156.5078481212346
 30
0.0
 10
340.4624778040013
 20
156.4691570974221
 30
0.0
 10
342.1340858486897
 20
156.4951111244748
 30
0.0
 10
342.9712091209234
 20
156.5539145950004
 30
0.0
 10
344.6381196615748
 20
156.7547223309186
 30
0.0
 10
345.4662967564865
 20
156.8992868423268
 30
0.0
 10
346.6936290859855
 20
157.1748968923914
 30
0.0
 10
347.1002084084017
 20
157.2758024763717
 30
0.0
 10
347.9051322377143
 20
157.5069609952776
 30
0.0
 10
348.3034603795666
 20
157.6372701811916
 30
0.0
 10
348.6976233813734
 20
157.782333003327
 30
0.0
  0
SPLINE
  5
13F
330
1F
100
AcDbEntity
  8
0
  6
SLD-Сплошная
 62
     7
370
    25
100
AcDbSpline
210
0.0
220
0.0
230
1.0
 70
     8
 71
     3
 72
     8
 73
     4
 74
     0
 42
0.00000001
 43
0.00000001
 40
0.0
 40
0.0
 40
0.0
 40
0.0
 40
1.0
 40
1.0
 40
1.0
 40
1.0
 10
348.6976233813734
 20
157.782333003327
 30
0.0
 10
351.5363085154673
 20
158.827047182024
 30
0.0
 10
354.3732832755001
 20
159.8662868069787
 30
0.0
 10
357.2059617900579
 20
160.8987345075108
 30
0.0
  0
SPLINE
  5
140
330
1F
100
AcDbEntity
  8
0
  6
SLD-Сплошная
 62
     7
370
    25
100
AcDbSpline
210
0.0
220
0.0
230
1.0
 70
     8
 71
     3
 72
    10
 73
     6
 74
     0
 42
0.00000001
 43
0.00000001
 40
0.0
 40
0.0
 40
0.0
 40
0.0
 40
0.5000000000000001
 40
0.5000000000000001
 40
1.0
 40
1.0
 40
1.0
 40
1.0
 10
357.2059617900579
 20
156.1276333365073
 30
0.0
 10
356.0486433625899
 20
155.6903341862436
 30
0.0
 10
354.8895316981886
 20
155.2570089659571
 30
0.0
 10
352.5712974749138
 20
154.3899359920032
 30
0.0
 10
351.4118420096821
 20
153.9571258868311
 30
0.0
 10
350.2521705290279
 20
153.525168324892
 30
0.0
  0
SPLINE
  5
141
330
1F
100
AcDbEntity
  8
0
  6
SLD-Сплошная
 62
     7
370
    25
100
AcDbSpline
210
0.0
220
0.0
230
1.0
 70
     8
 71
     3
 72
    32
 73
    28
 74
     0
 42
0.00000001
 43
0.00000001
 40
0.0
 40
0.0
 40
0.0
 40
0.0
 40
0.0624999999999999
 40
0.0624999999999999
 40
0.1249999999999998
 40
0.1249999999999998
 40
0.1874999999999997
 40
0.1874999999999997
 40
0.2499999999999996
 40
0.2499999999999996
 40
0.3749999999999994
 40
0.3749999999999994
 40
0.4374999999999994
 40
0.4374999999999994
 40
0.4999999999999993
 40
0.4999999999999993
 40
0.5624999999999992
 40
0.5624999999999992
 40
0.6249999999999991
 40
0.6249999999999991
 40
0.749999999999999
 40
0.749999999999999
 40
0.8124999999999994
 40
0.8124999999999994
 40
0.8749999999999998
 40
0.8749999999999998
 40
1.0
 40
1.0
 40
1.0
 40
1.0
 10
309.6219889371222
 20
154.9469272754349
 30
0.0
 10
309.2018943379611
 20
154.9891467965128
 30
0.0
 10
308.7839393901039
 20
155.0027077151809
 30
0.0
 10
307.9510652723446
 20
154.9900619297524
 30
0.0
 10
307.5361716035925
 20
154.9635049526373
 30
0.0
 10
306.7095136681004
 20
154.8698579552977
 30
0.0
 10
306.2978428724485
 20
154.8013847733893
 30
0.0
 10
305.478164414301
 20
154.6179591540965
 30
0.0
 10
305.0733622886265
 20
154.5036572152366
 30
0.0
 10
303.8925679285981
 20
154.0982760287644
 30
0.0
 10
303.1407552865658
 20
153.7476011273058
 30
0.0
 10
302.0652438847798
 20
153.1079703500124
 30
0.0
 10
301.7159094262219
 20
152.8749380477196
 30
0.0
 10
301.052887199988
 20
152.3795526128468
 30
0.0
 10
300.7371660000733
 20
152.1158374045992
 30
0.0
 10
300.1381932183867
 20
151.5562820615359
 30
0.0
 10
299.8546231397696
 20
151.2607946454067
 30
0.0
 10
299.3183869288147
 20
150.6404344785936
 30
0.0
 10
299.0645029492914
 20
150.3135231774819
 30
0.0
 10
298.3681074704265
 20
149.3099349097993
 30
0.0
 10
297.9864014864029
 20
148.6068059012704
 30
0.0
 10
297.5290079856596
 20
147.5111982641933
 30
0.0
 10
297.3949425138568
 20
147.1372457275587
 30
0.0
 10
297.165323026928
 20
146.3908095299883
 30
0.0
 10
297.0692544699196
 20
146.0183601177962
 30
0.0
 10
296.8350994826952
 20
144.9042936249147
 30
0.0
 10
296.7517243572187
 20
144.1657373665673
 30
0.0
 10
296.7517243572186
 20
143.4308830042502
 30
0.0
  0
LINE
  5
142
330
1F
100
AcDbEntity
  8
0
  6
SLD-Сплошная
 62
     7
370
    25
100
AcDbLine
 10
292.3303138357
 20
143.6911450286
 30
0.0
 11
292.3059617901
 21
143.8578856849
 31
0.0
  0
SPLINE
  5
143
330
1F
100
AcDbEntity
  8
0
  6
SLD-Сплошная
 62
     7
370
    25
100
AcDbSpline
210
0.0
220
0.0
230
1.0
 70
     8
 71
     3
 72
    17
 73
    13
 74
     0
 42
0.00000001
 43
0.00000001
 40
0.0
 40
0.0
 40
0.0
 40
0.0
 40
0.0657043045767975
 40
0.1609502744692118
 40
0.2586610740869559
 40
0.3601127107102191
 40
0.4642731835473393
 40
0.5700376890422121
 40
0.6784400639028514
 40
0.7924760247365811
 40
0.9099122729876467
 40
1.0
 40
1.0
 40
1.0
 40
1.0
 10
292.6365337293795
 20
146.585655809934
 30
0.0
 10
292.7301028360323
 20
147.0632560905673
 30
0.0
 10
292.9593111579924
 20
148.2331930794694
 30
0.0
 10
293.6881789087849
 20
150.1060316328837
 30
0.0
 10
294.7962342781685
 20
152.1398536288029
 30
0.0
 10
296.2548170550278
 20
154.0767853013019
 30
0.0
 10
298.0552254825927
 20
155.8170994597076
 30
0.0
 10
300.1625261587159
 20
157.2801516495431
 30
0.0
 10
302.5407406722086
 20
158.4432633264689
 30
0.0
 10
305.1662767693509
 20
159.223863153841
 30
0.0
 10
307.7395585248906
 20
159.5532483594473
 30
0.0
 10
309.3978626979801
 20
159.4643773619023
 30
0.0
 10
310.1177450800474
 20
159.4257977898023
 30
0.0
  0
SPLINE
  5
144
330
1F
100
AcDbEntity
  8
0
  6
SLD-Сплошная
 62
     7
370
    25
100
AcDbSpline
210
0.0
220
0.0
230
1.0
 70
     8
 71
     3
 72
    24
 73
    20
 74
     0
 42
0.00000001
 43
0.00000001
 40
0.0
 40
0.0
 40
0.0
 40
0.0
 40
0.1249999999999987
 40
0.1249999999999987
 40
0.1874999999999981
 40
0.1874999999999981
 40
0.2499999999999974
 40
0.2499999999999974
 40
0.3749999999999978
 40
0.3749999999999978
 40
0.4999999999999983
 40
0.4999999999999983
 40
0.6249999999999988
 40
0.6249999999999988
 40
0.7499999999999991
 40
0.7499999999999991
 40
0.8749999999999996
 40
0.8749999999999996
 40
1.0
 40
1.0
 40
1.0
 40
1.0
 10
331.9736515416615
 20
152.7130711106028
 30
0.0
 10
331.9800966480047
 20
152.7619535049677
 30
0.0
 10
331.9892416334858
 20
152.8407973947931
 30
0.0
 10
332.0041739100038
 20
152.9748461650935
 30
0.0
 10
332.0093694226455
 20
153.0223067507108
 30
0.0
 10
332.0199007884847
 20
153.1196389393654
 30
0.0
 10
332.02553386529
 20
153.1722310403505
 30
0.0
 10
332.0450130845794
 20
153.3560103924318
 30
0.0
 10
332.0610148535121
 20
153.5092700102565
 30
0.0
 10
332.100475732545
 20
153.8942751950622
 30
0.0
 10
332.1240273346766
 20
154.126983047898
 30
0.0
 10
332.1777024028774
 20
154.6659093187084
 30
0.0
 10
332.207871164611
 20
154.9727084269018
 30
0.0
 10
332.2688824294223
 20
155.6034654235843
 30
0.0
 10
332.2995372675642
 20
155.9256308718357
 30
0.0
 10
332.3521687242894
 20
156.4910319530568
 30
0.0
 10
332.3739056815983
 20
156.7317148662537
 30
0.0
 10
332.4035498571336
 20
157.0755015772435
 30
0.0
 10
332.4115246766891
 20
157.1791077816549
 30
0.0
 10
332.413856967792
 20
157.2238605834198
 30
0.0
  0
SPLINE
  5
145
330
1F
100
AcDbEntity
  8
0
  6
SLD-Сплошная
 62
     7
370
    25
100
AcDbSpline
210
0.0
220
0.0
230
1.0
 70
     8
 71
     3
 72
     8
 73
     4
 74
     0
 42
0.00000001
 43
0.00000001
 40
0.0
 40
0.0
 40
0.0
 40
0.0
 40
1.0
 40
1.0
 40
1.0
 40
1.0
 10
331.9736515416615
 20
152.7130711106028
 30
0.0
 10
324.512031123159
 20
153.4558689486539
 30
0.0
 10
317.0423186848589
 20
154.2011838909377
 30
0.0
 10
309.6219889371222
 20
154.9469272754347
 30
0.0
  0
SPLINE
  5
146
330
1F
100
AcDbEntity
  8
0
  6
SLD-Сплошная
 62
     7
370
    25
100
AcDbSpline
210
0.0
220
0.0
230
1.0
 70
     8
 71
     3
 72
     8
 73
     4
 74
     0
 42
0.00000001
 43
0.00000001
 40
0.0
 40
0.0
 40
0.0
 40
0.0
 40
1.0
 40
1.0
 40
1.0
 40
1.0
 10
310.1177450800474
 20
159.4257977898023
 30
0.0
 10
317.4418172112635
 20
158.7044142916963
 30
0.0
 10
324.824259229343
 20
157.9754251807229
 30
0.0
 10
332.205961790058
 20
157.2451280244394
 30
0.0
  0
LINE
  5
147
330
1F
100
AcDbEntity
  8
0
  6
SLD-Сплошная
 62
     7
370
    25
100
AcDbLine
 10
332.2059617901
 20
157.2451280244
 30
0.0
 11
332.4138569678
 21
157.2238605834
 31
0.0
  0
SPLINE
  5
148
330
1F
100
AcDbEntity
  8
0
  6
SLD-Сплошная
 62
     7
370
    25
100
AcDbSpline
210
0.0
220
0.0
230
1.0
 70
     8
 71
     3
 72
    14
 73
    10
 74
     0
 42
0.00000001
 43
0.00000001
 40
0.0
 40
0.0
 40
0.0
 40
0.0
 40
0.0023052483359335
 40
0.0023052483359335
 40
0.0023052483359335
 40
0.0042393693682346
 40
0.0042393693682346
 40
0.0042393693682346
 40
0.0061734915672103
 40
0.0061734915672103
 40
0.0061734915672103
 40
0.0061734915672103
 10
332.205961790058
 20
152.6889011365529
 30
0.0
 10
332.9705630939525
 20
152.6125986645922
 30
0.0
 10
333.7351655441244
 20
152.5363305757239
 30
0.0
 10
334.4997686538029
 20
152.4600969538012
 30
0.0
 10
335.1412765468009
 20
152.3961363583548
 30
0.0
 10
335.7827850157887
 20
152.3322000708337
 30
0.0
 10
336.4242937939067
 20
152.268288345597
 30
0.0
 10
337.0658029590078
 20
152.2043765818063
 30
0.0
 10
337.7073125270618
 20
152.1404893415315
 30
0.0
 10
338.3488222144109
 20
152.0766267126562
 30
0.0
  0
SPLINE
  5
149
330
1F
100
AcDbEntity
  8
0
  6
SLD-Сплошная
 62
     7
370
    25
100
AcDbSpline
210
0.0
220
0.0
230
1.0
 70
     8
 71
     3
 72
     8
 73
     4
 74
     0
 42
0.00000001
 43
0.00000001
 40
0.0
 40
0.0
 40
0.0
 40
0.0
 40
0.0002336460431188
 40
0.0002336460431188
 40
0.0002336460431188
 40
0.0002336460431188
 10
331.9736515416615
 20
152.7130711106028
 30
0.0
 10
332.0510904571946
 20
152.705021490451
 30
0.0
 10
332.1285272288377
 20
152.6969646693015
 30
0.0
 10
332.205961790058
 20
152.6889011365529
 30
0.0
  0
SPLINE
  5
14A
330
1F
100
AcDbEntity
  8
0
  6
SLD-Сплошная
 62
     7
370
    25
100
AcDbSpline
210
0.0
220
0.0
230
1.0
 70
     8
 71
     3
 72
    14
 73
    10
 74
     0
 42
0.00000001
 43
0.00000001
 40
0.0000000000000003
 40
0.0000000000000003
 40
0.0000000000000003
 40
0.0000000000000003
 40
0.0023052483336405
 40
0.0023052483336405
 40
0.0023052483336405
 40
0.0043566551527237
 40
0.0043566551527237
 40
0.0043566551527237
 40
0.0064080633557893
 40
0.0064080633557893
 40
0.0064080633557893
 40
0.0064080633557893
 10
338.7902394813431
 20
156.5909355938284
 30
0.0
 10
338.0256202361497
 20
156.6669093091557
 30
0.0
 10
337.2610014019568
 20
156.742855539729
 30
0.0
 10
336.496383432436
 20
156.8187738805215
 30
0.0
 10
335.8159610552091
 20
156.8863325045354
 30
0.0
 10
335.135539238879
 20
156.953869033752
 30
0.0
 10
334.4551183361337
 20
157.0213835006253
 30
0.0
 10
333.7746969743991
 20
157.0888980130417
 30
0.0
 10
333.094276413475
 20
157.1563904943787
 30
0.0
 10
332.413856967792
 20
157.2238605834198
 30
0.0
  0
SPLINE
  5
14B
330
1F
100
AcDbEntity
  8
0
  6
SLD-Сплошная
 62
     7
370
    25
100
AcDbSpline
210
0.0
220
0.0
230
1.0
 70
     8
 71
     3
 72
    28
 73
    24
 74
     0
 42
0.00000001
 43
0.00000001
 40
0.0
 40
0.0
 40
0.0
 40
0.0
 40
0.1249999999999998
 40
0.1249999999999998
 40
0.1874999999999997
 40
0.1874999999999997
 40
0.2499999999999995
 40
0.2499999999999995
 40
0.3749999999999992
 40
0.3749999999999992
 40
0.4374999999999993
 40
0.4374999999999993
 40
0.4999999999999993
 40
0.4999999999999993
 40
0.6249999999999994
 40
0.6249999999999994
 40
0.7499999999999997
 40
0.7499999999999997
 40
0.8124999999999997
 40
0.8124999999999997
 40
0.8749999999999997
 40
0.8749999999999997
 40
1.0
 40
1.0
 40
1.0
 40
1.0
 10
340.0373572901682
 20
145.3067102752196
 30
0.0
 10
340.4015751543552
 20
144.1842916426989
 30
0.0
 10
340.7521283805052
 20
143.1018725671645
 30
0.0
 10
341.2592032924321
 20
141.5380422544639
 30
0.0
 10
341.424969228871
 20
141.0267398683041
 30
0.0
 10
341.7496559175136
 20
140.0244262075881
 30
0.0
 10
341.9090810851851
 20
139.5319275418281
 30
0.0
 10
342.3722082859271
 20
138.0973881156796
 30
0.0
 10
342.6598444985829
 20
137.2016155292196
 30
0.0
 10
343.0633322445
 20
135.9495667495181
 30
0.0
 10
343.193067024566
 20
135.5475287207864
 30
0.0
 10
343.4424797279149
 20
134.7748137560146
 30
0.0
 10
343.5624910452112
 20
134.4030972592958
 30
0.0
 10
343.9005976781566
 20
133.352218008967
 30
0.0
 10
344.0984854493498
 20
132.7321271250392
 30
0.0
 10
344.4455965970184
 20
131.6519868889316
 30
0.0
 10
344.5950006637522
 20
131.191863549754
 30
0.0
 10
344.7762005035715
 20
130.6287193562078
 30
0.0
 10
344.8286399421763
 20
130.4641269521753
 30
0.0
 10
344.9179098997861
 20
130.1823558609754
 30
0.0
 10
344.954786552464
 20
130.0648186254258
 30
0.0
 10
345.0438657328268
 20
129.78185285401
 30
0.0
 10
345.0750268259592
 20
129.6856497532747
 30
0.0
 10
345.0782431133269
 20
129.6856497532747
 30
0.0
  0
ARC
  5
14C
330
1F
100
AcDbEntity
  8
0
  6
SLD-Сплошная
 62
     7
370
    25
100
AcDbCircle
 10
342.2059617901
 20
131.6856497533
 30
0.0
 40
3.500000000000006
100
AcDbArc
 50
214.849904579
 51
325.150095421
  0
SPLINE
  5
14D
330
1F
100
AcDbEntity
  8
0
  6
SLD-Сплошная
 62
     7
370
    25
100
AcDbSpline
210
0.0
220
0.0
230
1.0
 70
     8
 71
     3
 72
    24
 73
    20
 74
     0
 42
0.00000001
 43
0.00000001
 40
0.0
 40
0.0
 40
0.0
 40
0.0
 40
0.1249999999999999
 40
0.1249999999999999
 40
0.2499999999999999
 40
0.2499999999999999
 40
0.3749999999999998
 40
0.3749999999999998
 40
0.4999999999999998
 40
0.4999999999999998
 40
0.6249999999999998
 40
0.6249999999999998
 40
0.7499999999999998
 40
0.7499999999999998
 40
0.8124999999999999
 40
0.8124999999999999
 40
0.8749999999999999
 40
0.8749999999999999
 40
1.0
 40
1.0
 40
1.0
 40
1.0
 10
339.3336804667889
 20
129.6856497532747
 30
0.0
 10
339.3326501598418
 20
129.6856497532747
 30
0.0
 10
339.3037724288785
 20
129.7702889396699
 30
0.0
 10
339.1884062079879
 20
130.1024896308325
 30
0.0
 10
339.1018042563908
 20
130.3500563323165
 30
0.0
 10
338.8712196886315
 20
131.0119106535113
 30
0.0
 10
338.7296247971345
 20
131.4191464421244
 30
0.0
 10
338.3957168330756
 20
132.3777517773802
 30
0.0
 10
338.2033470624547
 20
132.9293021168916
 30
0.0
 10
337.7697158896561
 20
134.1785749661929
 30
0.0
 10
337.5325806790835
 20
134.8635437693439
 30
0.0
 10
337.0197144312996
 20
136.3433743481384
 30
0.0
 10
336.7437762048575
 20
137.1388026092029
 30
0.0
 10
336.3026153223522
 20
138.4151940496903
 30
0.0
 10
336.1504731181569
 20
138.8560143523259
 30
0.0
 10
335.8395517173037
 20
139.7571171395508
 30
0.0
 10
335.6807424090135
 20
140.2174472284728
 30
0.0
 10
335.194316222616
 20
141.6270944948084
 30
0.0
 10
334.8566600466638
 20
142.6049040571393
 30
0.0
 10
334.5071974677685
 20
143.6211406577603
 30
0.0
  0
SPLINE
  5
14E
330
1F
100
AcDbEntity
  8
0
  6
SLD-Сплошная
 62
     7
370
    25
100
AcDbSpline
210
0.0
220
0.0
230
1.0
 70
     8
 71
     3
 72
    26
 73
    22
 74
     0
 42
0.00000001
 43
0.00000001
 40
0.0
 40
0.0
 40
0.0
 40
0.0
 40
0.1249999999999996
 40
0.1249999999999996
 40
0.1874999999999994
 40
0.1874999999999994
 40
0.2499999999999992
 40
0.2499999999999992
 40
0.3749999999999994
 40
0.3749999999999994
 40
0.4374999999999995
 40
0.4374999999999995
 40
0.4999999999999996
 40
0.4999999999999996
 40
0.6249999999999997
 40
0.6249999999999997
 40
0.7499999999999998
 40
0.7499999999999998
 40
0.8749999999999999
 40
0.8749999999999999
 40
1.0
 40
1.0
 40
1.0
 40
1.0
 10
315.6457842818504
 20
145.1563293698111
 30
0.0
 10
316.0042117057853
 20
144.0554808658277
 30
0.0
 10
316.3500620828384
 20
142.9943213848185
 30
0.0
 10
316.8508997975107
 20
141.4613844897537
 30
0.0
 10
317.0148128277253
 20
140.9602383105181
 30
0.0
 10
317.3362373824287
 20
139.9779062896822
 30
0.0
 10
317.4941088237397
 20
139.4955068717822
 30
0.0
 10
317.9547146279367
 20
138.0876287377094
 30
0.0
 10
318.2419959554352
 20
137.20949638186
 30
0.0
 10
318.6433821111177
 20
135.9824349694053
 30
0.0
 10
318.7722240760922
 20
135.5884977373177
 30
0.0
 10
319.0196629017415
 20
134.8314597574507
 30
0.0
 10
319.1385672184037
 20
134.4673567942514
 30
0.0
 10
319.476161907006
 20
133.431974313846
 30
0.0
 10
319.6773647134683
 20
132.8165065993009
 30
0.0
 10
320.027944737355
 20
131.7433073794974
 30
0.0
 10
320.175507065537
 20
131.2909654536064
 30
0.0
 10
320.4144785897712
 20
130.5575802564259
 30
0.0
 10
320.5038896951987
 20
130.2835859232409
 30
0.0
 10
320.6210160506452
 20
129.9158553043829
 30
0.0
 10
320.6494038443621
 20
129.8221035024661
 30
0.0
 10
320.6534687202201
 20
129.8219249656396
 30
0.0
  0
SPLINE
  5
14F
330
1F
100
AcDbEntity
  8
0
  6
SLD-Сплошная
 62
     7
370
    25
100
AcDbSpline
210
0.0
220
0.0
230
1.0
 70
     8
 71
     3
 72
    24
 73
    20
 74
     0
 42
0.00000001
 43
0.00000001
 40
0.0
 40
0.0
 40
0.0
 40
0.0
 40
0.1249999999999999
 40
0.1249999999999999
 40
0.2499999999999998
 40
0.2499999999999998
 40
0.3124999999999999
 40
0.3124999999999999
 40
0.3750000000000001
 40
0.3750000000000001
 40
0.5000000000000001
 40
0.5000000000000001
 40
0.6250000000000001
 40
0.6250000000000001
 40
0.7500000000000001
 40
0.7500000000000001
 40
0.8750000000000001
 40
0.8750000000000001
 40
1.0
 40
1.0
 40
1.0
 40
1.0
 10
310.1858668297625
 20
143.6755348892734
 30
0.0
 10
310.2620786104618
 20
143.9181325954173
 30
0.0
 10
310.3718855769788
 20
144.1517246988174
 30
0.0
 10
310.6518728564409
 20
144.588283792385
 30
0.0
 10
310.8228202194704
 20
144.7917306006352
 30
0.0
 10
311.113652517632
 20
145.0614252105481
 30
0.0
 10
311.2167782101964
 20
145.1460206573757
 30
0.0
 10
311.4356640866776
 20
145.3041818914625
 30
0.0
 10
311.5515988531545
 20
145.3776829602453
 30
0.0
 10
311.9089855953224
 20
145.5753069740132
 30
0.0
 10
312.1628084330105
 20
145.6791862065832
 30
0.0
 10
312.7021399094909
 20
145.8288956851722
 30
0.0
 10
312.9793127435221
 20
145.8720866230147
 30
0.0
 10
313.5402325825158
 20
145.8953324586237
 30
0.0
 10
313.8275992326455
 20
145.8745489179681
 30
0.0
 10
314.381907170468
 20
145.7709744353341
 30
0.0
 10
314.6547880501833
 20
145.6877356600789
 30
0.0
 10
315.1753268964573
 20
145.462412652236
 30
0.0
 10
315.4189305256859
 20
145.3227803336572
 30
0.0
 10
315.6457842818505
 20
145.1563293698109
 30
0.0
  0
SPLINE
  5
150
330
1F
100
AcDbEntity
  8
0
  6
SLD-Сплошная
 62
     7
370
    25
100
AcDbSpline
210
0.0
220
0.0
230
1.0
 70
     8
 71
     3
 72
    28
 73
    24
 74
     0
 42
0.00000001
 43
0.00000001
 40
0.0
 40
0.0
 40
0.0
 40
0.0
 40
0.1250000000000005
 40
0.1250000000000005
 40
0.2500000000000009
 40
0.2500000000000009
 40
0.3125000000000011
 40
0.3125000000000011
 40
0.3750000000000012
 40
0.3750000000000012
 40
0.500000000000001
 40
0.500000000000001
 40
0.562500000000001
 40
0.562500000000001
 40
0.6250000000000009
 40
0.6250000000000009
 40
0.6875000000000008
 40
0.6875000000000008
 40
0.7500000000000007
 40
0.7500000000000007
 40
0.8750000000000004
 40
0.8750000000000004
 40
1.0
 40
1.0
 40
1.0
 40
1.0
 10
314.91919206873
 20
130.1655399888488
 30
0.0
 10
314.9181050973485
 20
130.1656225495221
 30
0.0
 10
314.8889765045395
 20
130.2474387786966
 30
0.0
 10
314.776468228425
 20
130.5679679719548
 30
0.0
 10
314.6928870612666
 20
130.8067112047209
 30
0.0
 10
314.5240534307802
 20
131.2851996404469
 30
0.0
 10
314.460794167658
 20
131.4643135472846
 30
0.0
 10
314.3221888018998
 20
131.8569656561734
 30
0.0
 10
314.2466627609923
 20
132.0710142779274
 30
0.0
 10
314.0019761388519
 20
132.7652302850653
 30
0.0
 10
313.81479727655
 20
133.29720851672
 30
0.0
 10
313.4977558326064
 20
134.1994112225675
 30
0.0
 10
313.3859748485756
 20
134.5179392172494
 30
0.0
 10
313.1529181056121
 20
135.1827348193757
 30
0.0
 10
313.0313566463228
 20
135.5298100956293
 30
0.0
 10
312.7781890836211
 20
136.2530059834537
 30
0.0
 10
312.6463220425413
 20
136.6298711144078
 30
0.0
 10
312.3741256312782
 20
137.407887139263
 30
0.0
 10
312.2337521528792
 20
137.8091617992404
 30
0.0
 10
311.7999020294505
 20
139.0492591064169
 30
0.0
 10
311.492823326581
 20
139.9264561870978
 30
0.0
 10
310.8567933743477
 20
141.7467344552563
 30
0.0
 10
310.5267774380382
 20
142.6929696710954
 30
0.0
 10
310.1858668297623
 20
143.6755348892736
 30
0.0
  0
LINE
  5
151
330
1F
100
AcDbEntity
  8
0
  6
SLD-Сплошная
 62
     7
370
    25
100
AcDbLine
 10
332.2059617901
 20
129.6856497533
 30
0.0
 11
332.2059617901
 21
152.6889011366
 31
0.0
  0
LINE
  5
152
330
1F
100
AcDbEntity
  8
0
  6
SLD-Сплошная
 62
     7
370
    25
100
AcDbLine
 10
296.7517243572
 20
143.4308830043
 30
0.0
 11
296.7517243572
 21
132.4798320202
 31
0.0
  0
LINE
  5
153
330
1F
100
AcDbEntity
  8
0
  6
SLD-Сплошная
 62
     7
370
    25
100
AcDbLine
 10
292.3059617901
 20
143.8578856849
 30
0.0
 11
292.3059617901
 21
175.3356497533
 31
0.0
  0
SPLINE
  5
154
330
1F
100
AcDbEntity
  8
0
  6
SLD-Сплошная
 62
     7
370
    25
100
AcDbSpline
210
0.0
220
0.0
230
1.0
 70
     8
 71
     3
 72
    10
 73
     6
 74
     0
 42
0.00000001
 43
0.00000001
 40
0.0
 40
0.0
 40
0.0
 40
0.0
 40
0.5
 40
0.5
 40
1.0
 40
1.0
 40
1.0
 40
1.0
 10
313.5059617900579
 20
178.2351240500437
 30
0.0
 10
316.6058319548113
 20
178.4968613660589
 30
0.0
 10
319.7182343750875
 20
178.6782163977097
 30
0.0
 10
325.9695485374277
 20
178.8777999028501
 30
0.0
 10
329.0870808770512
 20
178.8953363851799
 30
0.0
 10
332.1966213177765
 20
178.8319625025644
 30
0.0
  0
SPLINE
  5
155
330
1F
100
AcDbEntity
  8
0
  6
SLD-Сплошная
 62
     7
370
    25
100
AcDbSpline
210
0.0
220
0.0
230
1.0
 70
     8
 71
     3
 72
     8
 73
     4
 74
     0
 42
0.00000001
 43
0.00000001
 40
0.0
 40
0.0
 40
0.0
 40
0.0
 40
1.0
 40
1.0
 40
1.0
 40
1.0
 10
332.205961790055
 20
178.985649753275
 30
0.0
 10
332.205961790055
 20
178.985649753275
 30
0.0
 10
332.2028400751968
 20
178.9347424053069
 30
0.0
 10
332.1966213177745
 20
178.8319625025644
 30
0.0
  0
LINE
  5
156
330
1F
100
AcDbEntity
  8
0
  6
SLD-Сплошная
 62
     7
370
    25
100
AcDbLine
 10
332.2059617901
 20
157.2451280244
 30
0.0
 11
332.2059617901
 21
178.9856497533
 31
0.0
  0
SPLINE
  5
157
330
1F
100
AcDbEntity
  8
0
  6
SLD-Сплошная
 62
     7
370
    25
100
AcDbSpline
210
0.0
220
0.0
230
1.0
 70
     8
 71
     3
 72
    24
 73
    20
 74
     0
 42
0.00000001
 43
0.00000001
 40
0.0
 40
0.0
 40
0.0
 40
0.0
 40
0.1249999999999998
 40
0.1249999999999998
 40
0.2499999999999995
 40
0.2499999999999995
 40
0.3749999999999992
 40
0.3749999999999992
 40
0.499999999999999
 40
0.499999999999999
 40
0.6249999999999988
 40
0.6249999999999988
 40
0.7499999999999984
 40
0.7499999999999984
 40
0.8124999999999991
 40
0.8124999999999991
 40
0.8749999999999998
 40
0.8749999999999998
 40
1.0
 40
1.0
 40
1.0
 40
1.0
 10
334.5071974677685
 20
143.6211406577603
 30
0.0
 10
334.5833020172412
 20
143.8725738632555
 30
0.0
 10
334.6936082291123
 20
144.1162213643951
 30
0.0
 10
334.9759631319653
 20
144.5745825248566
 30
0.0
 10
335.1485952178163
 20
144.7895417994504
 30
0.0
 10
335.5411236108685
 20
145.1726416587215
 30
0.0
 10
335.7662098366517
 20
145.3453656344275
 30
0.0
 10
336.2492557272502
 20
145.631942997769
 30
0.0
 10
336.506981258156
 20
145.7471080479693
 30
0.0
 10
337.0559131898297
 20
145.9182953551561
 30
0.0
 10
337.3362605067936
 20
145.9708570840727
 30
0.0
 10
337.9067149525508
 20
146.0112689077552
 30
0.0
 10
338.1983063589074
 20
145.9979874220206
 30
0.0
 10
338.6200072787879
 20
145.929467820688
 30
0.0
 10
338.7589470446636
 20
145.8986070551942
 30
0.0
 10
339.0335203593607
 20
145.8206589771027
 30
0.0
 10
339.1698284796867
 20
145.7732087068792
 30
0.0
 10
339.5637240543018
 20
145.6097080720058
 30
0.0
 10
339.8092453626277
 20
145.4723868122153
 30
0.0
 10
340.0373572901682
 20
145.3067102752197
 30
0.0
  0
LINE
  5
158
330
1F
100
AcDbEntity
  8
0
  6
SLD-Сплошная
 62
     7
370
    25
100
AcDbLine
 10
365.3309617901
 20
154.3356497533
 30
0.0
 11
365.3309617901
 21
178.9606497533
 31
0.0
  0
LINE
  5
159
330
1F
100
AcDbEntity
  8
0
  6
SLD-Сплошная
 62
     7
370
    25
100
AcDbLine
 10
365.3309617901
 20
129.7106497533
 30
0.0
 11
365.3309617901
 21
154.3356497533
 31
0.0
  0
LINE
  5
15A
330
1F
100
AcDbEntity
  8
0
  6
SLD-Сплошная
 62
     7
370
    25
100
AcDbLine
 10
397.3059617901
 20
129.894801947
 30
0.0
 11
397.3059617901
 21
178.9606497533
 31
0.0
  0
LINE
  5
15B
330
1F
100
AcDbEntity
  8
0
  6
SLD-Сплошная
 62
     7
370
    25
100
AcDbLine
 10
385.0059617901
 20
129.894801947
 30
0.0
 11
397.3059617901
 21
129.894801947
 31
0.0
  0
LINE
  5
15C
330
1F
100
AcDbEntity
  8
0
  6
SLD-Сплошная
 62
     7
370
    25
100
AcDbLine
 10
384.1809617901
 20
154.3356497533
 30
0.0
 11
384.1809617901
 21
178.9606497533
 31
0.0
  0
LINE
  5
15D
330
1F
100
AcDbEntity
  8
0
  6
SLD-Сплошная
 62
     7
370
    25
100
AcDbLine
 10
384.1809617901
 20
129.7106497533
 30
0.0
 11
384.1809617901
 21
154.3356497533
 31
0.0
  0
ARC
  5
15E
330
1F
100
AcDbEntity
  8
0
  6
SLD-Сплошная
 62
     7
370
    25
100
AcDbCircle
 10
317.9059617901
 20
131.9901513534
 30
0.0
 40
3.499999999999997
100
AcDbArc
 50
211.4206705506
 51
321.7208613925
  0
LINE
  5
15F
330
1F
100
AcDbEntity
  8
0
  6
SLD-Сплошная
 62
     7
370
    25
100
AcDbLine
 10
292.3059617901
 20
133.3356497533
 30
0.0
 11
292.3059617901
 21
143.8578856849
 31
0.0
  0
LINE
  5
160
330
1F
100
AcDbEntity
  8
0
  6
SLD-Сплошная
 62
     7
370
    25
100
AcDbLine
 10
283.6425396038
 20
134.8010400624
 30
0.0
 11
283.6425396038
 21
134.6814269049
 31
0.0
  0
LINE
  5
161
330
1F
100
AcDbEntity
  8
0
  6
SLD-Сплошная
 62
     7
370
    25
100
AcDbLine
 10
283.6425396038
 20
142.6933449079
 30
0.0
 11
283.6425396038
 21
134.8010400624
 31
0.0
  0
LINE
  5
162
330
1F
100
AcDbEntity
  8
0
  6
SLD-Сплошная
 62
     7
370
    25
100
AcDbLine
 10
283.6425396038
 20
146.4433449079
 30
0.0
 11
283.6425396038
 21
142.6933449079
 31
0.0
  0
LINE
  5
163
330
1F
100
AcDbEntity
  8
0
  6
SLD-Сплошная
 62
     7
370
    25
100
AcDbLine
 10
283.6425396038
 20
162.2279545987
 30
0.0
 11
283.6425396038
 21
146.4433449079
 31
0.0
  0
LINE
  5
164
330
1F
100
AcDbEntity
  8
0
  6
SLD-Сплошная
 62
     7
370
    25
100
AcDbLine
 10
283.6425396038
 20
165.9779545987
 30
0.0
 11
283.6425396038
 21
162.2279545987
 31
0.0
  0
LINE
  5
165
330
1F
100
AcDbEntity
  8
0
  6
SLD-Сплошная
 62
     7
370
    25
100
AcDbLine
 10
283.6425396038
 20
173.8702594441
 30
0.0
 11
283.6425396038
 21
165.9779545987
 31
0.0
  0
LINE
  5
166
330
1F
100
AcDbEntity
  8
0
  6
SLD-Сплошная
 62
     7
370
    25
100
AcDbLine
 10
283.6425396038
 20
173.9898726016
 30
0.0
 11
283.6425396038
 21
173.8702594441
 31
0.0
  0
LINE
  5
167
330
1F
100
AcDbEntity
  8
0
  6
SLD-Сплошная
 62
     7
370
    25
100
AcDbLine
 10
285.6425396038
 20
173.9898726016
 30
0.0
 11
285.6425396038
 21
134.6814269049
 31
0.0
  0
LINE
  5
168
330
1F
100
AcDbEntity
  8
0
  6
SLD-Сплошная
 62
     7
370
    25
100
AcDbLine
 10
283.6425396038
 20
162.2279545987
 30
0.0
 11
274.6425396038
 21
162.2279545987
 31
0.0
  0
LINE
  5
169
330
1F
100
AcDbEntity
  8
0
  6
SLD-Сплошная
 62
     7
370
    25
100
AcDbLine
 10
274.6425396038
 20
165.9779545987
 30
0.0
 11
274.6425396038
 21
162.2279545987
 31
0.0
  0
LINE
  5
16A
330
1F
100
AcDbEntity
  8
0
  6
SLD-Сплошная
 62
     7
370
    25
100
AcDbLine
 10
274.6425396038
 20
165.9779545987
 30
0.0
 11
283.6425396038
 21
165.9779545987
 31
0.0
  0
LINE
  5
16B
330
1F
100
AcDbEntity
  8
0
  6
SLD-Сплошная
 62
     7
370
    25
100
AcDbLine
 10
274.6425396038
 20
146.4433449079
 30
0.0
 11
283.6425396038
 21
146.4433449079
 31
0.0
  0
LINE
  5
16C
330
1F
100
AcDbEntity
  8
0
  6
SLD-Сплошная
 62
     7
370
    25
100
AcDbLine
 10
274.6425396038
 20
162.2279545987
 30
0.0
 11
274.6425396038
 21
146.4433449079
 31
0.0
  0
LINE
  5
16D
330
1F
100
AcDbEntity
  8
0
  6
SLD-Сплошная
 62
     7
370
    25
100
AcDbLine
 10
283.6425396038
 20
142.6933449079
 30
0.0
 11
274.6425396038
 21
142.6933449079
 31
0.0
  0
LINE
  5
16E
330
1F
100
AcDbEntity
  8
0
  6
SLD-Сплошная
 62
     7
370
    25
100
AcDbLine
 10
274.6425396038
 20
146.4433449079
 30
0.0
 11
274.6425396038
 21
142.6933449079
 31
0.0
  0
LINE
  5
16F
330
1F
100
AcDbEntity
  8
0
  6
SLD-Сплошная
 62
     7
370
    25
100
AcDbLine
 10
262.6329206605
 20
157.4057338474
 30
0.0
 11
255.7905220722
 21
157.4057338474
 31
0.0
  0
LINE
  5
170
330
1F
100
AcDbEntity
  8
0
  6
SLD-Сплошная
 62
     7
370
    25
100
AcDbLine
 10
262.6329206605
 20
151.2655656592
 30
0.0
 11
255.7905220722
 21
151.2655656592
 31
0.0
  0
LINE
  5
171
330
1F
100
AcDbEntity
  8
0
  6
SLD-Сплошная
 62
     7
370
    25
100
AcDbLine
 10
262.6329206605
 20
151.2655656592
 30
0.0
 11
274.6425396038
 21
151.2655656592
 31
0.0
  0
LINE
  5
172
330
1F
100
AcDbEntity
  8
0
  6
SLD-Сплошная
 62
     7
370
    25
100
AcDbLine
 10
262.6329206605
 20
157.4057338474
 30
0.0
 11
274.6425396038
 21
157.4057338474
 31
0.0
  0
LINE
  5
173
330
1F
100
AcDbEntity
  8
0
  6
SLD-Сплошная
 62
     7
370
    25
100
AcDbLine
 10
274.6425396038
 20
134.8010400624
 30
0.0
 11
283.6425396038
 21
134.8010400624
 31
0.0
  0
LINE
  5
174
330
1F
100
AcDbEntity
  8
0
  6
SLD-Сплошная
 62
     7
370
    25
100
AcDbLine
 10
274.6425396038
 20
142.6933449079
 30
0.0
 11
274.6425396038
 21
134.8010400624
 31
0.0
  0
LINE
  5
175
330
1F
100
AcDbEntity
  8
0
  6
SLD-Сплошная
 62
     7
370
    25
100
AcDbLine
 10
283.6425396038
 20
173.8702594441
 30
0.0
 11
274.6425396038
 21
173.8702594441
 31
0.0
  0
LINE
  5
176
330
1F
100
AcDbEntity
  8
0
  6
SLD-Сплошная
 62
     7
370
    25
100
AcDbLine
 10
274.6425396038
 20
173.8702594441
 30
0.0
 11
274.6425396038
 21
165.9779545987
 31
0.0
  0
LINE
  5
177
330
1F
100
AcDbEntity
  8
0
  6
SLD-Сплошная
 62
     7
370
    25
100
AcDbLine
 10
253.0741996562
 20
165.8955309274
 30
0.0
 11
255.7905220722
 21
167.3262681071
 31
0.0
  0
ARC
  5
178
330
1F
100
AcDbEntity
  8
0
  6
SLD-Сплошная
 62
     7
370
    25
100
AcDbCircle
 10
262.6329206605
 20
154.3356497533
 30
0.0
 40
14.68245836551856
100
AcDbArc
 50
90.0
 51
117.7766046258
  0
ARC
  5
179
330
1F
100
AcDbEntity
  8
0
  6
SLD-Сплошная
 62
     7
370
    25
100
AcDbCircle
 10
256.0937455632
 20
154.3356497533
 30
0.0
 40
3.085022014554643
100
AcDbArc
 50
95.6406475517
 51
264.3593524483
  0
ARC
  5
17A
330
1F
100
AcDbEntity
  8
0
  6
SLD-Сплошная
 62
     7
370
    25
100
AcDbCircle
 10
262.6329206605
 20
154.3356497533
 30
0.0
 40
14.68245836551859
100
AcDbArc
 50
242.2233953742
 51
270.0
  0
LINE
  5
17B
330
1F
100
AcDbEntity
  8
0
  6
SLD-Сплошная
 62
     7
370
    25
100
AcDbLine
 10
255.7905220722
 20
141.3450313995
 30
0.0
 11
253.0741996562
 21
142.7757685791
 31
0.0
  0
LINE
  5
17C
330
1F
100
AcDbEntity
  8
0
  6
SLD-Сплошная
 62
     7
370
    25
100
AcDbLine
 10
249.6425396038
 20
161.8356497533
 30
0.0
 11
249.6425396038
 21
146.8356497533
 31
0.0
  0
LINE
  5
17D
330
1F
100
AcDbEntity
  8
0
  6
SLD-Сплошная
 62
     7
370
    25
100
AcDbLine
 10
262.6329206605
 20
169.0181081188
 30
0.0
 11
274.6425396038
 21
169.0181081188
 31
0.0
  0
LINE
  5
17E
330
1F
100
AcDbEntity
  8
0
  6
SLD-Сплошная
 62
     7
370
    25
100
AcDbLine
 10
262.6329206605
 20
139.6531913878
 30
0.0
 11
274.6425396038
 21
139.6531913878
 31
0.0
  0
LINE
  5
17F
330
1F
100
AcDbEntity
  8
0
  6
SLD-Сплошная
 62
     7
370
    25
100
AcDbLine
 10
360.5059617901
 20
126.2333878794
 30
0.0
 11
360.5059617901
 21
120.966574488
 31
0.0
  0
LINE
  5
180
330
1F
100
AcDbEntity
  8
0
  6
SLD-Сплошная
 62
     7
370
    25
100
AcDbLine
 10
357.2059617901
 20
120.966574488
 30
0.0
 11
357.2059617901
 21
126.2333878794
 31
0.0
  0
LINE
  5
181
330
1F
100
AcDbEntity
  8
0
  6
SLD-Сплошная
 62
     7
370
    25
100
AcDbLine
 10
398.6559617901
 20
144.6924469343
 30
0.0
 11
398.6559617901
 21
140.0856497533
 31
0.0
  0
LINE
  5
182
330
1F
100
AcDbEntity
  8
0
  6
SLD-Сплошная
 62
     7
370
    25
100
AcDbLine
 10
398.6559617901
 20
147.0856497533
 30
0.0
 11
398.6559617901
 21
144.6924469343
 31
0.0
  0
LINE
  5
183
330
1F
100
AcDbEntity
  8
0
  6
SLD-Сплошная
 62
     7
370
    25
100
AcDbLine
 10
385.0059617901
 20
129.894801947
 30
0.0
 11
385.0059617901
 21
128.466574488
 31
0.0
  0
LINE
  5
184
330
1F
100
AcDbEntity
  8
0
  6
SLD-Сплошная
 62
     7
370
    25
100
AcDbLine
 10
397.3059617901
 20
129.894801947
 30
0.0
 11
397.3059617901
 21
128.466574488
 31
0.0
  0
LINE
  5
185
330
1F
100
AcDbEntity
  8
0
  6
SLD-Сплошная
 62
     7
370
    25
100
AcDbLine
 10
385.0059617901
 20
128.466574488
 30
0.0
 11
385.0059617901
 21
125.4606497533
 31
0.0
  0
LINE
  5
186
330
1F
100
AcDbEntity
  8
0
  6
SLD-Сплошная
 62
     7
370
    25
100
AcDbLine
 10
397.3059617901
 20
128.466574488
 30
0.0
 11
397.3059617901
 21
125.4606497533
 31
0.0
  0
LINE
  5
187
330
1F
100
AcDbEntity
  8
0
  6
SLD-Сплошная
 62
     7
370
    25
100
AcDbLine
 10
313.5059617901
 20
189.2271604896
 30
0.0
 11
316.8059617901
 21
189.2271604896
 31
0.0
  0
SPLINE
  5
188
330
1F
100
AcDbEntity
  8
0
  6
SLD-Сплошная
 62
     7
370
    25
100
AcDbSpline
210
0.0
220
0.0
230
1.0
 70
     8
 71
     3
 72
    22
 73
    18
 74
     0
 42
0.00000001
 43
0.00000001
 40
0.0
 40
0.0
 40
0.0
 40
0.0
 40
0.2499999999999997
 40
0.2499999999999997
 40
0.3749999999999997
 40
0.3749999999999997
 40
0.4999999999999998
 40
0.4999999999999998
 40
0.6249999999999998
 40
0.6249999999999998
 40
0.7499999999999999
 40
0.7499999999999999
 40
0.8125
 40
0.8125
 40
0.8750000000000001
 40
0.8750000000000001
 40
1.0
 40
1.0
 40
1.0
 40
1.0
 10
316.8059617900579
 20
189.2271604896143
 30
0.0
 10
317.5372324471839
 20
187.7792414956029
 30
0.0
 10
318.4376067594541
 20
186.4473563257338
 30
0.0
 10
320.0406951112027
 20
184.6228048963184
 30
0.0
 10
320.6192559321213
 20
184.0433437779719
 30
0.0
 10
321.8365157429209
 20
182.9711519248351
 30
0.0
 10
322.478124035543
 20
182.4747027636635
 30
0.0
 10
323.8283292988849
 20
181.5623385313244
 30
0.0
 10
324.5276872858994
 20
181.1529001059957
 30
0.0
 10
325.9653390746487
 20
180.4289654104214
 30
0.0
 10
326.7049059582938
 20
180.1136185746359
 30
0.0
 10
327.8456264022929
 20
179.7111104343587
 30
0.0
 10
328.2311104031933
 20
179.5887279128343
 30
0.0
 10
329.0128054163748
 20
179.3680744854992
 30
0.0
 10
329.4094992013606
 20
179.2698098575889
 30
0.0
 10
330.5985876329301
 20
179.0155909884014
 30
0.0
 10
331.3955410316949
 20
178.8983035744168
 30
0.0
 10
332.1966213177765
 20
178.8319625025642
 30
0.0
  0
LINE
  5
189
330
1F
100
AcDbEntity
  8
0
  6
SLD-Сплошная
 62
     7
370
    25
100
AcDbLine
 10
313.5059617901
 20
178.23512405
 30
0.0
 11
313.5059617901
 21
189.2271604896
 31
0.0
  0
ARC
  5
18A
330
1F
100
AcDbEntity
  8
0
  6
SLD-Сплошная
 62
     7
370
    25
100
AcDbCircle
 10
323.0032042008
 20
179.8835556368
 30
0.0
 40
0.9999941932314912
100
AcDbArc
 50
271.766650931
 51
59.2036172251
  0
ARC
  5
18B
330
1F
100
AcDbEntity
  8
0
  6
SLD-Сплошная
 62
     7
370
    25
100
AcDbCircle
 10
323.0032026845
 20
179.8835497806
 30
0.0
 40
1.000000000000042
100
AcDbArc
 50
271.7667480988
 51
59.2037143929
  0
LINE
  5
18C
330
1F
100
AcDbEntity
  8
0
  6
SLD-Сплошная
 62
     7
370
    25
100
AcDbLine
 10
316.8059617901
 20
189.2271604896
 30
0.0
 11
316.8059617901
 21
189.3356497533
 31
0.0
  0
LINE
  5
18D
330
1F
100
AcDbEntity
  8
0
  6
SLD-Сплошная
 62
     7
370
    25
100
AcDbLine
 10
313.5059617901
 20
189.3356497533
 30
0.0
 11
313.5059617901
 21
189.2271604896
 31
0.0
  0
LINE
  5
18E
330
1F
100
AcDbEntity
  8
0
  6
SLD-Сплошная
 62
     7
370
    25
100
AcDbLine
 10
40.3400510462
 20
263.1478869368
 30
0.0
 11
37.0400510462
 21
263.1478869368
 31
0.0
  0
LINE
  5
18F
330
1F
100
AcDbEntity
  8
0
  6
SLD-Сплошная
 62
     7
370
    25
100
AcDbLine
 10
37.0400510462
 20
205.1478869368
 30
0.0
 11
40.3400510462
 21
205.1478869368
 31
0.0
  0
LINE
  5
190
330
1F
100
AcDbEntity
  8
0
  6
SLD-Сплошная
 62
     7
370
    25
100
AcDbLine
 10
56.9369410133
 20
212.0112360974
 30
0.0
 11
57.9964526093
 21
210.7185457558
 31
0.0
  0
LINE
  5
191
330
1F
100
AcDbEntity
  8
0
  6
SLD-Сплошная
 62
     7
370
    25
100
AcDbLine
 10
57.9964526093
 20
257.5772281178
 30
0.0
 11
56.9369410133
 21
256.2845377762
 31
0.0
  0
ARC
  5
192
330
1F
100
AcDbEntity
  8
0
  6
SLD-Сплошная
 62
     7
370
    25
100
AcDbCircle
 10
68.9942277031
 20
389.4607914281
 30
0.0
 40
180.0
100
AcDbArc
 50
274.0855362714
 51
277.6077924022
  0
ARC
  5
193
330
1F
100
AcDbEntity
  8
0
  6
SLD-Сплошная
 62
     7
370
    25
100
AcDbCircle
 10
68.9942277031
 20
78.8349824454
 30
0.0
 40
180.0
100
AcDbArc
 50
82.3864206712
 51
85.9426302469
  0
LINE
  5
194
330
1F
100
AcDbEntity
  8
0
  6
SLD-Сплошная
 62
     7
370
    25
100
AcDbLine
 10
45.1205336173
 20
258.7978869368
 30
0.0
 11
40.3400510462
 21
258.7978869368
 31
0.0
  0
LINE
  5
195
330
1F
100
AcDbEntity
  8
0
  6
SLD-Сплошная
 62
     7
370
    25
100
AcDbLine
 10
40.3400510462
 20
209.4978869368
 30
0.0
 11
45.1212643985
 21
209.4978869368
 31
0.0
  0
LINE
  5
196
330
1F
100
AcDbEntity
  8
0
  6
SLD-Сплошная
 62
     7
370
    25
100
AcDbLine
 10
37.0400510462
 20
258.7728869368
 30
0.0
 11
32.2150510462
 21
258.7728869368
 31
0.0
  0
LINE
  5
197
330
1F
100
AcDbEntity
  8
0
  6
SLD-Сплошная
 62
     7
370
    25
100
AcDbLine
 10
32.2150510462
 20
209.5228869368
 30
0.0
 11
37.0400510462
 21
209.5228869368
 31
0.0
  0
LINE
  5
198
330
1F
100
AcDbEntity
  8
0
  6
SLD-Сплошная
 62
     7
370
    25
100
AcDbLine
 10
13.3650510462
 20
258.7728869368
 30
0.0
 11
0.2400510462
 21
258.7728869368
 31
0.0
  0
LINE
  5
199
330
1F
100
AcDbEntity
  8
0
  6
SLD-Сплошная
 62
     7
370
    25
100
AcDbLine
 10
0.2400510462
 20
209.5228869368
 30
0.0
 11
13.3650510462
 21
209.5228869368
 31
0.0
  0
LINE
  5
19A
330
1F
100
AcDbEntity
  8
0
  6
SLD-Сплошная
 62
     7
370
    25
100
AcDbLine
 10
14.4282034477
 20
257.9478869368
 30
0.0
 11
13.3650510462
 21
257.9478869368
 31
0.0
  0
LINE
  5
19B
330
1F
100
AcDbEntity
  8
0
  6
SLD-Сплошная
 62
     7
370
    25
100
AcDbLine
 10
32.2150510462
 20
257.9478869368
 30
0.0
 11
31.1650510462
 21
257.9478869368
 31
0.0
  0
LINE
  5
19C
330
1F
100
AcDbEntity
  8
0
  6
SLD-Сплошная
 62
     7
370
    25
100
AcDbLine
 10
13.3650510462
 20
210.3478869368
 30
0.0
 11
32.2150510462
 21
210.3478869368
 31
0.0
  0
LINE
  5
19D
330
1F
100
AcDbEntity
  8
0
  6
SLD-Сплошная
 62
     7
370
    25
100
AcDbLine
 10
113.9034732325
 20
253.8021097851
 30
0.0
 11
111.9034732325
 21
253.8021097851
 31
0.0
  0
LINE
  5
19E
330
1F
100
AcDbEntity
  8
0
  6
SLD-Сплошная
 62
     7
370
    25
100
AcDbLine
 10
111.9034732325
 20
214.4936640884
 30
0.0
 11
113.9034732325
 21
214.4936640884
 31
0.0
  0
ARC
  5
19F
330
1F
100
AcDbEntity
  8
0
  6
SLD-Сплошная
 62
     7
370
    25
100
AcDbCircle
 10
134.9130921758
 20
234.1478869368
 30
0.0
 40
15.00000000000001
100
AcDbArc
 50
30.0
 51
50.4130804784
  0
ARC
  5
1A0
330
1F
100
AcDbEntity
  8
0
  6
SLD-Сплошная
 62
     7
370
    25
100
AcDbCircle
 10
134.9130921758
 20
234.1478869368
 30
0.0
 40
15.00000000000004
100
AcDbArc
 50
309.5869195216
 51
330.0
  0
LINE
  5
1A1
330
1F
100
AcDbEntity
  8
0
  6
SLD-Сплошная
 62
     7
370
    25
100
AcDbLine
 10
0.2400510462
 20
237.6478869368
 30
0.0
 11
-1.1099489538
 21
237.6478869368
 31
0.0
  0
LINE
  5
1A2
330
1F
100
AcDbEntity
  8
0
  6
SLD-Сплошная
 62
     7
370
    25
100
AcDbLine
 10
-1.1099489538
 20
230.6478869368
 30
0.0
 11
0.2400510462
 21
230.6478869368
 31
0.0
  0
LINE
  5
1A3
330
1F
100
AcDbEntity
  8
0
  6
SLD-Сплошная
 62
     7
370
    25
100
AcDbLine
 10
18.491822771
 20
257.5478869368
 30
0.0
 11
14.4282034477
 21
257.5478869368
 31
0.0
  0
LINE
  5
1A4
330
1F
100
AcDbEntity
  8
0
  6
SLD-Сплошная
 62
     7
370
    25
100
AcDbLine
 10
21.622592247
 20
257.5478869368
 30
0.0
 11
20.839892771
 21
257.5478869368
 31
0.0
  0
LINE
  5
1A5
330
1F
100
AcDbEntity
  8
0
  6
SLD-Сплошная
 62
     7
370
    25
100
AcDbLine
 10
24.753361723
 20
257.5478869368
 30
0.0
 11
23.970662247
 21
257.5478869368
 31
0.0
  0
LINE
  5
1A6
330
1F
100
AcDbEntity
  8
0
  6
SLD-Сплошная
 62
     7
370
    25
100
AcDbLine
 10
31.1650510462
 20
257.5478869368
 30
0.0
 11
27.101431723
 21
257.5478869368
 31
0.0
  0
SPLINE
  5
1A7
330
1F
100
AcDbEntity
  8
0
  6
SLD-Сплошная
 62
     7
370
    25
100
AcDbSpline
210
0.0
220
0.0
230
1.0
 70
     8
 71
     3
 72
    27
 73
    23
 74
     0
 42
0.00000001
 43
0.00000001
 40
0.0
 40
0.0
 40
0.0
 40
0.0
 40
0.0641376807858127
 40
0.1227463924265322
 40
0.1743288685355967
 40
0.2185136628763932
 40
0.2773413263401917
 40
0.3152433032799443
 40
0.344183122759051
 40
0.3790872790214219
 40
0.4181867173646748
 40
0.4559011563685593
 40
0.4923305566101018
 40
0.5557339568691533
 40
0.6275760921073301
 40
0.6909070894724274
 40
0.7200397545915113
 40
0.7577114862435643
 40
0.8050531504632258
 40
0.8939237839661299
 40
0.9458872484461354
 40
1.0
 40
1.0
 40
1.0
 40
1.0
 10
87.90132680657715
 20
208.8389877281572
 30
0.0
 10
88.43982316343983
 20
208.9013078700029
 30
0.0
 10
89.47039496350946
 20
209.0205758649373
 30
0.0
 10
90.94399590131749
 20
209.1838424155994
 30
0.0
 10
92.23152795460123
 20
209.3214939898538
 30
0.0
 10
93.49070570237721
 20
209.4545723487468
 30
0.0
 10
94.59858778930699
 20
209.5730848489341
 30
0.0
 10
95.54820882293532
 20
209.6815771614045
 30
0.0
 10
96.31243759077782
 20
209.7746713125381
 30
0.0
 10
97.06615235603832
 20
209.873623526563
 30
0.0
 10
97.85620028447795
 20
209.9895112825187
 30
0.0
 10
98.62305016160806
 20
210.1189783221895
 30
0.0
 10
99.51114947897291
 20
210.2933862636532
 30
0.0
 10
100.5722449181671
 20
210.5551034011138
 30
0.0
 10
101.6870919589403
 20
210.9461352697757
 30
0.0
 10
102.5328766127867
 20
211.3736657083674
 30
0.0
 10
103.1716967952563
 20
211.8030433412102
 30
0.0
 10
103.6825510031474
 20
212.2279657986305
 30
0.0
 10
104.3418576223718
 20
212.9508595827989
 30
0.0
 10
104.81340769069
 20
213.8141941945727
 30
0.0
 10
105.1168021518723
 20
214.7502050584134
 30
0.0
 10
105.1822453675922
 20
215.3516763641471
 30
0.0
 10
105.2156299716585
 20
215.6585054399839
 30
0.0
  0
SPLINE
  5
1A8
330
1F
100
AcDbEntity
  8
0
  6
SLD-Сплошная
 62
     7
370
    25
100
AcDbSpline
210
0.0
220
0.0
230
1.0
 70
     8
 71
     3
 72
    28
 73
    24
 74
     0
 42
0.00000001
 43
0.00000001
 40
0.0
 40
0.0
 40
0.0
 40
0.0
 40
0.0622488081604753
 40
0.1189799383805699
 40
0.1669435995951374
 40
0.20574588780777
 40
0.2432444644300962
 40
0.2671645755983065
 40
0.290003342576948
 40
0.3619219248184046
 40
0.4457078365424034
 40
0.495184604193778
 40
0.5522215001613432
 40
0.6084005989695054
 40
0.6406180604520489
 40
0.6561646882649368
 40
0.6802912917966056
 40
0.7128942645556385
 40
0.7538027022120422
 40
0.8030200170929165
 40
0.860925643789078
 40
0.9272029669868718
 40
0.9999999999999999
 40
0.9999999999999999
 40
0.9999999999999999
 40
0.9999999999999999
 10
105.2156299716585
 20
252.6372684335976
 30
0.0
 10
105.1748762150762
 20
252.9880853222722
 30
0.0
 10
105.0969810779608
 20
253.6586230085483
 30
0.0
 10
104.81080652093
 20
254.4502291079071
 30
0.0
 10
104.4625702032369
 20
255.1133208760768
 30
0.0
 10
104.0579163211812
 20
255.6624326402229
 30
0.0
 10
103.6621121696935
 20
256.0771379645943
 30
0.0
 10
103.289485166227
 20
256.3957371057797
 30
0.0
 10
102.7367187121237
 20
256.8025155637278
 30
0.0
 10
101.8376886700111
 20
257.2956045945062
 30
0.0
 10
100.6849440856911
 20
257.70606401918
 30
0.0
 10
99.52762605364828
 20
257.9999661963935
 30
0.0
 10
98.47780742909349
 20
258.206900404289
 30
0.0
 10
97.47544785935959
 20
258.3646719110657
 30
0.0
 10
96.71330005472292
 20
258.4687633329374
 30
0.0
 10
96.19189712802894
 20
258.5354314642001
 30
0.0
 10
95.66379668265951
 20
258.5996104349946
 30
0.0
 10
94.93109872725535
 20
258.6834327476323
 30
0.0
 10
93.9792958327694
 20
258.7863771213546
 30
0.0
 10
92.7883224314625
 20
258.9122775206564
 30
0.0
 10
91.34883602648748
 20
259.0655240355934
 30
0.0
 10
89.68123566276111
 20
259.2505509328738
 30
0.0
 10
88.51288688667347
 20
259.3859256501422
 30
0.0
 10
87.90132680657713
 20
259.4567861454243
 30
0.0
  0
LWPOLYLINE
  5
1A9
330
1F
100
AcDbEntity
  8
0
  6
SLD-Сплошная
 62
     7
370
    25
100
AcDbPolyline
 90
        3
 70
   128
 43
0.0
 10
104.3089888696
 20
212.9590417378
 10
104.7024536793
 20
213.0382231506
 10
105.2400510462
 20
213.1478869368
  0
LWPOLYLINE
  5
1AA
330
1F
100
AcDbEntity
  8
0
  6
SLD-Сплошная
 62
     7
370
    25
100
AcDbPolyline
 90
        3
 70
   128
 43
0.0
 10
105.2400510462
 20
255.1478869368
 10
104.7022415243
 20
255.2575936633
 10
104.3176615051
 20
255.334996679
  0
LINE
  5
1AB
330
1F
100
AcDbEntity
  8
0
  6
SLD-Сплошная
 62
     7
370
    25
100
AcDbLine
 10
105.2400510462
 20
223.1478869368
 30
0.0
 11
111.9034732325
 21
223.1478869368
 31
0.0
  0
LINE
  5
1AC
330
1F
100
AcDbEntity
  8
0
  6
SLD-Сплошная
 62
     7
370
    25
100
AcDbLine
 10
111.9034732325
 20
245.1478869368
 30
0.0
 11
105.2400510462
 21
245.1478869368
 31
0.0
  0
SPLINE
  5
1AD
330
1F
100
AcDbEntity
  8
0
  6
SLD-Сплошная
 62
     7
370
    25
100
AcDbSpline
210
0.0
220
0.0
230
1.0
 70
     8
 71
     3
 72
    18
 73
    14
 74
     0
 42
0.00000001
 43
0.00000001
 40
0.0
 40
0.0
 40
0.0
 40
0.0
 40
0.0790295385376304
 40
0.1693827642130198
 40
0.2670305683091498
 40
0.3691619717521372
 40
0.4735036008333586
 40
0.5863219546954188
 40
0.6890580869834054
 40
0.7831200224697453
 40
0.8691940714568912
 40
0.9464513896169536
 40
1.0
 40
1.0
 40
1.0
 40
1.0
 10
57.50865554613654
 20
211.2110006637672
 30
0.0
 10
57.61401783512028
 20
211.0862728213598
 30
0.0
 10
57.83983916828396
 20
210.8189456028003
 30
0.0
 10
58.32229400640823
 20
210.4597431089808
 30
0.0
 10
58.91323310885224
 20
210.1740946353046
 30
0.0
 10
59.58935274795478
 20
210.0078981400391
 30
0.0
 10
60.32137958774399
 20
209.9867870923165
 30
0.0
 10
61.04317898621208
 20
210.1286415345117
 30
0.0
 10
61.69193043958298
 20
210.4149510052714
 30
0.0
 10
62.2171243103747
 20
210.7888457723668
 30
0.0
 10
62.6163226445368
 20
211.206923354954
 30
0.0
 10
62.88574196102803
 20
211.6053350686592
 30
0.0
 10
62.9943528437381
 20
211.8486784101554
 30
0.0
 10
63.03881536853631
 20
211.9482969666553
 30
0.0
  0
SPLINE
  5
1AE
330
1F
100
AcDbEntity
  8
0
  6
SLD-Сплошная
 62
     7
370
    25
100
AcDbSpline
210
0.0
220
0.0
230
1.0
 70
     8
 71
     3
 72
    18
 73
    14
 74
     0
 42
0.00000001
 43
0.00000001
 40
0.0
 40
0.0
 40
0.0
 40
0.0
 40
0.079029538537632
 40
0.1693827642130248
 40
0.2670305683091529
 40
0.3691619717521406
 40
0.4735036008333619
 40
0.5863219546954186
 40
0.6890580869834069
 40
0.7831200224697479
 40
0.8691940714568908
 40
0.9464513896169571
 40
0.9999999999999999
 40
0.9999999999999999
 40
0.9999999999999999
 40
0.9999999999999999
 10
63.03881536853631
 20
256.3474769069262
 30
0.0
 10
62.96981057465329
 20
256.4954518542405
 30
0.0
 10
62.82191368763944
 20
256.812604226305
 30
0.0
 10
62.45041755086711
 20
257.2856578414048
 30
0.0
 10
61.95495607972352
 20
257.7161482639731
 30
0.0
 10
61.34599427674026
 20
258.053675394625
 30
0.0
 10
60.64506730763404
 20
258.2658318333377
 30
0.0
 10
59.91131542355721
 20
258.3180355402284
 30
0.0
 10
59.21021439894644
 20
258.2116921596763
 30
0.0
 10
58.60540884557214
 20
257.9884520616067
 30
0.0
 10
58.11062252274801
 20
257.6895630022453
 30
0.0
 10
57.74623439361977
 20
257.3756522616414
 30
0.0
 10
57.57766397529286
 20
257.1692635028421
 30
0.0
 10
57.50865554613654
 20
257.0847732098143
 30
0.0
  0
SPLINE
  5
1AF
330
1F
100
AcDbEntity
  8
0
  6
SLD-Сплошная
 62
     7
370
    25
100
AcDbSpline
210
0.0
220
0.0
230
1.0
 70
     8
 71
     3
 72
    18
 73
    14
 74
     0
 42
0.00000001
 43
0.00000001
 40
0.0
 40
0.0
 40
0.0
 40
0.0
 40
0.0826632997491914
 40
0.1761864702256754
 40
0.2763940662248242
 40
0.3806928528727104
 40
0.4869283840666609
 40
0.6003247780224004
 40
0.7036585246231704
 40
0.7984308010799193
 40
0.8852670323759099
 40
0.9633376314292039
 40
1.0
 40
1.0
 40
1.0
 40
1.0
 10
87.36014600654235
 20
255.3684965709164
 30
0.0
 10
87.29533793673781
 20
255.529493536738
 30
0.0
 10
87.15720765285556
 20
255.8726384052736
 30
0.0
 10
86.80132946100669
 20
256.3789451499956
 30
0.0
 10
86.32083020095438
 20
256.8442885450892
 30
0.0
 10
85.72443633541154
 20
257.2182912164274
 30
0.0
 10
85.03395441469932
 20
257.4693014904695
 30
0.0
 10
84.30604309148904
 20
257.5629718710518
 30
0.0
 10
83.60368636139678
 20
257.4995131678934
 30
0.0
 10
82.98842858444786
 20
257.3158713178357
 30
0.0
 10
82.47505284218059
 20
257.0507018998534
 30
0.0
 10
82.12104007270824
 20
256.7856938006768
 30
0.0
 10
81.95370096298657
 20
256.6185543503424
 30
0.0
 10
81.90022855445422
 20
256.565145742008
 30
0.0
  0
SPLINE
  5
1B0
330
1F
100
AcDbEntity
  8
0
  6
SLD-Сплошная
 62
     7
370
    25
100
AcDbSpline
210
0.0
220
0.0
230
1.0
 70
     8
 71
     3
 72
    18
 73
    14
 74
     0
 42
0.00000001
 43
0.00000001
 40
0.0
 40
0.0
 40
0.0
 40
0.0
 40
0.0826632997491924
 40
0.1761864702256723
 40
0.2763940662248208
 40
0.380692852872706
 40
0.4869283840666561
 40
0.6003247780223943
 40
0.7036585246231639
 40
0.798430801079915
 40
0.8852670323759017
 40
0.9633376314292008
 40
1.0
 40
1.0
 40
1.0
 40
1.0
 10
81.90022855445423
 20
211.7306281315735
 30
0.0
 10
82.02643263151194
 20
211.6114952652033
 30
0.0
 10
82.29542081529307
 20
211.357578481367
 30
0.0
 10
82.83043876705818
 20
211.0465292915695
 30
0.0
 10
83.46152120453235
 20
210.8248110663834
 30
0.0
 10
84.15967131715395
 20
210.734533376605
 30
0.0
 10
84.89184322983063
 20
210.7953258991096
 30
0.0
 10
85.59220624673723
 20
211.0146901605691
 30
0.0
 10
86.2036381310775
 20
211.366091688916
 30
0.0
 10
86.68568874023002
 20
211.7902304296653
 30
0.0
 10
87.04109777466972
 20
212.2458112580813
 30
0.0
 10
87.25181971928316
 20
212.6345921676396
 30
0.0
 10
87.33391337369368
 20
212.856399754088
 30
0.0
 10
87.36014600654235
 20
212.9272773026651
 30
0.0
  0
LINE
  5
1B1
330
1F
100
AcDbEntity
  8
0
  6
SLD-Сплошная
 62
     7
370
    25
100
AcDbLine
 10
20.839892771
 20
257.9478869368
 30
0.0
 11
18.491822771
 21
257.9478869368
 31
0.0
  0
LINE
  5
1B2
330
1F
100
AcDbEntity
  8
0
  6
SLD-Сплошная
 62
     7
370
    25
100
AcDbLine
 10
23.970662247
 20
257.9478869368
 30
0.0
 11
21.622592247
 21
257.9478869368
 31
0.0
  0
LINE
  5
1B3
330
1F
100
AcDbEntity
  8
0
  6
SLD-Сплошная
 62
     7
370
    25
100
AcDbLine
 10
27.101431723
 20
257.9478869368
 30
0.0
 11
24.753361723
 21
257.9478869368
 31
0.0
  0
LINE
  5
1B4
330
1F
100
AcDbEntity
  8
0
  6
SLD-Сплошная
 62
     7
370
    25
100
AcDbLine
 10
144.4015911284
 20
220.7793272677
 30
0.0
 11
144.4718131801
 21
222.5880057626
 31
0.0
  0
LINE
  5
1B5
330
1F
100
AcDbEntity
  8
0
  6
SLD-Сплошная
 62
     7
370
    25
100
AcDbLine
 10
144.4718131801
 20
245.707768111
 30
0.0
 11
144.4015911284
 21
247.5164466059
 31
0.0
  0
SPLINE
  5
1B6
330
1F
100
AcDbEntity
  8
0
  6
SLD-Сплошная
 62
     7
370
    25
100
AcDbSpline
210
0.0
220
0.0
230
1.0
 70
     8
 71
     3
 72
    12
 73
     8
 74
     0
 42
0.00000001
 43
0.00000001
 40
0.0
 40
0.0
 40
0.0
 40
0.0
 40
0.1397841633515367
 40
0.3110249309692005
 40
0.5099935085437433
 40
0.7407263256219688
 40
1.0
 40
1.0
 40
1.0
 40
1.0
 10
48.01986424978102
 20
207.7279026554049
 30
0.0
 10
48.51576714237555
 20
207.7206181819785
 30
0.0
 10
49.61916941083392
 20
207.704409959314
 30
0.0
 10
51.43843531573304
 20
207.7063468992934
 30
0.0
 10
53.64339102524762
 20
207.7100097688621
 30
0.0
 10
56.20347412798052
 20
207.7077903287406
 30
0.0
 10
58.01726208046408
 20
207.7088452873168
 30
0.0
 10
58.97697889071576
 20
207.7094034900981
 30
0.0
  0
SPLINE
  5
1B7
330
1F
100
AcDbEntity
  8
0
  6
SLD-Сплошная
 62
     7
370
    25
100
AcDbSpline
210
0.0
220
0.0
230
1.0
 70
     8
 71
     3
 72
    13
 73
     9
 74
     0
 42
0.00000001
 43
0.00000001
 40
0.0
 40
0.0
 40
0.0
 40
0.0
 40
0.1777453890650867
 40
0.3631043089678684
 40
0.5315704887517545
 40
0.691696379751318
 40
0.8543268288589443
 40
1.0
 40
1.0
 40
1.0
 40
1.0
 10
58.97697888389404
 20
260.5863703833446
 30
0.0
 10
58.31966393350906
 20
260.5867271616087
 30
0.0
 10
56.97687866020784
 20
260.5874560003467
 30
0.0
 10
55.00251828366684
 20
260.5879513274004
 30
0.0
 10
53.10170779046183
 20
260.5866400861927
 30
0.0
 10
51.30378111543678
 20
260.5909158560227
 30
0.0
 10
49.63123700263909
 20
260.589984546236
 30
0.0
 10
48.53692547965314
 20
260.5749669975065
 30
0.0
 10
48.01986431235003
 20
260.5678712198299
 30
0.0
  0
LINE
  5
1B8
330
1F
100
AcDbEntity
  8
0
  6
SLD-Сплошная
 62
     7
370
    25
100
AcDbLine
 10
58.978442239
 20
207.7094227555
 30
0.0
 11
65.3410053369
 21
207.7204790881
 31
0.0
  0
LINE
  5
1B9
330
1F
100
AcDbEntity
  8
0
  6
SLD-Сплошная
 62
     7
370
    25
100
AcDbLine
 10
65.3410053369
 20
260.5752947855
 30
0.0
 11
58.978442239
 21
260.5863511181
 31
0.0
  0
ARC
  5
1BA
330
1F
100
AcDbEntity
  8
0
  6
SLD-Сплошная
 62
     7
370
    25
100
AcDbCircle
 10
134.9130921758
 20
234.1478869368
 30
0.0
 40
17.5
100
AcDbArc
 50
270.0
 51
297.7766046258
  0
LINE
  5
1BB
330
1F
100
AcDbEntity
  8
0
  6
SLD-Сплошная
 62
     7
370
    25
100
AcDbLine
 10
122.9034732325
 20
216.6478869368
 30
0.0
 11
134.9130921758
 21
216.6478869368
 31
0.0
  0
ARC
  5
1BC
330
1F
100
AcDbEntity
  8
0
  6
SLD-Сплошная
 62
     7
370
    25
100
AcDbCircle
 10
141.9034732325
 20
220.8763168458
 30
0.0
 40
2.500000000000023
100
AcDbArc
 50
297.7766046258
 51
357.7766046258
  0
ARC
  5
1BD
330
1F
100
AcDbEntity
  8
0
  6
SLD-Сплошная
 62
     7
370
    25
100
AcDbCircle
 10
141.9034732325
 20
247.4194570278
 30
0.0
 40
2.500000000000021
100
AcDbArc
 50
2.2233953742
 51
62.2233953742
  0
ARC
  5
1BE
330
1F
100
AcDbEntity
  8
0
  6
SLD-Сплошная
 62
     7
370
    25
100
AcDbCircle
 10
134.9130921758
 20
234.1478869368
 30
0.0
 40
17.49999999999998
100
AcDbArc
 50
62.2233953742
 51
90.0
  0
LINE
  5
1BF
330
1F
100
AcDbEntity
  8
0
  6
SLD-Сплошная
 62
     7
370
    25
100
AcDbLine
 10
134.9130921758
 20
251.6478869368
 30
0.0
 11
122.9034732325
 21
251.6478869368
 31
0.0
  0
SPLINE
  5
1C0
330
1F
100
AcDbEntity
  8
0
  6
SLD-Сплошная
 62
     7
370
    25
100
AcDbSpline
210
0.0
220
0.0
230
1.0
 70
     8
 71
     3
 72
    12
 73
     8
 74
     0
 42
0.00000001
 43
0.00000001
 40
0.0
 40
0.0
 40
0.0
 40
0.0
 40
0.1589532008284259
 40
0.3389494218862197
 40
0.5398110290340863
 40
0.7607411861148059
 40
1.0
 40
1.0
 40
1.0
 40
1.0
 10
65.34110060496093
 20
207.7204839867679
 30
0.0
 10
66.5387707479744
 20
207.7071442126368
 30
0.0
 10
69.09266460144252
 20
207.6786986783142
 30
0.0
 10
73.16013597728126
 20
207.7473979835885
 30
0.0
 10
77.6909987371558
 20
207.9355288753482
 30
0.0
 10
82.66172494385016
 20
208.2741920680533
 30
0.0
 10
86.10971399719125
 20
208.6458959006161
 30
0.0
 10
87.90237271619526
 20
208.8391500281736
 30
0.0
  0
SPLINE
  5
1C1
330
1F
100
AcDbEntity
  8
0
  6
SLD-Сплошная
 62
     7
370
    25
100
AcDbSpline
210
0.0
220
0.0
230
1.0
 70
     8
 71
     3
 72
    12
 73
     8
 74
     0
 42
0.00000001
 43
0.00000001
 40
0.0
 40
0.0
 40
0.0
 40
0.0
 40
0.2392588138851938
 40
0.4601889709659128
 40
0.661050578113779
 40
0.841046799171572
 40
1.0
 40
1.0
 40
1.0
 40
1.0
 10
87.90237271619526
 20
259.4566238454079
 30
0.0
 10
86.10971399719125
 20
259.6498779729653
 30
0.0
 10
82.66172494385016
 20
260.0215818055282
 30
0.0
 10
77.69099873715582
 20
260.3602449982333
 30
0.0
 10
73.16013597728127
 20
260.548375889993
 30
0.0
 10
69.09266460144255
 20
260.6170751952672
 30
0.0
 10
66.5387707479744
 20
260.5886296609448
 30
0.0
 10
65.34110060496093
 20
260.5752898868136
 30
0.0
  0
LINE
  5
1C2
330
1F
100
AcDbEntity
  8
0
  6
SLD-Сплошная
 62
     7
370
    25
100
AcDbLine
 10
40.3400510462
 20
208.0572258203
 30
0.0
 11
48.0195594828
 21
207.7279108808
 31
0.0
  0
LINE
  5
1C3
330
1F
100
AcDbEntity
  8
0
  6
SLD-Сплошная
 62
     7
370
    25
100
AcDbLine
 10
48.0195594828
 20
260.5678629928
 30
0.0
 11
40.3400510462
 21
260.2385480533
 31
0.0
  0
LINE
  5
1C4
330
1F
100
AcDbEntity
  8
0
  6
SLD-Сплошная
 62
     7
370
    25
100
AcDbLine
 10
40.3400510462
 20
241.3076968205
 30
0.0
 11
37.0400510462
 21
241.3076968205
 31
0.0
  0
LINE
  5
1C5
330
1F
100
AcDbEntity
  8
0
  6
SLD-Сплошная
 62
     7
370
    25
100
AcDbLine
 10
37.0400510462
 20
226.9880770531
 30
0.0
 11
40.3400510462
 21
226.9880770531
 31
0.0
  0
LINE
  5
1C6
330
1F
100
AcDbEntity
  8
0
  6
SLD-Сплошная
 62
     7
370
    25
100
AcDbLine
 10
40.3400510462
 20
241.3076968205
 30
0.0
 11
40.3400510462
 21
226.9880770531
 31
0.0
  0
LINE
  5
1C7
330
1F
100
AcDbEntity
  8
0
  6
SLD-Сплошная
 62
     7
370
    25
100
AcDbLine
 10
37.0400510462
 20
226.9880770531
 30
0.0
 11
37.0400510462
 21
241.3076968205
 31
0.0
  0
LINE
  5
1C8
330
1F
100
AcDbEntity
  8
0
  6
SLD-Сплошная
 62
     7
370
    25
100
AcDbLine
 10
12.5400510462
 20
231.1419622021
 30
0.0
 11
0.2400510462
 21
231.1419622021
 31
0.0
  0
LINE
  5
1C9
330
1F
100
AcDbEntity
  8
0
  6
SLD-Сплошная
 62
     7
370
    25
100
AcDbLine
 10
12.5400510462
 20
237.1538116715
 30
0.0
 11
0.2400510462
 21
237.1538116715
 31
0.0
  0
LINE
  5
1CA
330
1F
100
AcDbEntity
  8
0
  6
SLD-Сплошная
 62
     7
370
    25
100
AcDbLine
 10
12.5400510462
 20
231.1419622021
 30
0.0
 11
12.5400510462
 21
237.1538116715
 31
0.0
  0
LINE
  5
1CB
330
1F
100
AcDbEntity
  8
0
  6
SLD-Сплошная
 62
     7
370
    25
100
AcDbLine
 10
0.2400510462
 20
231.1419622021
 30
0.0
 11
0.2400510462
 21
237.1538116715
 31
0.0
  0
LINE
  5
1CC
330
1F
100
AcDbEntity
  8
0
  6
SLD-Сплошная
 62
     7
370
    25
100
AcDbLine
 10
40.3400510462
 20
241.3076968205
 30
0.0
 11
40.3400510462
 21
263.1478869368
 31
0.0
  0
LINE
  5
1CD
330
1F
100
AcDbEntity
  8
0
  6
SLD-Сплошная
 62
     7
370
    25
100
AcDbLine
 10
40.3400510462
 20
205.1478869368
 30
0.0
 11
40.3400510462
 21
226.9880770531
 31
0.0
  0
LINE
  5
1CE
330
1F
100
AcDbEntity
  8
0
  6
SLD-Сплошная
 62
     7
370
    25
100
AcDbLine
 10
37.0400510462
 20
226.9880770531
 30
0.0
 11
37.0400510462
 21
205.1478869368
 31
0.0
  0
LINE
  5
1CF
330
1F
100
AcDbEntity
  8
0
  6
SLD-Сплошная
 62
     7
370
    25
100
AcDbLine
 10
37.0400510462
 20
263.1478869368
 30
0.0
 11
37.0400510462
 21
241.3076968205
 31
0.0
  0
LINE
  5
1D0
330
1F
100
AcDbEntity
  8
0
  6
SLD-Сплошная
 62
     7
370
    25
100
AcDbLine
 10
57.5086555461
 20
211.2110006638
 30
0.0
 11
57.9956523785
 21
210.7191660699
 31
0.0
  0
SPLINE
  5
1D1
330
1F
100
AcDbEntity
  8
0
  6
SLD-Сплошная
 62
     7
370
    25
100
AcDbSpline
210
0.0
220
0.0
230
1.0
 70
     8
 71
     3
 72
    16
 73
    12
 74
     0
 42
0.00000001
 43
0.00000001
 40
0.0
 40
0.0
 40
0.0
 40
0.0
 40
0.0540237302507407
 40
0.1809880002427283
 40
0.3057152018466315
 40
0.4328888739498474
 40
0.582846066838117
 40
0.6602672716818663
 40
0.7376855958704376
 40
0.8672472612210922
 40
1.0
 40
1.0
 40
1.0
 40
1.0
 10
56.95210778139176
 20
212.0256191404189
 30
0.0
 10
56.80912697136469
 20
212.2253380678472
 30
0.0
 10
56.33011875109229
 20
212.8944279125895
 30
0.0
 10
55.58851616246768
 20
214.4696340764495
 30
0.0
 10
54.75171268563532
 20
216.7218732964034
 30
0.0
 10
53.97423323058264
 20
219.5150970200675
 30
0.0
 10
53.41873539368824
 20
222.298834201529
 30
0.0
 10
53.03979465352143
 20
224.8672196839845
 30
0.0
 10
52.75399746700992
 20
227.3574429069934
 30
0.0
 10
52.52358968791778
 20
230.4554238180104
 30
0.0
 10
52.48652666937883
 20
232.9071241939074
 30
0.0
 10
52.46776972297788
 20
234.1478869367908
 30
0.0
  0
SPLINE
  5
1D2
330
1F
100
AcDbEntity
  8
0
  6
SLD-Сплошная
 62
     7
370
    25
100
AcDbSpline
210
0.0
220
0.0
230
1.0
 70
     8
 71
     3
 72
    24
 73
    20
 74
     0
 42
0.00000001
 43
0.00000001
 40
0.0
 40
0.0
 40
0.0
 40
0.0
 40
0.1249999999999999
 40
0.1249999999999999
 40
0.2499999999999999
 40
0.2499999999999999
 40
0.3749999999999998
 40
0.3749999999999998
 40
0.4999999999999998
 40
0.4999999999999998
 40
0.6249999999999998
 40
0.6249999999999998
 40
0.7499999999999998
 40
0.7499999999999998
 40
0.8124999999999999
 40
0.8124999999999999
 40
0.8749999999999999
 40
0.8749999999999999
 40
1.0
 40
1.0
 40
1.0
 40
1.0
 10
58.21233236951588
 20
234.1478869367908
 30
0.0
 10
58.21336267646297
 20
232.9654258637902
 30
0.0
 10
58.24224040742637
 20
231.7965845830362
 30
0.0
 10
58.35760662831692
 20
229.4853205682084
 30
0.0
 10
58.44420857991403
 20
228.3429042968845
 30
0.0
 10
58.67479314767326
 20
226.0850270464482
 30
0.0
 10
58.81638803917028
 20
224.9938670929526
 30
0.0
 10
59.15029600322919
 20
222.8867626682484
 30
0.0
 10
59.34266577385004
 20
221.870274127741
 30
0.0
 10
59.77629694664873
 20
219.9118821796049
 30
0.0
 10
60.01343215722131
 20
218.9902040319424
 30
0.0
 10
60.52629840500522
 20
217.2601313653984
 30
0.0
 10
60.80223663144732
 20
216.4509007967858
 30
0.0
 10
61.24339751395261
 20
215.3201233222711
 30
0.0
 10
61.39553971814794
 20
214.9560529067642
 30
0.0
 10
61.70646111900114
 20
214.2629179296995
 30
0.0
 10
61.8652704272913
 20
213.933603427272
 30
0.0
 10
62.35169661368877
 20
212.9963214018093
 30
0.0
 10
62.68935278964103
 20
212.4387779311775
 30
0.0
 10
63.03881536853633
 20
211.9482969666553
 30
0.0
  0
SPLINE
  5
1D3
330
1F
100
AcDbEntity
  8
0
  6
SLD-Сплошная
 62
     7
370
    25
100
AcDbSpline
210
0.0
220
0.0
230
1.0
 70
     8
 71
     3
 72
    16
 73
    12
 74
     0
 42
0.00000001
 43
0.00000001
 40
0.0
 40
0.0
 40
0.0
 40
0.0
 40
0.0540237302507409
 40
0.1809880002427285
 40
0.3057152018466318
 40
0.4328888739498476
 40
0.5828460668381172
 40
0.6602672716818664
 40
0.7376855958704377
 40
0.8672472612210923
 40
1.0
 40
1.0
 40
1.0
 40
1.0
 10
56.95210778139176
 20
256.2701547331627
 30
0.0
 10
56.8091269713647
 20
256.0704358057343
 30
0.0
 10
56.33011875109229
 20
255.401345960992
 30
0.0
 10
55.58851616246768
 20
253.826139797132
 30
0.0
 10
54.75171268563532
 20
251.5739005771781
 30
0.0
 10
53.97423323058265
 20
248.7806768535139
 30
0.0
 10
53.41873539368823
 20
245.9969396720525
 30
0.0
 10
53.03979465352143
 20
243.428554189597
 30
0.0
 10
52.75399746700991
 20
240.9383309665881
 30
0.0
 10
52.52358968791778
 20
237.8403500555712
 30
0.0
 10
52.48652666937883
 20
235.3886496796741
 30
0.0
 10
52.46776972297788
 20
234.1478869367908
 30
0.0
  0
LINE
  5
1D4
330
1F
100
AcDbEntity
  8
0
  6
SLD-Сплошная
 62
     7
370
    25
100
AcDbLine
 10
57.5086555461
 20
257.0847732098
 30
0.0
 11
57.9956523785
 21
257.5766078037
 31
0.0
  0
SPLINE
  5
1D5
330
1F
100
AcDbEntity
  8
0
  6
SLD-Сплошная
 62
     7
370
    25
100
AcDbSpline
210
0.0
220
0.0
230
1.0
 70
     8
 71
     3
 72
    24
 73
    20
 74
     0
 42
0.00000001
 43
0.00000001
 40
0.0
 40
0.0
 40
0.0
 40
0.0
 40
0.125
 40
0.125
 40
0.2499999999999999
 40
0.2499999999999999
 40
0.375
 40
0.375
 40
0.5
 40
0.5
 40
0.625
 40
0.625
 40
0.7499999999999999
 40
0.7499999999999999
 40
0.8124999999999998
 40
0.8124999999999998
 40
0.8749999999999998
 40
0.8749999999999998
 40
1.0
 40
1.0
 40
1.0
 40
1.0
 10
58.21233236951588
 20
234.1478869367908
 30
0.0
 10
58.21336267646297
 20
235.3303480097913
 30
0.0
 10
58.24224040742637
 20
236.4991892905453
 30
0.0
 10
58.35760662831693
 20
238.8104533053731
 30
0.0
 10
58.44420857991403
 20
239.952869576697
 30
0.0
 10
58.67479314767327
 20
242.2107468271333
 30
0.0
 10
58.81638803917028
 20
243.3019067806289
 30
0.0
 10
59.15029600322919
 20
245.4090112053331
 30
0.0
 10
59.34266577385005
 20
246.4254997458405
 30
0.0
 10
59.77629694664871
 20
248.3838916939766
 30
0.0
 10
60.01343215722131
 20
249.3055698416391
 30
0.0
 10
60.52629840500523
 20
251.0356425081831
 30
0.0
 10
60.80223663144729
 20
251.8448730767956
 30
0.0
 10
61.24339751395262
 20
252.9756505513104
 30
0.0
 10
61.39553971814794
 20
253.3397209668173
 30
0.0
 10
61.70646111900115
 20
254.032855943882
 30
0.0
 10
61.86527042729131
 20
254.3621704463095
 30
0.0
 10
62.35169661368878
 20
255.2994524717722
 30
0.0
 10
62.68935278964103
 20
255.856995942404
 30
0.0
 10
63.03881536853633
 20
256.3474769069262
 30
0.0
  0
SPLINE
  5
1D6
330
1F
100
AcDbEntity
  8
0
  6
SLD-Сплошная
 62
     7
370
    25
100
AcDbSpline
210
0.0
220
0.0
230
1.0
 70
     8
 71
     3
 72
    26
 73
    22
 74
     0
 42
0.00000001
 43
0.00000001
 40
0.0
 40
0.0
 40
0.0
 40
0.0
 40
0.1249999999999996
 40
0.1249999999999996
 40
0.1874999999999994
 40
0.1874999999999994
 40
0.2499999999999992
 40
0.2499999999999992
 40
0.3749999999999994
 40
0.3749999999999994
 40
0.4374999999999995
 40
0.4374999999999995
 40
0.4999999999999996
 40
0.4999999999999996
 40
0.6249999999999997
 40
0.6249999999999997
 40
0.7499999999999998
 40
0.7499999999999998
 40
0.8749999999999999
 40
0.8749999999999999
 40
1.0
 40
1.0
 40
1.0
 40
1.0
 10
81.90022855445442
 20
211.7306281315732
 30
0.0
 10
81.54180113051946
 20
212.1535567720558
 30
0.0
 10
81.19595075346645
 20
212.6548808541474
 30
0.0
 10
80.69511303879412
 20
213.5226090044685
 30
0.0
 10
80.53120000857949
 20
213.8312253221557
 30
0.0
 10
80.20977545387606
 20
214.4879290482992
 30
0.0
 10
80.05190401256507
 20
214.8369801032541
 30
0.0
 10
79.5912982083681
 20
215.9388258927643
 30
0.0
 10
79.30401688086963
 20
216.738916004276
 30
0.0
 10
78.90263072518708
 20
218.036762024414
 30
0.0
 10
78.77378876021265
 20
218.4857314859485
 30
0.0
 10
78.52634993456333
 20
219.417142969348
 30
0.0
 10
78.40744561790115
 20
219.9010953764433
 30
0.0
 10
78.06985092929887
 20
221.3921461028865
 30
0.0
 10
77.86864812283655
 20
222.4384321666979
 30
0.0
 10
77.51806809894984
 20
224.6294149224279
 30
0.0
 10
77.37050577076779
 20
225.7625540928544
 30
0.0
 10
77.13153424653363
 20
228.1053429146103
 30
0.0
 10
77.04212314110612
 20
229.2923998263365
 30
0.0
 10
76.9249967856597
 20
231.6971205331891
 30
0.0
 10
76.89660899194273
 20
232.9147501677884
 30
0.0
 10
76.89254411608462
 20
234.1478869367908
 30
0.0
  0
SPLINE
  5
1D7
330
1F
100
AcDbEntity
  8
0
  6
SLD-Сплошная
 62
     7
370
    25
100
AcDbSpline
210
0.0
220
0.0
230
1.0
 70
     8
 71
     3
 72
    28
 73
    24
 74
     0
 42
0.00000001
 43
0.00000001
 40
0.0
 40
0.0
 40
0.0
 40
0.0
 40
0.1250000000000005
 40
0.1250000000000005
 40
0.2500000000000009
 40
0.2500000000000009
 40
0.3125000000000011
 40
0.3125000000000011
 40
0.3750000000000012
 40
0.3750000000000012
 40
0.500000000000001
 40
0.500000000000001
 40
0.562500000000001
 40
0.562500000000001
 40
0.6250000000000009
 40
0.6250000000000009
 40
0.6875000000000008
 40
0.6875000000000008
 40
0.7500000000000007
 40
0.7500000000000007
 40
0.8750000000000004
 40
0.8750000000000004
 40
1.0
 40
1.0
 40
1.0
 40
1.0
 10
82.62682076757477
 20
234.1478869367908
 30
0.0
 10
82.6279077389563
 20
233.0122341576542
 30
0.0
 10
82.65703633176534
 20
231.8904571839233
 30
0.0
 10
82.76954460787978
 20
229.6735619256089
 30
0.0
 10
82.85312577503822
 20
228.5784589927117
 30
0.0
 10
83.02195940552465
 20
226.9563558646962
 30
0.0
 10
83.08521866864673
 20
226.4213608683408
 30
0.0
 10
83.22382403440498
 20
225.3741678264714
 30
0.0
 10
83.29935007531253
 20
224.8601870060801
 30
0.0
 10
83.54403669745292
 20
223.3464661912276
 30
0.0
 10
83.73121555975482
 20
222.3748072994391
 30
0.0
 10
84.0482570036984
 20
220.9738177099061
 30
0.0
 10
84.16003798772923
 20
220.5160022470992
 30
0.0
 10
84.39309473069271
 20
219.629585087781
 30
0.0
 10
84.51465618998203
 20
219.1996417755547
 30
0.0
 10
84.76782375268371
 20
218.3660297853009
 30
0.0
 10
84.89969079376348
 20
217.9616627830813
 30
0.0
 10
85.17188720502661
 20
217.1840524049826
 30
0.0
 10
85.31226068342565
 20
216.8105375424055
 30
0.0
 10
85.74611080685429
 20
215.7352414869119
 30
0.0
 10
86.0531895097238
 20
215.0777919713787
 30
0.0
 10
86.68921946195712
 20
213.9026296006297
 30
0.0
 10
87.01923539826664
 20
213.3817356369546
 30
0.0
 10
87.36014600654248
 20
212.9272773026647
 30
0.0
  0
SPLINE
  5
1D8
330
1F
100
AcDbEntity
  8
0
  6
SLD-Сплошная
 62
     7
370
    25
100
AcDbSpline
210
0.0
220
0.0
230
1.0
 70
     8
 71
     3
 72
    26
 73
    22
 74
     0
 42
0.00000001
 43
0.00000001
 40
0.0
 40
0.0
 40
0.0
 40
0.0
 40
0.1249999999999994
 40
0.1249999999999994
 40
0.1874999999999991
 40
0.1874999999999991
 40
0.2499999999999989
 40
0.2499999999999989
 40
0.3749999999999986
 40
0.3749999999999986
 40
0.4374999999999985
 40
0.4374999999999985
 40
0.4999999999999986
 40
0.4999999999999986
 40
0.6249999999999989
 40
0.6249999999999989
 40
0.7499999999999993
 40
0.7499999999999993
 40
0.8749999999999997
 40
0.8749999999999997
 40
1.0
 40
1.0
 40
1.0
 40
1.0
 10
81.90022855445442
 20
256.5651457420083
 30
0.0
 10
81.54180113051945
 20
256.1422171015257
 30
0.0
 10
81.19595075346653
 20
255.6408930194342
 30
0.0
 10
80.69511303879423
 20
254.7731648691131
 30
0.0
 10
80.53120000857953
 20
254.464548551426
 30
0.0
 10
80.20977545387606
 20
253.8078448252824
 30
0.0
 10
80.05190401256513
 20
253.4587937703275
 30
0.0
 10
79.59129820836817
 20
252.3569479808173
 30
0.0
 10
79.30401688086968
 20
251.5568578693056
 30
0.0
 10
78.90263072518717
 20
250.2590118491676
 30
0.0
 10
78.77378876021268
 20
249.8100423876331
 30
0.0
 10
78.52634993456336
 20
248.8786309042336
 30
0.0
 10
78.40744561790116
 20
248.3946784971383
 30
0.0
 10
78.06985092929891
 20
246.9036277706951
 30
0.0
 10
77.86864812283659
 20
245.8573417068837
 30
0.0
 10
77.5180680989499
 20
243.6663589511537
 30
0.0
 10
77.37050577076779
 20
242.5332197807272
 30
0.0
 10
77.13153424653366
 20
240.1904309589713
 30
0.0
 10
77.04212314110615
 20
239.0033740472451
 30
0.0
 10
76.9249967856597
 20
236.5986533403924
 30
0.0
 10
76.89660899194273
 20
235.3810237057931
 30
0.0
 10
76.89254411608462
 20
234.1478869367908
 30
0.0
  0
SPLINE
  5
1D9
330
1F
100
AcDbEntity
  8
0
  6
SLD-Сплошная
 62
     7
370
    25
100
AcDbSpline
210
0.0
220
0.0
230
1.0
 70
     8
 71
     3
 72
    28
 73
    24
 74
     0
 42
0.00000001
 43
0.00000001
 40
0.0
 40
0.0
 40
0.0
 40
0.0
 40
0.125
 40
0.125
 40
0.2500000000000001
 40
0.2500000000000001
 40
0.3125000000000001
 40
0.3125000000000001
 40
0.3749999999999999
 40
0.3749999999999999
 40
0.4999999999999999
 40
0.4999999999999999
 40
0.5624999999999999
 40
0.5624999999999999
 40
0.6249999999999999
 40
0.6249999999999999
 40
0.6874999999999999
 40
0.6874999999999999
 40
0.7499999999999999
 40
0.7499999999999999
 40
0.875
 40
0.875
 40
1.0
 40
1.0
 40
1.0
 40
1.0
 10
82.62682076757477
 20
234.1478869367908
 30
0.0
 10
82.62790773895628
 20
235.2835397159272
 30
0.0
 10
82.65703633176535
 20
236.4053166896582
 30
0.0
 10
82.76954460787978
 20
238.6222119479727
 30
0.0
 10
82.85312577503822
 20
239.7173148808698
 30
0.0
 10
83.02195940552467
 20
241.3394180088854
 30
0.0
 10
83.08521866864673
 20
241.8744130052409
 30
0.0
 10
83.22382403440498
 20
242.9216060471103
 30
0.0
 10
83.29935007531255
 20
243.4355868675015
 30
0.0
 10
83.54403669745292
 20
244.9493076823541
 30
0.0
 10
83.7312155597549
 20
245.9209665741425
 30
0.0
 10
84.04825700369834
 20
247.3219561636755
 30
0.0
 10
84.16003798772925
 20
247.7797716264825
 30
0.0
 10
84.39309473069274
 20
248.6661887858006
 30
0.0
 10
84.51465618998208
 20
249.0961320980269
 30
0.0
 10
84.76782375268378
 20
249.9297440882807
 30
0.0
 10
84.89969079376355
 20
250.3341110905004
 30
0.0
 10
85.17188720502669
 20
251.111721468599
 30
0.0
 10
85.31226068342573
 20
251.4852363311762
 30
0.0
 10
85.74611080685438
 20
252.5605323866698
 30
0.0
 10
86.05318950972388
 20
253.217981902203
 30
0.0
 10
86.68921946195724
 20
254.393144272952
 30
0.0
 10
87.01923539826662
 20
254.9140382366269
 30
0.0
 10
87.36014600654248
 20
255.3684965709168
 30
0.0
  0
SPLINE
  5
1DA
330
1F
100
AcDbEntity
  8
0
  6
SLD-Сплошная
 62
     7
370
    25
100
AcDbSpline
210
0.0
220
0.0
230
1.0
 70
     8
 71
     3
 72
    10
 73
     6
 74
     0
 42
0.00000001
 43
0.00000001
 40
0.0
 40
0.0
 40
0.0
 40
0.0
 40
0.2820309801314337
 40
0.8273263134231673
 40
1.0
 40
1.0
 40
1.0
 40
1.0
 10
65.57236129464327
 20
209.546770755994
 30
0.0
 10
67.10019705828637
 20
209.5225986500724
 30
0.0
 10
71.58204061058638
 20
209.4516907687098
 30
0.0
 10
77.006378609652
 20
209.5516220858582
 30
0.0
 10
80.88222057119245
 20
209.8882816469793
 30
0.0
 10
81.81437210080982
 20
209.9692492736197
 30
0.0
  0
SPLINE
  5
1DB
330
1F
100
AcDbEntity
  8
0
  6
SLD-Сплошная
 62
     7
370
    25
100
AcDbSpline
210
0.0
220
0.0
230
1.0
 70
     8
 71
     3
 72
     8
 73
     4
 74
     0
 42
0.00000001
 43
0.00000001
 40
0.0
 40
0.0
 40
0.0
 40
0.0
 40
0.0002336460431188
 40
0.0002336460431188
 40
0.0002336460431188
 40
0.0002336460431188
 10
65.57236129464327
 20
209.5467707559939
 30
0.0
 10
65.49492237911026
 20
209.54877728017
 30
0.0
 10
65.41748560746713
 20
209.5508384116432
 30
0.0
 10
65.34005104624688
 20
209.5529541458006
 30
0.0
  0
LINE
  5
1DC
330
1F
100
AcDbEntity
  8
0
  6
SLD-Сплошная
 62
     7
370
    25
100
AcDbLine
 10
65.3400510462
 20
258.7428197278
 30
0.0
 11
65.3400510462
 21
209.5529541458
 31
0.0
  0
SPLINE
  5
1DD
330
1F
100
AcDbEntity
  8
0
  6
SLD-Сплошная
 62
     7
370
    25
100
AcDbSpline
210
0.0
220
0.0
230
1.0
 70
     8
 71
     3
 72
     8
 73
     4
 74
     0
 42
0.00000001
 43
0.00000001
 40
0.0
 40
0.0
 40
0.0
 40
0.0
 40
0.0002336460431188
 40
0.0002336460431188
 40
0.0002336460431188
 40
0.0002336460431188
 10
65.57236129464327
 20
258.7490031175875
 30
0.0
 10
65.49492237911026
 20
258.7469965934115
 30
0.0
 10
65.41748560746713
 20
258.7449354619383
 30
0.0
 10
65.34005104624688
 20
258.742819727781
 30
0.0
  0
SPLINE
  5
1DE
330
1F
100
AcDbEntity
  8
0
  6
SLD-Сплошная
 62
     7
370
    25
100
AcDbSpline
210
0.0
220
0.0
230
1.0
 70
     8
 71
     3
 72
    10
 73
     6
 74
     0
 42
0.00000001
 43
0.00000001
 40
0.0
 40
0.0
 40
0.0
 40
0.0
 40
0.2835461733507234
 40
0.8317710705901092
 40
1.0
 40
1.0
 40
1.0
 40
1.0
 10
65.57236129464327
 20
258.7490031175875
 30
0.0
 10
67.10019434359508
 20
258.7731366932791
 30
0.0
 10
71.58202993245946
 20
258.8439315477921
 30
0.0
 10
76.97745643382103
 20
258.7455942058593
 30
0.0
 10
80.82448474668584
 20
258.4119174134309
 30
0.0
 10
81.72779690779123
 20
258.3335675080062
 30
0.0
  0
SPLINE
  5
1DF
330
1F
100
AcDbEntity
  8
0
  6
SLD-Сплошная
 62
     7
370
    25
100
AcDbSpline
210
0.0
220
0.0
230
1.0
 70
     8
 71
     3
 72
    15
 73
    11
 74
     0
 42
0.00000001
 43
0.00000001
 40
0.0
 40
0.0
 40
0.0
 40
0.0
 40
0.0609240366218433
 40
0.1946298852503031
 40
0.3270661889988785
 40
0.4636935685346933
 40
0.5912901357676265
 40
0.722638428637267
 40
0.8594339887432387
 40
1.0
 40
1.0
 40
1.0
 40
1.0
 10
92.84186725571655
 20
257.2437453820602
 30
0.0
 10
93.13289943984005
 20
257.2059134401791
 30
0.0
 10
94.06264020786715
 20
257.0850543028762
 30
0.0
 10
95.49414650870447
 20
256.8528572239342
 30
0.0
 10
97.09441245743193
 20
256.5159904495924
 30
0.0
 10
98.41402003506356
 20
256.0986492029143
 30
0.0
 10
99.46126311538609
 20
255.5725170754671
 30
0.0
 10
100.1981578030746
 20
254.9173207116159
 30
0.0
 10
100.6921406406143
 20
254.1040706496185
 30
0.0
 10
100.7599320144506
 20
253.4303580790612
 30
0.0
 10
100.7942884790862
 20
253.0889225719306
 30
0.0
  0
LINE
  5
1E0
330
1F
100
AcDbEntity
  8
0
  6
SLD-Сплошная
 62
     7
370
    25
100
AcDbLine
 10
100.7942884791
 20
215.2068513017
 30
0.0
 11
100.7942884791
 21
253.0889225719
 31
0.0
  0
SPLINE
  5
1E1
330
1F
100
AcDbEntity
  8
0
  6
SLD-Сплошная
 62
     7
370
    25
100
AcDbSpline
210
0.0
220
0.0
230
1.0
 70
     8
 71
     3
 72
    15
 73
    11
 74
     0
 42
0.00000001
 43
0.00000001
 40
0.0
 40
0.0
 40
0.0
 40
0.0
 40
0.0620800156959984
 40
0.1956212757617282
 40
0.3278945537256365
 40
0.4643537483670879
 40
0.5917932474102181
 40
0.7229798538094296
 40
0.8596070219949534
 40
1.0
 40
1.0
 40
1.0
 40
1.0
 10
92.82435890925377
 20
211.0496981481949
 30
0.0
 10
93.12131282602998
 20
211.088287835343
 30
0.0
 10
94.05704880146318
 20
211.2098883817752
 30
0.0
 10
95.49421396490024
 20
211.4429016516563
 30
0.0
 10
97.09439377997084
 20
211.779787576675
 30
0.0
 10
98.41402472871835
 20
212.1971236270953
 30
0.0
 10
99.46126185627818
 20
212.7232570780603
 30
0.0
 10
100.1981581583793
 20
213.3784530829683
 30
0.0
 10
100.6921405473836
 20
214.1917032446916
 30
0.0
 10
100.7599319830933
 20
214.8654158014922
 30
0.0
 10
100.7942884790862
 20
215.2068513016509
 30
0.0
  0
SPLINE
  5
1E2
330
1F
100
AcDbEntity
  8
0
  6
SLD-Сплошная
 62
     7
370
    25
100
AcDbSpline
210
0.0
220
0.0
230
1.0
 70
     8
 71
     3
 72
    14
 73
    10
 74
     0
 42
0.00000001
 43
0.00000001
 40
0.0
 40
0.0
 40
0.0
 40
0.0
 40
0.2500000000000002
 40
0.2500000000000002
 40
0.5000000000000004
 40
0.5000000000000004
 40
0.7500000000000002
 40
0.7500000000000002
 40
1.0
 40
1.0
 40
1.0
 40
1.0
 10
47.29384230727697
 20
209.5112146806956
 30
0.0
 10
48.24034839999936
 20
209.522812879266
 30
0.0
 10
49.21291500732033
 20
209.5388445357834
 30
0.0
 10
51.17871905465508
 20
209.5691920791105
 30
0.0
 10
52.17104730836685
 20
209.5837928782682
 30
0.0
 10
54.17419033506138
 20
209.6055452465729
 30
0.0
 10
55.17937431970554
 20
209.6125822091293
 30
0.0
 10
57.18762657155794
 20
209.6153499782996
 30
0.0
 10
58.19219835698111
 20
209.6108255721707
 30
0.0
 10
59.19719062189387
 20
209.6016180777165
 30
0.0
  0
LINE
  5
1E3
330
1F
100
AcDbEntity
  8
0
  6
SLD-Сплошная
 62
     7
370
    25
100
AcDbLine
 10
45.1212643985
 20
209.5008244671
 30
0.0
 11
47.2938423073
 21
209.5112146807
 31
0.0
  0
LINE
  5
1E4
330
1F
100
AcDbEntity
  8
0
  6
SLD-Сплошная
 62
     7
370
    25
100
AcDbLine
 10
45.1205336173
 20
258.794948795
 30
0.0
 11
47.2938423073
 21
258.7845591929
 31
0.0
  0
SPLINE
  5
1E5
330
1F
100
AcDbEntity
  8
0
  6
SLD-Сплошная
 62
     7
370
    25
100
AcDbSpline
210
0.0
220
0.0
230
1.0
 70
     8
 71
     3
 72
    18
 73
    14
 74
     0
 42
0.00000001
 43
0.00000001
 40
0.0
 40
0.0
 40
0.0
 40
0.0
 40
0.125
 40
0.125
 40
0.25
 40
0.25
 40
0.5
 40
0.5
 40
0.75
 40
0.75
 40
0.875
 40
0.875
 40
1.0
 40
1.0
 40
1.0
 40
1.0
 10
47.29384230727697
 20
258.7845591928859
 30
0.0
 10
47.76735113111471
 20
258.778756959381
 30
0.0
 10
48.24785249767898
 20
258.7718897789756
 30
0.0
 10
49.21669048099489
 20
258.7572028865646
 30
0.0
 10
49.70567072726661
 20
258.7493317963885
 30
0.0
 10
51.17945885729725
 20
258.7263314194292
 30
0.0
 10
52.17262735938883
 20
258.7120456630736
 30
0.0
 10
54.17543400940026
 20
258.6900191081108
 30
0.0
 10
55.18031418166985
 20
258.6829450455945
 30
0.0
 10
56.68618940399592
 20
258.6814569844568
 30
0.0
 10
57.18825120886212
 20
258.6822966763077
 30
0.0
 10
58.19256486690551
 20
258.6863552358194
 30
0.0
 10
58.69481443743299
 20
258.6895531475723
 30
0.0
 10
59.19719062189387
 20
258.694155795865
 30
0.0
  0
SPLINE
  5
1E6
330
1F
100
AcDbEntity
  8
0
  6
SLD-Сплошная
 62
     7
370
    25
100
AcDbSpline
210
0.0
220
0.0
230
1.0
 70
     8
 71
     3
 72
    14
 73
    10
 74
     0
 42
0.00000001
 43
0.00000001
 40
0.0
 40
0.0
 40
0.0
 40
0.0
 40
0.0023052483359335
 40
0.0023052483359335
 40
0.0023052483359335
 40
0.0042393693682348
 40
0.0042393693682348
 40
0.0042393693682348
 40
0.0061734915672103
 40
0.0061734915672103
 40
0.0061734915672103
 40
0.0061734915672103
 10
65.34005104624688
 20
258.742819727781
 30
0.0
 10
64.57544974235233
 20
258.7377109116186
 30
0.0
 10
63.81084729218041
 20
258.7322477359475
 30
0.0
 10
63.04624418250187
 20
258.726430459473
 30
0.0
 10
62.40473628950391
 20
258.7215497197442
 30
0.0
 10
61.76322782051601
 20
258.7164197178441
 30
0.0
 10
61.12171904239798
 20
258.7110405781709
 30
0.0
 10
60.48020987729686
 20
258.7056614352527
 30
0.0
 10
59.838700309243
 20
258.7000331514375
 30
0.0
 10
59.19719062189392
 20
258.694155795865
 30
0.0
  0
SPLINE
  5
1E7
330
1F
100
AcDbEntity
  8
0
  6
SLD-Сплошная
 62
     7
370
    25
100
AcDbSpline
210
0.0
220
0.0
230
1.0
 70
     8
 71
     3
 72
    14
 73
    10
 74
     0
 42
0.00000001
 43
0.00000001
 40
0.0
 40
0.0
 40
0.0
 40
0.0
 40
0.0023052483359335
 40
0.0023052483359335
 40
0.0023052483359335
 40
0.0042393693682346
 40
0.0042393693682346
 40
0.0042393693682346
 40
0.0061734915672103
 40
0.0061734915672103
 40
0.0061734915672103
 40
0.0061734915672103
 10
65.34005104624688
 20
209.5529541458006
 30
0.0
 10
64.57544974235233
 20
209.5580629619629
 30
0.0
 10
63.81084729218041
 20
209.5635261376341
 30
0.0
 10
63.04624418250187
 20
209.5693434141085
 30
0.0
 10
62.40473628950396
 20
209.5742241538372
 30
0.0
 10
61.7632278205161
 20
209.5793541557374
 30
0.0
 10
61.12171904239813
 20
209.5847332954106
 30
0.0
 10
60.48020987729697
 20
209.5901124383288
 30
0.0
 10
59.83870030924304
 20
209.595740722144
 30
0.0
 10
59.19719062189392
 20
209.6016180777166
 30
0.0
  0
LINE
  5
1E8
330
1F
100
AcDbEntity
  8
0
  6
SLD-Сплошная
 62
     7
370
    25
100
AcDbLine
 10
32.2150510462
 20
258.7728869368
 30
0.0
 11
32.2150510462
 21
209.5228869368
 31
0.0
  0
LINE
  5
1E9
330
1F
100
AcDbEntity
  8
0
  6
SLD-Сплошная
 62
     7
370
    25
100
AcDbLine
 10
13.3650510462
 20
258.7728869368
 30
0.0
 11
13.3650510462
 21
209.5228869368
 31
0.0
  0
LINE
  5
1EA
330
1F
100
AcDbEntity
  8
0
  6
SLD-Сплошная
 62
     7
370
    25
100
AcDbLine
 10
0.2400510462
 20
231.1419622021
 30
0.0
 11
0.2400510462
 21
209.5228869368
 31
0.0
  0
LINE
  5
1EB
330
1F
100
AcDbEntity
  8
0
  6
SLD-Сплошная
 62
     7
370
    25
100
AcDbLine
 10
0.2400510462
 20
258.7728869368
 30
0.0
 11
0.2400510462
 21
237.1538116715
 31
0.0
  0
LINE
  5
1EC
330
1F
100
AcDbEntity
  8
0
  6
SLD-Сплошная
 62
     7
370
    25
100
AcDbLine
 10
14.4282034477
 20
257.9478869368
 30
0.0
 11
14.4282034477
 21
254.0029258993
 31
0.0
  0
LINE
  5
1ED
330
1F
100
AcDbEntity
  8
0
  6
SLD-Сплошная
 62
     7
370
    25
100
AcDbLine
 10
14.4282034477
 20
254.0029258993
 30
0.0
 11
31.1650510462
 21
254.0029258993
 31
0.0
  0
LINE
  5
1EE
330
1F
100
AcDbEntity
  8
0
  6
SLD-Сплошная
 62
     7
370
    25
100
AcDbLine
 10
31.1650510462
 20
257.9478869368
 30
0.0
 11
31.1650510462
 21
254.0029258993
 31
0.0
  0
LINE
  5
1EF
330
1F
100
AcDbEntity
  8
0
  6
SLD-Сплошная
 62
     7
370
    25
100
AcDbLine
 10
105.2156252811
 20
215.6584777368
 30
0.0
 11
105.2400510462
 21
215.9485336481
 31
0.0
  0
LINE
  5
1F0
330
1F
100
AcDbEntity
  8
0
  6
SLD-Сплошная
 62
     7
370
    25
100
AcDbLine
 10
105.215618252
 20
252.637337647
 30
0.0
 11
105.2400510462
 21
252.3472402255
 31
0.0
  0
LINE
  5
1F1
330
1F
100
AcDbEntity
  8
0
  6
SLD-Сплошная
 62
     7
370
    25
100
AcDbLine
 10
105.2400510462
 20
252.3472402255
 30
0.0
 11
105.2400510462
 21
215.9485336481
 31
0.0
  0
LINE
  5
1F2
330
1F
100
AcDbEntity
  8
0
  6
SLD-Сплошная
 62
     7
370
    25
100
AcDbLine
 10
113.9034732325
 20
231.9828234273
 30
0.0
 11
113.9034732325
 21
236.3129504463
 31
0.0
  0
LINE
  5
1F3
330
1F
100
AcDbEntity
  8
0
  6
SLD-Сплошная
 62
     7
370
    25
100
AcDbLine
 10
113.9034732325
 20
218.3129504463
 30
0.0
 11
113.9034732325
 21
231.9828234273
 31
0.0
  0
LINE
  5
1F4
330
1F
100
AcDbEntity
  8
0
  6
SLD-Сплошная
 62
     7
370
    25
100
AcDbLine
 10
113.9034732325
 20
216.1478869368
 30
0.0
 11
113.9034732325
 21
218.3129504463
 31
0.0
  0
LINE
  5
1F5
330
1F
100
AcDbEntity
  8
0
  6
SLD-Сплошная
 62
     7
370
    25
100
AcDbLine
 10
113.9034732325
 20
214.4936640884
 30
0.0
 11
113.9034732325
 21
216.1478869368
 31
0.0
  0
LINE
  5
1F6
330
1F
100
AcDbEntity
  8
0
  6
SLD-Сплошная
 62
     7
370
    25
100
AcDbLine
 10
113.9034732325
 20
252.1478869368
 30
0.0
 11
113.9034732325
 21
253.8021097851
 31
0.0
  0
LINE
  5
1F7
330
1F
100
AcDbEntity
  8
0
  6
SLD-Сплошная
 62
     7
370
    25
100
AcDbLine
 10
113.9034732325
 20
249.9828234273
 30
0.0
 11
113.9034732325
 21
252.1478869368
 31
0.0
  0
LINE
  5
1F8
330
1F
100
AcDbEntity
  8
0
  6
SLD-Сплошная
 62
     7
370
    25
100
AcDbLine
 10
113.9034732325
 20
236.3129504463
 30
0.0
 11
113.9034732325
 21
249.9828234273
 31
0.0
  0
LINE
  5
1F9
330
1F
100
AcDbEntity
  8
0
  6
SLD-Сплошная
 62
     7
370
    25
100
AcDbLine
 10
111.9034732325
 20
214.4936640884
 30
0.0
 11
111.9034732325
 21
253.8021097851
 31
0.0
  0
LINE
  5
1FA
330
1F
100
AcDbEntity
  8
0
  6
SLD-Сплошная
 62
     7
370
    25
100
AcDbLine
 10
122.9034732325
 20
231.9828234273
 30
0.0
 11
113.9034732325
 21
231.9828234273
 31
0.0
  0
LINE
  5
1FB
330
1F
100
AcDbEntity
  8
0
  6
SLD-Сплошная
 62
     7
370
    25
100
AcDbLine
 10
113.9034732325
 20
218.3129504463
 30
0.0
 11
122.9034732325
 21
218.3129504463
 31
0.0
  0
LINE
  5
1FC
330
1F
100
AcDbEntity
  8
0
  6
SLD-Сплошная
 62
     7
370
    25
100
AcDbLine
 10
122.9034732325
 20
218.3129504463
 30
0.0
 11
122.9034732325
 21
231.9828234273
 31
0.0
  0
LINE
  5
1FD
330
1F
100
AcDbEntity
  8
0
  6
SLD-Сплошная
 62
     7
370
    25
100
AcDbLine
 10
113.9034732325
 20
236.3129504463
 30
0.0
 11
122.9034732325
 21
236.3129504463
 31
0.0
  0
LINE
  5
1FE
330
1F
100
AcDbEntity
  8
0
  6
SLD-Сплошная
 62
     7
370
    25
100
AcDbLine
 10
122.9034732325
 20
236.3129504463
 30
0.0
 11
122.9034732325
 21
231.9828234273
 31
0.0
  0
LINE
  5
1FF
330
1F
100
AcDbEntity
  8
0
  6
SLD-Сплошная
 62
     7
370
    25
100
AcDbLine
 10
122.9034732325
 20
249.9828234273
 30
0.0
 11
113.9034732325
 21
249.9828234273
 31
0.0
  0
LINE
  5
200
330
1F
100
AcDbEntity
  8
0
  6
SLD-Сплошная
 62
     7
370
    25
100
AcDbLine
 10
122.9034732325
 20
249.9828234273
 30
0.0
 11
122.9034732325
 21
236.3129504463
 31
0.0
  0
LINE
  5
201
330
1F
100
AcDbEntity
  8
0
  6
SLD-Сплошная
 62
     7
370
    25
100
AcDbLine
 10
134.9130921758
 20
231.0778028427
 30
0.0
 11
141.7554907641
 21
231.0778028427
 31
0.0
  0
LINE
  5
202
330
1F
100
AcDbEntity
  8
0
  6
SLD-Сплошная
 62
     7
370
    25
100
AcDbLine
 10
134.9130921758
 20
231.0778028427
 30
0.0
 11
122.9034732325
 21
231.0778028427
 31
0.0
  0
LINE
  5
203
330
1F
100
AcDbEntity
  8
0
  6
SLD-Сплошная
 62
     7
370
    25
100
AcDbLine
 10
134.9130921758
 20
237.2179710309
 30
0.0
 11
141.7554907641
 21
237.2179710309
 31
0.0
  0
LINE
  5
204
330
1F
100
AcDbEntity
  8
0
  6
SLD-Сплошная
 62
     7
370
    25
100
AcDbLine
 10
134.9130921758
 20
237.2179710309
 30
0.0
 11
122.9034732325
 21
237.2179710309
 31
0.0
  0
ARC
  5
205
330
1F
100
AcDbEntity
  8
0
  6
SLD-Сплошная
 62
     7
370
    25
100
AcDbCircle
 10
134.9130921758
 20
234.1478869368
 30
0.0
 40
14.68245836551858
100
AcDbArc
 50
62.2233953742
 51
90.0
  0
LINE
  5
206
330
1F
100
AcDbEntity
  8
0
  6
SLD-Сплошная
 62
     7
370
    25
100
AcDbLine
 10
141.7554907641
 20
247.1385052906
 30
0.0
 11
144.4718131801
 21
245.707768111
 31
0.0
  0
LINE
  5
207
330
1F
100
AcDbEntity
  8
0
  6
SLD-Сплошная
 62
     7
370
    25
100
AcDbLine
 10
144.4718131801
 20
222.5880057626
 30
0.0
 11
141.7554907641
 21
221.157268583
 31
0.0
  0
ARC
  5
208
330
1F
100
AcDbEntity
  8
0
  6
SLD-Сплошная
 62
     7
370
    25
100
AcDbCircle
 10
134.9130921758
 20
234.1478869368
 30
0.0
 40
14.68245836551858
100
AcDbArc
 50
270.0
 51
297.7766046258
  0
ARC
  5
209
330
1F
100
AcDbEntity
  8
0
  6
SLD-Сплошная
 62
     7
370
    25
100
AcDbCircle
 10
141.4522672731
 20
234.1478869368
 30
0.0
 40
3.085022014554609
100
AcDbArc
 50
275.6406475517
 51
84.3593524483
  0
LINE
  5
20A
330
1F
100
AcDbEntity
  8
0
  6
SLD-Сплошная
 62
     7
370
    25
100
AcDbLine
 10
147.9034732325
 20
226.6478869368
 30
0.0
 11
147.9034732325
 21
241.6478869368
 31
0.0
  0
LINE
  5
20B
330
1F
100
AcDbEntity
  8
0
  6
SLD-Сплошная
 62
     7
370
    25
100
AcDbLine
 10
134.9130921758
 20
219.4654285713
 30
0.0
 11
122.9034732325
 21
219.4654285713
 31
0.0
  0
LINE
  5
20C
330
1F
100
AcDbEntity
  8
0
  6
SLD-Сплошная
 62
     7
370
    25
100
AcDbLine
 10
134.9130921758
 20
248.8303453023
 30
0.0
 11
122.9034732325
 21
248.8303453023
 31
0.0
  0
LINE
  5
20D
330
1F
100
AcDbEntity
  8
0
  6
SLD-Сплошная
 62
     7
370
    25
100
AcDbLine
 10
-1.1099489538
 20
230.6478869368
 30
0.0
 11
-1.1099489538
 21
237.6478869368
 31
0.0
  0
LINE
  5
20E
330
1F
100
AcDbEntity
  8
0
  6
SLD-Сплошная
 62
     7
370
    25
100
AcDbLine
 10
18.491822771
 20
255.0110006141
 30
0.0
 11
20.839892771
 21
255.0110006141
 31
0.0
  0
LINE
  5
20F
330
1F
100
AcDbEntity
  8
0
  6
SLD-Сплошная
 62
     7
370
    25
100
AcDbLine
 10
21.622592247
 20
255.0110006141
 30
0.0
 11
27.101431723
 21
255.0110006141
 31
0.0
  0
LINE
  5
210
330
1F
100
AcDbEntity
  8
0
  6
SLD-Сплошная
 62
     7
370
    25
100
AcDbLine
 10
122.9034732325
 20
216.1478869368
 30
0.0
 11
113.9034732325
 21
216.1478869368
 31
0.0
  0
LINE
  5
211
330
1F
100
AcDbEntity
  8
0
  6
SLD-Сплошная
 62
     7
370
    25
100
AcDbLine
 10
122.9034732325
 20
216.1478869368
 30
0.0
 11
122.9034732325
 21
218.3129504463
 31
0.0
  0
LINE
  5
212
330
1F
100
AcDbEntity
  8
0
  6
SLD-Сплошная
 62
     7
370
    25
100
AcDbLine
 10
113.9034732325
 20
252.1478869368
 30
0.0
 11
122.9034732325
 21
252.1478869368
 31
0.0
  0
LINE
  5
213
330
1F
100
AcDbEntity
  8
0
  6
SLD-Сплошная
 62
     7
370
    25
100
AcDbLine
 10
122.9034732325
 20
252.1478869368
 30
0.0
 11
122.9034732325
 21
249.9828234273
 31
0.0
  0
LINE
  5
214
330
1F
100
AcDbEntity
  8
0
  6
SLD-Сплошная
 62
     7
370
    25
100
AcDbLine
 10
105.2400510462
 20
215.9485336481
 30
0.0
 11
105.2400510462
 21
213.1478869368
 31
0.0
  0
LINE
  5
215
330
1F
100
AcDbEntity
  8
0
  6
SLD-Сплошная
 62
     7
370
    25
100
AcDbLine
 10
105.2400510462
 20
255.1478869368
 30
0.0
 11
105.2400510462
 21
252.3472402255
 31
0.0
  0
LINE
  5
216
330
1F
100
AcDbEntity
  8
0
  6
SLD-Сплошная
 62
     7
370
    25
100
AcDbLine
 10
21.622592247
 20
255.4586708809
 30
0.0
 11
27.101431723
 21
255.4586708809
 31
0.0
  0
LINE
  5
217
330
1F
100
AcDbEntity
  8
0
  6
SLD-Сплошная
 62
     7
370
    25
100
AcDbLine
 10
27.101431723
 20
255.0110006141
 30
0.0
 11
27.101431723
 21
255.4586708809
 31
0.0
  0
LINE
  5
218
330
1F
100
AcDbEntity
  8
0
  6
SLD-Сплошная
 62
     7
370
    25
100
AcDbLine
 10
21.622592247
 20
255.0110006141
 30
0.0
 11
21.622592247
 21
255.4586708809
 31
0.0
  0
LINE
  5
219
330
1F
100
AcDbEntity
  8
0
  6
SLD-Сплошная
 62
     7
370
    25
100
AcDbLine
 10
18.491822771
 20
255.4586708809
 30
0.0
 11
20.839892771
 21
255.4586708809
 31
0.0
  0
LINE
  5
21A
330
1F
100
AcDbEntity
  8
0
  6
SLD-Сплошная
 62
     7
370
    25
100
AcDbLine
 10
18.491822771
 20
255.0110006141
 30
0.0
 11
18.491822771
 21
255.4586708809
 31
0.0
  0
LINE
  5
21B
330
1F
100
AcDbEntity
  8
0
  6
SLD-Сплошная
 62
     7
370
    25
100
AcDbLine
 10
20.839892771
 20
255.0110006141
 30
0.0
 11
20.839892771
 21
255.4586708809
 31
0.0
  0
LINE
  5
21C
330
1F
100
AcDbEntity
  8
0
  6
SLD-Сплошная
 62
     7
370
    25
100
AcDbLine
 10
20.839892771
 20
256.5316576841
 30
0.0
 11
18.491822771
 21
256.5316576841
 31
0.0
  0
LINE
  5
21D
330
1F
100
AcDbEntity
  8
0
  6
SLD-Сплошная
 62
     7
370
    25
100
AcDbLine
 10
18.491822771
 20
256.5316576841
 30
0.0
 11
18.491822771
 21
255.4586708809
 31
0.0
  0
LINE
  5
21E
330
1F
100
AcDbEntity
  8
0
  6
SLD-Сплошная
 62
     7
370
    25
100
AcDbLine
 10
20.839892771
 20
256.5316576841
 30
0.0
 11
20.839892771
 21
255.4586708809
 31
0.0
  0
LINE
  5
21F
330
1F
100
AcDbEntity
  8
0
  6
SLD-Сплошная
 62
     7
370
    25
100
AcDbLine
 10
27.101431723
 20
256.5316576841
 30
0.0
 11
21.622592247
 21
256.5316576841
 31
0.0
  0
LINE
  5
220
330
1F
100
AcDbEntity
  8
0
  6
SLD-Сплошная
 62
     7
370
    25
100
AcDbLine
 10
27.101431723
 20
256.5316576841
 30
0.0
 11
27.101431723
 21
255.4586708809
 31
0.0
  0
LINE
  5
221
330
1F
100
AcDbEntity
  8
0
  6
SLD-Сплошная
 62
     7
370
    25
100
AcDbLine
 10
21.622592247
 20
256.5316576841
 30
0.0
 11
21.622592247
 21
255.4586708809
 31
0.0
  0
LINE
  5
222
330
1F
100
AcDbEntity
  8
0
  6
SLD-Сплошная
 62
     7
370
    25
100
AcDbLine
 10
18.491822771
 20
256.7849809227
 30
0.0
 11
20.839892771
 21
256.7849809227
 31
0.0
  0
LINE
  5
223
330
1F
100
AcDbEntity
  8
0
  6
SLD-Сплошная
 62
     7
370
    25
100
AcDbLine
 10
20.839892771
 20
256.5316576841
 30
0.0
 11
20.839892771
 21
256.7849809227
 31
0.0
  0
LINE
  5
224
330
1F
100
AcDbEntity
  8
0
  6
SLD-Сплошная
 62
     7
370
    25
100
AcDbLine
 10
18.491822771
 20
256.5316576841
 30
0.0
 11
18.491822771
 21
256.7849809227
 31
0.0
  0
LINE
  5
225
330
1F
100
AcDbEntity
  8
0
  6
SLD-Сплошная
 62
     7
370
    25
100
AcDbLine
 10
20.839892771
 20
257.9478869368
 30
0.0
 11
20.839892771
 21
256.7849809227
 31
0.0
  0
LINE
  5
226
330
1F
100
AcDbEntity
  8
0
  6
SLD-Сплошная
 62
     7
370
    25
100
AcDbLine
 10
18.491822771
 20
257.9478869368
 30
0.0
 11
18.491822771
 21
256.7849809227
 31
0.0
  0
LINE
  5
227
330
1F
100
AcDbEntity
  8
0
  6
SLD-Сплошная
 62
     7
370
    25
100
AcDbLine
 10
21.622592247
 20
256.7849809227
 30
0.0
 11
27.101431723
 21
256.7849809227
 31
0.0
  0
LINE
  5
228
330
1F
100
AcDbEntity
  8
0
  6
SLD-Сплошная
 62
     7
370
    25
100
AcDbLine
 10
27.101431723
 20
256.5316576841
 30
0.0
 11
27.101431723
 21
256.7849809227
 31
0.0
  0
LINE
  5
229
330
1F
100
AcDbEntity
  8
0
  6
SLD-Сплошная
 62
     7
370
    25
100
AcDbLine
 10
21.622592247
 20
256.5316576841
 30
0.0
 11
21.622592247
 21
256.7849809227
 31
0.0
  0
LINE
  5
22A
330
1F
100
AcDbEntity
  8
0
  6
SLD-Сплошная
 62
     7
370
    25
100
AcDbLine
 10
23.970662247
 20
257.9478869368
 30
0.0
 11
23.970662247
 21
257.4784852022
 31
0.0
  0
LINE
  5
22B
330
1F
100
AcDbEntity
  8
0
  6
SLD-Сплошная
 62
     7
370
    25
100
AcDbLine
 10
24.753361723
 20
257.4784852022
 30
0.0
 11
23.970662247
 21
257.4784852022
 31
0.0
  0
LINE
  5
22C
330
1F
100
AcDbEntity
  8
0
  6
SLD-Сплошная
 62
     7
370
    25
100
AcDbLine
 10
24.753361723
 20
257.9478869368
 30
0.0
 11
24.753361723
 21
257.4784852022
 31
0.0
  0
LINE
  5
22D
330
1F
100
AcDbEntity
  8
0
  6
SLD-Сплошная
 62
     7
370
    25
100
AcDbLine
 10
27.101431723
 20
257.9478869368
 30
0.0
 11
27.101431723
 21
256.7849809227
 31
0.0
  0
LINE
  5
22E
330
1F
100
AcDbEntity
  8
0
  6
SLD-Сплошная
 62
     7
370
    25
100
AcDbLine
 10
21.622592247
 20
257.9478869368
 30
0.0
 11
21.622592247
 21
256.7849809227
 31
0.0
  0
SPLINE
  5
22F
330
1F
100
AcDbEntity
  8
0
  6
SLD-Сплошная
 62
     7
370
    25
100
AcDbSpline
210
0.0
220
0.0
230
1.0
 70
     8
 71
     3
 72
    13
 73
     9
 74
     0
 42
0.00000001
 43
0.00000001
 40
0.0
 40
0.0
 40
0.0
 40
0.0
 40
0.0136205873618802
 40
0.2228353004704839
 40
0.4874759015828468
 40
0.6966959200196141
 40
0.835639248403015
 40
1.0
 40
1.0
 40
1.0
 40
1.0
 10
65.34113638492084
 20
207.7267218425832
 30
0.0
 10
65.34248657594318
 20
207.7247260720516
 30
0.0
 10
65.3645759480213
 20
207.6920749011251
 30
0.0
 10
65.41513385783084
 20
207.8261465838184
 30
0.0
 10
65.47974146902402
 20
208.1433823451725
 30
0.0
 10
65.52622658794206
 20
208.6158498069954
 30
0.0
 10
65.55620577523922
 20
209.0767861952615
 30
0.0
 10
65.56668343919554
 20
209.3815947358506
 30
0.0
 10
65.57236129464327
 20
209.546770755994
 30
0.0
  0
SPLINE
  5
230
330
1F
100
AcDbEntity
  8
0
  6
SLD-Сплошная
 62
     7
370
    25
100
AcDbSpline
210
0.0
220
0.0
230
1.0
 70
     8
 71
     3
 72
    13
 73
     9
 74
     0
 42
0.00000001
 43
0.00000001
 40
0.0
 40
0.0
 40
0.0
 40
0.0
 40
0.0136205873618771
 40
0.2228353004704842
 40
0.4874759015828526
 40
0.6966959200196241
 40
0.8356392484030218
 40
1.0
 40
1.0
 40
1.0
 40
1.0
 10
65.3411363849208
 20
260.5690520309984
 30
0.0
 10
65.34248657594316
 20
260.5710478015299
 30
0.0
 10
65.36457594802123
 20
260.6036989724563
 30
0.0
 10
65.41513385783082
 20
260.4696272897631
 30
0.0
 10
65.47974146902396
 20
260.152391528409
 30
0.0
 10
65.52622658794202
 20
259.6799240665861
 30
0.0
 10
65.55620577523916
 20
259.21898767832
 30
0.0
 10
65.56668343919551
 20
258.9141791377309
 30
0.0
 10
65.57236129464327
 20
258.7490031175875
 30
0.0
  0
LINE
  5
231
330
1F
100
AcDbEntity
  8
0
  6
SLD-Сплошная
 62
     7
370
    25
100
AcDbLine
 10
20.839892771
 20
257.8946128458
 30
0.0
 11
21.622592247
 21
257.8946128458
 31
0.0
  0
LINE
  5
232
330
1F
100
AcDbEntity
  8
0
  6
SLD-Сплошная
 62
     7
370
    25
100
AcDbLine
 10
23.970662247
 20
257.8946128458
 30
0.0
 11
24.753361723
 21
257.8946128458
 31
0.0
  0
LINE
  5
233
330
1F
100
AcDbEntity
  8
0
  6
SLD-Сплошная
 62
     7
370
    25
100
AcDbLine
 10
40.3400510462
 20
93.8733290113
 30
0.0
 11
37.0400510462
 21
93.8733290113
 31
0.0
  0
LINE
  5
234
330
1F
100
AcDbEntity
  8
0
  6
SLD-Сплошная
 62
     7
370
    25
100
AcDbLine
 10
37.0400510462
 20
35.8733290113
 30
0.0
 11
40.3400510462
 21
35.8733290113
 31
0.0
  0
ARC
  5
235
330
1F
100
AcDbEntity
  8
0
  6
SLD-Сплошная
 62
     7
370
    25
100
AcDbCircle
 10
68.9942277031
 20
220.1862335027
 30
0.0
 40
180.0
100
AcDbArc
 50
280.2196586619
 51
281.6168319539
  0
ARC
  5
236
330
1F
100
AcDbEntity
  8
0
  6
SLD-Сплошная
 62
     7
370
    25
100
AcDbCircle
 10
68.9942277031
 20
-90.43957548
 30
0.0
 40
180.0
100
AcDbArc
 50
78.3831680461
 51
79.7808925411
  0
LINE
  5
237
330
1F
100
AcDbEntity
  8
0
  6
SLD-Сплошная
 62
     7
370
    25
100
AcDbLine
 10
13.3650510462
 20
89.4983290113
 30
0.0
 11
0.2400510462
 21
89.4983290113
 31
0.0
  0
LINE
  5
238
330
1F
100
AcDbEntity
  8
0
  6
SLD-Сплошная
 62
     7
370
    25
100
AcDbLine
 10
0.2400510462
 20
40.2483290113
 30
0.0
 11
13.3650510462
 21
40.2483290113
 31
0.0
  0
LINE
  5
239
330
1F
100
AcDbEntity
  8
0
  6
SLD-Сплошная
 62
     7
370
    25
100
AcDbLine
 10
37.0400510462
 20
89.4983290113
 30
0.0
 11
32.2150510462
 21
89.4983290113
 31
0.0
  0
LINE
  5
23A
330
1F
100
AcDbEntity
  8
0
  6
SLD-Сплошная
 62
     7
370
    25
100
AcDbLine
 10
32.2150510462
 20
40.2483290113
 30
0.0
 11
37.0400510462
 21
40.2483290113
 31
0.0
  0
LINE
  5
23B
330
1F
100
AcDbEntity
  8
0
  6
SLD-Сплошная
 62
     7
370
    25
100
AcDbLine
 10
32.2150510462
 20
88.6733290113
 30
0.0
 11
13.3650510462
 21
88.6733290113
 31
0.0
  0
LINE
  5
23C
330
1F
100
AcDbEntity
  8
0
  6
SLD-Сплошная
 62
     7
370
    25
100
AcDbLine
 10
31.1650510462
 20
41.0733290113
 30
0.0
 11
32.2150510462
 21
41.0733290113
 31
0.0
  0
LINE
  5
23D
330
1F
100
AcDbEntity
  8
0
  6
SLD-Сплошная
 62
     7
370
    25
100
AcDbLine
 10
13.3650510462
 20
41.0733290113
 30
0.0
 11
14.4282034477
 21
41.0733290113
 31
0.0
  0
LINE
  5
23E
330
1F
100
AcDbEntity
  8
0
  6
SLD-Сплошная
 62
     7
370
    25
100
AcDbLine
 10
113.9034732325
 20
84.5275518597
 30
0.0
 11
111.9034732325
 21
84.5275518597
 31
0.0
  0
LINE
  5
23F
330
1F
100
AcDbEntity
  8
0
  6
SLD-Сплошная
 62
     7
370
    25
100
AcDbLine
 10
111.9034732325
 20
45.219106163
 30
0.0
 11
113.9034732325
 21
45.219106163
 31
0.0
  0
ARC
  5
240
330
1F
100
AcDbEntity
  8
0
  6
SLD-Сплошная
 62
     7
370
    25
100
AcDbCircle
 10
134.9130921758
 20
64.8733290113
 30
0.0
 40
15.00000000000003
100
AcDbArc
 50
30.0
 51
50.4130804784
  0
ARC
  5
241
330
1F
100
AcDbEntity
  8
0
  6
SLD-Сплошная
 62
     7
370
    25
100
AcDbCircle
 10
134.9130921758
 20
64.8733290113
 30
0.0
 40
15.00000000000001
100
AcDbArc
 50
309.5869195216
 51
330.0
  0
LINE
  5
242
330
1F
100
AcDbEntity
  8
0
  6
SLD-Сплошная
 62
     7
370
    25
100
AcDbLine
 10
27.101431723
 20
41.4733290113
 30
0.0
 11
31.1650510462
 21
41.4733290113
 31
0.0
  0
LINE
  5
243
330
1F
100
AcDbEntity
  8
0
  6
SLD-Сплошная
 62
     7
370
    25
100
AcDbLine
 10
14.4282034477
 20
41.4733290113
 30
0.0
 11
18.491822771
 21
41.4733290113
 31
0.0
  0
LINE
  5
244
330
1F
100
AcDbEntity
  8
0
  6
SLD-Сплошная
 62
     7
370
    25
100
AcDbLine
 10
105.2400510462
 20
53.8733290113
 30
0.0
 11
111.9034732325
 21
53.8733290113
 31
0.0
  0
LINE
  5
245
330
1F
100
AcDbEntity
  8
0
  6
SLD-Сплошная
 62
     7
370
    25
100
AcDbLine
 10
111.9034732325
 20
75.8733290113
 30
0.0
 11
105.2400510462
 21
75.8733290113
 31
0.0
  0
SPLINE
  5
246
330
1F
100
AcDbEntity
  8
0
  6
SLD-Сплошная
 62
     7
370
    25
100
AcDbSpline
210
0.0
220
0.0
230
1.0
 70
     8
 71
     3
 72
    25
 73
    21
 74
     0
 42
0.00000001
 43
0.00000001
 40
0.0
 40
0.0
 40
0.0
 40
0.0
 40
0.0337725093863351
 40
0.0793903476010719
 40
0.1084896857530234
 40
0.1362735450591772
 40
0.2237640725628444
 40
0.3256914658128574
 40
0.385881035268801
 40
0.4552676660928098
 40
0.5236107679201633
 40
0.5628040141172775
 40
0.5817168267153642
 40
0.6110673673415774
 40
0.6507295964341753
 40
0.700495605139593
 40
0.7603695446283448
 40
0.8308130053749508
 40
0.9114408179288455
 40
1.0
 40
1.0
 40
1.0
 40
1.0
 10
104.3106878744187
 20
86.02152378704338
 30
0.0
 10
104.2240304235737
 20
86.1450312866952
 30
0.0
 10
104.0203213930689
 20
86.43536515607198
 30
0.0
 10
103.6610110650832
 20
86.80224929735999
 30
0.0
 10
103.2897031555349
 20
87.12124465837604
 30
0.0
 10
102.7365162958884
 20
87.52789683796678
 30
0.0
 10
101.8377799491984
 20
88.02107408683871
 30
0.0
 10
100.6849296509769
 20
88.43150175794014
 30
0.0
 10
99.52762957441053
 20
88.72540932848908
 30
0.0
 10
98.4778064267331
 20
88.93234217776187
 30
0.0
 10
97.47544800764186
 20
89.09011403016017
 30
0.0
 10
96.71330004177742
 20
89.19420540360348
 30
0.0
 10
96.19189713194363
 20
89.26087353993053
 30
0.0
 10
95.66379668095469
 20
89.32505250903714
 30
0.0
 10
94.93109872791031
 20
89.40887482238358
 30
0.0
 10
93.97929583253521
 20
89.51181919583884
 30
0.0
 10
92.78832243154301
 20
89.63771959523511
 30
0.0
 10
91.34883602646096
 20
89.79096611014
 30
0.0
 10
89.68123566276891
 20
89.97599300743063
 30
0.0
 10
88.51288688667616
 20
90.11136772469762
 30
0.0
 10
87.90132680657713
 20
90.18222821997887
 30
0.0
  0
SPLINE
  5
247
330
1F
100
AcDbEntity
  8
0
  6
SLD-Сплошная
 62
     7
370
    25
100
AcDbSpline
210
0.0
220
0.0
230
1.0
 70
     8
 71
     3
 72
    25
 73
    21
 74
     0
 42
0.00000001
 43
0.00000001
 40
0.0
 40
0.0
 40
0.0
 40
0.0
 40
0.0780099927174783
 40
0.1492951578849202
 40
0.2120343860003795
 40
0.2657758908773575
 40
0.3373273648653647
 40
0.3834271444149578
 40
0.4186263452458931
 40
0.4610799067479109
 40
0.5086361461230233
 40
0.55450782523568
 40
0.5988165250939613
 40
0.6759334200591758
 40
0.7633142604337152
 40
0.840343092513573
 40
0.8757768494866373
 40
0.9215965840923438
 40
0.9791777569031014
 40
1.0
 40
1.0
 40
1.0
 40
1.0
 10
87.90132680657715
 20
39.56442980271176
 30
0.0
 10
88.43982316345061
 20
39.62674994455418
 30
0.0
 10
89.47039496354091
 20
39.74601793948238
 30
0.0
 10
90.94399590120983
 20
39.90928449018639
 30
0.0
 10
92.23152795493135
 20
40.04693606430901
 30
0.0
 10
93.49070570119217
 20
40.1800144236582
 30
0.0
 10
94.59858779448516
 20
40.29852692192941
 30
0.0
 10
95.54820881228045
 20
40.40701923916742
 30
0.0
 10
96.31243762309118
 20
40.50011337736248
 30
0.0
 10
97.06615219801503
 20
40.59906564870122
 30
0.0
 10
97.85620093962102
 20
40.71495315979809
 30
0.0
 10
98.62304785590433
 20
40.8444210910324
 30
0.0
 10
99.51116034948032
 20
41.01882506490498
 30
0.0
 10
100.572165217732
 20
41.2805694748847
 30
0.0
 10
101.6874102113487
 20
41.67148151287846
 30
0.0
 10
102.5320812593621
 20
42.09934727796212
 30
0.0
 10
103.1731009326572
 20
42.52806260505844
 30
0.0
 10
103.6745652858506
 20
42.95581251447503
 30
0.0
 10
104.0974065263291
 20
43.36969621263901
 30
0.0
 10
104.2543577988286
 20
43.66534380873203
 30
0.0
 10
104.2960406453286
 20
43.74386138409015
 30
0.0
  0
LINE
  5
248
330
1F
100
AcDbEntity
  8
0
  6
SLD-Сплошная
 62
     7
370
    25
100
AcDbLine
 10
48.0195594828
 20
91.2933050673
 30
0.0
 11
40.3400510462
 21
90.9639901278
 31
0.0
  0
LINE
  5
249
330
1F
100
AcDbEntity
  8
0
  6
SLD-Сплошная
 62
     7
370
    25
100
AcDbLine
 10
40.3400510462
 20
38.7826678949
 30
0.0
 11
48.0195594828
 21
38.4533529554
 31
0.0
  0
SPLINE
  5
24A
330
1F
100
AcDbEntity
  8
0
  6
SLD-Сплошная
 62
     7
370
    25
100
AcDbSpline
210
0.0
220
0.0
230
1.0
 70
     8
 71
     3
 72
    12
 73
     8
 74
     0
 42
0.00000001
 43
0.00000001
 40
0.0
 40
0.0
 40
0.0
 40
0.0
 40
0.2392588138851944
 40
0.4601889709659135
 40
0.6610505781137802
 40
0.8410467991715747
 40
1.0
 40
1.0
 40
1.0
 40
1.0
 10
87.90237271619526
 20
90.18206591996248
 30
0.0
 10
86.10971399719125
 20
90.37532004751992
 30
0.0
 10
82.66172494385016
 20
90.74702388008278
 30
0.0
 10
77.69099873715581
 20
91.08568707278789
 30
0.0
 10
73.16013597728124
 20
91.27381796454759
 30
0.0
 10
69.09266460144252
 20
91.34251726982181
 30
0.0
 10
66.53877074797438
 20
91.31407173549931
 30
0.0
 10
65.34110060496093
 20
91.30073196136819
 30
0.0
  0
SPLINE
  5
24B
330
1F
100
AcDbEntity
  8
0
  6
SLD-Сплошная
 62
     7
370
    25
100
AcDbSpline
210
0.0
220
0.0
230
1.0
 70
     8
 71
     3
 72
    12
 73
     8
 74
     0
 42
0.00000001
 43
0.00000001
 40
0.0
 40
0.0
 40
0.0
 40
0.0
 40
0.1589532008284281
 40
0.3389494218862213
 40
0.5398110290340873
 40
0.760741186114807
 40
1.0
 40
1.0
 40
1.0
 40
1.0
 10
65.34110060496093
 20
38.44592606132244
 30
0.0
 10
66.5387707479744
 20
38.43258628719132
 30
0.0
 10
69.09266460144254
 20
38.40414075286881
 30
0.0
 10
73.1601359772813
 20
38.47284005814303
 30
0.0
 10
77.69099873715582
 20
38.66097094990274
 30
0.0
 10
82.66172494385017
 20
38.99963414260782
 30
0.0
 10
86.10971399719126
 20
39.3713379751707
 30
0.0
 10
87.90237271619525
 20
39.56459210272814
 30
0.0
  0
SPLINE
  5
24C
330
1F
100
AcDbEntity
  8
0
  6
SLD-Сплошная
 62
     7
370
    25
100
AcDbSpline
210
0.0
220
0.0
230
1.0
 70
     8
 71
     3
 72
    13
 73
     9
 74
     0
 42
0.00000001
 43
0.00000001
 40
0.0
 40
0.0
 40
0.0
 40
0.0
 40
0.1090858276255056
 40
0.2518594730640073
 40
0.4074619162534887
 40
0.5810898905876716
 40
0.785464172178633
 40
1.0
 40
1.0
 40
1.0
 40
1.0
 10
48.01986431235004
 20
38.45334472830615
 30
0.0
 10
48.40783889993276
 20
38.44753515394739
 30
0.0
 10
49.30360214725641
 20
38.43412189606989
 30
0.0
 10
50.74708405792573
 20
38.42990529570201
 30
0.0
 10
52.46213953986403
 20
38.43421157514777
 30
0.0
 10
54.43060253008885
 20
38.43459072512133
 30
0.0
 10
56.63364231014168
 20
38.43354570260038
 30
0.0
 10
58.18333632947257
 20
38.43440532673036
 30
0.0
 10
58.97697888389403
 20
38.43484556479146
 30
0.0
  0
SPLINE
  5
24D
330
1F
100
AcDbEntity
  8
0
  6
SLD-Сплошная
 62
     7
370
    25
100
AcDbSpline
210
0.0
220
0.0
230
1.0
 70
     8
 71
     3
 72
    11
 73
     7
 74
     0
 42
0.00000001
 43
0.00000001
 40
0.0
 40
0.0
 40
0.0
 40
0.0
 40
0.272890736788249
 40
0.5309913952869443
 40
0.7725141784951319
 40
0.9999999999999999
 40
0.9999999999999999
 40
0.9999999999999999
 40
0.9999999999999999
 10
58.97697889071577
 20
91.31181245803799
 30
0.0
 10
57.966950871205
 20
91.31259166466222
 30
0.0
 10
56.00163613142663
 20
91.31410784662387
 30
0.0
 10
53.13199845095647
 20
91.31047639154863
 30
0.0
 10
50.4848510780611
 20
91.32174233368764
 30
0.0
 10
48.82496696492395
 20
91.30259865596331
 30
0.0
 10
48.01986424978101
 20
91.2933132927312
 30
0.0
  0
LINE
  5
24E
330
1F
100
AcDbEntity
  8
0
  6
SLD-Сплошная
 62
     7
370
    25
100
AcDbLine
 10
144.4015911284
 20
51.5047693423
 30
0.0
 11
144.4718131801
 21
53.3134478372
 31
0.0
  0
LINE
  5
24F
330
1F
100
AcDbEntity
  8
0
  6
SLD-Сплошная
 62
     7
370
    25
100
AcDbLine
 10
144.4718131801
 20
76.4332101855
 30
0.0
 11
144.4015911284
 21
78.2418886804
 31
0.0
  0
LINE
  5
250
330
1F
100
AcDbEntity
  8
0
  6
SLD-Сплошная
 62
     7
370
    25
100
AcDbLine
 10
65.3410053369
 20
91.30073686
 30
0.0
 11
58.978442239
 21
91.3117931926
 31
0.0
  0
LINE
  5
251
330
1F
100
AcDbEntity
  8
0
  6
SLD-Сплошная
 62
     7
370
    25
100
AcDbLine
 10
58.978442239
 20
38.43486483
 30
0.0
 11
65.3410053369
 21
38.4459211627
 31
0.0
  0
ARC
  5
252
330
1F
100
AcDbEntity
  8
0
  6
SLD-Сплошная
 62
     7
370
    25
100
AcDbCircle
 10
134.9130921758
 20
64.8733290113
 30
0.0
 40
17.49999999999999
100
AcDbArc
 50
270.0
 51
297.7766046258
  0
LINE
  5
253
330
1F
100
AcDbEntity
  8
0
  6
SLD-Сплошная
 62
     7
370
    25
100
AcDbLine
 10
122.9034732325
 20
47.3733290113
 30
0.0
 11
134.9130921758
 21
47.3733290113
 31
0.0
  0
ARC
  5
254
330
1F
100
AcDbEntity
  8
0
  6
SLD-Сплошная
 62
     7
370
    25
100
AcDbCircle
 10
141.9034732325
 20
51.6017589203
 30
0.0
 40
2.500000000000021
100
AcDbArc
 50
297.7766046258
 51
357.7766046258
  0
ARC
  5
255
330
1F
100
AcDbEntity
  8
0
  6
SLD-Сплошная
 62
     7
370
    25
100
AcDbCircle
 10
134.9130921758
 20
64.8733290113
 30
0.0
 40
17.5
100
AcDbArc
 50
62.2233953742
 51
90.0
  0
ARC
  5
256
330
1F
100
AcDbEntity
  8
0
  6
SLD-Сплошная
 62
     7
370
    25
100
AcDbCircle
 10
141.9034732325
 20
78.1448991024
 30
0.0
 40
2.500000000000022
100
AcDbArc
 50
2.2233953742
 51
62.2233953742
  0
LINE
  5
257
330
1F
100
AcDbEntity
  8
0
  6
SLD-Сплошная
 62
     7
370
    25
100
AcDbLine
 10
134.9130921758
 20
82.3733290113
 30
0.0
 11
122.9034732325
 21
82.3733290113
 31
0.0
  0
LINE
  5
258
330
1F
100
AcDbEntity
  8
0
  6
SLD-Сплошная
 62
     7
370
    25
100
AcDbLine
 10
24.753361723
 20
41.0733290113
 30
0.0
 11
27.101431723
 21
41.0733290113
 31
0.0
  0
LINE
  5
259
330
1F
100
AcDbEntity
  8
0
  6
SLD-Сплошная
 62
     7
370
    25
100
AcDbLine
 10
21.622592247
 20
41.0733290113
 30
0.0
 11
23.970662247
 21
41.0733290113
 31
0.0
  0
LINE
  5
25A
330
1F
100
AcDbEntity
  8
0
  6
SLD-Сплошная
 62
     7
370
    25
100
AcDbLine
 10
18.491822771
 20
41.0733290113
 30
0.0
 11
20.839892771
 21
41.0733290113
 31
0.0
  0
LINE
  5
25B
330
1F
100
AcDbEntity
  8
0
  6
SLD-Сплошная
 62
     7
370
    25
100
AcDbLine
 10
0.2400510462
 20
68.3733290113
 30
0.0
 11
-1.1099489538
 21
68.3733290113
 31
0.0
  0
LINE
  5
25C
330
1F
100
AcDbEntity
  8
0
  6
SLD-Сплошная
 62
     7
370
    25
100
AcDbLine
 10
-1.1099489538
 20
61.3733290113
 30
0.0
 11
0.2400510462
 21
61.3733290113
 31
0.0
  0
SPLINE
  5
25D
330
1F
100
AcDbEntity
  8
0
  6
SLD-Сплошная
 62
     7
370
    25
100
AcDbSpline
210
0.0
220
0.0
230
1.0
 70
     8
 71
     3
 72
     8
 73
     4
 74
     0
 42
0.00000001
 43
0.00000001
 40
0.0
 40
0.0
 40
0.0
 40
0.0
 40
1.0
 40
1.0
 40
1.0
 40
1.0
 10
65.34939151853095
 20
62.12332901134531
 30
0.0
 10
65.3431727611086
 20
63.03999567801193
 30
0.0
 10
65.34005104624984
 20
63.95666234467853
 30
0.0
 10
65.34005104624984
 20
64.87332901134515
 30
0.0
  0
SPLINE
  5
25E
330
1F
100
AcDbEntity
  8
0
  6
SLD-Сплошная
 62
     7
370
    25
100
AcDbSpline
210
0.0
220
0.0
230
1.0
 70
     8
 71
     3
 72
     8
 73
     4
 74
     0
 42
0.00000001
 43
0.00000001
 40
0.0
 40
0.0
 40
0.0
 40
0.0
 40
1.0
 40
1.0
 40
1.0
 40
1.0
 10
65.34005104624984
 20
64.87332901134515
 30
0.0
 10
65.34005104624984
 20
65.78999567801188
 30
0.0
 10
65.34317276110795
 20
66.70666234467859
 30
0.0
 10
65.3493915185303
 20
67.6233290113453
 30
0.0
  0
SPLINE
  5
25F
330
1F
100
AcDbEntity
  8
0
  6
SLD-Сплошная
 62
     7
370
    25
100
AcDbSpline
210
0.0
220
0.0
230
1.0
 70
    24
 71
     3
 72
    22
 73
    18
 74
     0
 42
0.00000001
 43
0.00000001
 40
0.0
 40
0.0
 40
0.0
 40
0.0
 40
0.2499999999999997
 40
0.2499999999999997
 40
0.3749999999999997
 40
0.3749999999999997
 40
0.4999999999999998
 40
0.4999999999999998
 40
0.6249999999999998
 40
0.6249999999999998
 40
0.7499999999999999
 40
0.7499999999999999
 40
0.8125
 40
0.8125
 40
0.8750000000000001
 40
0.8750000000000001
 40
1.0
 40
1.0
 40
1.0
 40
1.0
 10
80.74005104624685
 20
67.6233290113453
 30
0.0
 10
80.00878038912089
 20
67.6233290113453
 30
0.0
 10
79.10840607685068
 20
67.6233290113453
 30
0.0
 10
77.5053177251021
 20
67.6233290113453
 30
0.0
 10
76.92675690418346
 20
67.6233290113453
 30
0.0
 10
75.7094970933839
 20
67.6233290113453
 30
0.0
 10
75.06788880076176
 20
67.6233290113453
 30
0.0
 10
73.71768353742
 20
67.6233290113453
 30
0.0
 10
73.01832555040536
 20
67.6233290113453
 30
0.0
 10
71.58067376165609
 20
67.6233290113453
 30
0.0
 10
70.84110687801099
 20
67.6233290113453
 30
0.0
 10
69.70038643401189
 20
67.6233290113453
 30
0.0
 10
69.31490243311147
 20
67.6233290113453
 30
0.0
 10
68.53320741993005
 20
67.6233290113453
 30
0.0
 10
68.13651363494421
 20
67.6233290113453
 30
0.0
 10
66.94742520337469
 20
67.6233290113453
 30
0.0
 10
66.15047180460992
 20
67.6233290113453
 30
0.0
 10
65.34939151852831
 20
67.6233290113453
 30
0.0
  0
LINE
  5
260
330
1F
100
AcDbEntity
  8
0
  6
SLD-Сплошная
 62
     7
370
    25
100
AcDbLine
 10
80.7400510462
 20
67.6233290113
 30
0.0
 11
80.7400510462
 21
62.1233290113
 31
0.0
  0
SPLINE
  5
261
330
1F
100
AcDbEntity
  8
0
  6
SLD-Сплошная
 62
     7
370
    25
100
AcDbSpline
210
0.0
220
0.0
230
1.0
 70
    24
 71
     3
 72
    22
 73
    18
 74
     0
 42
0.00000001
 43
0.00000001
 40
0.0
 40
0.0
 40
0.0
 40
0.0
 40
0.2499999999999982
 40
0.2499999999999982
 40
0.3124999999999979
 40
0.3124999999999979
 40
0.3749999999999976
 40
0.3749999999999976
 40
0.4999999999999979
 40
0.4999999999999979
 40
0.7499999999999991
 40
0.7499999999999991
 40
0.8124999999999993
 40
0.8124999999999993
 40
0.8749999999999996
 40
0.8749999999999996
 40
1.0
 40
1.0
 40
1.0
 40
1.0
 10
65.34939151852788
 20
62.12332901134531
 30
0.0
 10
66.96515310471094
 20
62.12332901134531
 30
0.0
 10
68.53747633335946
 20
62.12332901134531
 30
0.0
 10
70.44878296860263
 20
62.12332901134531
 30
0.0
 10
70.82939058349022
 20
62.12332901134531
 30
0.0
 10
71.5780116093038
 20
62.12332901134531
 30
0.0
 10
71.94622327334605
 20
62.12332901134531
 30
0.0
 10
73.03275270000783
 20
62.12332901134531
 30
0.0
 10
73.73444844036803
 20
62.12332901134531
 30
0.0
 10
75.7572445686209
 20
62.12332901134531
 30
0.0
 10
76.9628628541955
 20
62.12332901134531
 30
0.0
 10
78.29632061541753
 20
62.12332901134531
 30
0.0
 10
78.55419975194178
 20
62.12332901134531
 30
0.0
 10
79.05191216051661
 20
62.12332901134531
 30
0.0
 10
79.29067575229124
 20
62.12332901134531
 30
0.0
 10
79.97032804540926
 20
62.12332901134531
 30
0.0
 10
80.37762739568288
 20
62.12332901134531
 30
0.0
 10
80.74005104624686
 20
62.12332901134531
 30
0.0
  0
LINE
  5
262
330
1F
100
AcDbEntity
  8
0
  6
SLD-Сплошная
 62
     7
370
    25
100
AcDbLine
 10
84.0400510462
 20
62.1233290113
 30
0.0
 11
84.0400510462
 21
67.6233290113
 31
0.0
  0
LINE
  5
263
330
1F
100
AcDbEntity
  8
0
  6
SLD-Сплошная
 62
     7
370
    25
100
AcDbLine
 10
84.0400510462
 20
67.6233290113
 30
0.0
 11
80.7400510462
 21
67.6233290113
 31
0.0
  0
LINE
  5
264
330
1F
100
AcDbEntity
  8
0
  6
SLD-Сплошная
 62
     7
370
    25
100
AcDbLine
 10
80.7400510462
 20
62.1233290113
 30
0.0
 11
84.0400510462
 21
62.1233290113
 31
0.0
  0
LINE
  5
265
330
1F
100
AcDbEntity
  8
0
  6
SLD-Сплошная
 62
     7
370
    25
100
AcDbLine
 10
40.3400510462
 20
35.8733290113
 30
0.0
 11
40.3400510462
 21
93.8733290113
 31
0.0
  0
LINE
  5
266
330
1F
100
AcDbEntity
  8
0
  6
SLD-Сплошная
 62
     7
370
    25
100
AcDbLine
 10
37.0400510462
 20
93.8733290113
 30
0.0
 11
37.0400510462
 21
35.8733290113
 31
0.0
  0
SPLINE
  5
267
330
1F
100
AcDbEntity
  8
0
  6
SLD-Сплошная
 62
     7
370
    25
100
AcDbSpline
210
0.0
220
0.0
230
1.0
 70
     8
 71
     3
 72
     8
 73
     4
 74
     0
 42
0.00000001
 43
0.00000001
 40
0.0
 40
0.0
 40
0.0
 40
0.0
 40
1.0
 40
1.0
 40
1.0
 40
1.0
 10
87.42826775625737
 20
88.06190995560671
 30
0.0
 10
80.10419562504134
 20
88.99224698191303
 30
0.0
 10
72.72175360696181
 20
89.41515853639923
 30
0.0
 10
65.34005104624688
 20
89.351021635235
 30
0.0
  0
SPLINE
  5
268
330
1F
100
AcDbEntity
  8
0
  6
SLD-Сплошная
 62
     7
370
    25
100
AcDbSpline
210
0.0
220
0.0
230
1.0
 70
     8
 71
     3
 72
    13
 73
     9
 74
     0
 42
0.00000001
 43
0.00000001
 40
0.0
 40
0.0
 40
0.0
 40
0.0
 40
0.1370812840590956
 40
0.3074408189393605
 40
0.4820492858798115
 40
0.6657320172116388
 40
0.8548917408497805
 40
1.0
 40
1.0
 40
1.0
 40
1.0
 10
100.9264170179834
 20
86.69372606100524
 30
0.0
 10
100.4505704478431
 20
86.77278775973261
 30
0.0
 10
99.38335941157703
 20
86.95010440489185
 30
0.0
 10
97.37787762513948
 20
87.12830371875181
 30
0.0
 10
95.00687766849458
 20
87.31118537841598
 30
0.0
 10
92.37928031744272
 20
87.52142880785738
 30
0.0
 10
89.80653892328061
 20
87.7739178039015
 30
0.0
 10
88.14817575052572
 20
87.9747340880379
 30
0.0
 10
87.42826775625737
 20
88.06190995560671
 30
0.0
  0
LINE
  5
269
330
1F
100
AcDbEntity
  8
0
  6
SLD-Сплошная
 62
     7
370
    25
100
AcDbLine
 10
105.2400510462
 20
85.8733290113
 30
0.0
 11
105.2400510462
 21
43.8733290113
 31
0.0
  0
SPLINE
  5
26A
330
1F
100
AcDbEntity
  8
0
  6
SLD-Сплошная
 62
     7
370
    25
100
AcDbSpline
210
0.0
220
0.0
230
1.0
 70
     8
 71
     3
 72
    13
 73
     9
 74
     0
 42
0.00000001
 43
0.00000001
 40
0.0
 40
0.0
 40
0.0
 40
0.0
 40
0.1372290410682672
 40
0.3075594053964362
 40
0.4821379742429248
 40
0.6657892537004136
 40
0.854916587642395
 40
1.0
 40
1.0
 40
1.0
 40
1.0
 10
100.9282530912574
 20
43.05321246949696
 30
0.0
 10
100.4518211418311
 20
42.97404926052758
 30
0.0
 10
99.38403602917029
 20
42.79662770827913
 30
0.0
 10
97.37788836789126
 20
42.61835107542984
 30
0.0
 10
95.00687459354826
 20
42.43547356838534
 30
0.0
 10
92.37928119031808
 20
42.22522895250885
 30
0.0
 10
89.80653876122751
 20
41.97274026749079
 30
0.0
 10
88.1481757014719
 20
41.77192394939483
 30
0.0
 10
87.42826775625738
 20
41.68474806708392
 30
0.0
  0
SPLINE
  5
26B
330
1F
100
AcDbEntity
  8
0
  6
SLD-Сплошная
 62
     7
370
    25
100
AcDbSpline
210
0.0
220
0.0
230
1.0
 70
     8
 71
     3
 72
     8
 73
     4
 74
     0
 42
0.00000001
 43
0.00000001
 40
0.0
 40
0.0
 40
0.0
 40
0.0
 40
1.0
 40
1.0
 40
1.0
 40
1.0
 10
87.42826775625737
 20
41.68474806708392
 30
0.0
 10
80.10419562504134
 20
40.7544110407776
 30
0.0
 10
72.72175360696181
 20
40.33149948629139
 30
0.0
 10
65.34005104624688
 20
40.39563638745562
 30
0.0
  0
LINE
  5
26C
330
1F
100
AcDbEntity
  8
0
  6
SLD-Сплошная
 62
     7
370
    25
100
AcDbLine
 10
65.3400510462
 20
64.8733290113
 30
0.0
 11
65.3400510462
 21
40.3956363875
 31
0.0
  0
LINE
  5
26D
330
1F
100
AcDbEntity
  8
0
  6
SLD-Сплошная
 62
     7
370
    25
100
AcDbLine
 10
65.3400510462
 20
89.3510216352
 30
0.0
 11
65.3400510462
 21
64.8733290113
 31
0.0
  0
LINE
  5
26E
330
1F
100
AcDbEntity
  8
0
  6
SLD-Сплошная
 62
     7
370
    25
100
AcDbLine
 10
65.3400510462
 20
40.3956363875
 30
0.0
 11
65.1321558685
 21
40.3931178562
 31
0.0
  0
SPLINE
  5
26F
330
1F
100
AcDbEntity
  8
0
  6
SLD-Сплошная
 62
     7
370
    25
100
AcDbSpline
210
0.0
220
0.0
230
1.0
 70
     8
 71
     3
 72
    14
 73
    10
 74
     0
 42
0.00000001
 43
0.00000001
 40
0.0
 40
0.0
 40
0.0
 40
0.0
 40
0.0023052483336405
 40
0.0023052483336405
 40
0.0023052483336405
 40
0.0043566551527238
 40
0.0043566551527238
 40
0.0043566551527238
 40
0.0064080633557896
 40
0.0064080633557896
 40
0.0064080633557896
 40
0.0064080633557896
 10
58.75577335496138
 20
40.32671650009646
 30
0.0
 10
59.52039260015476
 20
40.33369678889817
 30
0.0
 10
60.28501143434772
 20
40.34103024049386
 30
0.0
 10
61.04962940386853
 20
40.34871699466532
 30
0.0
 10
61.7300517810955
 20
40.35555732507211
 30
0.0
 10
62.41047359742559
 20
40.36267743363986
 30
0.0
 10
63.09089450017097
 20
40.37007750795617
 30
0.0
 10
63.77131586190563
 20
40.37747758726432
 30
0.0
 10
64.4517364228297
 20
40.38515763720066
 30
0.0
 10
65.13215586851283
 20
40.39311785619731
 30
0.0
  0
SPLINE
  5
270
330
1F
100
AcDbEntity
  8
0
  6
SLD-Сплошная
 62
     7
370
    25
100
AcDbSpline
210
0.0
220
0.0
230
1.0
 70
     8
 71
     3
 72
    16
 73
    12
 74
     0
 42
0.00000001
 43
0.00000001
 40
0.0
 40
0.0
 40
0.0
 40
0.0
 40
0.2499999999999999
 40
0.2499999999999999
 40
0.4999999999999998
 40
0.4999999999999998
 40
0.7499999999999997
 40
0.7499999999999997
 40
0.8749999999999998
 40
0.8749999999999998
 40
1.0
 40
1.0
 40
1.0
 40
1.0
 10
58.75577335496138
 20
40.32671650009646
 30
0.0
 10
57.91965852567735
 20
40.31908352065413
 30
0.0
 10
57.08374234529083
 20
40.31625527122945
 30
0.0
 10
55.41225830069175
 20
40.31790361745201
 30
0.0
 10
54.57521172685738
 20
40.32295624908873
 30
0.0
 10
52.90840056915705
 20
40.34217247063833
 30
0.0
 10
52.07936140224408
 20
40.3560027773339
 30
0.0
 10
50.85261341113053
 20
40.38721291041352
 30
0.0
 10
50.44671315645758
 20
40.39934114268956
 30
0.0
 10
49.64178136138165
 20
40.42828621534929
 30
0.0
 10
49.24258237870717
 20
40.44499829951631
 30
0.0
 10
48.84838945493142
 20
40.46548448189516
 30
0.0
  0
SPLINE
  5
271
330
1F
100
AcDbEntity
  8
0
  6
SLD-Сплошная
 62
     7
370
    25
100
AcDbSpline
210
0.0
220
0.0
230
1.0
 70
     8
 71
     3
 72
     8
 73
     4
 74
     0
 42
0.00000001
 43
0.00000001
 40
0.0
 40
0.0
 40
0.0
 40
0.0
 40
1.0
 40
1.0
 40
1.0
 40
1.0
 10
48.84838945493142
 20
40.46548448189516
 30
0.0
 10
46.0097041149108
 20
40.61301078712359
 30
0.0
 10
43.17272930774404
 20
40.8279171653583
 30
0.0
 10
40.34005104624688
 20
41.11310135021557
 30
0.0
  0
SPLINE
  5
272
330
1F
100
AcDbEntity
  8
0
  6
SLD-Сплошная
 62
     7
370
    25
100
AcDbSpline
210
0.0
220
0.0
230
1.0
 70
     8
 71
     3
 72
     8
 73
     4
 74
     0
 42
0.00000001
 43
0.00000001
 40
0.0
 40
0.0
 40
0.0
 40
0.0
 40
1.0
 40
1.0
 40
1.0
 40
1.0
 10
48.84838945493142
 20
89.28117354079546
 30
0.0
 10
46.00970432083749
 20
89.13364724626904
 30
0.0
 10
43.17272956080475
 20
88.9187408828096
 30
0.0
 10
40.34005104624688
 20
88.63355667247507
 30
0.0
  0
SPLINE
  5
273
330
1F
100
AcDbEntity
  8
0
  6
SLD-Сплошная
 62
     7
370
    25
100
AcDbSpline
210
0.0
220
0.0
230
1.0
 70
     8
 71
     3
 72
    16
 73
    12
 74
     0
 42
0.00000001
 43
0.00000001
 40
0.0
 40
0.0
 40
0.0
 40
0.0
 40
0.25
 40
0.25
 40
0.5
 40
0.5
 40
0.75
 40
0.75
 40
0.875
 40
0.875
 40
1.0
 40
1.0
 40
1.0
 40
1.0
 10
58.75577335496138
 20
89.41994152259417
 30
0.0
 10
57.91955940509875
 20
89.4275754069186
 30
0.0
 10
57.08353503230354
 20
89.43082921193675
 30
0.0
 10
55.41192698761512
 20
89.42856055730866
 30
0.0
 10
54.57480371538139
 20
89.42352192343299
 30
0.0
 10
52.90789317473004
 20
89.40454909500295
 30
0.0
 10
52.0797160798183
 20
89.39035268742043
 30
0.0
 10
50.85238375031928
 20
89.35944185000183
 30
0.0
 10
50.44580442790311
 20
89.34763327150019
 30
0.0
 10
49.64088059859049
 20
89.31875500599952
 30
0.0
 10
49.2425524567382
 20
89.30165816813141
 30
0.0
 10
48.84838945493141
 20
89.28117354079546
 30
0.0
  0
SPLINE
  5
274
330
1F
100
AcDbEntity
  8
0
  6
SLD-Сплошная
 62
     7
370
    25
100
AcDbSpline
210
0.0
220
0.0
230
1.0
 70
     8
 71
     3
 72
    14
 73
    10
 74
     0
 42
0.00000001
 43
0.00000001
 40
0.0000000000000003
 40
0.0000000000000003
 40
0.0000000000000003
 40
0.0000000000000003
 40
0.0023052483336405
 40
0.0023052483336405
 40
0.0023052483336405
 40
0.0043566551527237
 40
0.0043566551527237
 40
0.0043566551527237
 40
0.0064080633557893
 40
0.0064080633557893
 40
0.0064080633557893
 40
0.0064080633557893
 10
58.75577335496168
 20
89.41994152259417
 30
0.0
 10
59.52039260015506
 20
89.41296123379246
 30
0.0
 10
60.28501143434801
 20
89.40562778219677
 30
0.0
 10
61.04962940386882
 20
89.39794102802531
 30
0.0
 10
61.73005178109575
 20
89.39110069761853
 30
0.0
 10
62.41047359742578
 20
89.38398058905076
 30
0.0
 10
63.09089450017112
 20
89.37658051473446
 30
0.0
 10
63.77131586190573
 20
89.36918043542633
 30
0.0
 10
64.45173642282975
 20
89.36150038549003
 30
0.0
 10
65.13215586851283
 20
89.35354016649336
 30
0.0
  0
LINE
  5
275
330
1F
100
AcDbEntity
  8
0
  6
SLD-Сплошная
 62
     7
370
    25
100
AcDbLine
 10
65.3400510462
 20
89.3510216352
 30
0.0
 11
65.1321558685
 21
89.3535401665
 31
0.0
  0
LINE
  5
276
330
1F
100
AcDbEntity
  8
0
  6
SLD-Сплошная
 62
     7
370
    25
100
AcDbLine
 10
13.3650510462
 20
89.4983290113
 30
0.0
 11
13.3650510462
 21
40.2483290113
 31
0.0
  0
LINE
  5
277
330
1F
100
AcDbEntity
  8
0
  6
SLD-Сплошная
 62
     7
370
    25
100
AcDbLine
 10
0.2400510462
 20
89.4983290113
 30
0.0
 11
0.2400510462
 21
40.2483290113
 31
0.0
  0
LINE
  5
278
330
1F
100
AcDbEntity
  8
0
  6
SLD-Сплошная
 62
     7
370
    25
100
AcDbLine
 10
32.2150510462
 20
89.4983290113
 30
0.0
 11
32.2150510462
 21
40.2483290113
 31
0.0
  0
LINE
  5
279
330
1F
100
AcDbEntity
  8
0
  6
SLD-Сплошная
 62
     7
370
    25
100
AcDbLine
 10
14.4282034477
 20
45.0182900488
 30
0.0
 11
14.4282034477
 21
41.0733290113
 31
0.0
  0
LINE
  5
27A
330
1F
100
AcDbEntity
  8
0
  6
SLD-Сплошная
 62
     7
370
    25
100
AcDbLine
 10
31.1650510462
 20
45.0182900488
 30
0.0
 11
31.1650510462
 21
41.0733290113
 31
0.0
  0
LINE
  5
27B
330
1F
100
AcDbEntity
  8
0
  6
SLD-Сплошная
 62
     7
370
    25
100
AcDbLine
 10
31.1650510462
 20
45.0182900488
 30
0.0
 11
14.4282034477
 21
45.0182900488
 31
0.0
  0
LINE
  5
27C
330
1F
100
AcDbEntity
  8
0
  6
SLD-Сплошная
 62
     7
370
    25
100
AcDbLine
 10
113.9034732325
 20
82.8733290113
 30
0.0
 11
113.9034732325
 21
84.5275518597
 31
0.0
  0
LINE
  5
27D
330
1F
100
AcDbEntity
  8
0
  6
SLD-Сплошная
 62
     7
370
    25
100
AcDbLine
 10
113.9034732325
 20
80.7082655019
 30
0.0
 11
113.9034732325
 21
82.8733290113
 31
0.0
  0
LINE
  5
27E
330
1F
100
AcDbEntity
  8
0
  6
SLD-Сплошная
 62
     7
370
    25
100
AcDbLine
 10
113.9034732325
 20
67.0383925208
 30
0.0
 11
113.9034732325
 21
80.7082655019
 31
0.0
  0
LINE
  5
27F
330
1F
100
AcDbEntity
  8
0
  6
SLD-Сплошная
 62
     7
370
    25
100
AcDbLine
 10
113.9034732325
 20
62.7082655019
 30
0.0
 11
113.9034732325
 21
67.0383925208
 31
0.0
  0
LINE
  5
280
330
1F
100
AcDbEntity
  8
0
  6
SLD-Сплошная
 62
     7
370
    25
100
AcDbLine
 10
113.9034732325
 20
49.0383925208
 30
0.0
 11
113.9034732325
 21
62.7082655019
 31
0.0
  0
LINE
  5
281
330
1F
100
AcDbEntity
  8
0
  6
SLD-Сплошная
 62
     7
370
    25
100
AcDbLine
 10
113.9034732325
 20
46.8733290113
 30
0.0
 11
113.9034732325
 21
49.0383925208
 31
0.0
  0
LINE
  5
282
330
1F
100
AcDbEntity
  8
0
  6
SLD-Сплошная
 62
     7
370
    25
100
AcDbLine
 10
113.9034732325
 20
45.219106163
 30
0.0
 11
113.9034732325
 21
46.8733290113
 31
0.0
  0
LINE
  5
283
330
1F
100
AcDbEntity
  8
0
  6
SLD-Сплошная
 62
     7
370
    25
100
AcDbLine
 10
111.9034732325
 20
45.219106163
 30
0.0
 11
111.9034732325
 21
84.5275518597
 31
0.0
  0
LINE
  5
284
330
1F
100
AcDbEntity
  8
0
  6
SLD-Сплошная
 62
     7
370
    25
100
AcDbLine
 10
113.9034732325
 20
67.0383925208
 30
0.0
 11
122.9034732325
 21
67.0383925208
 31
0.0
  0
LINE
  5
285
330
1F
100
AcDbEntity
  8
0
  6
SLD-Сплошная
 62
     7
370
    25
100
AcDbLine
 10
122.9034732325
 20
80.7082655019
 30
0.0
 11
113.9034732325
 21
80.7082655019
 31
0.0
  0
LINE
  5
286
330
1F
100
AcDbEntity
  8
0
  6
SLD-Сплошная
 62
     7
370
    25
100
AcDbLine
 10
122.9034732325
 20
67.0383925208
 30
0.0
 11
122.9034732325
 21
80.7082655019
 31
0.0
  0
LINE
  5
287
330
1F
100
AcDbEntity
  8
0
  6
SLD-Сплошная
 62
     7
370
    25
100
AcDbLine
 10
122.9034732325
 20
62.7082655019
 30
0.0
 11
113.9034732325
 21
62.7082655019
 31
0.0
  0
LINE
  5
288
330
1F
100
AcDbEntity
  8
0
  6
SLD-Сплошная
 62
     7
370
    25
100
AcDbLine
 10
122.9034732325
 20
67.0383925208
 30
0.0
 11
122.9034732325
 21
62.7082655019
 31
0.0
  0
LINE
  5
289
330
1F
100
AcDbEntity
  8
0
  6
SLD-Сплошная
 62
     7
370
    25
100
AcDbLine
 10
113.9034732325
 20
49.0383925208
 30
0.0
 11
122.9034732325
 21
49.0383925208
 31
0.0
  0
LINE
  5
28A
330
1F
100
AcDbEntity
  8
0
  6
SLD-Сплошная
 62
     7
370
    25
100
AcDbLine
 10
122.9034732325
 20
62.7082655019
 30
0.0
 11
122.9034732325
 21
49.0383925208
 31
0.0
  0
LINE
  5
28B
330
1F
100
AcDbEntity
  8
0
  6
SLD-Сплошная
 62
     7
370
    25
100
AcDbLine
 10
134.9130921758
 20
67.9434131054
 30
0.0
 11
141.7554907641
 21
67.9434131054
 31
0.0
  0
LINE
  5
28C
330
1F
100
AcDbEntity
  8
0
  6
SLD-Сплошная
 62
     7
370
    25
100
AcDbLine
 10
134.9130921758
 20
67.9434131054
 30
0.0
 11
122.9034732325
 21
67.9434131054
 31
0.0
  0
LINE
  5
28D
330
1F
100
AcDbEntity
  8
0
  6
SLD-Сплошная
 62
     7
370
    25
100
AcDbLine
 10
134.9130921758
 20
61.8032449173
 30
0.0
 11
141.7554907641
 21
61.8032449173
 31
0.0
  0
LINE
  5
28E
330
1F
100
AcDbEntity
  8
0
  6
SLD-Сплошная
 62
     7
370
    25
100
AcDbLine
 10
134.9130921758
 20
61.8032449173
 30
0.0
 11
122.9034732325
 21
61.8032449173
 31
0.0
  0
LINE
  5
28F
330
1F
100
AcDbEntity
  8
0
  6
SLD-Сплошная
 62
     7
370
    25
100
AcDbLine
 10
144.4718131801
 20
53.3134478372
 30
0.0
 11
141.7554907641
 21
51.8827106576
 31
0.0
  0
ARC
  5
290
330
1F
100
AcDbEntity
  8
0
  6
SLD-Сплошная
 62
     7
370
    25
100
AcDbCircle
 10
134.9130921758
 20
64.8733290113
 30
0.0
 40
14.68245836551858
100
AcDbArc
 50
270.0
 51
297.7766046258
  0
ARC
  5
291
330
1F
100
AcDbEntity
  8
0
  6
SLD-Сплошная
 62
     7
370
    25
100
AcDbCircle
 10
141.4522672731
 20
64.8733290113
 30
0.0
 40
3.085022014554623
100
AcDbArc
 50
275.6406475517
 51
84.3593524483
  0
ARC
  5
292
330
1F
100
AcDbEntity
  8
0
  6
SLD-Сплошная
 62
     7
370
    25
100
AcDbCircle
 10
134.9130921758
 20
64.8733290113
 30
0.0
 40
14.68245836551859
100
AcDbArc
 50
62.2233953742
 51
90.0
  0
LINE
  5
293
330
1F
100
AcDbEntity
  8
0
  6
SLD-Сплошная
 62
     7
370
    25
100
AcDbLine
 10
141.7554907641
 20
77.8639473651
 30
0.0
 11
144.4718131801
 21
76.4332101855
 31
0.0
  0
LINE
  5
294
330
1F
100
AcDbEntity
  8
0
  6
SLD-Сплошная
 62
     7
370
    25
100
AcDbLine
 10
147.9034732325
 20
57.3733290113
 30
0.0
 11
147.9034732325
 21
72.3733290113
 31
0.0
  0
LINE
  5
295
330
1F
100
AcDbEntity
  8
0
  6
SLD-Сплошная
 62
     7
370
    25
100
AcDbLine
 10
134.9130921758
 20
79.5557873769
 30
0.0
 11
122.9034732325
 21
79.5557873769
 31
0.0
  0
LINE
  5
296
330
1F
100
AcDbEntity
  8
0
  6
SLD-Сплошная
 62
     7
370
    25
100
AcDbLine
 10
134.9130921758
 20
50.1908706458
 30
0.0
 11
122.9034732325
 21
50.1908706458
 31
0.0
  0
SPLINE
  5
297
330
1F
100
AcDbEntity
  8
0
  6
SLD-Сплошная
 62
     7
370
    25
100
AcDbSpline
210
0.0
220
0.0
230
1.0
 70
     8
 71
     3
 72
     8
 73
     4
 74
     0
 42
0.00000001
 43
0.00000001
 40
0.0
 40
0.0
 40
0.0
 40
0.0
 40
1.0
 40
1.0
 40
1.0
 40
1.0
 10
27.10143172299576
 20
44.01021533401926
 30
0.0
 10
25.66649689766305
 20
43.46633744929341
 30
0.0
 10
24.23156207233033
 20
43.00506566734087
 30
0.0
 10
22.79662724699763
 20
42.63184862092266
 30
0.0
  0
SPLINE
  5
298
330
1F
100
AcDbEntity
  8
0
  6
SLD-Сплошная
 62
     7
370
    25
100
AcDbSpline
210
0.0
220
0.0
230
1.0
 70
     8
 71
     3
 72
     8
 73
     4
 74
     0
 42
0.00000001
 43
0.00000001
 40
0.0
 40
0.0
 40
0.0
 40
0.0
 40
1.0
 40
1.0
 40
1.0
 40
1.0
 10
22.79662724699763
 20
42.63184862092266
 30
0.0
 10
21.36169242166373
 20
43.00506566734076
 30
0.0
 10
19.92675759632982
 20
43.46633744929321
 30
0.0
 10
18.49182277099597
 20
44.01021533401887
 30
0.0
  0
LINE
  5
299
330
1F
100
AcDbEntity
  8
0
  6
SLD-Сплошная
 62
     7
370
    25
100
AcDbLine
 10
20.577596239
 20
41.8731861161
 30
0.0
 11
18.491822771
 21
41.8731861161
 31
0.0
  0
LINE
  5
29A
330
1F
100
AcDbEntity
  8
0
  6
SLD-Сплошная
 62
     7
370
    25
100
AcDbLine
 10
27.101431723
 20
41.8731861161
 30
0.0
 11
25.0156051659
 21
41.8731861161
 31
0.0
  0
LINE
  5
29B
330
1F
100
AcDbEntity
  8
0
  6
SLD-Сплошная
 62
     7
370
    25
100
AcDbLine
 10
113.9034732325
 20
82.8733290113
 30
0.0
 11
122.9034732325
 21
82.8733290113
 31
0.0
  0
LINE
  5
29C
330
1F
100
AcDbEntity
  8
0
  6
SLD-Сплошная
 62
     7
370
    25
100
AcDbLine
 10
122.9034732325
 20
80.7082655019
 30
0.0
 11
122.9034732325
 21
82.8733290113
 31
0.0
  0
LINE
  5
29D
330
1F
100
AcDbEntity
  8
0
  6
SLD-Сплошная
 62
     7
370
    25
100
AcDbLine
 10
122.9034732325
 20
46.8733290113
 30
0.0
 11
113.9034732325
 21
46.8733290113
 31
0.0
  0
LINE
  5
29E
330
1F
100
AcDbEntity
  8
0
  6
SLD-Сплошная
 62
     7
370
    25
100
AcDbLine
 10
122.9034732325
 20
49.0383925208
 30
0.0
 11
122.9034732325
 21
46.8733290113
 31
0.0
  0
SPLINE
  5
29F
330
1F
100
AcDbEntity
  8
0
  6
SLD-Сплошная
 62
     7
370
    25
100
AcDbSpline
210
0.0
220
0.0
230
1.0
 70
     8
 71
     3
 72
     8
 73
     4
 74
     0
 42
0.00000001
 43
0.00000001
 40
0.0
 40
0.0
 40
0.0
 40
0.0
 40
1.0
 40
1.0
 40
1.0
 40
1.0
 10
27.10143172299576
 20
43.56254506722376
 30
0.0
 10
25.66551740210456
 20
43.02972883251056
 30
0.0
 10
24.23106761282703
 20
42.57755700689905
 30
0.0
 10
22.79662724699763
 20
42.21139065741016
 30
0.0
  0
LINE
  5
2A0
330
1F
100
AcDbEntity
  8
0
  6
SLD-Сплошная
 62
     7
370
    25
100
AcDbLine
 10
22.796627247
 20
42.6318486209
 30
0.0
 11
22.796627247
 21
42.2113906574
 31
0.0
  0
LINE
  5
2A1
330
1F
100
AcDbEntity
  8
0
  6
SLD-Сплошная
 62
     7
370
    25
100
AcDbLine
 10
27.101431723
 20
44.010215334
 30
0.0
 11
27.101431723
 21
43.5625450672
 31
0.0
  0
LINE
  5
2A2
330
1F
100
AcDbEntity
  8
0
  6
SLD-Сплошная
 62
     7
370
    25
100
AcDbLine
 10
18.491822771
 20
41.4663519916
 30
0.0
 11
18.491822771
 21
41.1266031023
 31
0.0
  0
LINE
  5
2A3
330
1F
100
AcDbEntity
  8
0
  6
SLD-Сплошная
 62
     7
370
    25
100
AcDbLine
 10
22.6867078771
 20
41.4663519916
 30
0.0
 11
18.491822771
 21
41.4663519916
 31
0.0
  0
LINE
  5
2A4
330
1F
100
AcDbEntity
  8
0
  6
SLD-Сплошная
 62
     7
370
    25
100
AcDbLine
 10
22.6867078771
 20
41.4831670174
 30
0.0
 11
22.6867078771
 21
41.4663519916
 31
0.0
  0
SPLINE
  5
2A5
330
1F
100
AcDbEntity
  8
0
  6
SLD-Сплошная
 62
     7
370
    25
100
AcDbSpline
210
0.0
220
0.0
230
1.0
 70
     8
 71
     3
 72
     8
 73
     4
 74
     0
 42
0.00000001
 43
0.00000001
 40
0.0
 40
0.0
 40
0.0
 40
0.0
 40
1.0
 40
1.0
 40
1.0
 40
1.0
 10
18.49182277099597
 20
42.38219511682986
 30
0.0
 10
19.89074657069261
 20
42.00004978070888
 30
0.0
 10
21.28862329019808
 20
41.69925822443837
 30
0.0
 10
22.68670787713725
 20
41.48316701740812
 30
0.0
  0
LINE
  5
2A6
330
1F
100
AcDbEntity
  8
0
  6
SLD-Сплошная
 62
     7
370
    25
100
AcDbLine
 10
18.491822771
 20
43.5625450672
 30
0.0
 11
18.491822771
 21
42.3821951168
 31
0.0
  0
SPLINE
  5
2A7
330
1F
100
AcDbEntity
  8
0
  6
SLD-Сплошная
 62
     7
370
    25
100
AcDbSpline
210
0.0
220
0.0
230
1.0
 70
     8
 71
     3
 72
     8
 73
     4
 74
     0
 42
0.00000001
 43
0.00000001
 40
0.0
 40
0.0
 40
0.0
 40
0.0
 40
1.0
 40
1.0
 40
1.0
 40
1.0
 10
22.79662724699763
 20
42.21139065741021
 30
0.0
 10
21.36218728686125
 20
42.57755690333836
 30
0.0
 10
19.92773661072757
 20
43.02972901105181
 30
0.0
 10
18.49182277099597
 20
43.56254506722336
 30
0.0
  0
SPLINE
  5
2A8
330
1F
100
AcDbEntity
  8
0
  6
SLD-Сплошная
 62
     7
370
    25
100
AcDbSpline
210
0.0
220
0.0
230
1.0
 70
     8
 71
     3
 72
     8
 73
     4
 74
     0
 42
0.00000001
 43
0.00000001
 40
0.0
 40
0.0
 40
0.0
 40
0.0
 40
1.0
 40
1.0
 40
1.0
 40
1.0
 10
22.90654661685446
 20
41.48316701740846
 30
0.0
 10
24.30463098705276
 20
41.69925819093873
 30
0.0
 10
25.70250819228419
 20
42.000049854188
 30
0.0
 10
27.10143172299666
 20
42.38219511683017
 30
0.0
  0
LINE
  5
2A9
330
1F
100
AcDbEntity
  8
0
  6
SLD-Сплошная
 62
     7
370
    25
100
AcDbLine
 10
22.9065466169
 20
41.4831670174
 30
0.0
 11
22.9065466169
 21
41.4663519916
 31
0.0
  0
LINE
  5
2AA
330
1F
100
AcDbEntity
  8
0
  6
SLD-Сплошная
 62
     7
370
    25
100
AcDbLine
 10
27.101431723
 20
41.4663519916
 30
0.0
 11
22.9065466169
 21
41.4663519916
 31
0.0
  0
LINE
  5
2AB
330
1F
100
AcDbEntity
  8
0
  6
SLD-Сплошная
 62
     7
370
    25
100
AcDbLine
 10
27.101431723
 20
41.4663519916
 30
0.0
 11
27.101431723
 21
41.1266031023
 31
0.0
  0
LINE
  5
2AC
330
1F
100
AcDbEntity
  8
0
  6
SLD-Сплошная
 62
     7
370
    25
100
AcDbLine
 10
18.491822771
 20
41.1266031023
 30
0.0
 11
27.101431723
 21
41.1266031023
 31
0.0
  0
LINE
  5
2AD
330
1F
100
AcDbEntity
  8
0
  6
SLD-Сплошная
 62
     7
370
    25
100
AcDbLine
 10
27.101431723
 20
43.5625450672
 30
0.0
 11
27.101431723
 21
42.3821951168
 31
0.0
  0
LINE
  5
2AE
330
1F
100
AcDbEntity
  8
0
  6
SLD-Сплошная
 62
     7
370
    25
100
AcDbLine
 10
18.491822771
 20
44.010215334
 30
0.0
 11
18.491822771
 21
43.5625450672
 31
0.0
  0
SPLINE
  5
2AF
330
1F
100
AcDbEntity
  8
0
  6
SLD-Сплошная
 62
     7
370
    25
100
AcDbSpline
210
0.0
220
0.0
230
1.0
 70
     8
 71
     3
 72
    11
 73
     7
 74
     0
 42
0.00000001
 43
0.00000001
 40
0.0
 40
0.0
 40
0.0
 40
0.0
 40
0.2682037272577657
 40
0.5590676418634406
 40
0.791887327535887
 40
1.0
 40
1.0
 40
1.0
 40
1.0
 10
65.13215586851283
 20
89.35354016649332
 30
0.0
 10
65.13769525827794
 20
89.6379644953093
 30
0.0
 10
65.14924205371223
 20
90.23084379801536
 30
0.0
 10
65.20497848137049
 20
90.87358753594735
 30
0.0
 10
65.27258532221842
 20
91.2451609900253
 30
0.0
 10
65.31921527946038
 20
91.27875830887064
 30
0.0
 10
65.34122383664482
 20
91.2946156794707
 30
0.0
  0
SPLINE
  5
2B0
330
1F
100
AcDbEntity
  8
0
  6
SLD-Сплошная
 62
     7
370
    25
100
AcDbSpline
210
0.0
220
0.0
230
1.0
 70
     8
 71
     3
 72
    11
 73
     7
 74
     0
 42
0.00000001
 43
0.00000001
 40
0.0
 40
0.0
 40
0.0
 40
0.0
 40
0.2682037272577669
 40
0.5590676418634432
 40
0.7918873275358905
 40
0.9999999999999999
 40
0.9999999999999999
 40
0.9999999999999999
 40
0.9999999999999999
 10
65.13215586851283
 20
40.39311785619731
 30
0.0
 10
65.13769525827794
 20
40.10869352738132
 30
0.0
 10
65.14924205371223
 20
39.51581422467526
 30
0.0
 10
65.20497848137047
 20
38.87307048674329
 30
0.0
 10
65.27258532221839
 20
38.50149703266531
 30
0.0
 10
65.31921527946035
 20
38.46789971381999
 30
0.0
 10
65.34122383664479
 20
38.45204234321994
 30
0.0
  0
LINE
  5
2B1
330
1F
100
AcDbEntity
  8
0
  6
SLD-Сплошная
 62
     7
370
    25
100
AcDbLine
 10
27.101431723
 20
41.8731861161
 30
0.0
 11
27.101431723
 21
41.4663519916
 31
0.0
  0
LINE
  5
2B2
330
1F
100
AcDbEntity
  8
0
  6
SLD-Сплошная
 62
     7
370
    25
100
AcDbLine
 10
18.491822771
 20
41.8731861161
 30
0.0
 11
18.491822771
 21
41.4663519916
 31
0.0
  0
LINE
  5
2B3
330
1F
100
AcDbEntity
  8
0
  6
SLD-Сплошная
 62
     7
370
    25
100
AcDbLine
 10
27.101431723
 20
41.0871135949
 30
0.0
 11
24.753361723
 21
41.0871135949
 31
0.0
  0
LINE
  5
2B4
330
1F
100
AcDbEntity
  8
0
  6
SLD-Сплошная
 62
     7
370
    25
100
AcDbLine
 10
24.753361723
 20
41.1266031023
 30
0.0
 11
24.753361723
 21
41.0871135949
 31
0.0
  0
LINE
  5
2B5
330
1F
100
AcDbEntity
  8
0
  6
SLD-Сплошная
 62
     7
370
    25
100
AcDbLine
 10
27.101431723
 20
41.1266031023
 30
0.0
 11
27.101431723
 21
41.0871135949
 31
0.0
  0
LINE
  5
2B6
330
1F
100
AcDbEntity
  8
0
  6
SLD-Сплошная
 62
     7
370
    25
100
AcDbLine
 10
23.970662247
 20
41.0871135949
 30
0.0
 11
21.622592247
 21
41.0871135949
 31
0.0
  0
LINE
  5
2B7
330
1F
100
AcDbEntity
  8
0
  6
SLD-Сплошная
 62
     7
370
    25
100
AcDbLine
 10
23.970662247
 20
41.0871135949
 30
0.0
 11
23.970662247
 21
41.0733290113
 31
0.0
  0
LINE
  5
2B8
330
1F
100
AcDbEntity
  8
0
  6
SLD-Сплошная
 62
     7
370
    25
100
AcDbLine
 10
24.753361723
 20
41.0871135949
 30
0.0
 11
24.753361723
 21
41.0733290113
 31
0.0
  0
LINE
  5
2B9
330
1F
100
AcDbEntity
  8
0
  6
SLD-Сплошная
 62
     7
370
    25
100
AcDbLine
 10
21.622592247
 20
41.0871135949
 30
0.0
 11
21.622592247
 21
41.0733290113
 31
0.0
  0
LINE
  5
2BA
330
1F
100
AcDbEntity
  8
0
  6
SLD-Сплошная
 62
     7
370
    25
100
AcDbLine
 10
27.101431723
 20
41.0871135949
 30
0.0
 11
27.101431723
 21
41.0733290113
 31
0.0
  0
LINE
  5
2BB
330
1F
100
AcDbEntity
  8
0
  6
SLD-Сплошная
 62
     7
370
    25
100
AcDbLine
 10
20.839892771
 20
41.0871135949
 30
0.0
 11
18.491822771
 21
41.0871135949
 31
0.0
  0
LINE
  5
2BC
330
1F
100
AcDbEntity
  8
0
  6
SLD-Сплошная
 62
     7
370
    25
100
AcDbLine
 10
20.839892771
 20
41.0871135949
 30
0.0
 11
20.839892771
 21
41.0733290113
 31
0.0
  0
LINE
  5
2BD
330
1F
100
AcDbEntity
  8
0
  6
SLD-Сплошная
 62
     7
370
    25
100
AcDbLine
 10
18.491822771
 20
41.0871135949
 30
0.0
 11
18.491822771
 21
41.0733290113
 31
0.0
  0
LINE
  5
2BE
330
1F
100
AcDbEntity
  8
0
  6
SLD-Сплошная
 62
     7
370
    25
100
AcDbLine
 10
20.839892771
 20
41.1266031023
 30
0.0
 11
20.839892771
 21
41.0871135949
 31
0.0
  0
LINE
  5
2BF
330
1F
100
AcDbEntity
  8
0
  6
SLD-Сплошная
 62
     7
370
    25
100
AcDbLine
 10
18.491822771
 20
41.1266031023
 30
0.0
 11
18.491822771
 21
41.0871135949
 31
0.0
  0
LINE
  5
2C0
330
1F
100
AcDbEntity
  8
0
  6
SLD-Сплошная
 62
     7
370
    25
100
AcDbLine
 10
23.970662247
 20
41.1266031023
 30
0.0
 11
23.970662247
 21
41.0871135949
 31
0.0
  0
LINE
  5
2C1
330
1F
100
AcDbEntity
  8
0
  6
SLD-Сплошная
 62
     7
370
    25
100
AcDbLine
 10
21.622592247
 20
41.1266031023
 30
0.0
 11
21.622592247
 21
41.0871135949
 31
0.0
  0
LINE
  5
2C2
330
1F
100
AcDbEntity
  8
0
  6
SLD-Сплошная
 62
     7
370
    25
100
AcDbLine
 10
-1.1099489538
 20
68.1937205545
 30
0.0
 11
-1.1099489538
 21
68.3733290113
 31
0.0
  0
LINE
  5
2C3
330
1F
100
AcDbEntity
  8
0
  6
SLD-Сплошная
 62
     7
370
    25
100
AcDbLine
 10
-1.1099489538
 20
61.3733290113
 30
0.0
 11
-1.1099489538
 21
68.1937205545
 31
0.0
  0
ARC
  5
2C4
330
1F
100
AcDbEntity
  8
0
  6
SLD-Сплошная
 62
     7
370
    25
100
AcDbCircle
 10
-49.6515412642
 20
154.3356497533
 30
0.0
 40
24.68709550865552
100
AcDbArc
 50
96.4113571796
 51
168.8635053534
  0
ARC
  5
2C5
330
1F
100
AcDbEntity
  8
0
  6
SLD-Сплошная
 62
     7
370
    25
100
AcDbCircle
 10
-49.6515412642
 20
154.3356497533
 30
0.0
 40
24.68709550865551
100
AcDbArc
 50
11.0858864667
 51
83.5901495384
  0
SPLINE
  5
2C6
330
1F
100
AcDbEntity
  8
0
  6
SLD-Сплошная
 62
     7
370
    25
100
AcDbSpline
210
0.0
220
0.0
230
1.0
 70
     8
 71
     3
 72
     9
 73
     5
 74
     0
 42
0.00000001
 43
0.00000001
 40
0.0
 40
0.0
 40
0.0
 40
0.0
 40
0.5346967488174309
 40
1.0
 40
1.0
 40
1.0
 40
1.0
 10
-25.15618591843657
 20
158.9066358330283
 30
0.0
 10
-25.37202820360856
 20
159.0649049726638
 30
0.0
 10
-25.7757005387207
 20
159.3609029191362
 30
0.0
 10
-26.46518921648751
 20
159.4064356317915
 30
0.0
 10
-26.78601053990597
 20
159.4276221510251
 30
0.0
  0
SPLINE
  5
2C7
330
1F
100
AcDbEntity
  8
0
  6
SLD-Сплошная
 62
     7
370
    25
100
AcDbSpline
210
0.0
220
0.0
230
1.0
 70
     8
 71
     3
 72
    19
 73
    15
 74
     0
 42
0.00000001
 43
0.00000001
 40
0.0
 40
0.0
 40
0.0
 40
0.0
 40
0.1611102290819722
 40
0.2945328861013385
 40
0.3996831124121881
 40
0.4815940727837652
 40
0.5547000205123938
 40
0.6213295600338987
 40
0.7337903121202719
 40
0.8571205622997078
 40
0.9181248183068361
 40
0.9501103203448038
 40
0.9918808877656914
 40
1.0
 40
1.0
 40
1.0
 40
1.0
 10
-29.45437168981413
 20
142.7076993369647
 30
0.0
 10
-29.03814536109836
 20
143.4888649479547
 30
0.0
 10
-28.27722321129716
 20
144.9169490816502
 30
0.0
 10
-27.45000281027961
 20
146.9202901341297
 30
0.0
 10
-26.89993541808684
 20
148.4877372652076
 30
0.0
 10
-26.52357203163292
 20
149.725202803351
 30
0.0
 10
-26.24451071605121
 20
150.7405036468751
 30
0.0
 10
-25.96861816464229
 20
151.837683311792
 30
0.0
 10
-25.69423756599264
 20
153.0597600602851
 30
0.0
 10
-25.48162997028503
 20
154.0813901883694
 30
0.0
 10
-25.3456620180068
 20
154.7055666376405
 30
0.0
 10
-25.27478504266412
 20
155.0280382411834
 30
0.0
 10
-25.25668463983803
 20
155.0796024906547
 30
0.0
 10
-25.28273859316251
 20
155.0715213715597
 30
0.0
 10
-25.28697864787223
 20
155.0702062395852
 30
0.0
  0
ARC
  5
2C8
330
1F
100
AcDbEntity
  8
0
  6
SLD-Сплошная
 62
     7
370
    25
100
AcDbCircle
 10
-49.6515412642
 20
154.3356497533
 30
0.0
 40
23.30525455264448
100
AcDbArc
 50
209.9299714813
 51
330.0700285187
  0
SPLINE
  5
2C9
330
1F
100
AcDbEntity
  8
0
  6
SLD-Сплошная
 62
     7
370
    25
100
AcDbSpline
210
0.0
220
0.0
230
1.0
 70
     8
 71
     3
 72
    22
 73
    18
 74
     0
 42
0.00000001
 43
0.00000001
 40
0.0
 40
0.0
 40
0.0
 40
0.0
 40
0.0238510388318058
 40
0.0566975679636629
 40
0.1243304902969359
 40
0.1943907194174473
 40
0.2661734471879934
 40
0.3284076352563954
 40
0.3760949138589477
 40
0.4118431694640948
 40
0.45056993753731
 40
0.494449703339261
 40
0.5532179900484692
 40
0.6326400430144824
 40
0.7337355492452304
 40
0.856378105418305
 40
1.0
 40
1.0
 40
1.0
 40
1.0
 10
-74.13538139075105
 20
155.5209765219574
 30
0.0
 10
-74.13741790560032
 20
155.5145140736212
 30
0.0
 10
-74.14225901293698
 20
155.4991518453203
 30
0.0
 10
-74.08217698528948
 20
155.2735492792313
 30
0.0
 10
-74.00795265641604
 20
154.9387763875831
 30
0.0
 10
-73.8802394336026
 20
154.3554070394482
 30
0.0
 10
-73.73330378170319
 20
153.6575678762656
 30
0.0
 10
-73.5831191006934
 20
152.9535765506893
 30
0.0
 10
-73.44791363128823
 20
152.3447528801564
 30
0.0
 10
-73.32225947511795
 20
151.8039425616141
 30
0.0
 10
-73.18929115176347
 20
151.2581781703971
 30
0.0
 10
-73.01529096343123
 20
150.5821930959451
 30
0.0
 10
-72.7651643331295
 20
149.6772956920151
 30
0.0
 10
-72.39034458096054
 20
148.4458027055844
 30
0.0
 10
-71.82348838903322
 20
146.8422567650285
 30
0.0
 10
-70.99432916575495
 20
144.8533362765262
 30
0.0
 10
-70.25012912557575
 20
143.4595185811294
 30
0.0
 10
-69.84871083854821
 20
142.7076993369647
 30
0.0
  0
SPLINE
  5
2CA
330
1F
100
AcDbEntity
  8
0
  6
SLD-Сплошная
 62
     7
370
    25
100
AcDbSpline
210
0.0
220
0.0
230
1.0
 70
     8
 71
     3
 72
     9
 73
     5
 74
     0
 42
0.00000001
 43
0.00000001
 40
0.0
 40
0.0
 40
0.0
 40
0.0
 40
0.465303251182567
 40
0.9999999999999999
 40
0.9999999999999999
 40
0.9999999999999999
 40
0.9999999999999999
 10
-72.51707198845637
 20
159.4276221510251
 30
0.0
 10
-72.83789331187485
 20
159.4064356317915
 30
0.0
 10
-73.52738198964171
 20
159.3609029191362
 30
0.0
 10
-73.93105432475386
 20
159.0649049726637
 30
0.0
 10
-74.14689660992586
 20
158.9066358330282
 30
0.0
  0
ARC
  5
2CB
330
1F
100
AcDbEntity
  8
0
  6
SLD-Сплошная
 62
     7
370
    25
100
AcDbCircle
 10
-49.6515412642
 20
154.3356497533
 30
0.0
 40
24.6870955086555
100
AcDbArc
 50
182.9766511804
 51
200.9951363586
  0
ARC
  5
2CC
330
1F
100
AcDbEntity
  8
0
  6
SLD-Сплошная
 62
     7
370
    25
100
AcDbCircle
 10
-49.6515412642
 20
154.3356497533
 30
0.0
 40
24.6870955086555
100
AcDbArc
 50
339.0663446685
 51
357.0226138845
  0
SPLINE
  5
2CD
330
1F
100
AcDbEntity
  8
0
  6
SLD-Сплошная
 62
     7
370
    25
100
AcDbSpline
210
0.0
220
0.0
230
1.0
 70
     8
 71
     3
 72
    12
 73
     8
 74
     0
 42
0.00000001
 43
0.00000001
 40
0.0
 40
0.0
 40
0.0
 40
0.0
 40
0.1594461214237833
 40
0.3397787302215749
 40
0.541061883868899
 40
0.7619824485692901
 40
1.0
 40
1.0
 40
1.0
 40
1.0
 10
-23.25910908209512
 20
154.5577805163746
 30
0.0
 10
-23.22852789304028
 20
154.8212646608928
 30
0.0
 10
-23.1633595622403
 20
155.3827477954995
 30
0.0
 10
-23.29628470669492
 20
156.2463499616649
 30
0.0
 10
-23.64469398764658
 20
157.1526524324086
 30
0.0
 10
-24.24659169837465
 20
158.0712536535567
 30
0.0
 10
-24.84986521374149
 20
158.6249270717194
 30
0.0
 10
-25.16273895406424
 20
158.9120768783083
 30
0.0
  0
SPLINE
  5
2CE
330
1F
100
AcDbEntity
  8
0
  6
SLD-Сплошная
 62
     7
370
    25
100
AcDbSpline
210
0.0
220
0.0
230
1.0
 70
     8
 71
     3
 72
    10
 73
     6
 74
     0
 42
0.00000001
 43
0.00000001
 40
0.0
 40
0.0
 40
0.0
 40
0.0
 40
0.3441705848652318
 40
0.6796228169999752
 40
1.0
 40
1.0
 40
1.0
 40
1.0
 10
-74.1403435742982
 20
158.9120768783083
 30
0.0
 10
-74.57263730838822
 20
158.4971502928138
 30
0.0
 10
-75.42627413342008
 20
157.6778078292727
 30
0.0
 10
-76.1310671332757
 20
156.1574574173772
 30
0.0
 10
-76.07255636114829
 20
155.082771824805
 30
0.0
 10
-76.04397344626715
 20
154.5577805163743
 30
0.0
  0
SPLINE
  5
2CF
330
1F
100
AcDbEntity
  8
0
  6
SLD-Сплошная
 62
     7
370
    25
100
AcDbSpline
210
0.0
220
0.0
230
1.0
 70
     8
 71
     3
 72
    22
 73
    18
 74
     0
 42
0.00000001
 43
0.00000001
 40
0.0
 40
0.0
 40
0.0
 40
0.0
 40
0.0963462248220666
 40
0.1825226311467072
 40
0.2595024415041065
 40
0.3268812387499578
 40
0.4014809755175147
 40
0.4598711143569075
 40
0.511793491972943
 40
0.5481613966359972
 40
0.5822945312711941
 40
0.615975757718243
 40
0.6622130859326845
 40
0.7236428044530862
 40
0.8003155780597863
 40
0.8923591939067431
 40
1.0
 40
1.0
 40
1.0
 40
1.0
 10
-49.65154126418117
 20
128.490151807629
 30
0.0
 10
-48.68676688173303
 20
128.5230191444694
 30
0.0
 10
-46.85905480404047
 20
128.5852845088879
 30
0.0
 10
-44.29481339311657
 20
129.0242899368219
 30
0.0
 10
-42.07066393788033
 20
129.6180620502567
 30
0.0
 10
-40.02031217015422
 20
130.3611333031593
 30
0.0
 10
-38.21259706098375
 20
131.1931578706637
 30
0.0
 10
-36.61435721324708
 20
132.0863136714809
 30
0.0
 10
-35.39811432709152
 20
132.8725703993889
 30
0.0
 10
-34.42106360262071
 20
133.5785963952427
 30
0.0
 10
-33.6166541258236
 20
134.2121237633155
 30
0.0
 10
-32.76564842880946
 20
134.9387670550338
 30
0.0
 10
-31.75583956403654
 20
135.8861292741804
 30
0.0
 10
-30.52154985075295
 20
137.1979510001891
 30
0.0
 10
-29.12633926326724
 20
138.94973639398
 30
0.0
 10
-27.65178739022079
 20
141.1904428034866
 30
0.0
 10
-26.83600530605749
 20
142.9314822109048
 30
0.0
 10
-26.39625422140821
 20
143.869997511366
 30
0.0
  0
SPLINE
  5
2D0
330
1F
100
AcDbEntity
  8
0
  6
SLD-Сплошная
 62
     7
370
    25
100
AcDbSpline
210
0.0
220
0.0
230
1.0
 70
     8
 71
     3
 72
    22
 73
    18
 74
     0
 42
0.00000001
 43
0.00000001
 40
0.0
 40
0.0
 40
0.0
 40
0.0
 40
0.1076408060932563
 40
0.1996844219402135
 40
0.2763571955469134
 40
0.337786914067315
 40
0.3840242422817564
 40
0.4177054687288056
 40
0.4518386033640025
 40
0.4882065080270566
 40
0.5401288856430924
 40
0.5985190244824852
 40
0.6731187612500419
 40
0.7404975584958933
 40
0.8174773688532925
 40
0.9036537751779332
 40
1.0
 40
1.0
 40
1.0
 40
1.0
 10
-72.90682830695413
 20
143.869997511366
 30
0.0
 10
-72.46707722230484
 20
142.9314822109048
 30
0.0
 10
-71.65129513814155
 20
141.1904428034866
 30
0.0
 10
-70.17674326509508
 20
138.94973639398
 30
0.0
 10
-68.78153267760939
 20
137.1979510001891
 30
0.0
 10
-67.54724296432579
 20
135.8861292741804
 30
0.0
 10
-66.53743409955288
 20
134.9387670550337
 30
0.0
 10
-65.68642840253872
 20
134.2121237633155
 30
0.0
 10
-64.88201892574162
 20
133.5785963952428
 30
0.0
 10
-63.90496820127081
 20
132.8725703993889
 30
0.0
 10
-62.68872531511527
 20
132.0863136714809
 30
0.0
 10
-61.09048546737858
 20
131.1931578706637
 30
0.0
 10
-59.28277035820811
 20
130.3611333031593
 30
0.0
 10
-57.23241859048201
 20
129.6180620502567
 30
0.0
 10
-55.00826913524576
 20
129.024289936822
 30
0.0
 10
-52.44402772432186
 20
128.5852845088879
 30
0.0
 10
-50.61631564662931
 20
128.5230191444694
 30
0.0
 10
-49.65154126418117
 20
128.490151807629
 30
0.0
  0
SPLINE
  5
2D1
330
1F
100
AcDbEntity
  8
0
  6
SLD-Сплошная
 62
     7
370
    25
100
AcDbSpline
210
0.0
220
0.0
230
1.0
 70
     8
 71
     3
 72
    13
 73
     9
 74
     0
 42
0.00000001
 43
0.00000001
 40
0.0
 40
0.0
 40
0.0
 40
0.0
 40
0.0849904194114155
 40
0.2727406574042546
 40
0.4740858851324903
 40
0.696391661080837
 40
0.9106715807407185
 40
1.0
 40
1.0
 40
1.0
 40
1.0
 10
-72.1624486741928
 20
145.8917453788599
 30
0.0
 10
-72.22483902670315
 20
145.8619774537084
 30
0.0
 10
-72.42505436717568
 20
145.7664499397649
 30
0.0
 10
-72.72452480449333
 20
145.5030155877051
 30
0.0
 10
-72.97480997023537
 20
145.0683608409558
 30
0.0
 10
-73.0663130316423
 20
144.5660880627374
 30
0.0
 10
-73.01484057348513
 20
144.1538598179635
 30
0.0
 10
-72.93133465782915
 20
143.9344144116745
 30
0.0
 10
-72.90676533449994
 20
143.8698486249531
 30
0.0
  0
SPLINE
  5
2D2
330
1F
100
AcDbEntity
  8
0
  6
SLD-Сплошная
 62
     7
370
    25
100
AcDbSpline
210
0.0
220
0.0
230
1.0
 70
     8
 71
     3
 72
    13
 73
     9
 74
     0
 42
0.00000001
 43
0.00000001
 40
0.0
 40
0.0
 40
0.0
 40
0.0
 40
0.1174558920567622
 40
0.3351107905925188
 40
0.536849153022947
 40
0.7263616378845391
 40
0.9117472860199446
 40
1.0
 40
1.0
 40
1.0
 40
1.0
 10
-26.39631719386239
 20
143.8698486249531
 30
0.0
 10
-26.36488767344432
 20
143.9552025820201
 30
0.0
 10
-26.27521680848546
 20
144.19872405661
 30
0.0
 10
-26.24107440037263
 20
144.6229656866558
 30
0.0
 10
-26.34418918914832
 20
145.0987799313135
 30
0.0
 10
-26.58366929850116
 20
145.5061306828079
 30
0.0
 10
-26.87517883410209
 20
145.764620465904
 30
0.0
 10
-27.07605602684268
 20
145.8608109377924
 30
0.0
 10
-27.14084210909737
 20
145.8918338913635
 30
0.0
  0
LINE
  5
2D3
330
1F
100
AcDbEntity
  8
0
  6
SLD-Сплошная
 62
     7
370
    25
100
AcDbLine
 10
-23.2130541271
 20
154.3358509776
 30
0.0
 11
-23.2249497962
 21
155.0180785889
 31
0.0
  0
LINE
  5
2D4
330
1F
100
AcDbEntity
  8
0
  6
SLD-Сплошная
 62
     7
370
    25
100
AcDbLine
 10
-76.0781327322
 20
155.0180785889
 30
0.0
 11
-76.0900284012
 21
154.3358509776
 31
0.0
  0
SPLINE
  5
2D5
330
1F
100
AcDbEntity
  8
0
  6
SLD-Сплошная
 62
     7
370
    25
100
AcDbSpline
210
0.0
220
0.0
230
1.0
 70
     8
 71
     3
 72
    19
 73
    15
 74
     0
 42
0.00000001
 43
0.00000001
 40
0.0
 40
0.0
 40
0.0
 40
0.0
 40
0.0968560246420601
 40
0.1844657656556176
 40
0.2618453804373118
 40
0.3297649352910195
 40
0.3952906121486285
 40
0.4591600140924965
 40
0.5211891226005266
 40
0.5840602135112863
 40
0.6627798467407486
 40
0.7591950263728363
 40
0.8722140512704726
 40
1.0
 40
1.0
 40
1.0
 40
1.0
 10
-49.65154126418117
 20
128.1856497707681
 30
0.0
 10
-48.6569888547706
 20
128.2201130164224
 30
0.0
 10
-46.76282819347404
 20
128.2857495012987
 30
0.0
 10
-44.10971700297482
 20
128.7403554001213
 30
0.0
 10
-41.80530005750181
 20
129.3552837989082
 30
0.0
 10
-39.78142160083679
 20
130.0920312229591
 30
0.0
 10
-37.95105464471193
 20
130.9219252775514
 30
0.0
 10
-36.24508729797428
 20
131.854082140596
 30
0.0
 10
-34.63973481911356
 20
132.8908886822034
 30
0.0
 10
-32.99952479106551
 20
134.1286242405608
 30
0.0
 10
-31.20958060070512
 20
135.7197664501423
 30
0.0
 10
-29.25833467985473
 20
137.8447182063874
 30
0.0
 10
-27.27187836832434
 20
140.5632088861578
 30
0.0
 10
-26.21661566605999
 20
142.6970639450579
 30
0.0
 10
-25.65662828898646
 20
143.8294188505468
 30
0.0
  0
SPLINE
  5
2D6
330
1F
100
AcDbEntity
  8
0
  6
SLD-Сплошная
 62
     7
370
    25
100
AcDbSpline
210
0.0
220
0.0
230
1.0
 70
     8
 71
     3
 72
    20
 73
    16
 74
     0
 42
0.00000001
 43
0.00000001
 40
0.0
 40
0.0
 40
0.0
 40
0.0
 40
0.1115878386403092
 40
0.2077898385232702
 40
0.2872184504982193
 40
0.3505152470929001
 40
0.4109440247133233
 40
0.4716140151231532
 40
0.5324062750621068
 40
0.5955393448369756
 40
0.6737981064670961
 40
0.7432496802762889
 40
0.8212593908709122
 40
0.907111123140101
 40
1.0
 40
1.0
 40
1.0
 40
1.0
 10
-73.64645423937587
 20
143.8294188505468
 30
0.0
 10
-73.162580004825
 20
142.8384763145405
 30
0.0
 10
-72.26154858161603
 20
140.9932233546162
 30
0.0
 10
-70.64034717680227
 20
138.635120851823
 30
0.0
 10
-69.11163507804707
 20
136.8027038258689
 30
0.0
 10
-67.68020780612788
 20
135.3525494291603
 30
0.0
 10
-66.28891052500293
 20
134.1265422430204
 30
0.0
 10
-64.83188039287062
 20
133.0113818024772
 30
0.0
 10
-63.27223846403608
 20
131.9836417277017
 30
0.0
 10
-61.48160519167745
 20
130.9815922348824
 30
0.0
 10
-59.52875020916417
 20
130.0885285722679
 30
0.0
 10
-57.35807165677294
 20
129.3107525883545
 30
0.0
 10
-55.04506721716798
 20
128.7095542917212
 30
0.0
 10
-52.4408289052456
 20
128.2789241501743
 30
0.0
 10
-50.60539130470356
 20
128.2175467215402
 30
0.0
 10
-49.65154126418117
 20
128.1856497707681
 30
0.0
  0
SPLINE
  5
2D7
330
1F
100
AcDbEntity
  8
0
  6
SLD-Сплошная
 62
     7
370
    25
100
AcDbSpline
210
0.0
220
0.0
230
1.0
 70
     8
 71
     3
 72
    13
 73
     9
 74
     0
 42
0.00000001
 43
0.00000001
 40
0.0
 40
0.0
 40
0.0
 40
0.0
 40
0.1122827493619082
 40
0.3221291163272549
 40
0.5207163014782631
 40
0.7072771535400151
 40
0.8843688255378825
 40
1.0
 40
1.0
 40
1.0
 40
1.0
 10
-25.65657289927436
 20
143.8295435804006
 30
0.0
 10
-25.62227684974953
 20
143.9182516814797
 30
0.0
 10
-25.52388456607519
 20
144.1727472506927
 30
0.0
 10
-25.48271603287762
 20
144.6207412345522
 30
0.0
 10
-25.58502262390734
 20
145.1249046433112
 30
0.0
 10
-25.82656844311855
 20
145.5541841122465
 30
0.0
 10
-26.13987663264084
 20
145.8529107906229
 30
0.0
 10
-26.37719775110363
 20
145.963560019309
 30
0.0
 10
-26.47094417364762
 20
146.0072686003816
 30
0.0
  0
SPLINE
  5
2D8
330
1F
100
AcDbEntity
  8
0
  6
SLD-Сплошная
 62
     7
370
    25
100
AcDbSpline
210
0.0
220
0.0
230
1.0
 70
     8
 71
     3
 72
    13
 73
     9
 74
     0
 42
0.00000001
 43
0.00000001
 40
0.0
 40
0.0
 40
0.0
 40
0.0
 40
0.0800007414729936
 40
0.2634661320845735
 40
0.4634878081349147
 40
0.6793591820266414
 40
0.9014364131120739
 40
0.9999999999999999
 40
0.9999999999999999
 40
0.9999999999999999
 40
0.9999999999999999
 10
-72.83213835471471
 20
146.0072686003816
 30
0.0
 10
-72.89736409461719
 20
145.9783390413499
 30
0.0
 10
-73.11217177124672
 20
145.8830654366226
 30
0.0
 10
-73.43351908962553
 20
145.6121769761523
 30
0.0
 10
-73.70862888812971
 20
145.1618888984673
 30
0.0
 10
-73.82438466450408
 20
144.6212058442697
 30
0.0
 10
-73.77624686416098
 20
144.1596856961519
 30
0.0
 10
-73.67701352430812
 20
143.9071667893504
 30
0.0
 10
-73.64650962908796
 20
143.8295435804006
 30
0.0
  0
SPLINE
  5
2D9
330
1F
100
AcDbEntity
  8
0
  6
SLD-Сплошная
 62
     7
370
    25
100
AcDbSpline
210
0.0
220
0.0
230
1.0
 70
     8
 71
     3
 72
    11
 73
     7
 74
     0
 42
0.00000001
 43
0.00000001
 40
0.0
 40
0.0
 40
0.0
 40
0.0
 40
0.2463675951523573
 40
0.4997038536240414
 40
0.744018084398099
 40
1.0
 40
1.0
 40
1.0
 40
1.0
 10
-76.0678425580841
 20
155.7718783271604
 30
0.0
 10
-76.07797966757336
 20
155.5258731131735
 30
0.0
 10
-76.09854062110811
 20
155.0269042720611
 30
0.0
 10
-76.08932794731659
 20
154.4336371430601
 30
0.0
 10
-76.08122097278326
 20
154.0751785653608
 30
0.0
 10
-76.08062129702516
 20
154.0206431276443
 30
0.0
 10
-76.08031446646008
 20
153.992739483141
 30
0.0
  0
LINE
  5
2DA
330
1F
100
AcDbEntity
  8
0
  6
SLD-Сплошная
 62
     7
370
    25
100
AcDbLine
 10
-76.0899694267
 20
154.3504307366
 30
0.0
 11
-76.0775015562
 21
153.9657774769
 31
0.0
  0
SPLINE
  5
2DB
330
1F
100
AcDbEntity
  8
0
  6
SLD-Сплошная
 62
     7
370
    25
100
AcDbSpline
210
0.0
220
0.0
230
1.0
 70
     8
 71
     3
 72
    12
 73
     8
 74
     0
 42
0.00000001
 43
0.00000001
 40
0.0
 40
0.0
 40
0.0
 40
0.0
 40
0.1721927879703729
 40
0.3382936513871374
 40
0.6390770303326129
 40
0.8915033629348218
 40
1.0
 40
1.0
 40
1.0
 40
1.0
 10
-76.07863165248601
 20
153.9761485924041
 30
0.0
 10
-76.04973439399603
 20
153.8076731328569
 30
0.0
 10
-75.99296221901199
 20
153.4766826247692
 30
0.0
 10
-75.71880836724503
 20
152.8988727660939
 30
0.0
 10
-75.2299743515528
 20
152.365426939093
 30
0.0
 10
-74.64269547191542
 20
152.0339501667574
 30
0.0
 10
-74.2888939525714
 20
151.981888891705
 30
0.0
 10
-74.18253808646305
 20
151.9662388119395
 30
0.0
  0
SPLINE
  5
2DC
330
1F
100
AcDbEntity
  8
0
  6
SLD-Сплошная
 62
     7
370
    25
100
AcDbSpline
210
0.0
220
0.0
230
1.0
 70
     8
 71
     3
 72
    12
 73
     8
 74
     0
 42
0.00000001
 43
0.00000001
 40
0.0
 40
0.0
 40
0.0
 40
0.0
 40
0.1083533991978547
 40
0.3608539411547079
 40
0.6616771241223794
 40
0.8277934973280691
 40
1.0
 40
1.0
 40
1.0
 40
1.0
 10
-25.12024698549417
 20
151.963917387573
 30
0.0
 10
-25.01410451840878
 20
151.9795246930306
 30
0.0
 10
-24.66061373865289
 20
152.0315023672601
 30
0.0
 10
-24.07334727251389
 20
152.3630373530635
 30
0.0
 10
-23.58441080146457
 20
152.8967254047728
 30
0.0
 10
-23.31018810496336
 20
153.4747928947239
 30
0.0
 10
-23.25339165236224
 20
153.8059258107514
 30
0.0
 10
-23.22448223132106
 20
153.9744726204838
 30
0.0
  0
SPLINE
  5
2DD
330
1F
100
AcDbEntity
  8
0
  6
SLD-Сплошная
 62
     7
370
    25
100
AcDbSpline
210
0.0
220
0.0
230
1.0
 70
     8
 71
     3
 72
    10
 73
     6
 74
     0
 42
0.00000001
 43
0.00000001
 40
0.0
 40
0.0
 40
0.0
 40
0.0
 40
0.43762510182062
 40
0.8711019715942135
 40
1.0
 40
1.0
 40
1.0
 40
1.0
 10
-23.22128307616815
 20
154.0072792095339
 30
0.0
 10
-23.22195946645358
 20
154.0538049502323
 30
0.0
 10
-23.22330583554612
 20
154.1464154158651
 30
0.0
 10
-23.20139757524607
 20
154.6055370437865
 30
0.0
 10
-23.21432576510467
 20
155.0199809892616
 30
0.0
 10
-23.21728894534089
 20
155.1149727956694
 30
0.0
  0
LINE
  5
2DE
330
1F
100
AcDbEntity
  8
0
  6
SLD-Сплошная
 62
     7
370
    25
100
AcDbLine
 10
-23.2293045055
 20
155.5546741844
 30
0.0
 11
-23.2352399593
 21
155.7718781466
 31
0.0
  0
LINE
  5
2DF
330
1F
100
AcDbEntity
  8
0
  6
SLD-Сплошная
 62
     7
370
    25
100
AcDbLine
 10
-23.2267470112
 20
153.9542930052
 30
0.0
 11
-23.2131131012
 21
154.350430677
 31
0.0
  0
LINE
  5
2E0
330
1F
100
AcDbEntity
  8
0
  6
SLD-Сплошная
 62
     7
370
    25
100
AcDbLine
 10
-23.2351862878
 20
155.7709953147
 30
0.0
 11
-23.6024922924
 21
158.8557579996
 31
0.0
  0
LINE
  5
2E1
330
1F
100
AcDbEntity
  8
0
  6
SLD-Сплошная
 62
     7
370
    25
100
AcDbLine
 10
-75.700590236
 20
158.8557579996
 30
0.0
 11
-76.0678962405
 21
155.7709953147
 31
0.0
  0
LINE
  5
2E2
330
1F
100
AcDbEntity
  8
0
  6
SLD-Сплошная
 62
     7
370
    25
100
AcDbLine
 10
-52.7216253583
 20
139.6531913878
 30
0.0
 11
-52.7216253583
 21
141.3450313995
 31
0.0
  0
ARC
  5
2E3
330
1F
100
AcDbEntity
  8
0
  6
SLD-Сплошная
 62
     7
370
    25
100
AcDbCircle
 10
-49.6515412642
 20
154.3356497533
 30
0.0
 40
14.99999999999999
100
AcDbArc
 50
191.8103148958
 51
258.1896851042
  0
LINE
  5
2E4
330
1F
100
AcDbEntity
  8
0
  6
SLD-Сплошная
 62
     7
370
    25
100
AcDbLine
 10
-64.3339996297
 20
151.2655656592
 30
0.0
 11
-62.642159618
 21
151.2655656592
 31
0.0
  0
LWPOLYLINE
  5
2E5
330
1F
100
AcDbEntity
  8
0
  6
SLD-Сплошная
 62
     7
370
    25
100
AcDbPolyline
 90
       13
 70
   128
 43
0.0
 10
-62.642159618
 20
151.2655656592
 10
-62.2718575873
 20
151.3701762379
 10
-61.9267910282
 20
151.676878936
 10
-61.6304756562
 20
152.1647724715
 10
-61.4031048743
 20
152.8006077062
 10
-61.2601736255
 20
153.5410535197
 10
-61.2114224384
 20
154.3356497533
 10
-61.2601736255
 20
155.1302459869
 10
-61.4031048743
 20
155.8706918003
 10
-61.6304756562
 20
156.506527035
 10
-61.9267910282
 20
156.9944205705
 10
-62.2718575873
 20
157.3011232686
 10
-62.642159618
 20
157.4057338474
  0
LINE
  5
2E6
330
1F
100
AcDbEntity
  8
0
  6
SLD-Сплошная
 62
     7
370
    25
100
AcDbLine
 10
-64.3339996297
 20
157.4057338474
 30
0.0
 11
-62.642159618
 21
157.4057338474
 31
0.0
  0
ARC
  5
2E7
330
1F
100
AcDbEntity
  8
0
  6
SLD-Сплошная
 62
     7
370
    25
100
AcDbCircle
 10
-49.6515412642
 20
154.3356497533
 30
0.0
 40
15.00000000000004
100
AcDbArc
 50
101.8103148958
 51
168.1896851042
  0
LINE
  5
2E8
330
1F
100
AcDbEntity
  8
0
  6
SLD-Сплошная
 62
     7
370
    25
100
AcDbLine
 10
-52.7216253583
 20
169.0181081188
 30
0.0
 11
-52.7216253583
 21
167.3262681071
 31
0.0
  0
LWPOLYLINE
  5
2E9
330
1F
100
AcDbEntity
  8
0
  6
SLD-Сплошная
 62
     7
370
    25
100
AcDbPolyline
 90
       13
 70
   128
 43
0.0
 10
-52.7216253583
 20
167.3262681071
 10
-52.6170147795
 20
166.9559660764
 10
-52.3103120814
 20
166.6108995173
 10
-51.8224185459
 20
166.3145841453
 10
-51.1865833112
 20
166.0872133634
 10
-50.4461374978
 20
165.9442821146
 10
-49.6515412642
 20
165.8955309274
 10
-48.8569450306
 20
165.9442821146
 10
-48.1164992171
 20
166.0872133634
 10
-47.4806639824
 20
166.3145841453
 10
-46.9927704469
 20
166.6108995173
 10
-46.6860677488
 20
166.9559660764
 10
-46.5814571701
 20
167.3262681071
  0
LINE
  5
2EA
330
1F
100
AcDbEntity
  8
0
  6
SLD-Сплошная
 62
     7
370
    25
100
AcDbLine
 10
-46.5814571701
 20
169.0181081188
 30
0.0
 11
-46.5814571701
 21
167.3262681071
 31
0.0
  0
ARC
  5
2EB
330
1F
100
AcDbEntity
  8
0
  6
SLD-Сплошная
 62
     7
370
    25
100
AcDbCircle
 10
-49.6515412642
 20
154.3356497533
 30
0.0
 40
14.99999999999999
100
AcDbArc
 50
11.8103148958
 51
78.1896851042
  0
LINE
  5
2EC
330
1F
100
AcDbEntity
  8
0
  6
SLD-Сплошная
 62
     7
370
    25
100
AcDbLine
 10
-34.9690828987
 20
157.4057338474
 30
0.0
 11
-36.6609229104
 21
157.4057338474
 31
0.0
  0
LWPOLYLINE
  5
2ED
330
1F
100
AcDbEntity
  8
0
  6
SLD-Сплошная
 62
     7
370
    25
100
AcDbPolyline
 90
       13
 70
   128
 43
0.0
 10
-36.6609229104
 20
157.4057338474
 10
-37.031224941
 20
157.3011232686
 10
-37.3762915002
 20
156.9944205705
 10
-37.6726068722
 20
156.506527035
 10
-37.8999776541
 20
155.8706918003
 10
-38.0429089028
 20
155.1302459869
 10
-38.09166009
 20
154.3356497533
 10
-38.0429089028
 20
153.5410535197
 10
-37.8999776541
 20
152.8006077062
 10
-37.6726068722
 20
152.1647724715
 10
-37.3762915002
 20
151.676878936
 10
-37.031224941
 20
151.3701762379
 10
-36.6609229104
 20
151.2655656592
  0
LINE
  5
2EE
330
1F
100
AcDbEntity
  8
0
  6
SLD-Сплошная
 62
     7
370
    25
100
AcDbLine
 10
-34.9690828987
 20
151.2655656592
 30
0.0
 11
-36.6609229104
 21
151.2655656592
 31
0.0
  0
ARC
  5
2EF
330
1F
100
AcDbEntity
  8
0
  6
SLD-Сплошная
 62
     7
370
    25
100
AcDbCircle
 10
-49.6515412642
 20
154.3356497533
 30
0.0
 40
14.99999999999999
100
AcDbArc
 50
281.8103148958
 51
348.1896851042
  0
LINE
  5
2F0
330
1F
100
AcDbEntity
  8
0
  6
SLD-Сплошная
 62
     7
370
    25
100
AcDbLine
 10
-46.5814571701
 20
139.6531913878
 30
0.0
 11
-46.5814571701
 21
141.3450313995
 31
0.0
  0
LWPOLYLINE
  5
2F1
330
1F
100
AcDbEntity
  8
0
  6
SLD-Сплошная
 62
     7
370
    25
100
AcDbPolyline
 90
       13
 70
   128
 43
0.0
 10
-46.5814571701
 20
141.3450313995
 10
-46.6860677488
 20
141.7153334301
 10
-46.9927704469
 20
142.0603999893
 10
-47.4806639824
 20
142.3567153613
 10
-48.1164992171
 20
142.5840861432
 10
-48.8569450306
 20
142.7270173919
 10
-49.6515412642
 20
142.7757685791
 10
-50.4461374978
 20
142.7270173919
 10
-51.1865833112
 20
142.5840861432
 10
-51.8224185459
 20
142.3567153613
 10
-52.3103120814
 20
142.0603999893
 10
-52.6170147795
 20
141.7153334301
 10
-52.7216253583
 20
141.3450313995
  0
CIRCLE
  5
2F2
330
1F
100
AcDbEntity
  8
0
  6
SLD-Сплошная
 62
     7
370
    25
100
AcDbCircle
 10
-49.6515412642
 20
154.3356497533
 30
0.0
 40
7.5
  0
ARC
  5
2F3
330
1F
100
AcDbEntity
  8
0
  6
SLD-Сплошная
 62
     7
370
    25
100
AcDbCircle
 10
-34.6515412642
 20
154.3356497533
 30
0.0
 40
2.500000000000008
100
AcDbArc
 50
300.0
 51
60.0
  0
ARC
  5
2F4
330
1F
100
AcDbEntity
  8
0
  6
SLD-Сплошная
 62
     7
370
    25
100
AcDbCircle
 10
-49.6515412642
 20
169.3356497533
 30
0.0
 40
2.499999999999988
100
AcDbArc
 50
30.0
 51
150.0
  0
ARC
  5
2F5
330
1F
100
AcDbEntity
  8
0
  6
SLD-Сплошная
 62
     7
370
    25
100
AcDbCircle
 10
-49.6515412642
 20
139.3356497533
 30
0.0
 40
2.499999999999994
100
AcDbArc
 50
210.0
 51
330.0
  0
ARC
  5
2F6
330
1F
100
AcDbEntity
  8
0
  6
SLD-Сплошная
 62
     7
370
    25
100
AcDbCircle
 10
-64.6515412642
 20
154.3356497533
 30
0.0
 40
2.500000000000008
100
AcDbArc
 50
120.0
 51
240.0
  0
LINE
  5
2F7
330
1F
100
AcDbEntity
  8
0
  6
SLD-Сплошная
 62
     7
370
    25
100
AcDbLine
 10
-33.4015412642
 20
152.1705862438
 30
0.0
 11
-34.9690828987
 21
151.2655656592
 31
0.0
  0
LINE
  5
2F8
330
1F
100
AcDbEntity
  8
0
  6
SLD-Сплошная
 62
     7
370
    25
100
AcDbLine
 10
-34.9690828987
 20
157.4057338474
 30
0.0
 11
-33.4015412642
 21
156.5007132627
 31
0.0
  0
LINE
  5
2F9
330
1F
100
AcDbEntity
  8
0
  6
SLD-Сплошная
 62
     7
370
    25
100
AcDbLine
 10
-47.4864777547
 20
170.5856497533
 30
0.0
 11
-46.5814571701
 21
169.0181081188
 31
0.0
  0
LINE
  5
2FA
330
1F
100
AcDbEntity
  8
0
  6
SLD-Сплошная
 62
     7
370
    25
100
AcDbLine
 10
-46.5814571701
 20
139.6531913878
 30
0.0
 11
-47.4864777547
 21
138.0856497533
 31
0.0
  0
LINE
  5
2FB
330
1F
100
AcDbEntity
  8
0
  6
SLD-Сплошная
 62
     7
370
    25
100
AcDbLine
 10
-51.8166047736
 20
138.0856497533
 30
0.0
 11
-52.7216253583
 21
139.6531913878
 31
0.0
  0
LINE
  5
2FC
330
1F
100
AcDbEntity
  8
0
  6
SLD-Сплошная
 62
     7
370
    25
100
AcDbLine
 10
-52.7216253583
 20
169.0181081188
 30
0.0
 11
-51.8166047736
 21
170.5856497533
 31
0.0
  0
LINE
  5
2FD
330
1F
100
AcDbEntity
  8
0
  6
SLD-Сплошная
 62
     7
370
    25
100
AcDbLine
 10
-65.9015412642
 20
156.5007132627
 30
0.0
 11
-64.3339996297
 21
157.4057338474
 31
0.0
  0
LINE
  5
2FE
330
1F
100
AcDbEntity
  8
0
  6
SLD-Сплошная
 62
     7
370
    25
100
AcDbLine
 10
-64.3339996297
 20
151.2655656592
 30
0.0
 11
-65.9015412642
 21
152.1705862438
 31
0.0
  0
CIRCLE
  5
2FF
330
1F
100
AcDbEntity
  8
0
  6
SLD-Сплошная
 62
     7
370
    25
100
AcDbCircle
 10
-49.6515412642
 20
154.3356497533
 30
0.0
 40
4.00000000000001
  0
LINE
  5
300
330
1F
100
AcDbEntity
  8
0
  6
SLD-Сплошная
 62
     7
370
    25
100
AcDbLine
 10
-65.4864777547
 20
165.9779545987
 30
0.0
 11
-67.6515412642
 21
162.2279545987
 31
0.0
  0
LINE
  5
301
330
1F
100
AcDbEntity
  8
0
  6
SLD-Сплошная
 62
     7
370
    25
100
AcDbLine
 10
-51.8166047736
 20
173.8702594441
 30
0.0
 11
-65.4864777547
 21
165.9779545987
 31
0.0
  0
LINE
  5
302
330
1F
100
AcDbEntity
  8
0
  6
SLD-Сплошная
 62
     7
370
    25
100
AcDbLine
 10
-47.4864777547
 20
173.8702594441
 30
0.0
 11
-51.8166047736
 21
173.8702594441
 31
0.0
  0
LINE
  5
303
330
1F
100
AcDbEntity
  8
0
  6
SLD-Сплошная
 62
     7
370
    25
100
AcDbLine
 10
-47.4864777547
 20
173.8702594441
 30
0.0
 11
-33.8166047736
 21
165.9779545987
 31
0.0
  0
LINE
  5
304
330
1F
100
AcDbEntity
  8
0
  6
SLD-Сплошная
 62
     7
370
    25
100
AcDbLine
 10
-33.8166047736
 20
165.9779545987
 30
0.0
 11
-31.6515412642
 21
162.2279545987
 31
0.0
  0
LINE
  5
305
330
1F
100
AcDbEntity
  8
0
  6
SLD-Сплошная
 62
     7
370
    25
100
AcDbLine
 10
-31.6515412642
 20
146.4433449079
 30
0.0
 11
-33.8166047736
 21
142.6933449079
 31
0.0
  0
LINE
  5
306
330
1F
100
AcDbEntity
  8
0
  6
SLD-Сплошная
 62
     7
370
    25
100
AcDbLine
 10
-33.8166047736
 20
142.6933449079
 30
0.0
 11
-47.4864777547
 21
134.8010400624
 31
0.0
  0
LINE
  5
307
330
1F
100
AcDbEntity
  8
0
  6
SLD-Сплошная
 62
     7
370
    25
100
AcDbLine
 10
-51.8166047736
 20
134.8010400624
 30
0.0
 11
-47.4864777547
 21
134.8010400624
 31
0.0
  0
LINE
  5
308
330
1F
100
AcDbEntity
  8
0
  6
SLD-Сплошная
 62
     7
370
    25
100
AcDbLine
 10
-65.4864777547
 20
142.6933449079
 30
0.0
 11
-51.8166047736
 21
134.8010400624
 31
0.0
  0
LINE
  5
309
330
1F
100
AcDbEntity
  8
0
  6
SLD-Сплошная
 62
     7
370
    25
100
AcDbLine
 10
-67.6515412642
 20
146.4433449079
 30
0.0
 11
-65.4864777547
 21
142.6933449079
 31
0.0
  0
LINE
  5
30A
330
1F
100
AcDbEntity
  8
0
  6
SLD-Сплошная
 62
     7
370
    25
100
AcDbLine
 10
-67.6515412642
 20
162.2279545987
 30
0.0
 11
-67.6515412642
 21
146.4433449079
 31
0.0
  0
LINE
  5
30B
330
1F
100
AcDbEntity
  8
0
  6
SLD-Сплошная
 62
     7
370
    25
100
AcDbLine
 10
-31.6515412642
 20
162.2279545987
 30
0.0
 11
-31.6515412642
 21
146.4433449079
 31
0.0
  0
ARC
  5
30C
330
1F
100
AcDbEntity
  8
0
  6
SLD-Сплошная
 62
     7
370
    25
100
AcDbCircle
 10
-49.6515412642
 20
154.3356497533
 30
0.0
 40
19.65422284835843
100
AcDbArc
 50
336.3244049672
 51
23.6755950328
  0
ARC
  5
30D
330
1F
100
AcDbEntity
  8
0
  6
SLD-Сплошная
 62
     7
370
    25
100
AcDbCircle
 10
-49.6515412642
 20
154.3356497533
 30
0.0
 40
19.65422284835842
100
AcDbArc
 50
23.6755950328
 51
36.3244049672
  0
ARC
  5
30E
330
1F
100
AcDbEntity
  8
0
  6
SLD-Сплошная
 62
     7
370
    25
100
AcDbCircle
 10
-49.6515412642
 20
154.3356497533
 30
0.0
 40
19.65422284835843
100
AcDbArc
 50
323.6755950328
 51
336.3244049672
  0
ARC
  5
30F
330
1F
100
AcDbEntity
  8
0
  6
SLD-Сплошная
 62
     7
370
    25
100
AcDbCircle
 10
-49.6515412642
 20
154.3356497533
 30
0.0
 40
19.65422284835844
100
AcDbArc
 50
36.3244049672
 51
83.6755950328
  0
ARC
  5
310
330
1F
100
AcDbEntity
  8
0
  6
SLD-Сплошная
 62
     7
370
    25
100
AcDbCircle
 10
-49.6515412642
 20
154.3356497533
 30
0.0
 40
19.6542228483584
100
AcDbArc
 50
276.3244049672
 51
323.6755950328
  0
ARC
  5
311
330
1F
100
AcDbEntity
  8
0
  6
SLD-Сплошная
 62
     7
370
    25
100
AcDbCircle
 10
-49.6515412642
 20
154.3356497533
 30
0.0
 40
19.65422284835835
100
AcDbArc
 50
263.6755950328
 51
276.3244049672
  0
ARC
  5
312
330
1F
100
AcDbEntity
  8
0
  6
SLD-Сплошная
 62
     7
370
    25
100
AcDbCircle
 10
-49.6515412642
 20
154.3356497533
 30
0.0
 40
19.65422284835844
100
AcDbArc
 50
83.6755950328
 51
96.3244049672
  0
ARC
  5
313
330
1F
100
AcDbEntity
  8
0
  6
SLD-Сплошная
 62
     7
370
    25
100
AcDbCircle
 10
-49.6515412642
 20
154.3356497533
 30
0.0
 40
19.6542228483584
100
AcDbArc
 50
216.3244049672
 51
263.6755950328
  0
ARC
  5
314
330
1F
100
AcDbEntity
  8
0
  6
SLD-Сплошная
 62
     7
370
    25
100
AcDbCircle
 10
-49.6515412642
 20
154.3356497533
 30
0.0
 40
19.65422284835844
100
AcDbArc
 50
96.3244049672
 51
143.6755950328
  0
ARC
  5
315
330
1F
100
AcDbEntity
  8
0
  6
SLD-Сплошная
 62
     7
370
    25
100
AcDbCircle
 10
-49.6515412642
 20
154.3356497533
 30
0.0
 40
19.65422284835843
100
AcDbArc
 50
143.6755950328
 51
156.3244049672
  0
ARC
  5
316
330
1F
100
AcDbEntity
  8
0
  6
SLD-Сплошная
 62
     7
370
    25
100
AcDbCircle
 10
-49.6515412642
 20
154.3356497533
 30
0.0
 40
19.6542228483584
100
AcDbArc
 50
203.6755950328
 51
216.3244049672
  0
ARC
  5
317
330
1F
100
AcDbEntity
  8
0
  6
SLD-Сплошная
 62
     7
370
    25
100
AcDbCircle
 10
-49.6515412642
 20
154.3356497533
 30
0.0
 40
19.65422284835843
100
AcDbArc
 50
156.3244049672
 51
203.6755950328
  0
SPLINE
  5
318
330
1F
100
AcDbEntity
  8
0
  6
SLD-Сплошная
 62
     7
370
    25
100
AcDbSpline
210
0.0
220
0.0
230
1.0
 70
     8
 71
     3
 72
    17
 73
    13
 74
     0
 42
0.00000001
 43
0.00000001
 40
0.0
 40
0.0
 40
0.0
 40
0.0
 40
0.0963393088305952
 40
0.1927486744983207
 40
0.2890903834717125
 40
0.3854684748467979
 40
0.4881434297015518
 40
0.5908265124106681
 40
0.6977673188076656
 40
0.8047436879404691
 40
0.9203084434674871
 40
1.0
 40
1.0
 40
1.0
 40
1.0
 10
-31.45218797548542
 20
143.8578856848659
 30
0.0
 10
-31.08059611213155
 20
144.5406215807384
 30
0.0
 10
-30.33714216809544
 20
145.906589850173
 30
0.0
 10
-29.4548084462545
 20
148.0209085336276
 30
0.0
 10
-28.76056334708604
 20
150.113271904128
 30
0.0
 10
-28.23175964584514
 20
152.1578879058807
 30
0.0
 10
-27.85763641777985
 20
154.0825635680111
 30
0.0
 10
-27.59161320483517
 20
155.8307693172422
 30
0.0
 10
-27.39353205117489
 20
157.2875587187684
 30
0.0
 10
-27.21202811811347
 20
158.4426211645741
 30
0.0
 10
-27.02686142231226
 20
159.1783215278143
 30
0.0
 10
-26.86742844725073
 20
159.3219409106329
 30
0.0
 10
-26.80235776240962
 20
159.3805574646605
 30
0.0
  0
ARC
  5
319
330
1F
100
AcDbEntity
  8
0
  6
SLD-Сплошная
 62
     7
370
    25
100
AcDbCircle
 10
-49.6515412642
 20
154.3356497533
 30
0.0
 40
21.00000000000002
100
AcDbArc
 50
330.0700285187
 51
209.9299714813
  0
SPLINE
  5
31A
330
1F
100
AcDbEntity
  8
0
  6
SLD-Сплошная
 62
     7
370
    25
100
AcDbSpline
210
0.0
220
0.0
230
1.0
 70
     8
 71
     3
 72
    17
 73
    13
 74
     0
 42
0.00000001
 43
0.00000001
 40
0.0
 40
0.0
 40
0.0
 40
0.0
 40
0.0963393088305953
 40
0.192748674498321
 40
0.2890903834717128
 40
0.3854684748467984
 40
0.4881434297015525
 40
0.5908265124106689
 40
0.6977673188076666
 40
0.8047436879404702
 40
0.9203084434674883
 40
1.0
 40
1.0
 40
1.0
 40
1.0
 10
-67.85089455287692
 20
143.8578856848659
 30
0.0
 10
-68.22248641623077
 20
144.5406215807384
 30
0.0
 10
-68.96594036026687
 20
145.906589850173
 30
0.0
 10
-69.84827408210785
 20
148.0209085336276
 30
0.0
 10
-70.54251918127629
 20
150.113271904128
 30
0.0
 10
-71.0713228825172
 20
152.1578879058806
 30
0.0
 10
-71.44544611058248
 20
154.0825635680111
 30
0.0
 10
-71.71146932352717
 20
155.8307693172422
 30
0.0
 10
-71.90955047718745
 20
157.2875587187684
 30
0.0
 10
-72.09105441024887
 20
158.4426211645741
 30
0.0
 10
-72.27622110605007
 20
159.1783215278143
 30
0.0
 10
-72.4356540811116
 20
159.3219409106329
 30
0.0
 10
-72.50072476595271
 20
159.3805574646605
 30
0.0
  0
ARC
  5
31B
330
1F
100
AcDbEntity
  8
0
  6
SLD-Сплошная
 62
     7
370
    25
100
AcDbCircle
 10
-49.6515412642
 20
154.3356497533
 30
0.0
 40
24.05716882058054
100
AcDbArc
 50
83.4361114722
 51
96.5638885278
  0
SPLINE
  5
31C
330
1F
100
AcDbEntity
  8
0
  6
SLD-Сплошная
 62
     7
370
    25
100
AcDbSpline
210
0.0
220
0.0
230
1.0
 70
     8
 71
     3
 72
    28
 73
    24
 74
     0
 42
0.00000001
 43
0.00000001
 40
0.0
 40
0.0
 40
0.0
 40
0.0
 40
0.125
 40
0.125
 40
0.2500000000000001
 40
0.2500000000000001
 40
0.3125000000000001
 40
0.3125000000000001
 40
0.3749999999999999
 40
0.3749999999999999
 40
0.4999999999999999
 40
0.4999999999999999
 40
0.5624999999999999
 40
0.5624999999999999
 40
0.6249999999999999
 40
0.6249999999999999
 40
0.6874999999999999
 40
0.6874999999999999
 40
0.7499999999999999
 40
0.7499999999999999
 40
0.875
 40
0.875
 40
1.0
 40
1.0
 40
1.0
 40
1.0
 10
-49.65154126418117
 20
130.1655399888488
 30
0.0
 10
-50.78719404331768
 20
130.1656225495221
 30
0.0
 10
-51.90897101704865
 20
130.2474387786965
 30
0.0
 10
-54.12586627536311
 20
130.5679679719548
 30
0.0
 10
-55.22096920826022
 20
130.806711204721
 30
0.0
 10
-56.84307233627581
 20
131.285199640447
 30
0.0
 10
-57.37806733263126
 20
131.4643135472846
 30
0.0
 10
-58.42526037450069
 20
131.8569656561734
 30
0.0
 10
-58.93924119489195
 20
132.0710142779274
 30
0.0
 10
-60.4529620097445
 20
132.7652302850654
 30
0.0
 10
-61.42462090153293
 20
133.2972085167201
 30
0.0
 10
-62.82561049106594
 20
134.1994112225676
 30
0.0
 10
-63.28342595387287
 20
134.5179392172495
 30
0.0
 10
-64.16984311319106
 20
135.1827348193758
 30
0.0
 10
-64.59978642541735
 20
135.5298100956295
 30
0.0
 10
-65.43339841567116
 20
136.2530059834539
 30
0.0
 10
-65.83776541789076
 20
136.629871114408
 30
0.0
 10
-66.61537579598945
 20
137.4078871392632
 30
0.0
 10
-66.98889065856665
 20
137.8091617992406
 30
0.0
 10
-68.06418671406017
 20
139.0492591064172
 30
0.0
 10
-68.72163622959343
 20
139.926456187098
 30
0.0
 10
-69.89679860034236
 20
141.7467344552566
 30
0.0
 10
-70.41769256401732
 20
142.6929696710954
 30
0.0
 10
-70.87215089830717
 20
143.6755348892736
 30
0.0
  0
LWPOLYLINE
  5
31D
330
1F
100
AcDbEntity
  8
0
  6
SLD-Сплошная
 62
     7
370
    25
100
AcDbPolyline
 90
        8
 70
   128
 43
0.0
 10
-72.177939133
 20
145.8833354622
 10
-72.1778087216
 20
145.8850948037
 10
-72.0145257969
 20
145.7378935324
 10
-71.7155333197
 20
145.2444238987
 10
-71.2959179984
 20
144.4683685496
 10
-70.8721896476
 20
143.6756068599
 10
-70.8721508983
 20
143.6755348893
 10
-70.8721508983
 20
143.6755348893
  0
SPLINE
  5
31E
330
1F
100
AcDbEntity
  8
0
  6
SLD-Сплошная
 62
     7
370
    25
100
AcDbSpline
210
0.0
220
0.0
230
1.0
 70
     8
 71
     3
 72
    18
 73
    14
 74
     0
 42
0.00000001
 43
0.00000001
 40
0.0
 40
0.0
 40
0.0
 40
0.0
 40
0.0000187776410496
 40
0.0000630601569508
 40
0.0002401902216152
 40
0.000948710550481
 40
0.0037827963569677
 40
0.0151194270141333
 40
0.0604843666440842
 40
0.2431498533952603
 40
0.5028382073538877
 40
0.762613897866651
 40
1.0
 40
1.0
 40
1.0
 40
1.0
 10
-28.43093163005551
 20
143.6755348892734
 30
0.0
 10
-28.43091871361852
 20
143.675558879504
 30
0.0
 10
-28.43087533689498
 20
143.6756394448796
 30
0.0
 10
-28.43071012165364
 20
143.6759463070539
 30
0.0
 10
-28.43007049618756
 20
143.6771343270556
 30
0.0
 10
-28.42751248609008
 20
143.6818857052442
 30
0.0
 10
-28.41728820638005
 20
143.7008801477031
 30
0.0
 10
-28.37650501579401
 20
143.7767002282107
 30
0.0
 10
-28.21469801454701
 20
144.0783057374099
 30
0.0
 10
-27.90346989513879
 20
144.6642623980739
 30
0.0
 10
-27.53443903109267
 20
145.3498920433838
 30
0.0
 10
-27.24448550653228
 20
145.8333300785586
 30
0.0
 10
-27.16715572102251
 20
145.8582177826626
 30
0.0
 10
-27.13023209448381
 20
145.8701012281639
 30
0.0
  0
SPLINE
  5
31F
330
1F
100
AcDbEntity
  8
0
  6
SLD-Сплошная
 62
     7
370
    25
100
AcDbSpline
210
0.0
220
0.0
230
1.0
 70
     8
 71
     3
 72
    28
 73
    24
 74
     0
 42
0.00000001
 43
0.00000001
 40
0.0
 40
0.0
 40
0.0
 40
0.0
 40
0.1250000000000005
 40
0.1250000000000005
 40
0.2500000000000009
 40
0.2500000000000009
 40
0.3125000000000011
 40
0.3125000000000011
 40
0.3750000000000012
 40
0.3750000000000012
 40
0.500000000000001
 40
0.500000000000001
 40
0.562500000000001
 40
0.562500000000001
 40
0.6250000000000009
 40
0.6250000000000009
 40
0.6875000000000008
 40
0.6875000000000008
 40
0.7500000000000007
 40
0.7500000000000007
 40
0.8750000000000004
 40
0.8750000000000004
 40
1.0
 40
1.0
 40
1.0
 40
1.0
 10
-49.65154126418117
 20
130.1655399888488
 30
0.0
 10
-48.51588848504466
 20
130.1656225495221
 30
0.0
 10
-47.39411151131372
 20
130.2474387786966
 30
0.0
 10
-45.17721625299929
 20
130.5679679719548
 30
0.0
 10
-44.08211332010217
 20
130.8067112047209
 30
0.0
 10
-42.46001019208661
 20
131.2851996404469
 30
0.0
 10
-41.92501519573118
 20
131.4643135472846
 30
0.0
 10
-40.87782215386177
 20
131.8569656561734
 30
0.0
 10
-40.36384133347052
 20
132.0710142779274
 30
0.0
 10
-38.85012051861799
 20
132.7652302850653
 30
0.0
 10
-37.87846162682955
 20
133.29720851672
 30
0.0
 10
-36.47747203729656
 20
134.1994112225675
 30
0.0
 10
-36.01965657448962
 20
134.5179392172494
 30
0.0
 10
-35.13323941517145
 20
135.1827348193757
 30
0.0
 10
-34.70329610294515
 20
135.5298100956293
 30
0.0
 10
-33.86968411269133
 20
136.2530059834537
 30
0.0
 10
-33.46531711047172
 20
136.6298711144078
 30
0.0
 10
-32.68770673237305
 20
137.407887139263
 30
0.0
 10
-32.31419186979588
 20
137.8091617992404
 30
0.0
 10
-31.23889581430234
 20
139.0492591064169
 30
0.0
 10
-30.58144629876908
 20
139.9264561870978
 30
0.0
 10
-29.40628392802012
 20
141.7467344552563
 30
0.0
 10
-28.88538996434502
 20
142.6929696710954
 30
0.0
 10
-28.43093163005516
 20
143.6755348892736
 30
0.0
  0
SPLINE
  5
320
330
1F
100
AcDbEntity
  8
0
  6
SLD-Сплошная
 62
     7
370
    25
100
AcDbSpline
210
0.0
220
0.0
230
1.0
 70
     8
 71
     3
 72
    10
 73
     6
 74
     0
 42
0.00000001
 43
0.00000001
 40
0.0
 40
0.0
 40
0.0
 40
0.0
 40
0.0939403650091584
 40
0.8101500242219715
 40
1.0
 40
1.0
 40
1.0
 40
1.0
 10
-25.00962044217688
 20
153.0538193112405
 30
0.0
 10
-25.00447746237782
 20
153.0924069638558
 30
0.0
 10
-24.96012394929132
 20
153.4251902961109
 30
0.0
 10
-25.04905685712078
 20
153.836902606854
 30
0.0
 10
-25.36882752583566
 20
154.2104347696431
 30
0.0
 10
-25.4358302388642
 20
154.2887023243593
 30
0.0
  0
SPLINE
  5
321
330
1F
100
AcDbEntity
  8
0
  6
SLD-Сплошная
 62
     7
370
    25
100
AcDbSpline
210
0.0
220
0.0
230
1.0
 70
     8
 71
     3
 72
    10
 73
     6
 74
     0
 42
0.00000001
 43
0.00000001
 40
0.0
 40
0.0
 40
0.0
 40
0.0
 40
0.0939077646295326
 40
0.8099576918267857
 40
1.0
 40
1.0
 40
1.0
 40
1.0
 10
-74.2934638058072
 20
153.0538336713229
 30
0.0
 10
-74.29860621093366
 20
153.0924165377887
 30
0.0
 10
-74.34295963158074
 20
153.4251950848022
 30
0.0
 10
-74.2539743721384
 20
153.8369993098859
 30
0.0
 10
-73.93410552279731
 20
154.2106282722754
 30
0.0
 10
-73.86701675184383
 20
154.2889926016903
 30
0.0
  0
SPLINE
  5
322
330
1F
100
AcDbEntity
  8
0
  6
SLD-Сплошная
 62
     7
370
    25
100
AcDbSpline
210
0.0
220
0.0
230
1.0
 70
     8
 71
     3
 72
    12
 73
     8
 74
     0
 42
0.00000001
 43
0.00000001
 40
0.0
 40
0.0
 40
0.0
 40
0.0
 40
0.1118249572913811
 40
0.4142668686876418
 40
0.6533719115737493
 40
0.812161929565705
 40
1.0
 40
1.0
 40
1.0
 40
1.0
 10
-23.28186245451328
 20
154.561605624907
 30
0.0
 10
-23.29491976700452
 20
154.4609323244609
 30
0.0
 10
-23.34329190226164
 20
154.0879778968769
 30
0.0
 10
-23.65804722949691
 20
153.5580620388528
 30
0.0
 10
-24.11785039222541
 20
153.1164235996476
 30
0.0
 10
-24.58085695907825
 20
152.84381989611
 30
0.0
 10
-24.88539541977547
 20
152.7590227563228
 30
0.0
 10
-25.05042508338441
 20
152.7130711106028
 30
0.0
  0
SPLINE
  5
323
330
1F
100
AcDbEntity
  8
0
  6
SLD-Сплошная
 62
     7
370
    25
100
AcDbSpline
210
0.0
220
0.0
230
1.0
 70
     8
 71
     3
 72
     9
 73
     5
 74
     0
 42
0.00000001
 43
0.00000001
 40
0.0
 40
0.0
 40
0.0
 40
0.0
 40
0.3358117609943665
 40
1.0
 40
1.0
 40
1.0
 40
1.0
 10
-76.06309620552767
 20
155.0155650255444
 30
0.0
 10
-76.07008940789639
 20
154.9777731982974
 30
0.0
 10
-76.09091417695154
 20
154.8652344738192
 30
0.0
 10
-76.06089978263392
 20
154.7535448624403
 30
0.0
 10
-76.04096457492729
 20
154.6793619361432
 30
0.0
  0
SPLINE
  5
324
330
1F
100
AcDbEntity
  8
0
  6
SLD-Сплошная
 62
     7
370
    25
100
AcDbSpline
210
0.0
220
0.0
230
1.0
 70
     8
 71
     3
 72
    12
 73
     8
 74
     0
 42
0.00000001
 43
0.00000001
 40
0.0
 40
0.0
 40
0.0
 40
0.0
 40
0.1118422391952038
 40
0.4142782657469601
 40
0.6533786561826478
 40
0.8121655844752873
 40
1.0
 40
1.0
 40
1.0
 40
1.0
 10
-76.02122880697839
 20
154.5616577093375
 30
0.0
 10
-76.00816966779036
 20
154.4609667823165
 30
0.0
 10
-75.95979691011044
 20
154.0879944337395
 30
0.0
 10
-75.64503618870395
 20
153.5580618213074
 30
0.0
 10
-75.1852320024867
 20
153.1164236323221
 30
0.0
 10
-74.7222256029392
 20
152.8438198878821
 30
0.0
 10
-74.41768712041498
 20
152.7590227534311
 30
0.0
 10
-74.25265744497797
 20
152.7130711106028
 30
0.0
  0
LINE
  5
325
330
1F
100
AcDbEntity
  8
0
  6
SLD-Сплошная
 62
     7
370
    25
100
AcDbLine
 10
-52.4015412642
 20
178.23512405
 30
0.0
 11
-52.4015412642
 21
189.2271604896
 31
0.0
  0
ARC
  5
326
330
1F
100
AcDbEntity
  8
0
  6
SLD-Сплошная
 62
     7
370
    25
100
AcDbCircle
 10
-49.6515412642
 20
154.4277258501
 30
0.0
 40
34.90792390313513
100
AcDbArc
 50
85.4816325916
 51
94.5183674084
  0
LINE
  5
327
330
1F
100
AcDbEntity
  8
0
  6
SLD-Сплошная
 62
     7
370
    25
100
AcDbLine
 10
-46.9015412642
 20
178.23512405
 30
0.0
 11
-46.9015412642
 21
189.2271604896
 31
0.0
  0
ARC
  5
328
330
1F
100
AcDbEntity
  8
0
  6
SLD-Сплошная
 62
     7
370
    25
100
AcDbCircle
 10
-51.4925976277
 20
149.0837632811
 30
0.0
 40
2.499999999999988
100
AcDbArc
 50
30.3807658239
 51
110.9828571439
  0
ARC
  5
329
330
1F
100
AcDbEntity
  8
0
  6
SLD-Сплошная
 62
     7
370
    25
100
AcDbCircle
 10
-51.4925976277
 20
149.0837632811
 30
0.0
 40
2.849999999999998
100
AcDbArc
 50
27.4029493613
 51
113.9606736065
  0
LINE
  5
32A
330
1F
100
AcDbEntity
  8
0
  6
SLD-Сплошная
 62
     7
370
    25
100
AcDbLine
 10
-53.300686344
 20
152.6974372559
 30
0.0
 11
-48.3860488519
 21
154.3356497533
 31
0.0
  0
LINE
  5
32B
330
1F
100
AcDbEntity
  8
0
  6
SLD-Сплошная
 62
     7
370
    25
100
AcDbLine
 10
-47.3060047043
 20
151.0955173105
 30
0.0
 11
-48.3860488519
 21
154.3356497533
 31
0.0
  0
LINE
  5
32C
330
1F
100
AcDbEntity
  8
0
  6
SLD-Сплошная
 62
     7
370
    25
100
AcDbLine
 10
-50.8556254269
 20
155.0935963917
 30
0.0
 11
-50.0018104586
 21
155.3782013811
 31
0.0
  0
LINE
  5
32D
330
1F
100
AcDbEntity
  8
0
  6
SLD-Сплошная
 62
     7
370
    25
100
AcDbLine
 10
-51.7401192606
 20
157.747077893
 30
0.0
 11
-50.8556254269
 21
155.0935963917
 31
0.0
  0
LINE
  5
32E
330
1F
100
AcDbEntity
  8
0
  6
SLD-Сплошная
 62
     7
370
    25
100
AcDbLine
 10
-50.0018104586
 20
155.3782013811
 30
0.0
 11
-49.5274688096
 21
153.9551764341
 31
0.0
  0
LINE
  5
32F
330
1F
100
AcDbEntity
  8
0
  6
SLD-Сплошная
 62
     7
370
    25
100
AcDbLine
 10
-76.0678448155
 20
155.7718413227
 30
0.0
 11
-76.0453661274
 21
155.9737837354
 31
0.0
  0
LINE
  5
330
330
1F
100
AcDbEntity
  8
0
  6
SLD-Сплошная
 62
     7
370
    25
100
AcDbLine
 10
-50.8556254269
 20
155.0935963917
 30
0.0
 11
-53.6478078695
 21
154.1628689108
 31
0.0
  0
SPLINE
  5
331
330
1F
100
AcDbEntity
  8
0
  6
SLD-Сплошная
 62
     7
370
    25
100
AcDbSpline
210
0.0
220
0.0
230
1.0
 70
     8
 71
     3
 72
    12
 73
     8
 74
     0
 42
0.00000001
 43
0.00000001
 40
0.0
 40
0.0
 40
0.0
 40
0.0
 40
0.1514963352578219
 40
0.3305102767025349
 40
0.5340511366612231
 40
0.7625022008351034
 40
0.9999999999999999
 40
0.9999999999999999
 40
0.9999999999999999
 40
0.9999999999999999
 10
-25.89131360305142
 20
160.8987345075108
 30
0.0
 10
-25.72392354530981
 20
160.8849681981667
 30
0.0
 10
-25.35873890762678
 20
160.8549350841463
 30
0.0
 10
-24.80341385564855
 20
160.627545906893
 30
0.0
 10
-24.26199563542465
 20
160.2161394128128
 30
0.0
 10
-23.8069896174235
 20
159.6110009704987
 30
0.0
 10
-23.67345368703202
 20
159.1100252501989
 30
0.0
 10
-23.60538937338576
 20
158.8546739866424
 30
0.0
  0
SPLINE
  5
332
330
1F
100
AcDbEntity
  8
0
  6
SLD-Сплошная
 62
     7
370
    25
100
AcDbSpline
210
0.0
220
0.0
230
1.0
 70
     8
 71
     3
 72
    12
 73
     8
 74
     0
 42
0.00000001
 43
0.00000001
 40
0.0
 40
0.0
 40
0.0
 40
0.0
 40
0.1514963352578232
 40
0.3305102767025415
 40
0.5340511366612251
 40
0.7625022008351005
 40
1.0
 40
1.0
 40
1.0
 40
1.0
 10
-73.41176892531087
 20
160.8987345075108
 30
0.0
 10
-73.57915898305248
 20
160.8849681981667
 30
0.0
 10
-73.94434362073552
 20
160.8549350841463
 30
0.0
 10
-74.49966867271378
 20
160.627545906893
 30
0.0
 10
-75.04108689293767
 20
160.2161394128128
 30
0.0
 10
-75.49609291093884
 20
159.6110009704987
 30
0.0
 10
-75.62962884133032
 20
159.1100252501988
 30
0.0
 10
-75.69769315497658
 20
158.8546739866424
 30
0.0
  0
ARC
  5
333
330
1F
100
AcDbEntity
  8
0
  6
SLD-Сплошная
 62
     7
370
    25
100
AcDbCircle
 10
-49.6515412642
 20
128.466574488
 30
0.0
 40
7.500000000000004
100
AcDbArc
 50
197.3230059312
 51
342.6769940688
  0
ARC
  5
334
330
1F
100
AcDbEntity
  8
0
  6
SLD-Сплошная
 62
     7
370
    25
100
AcDbCircle
 10
-49.6515412642
 20
154.3356497533
 30
0.0
 40
29.00000000000001
100
AcDbArc
 50
95.4413964306
 51
255.7064458284
  0
ARC
  5
335
330
1F
100
AcDbEntity
  8
0
  6
SLD-Сплошная
 62
     7
370
    25
100
AcDbCircle
 10
-49.6515412642
 20
154.3356497533
 30
0.0
 40
29.00000000000001
100
AcDbArc
 50
284.2935541716
 51
84.5586035694
  0
ENDSEC
  0
SECTION
  2
OBJECTS
  0
DICTIONARY
  5
C
330
0
100
AcDbDictionary
281
     1
  3
ACAD_GROUP
350
D
  3
ACAD_LAYOUT
350
1A
  3
ACAD_MLINESTYLE
350
17
  3
ACAD_PLOTSETTINGS
350
19
  3
ACAD_PLOTSTYLENAME
350
E
  3
ACAD_SCALELIST
350
47
  3
DWGPROPS
350
336
  0
DICTIONARY
  5
D
102
{ACAD_REACTORS
330
C
102
}
330
C
100
AcDbDictionary
281
     1
  0
DICTIONARY
  5
1A
102
{ACAD_REACTORS
330
C
102
}
330
C
100
AcDbDictionary
281
     1
  3
Layout1
350
1E
  3
Layout2
350
26
  3
Model
350
22
  0
DICTIONARY
  5
17
102
{ACAD_REACTORS
330
C
102
}
330
C
100
AcDbDictionary
281
     1
  3
Standard
350
18
  0
DICTIONARY
  5
19
102
{ACAD_REACTORS
330
C
102
}
330
C
100
AcDbDictionary
281
     1
  0
ACDBDICTIONARYWDFLT
  5
E
102
{ACAD_REACTORS
330
C
102
}
330
C
100
AcDbDictionary
281
     1
  3
Normal
350
F
100
AcDbDictionaryWithDefault
340
F
  0
DICTIONARY
  5
47
102
{ACAD_REACTORS
330
C
102
}
330
C
100
AcDbDictionary
281
     1
  3
A0
350
48
  3
A1
350
49
  3
A2
350
4A
  3
A3
350
4B
  3
A4
350
4C
  3
A5
350
4D
  3
A6
350
4E
  3
A7
350
4F
  3
A8
350
50
  3
A9
350
51
  3
B0
350
52
  3
B1
350
53
  3
B2
350
54
  3
B3
350
55
  3
B4
350
56
  3
B5
350
57
  3
B6
350
58
  0
XRECORD
  5
336
102
{ACAD_REACTORS
330
C
102
}
330
C
100
AcDbXrecord
280
     1
  1
DWGPROPS COOKIE
  2

  3

  4

  6

  7

  8
inyankin
  9

300
=
301
=
302
=
303
=
304
=
305
=
306
=
307
=
308
=
309
=
 40
0.0
 41
2460879.439924537
 42
2460879.439925232
  1

 90
        0
  0
LAYOUT
  5
1E
102
{ACAD_REACTORS
330
1A
102
}
330
1A
100
AcDbPlotSettings
  1

  2
none_device
  4

  6

 40
0.0
 41
0.0
 42
0.0
 43
0.0
 44
0.0
 45
0.0
 46
0.0
 47
0.0
 48
0.0
 49
0.0
140
0.0
141
0.0
142
1.0
143
1.0
 70
   688
 72
     1
 73
     0
 74
     5
  7

 75
    16
147
1.0
148
0.0
149
0.0
100
AcDbLayout
  1
Layout1
 70
     1
 71
     1
 10
0.0
 20
0.0
 11
420.0
 21
297.0
 12
0.0
 22
0.0
 32
0.0
 14
1.0000000000E+20
 24
1.0000000000E+20
 34
1.0000000000E+20
 15
-1.0000000000E+20
 25
-1.0000000000E+20
 35
-1.0000000000E+20
146
0.0
 13
0.0
 23
0.0
 33
0.0
 16
1.0
 26
0.0
 36
0.0
 17
0.0
 27
1.0
 37
0.0
 76
     0
330
1B
  0
LAYOUT
  5
26
102
{ACAD_REACTORS
330
1A
102
}
330
1A
100
AcDbPlotSettings
  1

  2
none_device
  4

  6

 40
0.0
 41
0.0
 42
0.0
 43
0.0
 44
0.0
 45
0.0
 46
0.0
 47
0.0
 48
0.0
 49
0.0
140
0.0
141
0.0
142
1.0
143
1.0
 70
   688
 72
     1
 73
     0
 74
     5
  7

 75
    16
147
1.0
148
0.0
149
0.0
100
AcDbLayout
  1
Layout2
 70
     1
 71
     2
 10
0.0
 20
0.0
 11
0.0
 21
0.0
 12
0.0
 22
0.0
 32
0.0
 14
0.0
 24
0.0
 34
0.0
 15
0.0
 25
0.0
 35
0.0
146
0.0
 13
0.0
 23
0.0
 33
0.0
 16
1.0
 26
0.0
 36
0.0
 17
0.0
 27
1.0
 37
0.0
 76
     0
330
23
  0
LAYOUT
  5
22
102
{ACAD_REACTORS
330
1A
102
}
330
1A
100
AcDbPlotSettings
  1

  2
none_device
  4
Letter_(8.50_x_11.00_Inches)
  6

 40
6.35
 41
6.35
 42
6.35000508
 43
6.35000508
 44
215.9
 45
279.4
 46
0.0
 47
0.0
 48
0.0
 49
0.0
140
0.0
141
0.0
142
1.0
143
1.0
 70
  1712
 72
     1
 73
     0
 74
     0
  7

 75
     0
147
1.0
148
0.0
149
0.0
100
AcDbLayout
  1
Model
 70
     1
 71
     0
 10
0.0
 20
0.0
 11
431.8
 21
279.4
 12
0.0
 22
0.0
 32
0.0
 14
0.0
 24
0.0
 34
0.0
 15
431.8
 25
279.4
 35
0.0
146
0.0
 13
0.0
 23
0.0
 33
0.0
 16
1.0
 26
0.0
 36
0.0
 17
0.0
 27
1.0
 37
0.0
 76
     0
330
1F
331
29
  0
MLINESTYLE
  5
18
102
{ACAD_REACTORS
330
17
102
}
330
17
100
AcDbMlineStyle
  2
Standard
 70
     0
  3

 62
   256
 51
90.0
 52
90.0
 71
     2
 49
0.5
 62
   256
  6
BYLAYER
 49
-0.5
 62
   256
  6
BYLAYER
  0
ACDBPLACEHOLDER
  5
F
102
{ACAD_REACTORS
330
E
102
}
330
E
  0
SCALE
  5
48
102
{ACAD_REACTORS
330
47
102
}
330
47
100
AcDbScale
 70
     0
300
1:1
140
1.0
141
1.0
290
     1
  0
SCALE
  5
49
102
{ACAD_REACTORS
330
47
102
}
330
47
100
AcDbScale
 70
     0
300
1:2
140
1.0
141
2.0
290
     0
  0
SCALE
  5
4A
102
{ACAD_REACTORS
330
47
102
}
330
47
100
AcDbScale
 70
     0
300
1:4
140
1.0
141
4.0
290
     0
  0
SCALE
  5
4B
102
{ACAD_REACTORS
330
47
102
}
330
47
100
AcDbScale
 70
     0
300
1:5
140
1.0
141
5.0
290
     0
  0
SCALE
  5
4C
102
{ACAD_REACTORS
330
47
102
}
330
47
100
AcDbScale
 70
     0
300
1:8
140
1.0
141
8.0
290
     0
  0
SCALE
  5
4D
102
{ACAD_REACTORS
330
47
102
}
330
47
100
AcDbScale
 70
     0
300
1:10
140
1.0
141
10.0
290
     0
  0
SCALE
  5
4E
102
{ACAD_REACTORS
330
47
102
}
330
47
100
AcDbScale
 70
     0
300
1:16
140
1.0
141
16.0
290
     0
  0
SCALE
  5
4F
102
{ACAD_REACTORS
330
47
102
}
330
47
100
AcDbScale
 70
     0
300
1:20
140
1.0
141
20.0
290
     0
  0
SCALE
  5
50
102
{ACAD_REACTORS
330
47
102
}
330
47
100
AcDbScale
 70
     0
300
1:30
140
1.0
141
30.0
290
     0
  0
SCALE
  5
51
102
{ACAD_REACTORS
330
47
102
}
330
47
100
AcDbScale
 70
     0
300
1:40
140
1.0
141
40.0
290
     0
  0
SCALE
  5
52
102
{ACAD_REACTORS
330
47
102
}
330
47
100
AcDbScale
 70
     0
300
1:50
140
1.0
141
50.0
290
     0
  0
SCALE
  5
53
102
{ACAD_REACTORS
330
47
102
}
330
47
100
AcDbScale
 70
     0
300
1:100
140
1.0
141
100.0
290
     0
  0
SCALE
  5
54
102
{ACAD_REACTORS
330
47
102
}
330
47
100
AcDbScale
 70
     0
300
2:1
140
2.0
141
1.0
290
     0
  0
SCALE
  5
55
102
{ACAD_REACTORS
330
47
102
}
330
47
100
AcDbScale
 70
     0
300
4:1
140
4.0
141
1.0
290
     0
  0
SCALE
  5
56
102
{ACAD_REACTORS
330
47
102
}
330
47
100
AcDbScale
 70
     0
300
8:1
140
8.0
141
1.0
290
     0
  0
SCALE
  5
57
102
{ACAD_REACTORS
330
47
102
}
330
47
100
AcDbScale
 70
     0
300
10:1
140
10.0
141
1.0
290
     0
  0
SCALE
  5
58
102
{ACAD_REACTORS
330
47
102
}
330
47
100
AcDbScale
 70
     0
300
100:1
140
100.0
141
1.0
290
     0
  0
ENDSEC
  0
EOF
