  0
SECTION
  2
HEADER
  9
$ACADVER
  1
AC1015
  9
$ACADMAINTVER
 70
     6
  9
$DWGCODEPAGE
  3
ANSI_1251
  9
$INSBASE
 10
0.0
 20
0.0
 30
0.0
  9
$EXTMIN
 10
0.0
 20
0.0
 30
0.0
  9
$EXTMAX
 10
597.0
 20
420.0
 30
0.0
  9
$LIMMIN
 10
0.0
 20
0.0
  9
$LIMMAX
 10
597.0
 20
420.0
  9
$ORTHOMODE
 70
     0
  9
$REGENMODE
 70
     1
  9
$FILLMODE
 70
     1
  9
$QTEXTMODE
 70
     0
  9
$MIRRTEXT
 70
     1
  9
$LTSCALE
 40
1.0
  9
$ATTMODE
 70
     1
  9
$TEXTSIZE
 40
3.5
  9
$TRACEWID
 40
1.0
  9
$TEXTSTYLE
  7
Standard
  9
$CLAYER
  8
0
  9
$CELTYPE
  6
ByLayer
  9
$CECOLOR
 62
   256
  9
$CELTSCALE
 40
1.0
  9
$DISPSILH
 70
     0
  9
$DIMSCALE
 40
1.0
  9
$DIMASZ
 40
3.5
  9
$DIMEXO
 40
0.01
  9
$DIMDLI
 40
3.75
  9
$DIMRND
 40
0.0
  9
$DIMDLE
 40
0.0
  9
$DIMEXE
 40
1.0
  9
$DIMTP
 40
0.0
  9
$DIMTM
 40
0.0
  9
$DIMTXT
 40
3.5
  9
$DIMCEN
 40
2.5
  9
$DIMTSZ
 40
0.0
  9
$DIMTOL
 70
     0
  9
$DIMLIM
 70
     0
  9
$DIMTIH
 70
     1
  9
$DIMTOH
 70
     1
  9
$DIMSE1
 70
     0
  9
$DIMSE2
 70
     0
  9
$DIMTAD
 70
     1
  9
$DIMZIN
 70
     0
  9
$DIMBLK
  1

  9
$DIMASO
 70
     1
  9
$DIMSHO
 70
     1
  9
$DIMPOST
  1

  9
$DIMAPOST
  1

  9
$DIMALT
 70
     0
  9
$DIMALTD
 70
     3
  9
$DIMALTF
 40
0.0393700787
  9
$DIMLFAC
 40
1.0
  9
$DIMTOFL
 70
     1
  9
$DIMTVP
 40
0.0
  9
$DIMTIX
 70
     0
  9
$DIMSOXD
 70
     0
  9
$DIMSAH
 70
     0
  9
$DIMBLK1
  1

  9
$DIMBLK2
  1

  9
$DIMSTYLE
  2
ISO-25
  9
$DIMCLRD
 70
     0
  9
$DIMCLRE
 70
     0
  9
$DIMCLRT
 70
     0
  9
$DIMTFAC
 40
1.0
  9
$DIMGAP
 40
3.0
  9
$DIMJUST
 70
     0
  9
$DIMSD1
 70
     0
  9
$DIMSD2
 70
     0
  9
$DIMTOLJ
 70
     0
  9
$DIMTZIN
 70
     0
  9
$DIMALTZ
 70
     0
  9
$DIMALTTZ
 70
     0
  9
$DIMUPT
 70
     0
  9
$DIMDEC
 70
     2
  9
$DIMTDEC
 70
     3
  9
$DIMALTU
 70
     2
  9
$DIMALTTD
 70
     3
  9
$DIMTXSTY
  7
Standard
  9
$DIMAUNIT
 70
     0
  9
$DIMADEC
 70
     2
  9
$DIMALTRND
 40
0.0
  9
$DIMAZIN
 70
     0
  9
$DIMDSEP
 70
    44
  9
$DIMATFIT
 70
     3
  9
$DIMFRAC
 70
     0
  9
$DIMLDRBLK
  1

  9
$DIMLUNIT
 70
     2
  9
$DIMLWD
 70
    -2
  9
$DIMLWE
 70
    -2
  9
$DIMTMOVE
 70
     0
  9
$LUNITS
 70
     2
  9
$LUPREC
 70
     2
  9
$SKETCHINC
 40
1.0
  9
$FILLETRAD
 40
0.0
  9
$AUNITS
 70
     0
  9
$AUPREC
 70
     2
  9
$MENU
  1
.
  9
$ELEVATION
 40
0.0
  9
$PELEVATION
 40
0.0
  9
$THICKNESS
 40
0.0
  9
$LIMCHECK
 70
     0
  9
$CHAMFERA
 40
0.0
  9
$CHAMFERB
 40
0.0
  9
$CHAMFERC
 40
0.0
  9
$CHAMFERD
 40
0.0
  9
$SKPOLY
 70
     0
  9
$TDCREATE
 40
2459786.533303889
  9
$TDUCREATE
 40
2459786.408303889
  9
$TDUPDATE
 40
2459786.533305856
  9
$TDUUPDATE
 40
2459786.408305856
  9
$TDINDWG
 40
0.0000000116
  9
$TDUSRTIMER
 40
0.0000000116
  9
$USRTIMER
 70
     1
  9
$ANGBASE
 50
0.0
  9
$ANGDIR
 70
     0
  9
$PDMODE
 70
     0
  9
$PDSIZE
 40
-1.0
  9
$PLINEWID
 40
0.0
  9
$SPLFRAME
 70
     0
  9
$SPLINETYPE
 70
     6
  9
$SPLINESEGS
 70
     8
  9
$HANDSEED
  5
44A
  9
$SURFTAB1
 70
     6
  9
$SURFTAB2
 70
     6
  9
$SURFTYPE
 70
     6
  9
$SURFU
 70
     6
  9
$SURFV
 70
     6
  9
$UCSBASE
  2

  9
$UCSNAME
  2

  9
$UCSORG
 10
0.0
 20
0.0
 30
0.0
  9
$UCSXDIR
 10
1.0
 20
0.0
 30
0.0
  9
$UCSYDIR
 10
0.0
 20
1.0
 30
0.0
  9
$UCSORTHOREF
  2

  9
$UCSORTHOVIEW
 70
     0
  9
$UCSORGTOP
 10
0.0
 20
0.0
 30
0.0
  9
$UCSORGBOTTOM
 10
0.0
 20
0.0
 30
0.0
  9
$UCSORGLEFT
 10
0.0
 20
0.0
 30
0.0
  9
$UCSORGRIGHT
 10
0.0
 20
0.0
 30
0.0
  9
$UCSORGFRONT
 10
0.0
 20
0.0
 30
0.0
  9
$UCSORGBACK
 10
0.0
 20
0.0
 30
0.0
  9
$PUCSBASE
  2

  9
$PUCSNAME
  2

  9
$PUCSORG
 10
0.0
 20
0.0
 30
0.0
  9
$PUCSXDIR
 10
1.0
 20
0.0
 30
0.0
  9
$PUCSYDIR
 10
0.0
 20
1.0
 30
0.0
  9
$PUCSORTHOREF
  2

  9
$PUCSORTHOVIEW
 70
     0
  9
$PUCSORGTOP
 10
0.0
 20
0.0
 30
0.0
  9
$PUCSORGBOTTOM
 10
0.0
 20
0.0
 30
0.0
  9
$PUCSORGLEFT
 10
0.0
 20
0.0
 30
0.0
  9
$PUCSORGRIGHT
 10
0.0
 20
0.0
 30
0.0
  9
$PUCSORGFRONT
 10
0.0
 20
0.0
 30
0.0
  9
$PUCSORGBACK
 10
0.0
 20
0.0
 30
0.0
  9
$USERI1
 70
     0
  9
$USERI2
 70
     0
  9
$USERI3
 70
     0
  9
$USERI4
 70
     0
  9
$USERI5
 70
     0
  9
$USERR1
 40
0.0
  9
$USERR2
 40
0.0
  9
$USERR3
 40
0.0
  9
$USERR4
 40
0.0
  9
$USERR5
 40
0.0
  9
$WORLDVIEW
 70
     1
  9
$SHADEDGE
 70
     3
  9
$SHADEDIF
 70
    70
  9
$TILEMODE
 70
     1
  9
$MAXACTVP
 70
    64
  9
$PINSBASE
 10
0.0
 20
0.0
 30
0.0
  9
$PLIMCHECK
 70
     0
  9
$PEXTMIN
 10
1.0000000000E+20
 20
1.0000000000E+20
 30
1.0000000000E+20
  9
$PEXTMAX
 10
-1.0000000000E+20
 20
-1.0000000000E+20
 30
-1.0000000000E+20
  9
$PLIMMIN
 10
0.0
 20
0.0
  9
$PLIMMAX
 10
420.0
 20
297.0
  9
$UNITMODE
 70
     0
  9
$VISRETAIN
 70
     1
  9
$PLINEGEN
 70
     0
  9
$PSLTSCALE
 70
     1
  9
$TREEDEPTH
 70
  3020
  9
$CMLSTYLE
  2
Standard
  9
$CMLJUST
 70
     0
  9
$CMLSCALE
 40
20.0
  9
$PROXYGRAPHICS
 70
     1
  9
$MEASUREMENT
 70
     1
  9
$CELWEIGHT
370
    -1
  9
$ENDCAPS
280
     0
  9
$JOINSTYLE
280
     0
  9
$LWDISPLAY
290
     1
  9
$INSUNITS
 70
     4
  9
$HYPERLINKBASE
  1

  9
$STYLESHEET
  1

  9
$XEDIT
290
     1
  9
$CEPSNTYPE
380
     0
  9
$PSTYLEMODE
290
     1
  9
$FINGERPRINTGUID
  2
{08e732d2-c85b-4129-850d-d8c4f60aff7d}
  9
$VERSIONGUID
  2
{FAEB1C32-E019-11D5-929B-00C0DF256EC4}
  9
$EXTNAMES
290
     1
  9
$PSVPSCALE
 40
0.0
  9
$OLESTARTUP
290
     0
  0
ENDSEC
  0
SECTION
  2
CLASSES
  0
CLASS
  1
ACDBDICTIONARYWDFLT
  2
AcDbDictionaryWithDefault
  3
ObjectDBX Classes
 90
        0
280
     0
281
     0
  0
CLASS
  1
VISUALSTYLE
  2
AcDbVisualStyle
  3
ObjectDBX Classes
 90
     4095
280
     0
281
     0
  0
CLASS
  1
MATERIAL
  2
AcDbMaterial
  3
ObjectDBX Classes
 90
     1153
280
     0
281
     0
  0
CLASS
  1
SCALE
  2
AcDbScale
  3
ObjectDBX Classes
 90
     1153
280
     0
281
     0
  0
CLASS
  1
TABLESTYLE
  2
AcDbTableStyle
  3
ObjectDBX Classes
 90
     4095
280
     0
281
     0
  0
CLASS
  1
MLEADERSTYLE
  2
AcDbMLeaderStyle
  3
ACDB_MLEADERSTYLE_CLASS
 90
     4095
280
     0
281
     0
  0
CLASS
  1
SUN
  2
AcDbSun
  3
SCENEOE
 90
     1153
280
     0
281
     0
  0
CLASS
  1
ACDBPLACEHOLDER
  2
AcDbPlaceHolder
  3
ObjectDBX Classes
 90
        0
280
     0
281
     0
  0
CLASS
  1
LAYOUT
  2
AcDbLayout
  3
ObjectDBX Classes
 90
        0
280
     0
281
     0
  0
ENDSEC
  0
SECTION
  2
TABLES
  0
TABLE
  2
VPORT
  5
8
330
0
100
AcDbSymbolTable
 70
     1
  0
VPORT
  5
29
330
8
100
AcDbSymbolTableRecord
100
AcDbViewportTableRecord
  2
*Active
 70
     0
 10
0.0
 20
0.0
 11
1.0
 21
1.0
 12
298.5
 22
210.0
 13
0.0
 23
0.0
 14
10.0
 24
10.0
 15
10.0
 25
10.0
 16
0.0
 26
0.0
 36
1.0
 17
0.0
 27
0.0
 37
0.0
 40
420.0
 41
1.4214285714
 42
50.0
 43
0.0
 44
0.0
 50
0.0
 51
0.0
 71
     0
 72
  2000
 73
     1
 74
     3
 75
     0
 76
     0
 77
     0
 78
     0
281
     0
 65
     1
110
0.0
120
0.0
130
0.0
111
1.0
121
0.0
131
0.0
112
0.0
122
1.0
132
0.0
 79
     0
146
0.0
  0
ENDTAB
  0
TABLE
  2
LTYPE
  5
5
330
0
100
AcDbSymbolTable
 70
     6
  0
LTYPE
  5
14
330
5
100
AcDbSymbolTableRecord
100
AcDbLinetypeTableRecord
  2
ByBlock
 70
     0
  3

 72
    65
 73
     0
 40
0.0
  0
LTYPE
  5
15
330
5
100
AcDbSymbolTableRecord
100
AcDbLinetypeTableRecord
  2
ByLayer
 70
     0
  3

 72
    65
 73
     0
 40
0.0
  0
LTYPE
  5
16
330
5
100
AcDbSymbolTableRecord
100
AcDbLinetypeTableRecord
  2
Continuous
 70
     0
  3
Solid line
 72
    65
 73
     0
 40
0.0
  0
LTYPE
  5
5E
330
5
100
AcDbSymbolTableRecord
100
AcDbLinetypeTableRecord
  2
HIDDEN
 70
     0
  3
Hidden __ __ __ __ __ __ __ __ __ __ __ __ __ __
 72
    65
 73
     2
 40
1.905
 49
1.27
 74
     0
 49
-0.635
 74
     0
  0
LTYPE
  5
5F
330
5
100
AcDbSymbolTableRecord
100
AcDbLinetypeTableRecord
  2
PHANTOM
 70
     0
  3
Phantom ______  __  __  ______  __  __  ______
 72
    65
 73
     6
 40
12.7
 49
6.35
 74
     0
 49
-1.27
 74
     0
 49
1.27
 74
     0
 49
-1.27
 74
     0
 49
1.27
 74
     0
 49
-1.27
 74
     0
  0
LTYPE
  5
60
330
5
100
AcDbSymbolTableRecord
100
AcDbLinetypeTableRecord
  2
CENTER
 70
     0
  3
Center ____ _ ____ _ ____ _ ____ _ ____ _ ____
 72
    65
 73
     4
 40
10.16
 49
6.35
 74
     0
 49
-1.27
 74
     0
 49
1.27
 74
     0
 49
-1.27
 74
     0
  0
LTYPE
  5
61
330
5
100
AcDbSymbolTableRecord
100
AcDbLinetypeTableRecord
  2
CENTERX2
 70
     0
  3
Center (2x) ________  __  ________  __  _____
 72
    65
 73
     4
 40
20.32
 49
12.7
 74
     0
 49
-2.54
 74
     0
 49
2.54
 74
     0
 49
-2.54
 74
     0
  0
LTYPE
  5
62
330
5
100
AcDbSymbolTableRecord
100
AcDbLinetypeTableRecord
  2
DOT2
 70
     0
  3
Dot (.5x) ........................................
 72
    65
 73
     2
 40
0.635
 49
0.0
 74
     0
 49
-0.635
 74
     0
  0
ENDTAB
  0
TABLE
  2
LAYER
  5
2
330
0
100
AcDbSymbolTable
 70
     1
  0
LAYER
  5
10
330
2
100
AcDbSymbolTableRecord
100
AcDbLayerTableRecord
  2
0
 70
     0
 62
     7
  6
Continuous
370
    -3
390
F
  0
ENDTAB
  0
TABLE
  2
STYLE
  5
3
330
0
100
AcDbSymbolTable
 70
     1
  0
STYLE
  5
11
330
3
100
AcDbSymbolTableRecord
100
AcDbTextStyleTableRecord
  2
Standard
 70
     0
 40
0.0
 41
1.0
 50
0.0
 71
     0
 42
3.5
  3
txt
  4

  0
ENDTAB
  0
TABLE
  2
VIEW
  5
6
330
0
100
AcDbSymbolTable
 70
     0
  0
ENDTAB
  0
TABLE
  2
UCS
  5
7
330
0
100
AcDbSymbolTable
 70
     0
  0
ENDTAB
  0
TABLE
  2
APPID
  5
9
330
0
100
AcDbSymbolTable
 70
     1
  0
APPID
  5
12
330
9
100
AcDbSymbolTableRecord
100
AcDbRegAppTableRecord
  2
ACAD
 70
     0
  0
ENDTAB
  0
TABLE
  2
DIMSTYLE
  5
A
330
0
100
AcDbSymbolTable
 70
     1
100
AcDbDimStyleTable
  0
DIMSTYLE
105
27
330
A
100
AcDbSymbolTableRecord
100
AcDbDimStyleTableRecord
  2
ISO-25
 70
     0
 41
2.5
 42
0.625
 43
3.75
 44
1.25
 73
     0
 74
     0
 77
     1
 78
     8
140
2.5
141
2.5
143
0.0393700787
147
0.625
171
     3
172
     1
178
     0
271
     2
272
     2
274
     3
278
    44
283
     0
284
     8
340
11
  0
ENDTAB
  0
TABLE
  2
BLOCK_RECORD
  5
1
330
0
100
AcDbSymbolTable
 70
     1
  0
BLOCK_RECORD
  5
1F
330
1
100
AcDbSymbolTableRecord
100
AcDbBlockTableRecord
  2
*Model_Space
340
22
  0
BLOCK_RECORD
  5
1B
330
1
100
AcDbSymbolTableRecord
100
AcDbBlockTableRecord
  2
*Paper_Space
340
1E
  0
BLOCK_RECORD
  5
23
330
1
100
AcDbSymbolTableRecord
100
AcDbBlockTableRecord
  2
*Paper_Space0
340
26
  0
ENDTAB
  0
ENDSEC
  0
SECTION
  2
BLOCKS
  0
BLOCK
  5
20
330
1F
100
AcDbEntity
  8
0
100
AcDbBlockBegin
  2
*Model_Space
 70
     0
 10
0.0
 20
0.0
 30
0.0
  3
*Model_Space
  1

  0
ENDBLK
  5
21
330
1F
100
AcDbEntity
  8
0
100
AcDbBlockEnd
  0
BLOCK
  5
1C
330
1B
100
AcDbEntity
 67
     1
  8
0
100
AcDbBlockBegin
  2
*Paper_Space
 70
     0
 10
0.0
 20
0.0
 30
0.0
  3
*Paper_Space
  1

  0
ENDBLK
  5
1D
330
1B
100
AcDbEntity
 67
     1
  8
0
100
AcDbBlockEnd
  0
BLOCK
  5
24
330
23
100
AcDbEntity
  8
0
100
AcDbBlockBegin
  2
*Paper_Space0
 70
     0
 10
0.0
 20
0.0
 30
0.0
  3
*Paper_Space0
  1

  0
ENDBLK
  5
25
330
23
100
AcDbEntity
  8
0
100
AcDbBlockEnd
  0
ENDSEC
  0
SECTION
  2
ENTITIES
  0
LINE
  5
63
330
1F
100
AcDbEntity
  8
0
  6
Continuous
 62
     7
100
AcDbLine
 10
129.1550318641
 20
152.6701512329
 30
0.0
 11
129.2364380399
 21
152.6701512329
 31
0.0
  0
LINE
  5
64
330
1F
100
AcDbEntity
  8
0
  6
Continuous
 62
     7
100
AcDbLine
 10
129.1550318641
 20
152.6701512329
 30
0.0
 11
129.1550318641
 21
152.8329635844
 31
0.0
  0
LINE
  5
65
330
1F
100
AcDbEntity
  8
0
  6
Continuous
 62
     7
100
AcDbLine
 10
129.1550318641
 20
152.6701512329
 30
0.0
 11
129.2364380399
 21
152.6701512329
 31
0.0
  0
LINE
  5
66
330
1F
100
AcDbEntity
  8
0
  6
Continuous
 62
     7
100
AcDbLine
 10
129.1550318641
 20
152.6701512329
 30
0.0
 11
129.1550318641
 21
152.8329635844
 31
0.0
  0
LINE
  5
67
330
1F
100
AcDbEntity
  8
0
  6
Continuous
 62
     7
100
AcDbLine
 10
129.1550318641
 20
152.6701512329
 30
0.0
 11
129.2364380399
 21
152.6701512329
 31
0.0
  0
LINE
  5
68
330
1F
100
AcDbEntity
  8
0
  6
Continuous
 62
     7
100
AcDbLine
 10
129.1550318641
 20
152.6701512329
 30
0.0
 11
129.1550318641
 21
152.8329635844
 31
0.0
  0
POINT
  5
69
330
1F
100
AcDbEntity
  8
0
  6
Continuous
 62
     7
100
AcDbPoint
 10
129.1550318641
 20
152.6701512329
 30
0.0
  0
POINT
  5
6A
330
1F
100
AcDbEntity
  8
0
  6
Continuous
 62
     7
100
AcDbPoint
 10
129.1550318641
 20
152.6701512329
 30
0.0
  0
POINT
  5
6B
330
1F
100
AcDbEntity
  8
0
  6
Continuous
 62
     7
100
AcDbPoint
 10
129.1550318641
 20
152.6701512329
 30
0.0
  0
LINE
  5
6C
330
1F
100
AcDbEntity
  8
0
  6
Continuous
 62
     7
370
    25
100
AcDbLine
 10
91.2050166336
 20
195.2701512329
 30
0.0
 11
98.5550470946
 21
195.2701512329
 31
0.0
  0
LINE
  5
6D
330
1F
100
AcDbEntity
  8
0
  6
Continuous
 62
     7
370
    25
100
AcDbLine
 10
91.2085076466
 20
195.2666602199
 30
0.0
 11
98.5515560816
 21
195.2666602199
 31
0.0
  0
LINE
  5
6E
330
1F
100
AcDbEntity
  8
0
  6
Continuous
 62
     7
370
    25
100
AcDbLine
 10
89.8550318641
 20
183.3701360024
 30
0.0
 11
89.8550318641
 21
190.8201664634
 31
0.0
  0
LINE
  5
6F
330
1F
100
AcDbEntity
  8
0
  6
Continuous
 62
     7
370
    25
100
AcDbLine
 10
89.8515408511
 20
190.8166754504
 30
0.0
 11
89.8515408511
 21
183.3736270154
 31
0.0
  0
ELLIPSE
  5
70
330
1F
100
AcDbEntity
  8
0
  6
Continuous
 62
     7
370
    25
100
AcDbEllipse
 10
89.7550166313
 20
195.1701360001
 30
0.0
 11
-0.0707322189169588
 21
-0.0707322189169588
 31
0.0
210
0.0
220
0.0
230
0.9999999999999998
 40
0.9996954599
 41
2.35634678343999
 42
3.926838523739752
  0
ELLIPSE
  5
71
330
1F
100
AcDbEntity
  8
0
  6
Continuous
 62
     7
370
    25
100
AcDbEllipse
 10
89.7515256183
 20
195.1666449871
 30
0.0
 11
-0.0707322189169588
 21
-0.0707322189169588
 31
0.0
210
0.0
220
0.0
230
0.9999999999999998
 40
0.9996954599
 41
2.356346783440141
 42
3.926838523739602
  0
LINE
  5
72
330
1F
100
AcDbEntity
  8
0
  6
Continuous
 62
     7
370
    25
100
AcDbLine
 10
98.6550318641
 20
192.0701360024
 30
0.0
 11
98.6550318641
 21
195.1701664634
 31
0.0
  0
LINE
  5
73
330
1F
100
AcDbEntity
  8
0
  6
Continuous
 62
     7
370
    25
100
AcDbLine
 10
98.6515408511
 20
195.1666754504
 30
0.0
 11
98.6515408511
 21
192.0736270154
 31
0.0
  0
ELLIPSE
  5
74
330
1F
100
AcDbEntity
  8
0
  6
Continuous
 62
     7
370
    25
100
AcDbEllipse
 10
98.5550166313
 20
195.1701360001
 30
0.0
 11
-0.0707322189169588
 21
-0.0707322189169588
 31
0.0
210
0.0
220
0.0
230
0.9999999999999998
 40
0.9996954599
 41
2.356346783439706
 42
3.926838523739468
  0
ELLIPSE
  5
75
330
1F
100
AcDbEntity
  8
0
  6
Continuous
 62
     7
370
    25
100
AcDbEllipse
 10
98.5515256183
 20
195.1666449871
 30
0.0
 11
-0.0707322189169588
 21
-0.0707322189169588
 31
0.0
210
0.0
220
0.0
230
0.9999999999999998
 40
0.9996954599
 41
2.356346783439857
 42
3.926838523739318
  0
ELLIPSE
  5
76
330
1F
100
AcDbEntity
  8
0
  6
Continuous
 62
     7
370
    25
100
AcDbEllipse
 10
98.5550166313
 20
192.0701664657
 30
0.0
 11
-0.0707322189169588
 21
0.0707322189169588
 31
0.0
210
0.0
220
0.0
230
0.9999999999999998
 40
0.9996954599
 41
2.356346783439848
 42
3.926838523739326
  0
ELLIPSE
  5
77
330
1F
100
AcDbEntity
  8
0
  6
Continuous
 62
     7
370
    25
100
AcDbEllipse
 10
98.5515256183
 20
192.0736574787
 30
0.0
 11
-0.0707322189169588
 21
0.0707322189169588
 31
0.0
210
0.0
220
0.0
230
0.9999999999999998
 40
0.9996954599
 41
2.356346783439899
 42
3.926838523739844
  0
LINE
  5
78
330
1F
100
AcDbEntity
  8
0
  6
Continuous
 62
     7
370
    25
100
AcDbLine
 10
91.1050318641
 20
192.0701360024
 30
0.0
 11
91.1050318641
 21
195.1701664634
 31
0.0
  0
LINE
  5
79
330
1F
100
AcDbEntity
  8
0
  6
Continuous
 62
     7
370
    25
100
AcDbLine
 10
91.1085228771
 20
192.0736270154
 30
0.0
 11
91.1085228771
 21
195.1666754504
 31
0.0
  0
ELLIPSE
  5
7A
330
1F
100
AcDbEntity
  8
0
  6
Continuous
 62
     7
370
    25
100
AcDbEllipse
 10
91.2050470969
 20
192.0701664657
 30
0.0
 11
0.0707322189169588
 21
0.0707322189169588
 31
0.0
210
0.0
220
0.0
230
0.9999999999999998
 40
0.9996954599
 41
2.356346783440091
 42
3.926838523739652
  0
ELLIPSE
  5
7B
330
1F
100
AcDbEntity
  8
0
  6
Continuous
 62
     7
370
    25
100
AcDbEllipse
 10
91.2085381099
 20
192.0736574787
 30
0.0
 11
0.0707322189169588
 21
0.0707322189169588
 31
0.0
210
0.0
220
0.0
230
0.9999999999999998
 40
0.9996954599
 41
2.356346783439706
 42
3.926838523739752
  0
LINE
  5
7C
330
1F
100
AcDbEntity
  8
0
  6
Continuous
 62
     7
370
    25
100
AcDbLine
 10
91.2050166336
 20
191.9701512329
 30
0.0
 11
98.5550470946
 21
191.9701512329
 31
0.0
  0
LINE
  5
7D
330
1F
100
AcDbEntity
  8
0
  6
Continuous
 62
     7
370
    25
100
AcDbLine
 10
98.5515560816
 20
191.9736422459
 30
0.0
 11
91.2085076466
 21
191.9736422459
 31
0.0
  0
ELLIPSE
  5
7E
330
1F
100
AcDbEntity
  8
0
  6
Continuous
 62
     7
370
    25
100
AcDbEllipse
 10
91.2050470969
 20
195.1701360001
 30
0.0
 11
0.0707322189169588
 21
-0.0707322189169588
 31
0.0
210
0.0
220
0.0
230
0.9999999999999998
 40
0.9996954599
 41
2.356346783439949
 42
3.92683852373951
  0
ELLIPSE
  5
7F
330
1F
100
AcDbEntity
  8
0
  6
Continuous
 62
     7
370
    25
100
AcDbEllipse
 10
91.2085381099
 20
195.1666449871
 30
0.0
 11
0.0707322189169588
 21
-0.0707322189169588
 31
0.0
210
0.0
220
0.0
230
0.9999999999999998
 40
0.9996954599
 41
2.356346783439999
 42
3.926838523739744
  0
LINE
  5
80
330
1F
100
AcDbEntity
  8
0
  6
Continuous
 62
     7
370
    25
100
AcDbLine
 10
86.6550166336
 20
190.9201512329
 30
0.0
 11
89.7550470946
 21
190.9201512329
 31
0.0
  0
LINE
  5
81
330
1F
100
AcDbEntity
  8
0
  6
Continuous
 62
     7
370
    25
100
AcDbLine
 10
86.6585076466
 20
190.9166602199
 30
0.0
 11
89.7515560816
 21
190.9166602199
 31
0.0
  0
LINE
  5
82
330
1F
100
AcDbEntity
  8
0
  6
Continuous
 62
     7
370
    25
100
AcDbLine
 10
86.6550166336
 20
183.2701512329
 30
0.0
 11
89.7550470946
 21
183.2701512329
 31
0.0
  0
LINE
  5
83
330
1F
100
AcDbEntity
  8
0
  6
Continuous
 62
     7
370
    25
100
AcDbLine
 10
89.7515560816
 20
183.2736422459
 30
0.0
 11
86.6585076466
 21
183.2736422459
 31
0.0
  0
ELLIPSE
  5
84
330
1F
100
AcDbEntity
  8
0
  6
Continuous
 62
     7
370
    25
100
AcDbEllipse
 10
89.7550166313
 20
183.3701664657
 30
0.0
 11
-0.0707322189169588
 21
0.0707322189169588
 31
0.0
210
0.0
220
0.0
230
0.9999999999999998
 40
0.9996954599
 41
2.356346783439848
 42
3.92683852373961
  0
ELLIPSE
  5
85
330
1F
100
AcDbEntity
  8
0
  6
Continuous
 62
     7
370
    25
100
AcDbEllipse
 10
89.7515256183
 20
183.3736574787
 30
0.0
 11
-0.0707322189169588
 21
0.07073221891693036
 31
0.0
210
0.0
220
0.0
230
0.9999999999999998
 40
0.9996954599
 41
2.356346783439798
 42
3.926838523738974
  0
ELLIPSE
  5
86
330
1F
100
AcDbEntity
  8
0
  6
Continuous
 62
     7
370
    25
100
AcDbEllipse
 10
86.6550470969
 20
183.3701664657
 30
0.0
 11
0.0707322189169588
 21
0.0707322189169588
 31
0.0
210
0.0
220
0.0
230
0.9999999999999998
 40
0.9996954599
 41
2.356346783440041
 42
3.926838523739702
  0
ELLIPSE
  5
87
330
1F
100
AcDbEntity
  8
0
  6
Continuous
 62
     7
370
    25
100
AcDbEllipse
 10
86.6585381099
 20
183.3736574787
 30
0.0
 11
0.07073221891694459
 21
0.07073221891693038
 31
0.0
210
0.0
220
0.0
230
0.9999999999999998
 40
0.9996954599
 41
2.356346783440442
 42
3.926838523739359
  0
ELLIPSE
  5
88
330
1F
100
AcDbEntity
  8
0
  6
Continuous
 62
     7
370
    25
100
AcDbEllipse
 10
86.6550470969
 20
190.8201360001
 30
0.0
 11
0.0707322189169588
 21
-0.0707322189169588
 31
0.0
210
0.0
220
0.0
230
0.9999999999999998
 40
0.9996954599
 41
2.356346783439899
 42
3.92683852373956
  0
ELLIPSE
  5
89
330
1F
100
AcDbEntity
  8
0
  6
Continuous
 62
     7
370
    25
100
AcDbEllipse
 10
86.6585381099
 20
190.8166449871
 30
0.0
 11
0.07073221891694459
 21
-0.0707322189169588
 31
0.0
210
0.0
220
0.0
230
0.9999999999999998
 40
0.9996954599
 41
2.356346783440292
 42
3.926838523740078
  0
LINE
  5
8A
330
1F
100
AcDbEntity
  8
0
  6
Continuous
 62
     7
370
    25
100
AcDbLine
 10
86.5550318641
 20
183.3701360024
 30
0.0
 11
86.5550318641
 21
190.8201664634
 31
0.0
  0
LINE
  5
8B
330
1F
100
AcDbEntity
  8
0
  6
Continuous
 62
     7
370
    25
100
AcDbLine
 10
86.5585228771
 20
183.3736270154
 30
0.0
 11
86.5585228771
 21
190.8166754504
 31
0.0
  0
ELLIPSE
  5
8C
330
1F
100
AcDbEntity
  8
0
  6
Continuous
 62
     7
370
    25
100
AcDbEllipse
 10
89.7550166313
 20
190.8201360001
 30
0.0
 11
-0.0707322189169588
 21
-0.0707322189169588
 31
0.0
210
0.0
220
0.0
230
0.9999999999999998
 40
0.9996954599
 41
2.356346783439706
 42
3.926838523739752
  0
ELLIPSE
  5
8D
330
1F
100
AcDbEntity
  8
0
  6
Continuous
 62
     7
370
    25
100
AcDbEllipse
 10
89.7515256183
 20
190.8166449871
 30
0.0
 11
-0.0707322189169588
 21
-0.0707322189169588
 31
0.0
210
0.0
220
0.0
230
0.9999999999999998
 40
0.9996954599
 41
2.356346783439857
 42
3.926838523739602
  0
LINE
  5
8E
330
1F
100
AcDbEntity
  8
0
  6
Continuous
 62
     7
370
    25
100
AcDbLine
 10
86.6550166336
 20
191.9701512329
 30
0.0
 11
89.7550470946
 21
191.9701512329
 31
0.0
  0
LINE
  5
8F
330
1F
100
AcDbEntity
  8
0
  6
Continuous
 62
     7
370
    25
100
AcDbLine
 10
89.7515560816
 20
191.9736422459
 30
0.0
 11
86.6585076466
 21
191.9736422459
 31
0.0
  0
LINE
  5
90
330
1F
100
AcDbEntity
  8
0
  6
Continuous
 62
     7
370
    25
100
AcDbLine
 10
86.5550318641
 20
192.0701360024
 30
0.0
 11
86.5550318641
 21
195.1701664634
 31
0.0
  0
LINE
  5
91
330
1F
100
AcDbEntity
  8
0
  6
Continuous
 62
     7
370
    25
100
AcDbLine
 10
86.5585228771
 20
192.0736270154
 30
0.0
 11
86.5585228771
 21
195.1666754504
 31
0.0
  0
ELLIPSE
  5
92
330
1F
100
AcDbEntity
  8
0
  6
Continuous
 62
     7
370
    25
100
AcDbEllipse
 10
86.6550470969
 20
192.0701664657
 30
0.0
 11
0.0707322189169588
 21
0.0707322189169588
 31
0.0
210
0.0
220
0.0
230
0.9999999999999998
 40
0.9996954599
 41
2.356346783440141
 42
3.926838523739602
  0
ELLIPSE
  5
93
330
1F
100
AcDbEntity
  8
0
  6
Continuous
 62
     7
370
    25
100
AcDbEllipse
 10
86.6585381099
 20
192.0736574787
 30
0.0
 11
0.07073221891694459
 21
0.0707322189169588
 31
0.0
210
0.0
220
0.0
230
0.9999999999999998
 40
0.9996954599
 41
2.356346783439655
 42
3.926838523739459
  0
LINE
  5
94
330
1F
100
AcDbEntity
  8
0
  6
Continuous
 62
     7
370
    25
100
AcDbLine
 10
86.6550166336
 20
195.2701512329
 30
0.0
 11
89.7550470946
 21
195.2701512329
 31
0.0
  0
LINE
  5
95
330
1F
100
AcDbEntity
  8
0
  6
Continuous
 62
     7
370
    25
100
AcDbLine
 10
86.6585076466
 20
195.2666602199
 30
0.0
 11
89.7515560816
 21
195.2666602199
 31
0.0
  0
ELLIPSE
  5
96
330
1F
100
AcDbEntity
  8
0
  6
Continuous
 62
     7
370
    25
100
AcDbEllipse
 10
86.6550470969
 20
195.1701360001
 30
0.0
 11
0.0707322189169588
 21
-0.0707322189169588
 31
0.0
210
0.0
220
0.0
230
0.9999999999999998
 40
0.9996954599
 41
2.356346783439899
 42
3.92683852373956
  0
ELLIPSE
  5
97
330
1F
100
AcDbEntity
  8
0
  6
Continuous
 62
     7
370
    25
100
AcDbEllipse
 10
86.6585381099
 20
195.1666449871
 30
0.0
 11
0.07073221891694459
 21
-0.0707322189169588
 31
0.0
210
0.0
220
0.0
230
0.9999999999999998
 40
0.9996954599
 41
2.356346783440292
 42
3.926838523739794
  0
LINE
  5
98
330
1F
100
AcDbEntity
  8
0
  6
Continuous
 62
     7
370
    25
100
AcDbLine
 10
89.8550318641
 20
192.0701360024
 30
0.0
 11
89.8550318641
 21
195.1701664634
 31
0.0
  0
LINE
  5
99
330
1F
100
AcDbEntity
  8
0
  6
Continuous
 62
     7
370
    25
100
AcDbLine
 10
89.8515408511
 20
195.1666754504
 30
0.0
 11
89.8515408511
 21
192.0736270154
 31
0.0
  0
ELLIPSE
  5
9A
330
1F
100
AcDbEntity
  8
0
  6
Continuous
 62
     7
370
    25
100
AcDbEllipse
 10
89.7550166313
 20
192.0701664657
 30
0.0
 11
-0.0707322189169588
 21
0.0707322189169588
 31
0.0
210
0.0
220
0.0
230
0.9999999999999998
 40
0.9996954599
 41
2.356346783439848
 42
3.926838523739326
  0
ELLIPSE
  5
9B
330
1F
100
AcDbEntity
  8
0
  6
Continuous
 62
     7
370
    25
100
AcDbEllipse
 10
89.7515256183
 20
192.0736574787
 30
0.0
 11
-0.0707322189169588
 21
0.0707322189169588
 31
0.0
210
0.0
220
0.0
230
0.9999999999999998
 40
0.9996954599
 41
2.356346783439899
 42
3.926838523739844
  0
ELLIPSE
  5
9C
330
1F
100
AcDbEntity
  8
0
  6
Continuous
 62
     7
370
    25
100
AcDbEllipse
 10
104.1285082952
 20
187.5201360001
 30
0.0
 11
-0.04618380093519647
 21
-0.08871825615210582
 31
0.0
210
0.0
220
0.0
230
0.9999999999999999
 40
0.999806434
 41
2.661706392538385
 42
3.621478914641357
  0
ELLIPSE
  5
9D
330
1F
100
AcDbEntity
  8
0
  6
Continuous
 62
     7
370
    25
100
AcDbEllipse
 10
104.1303256016
 20
187.5236270131
 30
0.0
 11
-0.04618380093519647
 21
-0.08871825615210582
 31
0.0
210
0.0
220
0.0
230
0.9999999999999999
 40
0.999806434
 41
2.661706392538534
 42
3.621478914641217
  0
LINE
  5
9E
330
1F
100
AcDbEntity
  8
0
  6
Continuous
 62
     7
370
    25
100
AcDbLine
 10
99.9050318641
 20
195.1701664634
 30
0.0
 11
99.9050318641
 21
183.3701360024
 31
0.0
  0
LINE
  5
9F
330
1F
100
AcDbEntity
  8
0
  6
Continuous
 62
     7
370
    25
100
AcDbLine
 10
99.9085228771
 20
195.1666754504
 30
0.0
 11
99.9085228771
 21
183.3736270154
 31
0.0
  0
ELLIPSE
  5
A0
330
1F
100
AcDbEntity
  8
0
  6
Continuous
 62
     7
370
    25
100
AcDbEllipse
 10
100.0050470969
 20
195.1701360001
 30
0.0
 11
0.0707322189169588
 21
-0.0707322189169588
 31
0.0
210
0.0
220
0.0
230
0.9999999999999998
 40
0.9996954599
 41
2.356346783439848
 42
3.92683852373961
  0
ELLIPSE
  5
A1
330
1F
100
AcDbEntity
  8
0
  6
Continuous
 62
     7
370
    25
100
AcDbEllipse
 10
100.0085381099
 20
195.1666449871
 30
0.0
 11
0.0707322189169588
 21
-0.0707322189169588
 31
0.0
210
0.0
220
0.0
230
0.9999999999999998
 40
0.9996954599
 41
2.356346783439756
 42
3.926838523739844
  0
LINE
  5
A2
330
1F
100
AcDbEntity
  8
0
  6
Continuous
 62
     7
370
    25
100
AcDbLine
 10
103.1050470946
 20
195.2701512329
 30
0.0
 11
100.0050166336
 21
195.2701512329
 31
0.0
  0
LINE
  5
A3
330
1F
100
AcDbEntity
  8
0
  6
Continuous
 62
     7
370
    25
100
AcDbLine
 10
103.1015560816
 20
195.2666602199
 30
0.0
 11
100.0085076466
 21
195.2666602199
 31
0.0
  0
LINE
  5
A4
330
1F
100
AcDbEntity
  8
0
  6
Continuous
 62
     7
370
    25
100
AcDbLine
 10
103.2050318641
 20
191.0201360024
 30
0.0
 11
103.2050318641
 21
195.1701664634
 31
0.0
  0
LINE
  5
A5
330
1F
100
AcDbEntity
  8
0
  6
Continuous
 62
     7
370
    25
100
AcDbLine
 10
103.2015408511
 20
191.0166449894
 30
0.0
 11
103.2015408511
 21
195.1666754504
 31
0.0
  0
ELLIPSE
  5
A6
330
1F
100
AcDbEntity
  8
0
  6
Continuous
 62
     7
370
    25
100
AcDbEllipse
 10
103.3050470969
 20
191.0201664657
 30
0.0
 11
0.0707322189169588
 21
0.0707322189169588
 31
0.0
210
0.0
220
0.0
230
0.9999999999999998
 40
0.9996954599
 41
2.356346783440141
 42
3.926838523739602
  0
ELLIPSE
  5
A7
330
1F
100
AcDbEntity
  8
0
  6
Continuous
 62
     7
370
    25
100
AcDbEllipse
 10
103.3015560839
 20
191.0166754527
 30
0.0
 11
0.0707322189169588
 21
0.0707322189169588
 31
0.0
210
0.0
220
0.0
230
0.9999999999999998
 40
0.9996954599
 41
2.356346783440091
 42
3.926838523739652
  0
LINE
  5
A8
330
1F
100
AcDbEntity
  8
0
  6
Continuous
 62
     7
370
    25
100
AcDbLine
 10
104.1285241534
 20
190.9201512329
 30
0.0
 11
103.3050166336
 21
190.9201512329
 31
0.0
  0
LINE
  5
A9
330
1F
100
AcDbEntity
  8
0
  6
Continuous
 62
     7
370
    25
100
AcDbLine
 10
104.1303414597
 20
190.9166602199
 30
0.0
 11
103.3015256206
 21
190.9166602199
 31
0.0
  0
ELLIPSE
  5
AA
330
1F
100
AcDbEntity
  8
0
  6
Continuous
 62
     7
370
    25
100
AcDbEllipse
 10
104.1285082952
 20
191.0201664657
 30
0.0
 11
-0.04618380093519648
 21
0.08871825615213424
 31
0.0
210
0.0
220
0.0
230
1.0
 40
0.999806434
 41
2.661706392538553
 42
3.621478914641301
  0
ELLIPSE
  5
AB
330
1F
100
AcDbEntity
  8
0
  6
Continuous
 62
     7
370
    25
100
AcDbEllipse
 10
104.1303256016
 20
191.0166754527
 30
0.0
 11
-0.04618380093519647
 21
0.0887182561520774
 31
0.0
210
0.0
220
0.0
230
1.0
 40
0.999806434
 41
2.661706392538642
 42
3.621478914640911
  0
LINE
  5
AC
330
1F
100
AcDbEntity
  8
0
  6
Continuous
 62
     7
370
    25
100
AcDbLine
 10
107.1966217694
 20
195.2275153711
 30
0.0
 11
104.2104268818
 21
190.9627870946
 31
0.0
  0
LINE
  5
AD
330
1F
100
AcDbEntity
  8
0
  6
Continuous
 62
     7
370
    25
100
AcDbLine
 10
107.1984390757
 20
195.2240243582
 30
0.0
 11
104.2122441881
 21
190.9592960816
 31
0.0
  0
ELLIPSE
  5
AE
330
1F
100
AcDbEntity
  8
0
  6
Continuous
 62
     7
370
    25
100
AcDbEllipse
 10
107.2785403559
 20
195.1701360001
 30
0.0
 11
0.04618380093519647
 21
-0.08871825615210582
 31
0.0
210
0.0
220
0.0
230
0.9999999999999999
 40
0.999806434
 41
2.66170639253867
 42
3.621478914640285
  0
ELLIPSE
  5
AF
330
1F
100
AcDbEntity
  8
0
  6
Continuous
 62
     7
370
    25
100
AcDbEllipse
 10
107.2803576623
 20
195.1666449871
 30
0.0
 11
0.04618380093519647
 21
-0.08871825615210582
 31
0.0
210
0.0
220
0.0
230
0.9999999999999999
 40
0.999806434
 41
2.66170639253881
 42
3.621478914640752
  0
LINE
  5
B0
330
1F
100
AcDbEntity
  8
0
  6
Continuous
 62
     7
370
    25
100
AcDbLine
 10
111.0629629089
 20
195.2701512329
 30
0.0
 11
107.2785244978
 21
195.2701512329
 31
0.0
  0
LINE
  5
B1
330
1F
100
AcDbEntity
  8
0
  6
Continuous
 62
     7
370
    25
100
AcDbLine
 10
111.0562567353
 20
195.2666602199
 30
0.0
 11
107.2803418041
 21
195.2666602199
 31
0.0
  0
ELLIPSE
  5
B2
330
1F
100
AcDbEntity
  8
0
  6
Continuous
 62
     7
370
    25
100
AcDbEllipse
 10
111.0629043895
 20
195.1701360001
 30
0.0
 11
-0.08876443754498098
 21
-0.0462078414466589
 31
0.0
210
0.0
220
0.0
230
0.9999999999999999
 40
0.9992862657
 41
2.051054363808495
 42
4.232130943371719
  0
ELLIPSE
  5
B3
330
1F
100
AcDbEntity
  8
0
  6
Continuous
 62
     7
370
    25
100
AcDbEllipse
 10
111.0561982159
 20
195.1666449871
 30
0.0
 11
-0.08876443754499519
 21
-0.04620784144668733
 31
0.0
210
0.0
220
0.0
230
1.0
 40
0.9992862657
 41
2.051054363807965
 42
4.232130943371704
  0
ELLIPSE
  5
B4
330
1F
100
AcDbEntity
  8
0
  6
Continuous
 62
     7
370
    25
100
AcDbEllipse
 10
107.1758826895
 20
189.2701512329
 30
0.0
 11
0.1000227004576146
 21
0.0
 31
0.0
210
0.0
220
0.0
230
1.0
 40
0.9997730469
 41
2.530834056410205
 42
3.752351250769476
  0
ELLIPSE
  5
B5
330
1F
100
AcDbEntity
  8
0
  6
Continuous
 62
     7
370
    25
100
AcDbEllipse
 10
107.1716209496
 20
189.2701512329
 30
0.0
 11
0.1000227004576146
 21
0.0
 31
0.0
210
0.0
220
0.0
230
1.0
 40
0.9997730469
 41
2.530834056410124
 42
3.752351250769395
  0
LINE
  5
B6
330
1F
100
AcDbEntity
  8
0
  6
Continuous
 62
     7
370
    25
100
AcDbLine
 10
111.1448656372
 20
183.4274849102
 30
0.0
 11
107.0939427724
 21
189.2128023251
 31
0.0
  0
LINE
  5
B7
330
1F
100
AcDbEntity
  8
0
  6
Continuous
 62
     7
370
    25
100
AcDbLine
 10
111.1381594637
 20
183.4309759232
 30
0.0
 11
107.0896810324
 21
189.2128023251
 31
0.0
  0
ELLIPSE
  5
B8
330
1F
100
AcDbEntity
  8
0
  6
Continuous
 62
     7
370
    25
100
AcDbEllipse
 10
111.0629043895
 20
183.3701664657
 30
0.0
 11
-0.08876443754498098
 21
0.0462078414466589
 31
0.0
210
0.0
220
0.0
230
0.9999999999999999
 40
0.9992862657
 41
2.051054363807984
 42
4.232130943371549
  0
ELLIPSE
  5
B9
330
1F
100
AcDbEntity
  8
0
  6
Continuous
 62
     7
370
    25
100
AcDbEllipse
 10
111.0561982159
 20
183.3736574787
 30
0.0
 11
-0.08876443754499518
 21
0.0462078414466589
 31
0.0
210
0.0
220
0.0
230
1.0
 40
0.9992862657
 41
2.051054363807725
 42
4.232130943371535
  0
LINE
  5
BA
330
1F
100
AcDbEntity
  8
0
  6
Continuous
 62
     7
370
    25
100
AcDbLine
 10
107.2785244978
 20
183.2701512329
 30
0.0
 11
111.0629629089
 21
183.2701512329
 31
0.0
  0
LINE
  5
BB
330
1F
100
AcDbEntity
  8
0
  6
Continuous
 62
     7
370
    25
100
AcDbLine
 10
107.2803418041
 20
183.2736422459
 30
0.0
 11
111.0562567353
 21
183.2736422459
 31
0.0
  0
ELLIPSE
  5
BC
330
1F
100
AcDbEntity
  8
0
  6
Continuous
 62
     7
370
    25
100
AcDbEllipse
 10
107.2785403559
 20
183.3701664657
 30
0.0
 11
0.04618380093519647
 21
0.08871825615210582
 31
0.0
210
0.0
220
0.0
230
0.9999999999999999
 40
0.999806434
 41
2.661706392538453
 42
3.621478914640933
  0
ELLIPSE
  5
BD
330
1F
100
AcDbEntity
  8
0
  6
Continuous
 62
     7
370
    25
100
AcDbEllipse
 10
107.2803576623
 20
183.3736574787
 30
0.0
 11
0.04618380093519647
 21
0.08871825615210582
 31
0.0
210
0.0
220
0.0
230
0.9999999999999999
 40
0.999806434
 41
2.661706392538785
 42
3.621478914641127
  0
LINE
  5
BE
330
1F
100
AcDbEntity
  8
0
  6
Continuous
 62
     7
370
    25
100
AcDbLine
 10
104.2104268818
 20
187.5775153711
 30
0.0
 11
107.1966217694
 21
183.3127870946
 31
0.0
  0
LINE
  5
BF
330
1F
100
AcDbEntity
  8
0
  6
Continuous
 62
     7
370
    25
100
AcDbLine
 10
104.2122441881
 20
187.5810063841
 30
0.0
 11
107.1984390757
 21
183.3162781076
 31
0.0
  0
LINE
  5
C0
330
1F
100
AcDbEntity
  8
0
  6
Continuous
 62
     7
370
    25
100
AcDbLine
 10
91.2085076466
 20
190.9166602199
 30
0.0
 11
98.5515560816
 21
190.9166602199
 31
0.0
  0
LINE
  5
C1
330
1F
100
AcDbEntity
  8
0
  6
Continuous
 62
     7
370
    25
100
AcDbLine
 10
98.5550470946
 20
190.9201512329
 30
0.0
 11
91.2050166336
 21
190.9201512329
 31
0.0
  0
ELLIPSE
  5
C2
330
1F
100
AcDbEntity
  8
0
  6
Continuous
 62
     7
370
    25
100
AcDbEllipse
 10
103.1050166313
 20
183.3701664657
 30
0.0
 11
-0.0707322189169588
 21
0.0707322189169588
 31
0.0
210
0.0
220
0.0
230
0.9999999999999998
 40
0.9996954599
 41
2.356346783439848
 42
3.92683852373961
  0
LINE
  5
C3
330
1F
100
AcDbEntity
  8
0
  6
Continuous
 62
     7
370
    25
100
AcDbLine
 10
103.2050318641
 20
183.3701360024
 30
0.0
 11
103.2050318641
 21
187.5201664634
 31
0.0
  0
ELLIPSE
  5
C4
330
1F
100
AcDbEntity
  8
0
  6
Continuous
 62
     7
370
    25
100
AcDbEllipse
 10
103.3050470969
 20
187.5201360001
 30
0.0
 11
0.0707322189169588
 21
-0.0707322189169588
 31
0.0
210
0.0
220
0.0
230
0.9999999999999998
 40
0.9996954599
 41
2.356346783439949
 42
3.92683852373951
  0
LINE
  5
C5
330
1F
100
AcDbEntity
  8
0
  6
Continuous
 62
     7
370
    25
100
AcDbLine
 10
103.3050166336
 20
187.6201512329
 30
0.0
 11
104.1285241534
 21
187.6201512329
 31
0.0
  0
LINE
  5
C6
330
1F
100
AcDbEntity
  8
0
  6
Continuous
 62
     7
370
    25
100
AcDbLine
 10
107.0939427724
 20
189.3275001407
 30
0.0
 11
111.1448656372
 21
195.1128175556
 31
0.0
  0
ELLIPSE
  5
C7
330
1F
100
AcDbEntity
  8
0
  6
Continuous
 62
     7
370
    25
100
AcDbEllipse
 10
103.1050166313
 20
195.1701360001
 30
0.0
 11
-0.0707322189169588
 21
-0.0707322189169588
 31
0.0
210
0.0
220
0.0
230
0.9999999999999998
 40
0.9996954599
 41
2.356346783440041
 42
3.926838523739702
  0
ELLIPSE
  5
C8
330
1F
100
AcDbEntity
  8
0
  6
Continuous
 62
     7
370
    25
100
AcDbEllipse
 10
100.0050470969
 20
183.3701664657
 30
0.0
 11
0.0707322189169588
 21
0.0707322189169588
 31
0.0
210
0.0
220
0.0
230
0.9999999999999998
 40
0.9996954599
 41
2.356346783440041
 42
3.926838523739702
  0
LINE
  5
C9
330
1F
100
AcDbEntity
  8
0
  6
Continuous
 62
     7
370
    25
100
AcDbLine
 10
100.0050166336
 20
183.2701512329
 30
0.0
 11
103.1050470946
 21
183.2701512329
 31
0.0
  0
LINE
  5
CA
330
1F
100
AcDbEntity
  8
0
  6
Continuous
 62
     7
370
    25
100
AcDbLine
 10
91.1050318641
 20
190.8201664634
 30
0.0
 11
91.1050318641
 21
183.3701360024
 31
0.0
  0
ELLIPSE
  5
CB
330
1F
100
AcDbEntity
  8
0
  6
Continuous
 62
     7
370
    25
100
AcDbEllipse
 10
91.2050470969
 20
183.3701664657
 30
0.0
 11
0.0707322189169588
 21
0.0707322189169588
 31
0.0
210
0.0
220
0.0
230
0.9999999999999998
 40
0.9996954599
 41
2.356346783439857
 42
3.926838523739886
  0
LINE
  5
CC
330
1F
100
AcDbEntity
  8
0
  6
Continuous
 62
     7
370
    25
100
AcDbLine
 10
91.2050166336
 20
183.2701512329
 30
0.0
 11
98.5550470946
 21
183.2701512329
 31
0.0
  0
ELLIPSE
  5
CD
330
1F
100
AcDbEntity
  8
0
  6
Continuous
 62
     7
370
    25
100
AcDbEllipse
 10
98.5550166313
 20
183.3701664657
 30
0.0
 11
-0.0707322189169588
 21
0.0707322189169588
 31
0.0
210
0.0
220
0.0
230
0.9999999999999998
 40
0.9996954599
 41
2.356346783439848
 42
3.92683852373961
  0
LINE
  5
CE
330
1F
100
AcDbEntity
  8
0
  6
Continuous
 62
     7
370
    25
100
AcDbLine
 10
98.6550318641
 20
183.3701360024
 30
0.0
 11
98.6550318641
 21
186.4701664634
 31
0.0
  0
ELLIPSE
  5
CF
330
1F
100
AcDbEntity
  8
0
  6
Continuous
 62
     7
370
    25
100
AcDbEllipse
 10
98.5550166313
 20
186.4701360001
 30
0.0
 11
-0.0707322189169588
 21
-0.0707322189169588
 31
0.0
210
0.0
220
0.0
230
0.9999999999999998
 40
0.9996954599
 41
2.356346783439572
 42
3.926838523739317
  0
LINE
  5
D0
330
1F
100
AcDbEntity
  8
0
  6
Continuous
 62
     7
370
    25
100
AcDbLine
 10
98.5550470946
 20
186.5701512329
 30
0.0
 11
94.5050166336
 21
186.5701512329
 31
0.0
  0
ELLIPSE
  5
D1
330
1F
100
AcDbEntity
  8
0
  6
Continuous
 62
     7
370
    25
100
AcDbEllipse
 10
94.5050470969
 20
186.6701664657
 30
0.0
 11
0.0707322189169588
 21
0.0707322189169588
 31
0.0
210
0.0
220
0.0
230
0.9999999999999998
 40
0.9996954599
 41
2.356346783440091
 42
3.926838523739794
  0
LINE
  5
D2
330
1F
100
AcDbEntity
  8
0
  6
Continuous
 62
     7
370
    25
100
AcDbLine
 10
94.4050318641
 20
186.6701360024
 30
0.0
 11
94.4050318641
 21
187.5201664634
 31
0.0
  0
ELLIPSE
  5
D3
330
1F
100
AcDbEntity
  8
0
  6
Continuous
 62
     7
370
    25
100
AcDbEllipse
 10
94.5050470969
 20
187.5201360001
 30
0.0
 11
0.0707322189169588
 21
-0.0707322189169588
 31
0.0
210
0.0
220
0.0
230
0.9999999999999998
 40
0.9996954599
 41
2.356346783439848
 42
3.926838523740178
  0
LINE
  5
D4
330
1F
100
AcDbEntity
  8
0
  6
Continuous
 62
     7
370
    25
100
AcDbLine
 10
94.5050166336
 20
187.6201512329
 30
0.0
 11
98.5550470946
 21
187.6201512329
 31
0.0
  0
ELLIPSE
  5
D5
330
1F
100
AcDbEntity
  8
0
  6
Continuous
 62
     7
370
    25
100
AcDbEllipse
 10
98.5550166313
 20
187.7201664657
 30
0.0
 11
-0.0707322189169588
 21
0.0707322189169588
 31
0.0
210
0.0
220
0.0
230
0.9999999999999998
 40
0.9996954599
 41
2.356346783439848
 42
3.92683852373961
  0
LINE
  5
D6
330
1F
100
AcDbEntity
  8
0
  6
Continuous
 62
     7
370
    25
100
AcDbLine
 10
98.6550318641
 20
187.7201360024
 30
0.0
 11
98.6550318641
 21
190.8201664634
 31
0.0
  0
ELLIPSE
  5
D7
330
1F
100
AcDbEntity
  8
0
  6
Continuous
 62
     7
370
    25
100
AcDbEllipse
 10
98.5550166313
 20
190.8201360001
 30
0.0
 11
-0.0707322189169588
 21
-0.07073221891693036
 31
0.0
210
0.0
220
0.0
230
0.9999999999999998
 40
0.9996954599
 41
2.356346783440626
 42
3.926838523739518
  0
ELLIPSE
  5
D8
330
1F
100
AcDbEntity
  8
0
  6
Continuous
 62
     7
370
    25
100
AcDbEllipse
 10
91.2050470969
 20
190.8201360001
 30
0.0
 11
0.0707322189169588
 21
-0.0707322189169588
 31
0.0
210
0.0
220
0.0
230
0.9999999999999998
 40
0.9996954599
 41
2.356346783439848
 42
3.92683852373961
  0
LINE
  5
D9
330
1F
100
AcDbEntity
  8
0
  6
Continuous
 62
     7
370
    25
100
AcDbLine
 10
103.2015408511
 20
183.3736270154
 30
0.0
 11
103.2015408511
 21
187.5236574763
 31
0.0
  0
ELLIPSE
  5
DA
330
1F
100
AcDbEntity
  8
0
  6
Continuous
 62
     7
370
    25
100
AcDbEllipse
 10
103.1015256183
 20
183.3736574787
 30
0.0
 11
-0.0707322189169588
 21
0.07073221891693036
 31
0.0
210
0.0
220
0.0
230
0.9999999999999998
 40
0.9996954599
 41
2.356346783439999
 42
3.926838523738773
  0
LINE
  5
DB
330
1F
100
AcDbEntity
  8
0
  6
Continuous
 62
     7
370
    25
100
AcDbLine
 10
100.0085076466
 20
183.2736422459
 30
0.0
 11
103.1015560816
 21
183.2736422459
 31
0.0
  0
ELLIPSE
  5
DC
330
1F
100
AcDbEntity
  8
0
  6
Continuous
 62
     7
370
    25
100
AcDbEllipse
 10
94.5015560839
 20
187.5236270131
 30
0.0
 11
0.0707322189169588
 21
-0.0707322189169588
 31
0.0
210
0.0
220
0.0
230
0.9999999999999998
 40
0.9996954599
 41
2.356346783439949
 42
3.926838523739794
  0
ELLIPSE
  5
DD
330
1F
100
AcDbEntity
  8
0
  6
Continuous
 62
     7
370
    25
100
AcDbEllipse
 10
91.2085381099
 20
190.8166449871
 30
0.0
 11
0.0707322189169588
 21
-0.0707322189169588
 31
0.0
210
0.0
220
0.0
230
0.9999999999999998
 40
0.9996954599
 41
2.356346783439898
 42
3.926838523739844
  0
LINE
  5
DE
330
1F
100
AcDbEntity
  8
0
  6
Continuous
 62
     7
370
    25
100
AcDbLine
 10
91.1085228771
 20
183.3736270154
 30
0.0
 11
91.1085228771
 21
190.8166754504
 31
0.0
  0
ELLIPSE
  5
DF
330
1F
100
AcDbEntity
  8
0
  6
Continuous
 62
     7
370
    25
100
AcDbEllipse
 10
91.2085381099
 20
183.3736574787
 30
0.0
 11
0.0707322189169588
 21
0.0707322189169588
 31
0.0
210
0.0
220
0.0
230
0.9999999999999998
 40
0.9996954599
 41
2.356346783439857
 42
3.926838523739744
  0
LINE
  5
E0
330
1F
100
AcDbEntity
  8
0
  6
Continuous
 62
     7
370
    25
100
AcDbLine
 10
98.5515560816
 20
183.2736422459
 30
0.0
 11
91.2085076466
 21
183.2736422459
 31
0.0
  0
ELLIPSE
  5
E1
330
1F
100
AcDbEntity
  8
0
  6
Continuous
 62
     7
370
    25
100
AcDbEllipse
 10
98.5515256183
 20
183.3736574787
 30
0.0
 11
-0.0707322189169588
 21
0.07073221891693036
 31
0.0
210
0.0
220
0.0
230
0.9999999999999998
 40
0.9996954599
 41
2.356346783439798
 42
3.926838523738974
  0
LINE
  5
E2
330
1F
100
AcDbEntity
  8
0
  6
Continuous
 62
     7
370
    25
100
AcDbLine
 10
98.6515408511
 20
186.4666754504
 30
0.0
 11
98.6515408511
 21
183.3736270154
 31
0.0
  0
ELLIPSE
  5
E3
330
1F
100
AcDbEntity
  8
0
  6
Continuous
 62
     7
370
    25
100
AcDbEllipse
 10
94.5015560839
 20
186.6666754527
 30
0.0
 11
0.0707322189169588
 21
0.0707322189169588
 31
0.0
210
0.0
220
0.0
230
0.9999999999999998
 40
0.9996954599
 41
2.356346783439756
 42
3.926838523739844
  0
LINE
  5
E4
330
1F
100
AcDbEntity
  8
0
  6
Continuous
 62
     7
370
    25
100
AcDbLine
 10
94.4015408511
 20
187.5236574763
 30
0.0
 11
94.4015408511
 21
186.6666449894
 31
0.0
  0
LINE
  5
E5
330
1F
100
AcDbEntity
  8
0
  6
Continuous
 62
     7
370
    25
100
AcDbLine
 10
107.0896810324
 20
189.3275001407
 30
0.0
 11
111.1381594637
 21
195.1093265426
 31
0.0
  0
LINE
  5
E6
330
1F
100
AcDbEntity
  8
0
  6
Continuous
 62
     7
370
    25
100
AcDbLine
 10
98.5515560816
 20
187.6236422459
 30
0.0
 11
94.5015256206
 21
187.6236422459
 31
0.0
  0
ELLIPSE
  5
E7
330
1F
100
AcDbEntity
  8
0
  6
Continuous
 62
     7
370
    25
100
AcDbEllipse
 10
98.5515256183
 20
187.7236574787
 30
0.0
 11
-0.0707322189169588
 21
0.0707322189169588
 31
0.0
210
0.0
220
0.0
230
0.9999999999999998
 40
0.9996954599
 41
2.356346783439998
 42
3.926838523739744
  0
LINE
  5
E8
330
1F
100
AcDbEntity
  8
0
  6
Continuous
 62
     7
370
    25
100
AcDbLine
 10
98.6515408511
 20
190.8166754504
 30
0.0
 11
98.6515408511
 21
187.7236270154
 31
0.0
  0
LINE
  5
E9
330
1F
100
AcDbEntity
  8
0
  6
Continuous
 62
     7
370
    25
100
AcDbLine
 10
94.5015256206
 20
186.5666602199
 30
0.0
 11
98.5515560816
 21
186.5666602199
 31
0.0
  0
ELLIPSE
  5
EA
330
1F
100
AcDbEntity
  8
0
  6
Continuous
 62
     7
370
    25
100
AcDbEllipse
 10
98.5515256183
 20
190.8166449871
 30
0.0
 11
-0.0707322189169588
 21
-0.0707322189169588
 31
0.0
210
0.0
220
0.0
230
0.9999999999999998
 40
0.9996954599
 41
2.35634678344004
 42
3.926838523739418
  0
ELLIPSE
  5
EB
330
1F
100
AcDbEntity
  8
0
  6
Continuous
 62
     7
370
    25
100
AcDbEllipse
 10
103.1015256183
 20
195.1666449871
 30
0.0
 11
-0.0707322189169588
 21
-0.0707322189169588
 31
0.0
210
0.0
220
0.0
230
0.9999999999999998
 40
0.9996954599
 41
2.356346783439807
 42
3.926838523739652
  0
ELLIPSE
  5
EC
330
1F
100
AcDbEntity
  8
0
  6
Continuous
 62
     7
370
    25
100
AcDbEllipse
 10
100.0085381099
 20
183.3736574787
 30
0.0
 11
0.0707322189169588
 21
0.07073221891693036
 31
0.0
210
0.0
220
0.0
230
0.9999999999999998
 40
0.9996954599
 41
2.356346783440292
 42
3.926838523739853
  0
ELLIPSE
  5
ED
330
1F
100
AcDbEntity
  8
0
  6
Continuous
 62
     7
370
    25
100
AcDbEllipse
 10
103.3015560839
 20
187.5236270131
 30
0.0
 11
0.0707322189169588
 21
-0.0707322189169588
 31
0.0
210
0.0
220
0.0
230
0.9999999999999998
 40
0.9996954599
 41
2.356346783439999
 42
3.92683852373946
  0
ELLIPSE
  5
EE
330
1F
100
AcDbEntity
  8
0
  6
Continuous
 62
     7
370
    25
100
AcDbEllipse
 10
98.5515256183
 20
186.4666449871
 30
0.0
 11
-0.0707322189169588
 21
-0.0707322189169588
 31
0.0
210
0.0
220
0.0
230
0.9999999999999998
 40
0.9996954599
 41
2.356346783439756
 42
3.926838523739418
  0
LINE
  5
EF
330
1F
100
AcDbEntity
  8
0
  6
Continuous
 62
     7
370
    25
100
AcDbLine
 10
103.3015256206
 20
187.6236422459
 30
0.0
 11
104.1303414597
 21
187.6236422459
 31
0.0
  0
LINE
  5
F0
330
1F
100
AcDbEntity
  8
0
  6
Continuous
 62
     7
370
    25
100
AcDbLine
 10
180.5457113307
 20
196.1701512329
 30
0.0
 11
180.5457113307
 21
139.6701512329
 31
0.0
  0
ELLIPSE
  5
F1
330
1F
100
AcDbEntity
  8
0
  6
Continuous
 62
     7
370
    25
100
AcDbEllipse
 10
180.7742324355
 20
139.6701512329
 30
0.0
 11
0.0
 21
13.09196533026773
 31
0.0
210
0.0
220
0.0
230
1.0
 40
0.0174550649
 41
1.570796326794897
 42
2.998162200572689
  0
ELLIPSE
  5
F2
330
1F
100
AcDbEntity
  8
0
  6
Continuous
 62
     7
370
    25
100
AcDbEllipse
 10
180.7393223057
 20
125.8218627537
 30
0.0
 11
0.0
 21
0.9000000000000057
 31
0.0
210
0.0
220
0.0
230
1.0
 40
0.0174550649
 41
4.71238898038469
 42
6.13975485416113
  0
LINE
  5
F3
330
1F
100
AcDbEntity
  8
0
  6
Continuous
 62
     7
370
    25
100
AcDbLine
 10
180.7550318641
 20
109.1701512329
 30
0.0
 11
180.7550318641
 21
125.8218627537
 31
0.0
  0
ARC
  5
F4
330
1F
100
AcDbEntity
  8
0
  6
Continuous
 62
     7
370
    25
100
AcDbCircle
 10
85.6550318641
 20
109.1701512329
 30
0.0
 40
7.89067946654329
100
AcDbArc
 50
180.0
 51
270.0
  0
ARC
  5
F5
330
1F
100
AcDbEntity
  8
0
  6
Continuous
 62
     7
370
    25
100
AcDbCircle
 10
172.6550318641
 20
109.1701512329
 30
0.0
 40
8.099999999999994
100
AcDbArc
 50
270.0
 51
0.0
  0
ARC
  5
F6
330
1F
100
AcDbEntity
  8
0
  6
Continuous
 62
     7
370
    25
100
AcDbCircle
 10
172.6550318641
 20
196.1701512329
 30
0.0
 40
7.89067946654319
100
AcDbArc
 50
0.0
 51
90.0
  0
LINE
  5
F7
330
1F
100
AcDbEntity
  8
0
  6
Continuous
 62
     7
370
    25
100
AcDbLine
 10
156.0033203433
 20
101.0701512329
 30
0.0
 11
172.6550318641
 21
101.0701512329
 31
0.0
  0
ELLIPSE
  5
F8
330
1F
100
AcDbEntity
  8
0
  6
Continuous
 62
     7
370
    25
100
AcDbEllipse
 10
156.0033203433
 20
101.0858607913
 30
0.0
 11
0.9000000000000057
 21
0.0
 31
0.0
210
0.0
220
0.0
230
1.0
 40
0.0174550649
 41
3.28502310660967
 42
4.71238898038469
  0
ELLIPSE
  5
F9
330
1F
100
AcDbEntity
  8
0
  6
Continuous
 62
     7
370
    25
100
AcDbEllipse
 10
142.1550318641
 20
101.0509506615
 30
0.0
 11
13.0919653302677
 21
0.0
 31
0.0
210
0.0
220
0.0
230
1.0
 40
0.0174550649
 41
0.1434304530175229
 42
1.570796326794897
  0
LINE
  5
FA
330
1F
100
AcDbEntity
  8
0
  6
Continuous
 62
     7
370
    25
100
AcDbLine
 10
85.6550318641
 20
101.2794717663
 30
0.0
 11
142.1550318641
 21
101.2794717663
 31
0.0
  0
ARC
  5
FB
330
1F
100
AcDbEntity
  8
0
  6
Continuous
 62
     7
370
    25
100
AcDbCircle
 10
85.6550318641
 20
196.1701512329
 30
0.0
 40
8.100000000000009
100
AcDbArc
 50
90.0
 51
180.0
  0
LINE
  5
FC
330
1F
100
AcDbEntity
  8
0
  6
Continuous
 62
     7
370
    25
100
AcDbLine
 10
77.7643523976
 20
109.1701512329
 30
0.0
 11
77.7643523976
 21
165.6701512329
 31
0.0
  0
ELLIPSE
  5
FD
330
1F
100
AcDbEntity
  8
0
  6
Continuous
 62
     7
370
    25
100
AcDbEllipse
 10
77.5358312927
 20
165.6701512329
 30
0.0
 11
0.0
 21
13.09196533026773
 31
0.0
210
0.0
220
0.0
230
1.0
 40
0.0174550649
 41
4.71238898038469
 42
6.139754854163282
  0
ELLIPSE
  5
FE
330
1F
100
AcDbEntity
  8
0
  6
Continuous
 62
     7
370
    25
100
AcDbEllipse
 10
77.5707414225
 20
179.5184397121
 30
0.0
 11
0.0
 21
0.8999999999999773
 31
0.0
210
0.0
220
0.0
230
1.0
 40
0.0174550649
 41
1.570796326794897
 42
2.998162200570704
  0
LINE
  5
FF
330
1F
100
AcDbEntity
  8
0
  6
Continuous
 62
     7
370
    25
100
AcDbLine
 10
77.5550318641
 20
196.1701512329
 30
0.0
 11
77.5550318641
 21
179.5184397121
 31
0.0
  0
LINE
  5
100
330
1F
100
AcDbEntity
  8
0
  6
Continuous
 62
     7
370
    25
100
AcDbLine
 10
102.3067433849
 20
204.2701512329
 30
0.0
 11
85.6550318641
 21
204.2701512329
 31
0.0
  0
ELLIPSE
  5
101
330
1F
100
AcDbEntity
  8
0
  6
Continuous
 62
     7
370
    25
100
AcDbEllipse
 10
102.3067433849
 20
204.2544416744
 30
0.0
 11
0.9000000000000057
 21
0.0
 31
0.0
210
0.0
220
0.0
230
1.0
 40
0.0174550649
 41
0.1434304530192186
 42
1.570796326794897
  0
ELLIPSE
  5
102
330
1F
100
AcDbEntity
  8
0
  6
Continuous
 62
     7
370
    25
100
AcDbEllipse
 10
116.1550318641
 20
204.2893518043
 30
0.0
 11
13.09196533026771
 21
0.0
 31
0.0
210
0.0
220
0.0
230
1.0
 40
0.0174550649
 41
3.285023106608029
 42
4.71238898038469
  0
LINE
  5
103
330
1F
100
AcDbEntity
  8
0
  6
Continuous
 62
     7
370
    25
100
AcDbLine
 10
116.1550318641
 20
204.0608306994
 30
0.0
 11
172.6550318641
 21
204.0608306994
 31
0.0
  0
LINE
  5
104
330
1F
100
AcDbEntity
  8
0
  6
Continuous
 62
     7
370
    25
100
AcDbLine
 10
85.6899526336
 20
101.1701512329
 30
0.0
 11
85.6861350764
 21
101.2794717663
 31
0.0
  0
LINE
  5
105
330
1F
100
AcDbEntity
  8
0
  6
Continuous
 62
     7
370
    25
100
AcDbLine
 10
102.106468267
 20
101.2794717663
 30
0.0
 11
102.1026507099
 21
101.1701512329
 31
0.0
  0
LINE
  5
106
330
1F
100
AcDbEntity
  8
0
  6
Continuous
 62
     7
370
    25
100
AcDbLine
 10
102.1026507099
 20
101.1701512329
 30
0.0
 11
85.6899526336
 21
101.1701512329
 31
0.0
  0
LINE
  5
107
330
1F
100
AcDbEntity
  8
0
  6
Continuous
 62
     7
370
    25
100
AcDbLine
 10
172.6201110946
 20
204.1701512329
 30
0.0
 11
172.6239286518
 21
204.0608306994
 31
0.0
  0
LINE
  5
108
330
1F
100
AcDbEntity
  8
0
  6
Continuous
 62
     7
370
    25
100
AcDbLine
 10
156.2035954612
 20
204.0608306994
 30
0.0
 11
156.2074130183
 21
204.1701512329
 31
0.0
  0
LINE
  5
109
330
1F
100
AcDbEntity
  8
0
  6
Continuous
 62
     7
370
    25
100
AcDbLine
 10
156.2074130183
 20
204.1701512329
 30
0.0
 11
172.6201110946
 21
204.1701512329
 31
0.0
  0
LINE
  5
10A
330
1F
100
AcDbEntity
  8
0
  6
Continuous
 62
     7
370
    25
100
AcDbLine
 10
77.6550318641
 20
109.2050720024
 30
0.0
 11
77.7643523976
 21
109.2012544452
 31
0.0
  0
LINE
  5
10B
330
1F
100
AcDbEntity
  8
0
  6
Continuous
 62
     7
370
    25
100
AcDbLine
 10
77.6550318641
 20
109.2050720024
 30
0.0
 11
77.6550318641
 21
125.6177700786
 31
0.0
  0
LINE
  5
10C
330
1F
100
AcDbEntity
  8
0
  6
Continuous
 62
     7
370
    25
100
AcDbLine
 10
77.7643523976
 20
125.6215876358
 30
0.0
 11
77.6550318641
 21
125.6177700786
 31
0.0
  0
LINE
  5
10D
330
1F
100
AcDbEntity
  8
0
  6
Continuous
 62
     7
370
    25
100
AcDbLine
 10
180.5457113307
 20
179.71871483
 30
0.0
 11
180.6550318641
 21
179.7225323871
 31
0.0
  0
LINE
  5
10E
330
1F
100
AcDbEntity
  8
0
  6
Continuous
 62
     7
370
    25
100
AcDbLine
 10
180.6550318641
 20
196.1352304634
 30
0.0
 11
180.5457113307
 21
196.1390480205
 31
0.0
  0
LINE
  5
10F
330
1F
100
AcDbEntity
  8
0
  6
Continuous
 62
     7
370
    25
100
AcDbLine
 10
180.6550318641
 20
196.1352304634
 30
0.0
 11
180.6550318641
 21
179.7225323871
 31
0.0
  0
ARC
  5
110
330
1F
100
AcDbEntity
  8
0
  6
Continuous
 62
     7
370
    25
100
AcDbCircle
 10
172.6550318641
 20
196.1701512329
 30
0.0
 40
8.000000000000004
100
AcDbArc
 50
0.0
 51
45.0
  0
LINE
  5
111
330
1F
100
AcDbEntity
  8
0
  6
Continuous
 62
     7
370
    25
100
AcDbLine
 10
180.6550318641
 20
196.1701512329
 30
0.0
 11
180.6550318641
 21
196.1352304634
 31
0.0
  0
ARC
  5
112
330
1F
100
AcDbEntity
  8
0
  6
Continuous
 62
     7
370
    25
100
AcDbCircle
 10
172.6550318641
 20
196.1701512329
 30
0.0
 40
8.000000000000004
100
AcDbArc
 50
45.0
 51
90.0
  0
LINE
  5
113
330
1F
100
AcDbEntity
  8
0
  6
Continuous
 62
     7
370
    25
100
AcDbLine
 10
172.6550318641
 20
204.1701512329
 30
0.0
 11
172.6201110946
 21
204.1701512329
 31
0.0
  0
ARC
  5
114
330
1F
100
AcDbEntity
  8
0
  6
Continuous
 62
     7
370
    25
100
AcDbCircle
 10
85.6550318641
 20
109.1701512329
 30
0.0
 40
8.000000000000023
100
AcDbArc
 50
180.0
 51
225.0
  0
LINE
  5
115
330
1F
100
AcDbEntity
  8
0
  6
Continuous
 62
     7
370
    25
100
AcDbLine
 10
77.6550318641
 20
109.1701512329
 30
0.0
 11
77.6550318641
 21
109.2050720024
 31
0.0
  0
ARC
  5
116
330
1F
100
AcDbEntity
  8
0
  6
Continuous
 62
     7
370
    25
100
AcDbCircle
 10
85.6550318641
 20
109.1701512329
 30
0.0
 40
8.000000000000023
100
AcDbArc
 50
225.0
 51
270.0
  0
LINE
  5
117
330
1F
100
AcDbEntity
  8
0
  6
Continuous
 62
     7
370
    25
100
AcDbLine
 10
85.6550318641
 20
101.1701512329
 30
0.0
 11
85.6899526336
 21
101.1701512329
 31
0.0
  0
LINE
  5
118
330
1F
100
AcDbEntity
  8
0
  6
Continuous
 62
     7
370
    25
100
AcDbLine
 10
116.1550318641
 20
204.1701512329
 30
0.0
 11
104.9852347481
 21
204.1701512329
 31
0.0
  0
LINE
  5
119
330
1F
100
AcDbEntity
  8
0
  6
Continuous
 62
     7
370
    25
100
AcDbLine
 10
180.6550318641
 20
139.6701512329
 30
0.0
 11
180.6550318641
 21
128.5003541168
 31
0.0
  0
LINE
  5
11A
330
1F
100
AcDbEntity
  8
0
  6
Continuous
 62
     7
370
    25
100
AcDbLine
 10
77.6550318641
 20
165.6701512329
 30
0.0
 11
77.6550318641
 21
176.8399483489
 31
0.0
  0
LINE
  5
11B
330
1F
100
AcDbEntity
  8
0
  6
Continuous
 62
     7
370
    25
100
AcDbLine
 10
142.1550318641
 20
101.1701512329
 30
0.0
 11
153.3248289801
 21
101.1701512329
 31
0.0
  0
LINE
  5
11C
330
1F
100
AcDbEntity
  8
0
  6
Continuous
 62
     7
370
    25
100
AcDbLine
 10
102.1026507099
 20
101.1701512329
 30
0.0
 11
116.1550318641
 21
101.1701512329
 31
0.0
  0
LINE
  5
11D
330
1F
100
AcDbEntity
  8
0
  6
Continuous
 62
     7
370
    25
100
AcDbLine
 10
156.2074130183
 20
204.1701512329
 30
0.0
 11
142.1550318641
 21
204.1701512329
 31
0.0
  0
LINE
  5
11E
330
1F
100
AcDbEntity
  8
0
  6
Continuous
 62
     7
370
    25
100
AcDbLine
 10
180.6550318641
 20
179.7225323871
 30
0.0
 11
180.6550318641
 21
165.6701512329
 31
0.0
  0
LINE
  5
11F
330
1F
100
AcDbEntity
  8
0
  6
Continuous
 62
     7
370
    25
100
AcDbLine
 10
77.6550318641
 20
125.6177700786
 30
0.0
 11
77.6550318641
 21
139.6701512329
 31
0.0
  0
LINE
  5
120
330
1F
100
AcDbEntity
  8
0
  6
Continuous
 62
     7
370
    25
100
AcDbLine
 10
77.6550318641
 20
165.6701512329
 30
0.0
 11
77.6550318641
 21
139.6701512329
 31
0.0
  0
LINE
  5
121
330
1F
100
AcDbEntity
  8
0
  6
Continuous
 62
     7
370
    25
100
AcDbLine
 10
180.5457113307
 20
154.6904232826
 30
0.0
 11
180.6550318641
 21
154.750549576
 31
0.0
  0
LINE
  5
122
330
1F
100
AcDbEntity
  8
0
  6
Continuous
 62
     7
370
    25
100
AcDbLine
 10
180.6550318641
 20
149.4897528897
 30
0.0
 11
180.5457113307
 21
149.5498791831
 31
0.0
  0
LINE
  5
123
330
1F
100
AcDbEntity
  8
0
  6
Continuous
 62
     7
370
    25
100
AcDbLine
 10
180.6550318641
 20
139.6701512329
 30
0.0
 11
180.6550318641
 21
149.4897528897
 31
0.0
  0
LINE
  5
124
330
1F
100
AcDbEntity
  8
0
  6
Continuous
 62
     7
370
    25
100
AcDbLine
 10
180.6550318641
 20
154.750549576
 30
0.0
 11
180.6550318641
 21
165.6701512329
 31
0.0
  0
LINE
  5
125
330
1F
100
AcDbEntity
  8
0
  6
Continuous
 62
     7
370
    25
100
AcDbLine
 10
142.1550318641
 20
101.1701512329
 30
0.0
 11
116.1550318641
 21
101.1701512329
 31
0.0
  0
LINE
  5
126
330
1F
100
AcDbEntity
  8
0
  6
Continuous
 62
     7
370
    25
100
AcDbLine
 10
116.1550318641
 20
204.1701512329
 30
0.0
 11
142.1550318641
 21
204.1701512329
 31
0.0
  0
LINE
  5
127
330
1F
100
AcDbEntity
  8
0
  6
Continuous
 62
     7
370
    25
100
AcDbLine
 10
180.6550318641
 20
149.4897528897
 30
0.0
 11
180.6550318641
 21
154.750549576
 31
0.0
  0
ARC
  5
128
330
1F
100
AcDbEntity
  8
0
  6
Continuous
 62
     7
370
    25
100
AcDbCircle
 10
134.8707206389
 20
278.8449418137
 30
0.0
 40
1.0
100
AcDbArc
 50
90.0
 51
178.0
  0
ARC
  5
129
330
1F
100
AcDbEntity
  8
0
  6
Continuous
 62
     7
370
    25
100
AcDbCircle
 10
123.4393430893
 20
278.8449418137
 30
0.0
 40
1.000000000000001
100
AcDbArc
 50
2.0
 51
90.0
  0
LINE
  5
12A
330
1F
100
AcDbEntity
  8
0
  6
Continuous
 62
     7
370
    25
100
AcDbLine
 10
124.4387339163
 20
278.8798413104
 30
0.0
 11
124.4574130183
 21
278.3449418137
 31
0.0
  0
LINE
  5
12B
330
1F
100
AcDbEntity
  8
0
  6
Continuous
 62
     7
370
    25
100
AcDbLine
 10
133.8526507099
 20
278.3449418137
 30
0.0
 11
133.8713298119
 21
278.8798413104
 31
0.0
  0
ARC
  5
12C
330
1F
100
AcDbEntity
  8
0
  6
Continuous
 62
     7
370
    25
100
AcDbCircle
 10
165.3707206389
 20
278.8449418137
 30
0.0
 40
1.0
100
AcDbArc
 50
90.0
 51
178.0
  0
ARC
  5
12D
330
1F
100
AcDbEntity
  8
0
  6
Continuous
 62
     7
370
    25
100
AcDbCircle
 10
152.9393430893
 20
278.8449418137
 30
0.0
 40
1.000000000000015
100
AcDbArc
 50
2.0
 51
90.0
  0
LINE
  5
12E
330
1F
100
AcDbEntity
  8
0
  6
Continuous
 62
     7
370
    25
100
AcDbLine
 10
153.9387339163
 20
278.8798413104
 30
0.0
 11
153.9574130183
 21
278.3449418137
 31
0.0
  0
LINE
  5
12F
330
1F
100
AcDbEntity
  8
0
  6
Continuous
 62
     7
370
    25
100
AcDbLine
 10
164.3526507099
 20
278.3449418137
 30
0.0
 11
164.3713298119
 21
278.8798413104
 31
0.0
  0
LINE
  5
130
330
1F
100
AcDbEntity
  8
0
  6
Continuous
 62
     7
370
    25
100
AcDbLine
 10
156.0033203433
 20
299.9449418137
 30
0.0
 11
172.6550318641
 21
299.9449418137
 31
0.0
  0
ARC
  5
131
330
1F
100
AcDbEntity
  8
0
  6
Continuous
 62
     7
370
    25
100
AcDbCircle
 10
156.0033203433
 20
300.8449418137
 30
0.0
 40
0.9000000000000214
100
AcDbArc
 50
188.2179596115
 51
270.0
  0
ARC
  5
132
330
1F
100
AcDbEntity
  8
0
  6
Continuous
 62
     7
370
    25
100
AcDbCircle
 10
142.1550318641
 20
298.8449418137
 30
0.0
 40
13.09196533026778
100
AcDbArc
 50
8.2179596115
 51
90.0
  0
LINE
  5
133
330
1F
100
AcDbEntity
  8
0
  6
Continuous
 62
     7
370
    25
100
AcDbLine
 10
85.6550318641
 20
311.936907144
 30
0.0
 11
142.1550318641
 21
311.936907144
 31
0.0
  0
LINE
  5
134
330
1F
100
AcDbEntity
  8
0
  6
Continuous
 62
     7
370
    25
100
AcDbLine
 10
180.414231612
 20
319.4693751827
 30
0.0
 11
180.7550318641
 21
299.9449418137
 31
0.0
  0
LINE
  5
135
330
1F
100
AcDbEntity
  8
0
  6
Continuous
 62
     7
370
    25
100
AcDbLine
 10
172.6550318641
 20
299.9449418137
 30
0.0
 11
180.7550318641
 21
299.9449418137
 31
0.0
  0
LINE
  5
136
330
1F
100
AcDbEntity
  8
0
  6
Continuous
 62
     7
370
    25
100
AcDbLine
 10
77.8958321162
 20
319.4693751827
 30
0.0
 11
77.7643523976
 21
311.936907144
 31
0.0
  0
LINE
  5
137
330
1F
100
AcDbEntity
  8
0
  6
Continuous
 62
     7
370
    25
100
AcDbLine
 10
85.6550318641
 20
311.936907144
 30
0.0
 11
77.7643523976
 21
311.936907144
 31
0.0
  0
LINE
  5
138
330
1F
100
AcDbEntity
  8
0
  6
Continuous
 62
     7
370
    25
100
AcDbLine
 10
172.6550318641
 20
320.8449418137
 30
0.0
 11
179.0144448387
 21
320.8449418137
 31
0.0
  0
ARC
  5
139
330
1F
100
AcDbEntity
  8
0
  6
Continuous
 62
     7
370
    25
100
AcDbCircle
 10
179.0144448387
 20
319.4449418137
 30
0.0
 40
1.400000000000034
100
AcDbArc
 50
1.0
 51
90.0
  0
ARC
  5
13A
330
1F
100
AcDbEntity
  8
0
  6
Continuous
 62
     7
370
    25
100
AcDbCircle
 10
79.2956188895
 20
319.4449418137
 30
0.0
 40
1.400000000000034
100
AcDbArc
 50
90.0
 51
179.0
  0
LINE
  5
13B
330
1F
100
AcDbEntity
  8
0
  6
Continuous
 62
     7
370
    25
100
AcDbLine
 10
85.6550318641
 20
320.8449418137
 30
0.0
 11
79.2956188895
 21
320.8449418137
 31
0.0
  0
LINE
  5
13C
330
1F
100
AcDbEntity
  8
0
  6
Continuous
 62
     7
370
    25
100
AcDbLine
 10
85.6550318641
 20
320.8449418137
 30
0.0
 11
172.6550318641
 21
320.8449418137
 31
0.0
  0
LINE
  5
13D
330
1F
100
AcDbEntity
  8
0
  6
Continuous
 62
     7
370
    25
100
AcDbLine
 10
78.7643523976
 20
311.936907144
 30
0.0
 11
78.762507876
 21
311.831234574
 31
0.0
  0
LINE
  5
13E
330
1F
100
AcDbEntity
  8
0
  6
Continuous
 62
     7
370
    25
100
AcDbLine
 10
77.5684959112
 20
300.716296555
 30
0.0
 11
77.6550318641
 21
305.6739379768
 31
0.0
  0
LINE
  5
13F
330
1F
100
AcDbEntity
  8
0
  6
Continuous
 62
     7
370
    25
100
AcDbLine
 10
77.7618979599
 20
311.7962925058
 30
0.0
 11
77.7643523976
 21
311.936907144
 31
0.0
  0
LINE
  5
140
330
1F
100
AcDbEntity
  8
0
  6
Continuous
 62
     7
370
    25
100
AcDbLine
 10
77.6550318641
 20
299.9449418137
 30
0.0
 11
77.5550318641
 21
299.9449418137
 31
0.0
  0
LINE
  5
141
330
1F
100
AcDbEntity
  8
0
  6
Continuous
 62
     7
370
    25
100
AcDbLine
 10
77.5550318641
 20
299.9449418137
 30
0.0
 11
77.5684959112
 21
300.716296555
 31
0.0
  0
LINE
  5
142
330
1F
100
AcDbEntity
  8
0
  6
Continuous
 62
     7
370
    25
100
AcDbLine
 10
172.6201110946
 20
298.992557998
 30
0.0
 11
172.6201110946
 21
299.7925606595
 31
0.0
  0
LINE
  5
143
330
1F
100
AcDbEntity
  8
0
  6
Continuous
 62
     7
370
    25
100
AcDbLine
 10
172.6201110946
 20
299.7925606595
 30
0.0
 11
172.6550318641
 21
299.827481429
 31
0.0
  0
LINE
  5
144
330
1F
100
AcDbEntity
  8
0
  6
Continuous
 62
     7
370
    25
100
AcDbLine
 10
172.6550318641
 20
299.027481429
 30
0.0
 11
172.6550318641
 21
299.827481429
 31
0.0
  0
LINE
  5
145
330
1F
100
AcDbEntity
  8
0
  6
Continuous
 62
     7
370
    25
100
AcDbLine
 10
172.6550318641
 20
299.027481429
 30
0.0
 11
172.6201110946
 21
298.992557998
 31
0.0
  0
LINE
  5
146
330
1F
100
AcDbEntity
  8
0
  6
Continuous
 62
     7
370
    25
100
AcDbLine
 10
172.6201110946
 20
299.7925606595
 30
0.0
 11
156.1754253902
 21
299.7925606595
 31
0.0
  0
LINE
  5
147
330
1F
100
AcDbEntity
  8
0
  6
Continuous
 62
     7
370
    25
100
AcDbLine
 10
156.136383326
 20
299.8289457176
 30
0.0
 11
156.1754253902
 21
299.7925606595
 31
0.0
  0
LINE
  5
148
330
1F
100
AcDbEntity
  8
0
  6
Continuous
 62
     7
370
    25
100
AcDbLine
 10
85.6899526336
 20
311.7925606595
 30
0.0
 11
85.6899526336
 21
310.992557998
 31
0.0
  0
LINE
  5
149
330
1F
100
AcDbEntity
  8
0
  6
Continuous
 62
     7
370
    25
100
AcDbLine
 10
85.6550318641
 20
311.027481429
 30
0.0
 11
85.6899526336
 21
310.992557998
 31
0.0
  0
LINE
  5
14A
330
1F
100
AcDbEntity
  8
0
  6
Continuous
 62
     7
370
    25
100
AcDbLine
 10
85.6550318641
 20
311.027481429
 30
0.0
 11
85.6550318641
 21
311.827481429
 31
0.0
  0
LINE
  5
14B
330
1F
100
AcDbEntity
  8
0
  6
Continuous
 62
     7
370
    25
100
AcDbLine
 10
85.6899526336
 20
311.7925606595
 30
0.0
 11
85.6550318641
 21
311.827481429
 31
0.0
  0
LINE
  5
14C
330
1F
100
AcDbEntity
  8
0
  6
Continuous
 62
     7
370
    25
100
AcDbLine
 10
102.1463548399
 20
311.8362647895
 30
0.0
 11
102.1026507099
 21
311.7925606595
 31
0.0
  0
LINE
  5
14D
330
1F
100
AcDbEntity
  8
0
  6
Continuous
 62
     7
370
    25
100
AcDbLine
 10
102.1026507099
 20
311.7925606595
 30
0.0
 11
85.6899526336
 21
311.7925606595
 31
0.0
  0
ARC
  5
14E
330
1F
100
AcDbEntity
  8
0
  6
Continuous
 62
     7
370
    25
100
AcDbCircle
 10
142.1550318641
 20
298.8449418137
 30
0.0
 40
14.05238115423759
100
AcDbArc
 50
270.0
 51
3.8666610699
  0
LINE
  5
14F
330
1F
100
AcDbEntity
  8
0
  6
Continuous
 62
     7
370
    25
100
AcDbLine
 10
172.6550318641
 20
298.9925606595
 30
0.0
 11
172.6201110946
 21
298.992557998
 31
0.0
  0
LINE
  5
150
330
1F
100
AcDbEntity
  8
0
  6
Continuous
 62
     7
370
    25
100
AcDbLine
 10
85.6550318641
 20
310.9925606595
 30
0.0
 11
85.6899526336
 21
310.992557998
 31
0.0
  0
LINE
  5
151
330
1F
100
AcDbEntity
  8
0
  6
Continuous
 62
     7
370
    25
100
AcDbLine
 10
102.1026507099
 20
311.7925606595
 30
0.0
 11
102.1026507099
 21
298.8449418137
 31
0.0
  0
ARC
  5
152
330
1F
100
AcDbEntity
  8
0
  6
Continuous
 62
     7
370
    25
100
AcDbCircle
 10
116.1550318641
 20
298.8449418137
 30
0.0
 40
14.05238115423761
100
AcDbArc
 50
180.0
 51
270.0
  0
LINE
  5
153
330
1F
100
AcDbEntity
  8
0
  6
Continuous
 62
     7
370
    25
100
AcDbLine
 10
142.1550318641
 20
284.7925606595
 30
0.0
 11
116.1550318641
 21
284.7925606595
 31
0.0
  0
LINE
  5
154
330
1F
100
AcDbEntity
  8
0
  6
Continuous
 62
     7
370
    25
100
AcDbLine
 10
178.3118861136
 20
298.9925606595
 30
0.0
 11
172.6550318641
 21
298.9925606595
 31
0.0
  0
LINE
  5
155
330
1F
100
AcDbEntity
  8
0
  6
Continuous
 62
     7
370
    25
100
AcDbLine
 10
177.6047793324
 20
299.027481429
 30
0.0
 11
172.6550318641
 21
299.027481429
 31
0.0
  0
LINE
  5
156
330
1F
100
AcDbEntity
  8
0
  6
Continuous
 62
     7
370
    25
100
AcDbLine
 10
85.6550318641
 20
310.9925606595
 30
0.0
 11
79.9981776146
 21
310.9925606595
 31
0.0
  0
LINE
  5
157
330
1F
100
AcDbEntity
  8
0
  6
Continuous
 62
     7
370
    25
100
AcDbLine
 10
85.6550318641
 20
311.027481429
 30
0.0
 11
80.7052843958
 21
311.027481429
 31
0.0
  0
ARC
  5
158
330
1F
100
AcDbEntity
  8
0
  6
Continuous
 62
     7
370
    25
100
AcDbCircle
 10
116.1550318641
 20
298.8449418137
 30
0.0
 40
15.483148973894
100
AcDbArc
 50
180.0
 51
270.0
  0
ARC
  5
159
330
1F
100
AcDbEntity
  8
0
  6
Continuous
 62
     7
370
    25
100
AcDbCircle
 10
142.1550318641
 20
298.8449418137
 30
0.0
 40
15.48314897389398
100
AcDbArc
 50
270.0
 51
354.8394950273
  0
LINE
  5
15A
330
1F
100
AcDbEntity
  8
0
  6
Continuous
 62
     7
370
    25
100
AcDbLine
 10
172.6550318641
 20
297.5617928398
 30
0.0
 11
177.592440497
 21
297.5617928398
 31
0.0
  0
LINE
  5
15B
330
1F
100
AcDbEntity
  8
0
  6
Continuous
 62
     7
370
    25
100
AcDbLine
 10
80.7176232312
 20
309.5617928398
 30
0.0
 11
85.6550318641
 21
309.5617928398
 31
0.0
  0
SPLINE
  5
15C
330
1F
100
AcDbEntity
  8
0
  6
Continuous
 62
     7
370
    25
100
AcDbSpline
210
0.0
220
0.0
230
1.0
 70
     8
 71
     3
 72
    16
 73
    12
 74
     0
 42
0.00000001
 43
0.00000001
 40
0.0
 40
0.0
 40
0.0
 40
0.0
 40
0.25
 40
0.25
 40
0.375
 40
0.375
 40
0.5
 40
0.5
 40
0.75
 40
0.75
 40
1.0
 40
1.0
 40
1.0
 40
1.0
 10
172.655031864107
 20
299.8274814289827
 30
0.0
 10
173.1174324147857
 20
299.8265371931061
 30
0.0
 10
173.5721078009412
 20
299.8271906422913
 30
0.0
 10
174.2430066502642
 20
299.8273882938486
 30
0.0
 10
174.464773456521
 20
299.8273053704414
 30
0.0
 10
174.9044896836369
 20
299.8272676802822
 30
0.0
 10
175.1230357134281
 20
299.8272609794847
 30
0.0
 10
175.7587634789683
 20
299.8272701365289
 30
0.0
 10
176.160791479669
 20
299.8273033948244
 30
0.0
 10
176.9216572099479
 20
299.8274142105542
 30
0.0
 10
177.2819110517185
 20
299.8274720438928
 30
0.0
 10
177.6047793324019
 20
299.8274720432643
 30
0.0
  0
SPLINE
  5
15D
330
1F
100
AcDbEntity
  8
0
  6
Continuous
 62
     7
370
    25
100
AcDbSpline
210
0.0
220
0.0
230
1.0
 70
     8
 71
     3
 72
    16
 73
    12
 74
     0
 42
0.00000001
 43
0.00000001
 40
0.0
 40
0.0
 40
0.0
 40
0.0
 40
0.2500000000000023
 40
0.2500000000000023
 40
0.3750000000000019
 40
0.3750000000000019
 40
0.5000000000000016
 40
0.5000000000000016
 40
0.7500000000000008
 40
0.7500000000000008
 40
1.0
 40
1.0
 40
1.0
 40
1.0
 10
80.70528439579019
 20
311.8274719698162
 30
0.0
 10
81.02785803283
 20
311.8274719735869
 30
0.0
 10
81.37984896001146
 20
311.8274156843505
 30
0.0
 10
81.95300952776176
 20
311.8273319214692
 30
0.0
 10
82.1516093456667
 20
311.8273082385903
 30
0.0
 10
82.55525360308464
 20
311.8272771387547
 30
0.0
 10
82.76135566476631
 20
311.8272672566762
 30
0.0
 10
83.39230611648027
 20
311.8272579110668
 30
0.0
 10
83.83221275485494
 20
311.8274525240988
 30
0.0
 10
84.73610805251458
 20
311.8271960746372
 30
0.0
 10
85.19305323954981
 20
311.8265378564861
 30
0.0
 10
85.65503186410696
 20
311.8274814289827
 30
0.0
  0
LINE
  5
15E
330
1F
100
AcDbEntity
  8
0
  6
Continuous
 62
     7
370
    25
100
AcDbLine
 10
79.1550318641
 20
278.3449418137
 30
0.0
 11
85.6550318641
 21
278.3449418137
 31
0.0
  0
LINE
  5
15F
330
1F
100
AcDbEntity
  8
0
  6
Continuous
 62
     7
370
    25
100
AcDbLine
 10
79.1550318641
 20
309.0620974263
 30
0.0
 11
79.1550318641
 21
278.3449418137
 31
0.0
  0
LINE
  5
160
330
1F
100
AcDbEntity
  8
0
  6
Continuous
 62
     7
370
    25
100
AcDbLine
 10
171.6550318641
 20
278.3449418137
 30
0.0
 11
172.6550318641
 21
278.3449418137
 31
0.0
  0
LINE
  5
161
330
1F
100
AcDbEntity
  8
0
  6
Continuous
 62
     7
370
    25
100
AcDbLine
 10
85.6550318641
 20
278.3449418137
 30
0.0
 11
86.6550318641
 21
278.3449418137
 31
0.0
  0
LINE
  5
162
330
1F
100
AcDbEntity
  8
0
  6
Continuous
 62
     7
370
    25
100
AcDbLine
 10
89.0737091886
 20
279.8449418137
 30
0.0
 11
169.2363545396
 21
279.8449418137
 31
0.0
  0
ARC
  5
163
330
1F
100
AcDbEntity
  8
0
  6
Continuous
 62
     7
370
    25
100
AcDbCircle
 10
89.0737091886
 20
277.1449418137
 30
0.0
 40
2.700000000000045
100
AcDbArc
 50
90.0
 51
153.6122000388
  0
ARC
  5
164
330
1F
100
AcDbEntity
  8
0
  6
Continuous
 62
     7
370
    25
100
AcDbCircle
 10
169.2363545396
 20
277.1449418137
 30
0.0
 40
2.700000000000045
100
AcDbArc
 50
26.3877999612
 51
90.0
  0
LINE
  5
165
330
1F
100
AcDbEntity
  8
0
  6
Continuous
 62
     7
370
    25
100
AcDbLine
 10
172.6550318641
 20
278.3449418137
 30
0.0
 11
177.2512259418
 21
278.3449418137
 31
0.0
  0
LINE
  5
166
330
1F
100
AcDbEntity
  8
0
  6
Continuous
 62
     7
370
    25
100
AcDbLine
 10
180.6550318641
 20
298.9925606595
 30
0.0
 11
178.3118861136
 21
298.9925606595
 31
0.0
  0
LINE
  5
167
330
1F
100
AcDbEntity
  8
0
  6
Continuous
 62
     7
370
    25
100
AcDbLine
 10
179.6550318641
 20
299.027481429
 30
0.0
 11
177.6047793324
 21
299.027481429
 31
0.0
  0
LINE
  5
168
330
1F
100
AcDbEntity
  8
0
  6
Continuous
 62
     7
370
    25
100
AcDbLine
 10
179.6550318641
 20
299.027481429
 30
0.0
 11
180.6550318641
 21
298.992557998
 31
0.0
  0
LINE
  5
169
330
1F
100
AcDbEntity
  8
0
  6
Continuous
 62
     7
370
    25
100
AcDbLine
 10
180.6550318641
 20
298.9925606595
 30
0.0
 11
180.6550318641
 21
298.0801673554
 31
0.0
  0
ARC
  5
16A
330
1F
100
AcDbEntity
  8
0
  6
Continuous
 62
     7
370
    25
100
AcDbCircle
 10
180.1550318641
 20
298.0801673554
 30
0.0
 40
0.500000000000036
100
AcDbArc
 50
272.0
 51
0.0
  0
LINE
  5
16B
330
1F
100
AcDbEntity
  8
0
  6
Continuous
 62
     7
370
    25
100
AcDbLine
 10
79.9981776146
 20
310.9925606595
 30
0.0
 11
77.6550318641
 21
310.9925606595
 31
0.0
  0
LINE
  5
16C
330
1F
100
AcDbEntity
  8
0
  6
Continuous
 62
     7
370
    25
100
AcDbLine
 10
78.6550318641
 20
311.027481429
 30
0.0
 11
77.6550318641
 21
310.992557998
 31
0.0
  0
LINE
  5
16D
330
1F
100
AcDbEntity
  8
0
  6
Continuous
 62
     7
370
    25
100
AcDbLine
 10
80.7052843958
 20
311.027481429
 30
0.0
 11
78.6550318641
 21
311.027481429
 31
0.0
  0
LINE
  5
16E
330
1F
100
AcDbEntity
  8
0
  6
Continuous
 62
     7
370
    25
100
AcDbLine
 10
77.6550318641
 20
310.0801673554
 30
0.0
 11
77.6550318641
 21
310.9925606595
 31
0.0
  0
ARC
  5
16F
330
1F
100
AcDbEntity
  8
0
  6
Continuous
 62
     7
370
    25
100
AcDbCircle
 10
78.1550318641
 20
310.0801673554
 30
0.0
 40
0.5
100
AcDbArc
 50
180.0
 51
268.0
  0
LINE
  5
170
330
1F
100
AcDbEntity
  8
0
  6
Continuous
 62
     7
370
    25
100
AcDbLine
 10
180.1724816125
 20
297.5804719419
 30
0.0
 11
179.6375821158
 21
297.5617928398
 31
0.0
  0
LINE
  5
171
330
1F
100
AcDbEntity
  8
0
  6
Continuous
 62
     7
370
    25
100
AcDbLine
 10
177.592440497
 20
297.5617928398
 30
0.0
 11
179.6375821158
 21
297.5617928398
 31
0.0
  0
LINE
  5
172
330
1F
100
AcDbEntity
  8
0
  6
Continuous
 62
     7
370
    25
100
AcDbLine
 10
78.6724816125
 20
309.5617928398
 30
0.0
 11
80.7176232312
 21
309.5617928398
 31
0.0
  0
LINE
  5
173
330
1F
100
AcDbEntity
  8
0
  6
Continuous
 62
     7
370
    25
100
AcDbLine
 10
78.1375821158
 20
309.5804719419
 30
0.0
 11
78.6724816125
 21
309.5617928398
 31
0.0
  0
LINE
  5
174
330
1F
100
AcDbEntity
  8
0
  6
Continuous
 62
     7
370
    25
100
AcDbLine
 10
179.6550318641
 20
299.027481429
 30
0.0
 11
179.6550318641
 21
299.827481429
 31
0.0
  0
SPLINE
  5
175
330
1F
100
AcDbEntity
  8
0
  6
Continuous
 62
     7
370
    25
100
AcDbSpline
210
0.0
220
0.0
230
1.0
 70
     8
 71
     3
 72
    16
 73
    12
 74
     0
 42
0.00000001
 43
0.00000001
 40
0.0
 40
0.0
 40
0.0
 40
0.0
 40
0.2499999999999977
 40
0.2499999999999977
 40
0.3749999999999981
 40
0.3749999999999981
 40
0.4999999999999984
 40
0.4999999999999984
 40
0.7499999999999992
 40
0.7499999999999992
 40
1.0
 40
1.0
 40
1.0
 40
1.0
 10
177.6047793324019
 20
299.8274720432643
 30
0.0
 10
177.9273530101985
 20
299.8274720426363
 30
0.0
 10
178.2168842051069
 20
299.8274156838509
 30
0.0
 10
178.60043992346
 20
299.8273319070735
 30
0.0
 10
178.7195529538587
 20
299.8273082294181
 30
0.0
 10
178.9354586599154
 20
299.8272771404709
 30
0.0
 10
179.0330010536223
 20
299.8272672549711
 30
0.0
 10
179.294872486754
 20
299.8272578976267
 30
0.0
 10
179.4292279517782
 20
299.8274525511636
 30
0.0
 10
179.6097412008174
 20
299.8271960386172
 30
0.0
 10
179.655031864107
 20
299.8265375974752
 30
0.0
 10
179.655031864107
 20
299.8274814289827
 30
0.0
  0
LINE
  5
176
330
1F
100
AcDbEntity
  8
0
  6
Continuous
 62
     7
370
    25
100
AcDbLine
 10
78.6550318641
 20
311.027481429
 30
0.0
 11
78.6550318641
 21
311.827481429
 31
0.0
  0
SPLINE
  5
177
330
1F
100
AcDbEntity
  8
0
  6
Continuous
 62
     7
370
    25
100
AcDbSpline
210
0.0
220
0.0
230
1.0
 70
     8
 71
     3
 72
    16
 73
    12
 74
     0
 42
0.00000001
 43
0.00000001
 40
0.0
 40
0.0
 40
0.0
 40
0.0
 40
0.2499999999999965
 40
0.2499999999999965
 40
0.3749999999999966
 40
0.3749999999999966
 40
0.4999999999999968
 40
0.4999999999999968
 40
0.7499999999999983
 40
0.7499999999999983
 40
1.0
 40
1.0
 40
1.0
 40
1.0
 10
78.65503186410696
 20
311.8274814289827
 30
0.0
 10
78.65503186410696
 20
311.8265366661863
 30
0.0
 10
78.700399012637
 20
311.8271903887014
 30
0.0
 10
78.83371803960964
 20
311.8273883516213
 30
0.0
 10
78.88911663171882
 20
311.8273053768473
 30
0.0
 10
79.0223316294312
 20
311.8272677135471
 30
0.0
 10
79.10052398842312
 20
311.8272610094702
 30
0.0
 10
79.36398103799613
 20
311.8272701254872
 30
0.0
 10
79.57894263374958
 20
311.827303418126
 30
0.0
 10
80.08680790037624
 20
311.827414206871
 30
0.0
 10
80.38241616994704
 20
311.8274719660421
 30
0.0
 10
80.70528439579019
 20
311.8274719698162
 30
0.0
  0
LINE
  5
178
330
1F
100
AcDbEntity
  8
0
  6
Continuous
 62
     7
370
    25
100
AcDbLine
 10
78.993342741
 20
311.8392955051
 30
0.0
 11
78.6550318641
 21
311.827481429
 31
0.0
  0
ARC
  5
179
330
1F
100
AcDbEntity
  8
0
  6
Continuous
 62
     7
370
    25
100
AcDbCircle
 10
179.6550318641
 20
297.0620974263
 30
0.0
 40
0.50000000000004
100
AcDbArc
 50
92.0
 51
180.0
  0
ARC
  5
17A
330
1F
100
AcDbEntity
  8
0
  6
Continuous
 62
     7
370
    25
100
AcDbCircle
 10
78.6550318641
 20
309.0620974263
 30
0.0
 40
0.500000000000035
100
AcDbArc
 50
0.0
 51
88.0
  0
LINE
  5
17B
330
1F
100
AcDbEntity
  8
0
  6
Continuous
 62
     7
370
    25
100
AcDbLine
 10
179.1550318641
 20
297.0620974263
 30
0.0
 11
179.1550318641
 21
278.3449418137
 31
0.0
  0
LINE
  5
17C
330
1F
100
AcDbEntity
  8
0
  6
Continuous
 62
     7
370
    25
100
AcDbLine
 10
177.2512259418
 20
278.3449418137
 30
0.0
 11
179.1550318641
 21
278.3449418137
 31
0.0
  0
LINE
  5
17D
330
1F
100
AcDbEntity
  8
0
  6
Continuous
 62
     7
370
    25
100
AcDbLine
 10
180.6550318641
 20
299.7925606595
 30
0.0
 11
180.6550318641
 21
298.992557998
 31
0.0
  0
LINE
  5
17E
330
1F
100
AcDbEntity
  8
0
  6
Continuous
 62
     7
370
    25
100
AcDbLine
 10
180.6550318641
 20
299.7925606595
 30
0.0
 11
179.6550318641
 21
299.827481429
 31
0.0
  0
LINE
  5
17F
330
1F
100
AcDbEntity
  8
0
  6
Continuous
 62
     7
370
    25
100
AcDbLine
 10
77.6550318641
 20
310.992557998
 30
0.0
 11
77.6550318641
 21
311.7925606595
 31
0.0
  0
LINE
  5
180
330
1F
100
AcDbEntity
  8
0
  6
Continuous
 62
     7
370
    25
100
AcDbLine
 10
77.6550318641
 20
311.7925606595
 30
0.0
 11
78.6550318641
 21
311.827481429
 31
0.0
  0
LINE
  5
181
330
1F
100
AcDbEntity
  8
0
  6
Continuous
 62
     7
370
    25
100
AcDbLine
 10
180.6550318641
 20
297.9014850199
 30
0.0
 11
180.6550318641
 21
297.5143702304
 31
0.0
  0
LINE
  5
182
330
1F
100
AcDbEntity
  8
0
  6
Continuous
 62
     7
370
    25
100
AcDbLine
 10
77.6550318641
 20
309.3810811148
 30
0.0
 11
77.6550318641
 21
310.0801673554
 31
0.0
  0
ARC
  5
183
330
1F
100
AcDbEntity
  8
0
  6
Continuous
 62
     7
370
    25
100
AcDbCircle
 10
78.6550318641
 20
282.8620974263
 30
0.0
 40
0.500000000000039
100
AcDbArc
 50
0.0
 51
88.0
  0
ARC
  5
184
330
1F
100
AcDbEntity
  8
0
  6
Continuous
 62
     7
370
    25
100
AcDbCircle
 10
179.6550318641
 20
282.8620974263
 30
0.0
 40
0.50000000000004
100
AcDbArc
 50
92.0
 51
180.0
  0
LINE
  5
185
330
1F
100
AcDbEntity
  8
0
  6
Continuous
 62
     7
370
    25
100
AcDbLine
 10
78.6724816125
 20
283.3617928398
 30
0.0
 11
78.1375821158
 21
283.3804719419
 31
0.0
  0
ARC
  5
186
330
1F
100
AcDbEntity
  8
0
  6
Continuous
 62
     7
370
    25
100
AcDbCircle
 10
78.1550318641
 20
283.8801673554
 30
0.0
 40
0.500000000000039
100
AcDbArc
 50
180.0
 51
268.0
  0
LINE
  5
187
330
1F
100
AcDbEntity
  8
0
  6
Continuous
 62
     7
370
    25
100
AcDbLine
 10
77.6550318641
 20
283.8801673554
 30
0.0
 11
77.6550318641
 21
298.8449418137
 31
0.0
  0
LINE
  5
188
330
1F
100
AcDbEntity
  8
0
  6
Continuous
 62
     7
370
    25
100
AcDbLine
 10
77.6550318641
 20
298.8449418137
 30
0.0
 11
77.6550318641
 21
309.3810811148
 31
0.0
  0
LINE
  5
189
330
1F
100
AcDbEntity
  8
0
  6
Continuous
 62
     7
370
    25
100
AcDbLine
 10
179.6375821158
 20
283.3617928398
 30
0.0
 11
180.1724816125
 21
283.3804719419
 31
0.0
  0
ARC
  5
18A
330
1F
100
AcDbEntity
  8
0
  6
Continuous
 62
     7
370
    25
100
AcDbCircle
 10
180.1550318641
 20
283.8801673554
 30
0.0
 40
0.500000000000039
100
AcDbArc
 50
272.0
 51
0.0
  0
LINE
  5
18B
330
1F
100
AcDbEntity
  8
0
  6
Continuous
 62
     7
370
    25
100
AcDbLine
 10
180.6550318641
 20
297.5143702304
 30
0.0
 11
180.6550318641
 21
283.8801673554
 31
0.0
  0
LINE
  5
18C
330
1F
100
AcDbEntity
  8
0
  6
Continuous
 62
     7
370
    25
100
AcDbLine
 10
103.5118021413
 20
279.8335677627
 30
0.0
 11
103.6209206389
 21
279.8449415993
 31
0.0
  0
ARC
  5
18D
330
1F
100
AcDbEntity
  8
0
  6
Continuous
 62
     7
370
    25
100
AcDbCircle
 10
94.6893430893
 20
278.8449418137
 30
0.0
 40
1.000000000000015
100
AcDbArc
 50
2.0
 51
90.0
  0
SPLINE
  5
18E
330
1F
100
AcDbEntity
  8
0
  6
Continuous
 62
     7
370
    25
100
AcDbSpline
210
0.0
220
0.0
230
1.0
 70
     8
 71
     3
 72
    17
 73
    13
 74
     0
 42
0.00000001
 43
0.00000001
 40
0.0
 40
0.0
 40
0.0
 40
0.0
 40
0.0633018717968257
 40
0.125671331388298
 40
0.18772426699407
 40
0.2500859455768926
 40
0.3764325202065315
 40
0.4999532514225751
 40
0.5996092093824957
 40
0.7018279126928919
 40
0.8496819405600343
 40
1.0
 40
1.0
 40
1.0
 40
1.0
 10
102.426364760961
 20
278.879841310431
 30
0.0
 10
102.4285702668041
 20
278.912394303516
 30
0.0
 10
102.4329487922382
 20
278.9770207966279
 30
0.0
 10
102.451245253982
 20
279.072186580477
 30
0.0
 10
102.4780913492589
 20
279.1646815768717
 30
0.0
 10
102.5266995162127
 20
279.2844010315527
 30
0.0
 10
102.6070406776067
 20
279.4245393019767
 30
0.0
 10
102.7253192955576
 20
279.5608628320549
 30
0.0
 10
102.8553495485174
 20
279.6661238021319
 30
0.0
 10
103.0094995160432
 20
279.7572293292969
 30
0.0
 10
103.2031192031448
 20
279.8308844564818
 30
0.0
 10
103.3553590780731
 20
279.8402302839937
 30
0.0
 10
103.4321080547304
 20
279.8449418137286
 30
0.0
  0
LINE
  5
18F
330
1F
100
AcDbEntity
  8
0
  6
Continuous
 62
     7
370
    25
100
AcDbLine
 10
95.7074130183
 20
278.3449418137
 30
0.0
 11
95.6887339163
 21
278.8798413104
 31
0.0
  0
LINE
  5
190
330
1F
100
AcDbEntity
  8
0
  6
Continuous
 62
     7
370
    25
100
AcDbLine
 10
102.4044219345
 20
278.3449418137
 30
0.0
 11
95.7074130183
 21
278.3449418137
 31
0.0
  0
LWPOLYLINE
  5
191
330
1F
100
AcDbEntity
  8
0
  6
Continuous
 62
     7
370
    25
100
AcDbPolyline
 90
        3
 70
   128
 43
0.0
 10
102.426364761
 20
278.8798413104
 10
102.4140663827
 20
278.5798962259
 10
102.4044219345
 20
278.3449418137
  0
LINE
  5
192
330
1F
100
AcDbEntity
  8
0
  6
Continuous
 62
     7
370
    25
100
AcDbLine
 10
133.8526507099
 20
278.3449418137
 30
0.0
 11
124.4574130183
 21
278.3449418137
 31
0.0
  0
LINE
  5
193
330
1F
100
AcDbEntity
  8
0
  6
Continuous
 62
     7
370
    25
100
AcDbLine
 10
158.5375767992
 20
279.8449418137
 30
0.0
 11
158.5207309072
 21
278.8798413104
 31
0.0
  0
LINE
  5
194
330
1F
100
AcDbEntity
  8
0
  6
Continuous
 62
     7
370
    25
100
AcDbLine
 10
159.789332821
 20
278.8798413104
 30
0.0
 11
159.772486929
 21
279.8449418137
 31
0.0
  0
LINE
  5
195
330
1F
100
AcDbEntity
  8
0
  6
Continuous
 62
     7
370
    25
100
AcDbLine
 10
158.5113942018
 20
278.3449418137
 30
0.0
 11
157.4050318641
 21
278.3449418137
 31
0.0
  0
LINE
  5
196
330
1F
100
AcDbEntity
  8
0
  6
Continuous
 62
     7
370
    25
100
AcDbLine
 10
158.5207309072
 20
278.8798413104
 30
0.0
 11
158.5113942018
 21
278.3449418137
 31
0.0
  0
LINE
  5
197
330
1F
100
AcDbEntity
  8
0
  6
Continuous
 62
     7
370
    25
100
AcDbLine
 10
160.9050318641
 20
278.3449418137
 30
0.0
 11
159.7986695264
 21
278.3449418137
 31
0.0
  0
LINE
  5
198
330
1F
100
AcDbEntity
  8
0
  6
Continuous
 62
     7
370
    25
100
AcDbLine
 10
159.7986695264
 20
278.3449418137
 30
0.0
 11
159.789332821
 21
278.8798413104
 31
0.0
  0
LINE
  5
199
330
1F
100
AcDbEntity
  8
0
  6
Continuous
 62
     7
370
    25
100
AcDbLine
 10
157.4050318641
 20
278.3449418137
 30
0.0
 11
153.9574130183
 21
278.3449418137
 31
0.0
  0
LINE
  5
19A
330
1F
100
AcDbEntity
  8
0
  6
Continuous
 62
     7
370
    25
100
AcDbLine
 10
164.3526507099
 20
278.3449418137
 30
0.0
 11
160.9050318641
 21
278.3449418137
 31
0.0
  0
LINE
  5
19B
330
1F
100
AcDbEntity
  8
0
  6
Continuous
 62
     7
370
    25
100
AcDbLine
 10
180.5481657683
 20
311.7962925058
 30
0.0
 11
180.6550318641
 21
311.7925606595
 31
0.0
  0
LINE
  5
19C
330
1F
100
AcDbEntity
  8
0
  6
Continuous
 62
     7
370
    25
100
AcDbLine
 10
180.6550318641
 20
311.7925606595
 30
0.0
 11
180.6550318641
 21
305.6739379768
 31
0.0
  0
LINE
  5
19D
330
1F
100
AcDbEntity
  8
0
  6
Continuous
 62
     7
370
    25
100
AcDbLine
 10
180.6550318641
 20
299.9449418137
 30
0.0
 11
180.6550318641
 21
299.7925606595
 31
0.0
  0
LINE
  5
19E
330
1F
100
AcDbEntity
  8
0
  6
Continuous
 62
     7
370
    25
100
AcDbLine
 10
142.1550318641
 20
311.8170051981
 30
0.0
 11
102.1270952485
 21
311.8170051981
 31
0.0
  0
ARC
  5
19F
330
1F
100
AcDbEntity
  8
0
  6
Continuous
 62
     7
370
    25
100
AcDbCircle
 10
142.1550318641
 20
298.8449418137
 30
0.0
 40
12.97206387413116
100
AcDbArc
 50
8.1118432623
 51
90.0
  0
ELLIPSE
  5
1A0
330
1F
100
AcDbEntity
  8
0
  6
Continuous
 62
     7
370
    25
100
AcDbEllipse
 10
155.987751637
 20
300.8176134252
 30
0.0
 11
-0.6557771526978513
 21
-0.7563668690592635
 31
0.0
210
0.0
220
0.0
230
1.0
 40
0.9989331405
 41
5.568780872931911
 42
6.996943736743895
  0
LINE
  5
1A1
330
1F
100
AcDbEntity
  8
0
  6
Continuous
 62
     7
370
    25
100
AcDbLine
 10
156.149248472
 20
299.8170051981
 30
0.0
 11
155.9866948543
 21
299.8170050514
 31
0.0
  0
ARC
  5
1A2
330
1F
100
AcDbEntity
  8
0
  6
Continuous
 62
     7
370
    25
100
AcDbCircle
 10
142.1550318641
 20
298.8449418137
 30
0.0
 40
14.02793661559343
100
AcDbArc
 50
270.0
 51
3.9734851973
  0
LINE
  5
1A3
330
1F
100
AcDbEntity
  8
0
  6
Continuous
 62
     7
370
    25
100
AcDbLine
 10
116.1550318641
 20
284.8170051981
 30
0.0
 11
142.1550318641
 21
284.8170051981
 31
0.0
  0
LINE
  5
1A4
330
1F
100
AcDbEntity
  8
0
  6
Continuous
 62
     7
370
    25
100
AcDbLine
 10
102.1270952485
 20
311.8170051981
 30
0.0
 11
102.1270952485
 21
298.8449418137
 31
0.0
  0
ARC
  5
1A5
330
1F
100
AcDbEntity
  8
0
  6
Continuous
 62
     7
370
    25
100
AcDbCircle
 10
116.1550318641
 20
298.8449418137
 30
0.0
 40
14.02793661559338
100
AcDbArc
 50
180.213946185
 51
270.0
  0
ARC
  5
1A6
330
1F
100
AcDbEntity
  8
0
  6
Continuous
 62
     7
370
    25
100
AcDbCircle
 10
142.1550318641
 20
298.8528557767
 30
0.0
 40
12.9834090128233
100
AcDbArc
 50
8.1215789957
 51
90.0
  0
ELLIPSE
  5
1A7
330
1F
100
AcDbEntity
  8
0
  6
Continuous
 62
     7
370
    25
100
AcDbEllipse
 10
155.9986359298
 20
300.8301672607
 30
0.0
 11
0.5336272323284277
 21
0.847750642246808
 31
0.0
210
0.0
220
0.0
230
0.9999999999999996
 40
0.9982429556
 41
2.275214890167243
 42
3.702602784046697
  0
LINE
  5
1A8
330
1F
100
AcDbEntity
  8
0
  6
Continuous
 62
     7
370
    25
100
AcDbLine
 10
156.1364438283
 20
299.8289457967
 30
0.0
 11
155.9970503383
 21
299.8289470526
 31
0.0
  0
LINE
  5
1A9
330
1F
100
AcDbEntity
  8
0
  6
Continuous
 62
     7
370
    25
100
AcDbLine
 10
156.149248472
 20
299.8170051981
 30
0.0
 11
156.1364438283
 21
299.8289457967
 31
0.0
  0
LINE
  5
1AA
330
1F
100
AcDbEntity
  8
0
  6
Continuous
 62
     7
370
    25
100
AcDbLine
 10
142.1550318641
 20
311.8362647895
 30
0.0
 11
102.1463548399
 21
311.8362647895
 31
0.0
  0
LINE
  5
1AB
330
1F
100
AcDbEntity
  8
0
  6
Continuous
 62
     7
370
    25
100
AcDbLine
 10
102.1270952485
 20
311.8170051981
 30
0.0
 11
102.1463548399
 21
311.8362647895
 31
0.0
  0
LINE
  5
1AC
330
1F
100
AcDbEntity
  8
0
  6
Continuous
 62
     7
370
    25
100
AcDbLine
 10
172.6550318641
 20
299.8289457967
 30
0.0
 11
156.1364438283
 21
299.8289457967
 31
0.0
  0
LINE
  5
1AD
330
1F
100
AcDbEntity
  8
0
  6
Continuous
 62
     7
370
    25
100
AcDbLine
 10
85.6550318641
 20
311.8362647895
 30
0.0
 11
102.1463548399
 21
311.8362647895
 31
0.0
  0
LINE
  5
1AE
330
1F
100
AcDbEntity
  8
0
  6
Continuous
 62
     7
370
    25
100
AcDbLine
 10
179.6130978604
 20
299.8289457967
 30
0.0
 11
179.6110731424
 21
299.9449418137
 31
0.0
  0
LINE
  5
1AF
330
1F
100
AcDbEntity
  8
0
  6
Continuous
 62
     7
370
    25
100
AcDbLine
 10
172.6550318641
 20
299.8289457967
 30
0.0
 11
179.6130978604
 21
299.8289457967
 31
0.0
  0
LINE
  5
1B0
330
1F
100
AcDbEntity
  8
0
  6
Continuous
 62
     7
370
    25
100
AcDbLine
 10
78.9083111192
 20
311.936907144
 30
0.0
 11
78.9065544004
 21
311.8362647895
 31
0.0
  0
LINE
  5
1B1
330
1F
100
AcDbEntity
  8
0
  6
Continuous
 62
     7
370
    25
100
AcDbLine
 10
179.9550318641
 20
299.9449418137
 30
0.0
 11
179.9550318641
 21
299.8170051981
 31
0.0
  0
SPLINE
  5
1B2
330
1F
100
AcDbEntity
  8
0
  6
Continuous
 62
     7
370
    25
100
AcDbSpline
210
0.0
220
0.0
230
1.0
 70
     8
 71
     3
 72
    12
 73
     8
 74
     0
 42
0.00000001
 43
0.00000001
 40
0.0
 40
0.0
 40
0.0
 40
0.0
 40
0.25
 40
0.25
 40
0.5
 40
0.5
 40
1.0
 40
1.0
 40
1.0
 40
1.0
 10
103.4321080547305
 20
279.8449418137286
 30
0.0
 10
103.3035666485938
 20
279.8449418137286
 30
0.0
 10
103.1776127128912
 20
279.820354229371
 30
0.0
 10
102.9399237623135
 20
279.7248657009048
 30
0.0
 10
102.8307007143641
 20
279.654491950575
 30
0.0
 10
102.5526783505795
 20
279.3893871070905
 30
0.0
 10
102.4370172886252
 20
279.139808545914
 30
0.0
 10
102.4263647609609
 20
278.879841310431
 30
0.0
  0
LWPOLYLINE
  5
1B3
330
1F
100
AcDbEntity
  8
0
  6
Continuous
 62
     7
370
    25
100
AcDbPolyline
 90
        3
 70
   128
 43
0.0
 10
102.426364761
 20
278.8798413104
 10
102.4140663827
 20
278.5798962259
 10
102.4044219345
 20
278.3449418137
  0
LINE
  5
1B4
330
1F
100
AcDbEntity
  8
0
  6
Continuous
 62
     7
370
    25
100
AcDbLine
 10
159.7986695264
 20
278.3449418137
 30
0.0
 11
158.5113942018
 21
278.3449418137
 31
0.0
  0
ARC
  5
1B5
330
1F
100
AcDbEntity
  8
0
  6
Continuous
 62
     7
370
    25
100
AcDbCircle
 10
103.6207206389
 20
278.8449418137
 30
0.0
 40
1.000000000000015
100
AcDbArc
 50
113.7982923732
 51
178.0
  0
LINE
  5
1B6
330
1F
100
AcDbEntity
  8
0
  6
Continuous
 62
     7
370
    25
100
AcDbLine
 10
103.2172026119
 20
279.7599135083
 30
0.0
 11
103.283018769
 21
279.7763685243
 31
0.0
  0
SPLINE
  5
1B7
330
1F
100
AcDbEntity
  8
0
  6
Continuous
 62
     7
370
    25
100
AcDbSpline
210
0.0
220
0.0
230
1.0
 70
     8
 71
     3
 72
     9
 73
     5
 74
     0
 42
0.00000001
 43
0.00000001
 40
0.0
 40
0.0
 40
0.0
 40
0.0
 40
0.324439080439119
 40
1.0
 40
1.0
 40
1.0
 40
1.0
 10
103.5118021413426
 20
279.8335677626814
 30
0.0
 10
103.5232439050722
 20
279.8368372199828
 30
0.0
 10
103.5585101982518
 20
279.846914481011
 30
0.0
 10
103.5953676721533
 20
279.8457371634575
 30
0.0
 10
103.6202671411149
 20
279.8449418137286
 30
0.0
  0
LINE
  5
1B8
330
1F
100
AcDbEntity
  8
0
  6
Continuous
 62
     7
370
    25
100
AcDbLine
 10
102.6026507099
 20
278.3449418137
 30
0.0
 11
102.6213298119
 21
278.8798413104
 31
0.0
  0
LINE
  5
1B9
330
1F
100
AcDbEntity
  8
0
  6
Continuous
 62
     7
370
    25
100
AcDbLine
 10
102.6026507099
 20
278.3449418137
 30
0.0
 11
102.4044219345
 21
278.3449418137
 31
0.0
  0
LINE
  5
1BA
330
1F
100
AcDbEntity
  8
0
  6
Continuous
 62
     7
370
    25
100
AcDbLine
 10
142.1550318641
 20
283.3617928398
 30
0.0
 11
116.1550318641
 21
283.3617928398
 31
0.0
  0
SPLINE
  5
1BB
330
1F
100
AcDbEntity
  8
0
  6
Continuous
 62
     7
370
    25
100
AcDbSpline
210
0.0
220
0.0
230
1.0
 70
     8
 71
     3
 72
    12
 73
     8
 74
     0
 42
0.00000001
 43
0.00000001
 40
0.0
 40
0.0
 40
0.0
 40
0.0
 40
0.2499999999999987
 40
0.2499999999999987
 40
0.4999999999999974
 40
0.4999999999999974
 40
1.0
 40
1.0
 40
1.0
 40
1.0
 10
158.5707619431315
 20
298.3617928398345
 30
0.0
 10
158.4463786530395
 20
298.3617236598187
 30
0.0
 10
158.3246992179063
 20
298.3387773996787
 30
0.0
 10
158.0939445321663
 20
298.2491676858382
 30
0.0
 10
157.9879659279796
 20
298.1833169262502
 30
0.0
 10
157.7148541317525
 20
297.9338723780847
 30
0.0
 10
157.5979354114469
 20
297.7000393078503
 30
0.0
 10
157.5754220102112
 20
297.4522932975094
 30
0.0
  0
LINE
  5
1BC
330
1F
100
AcDbEntity
  8
0
  6
Continuous
 62
     7
370
    25
100
AcDbLine
 10
158.5707619431
 20
298.3617928398
 30
0.0
 11
170.6922599491
 21
298.3617928398
 31
0.0
  0
ARC
  5
1BD
330
1F
100
AcDbEntity
  8
0
  6
Continuous
 62
     7
370
    25
100
AcDbCircle
 10
170.6915315818
 20
297.8613546464
 30
0.0
 40
0.5004387235186982
100
AcDbArc
 50
11.5651660651
 51
89.9166083901
  0
ELLIPSE
  5
1BE
330
1F
100
AcDbEntity
  8
0
  6
Continuous
 62
     7
370
    25
100
AcDbEllipse
 10
171.672797021
 20
298.0627069706
 30
0.0
 11
0.3548455112283477
 21
0.3548455112284045
 31
0.0
210
0.0
220
0.0
230
0.9999999999999998
 40
0.9963586389
 41
2.557440836325828
 42
3.926381829401527
  0
LINE
  5
1BF
330
1F
100
AcDbEntity
  8
0
  6
Continuous
 62
     7
370
    25
100
AcDbLine
 10
171.6715783037
 20
297.5617928398
 30
0.0
 11
172.6550318641
 21
297.5617928398
 31
0.0
  0
LINE
  5
1C0
330
1F
100
AcDbEntity
  8
0
  6
Continuous
 62
     7
370
    25
100
AcDbLine
 10
100.6718828902
 20
298.8449418137
 30
0.0
 11
100.6718828902
 21
309.3624020128
 31
0.0
  0
ARC
  5
1C1
330
1F
100
AcDbEntity
  8
0
  6
Continuous
 62
     7
370
    25
100
AcDbCircle
 10
99.6718827046
 20
309.3617926542
 30
0.0
 40
1.000000371317872
100
AcDbArc
 50
0.0349136675
 51
89.9650863325
  0
LINE
  5
1C2
330
1F
100
AcDbEntity
  8
0
  6
Continuous
 62
     7
370
    25
100
AcDbLine
 10
87.6178037791
 20
310.3617928398
 30
0.0
 11
99.6724920632
 21
310.3617928398
 31
0.0
  0
ARC
  5
1C3
330
1F
100
AcDbEntity
  8
0
  6
Continuous
 62
     7
370
    25
100
AcDbCircle
 10
87.6185321465
 20
309.8613546464
 30
0.0
 40
0.5004387235186425
100
AcDbArc
 50
90.0833916099
 51
168.4348339349
  0
ELLIPSE
  5
1C4
330
1F
100
AcDbEntity
  8
0
  6
Continuous
 62
     7
370
    25
100
AcDbEllipse
 10
86.6372667072
 20
310.0627069706
 30
0.0
 11
0.3548455112283903
 21
-0.3548455112283477
 31
0.0
210
0.0
220
0.0
230
1.0
 40
0.9963586389
 41
5.498396131367655
 42
6.867337124443511
  0
LINE
  5
1C5
330
1F
100
AcDbEntity
  8
0
  6
Continuous
 62
     7
370
    25
100
AcDbLine
 10
85.6550318641
 20
309.5617928398
 30
0.0
 11
86.6384854245
 21
309.5617928398
 31
0.0
  0
ARC
  5
1C6
330
1F
100
AcDbEntity
  8
0
  6
Continuous
 62
     7
370
    25
100
AcDbCircle
 10
224.0728153504
 20
146.4544624581
 30
0.0
 40
1.0
100
AcDbArc
 50
360.0
 51
88.0
  0
ARC
  5
1C7
330
1F
100
AcDbEntity
  8
0
  6
Continuous
 62
     7
370
    25
100
AcDbCircle
 10
224.0728153504
 20
158.8858400077
 30
0.0
 40
1.000000000000016
100
AcDbArc
 50
272.0
 51
0.0
  0
LINE
  5
1C8
330
1F
100
AcDbEntity
  8
0
  6
Continuous
 62
     7
370
    25
100
AcDbLine
 10
223.5728153504
 20
147.4725323871
 30
0.0
 11
224.1077148471
 21
147.4538532851
 31
0.0
  0
LINE
  5
1C9
330
1F
100
AcDbEntity
  8
0
  6
Continuous
 62
     7
370
    25
100
AcDbLine
 10
224.1077148471
 20
157.8864491807
 30
0.0
 11
223.5728153504
 21
157.8677700786
 31
0.0
  0
LINE
  5
1CA
330
1F
100
AcDbEntity
  8
0
  6
Continuous
 62
     7
370
    25
100
AcDbLine
 10
245.1728153504
 20
204.2701512329
 30
0.0
 11
245.1728153504
 21
196.1701512329
 31
0.0
  0
LINE
  5
1CB
330
1F
100
AcDbEntity
  8
0
  6
Continuous
 62
     7
370
    25
100
AcDbLine
 10
264.6972487194
 20
203.9293509807
 30
0.0
 11
245.1728153504
 21
204.2701512329
 31
0.0
  0
LINE
  5
1CC
330
1F
100
AcDbEntity
  8
0
  6
Continuous
 62
     7
370
    25
100
AcDbLine
 10
257.1647806806
 20
109.1701512329
 30
0.0
 11
257.1647806806
 21
165.6701512329
 31
0.0
  0
ARC
  5
1CD
330
1F
100
AcDbEntity
  8
0
  6
Continuous
 62
     7
370
    25
100
AcDbCircle
 10
244.0728153504
 20
165.6701512329
 30
0.0
 40
13.09196533026771
100
AcDbArc
 50
0.0
 51
81.7820403885
  0
LINE
  5
1CE
330
1F
100
AcDbEntity
  8
0
  6
Continuous
 62
     7
370
    25
100
AcDbLine
 10
245.1728153504
 20
196.1701512329
 30
0.0
 11
245.1728153504
 21
179.5184397121
 31
0.0
  0
ARC
  5
1CF
330
1F
100
AcDbEntity
  8
0
  6
Continuous
 62
     7
370
    25
100
AcDbCircle
 10
246.0728153504
 20
179.5184397121
 30
0.0
 40
0.9000000000000214
100
AcDbArc
 50
180.0
 51
261.7820403885
  0
LINE
  5
1D0
330
1F
100
AcDbEntity
  8
0
  6
Continuous
 62
     7
370
    25
100
AcDbLine
 10
264.6972487194
 20
101.410951485
 30
0.0
 11
257.1647806806
 21
101.2794717663
 31
0.0
  0
LINE
  5
1D1
330
1F
100
AcDbEntity
  8
0
  6
Continuous
 62
     7
370
    25
100
AcDbLine
 10
257.1647806806
 20
101.2794717663
 30
0.0
 11
257.1647806806
 21
109.1701512329
 31
0.0
  0
LINE
  5
1D2
330
1F
100
AcDbEntity
  8
0
  6
Continuous
 62
     7
370
    25
100
AcDbLine
 10
266.0728153504
 20
202.5295642075
 30
0.0
 11
266.0728153504
 21
196.1701512329
 31
0.0
  0
ARC
  5
1D3
330
1F
100
AcDbEntity
  8
0
  6
Continuous
 62
     7
370
    25
100
AcDbCircle
 10
264.6728153504
 20
202.5295642075
 30
0.0
 40
1.400000000000034
100
AcDbArc
 50
0.0
 51
89.0
  0
LINE
  5
1D4
330
1F
100
AcDbEntity
  8
0
  6
Continuous
 62
     7
370
    25
100
AcDbLine
 10
266.0728153504
 20
102.8107382582
 30
0.0
 11
266.0728153504
 21
109.1701512329
 31
0.0
  0
ARC
  5
1D5
330
1F
100
AcDbEntity
  8
0
  6
Continuous
 62
     7
370
    25
100
AcDbCircle
 10
264.6728153504
 20
102.8107382582
 30
0.0
 40
1.400000000000034
100
AcDbArc
 50
271.0
 51
0.0
  0
LINE
  5
1D6
330
1F
100
AcDbEntity
  8
0
  6
Continuous
 62
     7
370
    25
100
AcDbLine
 10
266.0728153504
 20
196.1701512329
 30
0.0
 11
266.0728153504
 21
109.1701512329
 31
0.0
  0
LINE
  5
1D7
330
1F
100
AcDbEntity
  8
0
  6
Continuous
 62
     7
370
    25
100
AcDbLine
 10
257.1647806806
 20
101.2794717663
 30
0.0
 11
257.0241660424
 21
101.2770173287
 31
0.0
  0
LINE
  5
1D8
330
1F
100
AcDbEntity
  8
0
  6
Continuous
 62
     7
370
    25
100
AcDbLine
 10
250.9018115134
 20
101.1701512329
 30
0.0
 11
245.9441700916
 21
101.08361528
 31
0.0
  0
LINE
  5
1D9
330
1F
100
AcDbEntity
  8
0
  6
Continuous
 62
     7
370
    25
100
AcDbLine
 10
257.0591081106
 20
102.2776272448
 30
0.0
 11
257.1647806806
 21
102.2794717663
 31
0.0
  0
LINE
  5
1DA
330
1F
100
AcDbEntity
  8
0
  6
Continuous
 62
     7
370
    25
100
AcDbLine
 10
245.1728153504
 20
101.0701512329
 30
0.0
 11
245.1728153504
 21
101.1701512329
 31
0.0
  0
LINE
  5
1DB
330
1F
100
AcDbEntity
  8
0
  6
Continuous
 62
     7
370
    25
100
AcDbLine
 10
245.9441700916
 20
101.08361528
 30
0.0
 11
245.1728153504
 21
101.0701512329
 31
0.0
  0
LINE
  5
1DC
330
1F
100
AcDbEntity
  8
0
  6
Continuous
 62
     7
370
    25
100
AcDbLine
 10
245.0204341961
 20
196.1352304634
 30
0.0
 11
244.2204315346
 21
196.1352304634
 31
0.0
  0
LINE
  5
1DD
330
1F
100
AcDbEntity
  8
0
  6
Continuous
 62
     7
370
    25
100
AcDbLine
 10
244.2553549656
 20
196.1701512329
 30
0.0
 11
244.2204315346
 21
196.1352304634
 31
0.0
  0
LINE
  5
1DE
330
1F
100
AcDbEntity
  8
0
  6
Continuous
 62
     7
370
    25
100
AcDbLine
 10
244.2553549656
 20
196.1701512329
 30
0.0
 11
245.0553549656
 21
196.1701512329
 31
0.0
  0
LINE
  5
1DF
330
1F
100
AcDbEntity
  8
0
  6
Continuous
 62
     7
370
    25
100
AcDbLine
 10
245.0204341961
 20
196.1352304634
 30
0.0
 11
245.0553549656
 21
196.1701512329
 31
0.0
  0
LINE
  5
1E0
330
1F
100
AcDbEntity
  8
0
  6
Continuous
 62
     7
370
    25
100
AcDbLine
 10
245.0568192542
 20
179.6515026948
 30
0.0
 11
245.0204341961
 21
179.690544759
 31
0.0
  0
LINE
  5
1E1
330
1F
100
AcDbEntity
  8
0
  6
Continuous
 62
     7
370
    25
100
AcDbLine
 10
245.0204341961
 20
179.690544759
 30
0.0
 11
245.0204341961
 21
196.1352304634
 31
0.0
  0
LINE
  5
1E2
330
1F
100
AcDbEntity
  8
0
  6
Continuous
 62
     7
370
    25
100
AcDbLine
 10
256.2204315346
 20
109.2050720024
 30
0.0
 11
257.0204341961
 21
109.2050720024
 31
0.0
  0
LINE
  5
1E3
330
1F
100
AcDbEntity
  8
0
  6
Continuous
 62
     7
370
    25
100
AcDbLine
 10
257.0204341961
 20
109.2050720024
 30
0.0
 11
257.0553549656
 21
109.1701512329
 31
0.0
  0
LINE
  5
1E4
330
1F
100
AcDbEntity
  8
0
  6
Continuous
 62
     7
370
    25
100
AcDbLine
 10
256.2553549656
 20
109.1701512329
 30
0.0
 11
257.0553549656
 21
109.1701512329
 31
0.0
  0
LINE
  5
1E5
330
1F
100
AcDbEntity
  8
0
  6
Continuous
 62
     7
370
    25
100
AcDbLine
 10
256.2553549656
 20
109.1701512329
 30
0.0
 11
256.2204315346
 21
109.2050720024
 31
0.0
  0
LINE
  5
1E6
330
1F
100
AcDbEntity
  8
0
  6
Continuous
 62
     7
370
    25
100
AcDbLine
 10
257.0204341961
 20
109.2050720024
 30
0.0
 11
257.0204341961
 21
125.6177700786
 31
0.0
  0
LINE
  5
1E7
330
1F
100
AcDbEntity
  8
0
  6
Continuous
 62
     7
370
    25
100
AcDbLine
 10
257.0641383261
 20
125.6614742086
 30
0.0
 11
257.0204341961
 21
125.6177700786
 31
0.0
  0
ARC
  5
1E8
330
1F
100
AcDbEntity
  8
0
  6
Continuous
 62
     7
370
    25
100
AcDbCircle
 10
244.0728153504
 20
139.6701512329
 30
0.0
 40
14.05238115423761
100
AcDbArc
 50
180.0
 51
270.0
  0
LINE
  5
1E9
330
1F
100
AcDbEntity
  8
0
  6
Continuous
 62
     7
370
    25
100
AcDbLine
 10
244.2204341961
 20
196.1701512329
 30
0.0
 11
244.2204315346
 21
196.1352304634
 31
0.0
  0
ARC
  5
1EA
330
1F
100
AcDbEntity
  8
0
  6
Continuous
 62
     7
370
    25
100
AcDbCircle
 10
244.0728153504
 20
165.6701512329
 30
0.0
 40
14.0523811542376
100
AcDbArc
 50
86.1333389301
 51
180.0
  0
LINE
  5
1EB
330
1F
100
AcDbEntity
  8
0
  6
Continuous
 62
     7
370
    25
100
AcDbLine
 10
230.0204341961
 20
165.6701512329
 30
0.0
 11
230.0204341961
 21
139.6701512329
 31
0.0
  0
LINE
  5
1EC
330
1F
100
AcDbEntity
  8
0
  6
Continuous
 62
     7
370
    25
100
AcDbLine
 10
257.0204341961
 20
125.6177700786
 30
0.0
 11
244.0728153504
 21
125.6177700786
 31
0.0
  0
LINE
  5
1ED
330
1F
100
AcDbEntity
  8
0
  6
Continuous
 62
     7
370
    25
100
AcDbLine
 10
256.2204341961
 20
109.1701512329
 30
0.0
 11
256.2204315346
 21
109.2050720024
 31
0.0
  0
LINE
  5
1EE
330
1F
100
AcDbEntity
  8
0
  6
Continuous
 62
     7
370
    25
100
AcDbLine
 10
242.8083454785
 20
196.1701512329
 30
0.0
 11
242.8083454785
 21
201.4857909272
 31
0.0
  0
LINE
  5
1EF
330
1F
100
AcDbEntity
  8
0
  6
Continuous
 62
     7
370
    25
100
AcDbLine
 10
244.2204341961
 20
196.1701512329
 30
0.0
 11
244.2204341961
 21
201.8270054824
 31
0.0
  0
LINE
  5
1F0
330
1F
100
AcDbEntity
  8
0
  6
Continuous
 62
     7
370
    25
100
AcDbLine
 10
244.2553549656
 20
196.1701512329
 30
0.0
 11
244.2553549656
 21
201.1198987012
 31
0.0
  0
LINE
  5
1F1
330
1F
100
AcDbEntity
  8
0
  6
Continuous
 62
     7
370
    25
100
AcDbLine
 10
256.2204341961
 20
103.5132969834
 30
0.0
 11
256.2204341961
 21
109.1701512329
 31
0.0
  0
LINE
  5
1F2
330
1F
100
AcDbEntity
  8
0
  6
Continuous
 62
     7
370
    25
100
AcDbLine
 10
256.2553549656
 20
104.2204037646
 30
0.0
 11
256.2553549656
 21
109.1701512329
 31
0.0
  0
ARC
  5
1F3
330
1F
100
AcDbEntity
  8
0
  6
Continuous
 62
     7
370
    25
100
AcDbCircle
 10
244.0728153504
 20
139.6701512329
 30
0.0
 40
15.483148973894
100
AcDbArc
 50
180.0
 51
270.0
  0
ARC
  5
1F4
330
1F
100
AcDbEntity
  8
0
  6
Continuous
 62
     7
370
    25
100
AcDbCircle
 10
244.0728153504
 20
165.6701512329
 30
0.0
 40
15.48314897389398
100
AcDbArc
 50
95.1605049727
 51
180.0
  0
LINE
  5
1F5
330
1F
100
AcDbEntity
  8
0
  6
Continuous
 62
     7
370
    25
100
AcDbLine
 10
254.7896663765
 20
109.1701512329
 30
0.0
 11
254.7896663765
 21
104.2327426
 31
0.0
  0
SPLINE
  5
1F6
330
1F
100
AcDbEntity
  8
0
  6
Continuous
 62
     7
370
    25
100
AcDbSpline
210
0.0
220
0.0
230
1.0
 70
     8
 71
     3
 72
    16
 73
    12
 74
     0
 42
0.00000001
 43
0.00000001
 40
0.0
 40
0.0
 40
0.0
 40
0.0
 40
0.2499999999999992
 40
0.2499999999999992
 40
0.3749999999999998
 40
0.3749999999999998
 40
0.5000000000000004
 40
0.5000000000000004
 40
0.7500000000000001
 40
0.7500000000000001
 40
1.0
 40
1.0
 40
1.0
 40
1.0
 10
245.0553454681102
 20
201.1198987011911
 30
0.0
 10
245.0553454688438
 20
200.7973250879108
 30
0.0
 10
245.0552892184447
 20
200.4453341495211
 30
0.0
 10
245.0552054669515
 20
199.8721734775154
 30
0.0
 10
245.0551817830705
 20
199.6735736999747
 30
0.0
 10
245.0551506744088
 20
199.269929493634
 30
0.0
 10
245.0551407946623
 20
199.06382744602
 30
0.0
 10
245.0551314728897
 20
198.4328769979154
 30
0.0
 10
245.0553261552236
 20
197.9929702009338
 30
0.0
 10
245.0550694669495
 20
197.0890750150762
 30
0.0
 10
245.0544110647251
 20
196.6321298571511
 30
0.0
 10
245.0553549656109
 20
196.1701512328743
 30
0.0
  0
SPLINE
  5
1F7
330
1F
100
AcDbEntity
  8
0
  6
Continuous
 62
     7
370
    25
100
AcDbSpline
210
0.0
220
0.0
230
1.0
 70
     8
 71
     3
 72
    16
 73
    12
 74
     0
 42
0.00000001
 43
0.00000001
 40
0.0
 40
0.0
 40
0.0
 40
0.0
 40
0.2499999999999965
 40
0.2499999999999965
 40
0.3749999999999966
 40
0.3749999999999966
 40
0.4999999999999968
 40
0.4999999999999968
 40
0.7499999999999983
 40
0.7499999999999983
 40
1.0
 40
1.0
 40
1.0
 40
1.0
 10
257.0553549656109
 20
109.1701512328743
 30
0.0
 10
257.0544102028144
 20
108.7077507027816
 30
0.0
 10
257.0550639253296
 20
108.2530752864139
 30
0.0
 10
257.0552618882495
 20
107.5821763258617
 30
0.0
 10
257.0551789134755
 20
107.3604094714559
 30
0.0
 10
257.0551412501753
 20
106.9206931266149
 30
0.0
 10
257.0551345460984
 20
106.7021471420083
 30
0.0
 10
257.0551436621154
 20
106.0664195687283
 30
0.0
 10
257.0551769547542
 20
105.6643915935322
 30
0.0
 10
257.0552877434993
 20
104.9035257660868
 30
0.0
 10
257.0553455026704
 20
104.5432719904241
 30
0.0
 10
257.0553455064444
 20
104.2204037645795
 30
0.0
  0
ARC
  5
1F8
330
1F
100
AcDbEntity
  8
0
  6
Continuous
 62
     7
370
    25
100
AcDbCircle
 10
222.3728153504
 20
192.7514739084
 30
0.0
 40
2.700000000000017
100
AcDbArc
 50
0.0
 51
63.6122000388
  0
LINE
  5
1F9
330
1F
100
AcDbEntity
  8
0
  6
Continuous
 62
     7
370
    25
100
AcDbLine
 10
223.5728153504
 20
110.1701512329
 30
0.0
 11
223.5728153504
 21
109.1701512329
 31
0.0
  0
LINE
  5
1FA
330
1F
100
AcDbEntity
  8
0
  6
Continuous
 62
     7
370
    25
100
AcDbLine
 10
223.5728153504
 20
196.1701512329
 30
0.0
 11
223.5728153504
 21
195.1701512329
 31
0.0
  0
LINE
  5
1FB
330
1F
100
AcDbEntity
  8
0
  6
Continuous
 62
     7
370
    25
100
AcDbLine
 10
225.0728153504
 20
192.7514739084
 30
0.0
 11
225.0728153504
 21
112.5888285574
 31
0.0
  0
ARC
  5
1FC
330
1F
100
AcDbEntity
  8
0
  6
Continuous
 62
     7
370
    25
100
AcDbCircle
 10
222.3728153504
 20
112.5888285574
 30
0.0
 40
2.700000000000017
100
AcDbArc
 50
296.3877999612
 51
0.0
  0
LINE
  5
1FD
330
1F
100
AcDbEntity
  8
0
  6
Continuous
 62
     7
370
    25
100
AcDbLine
 10
223.5728153504
 20
200.7663453106
 30
0.0
 11
223.5728153504
 21
196.1701512329
 31
0.0
  0
LINE
  5
1FE
330
1F
100
AcDbEntity
  8
0
  6
Continuous
 62
     7
370
    25
100
AcDbLine
 10
254.289970963
 20
102.6701512329
 30
0.0
 11
223.5728153504
 21
102.6701512329
 31
0.0
  0
LINE
  5
1FF
330
1F
100
AcDbEntity
  8
0
  6
Continuous
 62
     7
370
    25
100
AcDbLine
 10
223.5728153504
 20
109.1701512329
 30
0.0
 11
223.5728153504
 21
102.6701512329
 31
0.0
  0
ARC
  5
200
330
1F
100
AcDbEntity
  8
0
  6
Continuous
 62
     7
370
    25
100
AcDbCircle
 10
243.308040892
 20
203.6701512329
 30
0.0
 40
0.5000000000000095
100
AcDbArc
 50
90.0
 51
178.0
  0
LINE
  5
201
330
1F
100
AcDbEntity
  8
0
  6
Continuous
 62
     7
370
    25
100
AcDbLine
 10
242.8083454785
 20
201.4857909272
 30
0.0
 11
242.8083454785
 21
203.6876009812
 31
0.0
  0
LINE
  5
202
330
1F
100
AcDbEntity
  8
0
  6
Continuous
 62
     7
370
    25
100
AcDbLine
 10
243.308040892
 20
204.1701512329
 30
0.0
 11
244.2204341961
 21
204.1701512329
 31
0.0
  0
LINE
  5
203
330
1F
100
AcDbEntity
  8
0
  6
Continuous
 62
     7
370
    25
100
AcDbLine
 10
244.2204341961
 20
201.8270054824
 30
0.0
 11
244.2204341961
 21
204.1701512329
 31
0.0
  0
LINE
  5
204
330
1F
100
AcDbEntity
  8
0
  6
Continuous
 62
     7
370
    25
100
AcDbLine
 10
244.2553549656
 20
203.1701512329
 30
0.0
 11
244.2204315346
 21
204.1701512329
 31
0.0
  0
LINE
  5
205
330
1F
100
AcDbEntity
  8
0
  6
Continuous
 62
     7
370
    25
100
AcDbLine
 10
244.2553549656
 20
201.1198987012
 30
0.0
 11
244.2553549656
 21
203.1701512329
 31
0.0
  0
ARC
  5
206
330
1F
100
AcDbEntity
  8
0
  6
Continuous
 62
     7
370
    25
100
AcDbCircle
 10
255.308040892
 20
101.6701512329
 30
0.0
 40
0.500000000000039
100
AcDbArc
 50
182.0
 51
270.0
  0
LINE
  5
207
330
1F
100
AcDbEntity
  8
0
  6
Continuous
 62
     7
370
    25
100
AcDbLine
 10
256.2204341961
 20
101.1701512329
 30
0.0
 11
256.2204341961
 21
103.5132969834
 31
0.0
  0
LINE
  5
208
330
1F
100
AcDbEntity
  8
0
  6
Continuous
 62
     7
370
    25
100
AcDbLine
 10
256.2553549656
 20
102.1701512329
 30
0.0
 11
256.2553549656
 21
104.2204037646
 31
0.0
  0
LINE
  5
209
330
1F
100
AcDbEntity
  8
0
  6
Continuous
 62
     7
370
    25
100
AcDbLine
 10
256.2553549656
 20
102.1701512329
 30
0.0
 11
256.2204315346
 21
101.1701512329
 31
0.0
  0
LINE
  5
20A
330
1F
100
AcDbEntity
  8
0
  6
Continuous
 62
     7
370
    25
100
AcDbLine
 10
256.2204341961
 20
101.1701512329
 30
0.0
 11
255.308040892
 21
101.1701512329
 31
0.0
  0
LINE
  5
20B
330
1F
100
AcDbEntity
  8
0
  6
Continuous
 62
     7
370
    25
100
AcDbLine
 10
242.8083454785
 20
203.6876009812
 30
0.0
 11
242.7896663765
 21
203.1527014845
 31
0.0
  0
LINE
  5
20C
330
1F
100
AcDbEntity
  8
0
  6
Continuous
 62
     7
370
    25
100
AcDbLine
 10
254.8083454785
 20
101.6527014845
 30
0.0
 11
254.7896663765
 21
102.1876009812
 31
0.0
  0
LINE
  5
20D
330
1F
100
AcDbEntity
  8
0
  6
Continuous
 62
     7
370
    25
100
AcDbLine
 10
254.7896663765
 20
104.2327426
 30
0.0
 11
254.7896663765
 21
102.1876009812
 31
0.0
  0
SPLINE
  5
20E
330
1F
100
AcDbEntity
  8
0
  6
Continuous
 62
     7
370
    25
100
AcDbSpline
210
0.0
220
0.0
230
1.0
 70
     8
 71
     3
 72
    16
 73
    12
 74
     0
 42
0.00000001
 43
0.00000001
 40
0.0
 40
0.0
 40
0.0
 40
0.0
 40
0.2500000000000023
 40
0.2500000000000023
 40
0.3750000000000019
 40
0.3750000000000019
 40
0.5000000000000016
 40
0.5000000000000016
 40
0.7500000000000008
 40
0.7500000000000008
 40
1.0
 40
1.0
 40
1.0
 40
1.0
 10
257.0553455064444
 20
104.2204037645795
 30
0.0
 10
257.055345510215
 20
103.8978301275382
 30
0.0
 10
257.0552892209787
 20
103.6082988969941
 30
0.0
 10
257.0552054580975
 20
103.2247430729073
 30
0.0
 10
257.0551817752184
 20
103.1056300941579
 30
0.0
 10
257.0551506753828
 20
102.889724438687
 30
0.0
 10
257.0551407933044
 20
102.7921820541699
 30
0.0
 10
257.055131447695
 20
102.5303106206636
 30
0.0
 10
257.055326060727
 20
102.3959550868189
 30
0.0
 10
257.0550696112655
 20
102.2154418961173
 30
0.0
 10
257.0544113931143
 20
102.1701512328743
 30
0.0
 10
257.0553549656109
 20
102.1701512328743
 30
0.0
  0
LINE
  5
20F
330
1F
100
AcDbEntity
  8
0
  6
Continuous
 62
     7
370
    25
100
AcDbLine
 10
256.2553549656
 20
102.1701512329
 30
0.0
 11
257.0553549656
 21
102.1701512329
 31
0.0
  0
LINE
  5
210
330
1F
100
AcDbEntity
  8
0
  6
Continuous
 62
     7
370
    25
100
AcDbLine
 10
257.097259889
 20
103.3701512329
 30
0.0
 11
257.0553549656
 21
102.1701512329
 31
0.0
  0
LINE
  5
211
330
1F
100
AcDbEntity
  8
0
  6
Continuous
 62
     7
370
    25
100
AcDbLine
 10
244.2553549656
 20
203.1701512329
 30
0.0
 11
245.0553549656
 21
203.1701512329
 31
0.0
  0
SPLINE
  5
212
330
1F
100
AcDbEntity
  8
0
  6
Continuous
 62
     7
370
    25
100
AcDbSpline
210
0.0
220
0.0
230
1.0
 70
     8
 71
     3
 72
    16
 73
    12
 74
     0
 42
0.00000001
 43
0.00000001
 40
0.0
 40
0.0
 40
0.0
 40
0.0
 40
0.2500000000000026
 40
0.2500000000000026
 40
0.3750000000000017
 40
0.3750000000000017
 40
0.5000000000000008
 40
0.5000000000000008
 40
0.7500000000000003
 40
0.7500000000000003
 40
1.0
 40
1.0
 40
1.0
 40
1.0
 10
245.0553549656109
 20
203.1701512328744
 30
0.0
 10
245.0544103912879
 20
203.1701512328744
 30
0.0
 10
245.0550639604091
 20
203.1247840865322
 30
0.0
 10
245.0552618783788
 20
202.991465041457
 30
0.0
 10
245.0551789133543
 20
202.9360664397834
 30
0.0
 10
245.0551412520724
 20
202.8028514113688
 30
0.0
 10
245.0551345493395
 20
202.7246590533575
 30
0.0
 10
245.0551436617787
 20
202.4612020386477
 30
0.0
 10
245.0551769641388
 20
202.2462404577315
 30
0.0
 10
245.0552877443712
 20
201.7383751455937
 30
0.0
 10
245.0553454673759
 20
201.4427668950644
 30
0.0
 10
245.0553454681102
 20
201.1198987011911
 30
0.0
  0
LINE
  5
213
330
1F
100
AcDbEntity
  8
0
  6
Continuous
 62
     7
370
    25
100
AcDbLine
 10
245.097259889
 20
201.9701512329
 30
0.0
 11
245.0553549656
 21
203.1701512329
 31
0.0
  0
ARC
  5
214
330
1F
100
AcDbEntity
  8
0
  6
Continuous
 62
     7
370
    25
100
AcDbCircle
 10
242.289970963
 20
203.1701512329
 30
0.0
 40
0.5000000000000115
100
AcDbArc
 50
270.0
 51
358.0
  0
ARC
  5
215
330
1F
100
AcDbEntity
  8
0
  6
Continuous
 62
     7
370
    25
100
AcDbCircle
 10
254.289970963
 20
102.1701512329
 30
0.0
 40
0.5
100
AcDbArc
 50
2.0
 51
90.0
  0
LINE
  5
216
330
1F
100
AcDbEntity
  8
0
  6
Continuous
 62
     7
370
    25
100
AcDbLine
 10
225.0728153504
 20
202.6701512329
 30
0.0
 11
223.5728153504
 21
202.6701512329
 31
0.0
  0
LINE
  5
217
330
1F
100
AcDbEntity
  8
0
  6
Continuous
 62
     7
370
    25
100
AcDbLine
 10
242.289970963
 20
202.6701512329
 30
0.0
 11
225.0728153504
 21
202.6701512329
 31
0.0
  0
LINE
  5
218
330
1F
100
AcDbEntity
  8
0
  6
Continuous
 62
     7
370
    25
100
AcDbLine
 10
223.5728153504
 20
202.6701512329
 30
0.0
 11
223.5728153504
 21
200.7663453106
 31
0.0
  0
LINE
  5
219
330
1F
100
AcDbEntity
  8
0
  6
Continuous
 62
     7
370
    25
100
AcDbLine
 10
244.2204315346
 20
204.1701512329
 30
0.0
 11
245.0204341961
 21
204.1701512329
 31
0.0
  0
LINE
  5
21A
330
1F
100
AcDbEntity
  8
0
  6
Continuous
 62
     7
370
    25
100
AcDbLine
 10
245.0204341961
 20
204.1701512329
 30
0.0
 11
245.0553549656
 21
203.1701512329
 31
0.0
  0
LINE
  5
21B
330
1F
100
AcDbEntity
  8
0
  6
Continuous
 62
     7
370
    25
100
AcDbLine
 10
257.0204341961
 20
101.1701512329
 30
0.0
 11
256.2204315346
 21
101.1701512329
 31
0.0
  0
LINE
  5
21C
330
1F
100
AcDbEntity
  8
0
  6
Continuous
 62
     7
370
    25
100
AcDbLine
 10
257.0204341961
 20
101.1701512329
 30
0.0
 11
257.0553549656
 21
102.1701512329
 31
0.0
  0
LINE
  5
21D
330
1F
100
AcDbEntity
  8
0
  6
Continuous
 62
     7
370
    25
100
AcDbLine
 10
223.5728153504
 20
147.4725323871
 30
0.0
 11
223.5728153504
 21
150.9201512329
 31
0.0
  0
LINE
  5
21E
330
1F
100
AcDbEntity
  8
0
  6
Continuous
 62
     7
370
    25
100
AcDbLine
 10
223.5728153504
 20
150.9201512329
 30
0.0
 11
223.5728153504
 21
154.4201512329
 31
0.0
  0
LINE
  5
21F
330
1F
100
AcDbEntity
  8
0
  6
Continuous
 62
     7
370
    25
100
AcDbLine
 10
223.5728153504
 20
154.4201512329
 30
0.0
 11
223.5728153504
 21
157.8677700786
 31
0.0
  0
LINE
  5
220
330
1F
100
AcDbEntity
  8
0
  6
Continuous
 62
     7
370
    25
100
AcDbLine
 10
243.1293585565
 20
204.1701512329
 30
0.0
 11
242.7422437671
 21
204.1701512329
 31
0.0
  0
LINE
  5
221
330
1F
100
AcDbEntity
  8
0
  6
Continuous
 62
     7
370
    25
100
AcDbLine
 10
254.6089546515
 20
101.1701512329
 30
0.0
 11
255.308040892
 21
101.1701512329
 31
0.0
  0
ARC
  5
222
330
1F
100
AcDbEntity
  8
0
  6
Continuous
 62
     7
370
    25
100
AcDbCircle
 10
228.089970963
 20
102.1701512329
 30
0.0
 40
0.5
100
AcDbArc
 50
2.0
 51
90.0
  0
ARC
  5
223
330
1F
100
AcDbEntity
  8
0
  6
Continuous
 62
     7
370
    25
100
AcDbCircle
 10
228.089970963
 20
203.1701512329
 30
0.0
 40
0.5
100
AcDbArc
 50
270.0
 51
358.0
  0
LINE
  5
224
330
1F
100
AcDbEntity
  8
0
  6
Continuous
 62
     7
370
    25
100
AcDbLine
 10
228.5896663765
 20
102.1876009812
 30
0.0
 11
228.6083454785
 21
101.6527014845
 31
0.0
  0
ARC
  5
225
330
1F
100
AcDbEntity
  8
0
  6
Continuous
 62
     7
370
    25
100
AcDbCircle
 10
229.108040892
 20
101.6701512329
 30
0.0
 40
0.5000000000000105
100
AcDbArc
 50
182.0
 51
270.0
  0
LINE
  5
226
330
1F
100
AcDbEntity
  8
0
  6
Continuous
 62
     7
370
    25
100
AcDbLine
 10
229.108040892
 20
101.1701512329
 30
0.0
 11
244.0728153504
 21
101.1701512329
 31
0.0
  0
LINE
  5
227
330
1F
100
AcDbEntity
  8
0
  6
Continuous
 62
     7
370
    25
100
AcDbLine
 10
244.0728153504
 20
101.1701512329
 30
0.0
 11
254.6089546515
 21
101.1701512329
 31
0.0
  0
LINE
  5
228
330
1F
100
AcDbEntity
  8
0
  6
Continuous
 62
     7
370
    25
100
AcDbLine
 10
228.5896663765
 20
203.1527014845
 30
0.0
 11
228.6083454785
 21
203.6876009812
 31
0.0
  0
ARC
  5
229
330
1F
100
AcDbEntity
  8
0
  6
Continuous
 62
     7
370
    25
100
AcDbCircle
 10
229.108040892
 20
203.6701512329
 30
0.0
 40
0.5000000000000095
100
AcDbArc
 50
90.0
 51
178.0
  0
LINE
  5
22A
330
1F
100
AcDbEntity
  8
0
  6
Continuous
 62
     7
370
    25
100
AcDbLine
 10
242.7422437671
 20
204.1701512329
 30
0.0
 11
229.108040892
 21
204.1701512329
 31
0.0
  0
LINE
  5
22B
330
1F
100
AcDbEntity
  8
0
  6
Continuous
 62
     7
370
    25
100
AcDbLine
 10
257.0241660424
 20
204.0632851371
 30
0.0
 11
257.0204341961
 21
204.1701512329
 31
0.0
  0
LINE
  5
22C
330
1F
100
AcDbEntity
  8
0
  6
Continuous
 62
     7
370
    25
100
AcDbLine
 10
257.0204341961
 20
204.1701512329
 30
0.0
 11
250.9018115134
 21
204.1701512329
 31
0.0
  0
LINE
  5
22D
330
1F
100
AcDbEntity
  8
0
  6
Continuous
 62
     7
370
    25
100
AcDbLine
 10
245.1728153504
 20
204.1701512329
 30
0.0
 11
245.0204341961
 21
204.1701512329
 31
0.0
  0
LINE
  5
22E
330
1F
100
AcDbEntity
  8
0
  6
Continuous
 62
     7
370
    25
100
AcDbLine
 10
230.0448787348
 20
139.6701512329
 30
0.0
 11
230.0448787348
 21
165.6701512329
 31
0.0
  0
ARC
  5
22F
330
1F
100
AcDbEntity
  8
0
  6
Continuous
 62
     7
370
    25
100
AcDbCircle
 10
244.0728153504
 20
165.6701512329
 30
0.0
 40
14.0279366155934
100
AcDbArc
 50
86.0265148027
 51
180.0
  0
LINE
  5
230
330
1F
100
AcDbEntity
  8
0
  6
Continuous
 62
     7
370
    25
100
AcDbLine
 10
245.0448787348
 20
179.6643678407
 30
0.0
 11
245.0448787348
 21
179.5018142231
 31
0.0
  0
ELLIPSE
  5
231
330
1F
100
AcDbEntity
  8
0
  6
Continuous
 62
     7
370
    25
100
AcDbEllipse
 10
246.0454879825
 20
179.5028715381
 30
0.0
 11
-0.7562319024684429
 21
-0.6559341558119343
 31
0.0
210
0.0
220
0.0
230
1.0
 40
0.9989332588
 41
5.569220617495138
 42
6.997381899114708
  0
ARC
  5
232
330
1F
100
AcDbEntity
  8
0
  6
Continuous
 62
     7
370
    25
100
AcDbCircle
 10
244.0728153504
 20
165.6701512329
 30
0.0
 40
12.97206362747735
100
AcDbArc
 50
0.0
 51
81.8881567377
  0
LINE
  5
233
330
1F
100
AcDbEntity
  8
0
  6
Continuous
 62
     7
370
    25
100
AcDbLine
 10
257.0448787348
 20
165.6701512329
 30
0.0
 11
257.0448787348
 21
125.6422146173
 31
0.0
  0
LINE
  5
234
330
1F
100
AcDbEntity
  8
0
  6
Continuous
 62
     7
370
    25
100
AcDbLine
 10
257.0448787348
 20
125.6422146173
 30
0.0
 11
244.0728153504
 21
125.6422146173
 31
0.0
  0
ARC
  5
235
330
1F
100
AcDbEntity
  8
0
  6
Continuous
 62
     7
370
    25
100
AcDbCircle
 10
244.0728153504
 20
139.6701512329
 30
0.0
 40
14.02793661559342
100
AcDbArc
 50
180.0
 51
269.7860538227
  0
ELLIPSE
  5
236
330
1F
100
AcDbEntity
  8
0
  6
Continuous
 62
     7
370
    25
100
AcDbEllipse
 10
246.0580388687
 20
179.5137578217
 30
0.0
 11
0.847666835559522
 21
0.5337617998562506
 31
0.0
210
0.0
220
0.0
230
0.9999999999999996
 40
0.9982431757
 41
2.580426767682698
 42
4.007814362350909
  0
ARC
  5
237
330
1F
100
AcDbEntity
  8
0
  6
Continuous
 62
     7
370
    25
100
AcDbCircle
 10
244.0807293133
 20
165.6701512329
 30
0.0
 40
12.98340901282339
100
AcDbArc
 50
0.0
 51
81.8784210044
  0
LINE
  5
238
330
1F
100
AcDbEntity
  8
0
  6
Continuous
 62
     7
370
    25
100
AcDbLine
 10
245.0568193333
 20
179.6515631971
 30
0.0
 11
245.0568193333
 21
179.512169707
 31
0.0
  0
LINE
  5
239
330
1F
100
AcDbEntity
  8
0
  6
Continuous
 62
     7
370
    25
100
AcDbLine
 10
245.0448787348
 20
179.6643678407
 30
0.0
 11
245.0568193333
 21
179.6515631971
 31
0.0
  0
LINE
  5
23A
330
1F
100
AcDbEntity
  8
0
  6
Continuous
 62
     7
370
    25
100
AcDbLine
 10
257.0641383261
 20
165.6701512329
 30
0.0
 11
257.0641383261
 21
125.6614742086
 31
0.0
  0
LINE
  5
23B
330
1F
100
AcDbEntity
  8
0
  6
Continuous
 62
     7
370
    25
100
AcDbLine
 10
257.0448787348
 20
125.6422146173
 30
0.0
 11
257.0641383261
 21
125.6614742086
 31
0.0
  0
LINE
  5
23C
330
1F
100
AcDbEntity
  8
0
  6
Continuous
 62
     7
370
    25
100
AcDbLine
 10
245.2276889254
 20
203.1252175423
 30
0.0
 11
245.2529978598
 21
203.268751642
 31
0.0
  0
LINE
  5
23D
330
1F
100
AcDbEntity
  8
0
  6
Continuous
 62
     7
370
    25
100
AcDbLine
 10
257.0641383261
 20
109.1701512329
 30
0.0
 11
257.0641383261
 21
125.6614742086
 31
0.0
  0
LINE
  5
23E
330
1F
100
AcDbEntity
  8
0
  6
Continuous
 62
     7
370
    25
100
AcDbLine
 10
245.0568193333
 20
196.1701512329
 30
0.0
 11
245.0568193333
 21
179.6515631971
 31
0.0
  0
LINE
  5
23F
330
1F
100
AcDbEntity
  8
0
  6
Continuous
 62
     7
370
    25
100
AcDbLine
 10
245.0568193333
 20
203.1282172292
 30
0.0
 11
245.0568193333
 21
196.1701512329
 31
0.0
  0
LINE
  5
240
330
1F
100
AcDbEntity
  8
0
  6
Continuous
 62
     7
370
    25
100
AcDbLine
 10
245.0568193333
 20
203.1282172292
 30
0.0
 11
245.1728153504
 21
203.1261925112
 31
0.0
  0
LINE
  5
241
330
1F
100
AcDbEntity
  8
0
  6
Continuous
 62
     7
370
    25
100
AcDbLine
 10
257.0641383261
 20
102.4216737692
 30
0.0
 11
257.1647806806
 21
102.423430488
 31
0.0
  0
LINE
  5
242
330
1F
100
AcDbEntity
  8
0
  6
Continuous
 62
     7
370
    25
100
AcDbLine
 10
245.1728153504
 20
203.4701512329
 30
0.0
 11
245.0448784411
 21
203.4701512329
 31
0.0
  0
LINE
  5
243
330
1F
100
AcDbEntity
  8
0
  6
Continuous
 62
     7
370
    25
100
AcDbLine
 10
242.8083454785
 20
195.2053767745
 30
0.0
 11
242.8083454785
 21
196.1701512329
 31
0.0
  0
LINE
  5
244
330
1F
100
AcDbEntity
  8
0
  6
Continuous
 62
     7
370
    25
100
AcDbLine
 10
254.7896663765
 20
110.1536047933
 30
0.0
 11
254.7896663765
 21
109.1701512329
 31
0.0
  0
ELLIPSE
  5
245
330
1F
100
AcDbEntity
  8
0
  6
Continuous
 62
     7
370
    25
100
AcDbEllipse
 10
255.2905805073
 20
110.152386076
 30
0.0
 11
-0.3548455112282625
 21
0.3548455112283904
 31
0.0
210
0.0
220
0.0
230
1.0
 40
0.9963586389
 41
5.699033489915783
 42
7.06797448299164
  0
ARC
  5
246
330
1F
100
AcDbEntity
  8
0
  6
Continuous
 62
     7
370
    25
100
AcDbCircle
 10
255.089228183
 20
111.1336515152
 30
0.0
 40
0.5004387235186621
100
AcDbArc
 50
281.5651660651
 51
359.9166083901
  0
LINE
  5
247
330
1F
100
AcDbEntity
  8
0
  6
Continuous
 62
     7
370
    25
100
AcDbLine
 10
255.5896663765
 20
123.187611432
 30
0.0
 11
255.5896663765
 21
111.1329231479
 31
0.0
  0
ARC
  5
248
330
1F
100
AcDbEntity
  8
0
  6
Continuous
 62
     7
370
    25
100
AcDbCircle
 10
254.5896661908
 20
123.1870020733
 30
0.0
 40
1.000000371317915
100
AcDbArc
 50
0.0349136675
 51
89.9650863325
  0
LINE
  5
249
330
1F
100
AcDbEntity
  8
0
  6
Continuous
 62
     7
370
    25
100
AcDbLine
 10
244.0728153504
 20
124.187002259
 30
0.0
 11
254.5902755494
 21
124.187002259
 31
0.0
  0
LINE
  5
24A
330
1F
100
AcDbEntity
  8
0
  6
Continuous
 62
     7
370
    25
100
AcDbLine
 10
228.5896663765
 20
165.6701512329
 30
0.0
 11
228.5896663765
 21
139.6701512329
 31
0.0
  0
SPLINE
  5
24B
330
1F
100
AcDbEntity
  8
0
  6
Continuous
 62
     7
370
    25
100
AcDbSpline
210
0.0
220
0.0
230
1.0
 70
     8
 71
     3
 72
    12
 73
     8
 74
     0
 42
0.00000001
 43
0.00000001
 40
0.0
 40
0.0
 40
0.0
 40
0.0
 40
0.25
 40
0.25
 40
0.5
 40
0.5
 40
1.0
 40
1.0
 40
1.0
 40
1.0
 10
242.6978140618626
 20
181.0733716712945
 30
0.0
 10
242.8218437728615
 20
181.0843739101238
 30
0.0
 10
242.9411705722682
 20
181.1179609301157
 30
0.0
 10
243.163342581582
 20
181.2277167144662
 30
0.0
 10
243.2631759344151
 20
181.3028098713177
 30
0.0
 10
243.5131381601506
 20
181.5759537550187
 30
0.0
 10
243.6084839910642
 20
181.8197688190127
 30
0.0
 10
243.6083454784883
 20
182.0688042558096
 30
0.0
  0
LINE
  5
24C
330
1F
100
AcDbEntity
  8
0
  6
Continuous
 62
     7
370
    25
100
AcDbLine
 10
243.6083454785
 20
182.0688042558
 30
0.0
 11
243.6083454785
 21
194.2260584199
 31
0.0
  0
ELLIPSE
  5
24D
330
1F
100
AcDbEntity
  8
0
  6
Continuous
 62
     7
370
    25
100
AcDbEllipse
 10
243.1074313477
 20
194.2248397026
 30
0.0
 11
0.3548455112283477
 21
0.3548455112283193
 31
0.0
210
0.0
220
0.0
230
0.9999999999999998
 40
0.9963586389
 41
5.49839613136771
 42
6.867337124443562
  0
ARC
  5
24E
330
1F
100
AcDbEntity
  8
0
  6
Continuous
 62
     7
370
    25
100
AcDbCircle
 10
243.308783672
 20
195.2061051419
 30
0.0
 40
0.5004387235186311
100
AcDbArc
 50
180.0833916099
 51
258.4348339349
  0
LINE
  5
24F
330
1F
100
AcDbEntity
  8
0
  6
Continuous
 62
     7
100
AcDbLine
 10
301.7939183043
 20
323.955220827
 30
0.0
 11
301.8514811633
 21
323.9219904959
 31
0.0
  0
LINE
  5
250
330
1F
100
AcDbEntity
  8
0
  6
Continuous
 62
     7
100
AcDbLine
 10
301.7939183043
 20
323.955220827
 30
0.0
 11
301.7939183043
 21
324.0881637567
 31
0.0
  0
LINE
  5
251
330
1F
100
AcDbEntity
  8
0
  6
Continuous
 62
     7
100
AcDbLine
 10
301.7939183043
 20
323.955220827
 30
0.0
 11
301.8514811633
 21
323.9219904959
 31
0.0
  0
LINE
  5
252
330
1F
100
AcDbEntity
  8
0
  6
Continuous
 62
     7
100
AcDbLine
 10
301.7939183043
 20
323.955220827
 30
0.0
 11
301.7939183043
 21
324.0881637567
 31
0.0
  0
LINE
  5
253
330
1F
100
AcDbEntity
  8
0
  6
Continuous
 62
     7
100
AcDbLine
 10
300.0137622808
 20
322.927558629
 30
0.0
 11
300.0713251397
 21
322.8943282979
 31
0.0
  0
LINE
  5
254
330
1F
100
AcDbEntity
  8
0
  6
Continuous
 62
     7
100
AcDbLine
 10
300.0137622808
 20
322.927558629
 30
0.0
 11
300.0137622808
 21
323.0605015587
 31
0.0
  0
POINT
  5
255
330
1F
100
AcDbEntity
  8
0
  6
Continuous
 62
     7
100
AcDbPoint
 10
301.7939183043
 20
323.955220827
 30
0.0
  0
POINT
  5
256
330
1F
100
AcDbEntity
  8
0
  6
Continuous
 62
     7
100
AcDbPoint
 10
301.7939183043
 20
323.955220827
 30
0.0
  0
POINT
  5
257
330
1F
100
AcDbEntity
  8
0
  6
Continuous
 62
     7
100
AcDbPoint
 10
300.0137622808
 20
322.927558629
 30
0.0
  0
LINE
  5
258
330
1F
100
AcDbEntity
  8
0
  6
Continuous
 62
     7
370
    25
100
AcDbLine
 10
254.0947840316
 20
348.0498291525
 30
0.0
 11
254.2374904175
 21
348.1278775773
 31
0.0
  0
LINE
  5
259
330
1F
100
AcDbEntity
  8
0
  6
Continuous
 62
     7
370
    25
100
AcDbLine
 10
253.5512573651
 20
345.7870827422
 30
0.0
 11
253.4123045279
 21
345.7011663308
 31
0.0
  0
SPLINE
  5
25A
330
1F
100
AcDbEntity
  8
0
  6
Continuous
 62
     7
370
    25
100
AcDbSpline
210
0.0
220
0.0
230
1.0
 70
     8
 71
     3
 72
    13
 73
     9
 74
     0
 42
0.00000001
 43
0.00000001
 40
0.0
 40
0.0
 40
0.0
 40
0.0
 40
0.1266051430328333
 40
0.3630963748717514
 40
0.5703139299199961
 40
0.7684134175808431
 40
0.9813810913662001
 40
1.0
 40
1.0
 40
1.0
 40
1.0
 10
302.7910314663364
 20
247.4964437390935
 30
0.0
 10
302.9846668789673
 20
247.3915972676597
 30
0.0
 10
303.5400022681057
 20
247.0909035297611
 30
0.0
 10
304.4371787027892
 20
246.7886581774441
 30
0.0
 10
305.4571004854919
 20
246.6562717386554
 30
0.0
 10
306.4087066887888
 20
246.773520465846
 30
0.0
 10
307.065845182585
 20
246.9637267378418
 30
0.0
 10
307.3508211230588
 20
247.1783250819806
 30
0.0
 10
307.3737323856333
 20
247.1955781841282
 30
0.0
  0
SPLINE
  5
25B
330
1F
100
AcDbEntity
  8
0
  6
Continuous
 62
     7
370
    25
100
AcDbSpline
210
0.0
220
0.0
230
1.0
 70
     8
 71
     3
 72
    12
 73
     8
 74
     0
 42
0.00000001
 43
0.00000001
 40
0.0
 40
0.0
 40
0.0
 40
0.0
 40
0.1720402780451535
 40
0.3771909008551561
 40
0.5858452861490443
 40
0.8037340475803691
 40
1.0
 40
1.0
 40
1.0
 40
1.0
 10
238.0268042521391
 20
367.1139246071396
 30
0.0
 10
237.8098624310659
 20
366.9701847356702
 30
0.0
 10
237.3342268307661
 20
366.6550412575008
 30
0.0
 10
236.7838279187919
 20
365.9394732322152
 30
0.0
 10
236.3617737989805
 20
365.0564043381018
 30
0.0
 10
236.1177407867358
 20
364.0846752642109
 30
0.0
 10
236.089353281271
 20
363.3829285048961
 30
0.0
 10
236.0759005772198
 20
363.0503740476652
 30
0.0
  0
LINE
  5
25C
330
1F
100
AcDbEntity
  8
0
  6
Continuous
 62
     7
370
    25
100
AcDbLine
 10
307.3047945119
 20
247.1446768895
 30
0.0
 11
321.2789235217
 21
254.8182882583
 31
0.0
  0
LINE
  5
25D
330
1F
100
AcDbEntity
  8
0
  6
Continuous
 62
     7
370
    25
100
AcDbLine
 10
251.6619088733
 20
375.4000144509
 30
0.0
 11
238.028526458
 21
367.1361487127
 31
0.0
  0
LINE
  5
25E
330
1F
100
AcDbEntity
  8
0
  6
Continuous
 62
     7
370
    25
100
AcDbLine
 10
322.8174348721
 20
272.565899594
 30
0.0
 11
322.1103280909
 21
272.9741036499
 31
0.0
  0
LINE
  5
25F
330
1F
100
AcDbEntity
  8
0
  6
Continuous
 62
     7
370
    25
100
AcDbLine
 10
267.7994088807
 20
367.0434178154
 30
0.0
 11
267.7994088807
 21
367.8599586273
 31
0.0
  0
LINE
  5
260
330
1F
100
AcDbEntity
  8
0
  6
Continuous
 62
     7
370
    25
100
AcDbLine
 10
247.3287176907
 20
349.3792784342
 30
0.0
 11
247.1897648534
 21
349.2933620228
 31
0.0
  0
LINE
  5
261
330
1F
100
AcDbEntity
  8
0
  6
Continuous
 62
     7
370
    25
100
AcDbLine
 10
241.2727415031
 20
283.0101966034
 30
0.0
 11
302.7910314663
 21
247.4964437391
 31
0.0
  0
LINE
  5
262
330
1F
100
AcDbEntity
  8
0
  6
Continuous
 62
     7
370
    25
100
AcDbLine
 10
236.0759005772
 20
363.0503740477
 30
0.0
 11
236.0759005772
 21
292.0113234136
 31
0.0
  0
SPLINE
  5
263
330
1F
100
AcDbEntity
  8
0
  6
Continuous
 62
     7
370
    25
100
AcDbSpline
210
0.0
220
0.0
230
1.0
 70
     8
 71
     3
 72
    16
 73
    12
 74
     0
 42
0.00000001
 43
0.00000001
 40
0.0
 40
0.0
 40
0.0
 40
0.0
 40
0.0670758498901228
 40
0.1904838675203387
 40
0.3134605008303256
 40
0.4359743511172492
 40
0.5582663545861904
 40
0.6807759904412347
 40
0.8038535944642066
 40
0.9280275947904565
 40
1.0
 40
1.0
 40
1.0
 40
1.0
 10
236.0759005772198
 20
292.0113234136049
 30
0.0
 10
236.0818197514695
 20
291.7890231744722
 30
0.0
 10
236.098629187436
 20
291.1577287612064
 30
0.0
 10
236.2782898199386
 20
290.0735062186097
 30
0.0
 10
236.6608804132539
 20
288.781624049689
 30
0.0
 10
237.2109564781281
 20
287.5102727456003
 30
0.0
 10
237.906326354364
 20
286.2985052560276
 30
0.0
 10
238.7272595429519
 20
285.1806789805549
 30
0.0
 10
239.652923546111
 20
284.1941998273338
 30
0.0
 10
240.5153250361014
 20
283.4766389424773
 30
0.0
 10
241.0694246051834
 20
283.1354059348079
 30
0.0
 10
241.272741503107
 20
283.0101966033814
 30
0.0
  0
SPLINE
  5
264
330
1F
100
AcDbEntity
  8
0
  6
Continuous
 62
     7
370
    25
100
AcDbSpline
210
0.0
220
0.0
230
1.0
 70
     8
 71
     3
 72
    12
 73
     8
 74
     0
 42
0.00000001
 43
0.00000001
 40
0.0
 40
0.0
 40
0.0
 40
0.0
 40
0.1222507621701647
 40
0.3533218594282349
 40
0.5841258931336902
 40
0.8145374396000875
 40
1.0
 40
1.0
 40
1.0
 40
1.0
 10
315.9161709618686
 20
325.7018915111764
 30
0.0
 10
315.9109716612041
 20
325.9128511760985
 30
0.0
 10
315.8959449526104
 20
326.5225542139482
 30
0.0
 10
315.7314182689643
 20
327.5904860365047
 30
0.0
 10
315.3689755597812
 20
328.8858721406011
 30
0.0
 10
314.8840621984117
 20
330.0992795953247
 30
0.0
 10
314.4772874357585
 20
330.8459642773162
 30
0.0
 10
314.295882804544
 20
331.178954599741
 30
0.0
  0
SPLINE
  5
265
330
1F
100
AcDbEntity
  8
0
  6
Continuous
 62
     7
370
    25
100
AcDbSpline
210
0.0
220
0.0
230
1.0
 70
     8
 71
     3
 72
    12
 73
     8
 74
     0
 42
0.00000001
 43
0.00000001
 40
0.0
 40
0.0
 40
0.0
 40
0.0
 40
0.1213180311048027
 40
0.3513670311256575
 40
0.5819401858868288
 40
0.8131086069759553
 40
1.0
 40
1.0
 40
1.0
 40
1.0
 10
314.295882804544
 20
331.178954599741
 30
0.0
 10
314.1683889108202
 20
331.3915210963816
 30
0.0
 10
313.7991350536941
 20
332.0071662577909
 30
0.0
 10
313.0964137247117
 20
332.9597282234775
 30
0.0
 10
312.1767171309393
 20
333.9618944718082
 30
0.0
 10
311.2535798333602
 20
334.7621085442044
 30
0.0
 10
310.6380286391856
 20
335.1479942983908
 30
0.0
 10
310.3628497861285
 20
335.3205024508451
 30
0.0
  0
LINE
  5
266
330
1F
100
AcDbEntity
  8
0
  6
Continuous
 62
     7
370
    25
100
AcDbLine
 10
315.9161709619
 20
324.9141137917
 30
0.0
 11
315.9161709619
 21
325.7018915112
 31
0.0
  0
LINE
  5
267
330
1F
100
AcDbEntity
  8
0
  6
Continuous
 62
     7
370
    25
100
AcDbLine
 10
310.3628497861
 20
335.3205024508
 30
0.0
 11
309.6806512243
 21
335.7143272978
 31
0.0
  0
SPLINE
  5
268
330
1F
100
AcDbEntity
  8
0
  6
Continuous
 62
     7
370
    25
100
AcDbSpline
210
0.0
220
0.0
230
1.0
 70
     8
 71
     3
 72
    12
 73
     8
 74
     0
 42
0.00000001
 43
0.00000001
 40
0.0
 40
0.0
 40
0.0
 40
0.0
 40
0.1827248672993451
 40
0.3703281524848634
 40
0.5752285948710646
 40
0.7898142246828843
 40
0.9999999999999999
 40
0.9999999999999999
 40
0.9999999999999999
 40
0.9999999999999999
 10
315.3504855369193
 20
323.7878971425721
 30
0.0
 10
315.3527067103468
 20
323.8256728455201
 30
0.0
 10
315.3572083584472
 20
323.9022327932071
 30
0.0
 10
315.404723784866
 20
324.0664964216401
 30
0.0
 10
315.488159697354
 20
324.2413708106846
 30
0.0
 10
315.6056785856756
 20
324.4111397049169
 30
0.0
 10
315.6897804719046
 20
324.4879777123316
 30
0.0
 10
315.7313958441947
 20
324.5259987654611
 30
0.0
  0
SPLINE
  5
269
330
1F
100
AcDbEntity
  8
0
  6
Continuous
 62
     7
370
    25
100
AcDbSpline
210
0.0
220
0.0
230
1.0
 70
     8
 71
     3
 72
    12
 73
     8
 74
     0
 42
0.00000001
 43
0.00000001
 40
0.0
 40
0.0
 40
0.0
 40
0.0
 40
0.1844117171176148
 40
0.3860201160577384
 40
0.5994931915183298
 40
0.8132183896848719
 40
1.0
 40
1.0
 40
1.0
 40
1.0
 10
309.2521974089207
 20
335.7483649439755
 30
0.0
 10
309.2057095521678
 20
335.7332795106335
 30
0.0
 10
309.1083987731156
 20
335.7017019036328
 30
0.0
 10
308.9157348071146
 20
335.6806996358348
 30
0.0
 10
308.7135782323433
 20
335.6908279604313
 30
0.0
 10
308.5317193848436
 20
335.7329437365365
 30
0.0
 10
308.4572247167457
 20
335.7701664678227
 30
0.0
 10
308.4224831498795
 20
335.7875257774342
 30
0.0
  0
ARC
  5
26A
330
1F
100
AcDbEntity
  8
0
  6
Continuous
 62
     7
370
    25
100
AcDbCircle
 10
315.4161709619
 20
324.9141137917
 30
0.0
 40
0.5000000000000081
100
AcDbArc
 50
309.0833131565
 51
0.0
  0
ARC
  5
26B
330
1F
100
AcDbEntity
  8
0
  6
Continuous
 62
     7
370
    25
100
AcDbCircle
 10
309.4306715411
 20
335.2813028666
 30
0.0
 40
0.4999999999999893
100
AcDbArc
 50
60.0026882664
 51
110.9128963445
  0
LINE
  5
26C
330
1F
100
AcDbEntity
  8
0
  6
Continuous
 62
     7
370
    25
100
AcDbLine
 10
315.3504855369
 20
313.9142476858
 30
0.0
 11
315.3504855369
 21
323.7878971426
 31
0.0
  0
LINE
  5
26D
330
1F
100
AcDbEntity
  8
0
  6
Continuous
 62
     7
370
    25
100
AcDbLine
 10
308.4224831499
 20
335.7875257774
 30
0.0
 11
299.8721150797
 21
340.7235481982
 31
0.0
  0
SPLINE
  5
26E
330
1F
100
AcDbEntity
  8
0
  6
Continuous
 62
     7
370
    25
100
AcDbSpline
210
0.0
220
0.0
230
1.0
 70
     8
 71
     3
 72
    10
 73
     6
 74
     0
 42
0.00000001
 43
0.00000001
 40
0.0
 40
0.0
 40
0.0
 40
0.0
 40
0.5306774665425062
 40
0.901278544706438
 40
0.9999999999999999
 40
0.9999999999999999
 40
0.9999999999999999
 40
0.9999999999999999
 10
315.4093076708778
 20
313.6635319952314
 30
0.0
 10
315.4029357202937
 20
313.6652118532903
 30
0.0
 10
315.3921138883686
 20
313.6680648480415
 30
0.0
 10
315.352465404723
 20
313.805753393051
 30
0.0
 10
315.3508296219457
 20
313.8953922543636
 30
0.0
 10
315.3504855369193
 20
313.9142476857755
 30
0.0
  0
SPLINE
  5
26F
330
1F
100
AcDbEntity
  8
0
  6
Continuous
 62
     7
370
    25
100
AcDbSpline
210
0.0
220
0.0
230
1.0
 70
     8
 71
     3
 72
    10
 73
     6
 74
     0
 42
0.00000001
 43
0.00000001
 40
0.0
 40
0.0
 40
0.0
 40
0.0
 40
0.2773775615106401
 40
0.6557611396166989
 40
0.9999999999999999
 40
0.9999999999999999
 40
0.9999999999999999
 40
0.9999999999999999
 10
299.8721150796836
 20
340.7235481981668
 30
0.0
 10
299.829585183613
 20
340.7515001838233
 30
0.0
 10
299.7290382865852
 20
340.8175827676802
 30
0.0
 10
299.6813154646272
 20
340.8974524803293
 30
0.0
 10
299.6832794614108
 20
340.8985010819172
 30
0.0
 10
299.6842150592811
 20
340.8990006089127
 30
0.0
  0
SPLINE
  5
270
330
1F
100
AcDbEntity
  8
0
  6
Continuous
 62
     7
370
    25
100
AcDbSpline
210
0.0
220
0.0
230
1.0
 70
     8
 71
     3
 72
    10
 73
     6
 74
     0
 42
0.00000001
 43
0.00000001
 40
0.0
 40
0.0
 40
0.0
 40
0.0
 40
0.2551625089414171
 40
0.7398397183883679
 40
1.0
 40
1.0
 40
1.0
 40
1.0
 10
334.4423686289562
 20
311.4923430135386
 30
0.0
 10
334.4366782250609
 20
311.7749676649677
 30
0.0
 10
334.420178987642
 20
312.5944334375467
 30
0.0
 10
334.3055341057929
 20
313.6530247930397
 30
0.0
 10
334.1029959359066
 20
314.3513388934335
 30
0.0
 10
334.0322524677712
 20
314.5952492701167
 30
0.0
  0
SPLINE
  5
271
330
1F
100
AcDbEntity
  8
0
  6
Continuous
 62
     7
370
    25
100
AcDbSpline
210
0.0
220
0.0
230
1.0
 70
     8
 71
     3
 72
    10
 73
     6
 74
     0
 42
0.00000001
 43
0.00000001
 40
0.0
 40
0.0
 40
0.0
 40
0.0
 40
0.0593522069858468
 40
0.5474989024882578
 40
1.0
 40
1.0
 40
1.0
 40
1.0
 10
309.7873158709982
 20
356.5980737653071
 30
0.0
 10
309.7502767162224
 20
356.6400890076799
 30
0.0
 10
309.4086062439904
 20
357.0276617746431
 30
0.0
 10
308.5982546354556
 20
357.6659045413845
 30
0.0
 10
307.7367295417225
 20
358.20590417532
 30
0.0
 10
307.3222906270264
 20
358.4656724210189
 30
0.0
  0
LINE
  5
272
330
1F
100
AcDbEntity
  8
0
  6
Continuous
 62
     7
370
    25
100
AcDbLine
 10
331.2932235733
 20
318.6552011513
 30
0.0
 11
330.9245591123
 21
318.889588222
 31
0.0
  0
LINE
  5
273
330
1F
100
AcDbEntity
  8
0
  6
Continuous
 62
     7
370
    25
100
AcDbLine
 10
311.9690469634
 20
351.722120842
 30
0.0
 11
311.950373555
 21
352.1586218877
 31
0.0
  0
LINE
  5
274
330
1F
100
AcDbEntity
  8
0
  6
Continuous
 62
     7
370
    25
100
AcDbLine
 10
334.442368629
 20
302.5102738129
 30
0.0
 11
334.442368629
 21
311.4923430135
 31
0.0
  0
LINE
  5
275
330
1F
100
AcDbEntity
  8
0
  6
Continuous
 62
     7
370
    25
100
AcDbLine
 10
307.322290627
 20
358.465672421
 30
0.0
 11
288.9375143162
 21
369.0789778747
 31
0.0
  0
SPLINE
  5
276
330
1F
100
AcDbEntity
  8
0
  6
Continuous
 62
     7
370
    25
100
AcDbSpline
210
0.0
220
0.0
230
1.0
 70
     8
 71
     3
 72
    19
 73
    15
 74
     0
 42
0.00000001
 43
0.00000001
 40
0.0
 40
0.0
 40
0.0
 40
0.0
 40
0.045824602600962
 40
0.132751009512235
 40
0.219637406316533
 40
0.3064572217931545
 40
0.3932271581057112
 40
0.4799705074933608
 40
0.5667131599732497
 40
0.6534766130836642
 40
0.7402850539559709
 40
0.8271660922522309
 40
0.9141453300190587
 40
1.0
 40
1.0
 40
1.0
 40
1.0
 10
324.5827909415854
 20
272.1124004384877
 30
0.0
 10
324.8275333075391
 20
272.2847497427421
 30
0.0
 10
325.5365366443206
 20
272.7840349046394
 30
0.0
 10
326.6869403907712
 20
273.7539589004102
 30
0.0
 10
327.9992241476327
 20
275.0621824388522
 30
0.0
 10
329.2365151325579
 20
276.5183716816715
 30
0.0
 10
330.379644698298
 20
278.0954481883675
 30
0.0
 10
331.4106520953954
 20
279.7691105334445
 30
0.0
 10
332.3133750939476
 20
281.51255956737
 30
0.0
 10
333.0730938236604
 20
283.2981066366886
 30
0.0
 10
333.6786619531113
 20
285.0982446350317
 30
0.0
 10
334.1156082656811
 20
286.8824892553062
 30
0.0
 10
334.3911806485606
 20
288.6234624432388
 30
0.0
 10
334.4253801434094
 20
289.7183835026505
 30
0.0
 10
334.4423686289562
 20
290.2622819045091
 30
0.0
  0
SPLINE
  5
277
330
1F
100
AcDbEntity
  8
0
  6
Continuous
 62
     7
370
    25
100
AcDbSpline
210
0.0
220
0.0
230
1.0
 70
     8
 71
     3
 72
    19
 73
    15
 74
     0
 42
0.00000001
 43
0.00000001
 40
0.0
 40
0.0
 40
0.0
 40
0.0
 40
0.0458678349599606
 40
0.1328350601340641
 40
0.2197699514925437
 40
0.3066349295102623
 40
0.3934373057288573
 40
0.4801965242825892
 40
0.5669369579691682
 40
0.6536849468533849
 40
0.7404594545098405
 40
0.8272875426833247
 40
0.9141965309142077
 40
1.0
 40
1.0
 40
1.0
 40
1.0
 10
288.9375143161762
 20
369.0789778747141
 30
0.0
 10
288.685345205025
 20
369.2187191561276
 30
0.0
 10
287.9550535077395
 20
369.6234154217345
 30
0.0
 10
286.6206433124865
 20
370.2067967178413
 30
0.0
 10
284.9096134877854
 20
370.7801396627081
 30
0.0
 10
283.0876808022308
 20
371.2192768983676
 30
0.0
 10
281.1873471048048
 20
371.519616052286
 30
0.0
 10
279.2380743973973
 20
371.6763603829612
 30
0.0
 10
277.27093612747
 20
371.6874576144707
 30
0.0
 10
275.3173533451119
 20
371.5525350439279
 30
0.0
 10
273.4072826742775
 20
371.2743175839908
 30
0.0
 10
271.574773298415
 20
370.8540060820121
 30
0.0
 10
269.8426292884214
 20
370.3105136130803
 30
0.0
 10
268.8050443664171
 20
369.845977043134
 30
0.0
 10
268.2895726560248
 20
369.6151954895745
 30
0.0
  0
LINE
  5
278
330
1F
100
AcDbEntity
  8
0
  6
Continuous
 62
     7
370
    25
100
AcDbLine
 10
334.442368629
 20
290.2622819045
 30
0.0
 11
334.442368629
 21
298.3461562121
 31
0.0
  0
SPLINE
  5
279
330
1F
100
AcDbEntity
  8
0
  6
Continuous
 62
     7
370
    25
100
AcDbSpline
210
0.0
220
0.0
230
1.0
 70
     8
 71
     3
 72
    13
 73
     9
 74
     0
 42
0.00000001
 43
0.00000001
 40
0.0
 40
0.0
 40
0.0
 40
0.0
 40
0.095722834839978
 40
0.2958105038416845
 40
0.5053551053089742
 40
0.7235372072400176
 40
0.9410133164421778
 40
1.0
 40
1.0
 40
1.0
 40
1.0
 10
323.8421046050449
 20
270.7567172029241
 30
0.0
 10
323.8410144821182
 20
270.793401804618
 30
0.0
 10
323.8376456954257
 20
270.9067675498808
 30
0.0
 10
323.9027509162706
 20
271.1778558000304
 30
0.0
 10
324.0497148737967
 20
271.5158960224159
 30
0.0
 10
324.2652374764413
 20
271.8311005282937
 30
0.0
 10
324.4635526145624
 20
272.0347303389916
 30
0.0
 10
324.5601527722307
 20
272.0922351871309
 30
0.0
 10
324.5807635852631
 20
272.1045045426068
 30
0.0
  0
SPLINE
  5
27A
330
1F
100
AcDbEntity
  8
0
  6
Continuous
 62
     7
370
    25
100
AcDbSpline
210
0.0
220
0.0
230
1.0
 70
     8
 71
     3
 72
    13
 73
     9
 74
     0
 42
0.00000001
 43
0.00000001
 40
0.0
 40
0.0
 40
0.0
 40
0.0
 40
0.0193938395284971
 40
0.2193254917463019
 40
0.4293601714328164
 40
0.6472657460046792
 40
0.865211174714268
 40
1.0
 40
1.0
 40
1.0
 40
1.0
 10
268.2869434499378
 20
369.6158514826679
 30
0.0
 10
268.2802312009297
 20
369.6120075138048
 30
0.0
 10
268.2043221829015
 20
369.5685359588335
 30
0.0
 10
267.9765594912465
 20
369.4998720521912
 30
0.0
 10
267.6157649296491
 20
369.4526048666149
 30
0.0
 10
267.2304924590527
 20
369.475613206299
 30
0.0
 10
266.9162894733543
 20
369.5541976343517
 30
0.0
 10
266.7913550608327
 20
369.6248057914217
 30
0.0
 10
266.7436144104399
 20
369.6517869831809
 30
0.0
  0
LINE
  5
27B
330
1F
100
AcDbEntity
  8
0
  6
Continuous
 62
     7
370
    25
100
AcDbLine
 10
323.8357669112
 20
260.8221574272
 30
0.0
 11
323.8357669112
 21
270.7490516127
 31
0.0
  0
LINE
  5
27C
330
1F
100
AcDbEntity
  8
0
  6
Continuous
 62
     7
370
    25
100
AcDbLine
 10
266.7353138435
 20
369.6499137115
 30
0.0
 11
258.1388369835
 21
374.61255417
 31
0.0
  0
SPLINE
  5
27D
330
1F
100
AcDbEntity
  8
0
  6
Continuous
 62
     7
370
    25
100
AcDbSpline
210
0.0
220
0.0
230
1.0
 70
     8
 71
     3
 72
     9
 73
     5
 74
     0
 42
0.00000001
 43
0.00000001
 40
0.0
 40
0.0
 40
0.0
 40
0.0
 40
0.450537452465926
 40
1.0
 40
1.0
 40
1.0
 40
1.0
 10
323.8424792691424
 20
260.7542142745144
 30
0.0
 10
323.8422536331734
 20
260.7533514468742
 30
0.0
 10
323.8417528180518
 20
260.7514363394055
 30
0.0
 10
323.8378896030916
 20
260.7970786738431
 30
0.0
 10
323.8357669111579
 20
260.8221574271986
 30
0.0
  0
SPLINE
  5
27E
330
1F
100
AcDbEntity
  8
0
  6
Continuous
 62
     7
370
    25
100
AcDbSpline
210
0.0
220
0.0
230
1.0
 70
     8
 71
     3
 72
     9
 73
     5
 74
     0
 42
0.00000001
 43
0.00000001
 40
0.0
 40
0.0
 40
0.0
 40
0.0
 40
0.5833518201678292
 40
1.0
 40
1.0
 40
1.0
 40
1.0
 10
258.138836983488
 20
374.612554170022
 30
0.0
 10
258.1171785640998
 20
374.6277807229673
 30
0.0
 10
258.0800510217841
 20
374.6538825579473
 30
0.0
 10
258.0819985156037
 20
374.6531888185658
 30
0.0
 10
258.0828099353589
 20
374.6528997733151
 30
0.0
  0
ARC
  5
27F
330
1F
100
AcDbEntity
  8
0
  6
Continuous
 62
     7
370
    25
100
AcDbCircle
 10
323.9014523361
 20
260.3490672676
 30
0.0
 40
0.5
100
AcDbArc
 50
0.0
 51
56.5412924772
  0
ARC
  5
280
330
1F
100
AcDbEntity
  8
0
  6
Continuous
 62
     7
370
    25
100
AcDbCircle
 10
257.7620600758
 20
374.9058547079
 30
0.0
 40
0.4999999999999893
100
AcDbArc
 50
3.4611054326
 51
60.0026882664
  0
LINE
  5
281
330
1F
100
AcDbEntity
  8
0
  6
Continuous
 62
     7
370
    25
100
AcDbLine
 10
324.4014523361
 20
259.5612895481
 30
0.0
 11
324.4014523361
 21
260.3490672676
 31
0.0
  0
LINE
  5
282
330
1F
100
AcDbEntity
  8
0
  6
Continuous
 62
     7
370
    25
100
AcDbLine
 10
258.012039759
 20
375.3388791391
 30
0.0
 11
257.3298411971
 21
375.7327039861
 31
0.0
  0
LINE
  5
283
330
1F
100
AcDbEntity
  8
0
  6
Continuous
 62
     7
370
    25
100
AcDbLine
 10
324.1771202707
 20
260.766208958
 30
0.0
 11
323.8357669112
 21
260.9917922016
 31
0.0
  0
LINE
  5
284
330
1F
100
AcDbEntity
  8
0
  6
Continuous
 62
     7
370
    25
100
AcDbLine
 10
258.2858457513
 20
374.5276878148
 30
0.0
 11
258.2611480811
 21
374.9360401847
 31
0.0
  0
SPLINE
  5
285
330
1F
100
AcDbEntity
  8
0
  6
Continuous
 62
     7
370
    25
100
AcDbSpline
210
0.0
220
0.0
230
1.0
 70
     8
 71
     3
 72
    10
 73
     6
 74
     0
 42
0.00000001
 43
0.00000001
 40
0.0
 40
0.0
 40
0.0
 40
0.0
 40
0.3014255433961132
 40
0.6446015878629292
 40
1.0
 40
1.0
 40
1.0
 40
1.0
 10
323.6452189613228
 20
256.7064660807723
 30
0.0
 10
323.7853945669947
 20
256.9435067686358
 30
0.0
 10
324.0851615242929
 20
257.4504206886157
 30
0.0
 10
324.3457134159941
 20
258.4147183272898
 30
0.0
 10
324.3826572377798
 20
259.1746670804857
 30
0.0
 10
324.4014523361072
 20
259.5612895480525
 30
0.0
  0
SPLINE
  5
286
330
1F
100
AcDbEntity
  8
0
  6
Continuous
 62
     7
370
    25
100
AcDbSpline
210
0.0
220
0.0
230
1.0
 70
     8
 71
     3
 72
    10
 73
     6
 74
     0
 42
0.00000001
 43
0.00000001
 40
0.0
 40
0.0
 40
0.0
 40
0.0
 40
0.0015036016371374
 40
0.5330972643844161
 40
1.0
 40
1.0
 40
1.0
 40
1.0
 10
254.7536436869924
 20
376.5216928864216
 30
0.0
 10
254.7527117598105
 20
376.5218179863209
 30
0.0
 10
254.422299888067
 20
376.5661717648647
 30
0.0
 10
253.8382942764365
 20
376.4506548777812
 30
0.0
 10
253.3214842619184
 20
376.2143164463769
 30
0.0
 10
253.0798208869
 20
376.1038032183526
 30
0.0
  0
SPLINE
  5
287
330
1F
100
AcDbEntity
  8
0
  6
Continuous
 62
     7
370
    25
100
AcDbSpline
210
0.0
220
0.0
230
1.0
 70
     8
 71
     3
 72
    10
 73
     6
 74
     0
 42
0.00000001
 43
0.00000001
 40
0.0
 40
0.0
 40
0.0
 40
0.0
 40
0.2086683695896017
 40
0.6050476846310306
 40
1.0
 40
1.0
 40
1.0
 40
1.0
 10
257.3298411971375
 20
375.7327039860692
 30
0.0
 10
257.148619007392
 20
375.8309900356729
 30
0.0
 10
256.6231533293644
 20
376.1159769115525
 30
0.0
 10
255.7485603403696
 20
376.4366025200369
 30
0.0
 10
255.0848836378056
 20
376.4933635498081
 30
0.0
 10
254.7536436869924
 20
376.5216928864216
 30
0.0
  0
SPLINE
  5
288
330
1F
100
AcDbEntity
  8
0
  6
Continuous
 62
     7
370
    25
100
AcDbSpline
210
0.0
220
0.0
230
1.0
 70
     8
 71
     3
 72
    10
 73
     6
 74
     0
 42
0.00000001
 43
0.00000001
 40
0.0
 40
0.0
 40
0.0
 40
0.0
 40
0.4042698144179334
 40
0.8977339425371872
 40
0.9999999999999999
 40
0.9999999999999999
 40
0.9999999999999999
 40
0.9999999999999999
 10
323.010453542132
 20
315.2564472693988
 30
0.0
 10
323.3222606706467
 20
315.428155956169
 30
0.0
 10
324.0146691384809
 20
315.8094575296342
 30
0.0
 10
324.7712047643564
 20
316.0979074611527
 30
0.0
 10
325.1800231759549
 20
316.1678196786207
 30
0.0
 10
325.2502030127069
 20
316.179821163558
 30
0.0
  0
SPLINE
  5
289
330
1F
100
AcDbEntity
  8
0
  6
Continuous
 62
     7
370
    25
100
AcDbSpline
210
0.0
220
0.0
230
1.0
 70
     8
 71
     3
 72
    22
 73
    18
 74
     0
 42
0.00000001
 43
0.00000001
 40
0.0
 40
0.0
 40
0.0
 40
0.0
 40
0.0070173450176994
 40
0.0830873772340878
 40
0.1582188461995026
 40
0.2331601959804362
 40
0.3081498069959324
 40
0.3833258756936635
 40
0.4586974173172124
 40
0.534219563035883
 40
0.6098270989406139
 40
0.6854478329394736
 40
0.7609859502360529
 40
0.8363626222133768
 40
0.9115059291557276
 40
0.9863591657948955
 40
1.0
 40
1.0
 40
1.0
 40
1.0
 10
315.0165629705538
 20
298.1368699752847
 30
0.0
 10
315.0040600930434
 20
298.1655066104842
 30
0.0
 10
314.8560224381197
 20
298.504572582804
 30
0.0
 10
314.7058822299375
 20
299.3283463489327
 30
0.0
 10
314.5948640606761
 20
300.5830732036891
 30
0.0
 10
314.6634825018585
 20
301.9718339902306
 30
0.0
 10
314.8949454755285
 20
303.4415688337763
 30
0.0
 10
315.29194575108
 20
304.9676917674773
 30
0.0
 10
315.8468548464351
 20
306.515046055293
 30
0.0
 10
316.5493803707317
 20
308.0495904453353
 30
0.0
 10
317.3846956839369
 20
309.5365846333688
 30
0.0
 10
318.3344045455558
 20
310.9430211197526
 30
0.0
 10
319.3765183519515
 20
312.2357572173564
 30
0.0
 10
320.4871858943006
 20
313.3924970861218
 30
0.0
 10
321.6367767440059
 20
314.3654285460885
 30
0.0
 10
322.4897149988505
 20
314.9886191487572
 30
0.0
 10
322.9409052507846
 20
315.2206769420325
 30
0.0
 10
323.010453542132
 20
315.2564472693988
 30
0.0
  0
SPLINE
  5
28A
330
1F
100
AcDbEntity
  8
0
  6
Continuous
 62
     7
370
    25
100
AcDbSpline
210
0.0
220
0.0
230
1.0
 70
     8
 71
     3
 72
     9
 73
     5
 74
     0
 42
0.00000001
 43
0.00000001
 40
0.0
 40
0.0
 40
0.0
 40
0.0
 40
0.4736009317024392
 40
0.9999999999999999
 40
0.9999999999999999
 40
0.9999999999999999
 40
0.9999999999999999
 10
306.5360791285519
 20
347.9145238217809
 30
0.0
 10
306.313974129858
 20
347.7072853665488
 30
0.0
 10
305.84500334913
 20
347.2697050296878
 30
0.0
 10
305.2121039095751
 20
346.8827562119418
 30
0.0
 10
304.8789462342673
 20
346.6790667148015
 30
0.0
  0
SPLINE
  5
28B
330
1F
100
AcDbEntity
  8
0
  6
Continuous
 62
     7
370
    25
100
AcDbSpline
210
0.0
220
0.0
230
1.0
 70
     8
 71
     3
 72
    20
 73
    16
 74
     0
 42
0.00000001
 43
0.00000001
 40
0.0
 40
0.0
 40
0.0
 40
0.0
 40
0.0432656669540655
 40
0.1262527527795019
 40
0.2094855211635458
 40
0.2929416221615629
 40
0.3765876250926346
 40
0.4603571714100624
 40
0.5441722190131985
 40
0.6279376896184586
 40
0.7115557875342944
 40
0.7949444518843282
 40
0.8780318855719199
 40
0.9607803189115005
 40
1.0
 40
1.0
 40
1.0
 40
1.0
 10
304.8789462342673
 20
346.6790667148015
 30
0.0
 10
304.6733582876337
 20
346.5655540151724
 30
0.0
 10
304.0734358542562
 20
346.2343146789378
 30
0.0
 10
302.947263107464
 20
345.7546000212795
 30
0.0
 10
301.47566213304
 20
345.2896485651738
 30
0.0
 10
299.890612559107
 20
344.9478725624268
 30
0.0
 10
298.2300221476943
 20
344.7373788533711
 30
0.0
 10
296.5296092050457
 20
344.6644037256747
 30
0.0
 10
294.8276528283248
 20
344.7310558382538
 30
0.0
 10
293.1621138801535
 20
344.9356223666094
 30
0.0
 10
291.5715882854147
 20
345.2728546825086
 30
0.0
 10
290.088001739492
 20
345.7321271166864
 30
0.0
 10
288.7584080863771
 20
346.3045403894485
 30
0.0
 10
287.7679744594914
 20
346.8432533151537
 30
0.0
 10
287.3045217759628
 20
347.2080049551553
 30
0.0
 10
287.1554953969553
 20
347.3252933387993
 30
0.0
  0
SPLINE
  5
28C
330
1F
100
AcDbEntity
  8
0
  6
Continuous
 62
     7
370
    25
100
AcDbSpline
210
0.0
220
0.0
230
1.0
 70
     8
 71
     3
 72
    10
 73
     6
 74
     0
 42
0.00000001
 43
0.00000001
 40
0.0
 40
0.0
 40
0.0
 40
0.0
 40
0.3352535143967047
 40
0.7444742310581145
 40
1.0
 40
1.0
 40
1.0
 40
1.0
 10
323.010453542132
 20
294.0263861603694
 30
0.0
 10
323.3227562834515
 20
294.1993012630262
 30
0.0
 10
324.0162653242726
 20
294.5832818405913
 30
0.0
 10
324.9201735546228
 20
294.9107385238369
 30
0.0
 10
325.4665002606046
 20
294.9956458849977
 30
0.0
 10
325.676505961519
 20
295.0282839195256
 30
0.0
  0
SPLINE
  5
28D
330
1F
100
AcDbEntity
  8
0
  6
Continuous
 62
     7
370
    25
100
AcDbSpline
210
0.0
220
0.0
230
1.0
 70
     8
 71
     3
 72
    21
 73
    17
 74
     0
 42
0.00000001
 43
0.00000001
 40
0.0
 40
0.0
 40
0.0
 40
0.0
 40
0.0544382116608495
 40
0.1319171822755018
 40
0.2092000933839241
 40
0.2865327736613243
 40
0.3640577375381538
 40
0.4417842819415425
 40
0.5196661361028903
 40
0.5976360484881477
 40
0.675619571345306
 40
0.7535178961205353
 40
0.831249731176893
 40
0.9087409096490505
 40
0.9859329544984266
 40
0.9999999999999999
 40
0.9999999999999999
 40
0.9999999999999999
 40
0.9999999999999999
 10
314.9008847065015
 20
277.3370396195004
 30
0.0
 10
314.8350553801263
 20
277.5902010111407
 30
0.0
 10
314.6755347239261
 20
278.2036733576277
 30
0.0
 10
314.6006456279367
 20
279.3602809624529
 30
0.0
 10
314.6619340234989
 20
280.7398260588311
 30
0.0
 10
314.8953616128636
 20
282.2120309128612
 30
0.0
 10
315.291833815023
 20
283.7374899269881
 30
0.0
 10
315.8468849381781
 20
285.2850227790676
 30
0.0
 10
316.5493722907362
 20
286.8195191777423
 30
0.0
 10
317.3846978505137
 20
288.3065262482651
 30
0.0
 10
318.3344039656311
 20
289.7129592816136
 30
0.0
 10
319.3765185069528
 20
291.0056963032021
 30
0.0
 10
320.4871858528141
 20
292.1624359249335
 30
0.0
 10
321.6367767555399
 20
293.1353674515603
 30
0.0
 10
322.4897149984469
 20
293.7585580392202
 30
0.0
 10
322.9409052507307
 20
293.9906158329353
 30
0.0
 10
323.010453542132
 20
294.0263861603694
 30
0.0
  0
SPLINE
  5
28E
330
1F
100
AcDbEntity
  8
0
  6
Continuous
 62
     7
370
    25
100
AcDbSpline
210
0.0
220
0.0
230
1.0
 70
     8
 71
     3
 72
    10
 73
     6
 74
     0
 42
0.00000001
 43
0.00000001
 40
0.0
 40
0.0
 40
0.0
 40
0.0
 40
0.1697254910051925
 40
0.6112012368919171
 40
1.0
 40
1.0
 40
1.0
 40
1.0
 10
288.5892979746419
 20
358.9987413926607
 30
0.0
 10
288.5081687869566
 20
358.894649016225
 30
0.0
 10
288.2160131445274
 20
358.5198002598494
 30
0.0
 10
287.5184504553409
 20
357.9345869840137
 30
0.0
 10
286.8208434819316
 20
357.4971935944411
 30
0.0
 10
286.4941699234171
 20
357.2923721684967
 30
0.0
  0
SPLINE
  5
28F
330
1F
100
AcDbEntity
  8
0
  6
Continuous
 62
     7
370
    25
100
AcDbSpline
210
0.0
220
0.0
230
1.0
 70
     8
 71
     3
 72
    21
 73
    17
 74
     0
 42
0.00000001
 43
0.00000001
 40
0.0
 40
0.0
 40
0.0
 40
0.0
 40
0.0402702121866802
 40
0.1175117709148153
 40
0.1949820026176764
 40
0.2726601047264741
 40
0.3505149610997297
 40
0.4284848074577281
 40
0.5064970048658586
 40
0.584463057689504
 40
0.6622919410230782
 40
0.7399072753921284
 40
0.8172422344995035
 40
0.8942616636056869
 40
0.971013205447753
 40
1.0
 40
1.0
 40
1.0
 40
1.0
 10
286.4941699234171
 20
357.2923721684967
 30
0.0
 10
286.2885819747809
 20
357.1788594683168
 30
0.0
 10
285.6886595355597
 20
356.8476201304751
 30
0.0
 10
284.5624868639537
 20
356.3679054934947
 30
0.0
 10
283.090885573873
 20
355.9029539505764
 30
0.0
 10
281.505837177453
 20
355.5611782716713
 30
0.0
 10
279.8452423587133
 20
355.3506833505044
 30
0.0
 10
278.1448458979316
 20
355.2777127556812
 30
0.0
 10
276.4428279723627
 20
355.3443479409836
 30
0.0
 10
274.7775184842151
 20
355.5489775758548
 30
0.0
 10
273.1861388823312
 20
355.8859750211458
 30
0.0
 10
271.705726098413
 20
356.3461203091589
 30
0.0
 10
270.3643518071891
 20
356.9152936492665
 30
0.0
 10
269.2087709423314
 20
357.5796283978054
 30
0.0
 10
268.4056102833511
 20
358.1567063489017
 30
0.0
 10
268.0695597974465
 20
358.5170819412298
 30
0.0
 10
267.9774359119545
 20
358.6158742393941
 30
0.0
  0
LINE
  5
290
330
1F
100
AcDbEntity
  8
0
  6
Continuous
 62
     7
370
    25
100
AcDbLine
 10
316.5475660794
 20
273.0934583274
 30
0.0
 11
316.8959107607
 21
272.9117543063
 31
0.0
  0
LINE
  5
291
330
1F
100
AcDbEntity
  8
0
  6
Continuous
 62
     7
370
    25
100
AcDbLine
 10
265.1377317961
 20
362.558847767
 30
0.0
 11
265.1209376676
 21
362.1662759077
 31
0.0
  0
LINE
  5
292
330
1F
100
AcDbEntity
  8
0
  6
Continuous
 62
     7
370
    25
100
AcDbLine
 10
334.442368629
 20
298.3461562121
 30
0.0
 11
334.442368629
 21
302.5102738129
 31
0.0
  0
ARC
  5
293
330
1F
100
AcDbEntity
  8
0
  6
Continuous
 62
     7
370
    25
100
AcDbCircle
 10
302.2656115987
 20
324.2332362634
 30
0.0
 40
12.12643413919357
100
AcDbArc
 50
2.6054784857
 51
57.39452166
  0
LINE
  5
294
330
1F
100
AcDbEntity
  8
0
  6
Continuous
 62
     7
370
    25
100
AcDbLine
 10
241.6191312254
 20
358.699038174
 30
0.0
 11
241.6898311339
 21
358.7398656305
 31
0.0
  0
LINE
  5
295
330
1F
100
AcDbEntity
  8
0
  6
Continuous
 62
     7
370
    25
100
AcDbLine
 10
241.6191312254
 20
356.1677367846
 30
0.0
 11
241.6191312254
 21
358.699038174
 31
0.0
  0
LINE
  5
296
330
1F
100
AcDbEntity
  8
0
  6
Continuous
 62
     7
370
    25
100
AcDbLine
 10
241.6898311339
 20
356.0452809512
 30
0.0
 11
241.6191312254
 21
356.1677367846
 31
0.0
  0
LINE
  5
297
330
1F
100
AcDbEntity
  8
0
  6
Continuous
 62
     7
370
    25
100
AcDbLine
 10
241.6898311339
 20
356.0452809512
 30
0.0
 11
243.8818836947
 21
354.7798359436
 31
0.0
  0
LINE
  5
298
330
1F
100
AcDbEntity
  8
0
  6
Continuous
 62
     7
370
    25
100
AcDbLine
 10
243.8818836947
 20
354.7798359436
 30
0.0
 11
243.9525836033
 21
354.8206634001
 31
0.0
  0
LINE
  5
299
330
1F
100
AcDbEntity
  8
0
  6
Continuous
 62
     7
370
    25
100
AcDbLine
 10
243.9525836033
 20
354.8206634001
 30
0.0
 11
243.9525836033
 21
357.3519647895
 31
0.0
  0
LINE
  5
29A
330
1F
100
AcDbEntity
  8
0
  6
Continuous
 62
     7
370
    25
100
AcDbLine
 10
243.8818836947
 20
357.4744206228
 30
0.0
 11
243.9525836033
 21
357.3519647895
 31
0.0
  0
LINE
  5
29B
330
1F
100
AcDbEntity
  8
0
  6
Continuous
 62
     7
370
    25
100
AcDbLine
 10
241.6898311339
 20
358.7398656305
 30
0.0
 11
243.8818836947
 21
357.4744206228
 31
0.0
  0
LINE
  5
29C
330
1F
100
AcDbEntity
  8
0
  6
Continuous
 62
     7
370
    25
100
AcDbLine
 10
244.8364670798
 20
356.8417097196
 30
0.0
 11
244.9071669883
 21
356.8825371761
 31
0.0
  0
LINE
  5
29D
330
1F
100
AcDbEntity
  8
0
  6
Continuous
 62
     7
370
    25
100
AcDbLine
 10
244.8364670798
 20
354.3104083302
 30
0.0
 11
244.8364670798
 21
356.8417097196
 31
0.0
  0
LINE
  5
29E
330
1F
100
AcDbEntity
  8
0
  6
Continuous
 62
     7
370
    25
100
AcDbLine
 10
244.9071669883
 20
354.1879524968
 30
0.0
 11
244.8364670798
 21
354.3104083302
 31
0.0
  0
LINE
  5
29F
330
1F
100
AcDbEntity
  8
0
  6
Continuous
 62
     7
370
    25
100
AcDbLine
 10
244.9071669883
 20
354.1879524968
 30
0.0
 11
250.1044233692
 21
351.1876402516
 31
0.0
  0
LINE
  5
2A0
330
1F
100
AcDbEntity
  8
0
  6
Continuous
 62
     7
370
    25
100
AcDbLine
 10
250.1044233692
 20
351.1876402516
 30
0.0
 11
250.1751232777
 21
351.228467708
 31
0.0
  0
LINE
  5
2A1
330
1F
100
AcDbEntity
  8
0
  6
Continuous
 62
     7
370
    25
100
AcDbLine
 10
250.1751232777
 20
351.228467708
 30
0.0
 11
250.1751232777
 21
353.7597690975
 31
0.0
  0
LINE
  5
2A2
330
1F
100
AcDbEntity
  8
0
  6
Continuous
 62
     7
370
    25
100
AcDbLine
 10
250.1044233692
 20
353.8822249308
 30
0.0
 11
250.1751232777
 21
353.7597690975
 31
0.0
  0
LINE
  5
2A3
330
1F
100
AcDbEntity
  8
0
  6
Continuous
 62
     7
370
    25
100
AcDbLine
 10
244.9071669883
 20
356.8825371761
 30
0.0
 11
250.1044233692
 21
353.8822249308
 31
0.0
  0
LINE
  5
2A4
330
1F
100
AcDbEntity
  8
0
  6
Continuous
 62
     7
370
    25
100
AcDbLine
 10
241.6191312254
 20
355.1470856423
 30
0.0
 11
241.6898311339
 21
355.1879130988
 31
0.0
  0
LINE
  5
2A5
330
1F
100
AcDbEntity
  8
0
  6
Continuous
 62
     7
370
    25
100
AcDbLine
 10
241.6191312254
 20
349.0638317212
 30
0.0
 11
241.6191312254
 21
355.1470856423
 31
0.0
  0
LINE
  5
2A6
330
1F
100
AcDbEntity
  8
0
  6
Continuous
 62
     7
370
    25
100
AcDbLine
 10
241.6898311339
 20
348.9413758878
 30
0.0
 11
241.6191312254
 21
349.0638317212
 31
0.0
  0
LINE
  5
2A7
330
1F
100
AcDbEntity
  8
0
  6
Continuous
 62
     7
370
    25
100
AcDbLine
 10
241.6898311339
 20
348.9413758878
 30
0.0
 11
243.8818836947
 21
347.6759308802
 31
0.0
  0
LINE
  5
2A8
330
1F
100
AcDbEntity
  8
0
  6
Continuous
 62
     7
370
    25
100
AcDbLine
 10
243.8818836947
 20
347.6759308802
 30
0.0
 11
243.9525836033
 21
347.7167583366
 31
0.0
  0
LINE
  5
2A9
330
1F
100
AcDbEntity
  8
0
  6
Continuous
 62
     7
370
    25
100
AcDbLine
 10
243.9525836033
 20
347.7167583366
 30
0.0
 11
243.9525836033
 21
353.8000122578
 31
0.0
  0
LINE
  5
2AA
330
1F
100
AcDbEntity
  8
0
  6
Continuous
 62
     7
370
    25
100
AcDbLine
 10
243.8818836947
 20
353.9224680911
 30
0.0
 11
243.9525836033
 21
353.8000122578
 31
0.0
  0
LINE
  5
2AB
330
1F
100
AcDbEntity
  8
0
  6
Continuous
 62
     7
370
    25
100
AcDbLine
 10
241.6898311339
 20
355.1879130988
 30
0.0
 11
243.8818836947
 21
353.9224680911
 31
0.0
  0
LINE
  5
2AC
330
1F
100
AcDbEntity
  8
0
  6
Continuous
 62
     7
370
    25
100
AcDbLine
 10
253.3217592236
 20
342.2264067338
 30
0.0
 11
253.3924591321
 21
342.2672341902
 31
0.0
  0
LINE
  5
2AD
330
1F
100
AcDbEntity
  8
0
  6
Continuous
 62
     7
370
    25
100
AcDbLine
 10
253.3924591321
 20
342.2672341902
 30
0.0
 11
253.3924591321
 21
345.6559034322
 31
0.0
  0
LINE
  5
2AE
330
1F
100
AcDbEntity
  8
0
  6
Continuous
 62
     7
370
    25
100
AcDbLine
 10
253.4631590407
 20
345.6967308886
 30
0.0
 11
253.3924591321
 21
345.6559034322
 31
0.0
  0
LINE
  5
2AF
330
1F
100
AcDbEntity
  8
0
  6
Continuous
 62
     7
370
    25
100
AcDbLine
 10
253.4631590407
 20
345.6967308886
 30
0.0
 11
254.0454667923
 21
345.360571779
 31
0.0
  0
LINE
  5
2B0
330
1F
100
AcDbEntity
  8
0
  6
Continuous
 62
     7
370
    25
100
AcDbLine
 10
254.1033807669
 20
345.2923248319
 30
0.0
 11
254.0454667923
 21
345.360571779
 31
0.0
  0
LINE
  5
2B1
330
1F
100
AcDbEntity
  8
0
  6
Continuous
 62
     7
370
    25
100
AcDbLine
 10
254.1033807669
 20
345.2923248319
 30
0.0
 11
256.2149394219
 21
340.5910232776
 31
0.0
  0
LINE
  5
2B2
330
1F
100
AcDbEntity
  8
0
  6
Continuous
 62
     7
370
    25
100
AcDbLine
 10
256.2149394219
 20
340.5910232776
 30
0.0
 11
256.2728533965
 21
340.5227763306
 31
0.0
  0
LINE
  5
2B3
330
1F
100
AcDbEntity
  8
0
  6
Continuous
 62
     7
370
    25
100
AcDbLine
 10
256.2728533965
 20
340.5227763306
 30
0.0
 11
258.94885546
 21
338.9779532218
 31
0.0
  0
LINE
  5
2B4
330
1F
100
AcDbEntity
  8
0
  6
Continuous
 62
     7
370
    25
100
AcDbLine
 10
258.94885546
 20
338.9779532218
 30
0.0
 11
259.0067694346
 21
339.0729895645
 31
0.0
  0
LINE
  5
2B5
330
1F
100
AcDbEntity
  8
0
  6
Continuous
 62
     7
370
    25
100
AcDbLine
 10
259.0067694346
 20
339.0729895645
 30
0.0
 11
256.1423344068
 21
345.4505404871
 31
0.0
  0
LINE
  5
2B6
330
1F
100
AcDbEntity
  8
0
  6
Continuous
 62
     7
370
    25
100
AcDbLine
 10
256.1423344068
 20
345.5441959346
 30
0.0
 11
256.1423344068
 21
345.4505404871
 31
0.0
  0
LINE
  5
2B7
330
1F
100
AcDbEntity
  8
0
  6
Continuous
 62
     7
370
    25
100
AcDbLine
 10
256.1423344068
 20
345.5441959346
 30
0.0
 11
259.0067694346
 21
348.6145405699
 31
0.0
  0
LINE
  5
2B8
330
1F
100
AcDbEntity
  8
0
  6
Continuous
 62
     7
370
    25
100
AcDbLine
 10
259.0067694346
 20
348.6145405699
 30
0.0
 11
258.94885546
 21
348.7764429644
 31
0.0
  0
LINE
  5
2B9
330
1F
100
AcDbEntity
  8
0
  6
Continuous
 62
     7
370
    25
100
AcDbLine
 10
258.94885546
 20
348.7764429644
 30
0.0
 11
256.2728533965
 21
350.3212660732
 31
0.0
  0
LINE
  5
2BA
330
1F
100
AcDbEntity
  8
0
  6
Continuous
 62
     7
370
    25
100
AcDbLine
 10
256.2728533965
 20
350.3212660732
 30
0.0
 11
256.2149394219
 21
350.319885178
 31
0.0
  0
LINE
  5
2BB
330
1F
100
AcDbEntity
  8
0
  6
Continuous
 62
     7
370
    25
100
AcDbLine
 10
256.2149394219
 20
350.319885178
 30
0.0
 11
254.1033807669
 21
348.0565373534
 31
0.0
  0
LINE
  5
2BC
330
1F
100
AcDbEntity
  8
0
  6
Continuous
 62
     7
370
    25
100
AcDbLine
 10
254.0454667923
 20
348.0551564582
 30
0.0
 11
254.1033807669
 21
348.0565373534
 31
0.0
  0
LINE
  5
2BD
330
1F
100
AcDbEntity
  8
0
  6
Continuous
 62
     7
370
    25
100
AcDbLine
 10
254.0454667923
 20
348.0551564582
 30
0.0
 11
253.4631590407
 21
348.3913155678
 31
0.0
  0
LINE
  5
2BE
330
1F
100
AcDbEntity
  8
0
  6
Continuous
 62
     7
370
    25
100
AcDbLine
 10
253.3924591321
 20
348.5137714012
 30
0.0
 11
253.4631590407
 21
348.3913155678
 31
0.0
  0
LINE
  5
2BF
330
1F
100
AcDbEntity
  8
0
  6
Continuous
 62
     7
370
    25
100
AcDbLine
 10
253.3924591321
 20
348.5137714012
 30
0.0
 11
253.3924591321
 21
351.9024406431
 31
0.0
  0
LINE
  5
2C0
330
1F
100
AcDbEntity
  8
0
  6
Continuous
 62
     7
370
    25
100
AcDbLine
 10
253.3924591321
 20
351.9024406431
 30
0.0
 11
253.3217592236
 21
352.0248964764
 31
0.0
  0
LINE
  5
2C1
330
1F
100
AcDbEntity
  8
0
  6
Continuous
 62
     7
370
    25
100
AcDbLine
 10
253.3217592236
 20
352.0248964764
 30
0.0
 11
251.1297066627
 21
353.290341484
 31
0.0
  0
LINE
  5
2C2
330
1F
100
AcDbEntity
  8
0
  6
Continuous
 62
     7
370
    25
100
AcDbLine
 10
251.1297066627
 20
353.290341484
 30
0.0
 11
251.0590067542
 21
353.2495140276
 31
0.0
  0
LINE
  5
2C3
330
1F
100
AcDbEntity
  8
0
  6
Continuous
 62
     7
370
    25
100
AcDbLine
 10
251.0590067542
 20
353.2495140276
 30
0.0
 11
251.0590067542
 21
343.6143075747
 31
0.0
  0
LINE
  5
2C4
330
1F
100
AcDbEntity
  8
0
  6
Continuous
 62
     7
370
    25
100
AcDbLine
 10
251.0590067542
 20
343.6143075747
 30
0.0
 11
251.1297066627
 21
343.4918517414
 31
0.0
  0
LINE
  5
2C5
330
1F
100
AcDbEntity
  8
0
  6
Continuous
 62
     7
370
    25
100
AcDbLine
 10
251.1297066627
 20
343.4918517414
 30
0.0
 11
253.3217592236
 21
342.2264067338
 31
0.0
  0
LINE
  5
2C6
330
1F
100
AcDbEntity
  8
0
  6
Continuous
 62
     7
370
    25
100
AcDbLine
 10
244.8364670798
 20
353.2897571879
 30
0.0
 11
244.8364670798
 21
347.2065032668
 31
0.0
  0
LINE
  5
2C7
330
1F
100
AcDbEntity
  8
0
  6
Continuous
 62
     7
370
    25
100
AcDbLine
 10
244.8364670798
 20
347.2065032668
 30
0.0
 11
244.9071669883
 21
347.0840474334
 31
0.0
  0
LINE
  5
2C8
330
1F
100
AcDbEntity
  8
0
  6
Continuous
 62
     7
370
    25
100
AcDbLine
 10
244.9071669883
 20
347.0840474334
 30
0.0
 11
250.1044233692
 21
344.0837351882
 31
0.0
  0
LINE
  5
2C9
330
1F
100
AcDbEntity
  8
0
  6
Continuous
 62
     7
370
    25
100
AcDbLine
 10
250.1044233692
 20
344.0837351882
 30
0.0
 11
250.1751232777
 21
344.1245626446
 31
0.0
  0
LINE
  5
2CA
330
1F
100
AcDbEntity
  8
0
  6
Continuous
 62
     7
370
    25
100
AcDbLine
 10
250.1751232777
 20
344.1245626446
 30
0.0
 11
250.1751232777
 21
346.6558640341
 31
0.0
  0
LINE
  5
2CB
330
1F
100
AcDbEntity
  8
0
  6
Continuous
 62
     7
370
    25
100
AcDbLine
 10
250.1751232777
 20
346.6558640341
 30
0.0
 11
250.1044233692
 21
346.7783198674
 31
0.0
  0
LINE
  5
2CC
330
1F
100
AcDbEntity
  8
0
  6
Continuous
 62
     7
370
    25
100
AcDbLine
 10
250.1044233692
 20
346.7783198674
 30
0.0
 11
247.2406193662
 21
348.4315587282
 31
0.0
  0
LINE
  5
2CD
330
1F
100
AcDbEntity
  8
0
  6
Continuous
 62
     7
370
    25
100
AcDbLine
 10
247.1699194577
 20
348.5540145615
 30
0.0
 11
247.2406193662
 21
348.4315587282
 31
0.0
  0
LINE
  5
2CE
330
1F
100
AcDbEntity
  8
0
  6
Continuous
 62
     7
370
    25
100
AcDbLine
 10
247.1699194577
 20
348.5540145615
 30
0.0
 11
247.1699194577
 21
349.2480991242
 31
0.0
  0
LINE
  5
2CF
330
1F
100
AcDbEntity
  8
0
  6
Continuous
 62
     7
370
    25
100
AcDbLine
 10
247.2406193662
 20
349.2889265806
 30
0.0
 11
247.1699194577
 21
349.2480991242
 31
0.0
  0
LINE
  5
2D0
330
1F
100
AcDbEntity
  8
0
  6
Continuous
 62
     7
370
    25
100
AcDbLine
 10
247.2406193662
 20
349.2889265806
 30
0.0
 11
250.1044233692
 21
347.6356877199
 31
0.0
  0
LINE
  5
2D1
330
1F
100
AcDbEntity
  8
0
  6
Continuous
 62
     7
370
    25
100
AcDbLine
 10
250.1044233692
 20
347.6356877199
 30
0.0
 11
250.1751232777
 21
347.6765151763
 31
0.0
  0
LINE
  5
2D2
330
1F
100
AcDbEntity
  8
0
  6
Continuous
 62
     7
370
    25
100
AcDbLine
 10
250.1751232777
 20
347.6765151763
 30
0.0
 11
250.1751232777
 21
350.2078165658
 31
0.0
  0
LINE
  5
2D3
330
1F
100
AcDbEntity
  8
0
  6
Continuous
 62
     7
370
    25
100
AcDbLine
 10
250.1751232777
 20
350.2078165658
 30
0.0
 11
250.1044233692
 21
350.3302723991
 31
0.0
  0
LINE
  5
2D4
330
1F
100
AcDbEntity
  8
0
  6
Continuous
 62
     7
370
    25
100
AcDbLine
 10
250.1044233692
 20
350.3302723991
 30
0.0
 11
244.9071669883
 21
353.3305846444
 31
0.0
  0
LINE
  5
2D5
330
1F
100
AcDbEntity
  8
0
  6
Continuous
 62
     7
370
    25
100
AcDbLine
 10
244.9071669883
 20
353.3305846444
 30
0.0
 11
244.8364670798
 21
353.2897571879
 31
0.0
  0
ELLIPSE
  5
2D6
330
1F
100
AcDbEntity
  8
0
  6
Continuous
 62
     7
370
    25
100
AcDbEllipse
 10
323.7985160535
 20
283.9008400901
 30
0.0
 11
6.719620509273851
 21
11.23711835574465
 31
0.0
210
0.0
220
0.0
230
1.0
 40
0.5873687163
 41
2.365149892935213
 42
3.792515766712763
  0
ELLIPSE
  5
2D7
330
1F
100
AcDbEntity
  8
0
  6
Continuous
 62
     7
370
    25
100
AcDbEllipse
 10
322.3596173016
 20
271.7909897169
 30
0.0
 11
0.4619366386775141
 21
0.7724895586752609
 31
0.0
210
0.0
220
0.0
230
1.0
 40
0.5873687163
 41
5.506742546525023
 42
6.934108420302495
  0
LINE
  5
2D8
330
1F
100
AcDbEntity
  8
0
  6
Continuous
 62
     7
370
    25
100
AcDbLine
 10
323.0071217399
 20
258.5551586172
 30
0.0
 11
323.0071217399
 21
272.1519606617
 31
0.0
  0
LINE
  5
2D9
330
1F
100
AcDbEntity
  8
0
  6
Continuous
 62
     7
370
    25
100
AcDbLine
 10
314.3795097665
 20
324.7844858559
 30
0.0
 11
314.3795097665
 21
278.6499299843
 31
0.0
  0
LINE
  5
2DA
330
1F
100
AcDbEntity
  8
0
  6
Continuous
 62
     7
370
    25
100
AcDbLine
 10
267.5358049838
 20
368.2310993641
 30
0.0
 11
255.7612668491
 21
375.0283955447
 31
0.0
  0
ELLIPSE
  5
2DB
330
1F
100
AcDbEntity
  8
0
  6
Continuous
 62
     7
370
    25
100
AcDbEllipse
 10
266.8994088807
 20
367.8508882182
 30
0.0
 11
0.8999632648063312
 21
0.0138462306045426
 31
0.0
210
0.0
220
0.0
230
1.0
 40
0.5872748834
 41
5.632182425576609
 42
7.059548299354287
  0
ELLIPSE
  5
2DC
330
1F
100
AcDbEntity
  8
0
  6
Continuous
 62
     7
370
    25
100
AcDbEllipse
 10
278.1058411346
 20
363.0428743511
 30
0.0
 11
13.09143095706577
 21
0.2014159678107035
 31
0.0
210
0.0
220
0.0
230
1.0
 40
0.5872748834
 41
2.490589771986878
 42
3.917955645764431
  0
LINE
  5
2DD
330
1F
100
AcDbEntity
  8
0
  6
Continuous
 62
     7
370
    25
100
AcDbLine
 10
268.8484236705
 20
357.512084195
 30
0.0
 11
308.7999568075
 21
334.448555036
 31
0.0
  0
ELLIPSE
  5
2DE
330
1F
100
AcDbEntity
  8
0
  6
Continuous
 62
     7
370
    25
100
AcDbEllipse
 10
323.0914092723
 20
284.309044146
 30
0.0
 11
6.719620509273795
 21
11.23711835574466
 31
0.0
210
0.0
220
0.0
230
1.0
 40
0.5873687163
 41
3.236837432712569
 42
3.468780157859222
  0
ELLIPSE
  5
2DF
330
1F
100
AcDbEntity
  8
0
  6
Continuous
 62
     7
370
    25
100
AcDbEllipse
 10
278.1058411346
 20
362.2263335392
 30
0.0
 11
13.09143095706577
 21
0.2014159678106466
 31
0.0
210
0.0
220
0.0
230
1.0
 40
0.5872748834
 41
2.814520781914302
 42
3.071861715042697
  0
LINE
  5
2E0
330
1F
100
AcDbEntity
  8
0
  6
Continuous
 62
     7
370
    25
100
AcDbLine
 10
256.2814760083
 20
350.3162883454
 30
0.0
 11
254.2460871527
 21
348.1345857782
 31
0.0
  0
LINE
  5
2E1
330
1F
100
AcDbEntity
  8
0
  6
Continuous
 62
     7
370
    25
100
AcDbLine
 10
256.4155597824
 20
340.6065258645
 30
0.0
 11
258.9839320383
 21
339.1238361211
 31
0.0
  0
LINE
  5
2E2
330
1F
100
AcDbEntity
  8
0
  6
Continuous
 62
     7
370
    25
100
AcDbLine
 10
256.3576458077
 20
340.6747728116
 30
0.0
 11
256.4155597824
 21
340.6065258645
 31
0.0
  0
LINE
  5
2E3
330
1F
100
AcDbEntity
  8
0
  6
Continuous
 62
     7
370
    25
100
AcDbLine
 10
254.2460871527
 20
345.3760743659
 30
0.0
 11
256.3576458077
 21
340.6747728116
 31
0.0
  0
LINE
  5
2E4
330
1F
100
AcDbEntity
  8
0
  6
Continuous
 62
     7
370
    25
100
AcDbLine
 10
254.2460871527
 20
345.3760743659
 30
0.0
 11
254.1881731781
 21
345.4443213129
 31
0.0
  0
LINE
  5
2E5
330
1F
100
AcDbEntity
  8
0
  6
Continuous
 62
     7
370
    25
100
AcDbLine
 10
253.6021118779
 20
345.7826473
 30
0.0
 11
254.1881731781
 21
345.4443213129
 31
0.0
  0
LINE
  5
2E6
330
1F
100
AcDbEntity
  8
0
  6
Continuous
 62
     7
370
    25
100
AcDbLine
 10
253.6021118779
 20
345.7826473
 30
0.0
 11
253.5512573651
 21
345.7870827422
 31
0.0
  0
LINE
  5
2E7
330
1F
100
AcDbEntity
  8
0
  6
Continuous
 62
     7
370
    25
100
AcDbLine
 10
251.2735965379
 20
343.5749180615
 30
0.0
 11
253.3924591321
 21
342.3517247223
 31
0.0
  0
LINE
  5
2E8
330
1F
100
AcDbEntity
  8
0
  6
Continuous
 62
     7
370
    25
100
AcDbLine
 10
251.2028966294
 20
343.6973738948
 30
0.0
 11
251.2735965379
 21
343.5749180615
 31
0.0
  0
LINE
  5
2E9
330
1F
100
AcDbEntity
  8
0
  6
Continuous
 62
     7
370
    25
100
AcDbLine
 10
251.2028966294
 20
353.2480898157
 30
0.0
 11
251.2028966294
 21
343.6973738948
 31
0.0
  0
LINE
  5
2EA
330
1F
100
AcDbEntity
  8
0
  6
Continuous
 62
     7
370
    25
100
AcDbLine
 10
244.980356955
 20
354.3934746503
 30
0.0
 11
244.980356955
 21
356.8402855077
 31
0.0
  0
LINE
  5
2EB
330
1F
100
AcDbEntity
  8
0
  6
Continuous
 62
     7
370
    25
100
AcDbLine
 10
250.1751232777
 20
351.3129582401
 30
0.0
 11
245.0510568635
 21
354.2710188169
 31
0.0
  0
LINE
  5
2EC
330
1F
100
AcDbEntity
  8
0
  6
Continuous
 62
     7
370
    25
100
AcDbLine
 10
245.0510568635
 20
354.2710188169
 30
0.0
 11
244.980356955
 21
354.3934746503
 31
0.0
  0
LINE
  5
2ED
330
1F
100
AcDbEntity
  8
0
  6
Continuous
 62
     7
370
    25
100
AcDbLine
 10
250.1751232777
 20
347.7610057084
 30
0.0
 11
247.3795722035
 21
349.3748429921
 31
0.0
  0
LINE
  5
2EE
330
1F
100
AcDbEntity
  8
0
  6
Continuous
 62
     7
370
    25
100
AcDbLine
 10
247.3287176907
 20
349.3792784342
 30
0.0
 11
247.3795722035
 21
349.3748429921
 31
0.0
  0
LINE
  5
2EF
330
1F
100
AcDbEntity
  8
0
  6
Continuous
 62
     7
370
    25
100
AcDbLine
 10
250.1751232777
 20
344.2090531767
 30
0.0
 11
245.0510568635
 21
347.1671137535
 31
0.0
  0
LINE
  5
2F0
330
1F
100
AcDbEntity
  8
0
  6
Continuous
 62
     7
370
    25
100
AcDbLine
 10
245.0510568635
 20
347.1671137535
 30
0.0
 11
244.980356955
 21
347.2895695869
 31
0.0
  0
LINE
  5
2F1
330
1F
100
AcDbEntity
  8
0
  6
Continuous
 62
     7
370
    25
100
AcDbLine
 10
244.980356955
 20
347.2895695869
 30
0.0
 11
244.980356955
 21
353.288332976
 31
0.0
  0
ARC
  5
2F2
330
1F
100
AcDbEntity
  8
0
  6
Continuous
 62
     7
370
    25
100
AcDbCircle
 10
319.0594445116
 20
258.1127922332
 30
0.0
 40
3.972385116881665
100
AcDbArc
 50
303.9678102715
 51
6.3937424366
  0
ARC
  5
2F3
330
1F
100
AcDbEntity
  8
0
  6
Continuous
 62
     7
370
    25
100
AcDbCircle
 10
253.4162651234
 20
371.9564761773
 30
0.0
 40
3.864676143476582
100
AcDbArc
 50
52.6430821731
 51
116.9971713361
  0
ELLIPSE
  5
2F4
330
1F
100
AcDbEntity
  8
0
  6
Continuous
 62
     7
370
    25
100
AcDbEllipse
 10
321.6525105204
 20
272.1991937728
 30
0.0
 11
0.4619366386775141
 21
0.7724895586752609
 31
0.0
210
0.0
220
0.0
230
1.0
 40
0.5873687163
 41
0.0090366668049001
 42
0.2904649166544009
  0
ELLIPSE
  5
2F5
330
1F
100
AcDbEntity
  8
0
  6
Continuous
 62
     7
370
    25
100
AcDbEllipse
 10
266.8994088807
 20
367.0343474063
 30
0.0
 11
0.8999632648063312
 21
0.0138462306045426
 31
0.0
210
0.0
220
0.0
230
1.0
 40
0.5872748834
 41
5.992854510658577
 42
6.274150135956837
  0
LINE
  5
2F6
330
1F
100
AcDbEntity
  8
0
  6
Continuous
 62
     7
370
    25
100
AcDbLine
 10
243.9525836033
 20
354.9051539321
 30
0.0
 11
241.8337210091
 21
356.1283472713
 31
0.0
  0
LINE
  5
2F7
330
1F
100
AcDbEntity
  8
0
  6
Continuous
 62
     7
370
    25
100
AcDbLine
 10
241.8337210091
 20
356.1283472713
 30
0.0
 11
241.7630211006
 21
356.2508031047
 31
0.0
  0
LINE
  5
2F8
330
1F
100
AcDbEntity
  8
0
  6
Continuous
 62
     7
370
    25
100
AcDbLine
 10
241.7630211006
 20
356.2508031047
 30
0.0
 11
241.7630211006
 21
358.6976139621
 31
0.0
  0
LINE
  5
2F9
330
1F
100
AcDbEntity
  8
0
  6
Continuous
 62
     7
370
    25
100
AcDbLine
 10
241.7630211006
 20
349.1468980413
 30
0.0
 11
241.7630211006
 21
355.1456614304
 31
0.0
  0
LINE
  5
2FA
330
1F
100
AcDbEntity
  8
0
  6
Continuous
 62
     7
370
    25
100
AcDbLine
 10
243.9525836033
 20
347.8012488687
 30
0.0
 11
241.8337210091
 21
349.0244422079
 31
0.0
  0
LINE
  5
2FB
330
1F
100
AcDbEntity
  8
0
  6
Continuous
 62
     7
370
    25
100
AcDbLine
 10
241.8337210091
 20
349.0244422079
 30
0.0
 11
241.7630211006
 21
349.1468980413
 31
0.0
  0
ARC
  5
2FC
330
1F
100
AcDbEntity
  8
0
  6
Continuous
 62
     7
370
    25
100
AcDbCircle
 10
303.5888436594
 20
324.7312794276
 30
0.0
 40
11.54245003199112
100
AcDbArc
 50
1.956498643
 51
31.1437277994
  0
LINE
  5
2FD
330
1F
100
AcDbEntity
  8
0
  6
Continuous
 62
     7
370
    25
100
AcDbLine
 10
315.12456486
 20
325.1253468359
 30
0.0
 11
315.124566742
 21
325.0968336889
 31
0.0
  0
LINE
  5
2FE
330
1F
100
AcDbEntity
  8
0
  6
Continuous
 62
     7
370
    25
100
AcDbLine
 10
314.3927653659
 20
325.5192960921
 30
0.0
 11
315.124566742
 21
325.0968336889
 31
0.0
  0
ARC
  5
2FF
330
1F
100
AcDbEntity
  8
0
  6
Continuous
 62
     7
370
    25
100
AcDbCircle
 10
304.2990093154
 20
325.1744871098
 30
0.0
 40
10.09964377799457
100
AcDbArc
 50
1.956498643
 51
31.1437277994
  0
LINE
  5
300
330
1F
100
AcDbEntity
  8
0
  6
Continuous
 62
     7
370
    25
100
AcDbLine
 10
309.4677106105
 20
334.9233057783
 30
0.0
 11
309.4430197796
 21
334.9375616645
 31
0.0
  0
ARC
  5
301
330
1F
100
AcDbEntity
  8
0
  6
Continuous
 62
     7
370
    25
100
AcDbCircle
 10
303.3596590507
 20
325.1311501377
 30
0.0
 40
11.5409967483766
100
AcDbArc
 50
28.8556088792
 51
58.0453283505
  0
ARC
  5
302
330
1F
100
AcDbEntity
  8
0
  6
Continuous
 62
     7
370
    25
100
AcDbCircle
 10
304.0984727828
 20
325.5243739811
 30
0.0
 40
10.09837215482792
100
AcDbArc
 50
28.8556088792
 51
58.0453283505
  0
LINE
  5
303
330
1F
100
AcDbEntity
  8
0
  6
Continuous
 62
     7
370
    25
100
AcDbLine
 10
309.4430178976
 20
334.0925101666
 30
0.0
 11
309.4430197796
 21
334.9375616645
 31
0.0
  0
LINE
  5
304
330
1F
100
AcDbEntity
  8
0
  6
Continuous
 62
     7
370
    25
100
AcDbLine
 10
314.3927653659
 20
325.5192960921
 30
0.0
 11
314.3474131143
 21
325.4931147945
 31
0.0
  0
LINE
  5
305
330
1F
100
AcDbEntity
  8
0
  6
Continuous
 62
     7
370
    25
100
AcDbLine
 10
309.4430178976
 20
334.0925101666
 30
0.0
 11
309.3977438984
 21
334.0663740432
 31
0.0
  0
ARC
  5
306
330
1F
100
AcDbEntity
  8
0
  6
Continuous
 62
     7
370
    25
100
AcDbCircle
 10
327.7764838881
 20
338.7443635792
 30
0.0
 40
9.378240650996553
100
AcDbArc
 50
1.956498643
 51
31.1437277994
  0
ARC
  5
307
330
1F
100
AcDbEntity
  8
0
  6
Continuous
 62
     7
370
    25
100
AcDbCircle
 10
327.5902713936
 20
339.0692585312
 30
0.0
 40
9.377059858055702
100
AcDbArc
 50
28.8556088792
 51
58.0453283505
  0
LINE
  5
308
330
1F
100
AcDbEntity
  8
0
  6
Continuous
 62
     7
370
    25
100
AcDbLine
 10
314.3795097665
 20
311.458202472
 30
0.0
 11
314.5588794351
 21
311.3686315453
 31
0.0
  0
LINE
  5
309
330
1F
100
AcDbEntity
  8
0
  6
Continuous
 62
     7
370
    25
100
AcDbLine
 10
314.5588794351
 20
324.7702693577
 30
0.0
 11
314.3789734451
 21
324.8741280142
 31
0.0
  0
LINE
  5
30A
330
1F
100
AcDbEntity
  8
0
  6
Continuous
 62
     7
370
    25
100
AcDbLine
 10
314.5588794351
 20
324.7702693577
 30
0.0
 11
314.5588794351
 21
311.3686315453
 31
0.0
  0
LINE
  5
30B
330
1F
100
AcDbEntity
  8
0
  6
Continuous
 62
     7
370
    25
100
AcDbLine
 10
308.8773324727
 20
334.6109973333
 30
0.0
 11
308.8773324727
 21
334.4032674413
 31
0.0
  0
LINE
  5
30C
330
1F
100
AcDbEntity
  8
0
  6
Continuous
 62
     7
370
    25
100
AcDbLine
 10
297.2596986718
 20
341.110604252
 30
0.0
 11
297.2718023654
 21
341.3107272565
 31
0.0
  0
LINE
  5
30D
330
1F
100
AcDbEntity
  8
0
  6
Continuous
 62
     7
370
    25
100
AcDbLine
 10
297.2718023654
 20
341.3107272565
 30
0.0
 11
308.8773324727
 21
334.6109973333
 31
0.0
  0
LINE
  5
30E
330
1F
100
AcDbEntity
  8
0
  6
Continuous
 62
     7
370
    25
100
AcDbLine
 10
315.124566742
 20
325.0968336889
 30
0.0
 11
314.5588794351
 21
324.7702693577
 31
0.0
  0
LINE
  5
30F
330
1F
100
AcDbEntity
  8
0
  6
Continuous
 62
     7
370
    25
100
AcDbLine
 10
308.8773324727
 20
334.6109973333
 30
0.0
 11
309.4430197796
 21
334.9375616645
 31
0.0
  0
LINE
  5
310
330
1F
100
AcDbEntity
  8
0
  6
Continuous
 62
     7
370
    25
100
AcDbLine
 10
333.6507625271
 20
301.9994979359
 30
0.0
 11
333.6507625271
 21
310.9157983383
 31
0.0
  0
LWPOLYLINE
  5
311
330
1F
100
AcDbEntity
  8
0
  6
Continuous
 62
     7
370
    25
100
AcDbPolyline
 90
       12
 70
   128
 43
0.0
 10
323.7142285211
 20
316.6539020725
 10
325.1283447512
 20
317.3534617313
 10
326.5136736528
 20
317.8051958445
 10
327.8420139244
 20
317.999908408
 10
329.0863243888
 20
317.9336356357
 10
330.2212744731
 20
317.60772665
 10
331.2237598667
 20
317.0288160181
 10
332.0733728577
 20
316.208688691
 10
332.7528177759
 20
315.1640400961
 10
333.2482630819
 20
313.9161362661
 10
333.5496229382
 20
312.4903809244
 10
333.6507625271
 20
310.9157983383
  0
LINE
  5
312
330
1F
100
AcDbEntity
  8
0
  6
Continuous
 62
     7
370
    25
100
AcDbLine
 10
314.5588794351
 20
311.3686315453
 30
0.0
 11
323.7142285211
 21
316.6539020725
 31
0.0
  0
ARC
  5
313
330
1F
100
AcDbEntity
  8
0
  6
Continuous
 62
     7
370
    25
100
AcDbCircle
 10
278.1441360242
 20
349.9041736332
 30
0.0
 40
21.22672098128836
100
AcDbArc
 50
62.2049430906
 51
120.0277978063
  0
LINE
  5
314
330
1F
100
AcDbEntity
  8
0
  6
Continuous
 62
     7
370
    25
100
AcDbLine
 10
255.8937093095
 20
374.994689269
 30
0.0
 11
267.5218580855
 21
368.2819018663
 31
0.0
  0
LINE
  5
315
330
1F
100
AcDbEntity
  8
0
  6
Continuous
 62
     7
370
    25
100
AcDbLine
 10
256.4593966164
 20
375.3212536002
 30
0.0
 11
255.8937093095
 21
374.994689269
 31
0.0
  0
LINE
  5
316
330
1F
100
AcDbEntity
  8
0
  6
Continuous
 62
     7
370
    25
100
AcDbLine
 10
256.4347020215
 20
375.3355073135
 30
0.0
 11
256.4593966164
 21
375.3212536002
 31
0.0
  0
LINE
  5
317
330
1F
100
AcDbEntity
  8
0
  6
Continuous
 62
     7
370
    25
100
AcDbLine
 10
297.2718023654
 20
341.3107272565
 30
0.0
 11
306.4271514514
 21
346.5959977837
 31
0.0
  0
LWPOLYLINE
  5
318
330
1F
100
AcDbEntity
  8
0
  6
Continuous
 62
     7
370
    25
100
AcDbPolyline
 90
       12
 70
   128
 43
0.0
 10
306.4271514514
 20
346.5959977837
 10
307.7401280926
 20
347.4707363486
 10
308.8240971379
 20
348.4444410427
 10
309.6569921035
 20
349.4972900461
 10
310.2218576497
 20
350.6078503895
 10
310.507194743
 20
351.7535142668
 10
310.507194743
 20
352.9109592653
 10
310.2218576497
 20
354.0566231426
 10
309.6569921035
 20
355.167183486
 10
308.8240971379
 20
356.2200324895
 10
307.7401280926
 20
357.1937371835
 10
306.4271514514
 20
358.0684757484
  0
LINE
  5
319
330
1F
100
AcDbEntity
  8
0
  6
Continuous
 62
     7
370
    25
100
AcDbLine
 10
288.0423751406
 20
368.6817812021
 30
0.0
 11
306.4271514514
 21
358.0684757484
 31
0.0
  0
LINE
  5
31A
330
1F
100
AcDbEntity
  8
0
  6
Continuous
 62
     7
370
    25
100
AcDbLine
 10
337.1492573637
 20
338.2480025366
 30
0.0
 11
337.1492573637
 21
339.0645433484
 31
0.0
  0
ARC
  5
31B
330
1F
100
AcDbEntity
  8
0
  6
Continuous
 62
     7
370
    25
100
AcDbCircle
 10
340.2644856917
 20
335.4598572377
 30
0.0
 40
4.180717850198749
100
AcDbArc
 50
138.1712943826
 51
177.2457815971
  0
LINE
  5
31C
330
1F
100
AcDbEntity
  8
0
  6
Continuous
 62
     7
370
    25
100
AcDbLine
 10
336.0885971919
 20
303.9740622094
 30
0.0
 11
336.0885971919
 21
335.6607477065
 31
0.0
  0
LINE
  5
31D
330
1F
100
AcDbEntity
  8
0
  6
Continuous
 62
     7
370
    25
100
AcDbLine
 10
272.3914830698
 20
380.5313138198
 30
0.0
 11
329.0750331953
 21
347.808596855
 31
0.0
  0
ARC
  5
31E
330
1F
100
AcDbEntity
  8
0
  6
Continuous
 62
     7
370
    25
100
AcDbCircle
 10
330.9889699218
 20
351.5259820107
 30
0.0
 40
4.181160866217684
100
AcDbArc
 50
242.7578264826
 51
281.827379432
  0
LINE
  5
31F
330
1F
100
AcDbEntity
  8
0
  6
Continuous
 62
     7
370
    25
100
AcDbLine
 10
332.5530632859
 20
347.0253849891
 30
0.0
 11
331.8459565048
 21
347.433589045
 31
0.0
  0
ARC
  5
320
330
1F
100
AcDbEntity
  8
0
  6
Continuous
 62
     7
370
    25
100
AcDbCircle
 10
328.1702082986
 20
313.6311989839
 30
0.0
 40
5.8681558604215
100
AcDbArc
 50
11.3505453455
 51
101.0532747307
  0
ARC
  5
321
330
1F
100
AcDbEntity
  8
0
  6
Continuous
 62
     7
370
    25
100
AcDbCircle
 10
306.0342062779
 20
351.9681500159
 30
0.0
 40
5.871478809633697
100
AcDbArc
 50
319.1791889593
 51
49.0466346402
  0
ARC
  5
322
330
1F
100
AcDbEntity
  8
0
  6
Continuous
 62
     7
370
    25
100
AcDbCircle
 10
327.9596227482
 20
314.1059310572
 30
0.0
 40
5.62798574206489
100
AcDbArc
 50
58.2091432775
 51
93.2977626787
  0
ARC
  5
323
330
1F
100
AcDbEntity
  8
0
  6
Continuous
 62
     7
370
    25
100
AcDbCircle
 10
306.1703146233
 20
351.5919076514
 30
0.0
 40
5.800194154232948
100
AcDbArc
 50
325.7708111775
 51
1.2863867807
  0
LINE
  5
324
330
1F
100
AcDbEntity
  8
0
  6
Continuous
 62
     7
370
    25
100
AcDbLine
 10
333.6507625271
 20
289.6857372292
 30
0.0
 11
333.6507625271
 21
297.7038427385
 31
0.0
  0
LINE
  5
325
330
1F
100
AcDbEntity
  8
0
  6
Continuous
 62
     7
370
    25
100
AcDbLine
 10
323.6098462342
 20
258.9847448728
 30
0.0
 11
323.6098481162
 21
259.0132601927
 31
0.0
  0
LINE
  5
326
330
1F
100
AcDbEntity
  8
0
  6
Continuous
 62
     7
370
    25
100
AcDbLine
 10
323.0441608093
 20
258.6866958615
 30
0.0
 11
323.6098481162
 21
259.0132601927
 31
0.0
  0
LINE
  5
327
330
1F
100
AcDbEntity
  8
0
  6
Continuous
 62
     7
370
    25
100
AcDbLine
 10
323.0441608093
 20
272.1144528778
 30
0.0
 11
323.0441608093
 21
258.6866958615
 31
0.0
  0
ARC
  5
328
330
1F
100
AcDbEntity
  8
0
  6
Continuous
 62
     7
370
    25
100
AcDbCircle
 10
312.4428058255
 20
290.500665314
 30
0.0
 40
21.22360796947689
100
AcDbArc
 50
299.9674331075
 51
357.7994589368
  0
ARC
  5
329
330
1F
100
AcDbEntity
  8
0
  6
Continuous
 62
     7
370
    25
100
AcDbCircle
 10
337.2360413959
 20
270.0037070324
 30
0.0
 40
1.164910641696923
100
AcDbArc
 50
170.0656916815
 51
265.7275952575
  0
LINE
  5
32A
330
1F
100
AcDbEntity
  8
0
  6
Continuous
 62
     7
370
    25
100
AcDbLine
 10
337.1492573637
 20
268.0254927144
 30
0.0
 11
337.1492573637
 21
268.8420335263
 31
0.0
  0
LINE
  5
32B
330
1F
100
AcDbEntity
  8
0
  6
Continuous
 62
     7
370
    25
100
AcDbLine
 10
336.0885971919
 20
270.2046761886
 30
0.0
 11
336.0885971919
 21
300.9931667926
 31
0.0
  0
LINE
  5
32C
330
1F
100
AcDbEntity
  8
0
  6
Continuous
 62
     7
370
    25
100
AcDbLine
 10
323.0441608093
 20
258.6866958615
 30
0.0
 11
323.0071217399
 21
258.7051918748
 31
0.0
  0
LINE
  5
32D
330
1F
100
AcDbEntity
  8
0
  6
Continuous
 62
     7
370
    25
100
AcDbLine
 10
255.8937093095
 20
374.994689269
 30
0.0
 11
255.8912108991
 21
374.9533804414
 31
0.0
  0
LINE
  5
32E
330
1F
100
AcDbEntity
  8
0
  6
Continuous
 62
     7
370
    25
100
AcDbLine
 10
323.8356324613
 20
270.7557449583
 30
0.0
 11
323.8357669112
 21
270.7490516127
 31
0.0
  0
ARC
  5
32F
330
1F
100
AcDbEntity
  8
0
  6
Continuous
 62
     7
370
    25
100
AcDbCircle
 10
319.6045696473
 20
258.5905857267
 30
0.0
 40
4.024624450834494
100
AcDbArc
 50
305.6980385288
 51
5.6203789637
  0
ARC
  5
330
330
1F
100
AcDbEntity
  8
0
  6
Continuous
 62
     7
370
    25
100
AcDbCircle
 10
254.0913932745
 20
372.0646006074
 30
0.0
 40
4.023670782257517
100
AcDbArc
 50
54.3818273401
 51
114.3139521614
  0
ARC
  5
331
330
1F
100
AcDbEntity
  8
0
  6
Continuous
 62
     7
370
    25
100
AcDbCircle
 10
321.1522260045
 20
258.1570172424
 30
0.0
 40
2.855541388386097
100
AcDbArc
 50
300.4215234534
 51
326.923894686
  0
LINE
  5
332
330
1F
100
AcDbEntity
  8
0
  6
Continuous
 62
     7
370
    25
100
AcDbLine
 10
322.5981514772
 20
255.6946167574
 30
0.0
 11
321.9529919848
 21
255.3221741101
 31
0.0
  0
LINE
  5
333
330
1F
100
AcDbEntity
  8
0
  6
Continuous
 62
     7
370
    25
100
AcDbLine
 10
252.4347020215
 20
375.7313840283
 30
0.0
 11
253.079861514
 21
376.1038266757
 31
0.0
  0
ARC
  5
334
330
1F
100
AcDbEntity
  8
0
  6
Continuous
 62
     7
370
    25
100
AcDbCircle
 10
333.8949701368
 20
267.7052384082
 30
0.0
 40
3.270007366303036
100
AcDbArc
 50
305.6980385288
 51
5.6203789637
  0
LINE
  5
335
330
1F
100
AcDbEntity
  8
0
  6
Continuous
 62
     7
370
    25
100
AcDbLine
 10
335.8030632859
 20
265.0496539697
 30
0.0
 11
324.3041254819
 21
258.4114584734
 31
0.0
  0
ARC
  5
336
330
1F
100
AcDbEntity
  8
0
  6
Continuous
 62
     7
370
    25
100
AcDbCircle
 10
269.1308349658
 20
379.8815261547
 30
0.0
 40
3.269232510584708
100
AcDbArc
 50
54.3818273401
 51
114.3139521614
  0
LINE
  5
337
330
1F
100
AcDbEntity
  8
0
  6
Continuous
 62
     7
370
    25
100
AcDbLine
 10
256.2580161357
 20
376.2065324
 30
0.0
 11
267.7847733227
 21
382.8607876842
 31
0.0
  0
ARC
  5
338
330
1F
100
AcDbEntity
  8
0
  6
Continuous
 62
     7
370
    25
100
AcDbCircle
 10
272.7909288083
 20
381.6252393797
 30
0.0
 40
1.164572895296345
100
AcDbArc
 50
154.2635869151
 51
249.9403887463
  0
LINE
  5
339
330
1F
100
AcDbEntity
  8
0
  6
Continuous
 62
     7
370
    25
100
AcDbLine
 10
271.7418801039
 20
381.1359957441
 30
0.0
 11
271.7418801039
 21
382.1309337975
 31
0.0
  0
LINE
  5
33A
330
1F
100
AcDbEntity
  8
0
  6
Continuous
 62
     7
370
    25
100
AcDbLine
 10
336.2876602957
 20
269.3394229264
 30
0.0
 11
337.1492573637
 21
268.8420335263
 31
0.0
  0
LINE
  5
33B
330
1F
100
AcDbEntity
  8
0
  6
Continuous
 62
     7
370
    25
100
AcDbLine
 10
271.7418801039
 20
382.1309337975
 30
0.0
 11
271.0347733227
 21
382.5391378534
 31
0.0
  0
LINE
  5
33C
330
1F
100
AcDbEntity
  8
0
  6
Continuous
 62
     7
370
    25
100
AcDbLine
 10
314.8565259512
 20
298.7928566232
 30
0.0
 11
314.8990734934
 21
298.6554512063
 31
0.0
  0
LINE
  5
33D
330
1F
100
AcDbEntity
  8
0
  6
Continuous
 62
     7
370
    25
100
AcDbLine
 10
306.4418005441
 20
347.8453567087
 30
0.0
 11
306.5488150583
 21
347.9609355244
 31
0.0
  0
ELLIPSE
  5
33E
330
1F
100
AcDbEntity
  8
0
  6
Continuous
 62
     7
370
    25
100
AcDbEllipse
 10
322.9839213883
 20
284.3646345571
 30
0.0
 11
6.663903823794328
 21
11.14393998280525
 31
0.0
210
0.0
220
0.0
230
0.9999999999999997
 40
0.5873687143
 41
3.147258145554252
 42
3.175768393358743
  0
ELLIPSE
  5
33F
330
1F
100
AcDbEntity
  8
0
  6
Continuous
 62
     7
370
    25
100
AcDbEllipse
 10
321.5613472626
 20
272.2677077954
 30
0.0
 11
0.5146662512466378
 21
0.8593925842865814
 31
0.0
210
0.0
220
0.0
230
1.0
 40
0.5864299108
 41
5.807852828973079
 42
6.078732314312731
  0
ELLIPSE
  5
340
330
1F
100
AcDbEntity
  8
0
  6
Continuous
 62
     7
370
    25
100
AcDbEllipse
 10
266.913168448
 20
366.9211286491
 30
0.0
 11
1.001587354721948
 21
0.01606473993706458
 31
0.0
210
0.0
220
0.0
230
1.0
 40
0.5863361774
 41
0.2045226062866937
 42
0.4753345262375868
  0
ELLIPSE
  5
341
330
1F
100
AcDbEntity
  8
0
  6
Continuous
 62
     7
370
    25
100
AcDbEllipse
 10
278.1002451177
 20
362.1054420601
 30
0.0
 11
12.98287785315404
 21
0.1997480049103046
 31
0.0
210
0.0
220
0.0
230
1.0
 40
0.5872748814
 41
3.107424467448262
 42
3.135898086015743
  0
ARC
  5
342
330
1F
100
AcDbEntity
  8
0
  6
Continuous
 62
     7
370
    25
100
AcDbCircle
 10
326.1476373099
 20
311.9061174754
 30
0.0
 40
7.027288936389357
100
AcDbArc
 50
354.1639161826
 51
53.7152746005
  0
LINE
  5
343
330
1F
100
AcDbEntity
  8
0
  6
Continuous
 62
     7
370
    25
100
AcDbLine
 10
333.1385028812
 20
311.1915628176
 30
0.0
 11
333.1385028812
 21
301.9608942026
 31
0.0
  0
LINE
  5
344
330
1F
100
AcDbEntity
  8
0
  6
Continuous
 62
     7
370
    25
100
AcDbLine
 10
333.1385028812
 20
301.9608942026
 30
0.0
 11
333.1385028812
 21
298.2939754304
 31
0.0
  0
LINE
  5
345
330
1F
100
AcDbEntity
  8
0
  6
Continuous
 62
     7
370
    25
100
AcDbLine
 10
333.1385028812
 20
298.2939754304
 30
0.0
 11
333.1385028812
 21
289.9615017085
 31
0.0
  0
ARC
  5
346
330
1F
100
AcDbEntity
  8
0
  6
Continuous
 62
     7
370
    25
100
AcDbCircle
 10
311.8212631168
 20
290.8412195708
 30
0.0
 40
21.33538409995754
100
AcDbArc
 50
301.0451100029
 51
357.6368640117
  0
ELLIPSE
  5
347
330
1F
100
AcDbEntity
  8
0
  6
Continuous
 62
     7
370
    25
100
AcDbEllipse
 10
321.824363579
 20
272.1350074479
 30
0.0
 11
0.5006035906014857
 21
0.866903462720529
 31
0.0
210
0.0
220
0.0
230
0.9999999999999998
 40
0.576771809
 41
5.765129227617115
 42
6.926546407842662
  0
ARC
  5
348
330
1F
100
AcDbEntity
  8
0
  6
Continuous
 62
     7
370
    25
100
AcDbCircle
 10
319.3622849256
 20
277.8241164995
 30
0.0
 40
5.460937152978091
100
AcDbArc
 50
233.5385610682
 51
297.9869489147
  0
ARC
  5
349
330
1F
100
AcDbEntity
  8
0
  6
Continuous
 62
     7
370
    25
100
AcDbCircle
 10
270.6243795041
 20
362.2387532123
 30
0.0
 40
5.460138205737494
100
AcDbArc
 50
122.0034170403
 51
186.4586990559
  0
ELLIPSE
  5
34A
330
1F
100
AcDbEntity
  8
0
  6
Continuous
 62
     7
370
    25
100
AcDbEllipse
 10
266.9297417074
 20
367.2152834142
 30
0.0
 11
1.001061296764306
 21
0.000130865713856565
 31
0.0
210
0.0
220
0.0
230
1.0
 40
0.5766780292
 41
5.639741673617637
 42
6.801243258016172
  0
ARC
  5
34B
330
1F
100
AcDbEntity
  8
0
  6
Continuous
 62
     7
370
    25
100
AcDbCircle
 10
278.1283262069
 20
349.1957732069
 30
0.0
 40
21.33832721899471
100
AcDbArc
 50
62.367267192
 51
118.9508425556
  0
LINE
  5
34C
330
1F
100
AcDbEntity
  8
0
  6
Continuous
 62
     7
370
    25
100
AcDbLine
 10
306.4098665524
 20
357.4869188203
 30
0.0
 11
288.0250902415
 21
368.100224274
 31
0.0
  0
ARC
  5
34D
330
1F
100
AcDbEntity
  8
0
  6
Continuous
 62
     7
370
    25
100
AcDbCircle
 10
303.5344020513
 20
351.0766506481
 30
0.0
 40
7.025655423947682
100
AcDbArc
 50
6.2896149011
 51
65.8403484707
  0
LWPOLYLINE
  5
34E
330
1F
100
AcDbEntity
  8
0
  6
Continuous
 62
     7
370
    25
100
AcDbPolyline
 90
        3
 70
   128
 43
0.0
 10
315.0188721299
 20
298.1019208793
 10
315.015340943
 20
298.1124029508
 10
314.9040894573
 20
298.4774195094
  0
LINE
  5
34F
330
1F
100
AcDbEntity
  8
0
  6
Continuous
 62
     7
370
    25
100
AcDbLine
 10
325.1123519244
 20
316.160564765
 30
0.0
 11
325.2659375289
 21
316.1988225953
 31
0.0
  0
LWPOLYLINE
  5
350
330
1F
100
AcDbEntity
  8
0
  6
Continuous
 62
     7
370
    25
100
AcDbPolyline
 90
        3
 70
   128
 43
0.0
 10
286.2807170994
 20
348.0543134485
 10
286.9840321889
 20
347.4251752394
 10
287.1829250148
 20
347.2717463822
  0
LINE
  5
351
330
1F
100
AcDbEntity
  8
0
  6
Continuous
 62
     7
370
    25
100
AcDbLine
 10
306.5436767642
 20
347.9001571456
 30
0.0
 11
306.7005177914
 21
348.0543134485
 31
0.0
  0
LWPOLYLINE
  5
352
330
1F
100
AcDbEntity
  8
0
  6
Continuous
 62
     7
370
    25
100
AcDbPolyline
 90
        3
 70
   128
 43
0.0
 10
325.7357578816
 20
295.0624408536
 10
325.4853675867
 20
295.0169598921
 10
325.1123519244
 20
294.9305036559
  0
LWPOLYLINE
  5
353
330
1F
100
AcDbEntity
  8
0
  6
Continuous
 62
     7
370
    25
100
AcDbPolyline
 90
        3
 70
   128
 43
0.0
 10
288.6407778242
 20
359.0207644808
 10
288.5758677783
 20
358.9460886546
 10
288.3157414806
 20
358.6676189022
  0
LINE
  5
354
330
1F
100
AcDbEntity
  8
0
  6
Continuous
 62
     7
370
    25
100
AcDbLine
 10
333.6507625271
 20
297.7038427385
 30
0.0
 11
333.6507625271
 21
301.9994979359
 31
0.0
  0
LINE
  5
355
330
1F
100
AcDbEntity
  8
0
  6
Continuous
 62
     7
370
    25
100
AcDbLine
 10
336.0885971919
 20
300.9931667926
 30
0.0
 11
336.0885971919
 21
303.9740622094
 31
0.0
  0
LWPOLYLINE
  5
356
330
1F
100
AcDbEntity
  8
0
  6
Continuous
 62
     7
370
    25
100
AcDbPolyline
 90
       20
 70
   128
 43
0.0
 10
325.2659375289
 20
316.1988225953
 10
325.4853675867
 20
316.2470210012
 10
326.6899611687
 20
316.3662386386
 10
327.8016698208
 20
316.2213251704
 10
328.7931195863
 20
315.8158488469
 10
329.6398976816
 20
315.159793841
 10
330.3211536198
 20
314.2693144042
 10
330.8201126186
 20
313.1663370957
 10
331.1244886516
 20
311.8780208772
 10
331.2267869706
 20
310.4360883698
 10
331.1244886516
 20
308.8760447373
 10
330.8201126186
 20
307.2363034315
 10
330.3211536198
 20
305.5572403252
 10
329.6398976816
 20
303.8801995246
 10
328.7931195863
 20
302.2464753401
 10
327.8016698208
 20
300.6962954831
 10
326.6899611687
 20
299.2678305264
 10
325.4853675867
 20
297.996254018
 10
324.2175501666
 20
296.9128763917
 10
322.9177267808
 20
296.0443740001
  0
LWPOLYLINE
  5
357
330
1F
100
AcDbEntity
  8
0
  6
Continuous
 62
     7
370
    25
100
AcDbPolyline
 90
        9
 70
   128
 43
0.0
 10
322.9177267808
 20
296.0443740001
 10
321.617903395
 20
295.4121322547
 10
320.3500859748
 20
295.0317190453
 10
319.1454923928
 20
294.9125014078
 10
318.0337837408
 20
295.0574148761
 10
317.0423339753
 20
295.4628911995
 10
316.1955558799
 20
296.1189462055
 10
315.5142999418
 20
297.0094256422
 10
315.0188721299
 20
298.1019208793
  0
LWPOLYLINE
  5
358
330
1F
100
AcDbEntity
  8
0
  6
Continuous
 62
     7
370
    25
100
AcDbPolyline
 90
       28
 70
   128
 43
0.0
 10
314.8829028045
 20
277.3261623256
 10
315.015340943
 20
276.8823418418
 10
315.5142999418
 20
275.7793645332
 10
316.1955558799
 20
274.8888850964
 10
317.0423339753
 20
274.2328300905
 10
318.0337837408
 20
273.827353767
 10
319.1454923928
 20
273.6824402988
 10
320.3500859748
 20
273.8016579363
 10
321.617903395
 20
274.1820711456
 10
322.9177267808
 20
274.8143128911
 10
324.2175501666
 20
275.6828152826
 10
325.4853675867
 20
276.7661929089
 10
326.6899611687
 20
278.0377694173
 10
327.8016698208
 20
279.4662343741
 10
328.7931195863
 20
281.0164142311
 10
329.6398976816
 20
282.6501384156
 10
330.3211536198
 20
284.3271792162
 10
330.8201126186
 20
286.0062423224
 10
331.1244886516
 20
287.6459836283
 10
331.2267869706
 20
289.2060272608
 10
331.1244886516
 20
290.6479597682
 10
330.8201126186
 20
291.9362759866
 10
330.3211536198
 20
293.0392532952
 10
329.6398976816
 20
293.929732732
 10
328.7931195863
 20
294.5857877379
 10
327.8016698208
 20
294.9912640614
 10
326.6899611687
 20
295.1361775296
 10
325.7357578816
 20
295.0624408536
  0
LWPOLYLINE
  5
359
330
1F
100
AcDbEntity
  8
0
  6
Continuous
 62
     7
370
    25
100
AcDbPolyline
 90
       19
 70
   128
 43
0.0
 10
269.7967809448
 20
366.8224897551
 10
271.1989026496
 20
367.5138062611
 10
272.7710961027
 20
368.0699891352
 10
274.4746486835
 20
368.4773433093
 10
276.2676132737
 20
368.7258383717
 10
278.1058411346
 20
368.8093555492
 10
279.9440689954
 20
368.7258383717
 10
281.7370335856
 20
368.4773433093
 10
283.4405861665
 20
368.0699891352
 10
285.0127796196
 20
367.5138062611
 10
286.4149013244
 20
366.8224897551
 10
287.6124263911
 20
366.0130621241
 10
288.5758677783
 20
365.1054541626
 10
289.2815023615
 20
364.1220141908
 10
289.7119550754
 20
363.0869577647
 10
289.8566267456
 20
362.0257714086
 10
289.7119550754
 20
360.9645850525
 10
289.2815023615
 20
359.9295286264
 10
288.6407778242
 20
359.0207644808
  0
LWPOLYLINE
  5
35A
330
1F
100
AcDbEntity
  8
0
  6
Continuous
 62
     7
370
    25
100
AcDbPolyline
 90
       10
 70
   128
 43
0.0
 10
267.9581717408
 20
358.605334731
 10
267.6358144908
 20
358.9460886546
 10
266.9301799077
 20
359.9295286264
 10
266.4997271938
 20
360.9645850525
 10
266.3550555236
 20
362.0257714086
 10
266.4997271938
 20
363.0869577647
 10
266.9301799077
 20
364.1220141908
 10
267.6358144908
 20
365.1054541626
 10
268.599255878
 20
366.0130621241
 10
269.7967809448
 20
366.8224897551
  0
LWPOLYLINE
  5
35B
330
1F
100
AcDbEntity
  8
0
  6
Continuous
 62
     7
370
    25
100
AcDbPolyline
 90
       20
 70
   128
 43
0.0
 10
306.7005177914
 20
348.0543134485
 10
306.9606440892
 20
348.3327832009
 10
307.6662786724
 20
349.3162231727
 10
308.0967313863
 20
350.3512795988
 10
308.2414030564
 20
351.4124659549
 10
308.0967313863
 20
352.473652311
 10
307.6662786724
 20
353.5087087371
 10
306.9606440892
 20
354.4921487089
 10
305.997202702
 20
355.3997566704
 10
304.7996776352
 20
356.2091843014
 10
303.3975559304
 20
356.9005008074
 10
301.8253624773
 20
357.4566836815
 10
300.1218098965
 20
357.8640378556
 10
298.3288453063
 20
358.112532918
 10
296.4906174454
 20
358.1960500955
 10
294.6523895846
 20
358.112532918
 10
292.8594249944
 20
357.8640378556
 10
291.1558724136
 20
357.4566836815
 10
289.5836789604
 20
356.9005008074
 10
288.1815572556
 20
356.2091843014
  0
LWPOLYLINE
  5
35C
330
1F
100
AcDbEntity
  8
0
  6
Continuous
 62
     7
370
    25
100
AcDbPolyline
 90
       10
 70
   128
 43
0.0
 10
288.1815572556
 20
356.2091843014
 10
286.9840321889
 20
355.3997566704
 10
286.0205908017
 20
354.4921487089
 10
285.3149562185
 20
353.5087087371
 10
284.8845035046
 20
352.473652311
 10
284.7398318344
 20
351.4124659549
 10
284.8845035046
 20
350.3512795988
 10
285.3149562185
 20
349.3162231727
 10
286.0205908017
 20
348.3327832009
 10
286.2807170994
 20
348.0543134485
  0
ARC
  5
35D
330
1F
100
AcDbEntity
  8
0
  6
Continuous
 62
     7
370
    25
100
AcDbCircle
 10
302.2302853739
 20
355.0681685699
 30
0.0
 40
10.77751107560549
100
AcDbArc
 50
298.8197671434
 51
319.9269026039
  0
LINE
  5
35E
330
1F
100
AcDbEntity
  8
0
  6
Continuous
 62
     7
370
    25
100
AcDbLine
 10
299.9754734119
 20
341.3246606712
 30
0.0
 11
307.4256489593
 21
345.6255554676
 31
0.0
  0
ELLIPSE
  5
35F
330
1F
100
AcDbEntity
  8
0
  6
Continuous
 62
     7
370
    25
100
AcDbEllipse
 10
300.6847347325
 20
340.9024568505
 30
0.0
 11
1.002286821249186
 21
-0.03011717694329263
 31
0.0
210
0.0
220
0.0
230
1.0
 40
0.5755370371
 41
2.374095756467423
 42
3.200505645700305
  0
LINE
  5
360
330
1F
100
AcDbEntity
  8
0
  6
Continuous
 62
     7
370
    25
100
AcDbLine
 10
307.438857079
 20
345.1811633131
 30
0.0
 11
300.0018896514
 21
340.8878934019
 31
0.0
  0
ELLIPSE
  5
361
330
1F
100
AcDbEntity
  8
0
  6
Continuous
 62
     7
370
    25
100
AcDbEllipse
 10
300.7094274455
 20
340.4941864446
 30
0.0
 11
0.9998490414791946
 21
0.03019005095694638
 31
0.0
210
0.0
220
0.0
230
1.0
 40
0.5769364716
 41
2.339384868410498
 42
2.639448239471923
  0
ARC
  5
362
330
1F
100
AcDbEntity
  8
0
  6
Continuous
 62
     7
370
    25
100
AcDbCircle
 10
302.5127634015
 20
354.2500042212
 30
0.0
 40
10.3203815014753
100
AcDbArc
 50
298.5103180644
 51
324.9918319551
  0
ARC
  5
363
330
1F
100
AcDbEntity
  8
0
  6
Continuous
 62
     7
370
    25
100
AcDbCircle
 10
328.957160772
 20
308.7710601418
 30
0.0
 40
10.79018978644436
100
AcDbArc
 50
100.2066202333
 51
121.1660928683
  0
LINE
  5
364
330
1F
100
AcDbEntity
  8
0
  6
Continuous
 62
     7
370
    25
100
AcDbLine
 10
315.9228384186
 20
313.703014314
 30
0.0
 11
323.3730139659
 21
318.0039091103
 31
0.0
  0
ELLIPSE
  5
365
330
1F
100
AcDbEntity
  8
0
  6
Continuous
 62
     7
370
    25
100
AcDbEllipse
 10
315.9117922281
 20
314.5284196959
 30
0.0
 11
0.4750179891094604
 21
0.8830876571000771
 31
0.0
210
0.0
220
0.0
230
1.0
 40
0.5756289676
 41
3.080059492748086
 42
3.909004585000609
  0
LINE
  5
366
330
1F
100
AcDbEntity
  8
0
  6
Continuous
 62
     7
370
    25
100
AcDbLine
 10
322.9947829045
 20
318.2375095035
 30
0.0
 11
315.5578154769
 21
313.9442395924
 31
0.0
  0
ELLIPSE
  5
367
330
1F
100
AcDbEntity
  8
0
  6
Continuous
 62
     7
370
    25
100
AcDbEllipse
 10
315.5705851939
 20
314.7539062405
 30
0.0
 11
0.5260321074845821
 21
0.8508229947823339
 31
0.0
210
0.0
220
0.0
230
0.9999999999999999
 40
0.577031882
 41
3.641579682807121
 42
3.943723516905727
  0
ARC
  5
368
330
1F
100
AcDbEntity
  8
0
  6
Continuous
 62
     7
370
    25
100
AcDbCircle
 10
328.2256490097
 20
309.8981580276
 30
0.0
 40
9.844122269141176
100
AcDbArc
 50
93.4347344232
 51
122.0980316725
  0
LINE
  5
369
330
1F
100
AcDbEntity
  8
0
  6
Continuous
 62
     7
100
AcDbLine
 10
373.0565201107
 20
152.6701512329
 30
0.0
 11
372.9751139349
 21
152.6701512329
 31
0.0
  0
LINE
  5
36A
330
1F
100
AcDbEntity
  8
0
  6
Continuous
 62
     7
100
AcDbLine
 10
373.0565201107
 20
152.6701512329
 30
0.0
 11
373.0565201107
 21
152.8329635844
 31
0.0
  0
LINE
  5
36B
330
1F
100
AcDbEntity
  8
0
  6
Continuous
 62
     7
100
AcDbLine
 10
373.0565201107
 20
152.6701512329
 30
0.0
 11
372.9751139349
 21
152.6701512329
 31
0.0
  0
LINE
  5
36C
330
1F
100
AcDbEntity
  8
0
  6
Continuous
 62
     7
100
AcDbLine
 10
373.0565201107
 20
152.6701512329
 30
0.0
 11
373.0565201107
 21
152.8329635844
 31
0.0
  0
LINE
  5
36D
330
1F
100
AcDbEntity
  8
0
  6
Continuous
 62
     7
100
AcDbLine
 10
373.0565201107
 20
152.6701512329
 30
0.0
 11
372.9751139349
 21
152.6701512329
 31
0.0
  0
LINE
  5
36E
330
1F
100
AcDbEntity
  8
0
  6
Continuous
 62
     7
100
AcDbLine
 10
373.0565201107
 20
152.6701512329
 30
0.0
 11
373.0565201107
 21
152.8329635844
 31
0.0
  0
POINT
  5
36F
330
1F
100
AcDbEntity
  8
0
  6
Continuous
 62
     7
100
AcDbPoint
 10
373.0565201107
 20
152.6701512329
 30
0.0
  0
POINT
  5
370
330
1F
100
AcDbEntity
  8
0
  6
Continuous
 62
     7
100
AcDbPoint
 10
373.0565201107
 20
152.6701512329
 30
0.0
  0
POINT
  5
371
330
1F
100
AcDbEntity
  8
0
  6
Continuous
 62
     7
100
AcDbPoint
 10
373.0565201107
 20
152.6701512329
 30
0.0
  0
ELLIPSE
  5
372
330
1F
100
AcDbEntity
  8
0
  6
Continuous
 62
     7
370
    25
100
AcDbEllipse
 10
321.4722296691
 20
125.8218627537
 30
0.0
 11
0.0
 21
0.9000000000000057
 31
0.0
210
0.0
220
0.0
230
1.0
 40
0.0174550649
 41
0.1434304530192209
 42
1.570796326794897
  0
LINE
  5
373
330
1F
100
AcDbEntity
  8
0
  6
Continuous
 62
     7
370
    25
100
AcDbLine
 10
346.2082316315
 20
101.0701512329
 30
0.0
 11
329.5565201107
 21
101.0701512329
 31
0.0
  0
LINE
  5
374
330
1F
100
AcDbEntity
  8
0
  6
Continuous
 62
     7
370
    25
100
AcDbLine
 10
321.4565201107
 20
109.1701512329
 30
0.0
 11
321.4565201107
 21
125.8218627537
 31
0.0
  0
ARC
  5
375
330
1F
100
AcDbEntity
  8
0
  6
Continuous
 62
     7
370
    25
100
AcDbCircle
 10
329.5565201107
 20
109.1701512329
 30
0.0
 40
8.100000000000023
100
AcDbArc
 50
180.0
 51
270.0
  0
ELLIPSE
  5
376
330
1F
100
AcDbEntity
  8
0
  6
Continuous
 62
     7
370
    25
100
AcDbEllipse
 10
346.2082316315
 20
101.0858607913
 30
0.0
 11
0.9000000000000341
 21
0.0
 31
0.0
210
0.0
220
0.0
230
1.0
 40
0.0174550649
 41
4.71238898038469
 42
6.139754854161126
  0
ELLIPSE
  5
377
330
1F
100
AcDbEntity
  8
0
  6
Continuous
 62
     7
370
    25
100
AcDbEllipse
 10
399.9048085899
 20
204.2544416744
 30
0.0
 11
0.8999999999999204
 21
0.0
 31
0.0
210
0.0
220
0.0
230
1.0
 40
0.0174550649
 41
1.570796326794897
 42
2.998162200570585
  0
ARC
  5
378
330
1F
100
AcDbEntity
  8
0
  6
Continuous
 62
     7
370
    25
100
AcDbCircle
 10
416.5565201107
 20
196.1701512329
 30
0.0
 40
8.100000000000023
100
AcDbArc
 50
0.0
 51
90.0
  0
LINE
  5
379
330
1F
100
AcDbEntity
  8
0
  6
Continuous
 62
     7
370
    25
100
AcDbLine
 10
424.6565201107
 20
196.1701512329
 30
0.0
 11
424.6565201107
 21
179.5184397121
 31
0.0
  0
LINE
  5
37A
330
1F
100
AcDbEntity
  8
0
  6
Continuous
 62
     7
370
    25
100
AcDbLine
 10
399.9048085899
 20
204.2701512329
 30
0.0
 11
416.5565201107
 21
204.2701512329
 31
0.0
  0
ELLIPSE
  5
37B
330
1F
100
AcDbEntity
  8
0
  6
Continuous
 62
     7
370
    25
100
AcDbEllipse
 10
424.6408105523
 20
179.5184397121
 30
0.0
 11
0.0
 21
0.8999999999999773
 31
0.0
210
0.0
220
0.0
230
1.0
 40
0.0174550649
 41
3.285023106609794
 42
4.71238898038469
  0
ELLIPSE
  5
37C
330
1F
100
AcDbEntity
  8
0
  6
Continuous
 62
     7
370
    25
100
AcDbEllipse
 10
321.4373195393
 20
139.6701512329
 30
0.0
 11
0.0
 21
13.09196533026773
 31
0.0
210
0.0
220
0.0
230
1.0
 40
0.0174550649
 41
3.285023106608296
 42
3.690338172989245
  0
ELLIPSE
  5
37D
330
1F
100
AcDbEntity
  8
0
  6
Continuous
 62
     7
370
    25
100
AcDbEllipse
 10
360.0565201107
 20
101.0509506615
 30
0.0
 11
13.09196533026773
 21
0.0
 31
0.0
210
0.0
220
0.0
230
1.0
 40
0.0174550649
 41
2.592847134189941
 42
2.998162200572408
  0
ELLIPSE
  5
37E
330
1F
100
AcDbEntity
  8
0
  6
Continuous
 62
     7
370
    25
100
AcDbEllipse
 10
386.0565201107
 20
204.2893518043
 30
0.0
 11
13.09196533026773
 21
0.0
 31
0.0
210
0.0
220
0.0
230
1.0
 40
0.0174550649
 41
5.734439787781897
 42
6.139754854162942
  0
ELLIPSE
  5
37F
330
1F
100
AcDbEntity
  8
0
  6
Continuous
 62
     7
370
    25
100
AcDbEllipse
 10
424.6757206821
 20
165.6701512329
 30
0.0
 11
0.0
 21
13.09196533026773
 31
0.0
210
0.0
220
0.0
230
1.0
 40
0.0174550649
 41
0.1434304530171975
 42
0.548745519398547
  0
LWPOLYLINE
  5
380
330
1F
100
AcDbEntity
  8
0
  6
Continuous
 62
     7
370
    25
100
AcDbPolyline
 90
        3
 70
   128
 43
0.0
 10
399.7851872139
 20
149.7740262219
 10
399.7974855921
 20
149.7706248086
 10
399.8071300404
 20
149.767962066
  0
ELLIPSE
  5
381
330
1F
100
AcDbEntity
  8
0
  6
Continuous
 62
     7
370
    25
100
AcDbEllipse
 10
324.9622340331
 20
112.5888285574
 30
0.0
 11
0.0
 21
2.700000000000003
 31
0.0
210
0.0
220
0.0
230
1.0
 40
0.0349207695
 41
3.602146645271135
 42
4.71238898038469
  0
LINE
  5
382
330
1F
100
AcDbEntity
  8
0
  6
Continuous
 62
     7
370
    25
100
AcDbLine
 10
325.0041389565
 20
110.1701512329
 30
0.0
 11
323.0565201107
 21
110.1701512329
 31
0.0
  0
LINE
  5
383
330
1F
100
AcDbEntity
  8
0
  6
Continuous
 62
     7
370
    25
100
AcDbLine
 10
323.0565201107
 20
112.5888285574
 30
0.0
 11
323.0565201107
 21
110.1701512329
 31
0.0
  0
LINE
  5
384
330
1F
100
AcDbEntity
  8
0
  6
Continuous
 62
     7
370
    25
100
AcDbLine
 10
325.0565201107
 20
112.5888285574
 30
0.0
 11
325.0565201107
 21
109.1701512329
 31
0.0
  0
LINE
  5
385
330
1F
100
AcDbEntity
  8
0
  6
Continuous
 62
     7
370
    25
100
AcDbLine
 10
325.0041389565
 20
110.1701512329
 30
0.0
 11
325.0041389565
 21
109.1701512329
 31
0.0
  0
LINE
  5
386
330
1F
100
AcDbEntity
  8
0
  6
Continuous
 62
     7
370
    25
100
AcDbLine
 10
332.9751974352
 20
200.6701512329
 30
0.0
 11
329.5565201107
 21
200.6701512329
 31
0.0
  0
LINE
  5
387
330
1F
100
AcDbEntity
  8
0
  6
Continuous
 62
     7
370
    25
100
AcDbLine
 10
330.5565201107
 20
200.7225323871
 30
0.0
 11
329.5565201107
 21
200.7225323871
 31
0.0
  0
ELLIPSE
  5
388
330
1F
100
AcDbEntity
  8
0
  6
Continuous
 62
     7
370
    25
100
AcDbEllipse
 10
332.9751974352
 20
200.7644373105
 30
0.0
 11
2.700000000000045
 21
0.0
 31
0.0
210
0.0
220
0.0
230
1.0
 40
0.0349207695
 41
3.602146645271296
 42
4.71238898038469
  0
LINE
  5
389
330
1F
100
AcDbEntity
  8
0
  6
Continuous
 62
     7
370
    25
100
AcDbLine
 10
329.5565201107
 20
104.6177700786
 30
0.0
 11
330.5565201107
 21
104.6177700786
 31
0.0
  0
LINE
  5
38A
330
1F
100
AcDbEntity
  8
0
  6
Continuous
 62
     7
370
    25
100
AcDbLine
 10
329.5565201107
 20
104.6701512329
 30
0.0
 11
332.9751974352
 21
104.6701512329
 31
0.0
  0
ELLIPSE
  5
38B
330
1F
100
AcDbEntity
  8
0
  6
Continuous
 62
     7
370
    25
100
AcDbEllipse
 10
332.9751974352
 20
104.5758651552
 30
0.0
 11
2.700000000000045
 21
0.0
 31
0.0
210
0.0
220
0.0
230
1.0
 40
0.0349207695
 41
1.570796326794897
 42
2.681038661908431
  0
LINE
  5
38C
330
1F
100
AcDbEntity
  8
0
  6
Continuous
 62
     7
370
    25
100
AcDbLine
 10
332.9751974352
 20
102.6701512329
 30
0.0
 11
330.5565201107
 21
102.6701512329
 31
0.0
  0
LINE
  5
38D
330
1F
100
AcDbEntity
  8
0
  6
Continuous
 62
     7
370
    25
100
AcDbLine
 10
330.5565201107
 20
102.6701512329
 30
0.0
 11
330.5565201107
 21
104.6177700786
 31
0.0
  0
LINE
  5
38E
330
1F
100
AcDbEntity
  8
0
  6
Continuous
 62
     7
370
    25
100
AcDbLine
 10
330.5565201107
 20
200.7225323871
 30
0.0
 11
330.5565201107
 21
202.6701512329
 31
0.0
  0
LINE
  5
38F
330
1F
100
AcDbEntity
  8
0
  6
Continuous
 62
     7
370
    25
100
AcDbLine
 10
332.9751974352
 20
202.6701512329
 30
0.0
 11
330.5565201107
 21
202.6701512329
 31
0.0
  0
ARC
  5
390
330
1F
100
AcDbEntity
  8
0
  6
Continuous
 62
     7
370
    25
100
AcDbCircle
 10
403.0565201107
 20
150.9201512329
 30
0.0
 40
3.466297947788008
100
AcDbArc
 50
199.3081203957
 51
0.0
  0
ARC
  5
391
330
1F
100
AcDbEntity
  8
0
  6
Continuous
 62
     7
370
    25
100
AcDbCircle
 10
403.0565201107
 20
150.9201512329
 30
0.0
 40
3.447618845762413
100
AcDbArc
 50
199.5238086381
 51
0.0
  0
ARC
  5
392
330
1F
100
AcDbEntity
  8
0
  6
Continuous
 62
     7
370
    25
100
AcDbCircle
 10
403.0565201107
 20
150.9201512329
 30
0.0
 40
2.052381154237652
100
AcDbArc
 50
207.0407399841
 51
0.0
  0
LINE
  5
393
330
1F
100
AcDbEntity
  8
0
  6
Continuous
 62
     7
370
    25
100
AcDbLine
 10
416.5565201107
 20
200.7225323871
 30
0.0
 11
415.5565201107
 21
200.7225323871
 31
0.0
  0
LINE
  5
394
330
1F
100
AcDbEntity
  8
0
  6
Continuous
 62
     7
370
    25
100
AcDbLine
 10
416.5565201107
 20
200.6701512329
 30
0.0
 11
413.1378427862
 21
200.6701512329
 31
0.0
  0
ELLIPSE
  5
395
330
1F
100
AcDbEntity
  8
0
  6
Continuous
 62
     7
370
    25
100
AcDbEllipse
 10
413.1378427862
 20
200.7644373105
 30
0.0
 11
2.699999999999988
 21
0.0
 31
0.0
210
0.0
220
0.0
230
1.0
 40
0.0349207695
 41
4.71238898038469
 42
5.822631315498736
  0
LINE
  5
396
330
1F
100
AcDbEntity
  8
0
  6
Continuous
 62
     7
370
    25
100
AcDbLine
 10
415.5565201107
 20
202.6701512329
 30
0.0
 11
413.1378427862
 21
202.6701512329
 31
0.0
  0
LINE
  5
397
330
1F
100
AcDbEntity
  8
0
  6
Continuous
 62
     7
370
    25
100
AcDbLine
 10
415.5565201107
 20
200.7225323871
 30
0.0
 11
415.5565201107
 21
202.6701512329
 31
0.0
  0
LINE
  5
398
330
1F
100
AcDbEntity
  8
0
  6
Continuous
 62
     7
370
    25
100
AcDbLine
 10
415.5565201107
 20
102.6701512329
 30
0.0
 11
415.5565201107
 21
104.6177700786
 31
0.0
  0
LINE
  5
399
330
1F
100
AcDbEntity
  8
0
  6
Continuous
 62
     7
370
    25
100
AcDbLine
 10
415.5565201107
 20
102.6701512329
 30
0.0
 11
413.1378427862
 21
102.6701512329
 31
0.0
  0
ELLIPSE
  5
39A
330
1F
100
AcDbEntity
  8
0
  6
Continuous
 62
     7
370
    25
100
AcDbEllipse
 10
413.1378427862
 20
104.5758651552
 30
0.0
 11
2.699999999999988
 21
0.0
 31
0.0
210
0.0
220
0.0
230
1.0
 40
0.0349207695
 41
0.4605539916813578
 42
1.570796326794897
  0
LINE
  5
39B
330
1F
100
AcDbEntity
  8
0
  6
Continuous
 62
     7
370
    25
100
AcDbLine
 10
413.1378427862
 20
104.6701512329
 30
0.0
 11
416.5565201107
 21
104.6701512329
 31
0.0
  0
LINE
  5
39C
330
1F
100
AcDbEntity
  8
0
  6
Continuous
 62
     7
370
    25
100
AcDbLine
 10
415.5565201107
 20
104.6177700786
 30
0.0
 11
416.5565201107
 21
104.6177700786
 31
0.0
  0
LINE
  5
39D
330
1F
100
AcDbEntity
  8
0
  6
Continuous
 62
     7
370
    25
100
AcDbLine
 10
423.0565201107
 20
112.5888285574
 30
0.0
 11
423.0565201107
 21
110.1701512329
 31
0.0
  0
LINE
  5
39E
330
1F
100
AcDbEntity
  8
0
  6
Continuous
 62
     7
370
    25
100
AcDbLine
 10
423.0565201107
 20
110.1701512329
 30
0.0
 11
421.108901265
 21
110.1701512329
 31
0.0
  0
ELLIPSE
  5
39F
330
1F
100
AcDbEntity
  8
0
  6
Continuous
 62
     7
370
    25
100
AcDbEllipse
 10
421.1508061883
 20
112.5888285574
 30
0.0
 11
0.0
 21
2.700000000000003
 31
0.0
210
0.0
220
0.0
230
1.0
 40
0.0349207695
 41
1.570796326794897
 42
2.681038661907931
  0
LINE
  5
3A0
330
1F
100
AcDbEntity
  8
0
  6
Continuous
 62
     7
370
    25
100
AcDbLine
 10
421.108901265
 20
109.1701512329
 30
0.0
 11
421.108901265
 21
110.1701512329
 31
0.0
  0
LINE
  5
3A1
330
1F
100
AcDbEntity
  8
0
  6
Continuous
 62
     7
370
    25
100
AcDbLine
 10
421.0565201107
 20
109.1701512329
 30
0.0
 11
421.0565201107
 21
112.5888285574
 31
0.0
  0
ARC
  5
3A2
330
1F
100
AcDbEntity
  8
0
  6
Continuous
 62
     7
370
    25
100
AcDbCircle
 10
329.5565201107
 20
109.1701512329
 30
0.0
 40
4.552381154237651
100
AcDbArc
 50
180.0
 51
270.0
  0
LINE
  5
3A3
330
1F
100
AcDbEntity
  8
0
  6
Continuous
 62
     7
370
    25
100
AcDbLine
 10
330.5565201107
 20
102.6701512329
 30
0.0
 11
329.5565201107
 21
102.6701512329
 31
0.0
  0
ARC
  5
3A4
330
1F
100
AcDbEntity
  8
0
  6
Continuous
 62
     7
370
    25
100
AcDbCircle
 10
329.5565201107
 20
109.1701512329
 30
0.0
 40
6.500000000000093
100
AcDbArc
 50
225.0
 51
270.0
  0
ARC
  5
3A5
330
1F
100
AcDbEntity
  8
0
  6
Continuous
 62
     7
370
    25
100
AcDbCircle
 10
329.5565201107
 20
109.1701512329
 30
0.0
 40
6.500000000000093
100
AcDbArc
 50
180.0
 51
225.0
  0
LINE
  5
3A6
330
1F
100
AcDbEntity
  8
0
  6
Continuous
 62
     7
370
    25
100
AcDbLine
 10
323.0565201107
 20
109.1701512329
 30
0.0
 11
323.0565201107
 21
110.1701512329
 31
0.0
  0
ARC
  5
3A7
330
1F
100
AcDbEntity
  8
0
  6
Continuous
 62
     7
370
    25
100
AcDbCircle
 10
329.5565201107
 20
196.1701512329
 30
0.0
 40
6.500000000000093
100
AcDbArc
 50
90.0
 51
135.0
  0
LINE
  5
3A8
330
1F
100
AcDbEntity
  8
0
  6
Continuous
 62
     7
370
    25
100
AcDbLine
 10
329.5565201107
 20
202.6701512329
 30
0.0
 11
330.5565201107
 21
202.6701512329
 31
0.0
  0
ARC
  5
3A9
330
1F
100
AcDbEntity
  8
0
  6
Continuous
 62
     7
370
    25
100
AcDbCircle
 10
329.5565201107
 20
196.1701512329
 30
0.0
 40
4.552381154237651
100
AcDbArc
 50
90.0
 51
180.0
  0
LINE
  5
3AA
330
1F
100
AcDbEntity
  8
0
  6
Continuous
 62
     7
370
    25
100
AcDbLine
 10
325.0041389565
 20
196.1701512329
 30
0.0
 11
325.0041389565
 21
195.1701512329
 31
0.0
  0
LINE
  5
3AB
330
1F
100
AcDbEntity
  8
0
  6
Continuous
 62
     7
370
    25
100
AcDbLine
 10
325.0041389565
 20
195.1701512329
 30
0.0
 11
323.0565201107
 21
195.1701512329
 31
0.0
  0
LINE
  5
3AC
330
1F
100
AcDbEntity
  8
0
  6
Continuous
 62
     7
370
    25
100
AcDbLine
 10
323.0565201107
 20
195.1701512329
 30
0.0
 11
323.0565201107
 21
196.1701512329
 31
0.0
  0
ARC
  5
3AD
330
1F
100
AcDbEntity
  8
0
  6
Continuous
 62
     7
370
    25
100
AcDbCircle
 10
329.5565201107
 20
196.1701512329
 30
0.0
 40
6.500000000000093
100
AcDbArc
 50
135.0
 51
180.0
  0
ELLIPSE
  5
3AE
330
1F
100
AcDbEntity
  8
0
  6
Continuous
 62
     7
370
    25
100
AcDbEllipse
 10
324.9622340331
 20
192.7514739084
 30
0.0
 11
0.0
 21
2.700000000000017
 31
0.0
210
0.0
220
0.0
230
1.0
 40
0.0349207695
 41
4.71238898038469
 42
5.822631315498877
  0
LINE
  5
3AF
330
1F
100
AcDbEntity
  8
0
  6
Continuous
 62
     7
370
    25
100
AcDbLine
 10
323.0565201107
 20
195.1701512329
 30
0.0
 11
323.0565201107
 21
192.7514739084
 31
0.0
  0
ARC
  5
3B0
330
1F
100
AcDbEntity
  8
0
  6
Continuous
 62
     7
370
    25
100
AcDbCircle
 10
329.5565201107
 20
196.1701512329
 30
0.0
 40
4.500000000000028
100
AcDbArc
 50
90.0
 51
180.0
  0
LINE
  5
3B1
330
1F
100
AcDbEntity
  8
0
  6
Continuous
 62
     7
370
    25
100
AcDbLine
 10
325.0565201107
 20
196.1701512329
 30
0.0
 11
325.0565201107
 21
192.7514739084
 31
0.0
  0
ARC
  5
3B2
330
1F
100
AcDbEntity
  8
0
  6
Continuous
 62
     7
370
    25
100
AcDbCircle
 10
329.5565201107
 20
109.1701512329
 30
0.0
 40
4.5
100
AcDbArc
 50
180.0
 51
270.0
  0
ARC
  5
3B3
330
1F
100
AcDbEntity
  8
0
  6
Continuous
 62
     7
370
    25
100
AcDbCircle
 10
341.3065201107
 20
152.6701512329
 30
0.0
 40
3.447618845762406
100
AcDbArc
 50
90.0
 51
270.0
  0
ARC
  5
3B4
330
1F
100
AcDbEntity
  8
0
  6
Continuous
 62
     7
370
    25
100
AcDbCircle
 10
341.3065201107
 20
152.6701512329
 30
0.0
 40
2.052381154237622
100
AcDbArc
 50
90.0
 51
270.0
  0
LINE
  5
3B5
330
1F
100
AcDbEntity
  8
0
  6
Continuous
 62
     7
370
    25
100
AcDbLine
 10
341.3065201107
 20
150.6177700786
 30
0.0
 11
342.4128824484
 21
150.6177700786
 31
0.0
  0
LINE
  5
3B6
330
1F
100
AcDbEntity
  8
0
  6
Continuous
 62
     7
370
    25
100
AcDbLine
 10
341.3065201107
 20
149.2225323871
 30
0.0
 11
342.4128824484
 21
149.2225323871
 31
0.0
  0
LINE
  5
3B7
330
1F
100
AcDbEntity
  8
0
  6
Continuous
 62
     7
370
    25
100
AcDbLine
 10
344.8065201107
 20
156.1177700786
 30
0.0
 11
341.3065201107
 21
156.1177700786
 31
0.0
  0
ARC
  5
3B8
330
1F
100
AcDbEntity
  8
0
  6
Continuous
 62
     7
370
    25
100
AcDbCircle
 10
344.8065201107
 20
152.6701512329
 30
0.0
 40
3.447618845762406
100
AcDbArc
 50
270.0
 51
90.0
  0
LINE
  5
3B9
330
1F
100
AcDbEntity
  8
0
  6
Continuous
 62
     7
370
    25
100
AcDbLine
 10
343.700157773
 20
149.2225323871
 30
0.0
 11
344.8065201107
 21
149.2225323871
 31
0.0
  0
LINE
  5
3BA
330
1F
100
AcDbEntity
  8
0
  6
Continuous
 62
     7
370
    25
100
AcDbLine
 10
343.700157773
 20
150.6177700786
 30
0.0
 11
344.8065201107
 21
150.6177700786
 31
0.0
  0
ARC
  5
3BB
330
1F
100
AcDbEntity
  8
0
  6
Continuous
 62
     7
370
    25
100
AcDbCircle
 10
344.8065201107
 20
152.6701512329
 30
0.0
 40
2.052381154237622
100
AcDbArc
 50
270.0
 51
90.0
  0
LINE
  5
3BC
330
1F
100
AcDbEntity
  8
0
  6
Continuous
 62
     7
370
    25
100
AcDbLine
 10
344.8065201107
 20
154.7225323871
 30
0.0
 11
341.3065201107
 21
154.7225323871
 31
0.0
  0
LINE
  5
3BD
330
1F
100
AcDbEntity
  8
0
  6
Continuous
 62
     7
370
    25
100
AcDbLine
 10
342.4128824484
 20
149.2225323871
 30
0.0
 11
342.4222191538
 21
149.2038532851
 31
0.0
  0
LINE
  5
3BE
330
1F
100
AcDbEntity
  8
0
  6
Continuous
 62
     7
370
    25
100
AcDbLine
 10
342.4269683349
 20
150.6459504377
 30
0.0
 11
342.4128824484
 21
150.6177700786
 31
0.0
  0
LINE
  5
3BF
330
1F
100
AcDbEntity
  8
0
  6
Continuous
 62
     7
370
    25
100
AcDbLine
 10
343.6908210676
 20
149.2038532851
 30
0.0
 11
343.700157773
 21
149.2225323871
 31
0.0
  0
LINE
  5
3C0
330
1F
100
AcDbEntity
  8
0
  6
Continuous
 62
     7
370
    25
100
AcDbLine
 10
343.700157773
 20
150.6177700786
 30
0.0
 11
343.6860718865
 21
150.6459504377
 31
0.0
  0
LINE
  5
3C1
330
1F
100
AcDbEntity
  8
0
  6
Continuous
 62
     7
370
    25
100
AcDbLine
 10
399.608901265
 20
151.0398848585
 30
0.0
 11
399.5902221629
 21
151.0275581553
 31
0.0
  0
LINE
  5
3C2
330
1F
100
AcDbEntity
  8
0
  6
Continuous
 62
     7
370
    25
100
AcDbLine
 10
401.0323193155
 20
151.2450761789
 30
0.0
 11
401.0041389565
 21
151.2549840026
 31
0.0
  0
ARC
  5
3C3
330
1F
100
AcDbEntity
  8
0
  6
Continuous
 62
     7
370
    25
100
AcDbCircle
 10
344.8065201107
 20
152.6701512329
 30
0.0
 40
3.466297947787979
100
AcDbArc
 50
270.0
 51
90.0
  0
CIRCLE
  5
3C4
330
1F
100
AcDbEntity
  8
0
  6
Continuous
 62
     7
370
    25
100
AcDbCircle
 10
373.0565201107
 20
152.6701512329
 30
0.0
 40
4.697618845762406
  0
CIRCLE
  5
3C5
330
1F
100
AcDbEntity
  8
0
  6
Continuous
 62
     7
370
    25
100
AcDbCircle
 10
373.0565201107
 20
152.6701512329
 30
0.0
 40
3.302381154237651
  0
ARC
  5
3C6
330
1F
100
AcDbEntity
  8
0
  6
Continuous
 62
     7
370
    25
100
AcDbCircle
 10
403.0565201107
 20
154.4201512329
 30
0.0
 40
3.447618845762406
100
AcDbArc
 50
0.0
 51
180.0
  0
ARC
  5
3C7
330
1F
100
AcDbEntity
  8
0
  6
Continuous
 62
     7
370
    25
100
AcDbCircle
 10
403.0565201107
 20
154.4201512329
 30
0.0
 40
3.46629794778795
100
AcDbArc
 50
0.0
 51
180.0
  0
LINE
  5
3C8
330
1F
100
AcDbEntity
  8
0
  6
Continuous
 62
     7
370
    25
100
AcDbLine
 10
399.608901265
 20
154.4201512329
 30
0.0
 11
399.608901265
 21
151.0398848585
 31
0.0
  0
LINE
  5
3C9
330
1F
100
AcDbEntity
  8
0
  6
Continuous
 62
     7
370
    25
100
AcDbLine
 10
406.5041389565
 20
150.9201512329
 30
0.0
 11
406.5041389565
 21
154.4201512329
 31
0.0
  0
LINE
  5
3CA
330
1F
100
AcDbEntity
  8
0
  6
Continuous
 62
     7
370
    25
100
AcDbLine
 10
405.108901265
 20
150.9201512329
 30
0.0
 11
405.108901265
 21
154.4201512329
 31
0.0
  0
ARC
  5
3CB
330
1F
100
AcDbEntity
  8
0
  6
Continuous
 62
     7
370
    25
100
AcDbCircle
 10
403.0565201107
 20
154.4201512329
 30
0.0
 40
2.052381154237651
100
AcDbArc
 50
0.0
 51
180.0
  0
LINE
  5
3CC
330
1F
100
AcDbEntity
  8
0
  6
Continuous
 62
     7
370
    25
100
AcDbLine
 10
401.0041389565
 20
154.4201512329
 30
0.0
 11
401.0041389565
 21
151.2549840026
 31
0.0
  0
ARC
  5
3CD
330
1F
100
AcDbEntity
  8
0
  6
Continuous
 62
     7
370
    25
100
AcDbCircle
 10
416.5565201107
 20
109.1701512329
 30
0.0
 40
4.552381154237594
100
AcDbArc
 50
270.0
 51
0.0
  0
LINE
  5
3CE
330
1F
100
AcDbEntity
  8
0
  6
Continuous
 62
     7
370
    25
100
AcDbLine
 10
423.0565201107
 20
110.1701512329
 30
0.0
 11
423.0565201107
 21
109.1701512329
 31
0.0
  0
ARC
  5
3CF
330
1F
100
AcDbEntity
  8
0
  6
Continuous
 62
     7
370
    25
100
AcDbCircle
 10
416.5565201107
 20
109.1701512329
 30
0.0
 40
6.5
100
AcDbArc
 50
270.0
 51
0.0
  0
LINE
  5
3D0
330
1F
100
AcDbEntity
  8
0
  6
Continuous
 62
     7
370
    25
100
AcDbLine
 10
416.5565201107
 20
102.6701512329
 30
0.0
 11
415.5565201107
 21
102.6701512329
 31
0.0
  0
ARC
  5
3D1
330
1F
100
AcDbEntity
  8
0
  6
Continuous
 62
     7
370
    25
100
AcDbCircle
 10
416.5565201107
 20
196.1701512329
 30
0.0
 40
4.552381154237594
100
AcDbArc
 50
0.0
 51
90.0
  0
ARC
  5
3D2
330
1F
100
AcDbEntity
  8
0
  6
Continuous
 62
     7
370
    25
100
AcDbCircle
 10
416.5565201107
 20
196.1701512329
 30
0.0
 40
6.500000000000052
100
AcDbArc
 50
45.0
 51
90.0
  0
ARC
  5
3D3
330
1F
100
AcDbEntity
  8
0
  6
Continuous
 62
     7
370
    25
100
AcDbCircle
 10
416.5565201107
 20
196.1701512329
 30
0.0
 40
6.500000000000052
100
AcDbArc
 50
0.0
 51
45.0
  0
LINE
  5
3D4
330
1F
100
AcDbEntity
  8
0
  6
Continuous
 62
     7
370
    25
100
AcDbLine
 10
423.0565201107
 20
196.1701512329
 30
0.0
 11
423.0565201107
 21
195.1701512329
 31
0.0
  0
LINE
  5
3D5
330
1F
100
AcDbEntity
  8
0
  6
Continuous
 62
     7
370
    25
100
AcDbLine
 10
423.0565201107
 20
195.1701512329
 30
0.0
 11
421.108901265
 21
195.1701512329
 31
0.0
  0
LINE
  5
3D6
330
1F
100
AcDbEntity
  8
0
  6
Continuous
 62
     7
370
    25
100
AcDbLine
 10
421.108901265
 20
195.1701512329
 30
0.0
 11
421.108901265
 21
196.1701512329
 31
0.0
  0
LINE
  5
3D7
330
1F
100
AcDbEntity
  8
0
  6
Continuous
 62
     7
370
    25
100
AcDbLine
 10
415.5565201107
 20
202.6701512329
 30
0.0
 11
416.5565201107
 21
202.6701512329
 31
0.0
  0
ARC
  5
3D8
330
1F
100
AcDbEntity
  8
0
  6
Continuous
 62
     7
370
    25
100
AcDbCircle
 10
416.5565201107
 20
196.1701512329
 30
0.0
 40
4.500000000000028
100
AcDbArc
 50
0.0
 51
90.0
  0
ARC
  5
3D9
330
1F
100
AcDbEntity
  8
0
  6
Continuous
 62
     7
370
    25
100
AcDbCircle
 10
416.5565201107
 20
109.1701512329
 30
0.0
 40
4.5
100
AcDbArc
 50
270.0
 51
0.0
  0
LINE
  5
3DA
330
1F
100
AcDbEntity
  8
0
  6
Continuous
 62
     7
370
    25
100
AcDbLine
 10
421.0565201107
 20
192.7514739084
 30
0.0
 11
421.0565201107
 21
196.1701512329
 31
0.0
  0
ELLIPSE
  5
3DB
330
1F
100
AcDbEntity
  8
0
  6
Continuous
 62
     7
370
    25
100
AcDbEllipse
 10
421.1508061883
 20
192.7514739084
 30
0.0
 11
0.0
 21
2.700000000000017
 31
0.0
210
0.0
220
0.0
230
1.0
 40
0.0349207695
 41
0.4605539916818673
 42
1.570796326794897
  0
LINE
  5
3DC
330
1F
100
AcDbEntity
  8
0
  6
Continuous
 62
     7
370
    25
100
AcDbLine
 10
423.0565201107
 20
195.1701512329
 30
0.0
 11
423.0565201107
 21
192.7514739084
 31
0.0
  0
LINE
  5
3DD
330
1F
100
AcDbEntity
  8
0
  6
Continuous
 62
     7
370
    25
100
AcDbLine
 10
371.3065201107
 20
180.6701512329
 30
0.0
 11
374.8065201107
 21
180.6701512329
 31
0.0
  0
ARC
  5
3DE
330
1F
100
AcDbEntity
  8
0
  6
Continuous
 62
     7
370
    25
100
AcDbCircle
 10
374.8065201107
 20
182.6701512329
 30
0.0
 40
2.0
100
AcDbArc
 50
270.0
 51
90.0
  0
LINE
  5
3DF
330
1F
100
AcDbEntity
  8
0
  6
Continuous
 62
     7
370
    25
100
AcDbLine
 10
374.8065201107
 20
184.6701512329
 30
0.0
 11
371.3065201107
 21
184.6701512329
 31
0.0
  0
ARC
  5
3E0
330
1F
100
AcDbEntity
  8
0
  6
Continuous
 62
     7
370
    25
100
AcDbCircle
 10
371.3065201107
 20
182.6701512329
 30
0.0
 40
2.0
100
AcDbArc
 50
90.0
 51
270.0
  0
CIRCLE
  5
3E1
330
1F
100
AcDbEntity
  8
0
  6
Continuous
 62
     7
370
    25
100
AcDbCircle
 10
373.0565201107
 20
120.9201512329
 30
0.0
 40
10.75045715822415
  0
LINE
  5
3E2
330
1F
100
AcDbEntity
  8
0
  6
Continuous
 62
     7
370
    25
100
AcDbLine
 10
423.0565201107
 20
192.7514739084
 30
0.0
 11
423.0565201107
 21
112.5888285574
 31
0.0
  0
LINE
  5
3E3
330
1F
100
AcDbEntity
  8
0
  6
Continuous
 62
     7
370
    25
100
AcDbLine
 10
413.1378427862
 20
202.6701512329
 30
0.0
 11
332.9751974352
 21
202.6701512329
 31
0.0
  0
LINE
  5
3E4
330
1F
100
AcDbEntity
  8
0
  6
Continuous
 62
     7
370
    25
100
AcDbLine
 10
413.1378427862
 20
102.6701512329
 30
0.0
 11
332.9751974352
 21
102.6701512329
 31
0.0
  0
LINE
  5
3E5
330
1F
100
AcDbEntity
  8
0
  6
Continuous
 62
     7
370
    25
100
AcDbLine
 10
323.0565201107
 20
153.9454705393
 30
0.0
 11
323.0565201107
 21
192.7514739084
 31
0.0
  0
LINE
  5
3E6
330
1F
100
AcDbEntity
  8
0
  6
Continuous
 62
     7
370
    25
100
AcDbLine
 10
323.0565201107
 20
112.5888285574
 30
0.0
 11
323.0565201107
 21
150.2948319265
 31
0.0
  0
CIRCLE
  5
3E7
330
1F
100
AcDbEntity
  8
0
  6
Continuous
 62
     7
370
    25
100
AcDbCircle
 10
373.0565201107
 20
120.9201512329
 30
0.0
 40
9.250457158224151
  0
ARC
  5
3E8
330
1F
100
AcDbEntity
  8
0
  6
Continuous
 62
     7
370
    25
100
AcDbCircle
 10
371.3065201107
 20
182.6701512329
 30
0.0
 40
1.0
100
AcDbArc
 50
90.0
 51
270.0
  0
ARC
  5
3E9
330
1F
100
AcDbEntity
  8
0
  6
Continuous
 62
     7
370
    25
100
AcDbCircle
 10
374.8065201107
 20
182.6701512329
 30
0.0
 40
1.0
100
AcDbArc
 50
270.0
 51
90.0
  0
LINE
  5
3EA
330
1F
100
AcDbEntity
  8
0
  6
Continuous
 62
     7
370
    25
100
AcDbLine
 10
371.3065201107
 20
181.6701512329
 30
0.0
 11
374.8065201107
 21
181.6701512329
 31
0.0
  0
LINE
  5
3EB
330
1F
100
AcDbEntity
  8
0
  6
Continuous
 62
     7
370
    25
100
AcDbLine
 10
374.8065201107
 20
183.6701512329
 30
0.0
 11
371.3065201107
 21
183.6701512329
 31
0.0
  0
CIRCLE
  5
3EC
330
1F
100
AcDbEntity
  8
0
  6
Continuous
 62
     7
370
    25
100
AcDbCircle
 10
373.0565201107
 20
152.6701512329
 30
0.0
 40
2.250000000000057
  0
ARC
  5
3ED
330
1F
100
AcDbEntity
  8
0
  6
Continuous
 62
     7
370
    25
100
AcDbCircle
 10
374.8065201107
 20
182.6701512329
 30
0.0
 40
1.019450166676393
100
AcDbArc
 50
270.0
 51
90.0
  0
ARC
  5
3EE
330
1F
100
AcDbEntity
  8
0
  6
Continuous
 62
     7
370
    25
100
AcDbCircle
 10
322.5565201107
 20
181.6529956203
 30
0.0
 40
0.5000000000000077
100
AcDbArc
 50
272.0
 51
0.0
  0
ARC
  5
3EF
330
1F
100
AcDbEntity
  8
0
  6
Continuous
 62
     7
370
    25
100
AcDbCircle
 10
344.0736757233
 20
203.1701512329
 30
0.0
 40
0.50000000000004
100
AcDbArc
 50
270.0
 51
358.0
  0
ARC
  5
3F0
330
1F
100
AcDbEntity
  8
0
  6
Continuous
 62
     7
370
    25
100
AcDbCircle
 10
402.0393644981
 20
102.1701512329
 30
0.0
 40
0.5
100
AcDbArc
 50
90.0
 51
178.0
  0
ARC
  5
3F1
330
1F
100
AcDbEntity
  8
0
  6
Continuous
 62
     7
370
    25
100
AcDbCircle
 10
423.5565201107
 20
123.6873068455
 30
0.0
 40
0.5
100
AcDbArc
 50
92.0
 51
180.0
  0
LINE
  5
3F2
330
1F
100
AcDbEntity
  8
0
  6
Continuous
 62
     7
370
    25
100
AcDbLine
 10
322.0390703624
 20
181.1346211047
 30
0.0
 11
322.5739698591
 21
181.1533002068
 31
0.0
  0
LINE
  5
3F3
330
1F
100
AcDbEntity
  8
0
  6
Continuous
 62
     7
370
    25
100
AcDbLine
 10
344.5920502388
 20
203.6876009812
 30
0.0
 11
344.5733711368
 21
203.1527014845
 31
0.0
  0
LINE
  5
3F4
330
1F
100
AcDbEntity
  8
0
  6
Continuous
 62
     7
370
    25
100
AcDbLine
 10
401.5209899826
 20
101.6527014845
 30
0.0
 11
401.5396690846
 21
102.1876009812
 31
0.0
  0
LINE
  5
3F5
330
1F
100
AcDbEntity
  8
0
  6
Continuous
 62
     7
370
    25
100
AcDbLine
 10
424.0739698591
 20
124.205681361
 30
0.0
 11
423.5390703624
 21
124.187002259
 31
0.0
  0
ARC
  5
3F6
330
1F
100
AcDbEntity
  8
0
  6
Continuous
 62
     7
370
    25
100
AcDbCircle
 10
322.0565201107
 20
180.6349256912
 30
0.0
 40
0.5000000000000115
100
AcDbArc
 50
92.0
 51
180.0
  0
LINE
  5
3F7
330
1F
100
AcDbEntity
  8
0
  6
Continuous
 62
     7
370
    25
100
AcDbLine
 10
321.5565201107
 20
165.6701512329
 30
0.0
 11
321.5565201107
 21
180.6349256912
 31
0.0
  0
LINE
  5
3F8
330
1F
100
AcDbEntity
  8
0
  6
Continuous
 62
     7
370
    25
100
AcDbLine
 10
321.5565201107
 20
124.7646470867
 30
0.0
 11
321.5565201107
 21
139.6701512329
 31
0.0
  0
LINE
  5
3F9
330
1F
100
AcDbEntity
  8
0
  6
Continuous
 62
     7
370
    25
100
AcDbLine
 10
321.5565201107
 20
154.750549576
 30
0.0
 11
321.5565201107
 21
165.6701512329
 31
0.0
  0
LINE
  5
3FA
330
1F
100
AcDbEntity
  8
0
  6
Continuous
 62
     7
370
    25
100
AcDbLine
 10
321.5565201107
 20
139.6701512329
 30
0.0
 11
321.5565201107
 21
149.4897528897
 31
0.0
  0
LINE
  5
3FB
330
1F
100
AcDbEntity
  8
0
  6
Continuous
 62
     7
370
    25
100
AcDbLine
 10
345.1510159646
 20
101.1701512329
 30
0.0
 11
360.0565201107
 21
101.1701512329
 31
0.0
  0
ARC
  5
3FC
330
1F
100
AcDbEntity
  8
0
  6
Continuous
 62
     7
370
    25
100
AcDbCircle
 10
345.0917456524
 20
203.6701512329
 30
0.0
 40
0.500000000000035
100
AcDbArc
 50
90.0
 51
178.0
  0
LINE
  5
3FD
330
1F
100
AcDbEntity
  8
0
  6
Continuous
 62
     7
370
    25
100
AcDbLine
 10
360.0565201107
 20
204.1701512329
 30
0.0
 11
345.0917456524
 21
204.1701512329
 31
0.0
  0
LINE
  5
3FE
330
1F
100
AcDbEntity
  8
0
  6
Continuous
 62
     7
370
    25
100
AcDbLine
 10
386.0565201107
 20
204.1701512329
 30
0.0
 11
360.0565201107
 21
204.1701512329
 31
0.0
  0
LINE
  5
3FF
330
1F
100
AcDbEntity
  8
0
  6
Continuous
 62
     7
370
    25
100
AcDbLine
 10
360.0565201107
 20
101.1701512329
 30
0.0
 11
386.0565201107
 21
101.1701512329
 31
0.0
  0
LINE
  5
400
330
1F
100
AcDbEntity
  8
0
  6
Continuous
 62
     7
370
    25
100
AcDbLine
 10
400.9620242569
 20
204.1701512329
 30
0.0
 11
386.0565201107
 21
204.1701512329
 31
0.0
  0
ARC
  5
401
330
1F
100
AcDbEntity
  8
0
  6
Continuous
 62
     7
370
    25
100
AcDbCircle
 10
401.0212945691
 20
101.6701512329
 30
0.0
 40
0.5
100
AcDbArc
 50
270.0
 51
358.0
  0
LINE
  5
402
330
1F
100
AcDbEntity
  8
0
  6
Continuous
 62
     7
370
    25
100
AcDbLine
 10
386.0565201107
 20
101.1701512329
 30
0.0
 11
401.0212945691
 21
101.1701512329
 31
0.0
  0
LINE
  5
403
330
1F
100
AcDbEntity
  8
0
  6
Continuous
 62
     7
370
    25
100
AcDbLine
 10
424.5565201107
 20
180.575655379
 30
0.0
 11
424.5565201107
 21
165.6701512329
 31
0.0
  0
LINE
  5
404
330
1F
100
AcDbEntity
  8
0
  6
Continuous
 62
     7
370
    25
100
AcDbLine
 10
424.5565201107
 20
139.6701512329
 30
0.0
 11
424.5565201107
 21
124.7053767745
 31
0.0
  0
ARC
  5
405
330
1F
100
AcDbEntity
  8
0
  6
Continuous
 62
     7
370
    25
100
AcDbCircle
 10
424.0565201107
 20
124.7053767745
 30
0.0
 40
0.5000000000000115
100
AcDbArc
 50
272.0
 51
0.0
  0
LINE
  5
406
330
1F
100
AcDbEntity
  8
0
  6
Continuous
 62
     7
370
    25
100
AcDbLine
 10
424.5565201107
 20
165.6701512329
 30
0.0
 11
424.5565201107
 21
139.6701512329
 31
0.0
  0
SPLINE
  5
407
330
1F
100
AcDbEntity
  8
0
  6
Continuous
 62
     7
370
    25
100
AcDbSpline
210
0.0
220
0.0
230
1.0
 70
    24
 71
     3
 72
    14
 73
    10
 74
     0
 42
0.00000001
 43
0.00000001
 40
0.0
 40
0.0
 40
0.0
 40
0.0
 40
0.4999999999999971
 40
0.4999999999999971
 40
0.6249999999999972
 40
0.6249999999999972
 40
0.7499999999999974
 40
0.7499999999999974
 40
1.0
 40
1.0
 40
1.0
 40
1.0
 10
321.5565201107146
 20
123.271498209939
 30
0.0
 10
321.5565201107146
 20
123.6450094662489
 30
0.0
 10
321.5565201107146
 20
124.0105398241597
 30
0.0
 10
321.5565201107146
 20
124.3518919340871
 30
0.0
 10
321.5565201107146
 20
124.4149905089264
 30
0.0
 10
321.5565201107146
 20
124.5256557438259
 30
0.0
 10
321.5565201107146
 20
124.573999546453
 30
0.0
 10
321.5565201107146
 20
124.6975587170435
 30
0.0
 10
321.5565201107146
 20
124.7480420353333
 30
0.0
 10
321.5565201107146
 20
124.7646470867117
 30
0.0
  0
SPLINE
  5
408
330
1F
100
AcDbEntity
  8
0
  6
Continuous
 62
     7
370
    25
100
AcDbSpline
210
0.0
220
0.0
230
1.0
 70
    24
 71
     3
 72
    14
 73
    10
 74
     0
 42
0.00000001
 43
0.00000001
 40
0.0
 40
0.0
 40
0.0
 40
0.0
 40
0.4999999999999971
 40
0.4999999999999971
 40
0.6249999999999972
 40
0.6249999999999972
 40
0.7499999999999974
 40
0.7499999999999974
 40
1.0
 40
1.0
 40
1.0
 40
1.0
 10
343.6578670877792
 20
101.1701512328743
 30
0.0
 10
344.0313783440891
 20
101.1701512328743
 30
0.0
 10
344.3969087019999
 20
101.1701512328743
 30
0.0
 10
344.7382608119273
 20
101.1701512328743
 30
0.0
 10
344.8013593867666
 20
101.1701512328743
 30
0.0
 10
344.9120246216661
 20
101.1701512328743
 30
0.0
 10
344.9603684242932
 20
101.1701512328743
 30
0.0
 10
345.0839275948838
 20
101.1701512328743
 30
0.0
 10
345.1344109131735
 20
101.1701512328743
 30
0.0
 10
345.151015964552
 20
101.1701512328743
 30
0.0
  0
SPLINE
  5
409
330
1F
100
AcDbEntity
  8
0
  6
Continuous
 62
     7
370
    25
100
AcDbSpline
210
0.0
220
0.0
230
1.0
 70
    24
 71
     3
 72
    14
 73
    10
 74
     0
 42
0.00000001
 43
0.00000001
 40
0.0
 40
0.0
 40
0.0
 40
0.0
 40
0.4999999999999971
 40
0.4999999999999971
 40
0.6249999999999972
 40
0.6249999999999972
 40
0.7499999999999974
 40
0.7499999999999974
 40
1.0
 40
1.0
 40
1.0
 40
1.0
 10
402.4551731336499
 20
204.1701512328743
 30
0.0
 10
402.08166187734
 20
204.1701512328744
 30
0.0
 10
401.7161315194292
 20
204.1701512328744
 30
0.0
 10
401.3747794095019
 20
204.1701512328743
 30
0.0
 10
401.3116808346625
 20
204.1701512328744
 30
0.0
 10
401.201015599763
 20
204.1701512328744
 30
0.0
 10
401.1526717971359
 20
204.1701512328744
 30
0.0
 10
401.0291126265453
 20
204.1701512328744
 30
0.0
 10
400.9786293082556
 20
204.1701512328743
 30
0.0
 10
400.9620242568772
 20
204.1701512328743
 30
0.0
  0
SPLINE
  5
40A
330
1F
100
AcDbEntity
  8
0
  6
Continuous
 62
     7
370
    25
100
AcDbSpline
210
0.0
220
0.0
230
1.0
 70
    24
 71
     3
 72
    14
 73
    10
 74
     0
 42
0.00000001
 43
0.00000001
 40
0.0
 40
0.0
 40
0.0
 40
0.0
 40
0.4999999999999971
 40
0.4999999999999971
 40
0.6249999999999972
 40
0.6249999999999972
 40
0.7499999999999974
 40
0.7499999999999974
 40
1.0
 40
1.0
 40
1.0
 40
1.0
 10
424.5565201107145
 20
182.0688042558096
 30
0.0
 10
424.5565201107145
 20
181.6952929994997
 30
0.0
 10
424.5565201107145
 20
181.329762641589
 30
0.0
 10
424.5565201107145
 20
180.9884105316616
 30
0.0
 10
424.5565201107145
 20
180.9253119568223
 30
0.0
 10
424.5565201107145
 20
180.8146467219227
 30
0.0
 10
424.5565201107145
 20
180.7663029192957
 30
0.0
 10
424.5565201107146
 20
180.6427437487051
 30
0.0
 10
424.5565201107145
 20
180.5922604304154
 30
0.0
 10
424.5565201107145
 20
180.5756553790369
 30
0.0
  0
ARC
  5
40B
330
1F
100
AcDbEntity
  8
0
  6
Continuous
 62
     7
370
    25
100
AcDbCircle
 10
329.5565201107
 20
109.1701512329
 30
0.0
 40
8.000000000000044
100
AcDbArc
 50
180.0
 51
225.0
  0
LINE
  5
40C
330
1F
100
AcDbEntity
  8
0
  6
Continuous
 62
     7
370
    25
100
AcDbLine
 10
321.5565201107
 20
109.1701512329
 30
0.0
 11
321.5565201107
 21
110.1349256912
 31
0.0
  0
ARC
  5
40D
330
1F
100
AcDbEntity
  8
0
  6
Continuous
 62
     7
370
    25
100
AcDbCircle
 10
329.5565201107
 20
109.1701512329
 30
0.0
 40
8.000000000000044
100
AcDbArc
 50
225.0
 51
270.0
  0
LINE
  5
40E
330
1F
100
AcDbEntity
  8
0
  6
Continuous
 62
     7
370
    25
100
AcDbLine
 10
330.5212945691
 20
101.1701512329
 30
0.0
 11
329.5565201107
 21
101.1701512329
 31
0.0
  0
LINE
  5
40F
330
1F
100
AcDbEntity
  8
0
  6
Continuous
 62
     7
370
    25
100
AcDbLine
 10
415.5917456524
 20
204.1701512329
 30
0.0
 11
416.5565201107
 21
204.1701512329
 31
0.0
  0
ARC
  5
410
330
1F
100
AcDbEntity
  8
0
  6
Continuous
 62
     7
370
    25
100
AcDbCircle
 10
416.5565201107
 20
196.1701512329
 30
0.0
 40
8.000000000000044
100
AcDbArc
 50
45.0
 51
90.0
  0
ARC
  5
411
330
1F
100
AcDbEntity
  8
0
  6
Continuous
 62
     7
370
    25
100
AcDbCircle
 10
416.5565201107
 20
196.1701512329
 30
0.0
 40
8.000000000000044
100
AcDbArc
 50
0.0
 51
45.0
  0
LINE
  5
412
330
1F
100
AcDbEntity
  8
0
  6
Continuous
 62
     7
370
    25
100
AcDbLine
 10
424.5565201107
 20
196.1701512329
 30
0.0
 11
424.5565201107
 21
195.2053767745
 31
0.0
  0
LINE
  5
413
330
1F
100
AcDbEntity
  8
0
  6
Continuous
 62
     7
370
    25
100
AcDbLine
 10
321.5565201107
 20
110.1349256912
 30
0.0
 11
321.5565201107
 21
111.1142440458
 31
0.0
  0
LINE
  5
414
330
1F
100
AcDbEntity
  8
0
  6
Continuous
 62
     7
370
    25
100
AcDbLine
 10
331.5006129237
 20
101.1701512329
 30
0.0
 11
330.5212945691
 21
101.1701512329
 31
0.0
  0
LINE
  5
415
330
1F
100
AcDbEntity
  8
0
  6
Continuous
 62
     7
370
    25
100
AcDbLine
 10
414.6124272978
 20
204.1701512329
 30
0.0
 11
415.5917456524
 21
204.1701512329
 31
0.0
  0
LINE
  5
416
330
1F
100
AcDbEntity
  8
0
  6
Continuous
 62
     7
370
    25
100
AcDbLine
 10
424.5565201107
 20
195.2053767745
 30
0.0
 11
424.5565201107
 21
194.2260584199
 31
0.0
  0
LINE
  5
417
330
1F
100
AcDbEntity
  8
0
  6
Continuous
 62
     7
370
    25
100
AcDbLine
 10
321.5565201107
 20
111.1142440458
 30
0.0
 11
321.5565201107
 21
123.2714982099
 31
0.0
  0
LINE
  5
418
330
1F
100
AcDbEntity
  8
0
  6
Continuous
 62
     7
370
    25
100
AcDbLine
 10
343.6578670878
 20
101.1701512329
 30
0.0
 11
331.5006129237
 21
101.1701512329
 31
0.0
  0
LINE
  5
419
330
1F
100
AcDbEntity
  8
0
  6
Continuous
 62
     7
370
    25
100
AcDbLine
 10
402.4551731336
 20
204.1701512329
 30
0.0
 11
414.6124272978
 21
204.1701512329
 31
0.0
  0
LINE
  5
41A
330
1F
100
AcDbEntity
  8
0
  6
Continuous
 62
     7
370
    25
100
AcDbLine
 10
424.5565201107
 20
194.2260584199
 30
0.0
 11
424.5565201107
 21
182.0688042558
 31
0.0
  0
LINE
  5
41B
330
1F
100
AcDbEntity
  8
0
  6
Continuous
 62
     7
370
    25
100
AcDbLine
 10
321.5565201107
 20
180.6349256912
 30
0.0
 11
321.5565201107
 21
182.1340119318
 31
0.0
  0
LINE
  5
41C
330
1F
100
AcDbEntity
  8
0
  6
Continuous
 62
     7
370
    25
100
AcDbLine
 10
345.0917456524
 20
204.1701512329
 30
0.0
 11
343.5926594118
 21
204.1701512329
 31
0.0
  0
LINE
  5
41D
330
1F
100
AcDbEntity
  8
0
  6
Continuous
 62
     7
370
    25
100
AcDbLine
 10
401.0212945691
 20
101.1701512329
 30
0.0
 11
402.5203808096
 21
101.1701512329
 31
0.0
  0
LINE
  5
41E
330
1F
100
AcDbEntity
  8
0
  6
Continuous
 62
     7
370
    25
100
AcDbLine
 10
424.5565201107
 20
124.7053767745
 30
0.0
 11
424.5565201107
 21
123.206290534
 31
0.0
  0
LINE
  5
41F
330
1F
100
AcDbEntity
  8
0
  6
Continuous
 62
     7
370
    25
100
AcDbLine
 10
321.5565201107
 20
195.2053767745
 30
0.0
 11
321.5565201107
 21
196.1701512329
 31
0.0
  0
ARC
  5
420
330
1F
100
AcDbEntity
  8
0
  6
Continuous
 62
     7
370
    25
100
AcDbCircle
 10
329.5565201107
 20
196.1701512329
 30
0.0
 40
8.000000000000044
100
AcDbArc
 50
135.0
 51
180.0
  0
ARC
  5
421
330
1F
100
AcDbEntity
  8
0
  6
Continuous
 62
     7
370
    25
100
AcDbCircle
 10
329.5565201107
 20
196.1701512329
 30
0.0
 40
8.000000000000044
100
AcDbArc
 50
90.0
 51
135.0
  0
LINE
  5
422
330
1F
100
AcDbEntity
  8
0
  6
Continuous
 62
     7
370
    25
100
AcDbLine
 10
329.5565201107
 20
204.1701512329
 30
0.0
 11
330.5212945691
 21
204.1701512329
 31
0.0
  0
LINE
  5
423
330
1F
100
AcDbEntity
  8
0
  6
Continuous
 62
     7
370
    25
100
AcDbLine
 10
416.5565201107
 20
101.1701512329
 30
0.0
 11
415.5917456524
 21
101.1701512329
 31
0.0
  0
ARC
  5
424
330
1F
100
AcDbEntity
  8
0
  6
Continuous
 62
     7
370
    25
100
AcDbCircle
 10
416.5565201107
 20
109.1701512329
 30
0.0
 40
8.000000000000044
100
AcDbArc
 50
270.0
 51
315.0
  0
ARC
  5
425
330
1F
100
AcDbEntity
  8
0
  6
Continuous
 62
     7
370
    25
100
AcDbCircle
 10
416.5565201107
 20
109.1701512329
 30
0.0
 40
8.000000000000044
100
AcDbArc
 50
315.0
 51
0.0
  0
LINE
  5
426
330
1F
100
AcDbEntity
  8
0
  6
Continuous
 62
     7
370
    25
100
AcDbLine
 10
424.5565201107
 20
110.1349256912
 30
0.0
 11
424.5565201107
 21
109.1701512329
 31
0.0
  0
LINE
  5
427
330
1F
100
AcDbEntity
  8
0
  6
Continuous
 62
     7
370
    25
100
AcDbLine
 10
321.5565201107
 20
194.2260584199
 30
0.0
 11
321.5565201107
 21
195.2053767745
 31
0.0
  0
LINE
  5
428
330
1F
100
AcDbEntity
  8
0
  6
Continuous
 62
     7
370
    25
100
AcDbLine
 10
330.5212945691
 20
204.1701512329
 30
0.0
 11
331.5006129237
 21
204.1701512329
 31
0.0
  0
LINE
  5
429
330
1F
100
AcDbEntity
  8
0
  6
Continuous
 62
     7
370
    25
100
AcDbLine
 10
415.5917456524
 20
101.1701512329
 30
0.0
 11
414.6124272978
 21
101.1701512329
 31
0.0
  0
LINE
  5
42A
330
1F
100
AcDbEntity
  8
0
  6
Continuous
 62
     7
370
    25
100
AcDbLine
 10
424.5565201107
 20
111.1142440458
 30
0.0
 11
424.5565201107
 21
110.1349256912
 31
0.0
  0
LINE
  5
42B
330
1F
100
AcDbEntity
  8
0
  6
Continuous
 62
     7
370
    25
100
AcDbLine
 10
321.5565201107
 20
182.1340119318
 30
0.0
 11
321.5565201107
 21
194.2260584199
 31
0.0
  0
LINE
  5
42C
330
1F
100
AcDbEntity
  8
0
  6
Continuous
 62
     7
370
    25
100
AcDbLine
 10
331.5006129237
 20
204.1701512329
 30
0.0
 11
343.5926594118
 21
204.1701512329
 31
0.0
  0
LINE
  5
42D
330
1F
100
AcDbEntity
  8
0
  6
Continuous
 62
     7
370
    25
100
AcDbLine
 10
414.6124272978
 20
101.1701512329
 30
0.0
 11
402.5203808096
 21
101.1701512329
 31
0.0
  0
LINE
  5
42E
330
1F
100
AcDbEntity
  8
0
  6
Continuous
 62
     7
370
    25
100
AcDbLine
 10
424.5565201107
 20
123.206290534
 30
0.0
 11
424.5565201107
 21
111.1142440458
 31
0.0
  0
LINE
  5
42F
330
1F
100
AcDbEntity
  8
0
  6
Continuous
 62
     7
370
    25
100
AcDbLine
 10
342.4128824484
 20
150.6177700786
 30
0.0
 11
343.700157773
 21
150.6177700786
 31
0.0
  0
LINE
  5
430
330
1F
100
AcDbEntity
  8
0
  6
Continuous
 62
     7
370
    25
100
AcDbLine
 10
342.4128824484
 20
149.2225323871
 30
0.0
 11
343.700157773
 21
149.2225323871
 31
0.0
  0
ARC
  5
431
330
1F
100
AcDbEntity
  8
0
  6
Continuous
 62
     7
370
    25
100
AcDbCircle
 10
403.0565201107
 20
150.9201512329
 30
0.0
 40
3.466297947788008
100
AcDbArc
 50
180.0
 51
199.3081203957
  0
ARC
  5
432
330
1F
100
AcDbEntity
  8
0
  6
Continuous
 62
     7
370
    25
100
AcDbCircle
 10
403.0565201107
 20
150.9201512329
 30
0.0
 40
3.447618845762413
100
AcDbArc
 50
180.0
 51
199.5238086381
  0
LWPOLYLINE
  5
433
330
1F
100
AcDbEntity
  8
0
  6
Continuous
 62
     7
370
    25
100
AcDbPolyline
 90
        3
 70
   128
 43
0.0
 10
399.7851872139
 20
149.7740262219
 10
399.7974855921
 20
149.7706248086
 10
399.8071300404
 20
149.767962066
  0
LINE
  5
434
330
1F
100
AcDbEntity
  8
0
  6
Continuous
 62
     7
370
    25
100
AcDbLine
 10
399.608901265
 20
151.0398848585
 30
0.0
 11
399.608901265
 21
150.9201512329
 31
0.0
  0
LINE
  5
435
330
1F
100
AcDbEntity
  8
0
  6
Continuous
 62
     7
370
    25
100
AcDbLine
 10
401.0041389565
 20
151.2549840026
 30
0.0
 11
401.0041389565
 21
150.9201512329
 31
0.0
  0
ARC
  5
436
330
1F
100
AcDbEntity
  8
0
  6
Continuous
 62
     7
370
    25
100
AcDbCircle
 10
403.0565201107
 20
150.9201512329
 30
0.0
 40
2.052381154237652
100
AcDbArc
 50
180.0
 51
207.0407399841
  0
ARC
  5
437
330
1F
100
AcDbEntity
  8
0
  6
Continuous
 62
     7
370
    25
100
AcDbCircle
 10
341.2565201107
 20
152.6701512329
 30
0.0
 40
1.0
100
AcDbArc
 50
90.0
 51
270.0
  0
LINE
  5
438
330
1F
100
AcDbEntity
  8
0
  6
Continuous
 62
     7
370
    25
100
AcDbLine
 10
344.8565201107
 20
151.6701512329
 30
0.0
 11
341.2565201107
 21
151.6701512329
 31
0.0
  0
LINE
  5
439
330
1F
100
AcDbEntity
  8
0
  6
Continuous
 62
     7
370
    25
100
AcDbLine
 10
341.2565201107
 20
153.6701512329
 30
0.0
 11
344.8565201107
 21
153.6701512329
 31
0.0
  0
ARC
  5
43A
330
1F
100
AcDbEntity
  8
0
  6
Continuous
 62
     7
370
    25
100
AcDbCircle
 10
344.8565201107
 20
152.6701512329
 30
0.0
 40
1.0
100
AcDbArc
 50
270.0
 51
90.0
  0
LINE
  5
43B
330
1F
100
AcDbEntity
  8
0
  6
Continuous
 62
     7
370
    25
100
AcDbLine
 10
402.0565201107
 20
150.8701512329
 30
0.0
 11
402.0565201107
 21
154.4701512329
 31
0.0
  0
ARC
  5
43C
330
1F
100
AcDbEntity
  8
0
  6
Continuous
 62
     7
370
    25
100
AcDbCircle
 10
403.0565201107
 20
154.4701512329
 30
0.0
 40
1.0
100
AcDbArc
 50
0.0
 51
180.0
  0
ARC
  5
43D
330
1F
100
AcDbEntity
  8
0
  6
Continuous
 62
     7
370
    25
100
AcDbCircle
 10
403.0565201107
 20
150.8701512329
 30
0.0
 40
1.0
100
AcDbArc
 50
180.0
 51
0.0
  0
LINE
  5
43E
330
1F
100
AcDbEntity
  8
0
  6
Continuous
 62
     7
370
    25
100
AcDbLine
 10
404.0565201107
 20
154.4701512329
 30
0.0
 11
404.0565201107
 21
150.8701512329
 31
0.0
  0
LINE
  5
43F
330
1F
100
AcDbEntity
  8
0
  6
Continuous
 62
     7
370
    25
100
AcDbLine
 10
344.8065201107
 20
154.6943520281
 30
0.0
 11
341.3065201107
 21
154.6943520281
 31
0.0
  0
ARC
  5
440
330
1F
100
AcDbEntity
  8
0
  6
Continuous
 62
     7
370
    25
100
AcDbCircle
 10
344.8065201107
 20
152.6701512329
 30
0.0
 40
2.024200795188278
100
AcDbArc
 50
270.0
 51
90.0
  0
LINE
  5
441
330
1F
100
AcDbEntity
  8
0
  6
Continuous
 62
     7
370
    25
100
AcDbLine
 10
341.3065201107
 20
150.6459504377
 30
0.0
 11
344.8065201107
 21
150.6459504377
 31
0.0
  0
ARC
  5
442
330
1F
100
AcDbEntity
  8
0
  6
Continuous
 62
     7
370
    25
100
AcDbCircle
 10
341.3065201107
 20
152.6701512329
 30
0.0
 40
2.024200795188278
100
AcDbArc
 50
90.0
 51
270.0
  0
LINE
  5
443
330
1F
100
AcDbEntity
  8
0
  6
Continuous
 62
     7
370
    25
100
AcDbLine
 10
401.0323193155
 20
154.4201512329
 30
0.0
 11
401.0323193155
 21
150.9201512329
 31
0.0
  0
ARC
  5
444
330
1F
100
AcDbEntity
  8
0
  6
Continuous
 62
     7
370
    25
100
AcDbCircle
 10
403.0565201107
 20
154.4201512329
 30
0.0
 40
2.024200795188335
100
AcDbArc
 50
0.0
 51
180.0
  0
LINE
  5
445
330
1F
100
AcDbEntity
  8
0
  6
Continuous
 62
     7
370
    25
100
AcDbLine
 10
405.0807209059
 20
150.9201512329
 30
0.0
 11
405.0807209059
 21
154.4201512329
 31
0.0
  0
ARC
  5
446
330
1F
100
AcDbEntity
  8
0
  6
Continuous
 62
     7
370
    25
100
AcDbCircle
 10
403.0565201107
 20
150.9201512329
 30
0.0
 40
2.024200795188335
100
AcDbArc
 50
180.0
 51
0.0
  0
LINE
  5
447
330
1F
100
AcDbEntity
  8
0
  6
Continuous
 62
     7
370
    25
100
AcDbLine
 10
323.0565201107
 20
150.2948319265
 30
0.0
 11
323.0565201107
 21
153.9454705393
 31
0.0
  0
LINE
  5
448
330
1F
100
AcDbEntity
  8
0
  6
Continuous
 62
     7
370
    25
100
AcDbLine
 10
321.5565201107
 20
149.4897528897
 30
0.0
 11
321.5565201107
 21
154.750549576
 31
0.0
  0
ENDSEC
  0
SECTION
  2
OBJECTS
  0
DICTIONARY
  5
C
330
0
100
AcDbDictionary
281
     1
  3
ACAD_GROUP
350
D
  3
ACAD_LAYOUT
350
1A
  3
ACAD_MLINESTYLE
350
17
  3
ACAD_PLOTSETTINGS
350
19
  3
ACAD_PLOTSTYLENAME
350
E
  3
ACAD_SCALELIST
350
47
  3
DWGPROPS
350
449
  0
DICTIONARY
  5
D
102
{ACAD_REACTORS
330
C
102
}
330
C
100
AcDbDictionary
281
     1
  0
DICTIONARY
  5
1A
102
{ACAD_REACTORS
330
C
102
}
330
C
100
AcDbDictionary
281
     1
  3
Layout1
350
1E
  3
Layout2
350
26
  3
Model
350
22
  0
DICTIONARY
  5
17
102
{ACAD_REACTORS
330
C
102
}
330
C
100
AcDbDictionary
281
     1
  3
Standard
350
18
  0
DICTIONARY
  5
19
102
{ACAD_REACTORS
330
C
102
}
330
C
100
AcDbDictionary
281
     1
  0
ACDBDICTIONARYWDFLT
  5
E
102
{ACAD_REACTORS
330
C
102
}
330
C
100
AcDbDictionary
281
     1
  3
Normal
350
F
100
AcDbDictionaryWithDefault
340
F
  0
DICTIONARY
  5
47
102
{ACAD_REACTORS
330
C
102
}
330
C
100
AcDbDictionary
281
     1
  3
A0
350
48
  3
A1
350
49
  3
A2
350
4A
  3
A3
350
4B
  3
A4
350
4C
  3
A5
350
4D
  3
A6
350
4E
  3
A7
350
4F
  3
A8
350
50
  3
A9
350
51
  3
B0
350
52
  3
B1
350
53
  3
B2
350
54
  3
B3
350
55
  3
B4
350
56
  3
B5
350
57
  3
B6
350
58
  0
XRECORD
  5
449
102
{ACAD_REACTORS
330
C
102
}
330
C
100
AcDbXrecord
280
     1
  1
DWGPROPS COOKIE
  2

  3

  4

  6

  7

  8
grigorievsin
  9

300
=
301
=
302
=
303
=
304
=
305
=
306
=
307
=
308
=
309
=
 40
0.0
 41
2459786.408303889
 42
2459786.408305856
  1

 90
        0
  0
LAYOUT
  5
1E
102
{ACAD_REACTORS
330
1A
102
}
330
1A
100
AcDbPlotSettings
  1

  2
none_device
  4

  6

 40
0.0
 41
0.0
 42
0.0
 43
0.0
 44
0.0
 45
0.0
 46
0.0
 47
0.0
 48
0.0
 49
0.0
140
0.0
141
0.0
142
1.0
143
1.0
 70
   688
 72
     1
 73
     0
 74
     5
  7

 75
    16
147
1.0
148
0.0
149
0.0
100
AcDbLayout
  1
Layout1
 70
     1
 71
     1
 10
0.0
 20
0.0
 11
420.0
 21
297.0
 12
0.0
 22
0.0
 32
0.0
 14
1.0000000000E+20
 24
1.0000000000E+20
 34
1.0000000000E+20
 15
-1.0000000000E+20
 25
-1.0000000000E+20
 35
-1.0000000000E+20
146
0.0
 13
0.0
 23
0.0
 33
0.0
 16
1.0
 26
0.0
 36
0.0
 17
0.0
 27
1.0
 37
0.0
 76
     0
330
1B
  0
LAYOUT
  5
26
102
{ACAD_REACTORS
330
1A
102
}
330
1A
100
AcDbPlotSettings
  1

  2
none_device
  4

  6

 40
0.0
 41
0.0
 42
0.0
 43
0.0
 44
0.0
 45
0.0
 46
0.0
 47
0.0
 48
0.0
 49
0.0
140
0.0
141
0.0
142
1.0
143
1.0
 70
   688
 72
     1
 73
     0
 74
     5
  7

 75
    16
147
1.0
148
0.0
149
0.0
100
AcDbLayout
  1
Layout2
 70
     1
 71
     2
 10
0.0
 20
0.0
 11
0.0
 21
0.0
 12
0.0
 22
0.0
 32
0.0
 14
0.0
 24
0.0
 34
0.0
 15
0.0
 25
0.0
 35
0.0
146
0.0
 13
0.0
 23
0.0
 33
0.0
 16
1.0
 26
0.0
 36
0.0
 17
0.0
 27
1.0
 37
0.0
 76
     0
330
23
  0
LAYOUT
  5
22
102
{ACAD_REACTORS
330
1A
102
}
330
1A
100
AcDbPlotSettings
  1

  2
none_device
  4
Letter_(8.50_x_11.00_Inches)
  6

 40
6.35
 41
6.35
 42
6.35000508
 43
6.35000508
 44
215.9
 45
279.4
 46
0.0
 47
0.0
 48
0.0
 49
0.0
140
0.0
141
0.0
142
1.0
143
1.0
 70
  1712
 72
     1
 73
     0
 74
     0
  7

 75
     0
147
1.0
148
0.0
149
0.0
100
AcDbLayout
  1
Model
 70
     1
 71
     0
 10
0.0
 20
0.0
 11
597.0
 21
420.0
 12
0.0
 22
0.0
 32
0.0
 14
0.0
 24
0.0
 34
0.0
 15
597.0
 25
420.0
 35
0.0
146
0.0
 13
0.0
 23
0.0
 33
0.0
 16
1.0
 26
0.0
 36
0.0
 17
0.0
 27
1.0
 37
0.0
 76
     0
330
1F
331
29
  0
MLINESTYLE
  5
18
102
{ACAD_REACTORS
330
17
102
}
330
17
100
AcDbMlineStyle
  2
Standard
 70
     0
  3

 62
   256
 51
90.0
 52
90.0
 71
     2
 49
0.5
 62
   256
  6
BYLAYER
 49
-0.5
 62
   256
  6
BYLAYER
  0
ACDBPLACEHOLDER
  5
F
102
{ACAD_REACTORS
330
E
102
}
330
E
  0
SCALE
  5
48
102
{ACAD_REACTORS
330
47
102
}
330
47
100
AcDbScale
 70
     0
300
1:1
140
1.0
141
1.0
290
     1
  0
SCALE
  5
49
102
{ACAD_REACTORS
330
47
102
}
330
47
100
AcDbScale
 70
     0
300
1:2
140
1.0
141
2.0
290
     0
  0
SCALE
  5
4A
102
{ACAD_REACTORS
330
47
102
}
330
47
100
AcDbScale
 70
     0
300
1:4
140
1.0
141
4.0
290
     0
  0
SCALE
  5
4B
102
{ACAD_REACTORS
330
47
102
}
330
47
100
AcDbScale
 70
     0
300
1:5
140
1.0
141
5.0
290
     0
  0
SCALE
  5
4C
102
{ACAD_REACTORS
330
47
102
}
330
47
100
AcDbScale
 70
     0
300
1:8
140
1.0
141
8.0
290
     0
  0
SCALE
  5
4D
102
{ACAD_REACTORS
330
47
102
}
330
47
100
AcDbScale
 70
     0
300
1:10
140
1.0
141
10.0
290
     0
  0
SCALE
  5
4E
102
{ACAD_REACTORS
330
47
102
}
330
47
100
AcDbScale
 70
     0
300
1:16
140
1.0
141
16.0
290
     0
  0
SCALE
  5
4F
102
{ACAD_REACTORS
330
47
102
}
330
47
100
AcDbScale
 70
     0
300
1:20
140
1.0
141
20.0
290
     0
  0
SCALE
  5
50
102
{ACAD_REACTORS
330
47
102
}
330
47
100
AcDbScale
 70
     0
300
1:30
140
1.0
141
30.0
290
     0
  0
SCALE
  5
51
102
{ACAD_REACTORS
330
47
102
}
330
47
100
AcDbScale
 70
     0
300
1:40
140
1.0
141
40.0
290
     0
  0
SCALE
  5
52
102
{ACAD_REACTORS
330
47
102
}
330
47
100
AcDbScale
 70
     0
300
1:50
140
1.0
141
50.0
290
     0
  0
SCALE
  5
53
102
{ACAD_REACTORS
330
47
102
}
330
47
100
AcDbScale
 70
     0
300
1:100
140
1.0
141
100.0
290
     0
  0
SCALE
  5
54
102
{ACAD_REACTORS
330
47
102
}
330
47
100
AcDbScale
 70
     0
300
2:1
140
2.0
141
1.0
290
     0
  0
SCALE
  5
55
102
{ACAD_REACTORS
330
47
102
}
330
47
100
AcDbScale
 70
     0
300
4:1
140
4.0
141
1.0
290
     0
  0
SCALE
  5
56
102
{ACAD_REACTORS
330
47
102
}
330
47
100
AcDbScale
 70
     0
300
8:1
140
8.0
141
1.0
290
     0
  0
SCALE
  5
57
102
{ACAD_REACTORS
330
47
102
}
330
47
100
AcDbScale
 70
     0
300
10:1
140
10.0
141
1.0
290
     0
  0
SCALE
  5
58
102
{ACAD_REACTORS
330
47
102
}
330
47
100
AcDbScale
 70
     0
300
100:1
140
100.0
141
1.0
290
     0
  0
ENDSEC
  0
EOF
