  0
SECTION
  2
HEADER
  9
$ACADVER
  1
AC1015
  9
$ACADMAINTVER
 70
     6
  9
$DWGCODEPAGE
  3
ANSI_1251
  9
$INSBASE
 10
0.0
 20
0.0
 30
0.0
  9
$EXTMIN
 10
0.0
 20
0.0
 30
0.0
  9
$EXTMAX
 10
3500.0
 20
3000.0
 30
0.0
  9
$LIMMIN
 10
0.0
 20
0.0
  9
$LIMMAX
 10
3500.0
 20
3000.0
  9
$ORTHOMODE
 70
     0
  9
$REGENMODE
 70
     1
  9
$FILLMODE
 70
     1
  9
$QTEXTMODE
 70
     0
  9
$MIRRTEXT
 70
     1
  9
$LTSCALE
 40
1.0
  9
$ATTMODE
 70
     1
  9
$TEXTSIZE
 40
3.5
  9
$TRACEWID
 40
1.0
  9
$TEXTSTYLE
  7
Standard
  9
$CLAYER
  8
0
  9
$CELTYPE
  6
ByLayer
  9
$CECOLOR
 62
   256
  9
$CELTSCALE
 40
1.0
  9
$DISPSILH
 70
     0
  9
$DIMSCALE
 40
1.0
  9
$DIMASZ
 40
3.302
  9
$DIMEXO
 40
0.0
  9
$DIMDLI
 40
3.75
  9
$DIMRND
 40
0.0
  9
$DIMDLE
 40
0.0
  9
$DIMEXE
 40
1.0
  9
$DIMTP
 40
0.0
  9
$DIMTM
 40
0.0
  9
$DIMTXT
 40
3.5
  9
$DIMCEN
 40
2.5
  9
$DIMTSZ
 40
0.0
  9
$DIMTOL
 70
     0
  9
$DIMLIM
 70
     0
  9
$DIMTIH
 70
     1
  9
$DIMTOH
 70
     1
  9
$DIMSE1
 70
     0
  9
$DIMSE2
 70
     0
  9
$DIMTAD
 70
     1
  9
$DIMZIN
 70
     0
  9
$DIMBLK
  1

  9
$DIMASO
 70
     1
  9
$DIMSHO
 70
     1
  9
$DIMPOST
  1

  9
$DIMAPOST
  1

  9
$DIMALT
 70
     0
  9
$DIMALTD
 70
     3
  9
$DIMALTF
 40
0.0393700787
  9
$DIMLFAC
 40
1.0
  9
$DIMTOFL
 70
     1
  9
$DIMTVP
 40
0.0
  9
$DIMTIX
 70
     0
  9
$DIMSOXD
 70
     0
  9
$DIMSAH
 70
     0
  9
$DIMBLK1
  1

  9
$DIMBLK2
  1

  9
$DIMSTYLE
  2
ISO-25
  9
$DIMCLRD
 70
     0
  9
$DIMCLRE
 70
     0
  9
$DIMCLRT
 70
     0
  9
$DIMTFAC
 40
1.0
  9
$DIMGAP
 40
1.524
  9
$DIMJUST
 70
     0
  9
$DIMSD1
 70
     0
  9
$DIMSD2
 70
     0
  9
$DIMTOLJ
 70
     0
  9
$DIMTZIN
 70
     0
  9
$DIMALTZ
 70
     0
  9
$DIMALTTZ
 70
     0
  9
$DIMUPT
 70
     0
  9
$DIMDEC
 70
     2
  9
$DIMTDEC
 70
     2
  9
$DIMALTU
 70
     2
  9
$DIMALTTD
 70
     3
  9
$DIMTXSTY
  7
Standard
  9
$DIMAUNIT
 70
     0
  9
$DIMADEC
 70
     2
  9
$DIMALTRND
 40
0.0
  9
$DIMAZIN
 70
     0
  9
$DIMDSEP
 70
    44
  9
$DIMATFIT
 70
     3
  9
$DIMFRAC
 70
     0
  9
$DIMLDRBLK
  1

  9
$DIMLUNIT
 70
     2
  9
$DIMLWD
 70
    -2
  9
$DIMLWE
 70
    -2
  9
$DIMTMOVE
 70
     0
  9
$LUNITS
 70
     2
  9
$LUPREC
 70
     1
  9
$SKETCHINC
 40
1.0
  9
$FILLETRAD
 40
10.0
  9
$AUNITS
 70
     1
  9
$AUPREC
 70
     2
  9
$MENU
  1
.
  9
$ELEVATION
 40
0.0
  9
$PELEVATION
 40
0.0
  9
$THICKNESS
 40
0.0
  9
$LIMCHECK
 70
     0
  9
$CHAMFERA
 40
0.0
  9
$CHAMFERB
 40
0.0
  9
$CHAMFERC
 40
0.0
  9
$CHAMFERD
 40
0.0
  9
$SKPOLY
 70
     0
  9
$TDCREATE
 40
2459492.537156319
  9
$TDUCREATE
 40
2459492.412156319
  9
$TDUPDATE
 40
2459492.537159665
  9
$TDUUPDATE
 40
2459492.412159665
  9
$TDINDWG
 40
0.0000000116
  9
$TDUSRTIMER
 40
0.0000000116
  9
$USRTIMER
 70
     1
  9
$ANGBASE
 50
0.0
  9
$ANGDIR
 70
     0
  9
$PDMODE
 70
     0
  9
$PDSIZE
 40
-1.0
  9
$PLINEWID
 40
0.0
  9
$SPLFRAME
 70
     0
  9
$SPLINETYPE
 70
     6
  9
$SPLINESEGS
 70
     8
  9
$HANDSEED
  5
1AF
  9
$SURFTAB1
 70
     6
  9
$SURFTAB2
 70
     6
  9
$SURFTYPE
 70
     6
  9
$SURFU
 70
     6
  9
$SURFV
 70
     6
  9
$UCSBASE
  2

  9
$UCSNAME
  2

  9
$UCSORG
 10
0.0
 20
0.0
 30
0.0
  9
$UCSXDIR
 10
1.0
 20
0.0
 30
0.0
  9
$UCSYDIR
 10
0.0
 20
1.0
 30
0.0
  9
$UCSORTHOREF
  2

  9
$UCSORTHOVIEW
 70
     0
  9
$UCSORGTOP
 10
0.0
 20
0.0
 30
0.0
  9
$UCSORGBOTTOM
 10
0.0
 20
0.0
 30
0.0
  9
$UCSORGLEFT
 10
0.0
 20
0.0
 30
0.0
  9
$UCSORGRIGHT
 10
0.0
 20
0.0
 30
0.0
  9
$UCSORGFRONT
 10
0.0
 20
0.0
 30
0.0
  9
$UCSORGBACK
 10
0.0
 20
0.0
 30
0.0
  9
$PUCSBASE
  2

  9
$PUCSNAME
  2

  9
$PUCSORG
 10
0.0
 20
0.0
 30
0.0
  9
$PUCSXDIR
 10
1.0
 20
0.0
 30
0.0
  9
$PUCSYDIR
 10
0.0
 20
1.0
 30
0.0
  9
$PUCSORTHOREF
  2

  9
$PUCSORTHOVIEW
 70
     0
  9
$PUCSORGTOP
 10
0.0
 20
0.0
 30
0.0
  9
$PUCSORGBOTTOM
 10
0.0
 20
0.0
 30
0.0
  9
$PUCSORGLEFT
 10
0.0
 20
0.0
 30
0.0
  9
$PUCSORGRIGHT
 10
0.0
 20
0.0
 30
0.0
  9
$PUCSORGFRONT
 10
0.0
 20
0.0
 30
0.0
  9
$PUCSORGBACK
 10
0.0
 20
0.0
 30
0.0
  9
$USERI1
 70
     0
  9
$USERI2
 70
     0
  9
$USERI3
 70
     0
  9
$USERI4
 70
     0
  9
$USERI5
 70
     0
  9
$USERR1
 40
0.0
  9
$USERR2
 40
0.0
  9
$USERR3
 40
0.0
  9
$USERR4
 40
0.0
  9
$USERR5
 40
0.0
  9
$WORLDVIEW
 70
     1
  9
$SHADEDGE
 70
     3
  9
$SHADEDIF
 70
    70
  9
$TILEMODE
 70
     1
  9
$MAXACTVP
 70
    64
  9
$PINSBASE
 10
0.0
 20
0.0
 30
0.0
  9
$PLIMCHECK
 70
     0
  9
$PEXTMIN
 10
1.0000000000E+20
 20
1.0000000000E+20
 30
1.0000000000E+20
  9
$PEXTMAX
 10
-1.0000000000E+20
 20
-1.0000000000E+20
 30
-1.0000000000E+20
  9
$PLIMMIN
 10
0.0
 20
0.0
  9
$PLIMMAX
 10
420.0
 20
297.0
  9
$UNITMODE
 70
     0
  9
$VISRETAIN
 70
     1
  9
$PLINEGEN
 70
     0
  9
$PSLTSCALE
 70
     1
  9
$TREEDEPTH
 70
  3020
  9
$CMLSTYLE
  2
Standard
  9
$CMLJUST
 70
     0
  9
$CMLSCALE
 40
20.0
  9
$PROXYGRAPHICS
 70
     1
  9
$MEASUREMENT
 70
     1
  9
$CELWEIGHT
370
    -1
  9
$ENDCAPS
280
     0
  9
$JOINSTYLE
280
     0
  9
$LWDISPLAY
290
     1
  9
$INSUNITS
 70
     4
  9
$HYPERLINKBASE
  1

  9
$STYLESHEET
  1

  9
$XEDIT
290
     1
  9
$CEPSNTYPE
380
     0
  9
$PSTYLEMODE
290
     1
  9
$FINGERPRINTGUID
  2
{B770812A-8FA2-46DE-B31C-37321F910786}
  9
$VERSIONGUID
  2
{FAEB1C32-E019-11D5-929B-00C0DF256EC4}
  9
$EXTNAMES
290
     1
  9
$PSVPSCALE
 40
0.0
  9
$OLESTARTUP
290
     0
  0
ENDSEC
  0
SECTION
  2
CLASSES
  0
CLASS
  1
ACDBDICTIONARYWDFLT
  2
AcDbDictionaryWithDefault
  3
ObjectDBX Classes
 90
        0
280
     0
281
     0
  0
CLASS
  1
VISUALSTYLE
  2
AcDbVisualStyle
  3
ObjectDBX Classes
 90
     4095
280
     0
281
     0
  0
CLASS
  1
MATERIAL
  2
AcDbMaterial
  3
ObjectDBX Classes
 90
     1153
280
     0
281
     0
  0
CLASS
  1
SCALE
  2
AcDbScale
  3
ObjectDBX Classes
 90
     1153
280
     0
281
     0
  0
CLASS
  1
TABLESTYLE
  2
AcDbTableStyle
  3
ObjectDBX Classes
 90
     4095
280
     0
281
     0
  0
CLASS
  1
MLEADERSTYLE
  2
AcDbMLeaderStyle
  3
ACDB_MLEADERSTYLE_CLASS
 90
     4095
280
     0
281
     0
  0
CLASS
  1
SUN
  2
AcDbSun
  3
SCENEOE
 90
     1153
280
     0
281
     0
  0
CLASS
  1
ACDBPLACEHOLDER
  2
AcDbPlaceHolder
  3
ObjectDBX Classes
 90
        0
280
     0
281
     0
  0
CLASS
  1
LAYOUT
  2
AcDbLayout
  3
ObjectDBX Classes
 90
        0
280
     0
281
     0
  0
ENDSEC
  0
SECTION
  2
TABLES
  0
TABLE
  2
VPORT
  5
8
330
0
100
AcDbSymbolTable
 70
     1
  0
VPORT
  5
29
330
8
100
AcDbSymbolTableRecord
100
AcDbViewportTableRecord
  2
*Active
 70
     0
 10
0.0
 20
0.0
 11
1.0
 21
1.0
 12
1750.0
 22
1500.0
 13
0.0
 23
0.0
 14
10.0
 24
10.0
 15
10.0
 25
10.0
 16
0.0
 26
0.0
 36
1.0
 17
0.0
 27
0.0
 37
0.0
 40
3000.0
 41
1.1666666667
 42
50.0
 43
0.0
 44
0.0
 50
0.0
 51
0.0
 71
     0
 72
  2000
 73
     1
 74
     3
 75
     0
 76
     0
 77
     0
 78
     0
281
     0
 65
     1
110
0.0
120
0.0
130
0.0
111
1.0
121
0.0
131
0.0
112
0.0
122
1.0
132
0.0
 79
     0
146
0.0
  0
ENDTAB
  0
TABLE
  2
LTYPE
  5
5
330
0
100
AcDbSymbolTable
 70
     6
  0
LTYPE
  5
14
330
5
100
AcDbSymbolTableRecord
100
AcDbLinetypeTableRecord
  2
ByBlock
 70
     0
  3

 72
    65
 73
     0
 40
0.0
  0
LTYPE
  5
15
330
5
100
AcDbSymbolTableRecord
100
AcDbLinetypeTableRecord
  2
ByLayer
 70
     0
  3

 72
    65
 73
     0
 40
0.0
  0
LTYPE
  5
16
330
5
100
AcDbSymbolTableRecord
100
AcDbLinetypeTableRecord
  2
Continuous
 70
     0
  3
Solid line
 72
    65
 73
     0
 40
0.0
  0
LTYPE
  5
6E
330
5
100
AcDbSymbolTableRecord
100
AcDbLinetypeTableRecord
  2
HIDDEN
 70
     0
  3
Hidden __ __ __ __ __ __ __ __ __ __ __ __ __ __
 72
    65
 73
     2
 40
1.905
 49
1.27
 74
     0
 49
-0.635
 74
     0
  0
LTYPE
  5
6F
330
5
100
AcDbSymbolTableRecord
100
AcDbLinetypeTableRecord
  2
PHANTOM
 70
     0
  3
Phantom ______  __  __  ______  __  __  ______
 72
    65
 73
     6
 40
12.7
 49
6.35
 74
     0
 49
-1.27
 74
     0
 49
1.27
 74
     0
 49
-1.27
 74
     0
 49
1.27
 74
     0
 49
-1.27
 74
     0
  0
LTYPE
  5
70
330
5
100
AcDbSymbolTableRecord
100
AcDbLinetypeTableRecord
  2
CENTER
 70
     0
  3
Center ____ _ ____ _ ____ _ ____ _ ____ _ ____
 72
    65
 73
     4
 40
10.16
 49
6.35
 74
     0
 49
-1.27
 74
     0
 49
1.27
 74
     0
 49
-1.27
 74
     0
  0
LTYPE
  5
71
330
5
100
AcDbSymbolTableRecord
100
AcDbLinetypeTableRecord
  2
CENTERX2
 70
     0
  3
Center (2x) ________  __  ________  __  _____
 72
    65
 73
     4
 40
20.32
 49
12.7
 74
     0
 49
-2.54
 74
     0
 49
2.54
 74
     0
 49
-2.54
 74
     0
  0
LTYPE
  5
72
330
5
100
AcDbSymbolTableRecord
100
AcDbLinetypeTableRecord
  2
DOT2
 70
     0
  3
Dot (.5x) ........................................
 72
    65
 73
     2
 40
0.635
 49
0.0
 74
     0
 49
-0.635
 74
     0
  0
ENDTAB
  0
TABLE
  2
LAYER
  5
2
330
0
100
AcDbSymbolTable
 70
     8
  0
LAYER
  5
10
330
2
100
AcDbSymbolTableRecord
100
AcDbLayerTableRecord
  2
0
 70
     0
 62
     7
  6
Continuous
370
    -3
390
F
  0
LAYER
  5
73
330
2
100
AcDbSymbolTableRecord
100
AcDbLayerTableRecord
  2
SLD-0
 70
     0
 62
     7
  6
Continuous
370
    25
390
F
  0
LAYER
  5
74
330
2
100
AcDbSymbolTableRecord
100
AcDbLayerTableRecord
  2
OSNOVA
 70
     0
 62
     5
  6
Continuous
370
    -3
390
F
  0
LAYER
  5
75
330
2
100
AcDbSymbolTableRecord
100
AcDbLayerTableRecord
  2
THIN_LINE
 70
     0
 62
     7
  6
Continuous
370
    25
390
F
  0
LAYER
  5
76
330
2
100
AcDbSymbolTableRecord
100
AcDbLayerTableRecord
  2
THICK_LINE
 70
     0
 62
     7
  6
Continuous
370
    25
390
F
  0
LAYER
  5
77
330
2
100
AcDbSymbolTableRecord
100
AcDbLayerTableRecord
  2
THIN_LIONE
 70
     0
 62
     7
  6
Continuous
370
    -3
390
F
  0
LAYER
  5
78
330
2
100
AcDbSymbolTableRecord
100
AcDbLayerTableRecord
  2
THICK_LIONE
 70
     0
 62
     7
  6
Continuous
370
    25
390
F
  0
LAYER
  5
79
330
2
100
AcDbSymbolTableRecord
100
AcDbLayerTableRecord
  2
ИЗМЕН_РАЗМЕР
 70
     0
 62
     1
  6
Continuous
370
    -3
390
F
  0
ENDTAB
  0
TABLE
  2
STYLE
  5
3
330
0
100
AcDbSymbolTable
 70
     1
  0
STYLE
  5
11
330
3
100
AcDbSymbolTableRecord
100
AcDbTextStyleTableRecord
  2
Standard
 70
     0
 40
0.0
 41
1.0
 50
0.0
 71
     0
 42
3.5
  3
txt
  4

  0
ENDTAB
  0
TABLE
  2
VIEW
  5
6
330
0
100
AcDbSymbolTable
 70
     0
  0
ENDTAB
  0
TABLE
  2
UCS
  5
7
330
0
100
AcDbSymbolTable
 70
     0
  0
ENDTAB
  0
TABLE
  2
APPID
  5
9
330
0
100
AcDbSymbolTable
 70
     1
  0
APPID
  5
12
330
9
100
AcDbSymbolTableRecord
100
AcDbRegAppTableRecord
  2
ACAD
 70
     0
  0
ENDTAB
  0
TABLE
  2
DIMSTYLE
  5
A
330
0
100
AcDbSymbolTable
 70
     1
100
AcDbDimStyleTable
  0
DIMSTYLE
105
27
330
A
100
AcDbSymbolTableRecord
100
AcDbDimStyleTableRecord
  2
ISO-25
 70
     0
 41
2.5
 42
0.625
 43
3.75
 44
1.25
 73
     0
 74
     0
 77
     1
 78
     8
140
2.5
141
2.5
143
0.0393700787
147
0.625
171
     3
172
     1
178
     0
271
     2
272
     2
274
     3
278
    44
283
     0
284
     8
340
11
  0
ENDTAB
  0
TABLE
  2
BLOCK_RECORD
  5
1
330
0
100
AcDbSymbolTable
 70
     1
  0
BLOCK_RECORD
  5
1F
330
1
100
AcDbSymbolTableRecord
100
AcDbBlockTableRecord
  2
*Model_Space
340
22
  0
BLOCK_RECORD
  5
1B
330
1
100
AcDbSymbolTableRecord
100
AcDbBlockTableRecord
  2
*Paper_Space
340
1E
  0
BLOCK_RECORD
  5
23
330
1
100
AcDbSymbolTableRecord
100
AcDbBlockTableRecord
  2
*Paper_Space0
340
26
  0
ENDTAB
  0
ENDSEC
  0
SECTION
  2
BLOCKS
  0
BLOCK
  5
20
330
1F
100
AcDbEntity
  8
0
100
AcDbBlockBegin
  2
*Model_Space
 70
     0
 10
0.0
 20
0.0
 30
0.0
  3
*Model_Space
  1

  0
ENDBLK
  5
21
330
1F
100
AcDbEntity
  8
0
100
AcDbBlockEnd
  0
BLOCK
  5
1C
330
1B
100
AcDbEntity
 67
     1
  8
0
100
AcDbBlockBegin
  2
*Paper_Space
 70
     0
 10
0.0
 20
0.0
 30
0.0
  3
*Paper_Space
  1

  0
ENDBLK
  5
1D
330
1B
100
AcDbEntity
 67
     1
  8
0
100
AcDbBlockEnd
  0
BLOCK
  5
24
330
23
100
AcDbEntity
  8
0
100
AcDbBlockBegin
  2
*Paper_Space0
 70
     0
 10
0.0
 20
0.0
 30
0.0
  3
*Paper_Space0
  1

  0
ENDBLK
  5
25
330
23
100
AcDbEntity
  8
0
100
AcDbBlockEnd
  0
ENDSEC
  0
SECTION
  2
ENTITIES
  0
LINE
  5
7A
330
1F
100
AcDbEntity
  8
0
  6
Continuous
 62
     7
370
    25
100
AcDbLine
 10
2579.5179413004
 20
1741.5114995655
 30
0.0
 11
2579.5179413004
 21
1744.7723545482
 31
0.0
  0
LINE
  5
7B
330
1F
100
AcDbEntity
  8
0
  6
Continuous
 62
     7
370
    25
100
AcDbLine
 10
2579.5179413004
 20
1740.7621576031
 30
0.0
 11
2579.5179413004
 21
1741.5114995655
 31
0.0
  0
LINE
  5
7C
330
1F
100
AcDbEntity
  8
0
  6
Continuous
 62
     7
370
    25
100
AcDbLine
 10
2579.5179413004
 20
1740.7621576031
 30
0.0
 11
79.5179413004
 21
1740.7621576031
 31
0.0
  0
LINE
  5
7D
330
1F
100
AcDbEntity
  8
0
  6
Continuous
 62
     7
370
    25
100
AcDbLine
 10
79.5179413004
 20
1740.7621576031
 30
0.0
 11
79.5179413004
 21
1741.5114995655
 31
0.0
  0
LINE
  5
7E
330
1F
100
AcDbEntity
  8
0
  6
Continuous
 62
     7
370
    25
100
AcDbLine
 10
79.5179413004
 20
1744.7723545482
 30
0.0
 11
79.5179413004
 21
1741.5114995655
 31
0.0
  0
LINE
  5
7F
330
1F
100
AcDbEntity
  8
0
  6
Continuous
 62
     7
370
    25
100
AcDbLine
 10
79.5179413004
 20
1744.7723545482
 30
0.0
 11
2579.5179413004
 21
1744.7723545482
 31
0.0
  0
LINE
  5
80
330
1F
100
AcDbEntity
  8
0
  6
Continuous
 62
     7
370
    25
100
AcDbLine
 10
2579.5179413004
 20
1739.5963884577
 30
0.0
 11
2579.5179413004
 21
1740.7621576031
 31
0.0
  0
ARC
  5
81
330
1F
100
AcDbEntity
  8
0
  6
Continuous
 62
     7
370
    25
100
AcDbCircle
 10
163.5179413004
 20
1722.5963884577
 30
0.0
 40
3.5
100
AcDbArc
 50
270.0
 51
90.0
  0
LINE
  5
82
330
1F
100
AcDbEntity
  8
0
  6
Continuous
 62
     7
370
    25
100
AcDbLine
 10
145.5179413004
 20
1719.0963884577
 30
0.0
 11
163.5179413004
 21
1719.0963884577
 31
0.0
  0
ARC
  5
83
330
1F
100
AcDbEntity
  8
0
  6
Continuous
 62
     7
370
    25
100
AcDbCircle
 10
2545.5179413004
 20
1722.5963884577
 30
0.0
 40
3.500000000000227
100
AcDbArc
 50
90.0
 51
270.0
  0
LINE
  5
84
330
1F
100
AcDbEntity
  8
0
  6
Continuous
 62
     7
370
    25
100
AcDbLine
 10
2545.5179413004
 20
1719.0963884577
 30
0.0
 11
2563.5179413004
 21
1719.0963884577
 31
0.0
  0
ARC
  5
85
330
1F
100
AcDbEntity
  8
0
  6
Continuous
 62
     7
370
    25
100
AcDbCircle
 10
2563.5179413004
 20
1722.5963884577
 30
0.0
 40
3.500000000000227
100
AcDbArc
 50
270.0
 51
90.0
  0
LINE
  5
86
330
1F
100
AcDbEntity
  8
0
  6
Continuous
 62
     7
370
    25
100
AcDbLine
 10
2563.5179413004
 20
1726.0963884577
 30
0.0
 11
2545.5179413004
 21
1726.0963884577
 31
0.0
  0
ARC
  5
87
330
1F
100
AcDbEntity
  8
0
  6
Continuous
 62
     7
370
    25
100
AcDbCircle
 10
2495.5179413004
 20
1722.5963884577
 30
0.0
 40
3.5
100
AcDbArc
 50
90.0
 51
270.0
  0
LINE
  5
88
330
1F
100
AcDbEntity
  8
0
  6
Continuous
 62
     7
370
    25
100
AcDbLine
 10
2495.5179413004
 20
1719.0963884577
 30
0.0
 11
2513.5179413004
 21
1719.0963884577
 31
0.0
  0
ARC
  5
89
330
1F
100
AcDbEntity
  8
0
  6
Continuous
 62
     7
370
    25
100
AcDbCircle
 10
2513.5179413004
 20
1722.5963884577
 30
0.0
 40
3.5
100
AcDbArc
 50
270.0
 51
90.0
  0
ARC
  5
8A
330
1F
100
AcDbEntity
  8
0
  6
Continuous
 62
     7
370
    25
100
AcDbCircle
 10
113.5179413004
 20
1722.5963884577
 30
0.0
 40
3.500000000000227
100
AcDbArc
 50
270.0
 51
90.0
  0
LINE
  5
8B
330
1F
100
AcDbEntity
  8
0
  6
Continuous
 62
     7
370
    25
100
AcDbLine
 10
113.5179413004
 20
1726.0963884577
 30
0.0
 11
95.5179413004
 21
1726.0963884577
 31
0.0
  0
ARC
  5
8C
330
1F
100
AcDbEntity
  8
0
  6
Continuous
 62
     7
370
    25
100
AcDbCircle
 10
95.5179413004
 20
1722.5963884577
 30
0.0
 40
3.500000000000227
100
AcDbArc
 50
90.0
 51
270.0
  0
LINE
  5
8D
330
1F
100
AcDbEntity
  8
0
  6
Continuous
 62
     7
370
    25
100
AcDbLine
 10
163.5179413004
 20
1726.0963884577
 30
0.0
 11
145.5179413004
 21
1726.0963884577
 31
0.0
  0
LINE
  5
8E
330
1F
100
AcDbEntity
  8
0
  6
Continuous
 62
     7
370
    25
100
AcDbLine
 10
2579.5179413004
 20
1704.5963884577
 30
0.0
 11
79.5179413004
 21
1704.5963884577
 31
0.0
  0
LINE
  5
8F
330
1F
100
AcDbEntity
  8
0
  6
Continuous
 62
     7
370
    25
100
AcDbLine
 10
2513.5179413004
 20
1726.0963884577
 30
0.0
 11
2495.5179413004
 21
1726.0963884577
 31
0.0
  0
LINE
  5
90
330
1F
100
AcDbEntity
  8
0
  6
Continuous
 62
     7
370
    25
100
AcDbLine
 10
95.5179413004
 20
1719.0963884577
 30
0.0
 11
113.5179413004
 21
1719.0963884577
 31
0.0
  0
LINE
  5
91
330
1F
100
AcDbEntity
  8
0
  6
Continuous
 62
     7
370
    25
100
AcDbLine
 10
79.5179413004
 20
1704.5963884577
 30
0.0
 11
79.5179413004
 21
1707.0963884577
 31
0.0
  0
LINE
  5
92
330
1F
100
AcDbEntity
  8
0
  6
Continuous
 62
     7
370
    25
100
AcDbLine
 10
2579.5179413004
 20
1739.5963884577
 30
0.0
 11
2579.5179413004
 21
1707.0963884577
 31
0.0
  0
LINE
  5
93
330
1F
100
AcDbEntity
  8
0
  6
Continuous
 62
     7
370
    25
100
AcDbLine
 10
2579.5179413004
 20
1704.5963884577
 30
0.0
 11
2579.5179413004
 21
1707.0963884577
 31
0.0
  0
LINE
  5
94
330
1F
100
AcDbEntity
  8
0
  6
Continuous
 62
     7
370
    25
100
AcDbLine
 10
79.5179413004
 20
1739.5963884577
 30
0.0
 11
79.5179413004
 21
1740.7621576031
 31
0.0
  0
ARC
  5
95
330
1F
100
AcDbEntity
  8
0
  6
Continuous
 62
     7
370
    25
100
AcDbCircle
 10
145.5179413004
 20
1722.5963884577
 30
0.0
 40
3.5
100
AcDbArc
 50
90.0
 51
270.0
  0
LINE
  5
96
330
1F
100
AcDbEntity
  8
0
  6
Continuous
 62
     7
370
    25
100
AcDbLine
 10
79.5179413004
 20
1739.5963884577
 30
0.0
 11
79.5179413004
 21
1707.0963884577
 31
0.0
  0
LINE
  5
97
330
1F
100
AcDbEntity
  8
0
  6
Continuous
 62
     7
370
    25
100
AcDbLine
 10
79.5179413004
 20
1754.5626961158
 30
0.0
 11
79.5179413004
 21
1749.8720667365
 31
0.0
  0
LINE
  5
98
330
1F
100
AcDbEntity
  8
0
  6
Continuous
 62
     7
370
    25
100
AcDbLine
 10
2579.5179413004
 20
1754.5626961158
 30
0.0
 11
79.5179413004
 21
1754.5626961158
 31
0.0
  0
LINE
  5
99
330
1F
100
AcDbEntity
  8
0
  6
Continuous
 62
     7
370
    25
100
AcDbLine
 10
2579.5179413004
 20
1749.8720667365
 30
0.0
 11
2579.5179413004
 21
1754.5626961158
 31
0.0
  0
LINE
  5
9A
330
1F
100
AcDbEntity
  8
0
  6
Continuous
 62
     7
370
    25
100
AcDbLine
 10
79.5179413004
 20
1749.8720667365
 30
0.0
 11
2579.5179413004
 21
1749.8720667365
 31
0.0
  0
LINE
  5
9B
330
1F
100
AcDbEntity
  8
0
  6
Continuous
 62
     7
370
    25
100
AcDbLine
 10
79.5179413004
 20
1749.8720667365
 30
0.0
 11
79.5179413004
 21
1744.7723545482
 31
0.0
  0
LINE
  5
9C
330
1F
100
AcDbEntity
  8
0
  6
Continuous
 62
     7
370
    25
100
AcDbLine
 10
2579.5179413004
 20
1749.8720667365
 30
0.0
 11
2579.5179413004
 21
1744.7723545482
 31
0.0
  0
LINE
  5
9D
330
1F
100
AcDbEntity
  8
0
  6
Continuous
 62
     7
370
    25
100
AcDbLine
 10
79.5179413004
 20
2396.2434774376
 30
0.0
 11
79.5179413004
 21
2398.7434774376
 31
0.0
  0
LINE
  5
9E
330
1F
100
AcDbEntity
  8
0
  6
Continuous
 62
     7
370
    25
100
AcDbLine
 10
2579.5179413004
 20
2398.7434774376
 30
0.0
 11
79.5179413004
 21
2398.7434774376
 31
0.0
  0
LINE
  5
9F
330
1F
100
AcDbEntity
  8
0
  6
Continuous
 62
     7
370
    25
100
AcDbLine
 10
2579.5179413004
 20
2396.2434774376
 30
0.0
 11
2579.5179413004
 21
2398.7434774376
 31
0.0
  0
LINE
  5
A0
330
1F
100
AcDbEntity
  8
0
  6
Continuous
 62
     7
370
    25
100
AcDbLine
 10
2579.5179413004
 20
2396.2434774376
 30
0.0
 11
2579.5179413004
 21
2251.2434774376
 31
0.0
  0
LINE
  5
A1
330
1F
100
AcDbEntity
  8
0
  6
Continuous
 62
     7
370
    25
100
AcDbLine
 10
2579.5179413004
 20
2248.7434774376
 30
0.0
 11
79.5179413004
 21
2248.7434774376
 31
0.0
  0
LINE
  5
A2
330
1F
100
AcDbEntity
  8
0
  6
Continuous
 62
     7
370
    25
100
AcDbLine
 10
79.5179413004
 20
2396.2434774376
 30
0.0
 11
79.5179413004
 21
2251.2434774376
 31
0.0
  0
ARC
  5
A3
330
1F
100
AcDbEntity
  8
0
  6
Continuous
 62
     7
370
    25
100
AcDbCircle
 10
2558.5179413004
 20
2327.7434774376
 30
0.0
 40
1.0
100
AcDbArc
 50
90.0
 51
180.0
  0
LINE
  5
A4
330
1F
100
AcDbEntity
  8
0
  6
Continuous
 62
     7
370
    25
100
AcDbLine
 10
2557.5179413004
 20
2319.7434774376
 30
0.0
 11
2557.5179413004
 21
2327.7434774376
 31
0.0
  0
ARC
  5
A5
330
1F
100
AcDbEntity
  8
0
  6
Continuous
 62
     7
370
    25
100
AcDbCircle
 10
2558.5179413004
 20
2319.7434774376
 30
0.0
 40
1.0
100
AcDbArc
 50
180.0
 51
270.0
  0
LINE
  5
A6
330
1F
100
AcDbEntity
  8
0
  6
Continuous
 62
     7
370
    25
100
AcDbLine
 10
2563.5179413004
 20
2318.7434774376
 30
0.0
 11
2558.5179413004
 21
2318.7434774376
 31
0.0
  0
ARC
  5
A7
330
1F
100
AcDbEntity
  8
0
  6
Continuous
 62
     7
370
    25
100
AcDbCircle
 10
2563.5179413004
 20
2319.7434774376
 30
0.0
 40
1.0
100
AcDbArc
 50
270.0
 51
0.0
  0
LINE
  5
A8
330
1F
100
AcDbEntity
  8
0
  6
Continuous
 62
     7
370
    25
100
AcDbLine
 10
2564.5179413004
 20
2327.7434774376
 30
0.0
 11
2564.5179413004
 21
2319.7434774376
 31
0.0
  0
ARC
  5
A9
330
1F
100
AcDbEntity
  8
0
  6
Continuous
 62
     7
370
    25
100
AcDbCircle
 10
2563.5179413004
 20
2327.7434774376
 30
0.0
 40
1.0
100
AcDbArc
 50
0.0
 51
90.0
  0
LINE
  5
AA
330
1F
100
AcDbEntity
  8
0
  6
Continuous
 62
     7
370
    25
100
AcDbLine
 10
2558.5179413004
 20
2328.7434774376
 30
0.0
 11
2563.5179413004
 21
2328.7434774376
 31
0.0
  0
ARC
  5
AB
330
1F
100
AcDbEntity
  8
0
  6
Continuous
 62
     7
370
    25
100
AcDbCircle
 10
95.5179413004
 20
2327.7434774376
 30
0.0
 40
1.0
100
AcDbArc
 50
90.0
 51
180.0
  0
LINE
  5
AC
330
1F
100
AcDbEntity
  8
0
  6
Continuous
 62
     7
370
    25
100
AcDbLine
 10
94.5179413004
 20
2319.7434774376
 30
0.0
 11
94.5179413004
 21
2327.7434774376
 31
0.0
  0
ARC
  5
AD
330
1F
100
AcDbEntity
  8
0
  6
Continuous
 62
     7
370
    25
100
AcDbCircle
 10
95.5179413004
 20
2319.7434774376
 30
0.0
 40
1.0
100
AcDbArc
 50
180.0
 51
270.0
  0
LINE
  5
AE
330
1F
100
AcDbEntity
  8
0
  6
Continuous
 62
     7
370
    25
100
AcDbLine
 10
100.5179413004
 20
2318.7434774376
 30
0.0
 11
95.5179413004
 21
2318.7434774376
 31
0.0
  0
ARC
  5
AF
330
1F
100
AcDbEntity
  8
0
  6
Continuous
 62
     7
370
    25
100
AcDbCircle
 10
100.5179413004
 20
2319.7434774376
 30
0.0
 40
1.0
100
AcDbArc
 50
270.0
 51
0.0
  0
LINE
  5
B0
330
1F
100
AcDbEntity
  8
0
  6
Continuous
 62
     7
370
    25
100
AcDbLine
 10
101.5179413004
 20
2327.7434774376
 30
0.0
 11
101.5179413004
 21
2319.7434774376
 31
0.0
  0
ARC
  5
B1
330
1F
100
AcDbEntity
  8
0
  6
Continuous
 62
     7
370
    25
100
AcDbCircle
 10
100.5179413004
 20
2327.7434774376
 30
0.0
 40
1.0
100
AcDbArc
 50
0.0
 51
90.0
  0
LINE
  5
B2
330
1F
100
AcDbEntity
  8
0
  6
Continuous
 62
     7
370
    25
100
AcDbLine
 10
95.5179413004
 20
2328.7434774376
 30
0.0
 11
100.5179413004
 21
2328.7434774376
 31
0.0
  0
ARC
  5
B3
330
1F
100
AcDbEntity
  8
0
  6
Continuous
 62
     7
370
    25
100
AcDbCircle
 10
113.5179413004
 20
2261.2434774376
 30
0.0
 40
3.500000000000455
100
AcDbArc
 50
270.0
 51
90.0
  0
LINE
  5
B4
330
1F
100
AcDbEntity
  8
0
  6
Continuous
 62
     7
370
    25
100
AcDbLine
 10
95.5179413004
 20
2264.7434774376
 30
0.0
 11
113.5179413004
 21
2264.7434774376
 31
0.0
  0
ARC
  5
B5
330
1F
100
AcDbEntity
  8
0
  6
Continuous
 62
     7
370
    25
100
AcDbCircle
 10
95.5179413004
 20
2261.2434774376
 30
0.0
 40
3.500000000000455
100
AcDbArc
 50
90.0
 51
270.0
  0
LINE
  5
B6
330
1F
100
AcDbEntity
  8
0
  6
Continuous
 62
     7
370
    25
100
AcDbLine
 10
113.5179413004
 20
2257.7434774376
 30
0.0
 11
95.5179413004
 21
2257.7434774376
 31
0.0
  0
ARC
  5
B7
330
1F
100
AcDbEntity
  8
0
  6
Continuous
 62
     7
370
    25
100
AcDbCircle
 10
2495.5179413004
 20
2386.2434774376
 30
0.0
 40
3.5
100
AcDbArc
 50
90.0
 51
270.0
  0
LINE
  5
B8
330
1F
100
AcDbEntity
  8
0
  6
Continuous
 62
     7
370
    25
100
AcDbLine
 10
2513.5179413004
 20
2382.7434774376
 30
0.0
 11
2495.5179413004
 21
2382.7434774376
 31
0.0
  0
ARC
  5
B9
330
1F
100
AcDbEntity
  8
0
  6
Continuous
 62
     7
370
    25
100
AcDbCircle
 10
2513.5179413004
 20
2386.2434774376
 30
0.0
 40
3.5
100
AcDbArc
 50
270.0
 51
90.0
  0
LINE
  5
BA
330
1F
100
AcDbEntity
  8
0
  6
Continuous
 62
     7
370
    25
100
AcDbLine
 10
2495.5179413004
 20
2389.7434774376
 30
0.0
 11
2513.5179413004
 21
2389.7434774376
 31
0.0
  0
ARC
  5
BB
330
1F
100
AcDbEntity
  8
0
  6
Continuous
 62
     7
370
    25
100
AcDbCircle
 10
2545.5179413004
 20
2261.2434774376
 30
0.0
 40
3.499999999999545
100
AcDbArc
 50
90.0
 51
270.0
  0
LINE
  5
BC
330
1F
100
AcDbEntity
  8
0
  6
Continuous
 62
     7
370
    25
100
AcDbLine
 10
2563.5179413004
 20
2257.7434774376
 30
0.0
 11
2545.5179413004
 21
2257.7434774376
 31
0.0
  0
ARC
  5
BD
330
1F
100
AcDbEntity
  8
0
  6
Continuous
 62
     7
370
    25
100
AcDbCircle
 10
2563.5179413004
 20
2261.2434774376
 30
0.0
 40
3.5
100
AcDbArc
 50
270.0
 51
90.0
  0
LINE
  5
BE
330
1F
100
AcDbEntity
  8
0
  6
Continuous
 62
     7
370
    25
100
AcDbLine
 10
2545.5179413004
 20
2264.7434774376
 30
0.0
 11
2563.5179413004
 21
2264.7434774376
 31
0.0
  0
ARC
  5
BF
330
1F
100
AcDbEntity
  8
0
  6
Continuous
 62
     7
370
    25
100
AcDbCircle
 10
2495.5179413004
 20
2261.2434774376
 30
0.0
 40
3.499999999999545
100
AcDbArc
 50
90.0
 51
270.0
  0
LINE
  5
C0
330
1F
100
AcDbEntity
  8
0
  6
Continuous
 62
     7
370
    25
100
AcDbLine
 10
2513.5179413004
 20
2257.7434774376
 30
0.0
 11
2495.5179413004
 21
2257.7434774376
 31
0.0
  0
ARC
  5
C1
330
1F
100
AcDbEntity
  8
0
  6
Continuous
 62
     7
370
    25
100
AcDbCircle
 10
2513.5179413004
 20
2261.2434774376
 30
0.0
 40
3.5
100
AcDbArc
 50
270.0
 51
90.0
  0
LINE
  5
C2
330
1F
100
AcDbEntity
  8
0
  6
Continuous
 62
     7
370
    25
100
AcDbLine
 10
2495.5179413004
 20
2264.7434774376
 30
0.0
 11
2513.5179413004
 21
2264.7434774376
 31
0.0
  0
ARC
  5
C3
330
1F
100
AcDbEntity
  8
0
  6
Continuous
 62
     7
370
    25
100
AcDbCircle
 10
163.5179413004
 20
2261.2434774376
 30
0.0
 40
3.500000000000455
100
AcDbArc
 50
270.0
 51
90.0
  0
LINE
  5
C4
330
1F
100
AcDbEntity
  8
0
  6
Continuous
 62
     7
370
    25
100
AcDbLine
 10
145.5179413004
 20
2264.7434774376
 30
0.0
 11
163.5179413004
 21
2264.7434774376
 31
0.0
  0
ARC
  5
C5
330
1F
100
AcDbEntity
  8
0
  6
Continuous
 62
     7
370
    25
100
AcDbCircle
 10
145.5179413004
 20
2261.2434774376
 30
0.0
 40
3.500000000000455
100
AcDbArc
 50
90.0
 51
270.0
  0
LINE
  5
C6
330
1F
100
AcDbEntity
  8
0
  6
Continuous
 62
     7
370
    25
100
AcDbLine
 10
163.5179413004
 20
2257.7434774376
 30
0.0
 11
145.5179413004
 21
2257.7434774376
 31
0.0
  0
ARC
  5
C7
330
1F
100
AcDbEntity
  8
0
  6
Continuous
 62
     7
370
    25
100
AcDbCircle
 10
113.5179413004
 20
2386.2434774376
 30
0.0
 40
3.500000000000455
100
AcDbArc
 50
270.0
 51
90.0
  0
LINE
  5
C8
330
1F
100
AcDbEntity
  8
0
  6
Continuous
 62
     7
370
    25
100
AcDbLine
 10
95.5179413004
 20
2389.7434774376
 30
0.0
 11
113.5179413004
 21
2389.7434774376
 31
0.0
  0
ARC
  5
C9
330
1F
100
AcDbEntity
  8
0
  6
Continuous
 62
     7
370
    25
100
AcDbCircle
 10
95.5179413004
 20
2386.2434774376
 30
0.0
 40
3.500000000000455
100
AcDbArc
 50
90.0
 51
270.0
  0
LINE
  5
CA
330
1F
100
AcDbEntity
  8
0
  6
Continuous
 62
     7
370
    25
100
AcDbLine
 10
113.5179413004
 20
2382.7434774376
 30
0.0
 11
95.5179413004
 21
2382.7434774376
 31
0.0
  0
ARC
  5
CB
330
1F
100
AcDbEntity
  8
0
  6
Continuous
 62
     7
370
    25
100
AcDbCircle
 10
163.5179413004
 20
2386.2434774376
 30
0.0
 40
3.500000000000455
100
AcDbArc
 50
270.0
 51
90.0
  0
LINE
  5
CC
330
1F
100
AcDbEntity
  8
0
  6
Continuous
 62
     7
370
    25
100
AcDbLine
 10
145.5179413004
 20
2389.7434774376
 30
0.0
 11
163.5179413004
 21
2389.7434774376
 31
0.0
  0
ARC
  5
CD
330
1F
100
AcDbEntity
  8
0
  6
Continuous
 62
     7
370
    25
100
AcDbCircle
 10
145.5179413004
 20
2386.2434774376
 30
0.0
 40
3.500000000000455
100
AcDbArc
 50
90.0
 51
270.0
  0
LINE
  5
CE
330
1F
100
AcDbEntity
  8
0
  6
Continuous
 62
     7
370
    25
100
AcDbLine
 10
163.5179413004
 20
2382.7434774376
 30
0.0
 11
145.5179413004
 21
2382.7434774376
 31
0.0
  0
ARC
  5
CF
330
1F
100
AcDbEntity
  8
0
  6
Continuous
 62
     7
370
    25
100
AcDbCircle
 10
2545.5179413004
 20
2386.2434774376
 30
0.0
 40
3.5
100
AcDbArc
 50
90.0
 51
270.0
  0
LINE
  5
D0
330
1F
100
AcDbEntity
  8
0
  6
Continuous
 62
     7
370
    25
100
AcDbLine
 10
2563.5179413004
 20
2382.7434774376
 30
0.0
 11
2545.5179413004
 21
2382.7434774376
 31
0.0
  0
ARC
  5
D1
330
1F
100
AcDbEntity
  8
0
  6
Continuous
 62
     7
370
    25
100
AcDbCircle
 10
2563.5179413004
 20
2386.2434774376
 30
0.0
 40
3.499999999999545
100
AcDbArc
 50
270.0
 51
90.0
  0
LINE
  5
D2
330
1F
100
AcDbEntity
  8
0
  6
Continuous
 62
     7
370
    25
100
AcDbLine
 10
2545.5179413004
 20
2389.7434774376
 30
0.0
 11
2563.5179413004
 21
2389.7434774376
 31
0.0
  0
LINE
  5
D3
330
1F
100
AcDbEntity
  8
0
  6
Continuous
 62
     7
370
    25
100
AcDbLine
 10
79.5179413004
 20
2248.7434774376
 30
0.0
 11
79.5179413004
 21
2251.2434774376
 31
0.0
  0
LINE
  5
D4
330
1F
100
AcDbEntity
  8
0
  6
Continuous
 62
     7
370
    25
100
AcDbLine
 10
2579.5179413004
 20
2248.7434774376
 30
0.0
 11
2579.5179413004
 21
2251.2434774376
 31
0.0
  0
LINE
  5
D5
330
1F
100
AcDbEntity
  8
0
  6
Continuous
 62
     7
370
    25
100
AcDbLine
 10
2565.3207169381
 20
2258.2434774376
 30
0.0
 11
2543.7151656626
 21
2258.2434774376
 31
0.0
  0
LINE
  5
D6
330
1F
100
AcDbEntity
  8
0
  6
Continuous
 62
     7
370
    25
100
AcDbLine
 10
2515.3207169381
 20
2258.2434774376
 30
0.0
 11
2493.7151656626
 21
2258.2434774376
 31
0.0
  0
LINE
  5
D7
330
1F
100
AcDbEntity
  8
0
  6
Continuous
 62
     7
370
    25
100
AcDbLine
 10
165.3207169381
 20
2258.2434774376
 30
0.0
 11
143.7151656626
 21
2258.2434774376
 31
0.0
  0
LINE
  5
D8
330
1F
100
AcDbEntity
  8
0
  6
Continuous
 62
     7
370
    25
100
AcDbLine
 10
115.3207169381
 20
2258.2434774376
 30
0.0
 11
93.7151656626
 21
2258.2434774376
 31
0.0
  0
LINE
  5
D9
330
1F
100
AcDbEntity
  8
0
  6
Continuous
 62
     7
370
    25
100
AcDbLine
 10
2565.3207169381
 20
2389.2434774376
 30
0.0
 11
2543.7151656626
 21
2389.2434774376
 31
0.0
  0
LINE
  5
DA
330
1F
100
AcDbEntity
  8
0
  6
Continuous
 62
     7
370
    25
100
AcDbLine
 10
2515.3207169381
 20
2389.2434774376
 30
0.0
 11
2493.7151656626
 21
2389.2434774376
 31
0.0
  0
LINE
  5
DB
330
1F
100
AcDbEntity
  8
0
  6
Continuous
 62
     7
370
    25
100
AcDbLine
 10
165.3207169381
 20
2389.2434774376
 30
0.0
 11
143.7151656626
 21
2389.2434774376
 31
0.0
  0
LINE
  5
DC
330
1F
100
AcDbEntity
  8
0
  6
Continuous
 62
     7
370
    25
100
AcDbLine
 10
115.3207169381
 20
2389.2434774376
 30
0.0
 11
93.7151656626
 21
2389.2434774376
 31
0.0
  0
LINE
  5
DD
330
1F
100
AcDbEntity
  8
0
  6
Continuous
 62
     7
370
    25
100
AcDbLine
 10
2988.8214942023
 20
1704.5963884577
 30
0.0
 11
2991.3214942023
 21
1704.5963884577
 31
0.0
  0
LINE
  5
DE
330
1F
100
AcDbEntity
  8
0
  6
Continuous
 62
     7
370
    25
100
AcDbLine
 10
2988.8214942023
 20
1707.0963884577
 30
0.0
 11
2988.8214942023
 21
1704.5963884577
 31
0.0
  0
LINE
  5
DF
330
1F
100
AcDbEntity
  8
0
  6
Continuous
 62
     7
370
    25
100
AcDbLine
 10
2990.3214942023
 20
1707.0963884577
 30
0.0
 11
2990.3214942023
 21
1706.0963884577
 31
0.0
  0
LINE
  5
E0
330
1F
100
AcDbEntity
  8
0
  6
Continuous
 62
     7
370
    25
100
AcDbLine
 10
2990.3214942023
 20
1706.0963884577
 30
0.0
 11
2991.3214942023
 21
1706.0963884577
 31
0.0
  0
LINE
  5
E1
330
1F
100
AcDbEntity
  8
0
  6
Continuous
 62
     7
370
    25
100
AcDbLine
 10
2990.3214942023
 20
1707.0963884577
 30
0.0
 11
2990.3214942023
 21
1739.5963884577
 31
0.0
  0
LINE
  5
E2
330
1F
100
AcDbEntity
  8
0
  6
Continuous
 62
     7
370
    25
100
AcDbLine
 10
2988.8214942023
 20
1707.0963884577
 30
0.0
 11
2988.8214942023
 21
1739.5963884577
 31
0.0
  0
LINE
  5
E3
330
1F
100
AcDbEntity
  8
0
  6
Continuous
 62
     7
370
    25
100
AcDbLine
 10
3138.8214942023
 20
1740.7621576031
 30
0.0
 11
3137.9284632265
 21
1741.5114995655
 31
0.0
  0
LINE
  5
E4
330
1F
100
AcDbEntity
  8
0
  6
Continuous
 62
     7
370
    25
100
AcDbLine
 10
3138.8214942023
 20
1739.5963884577
 30
0.0
 11
3138.8214942023
 21
1740.7621576031
 31
0.0
  0
LINE
  5
E5
330
1F
100
AcDbEntity
  8
0
  6
Continuous
 62
     7
370
    25
100
AcDbLine
 10
3137.3214942023
 20
1739.5963884577
 30
0.0
 11
3137.3214942023
 21
1740.0626961158
 31
0.0
  0
LINE
  5
E6
330
1F
100
AcDbEntity
  8
0
  6
Continuous
 62
     7
370
    25
100
AcDbLine
 10
3137.3214942023
 20
1740.0626961158
 30
0.0
 11
3136.964281812
 21
1740.3624329008
 31
0.0
  0
LINE
  5
E7
330
1F
100
AcDbEntity
  8
0
  6
Continuous
 62
     7
370
    25
100
AcDbLine
 10
3138.8214942023
 20
1704.5963884577
 30
0.0
 11
3138.8214942023
 21
1707.0963884577
 31
0.0
  0
LINE
  5
E8
330
1F
100
AcDbEntity
  8
0
  6
Continuous
 62
     7
370
    25
100
AcDbLine
 10
3136.3214942023
 20
1704.5963884577
 30
0.0
 11
3138.8214942023
 21
1704.5963884577
 31
0.0
  0
LINE
  5
E9
330
1F
100
AcDbEntity
  8
0
  6
Continuous
 62
     7
370
    25
100
AcDbLine
 10
3136.3214942023
 20
1706.0963884577
 30
0.0
 11
3137.3214942023
 21
1706.0963884577
 31
0.0
  0
LINE
  5
EA
330
1F
100
AcDbEntity
  8
0
  6
Continuous
 62
     7
370
    25
100
AcDbLine
 10
3137.3214942023
 20
1706.0963884577
 30
0.0
 11
3137.3214942023
 21
1707.0963884577
 31
0.0
  0
LINE
  5
EB
330
1F
100
AcDbEntity
  8
0
  6
Continuous
 62
     7
370
    25
100
AcDbLine
 10
3136.3214942023
 20
1706.0963884577
 30
0.0
 11
2991.3214942023
 21
1706.0963884577
 31
0.0
  0
LINE
  5
EC
330
1F
100
AcDbEntity
  8
0
  6
Continuous
 62
     7
370
    25
100
AcDbLine
 10
3136.3214942023
 20
1704.5963884577
 30
0.0
 11
2991.3214942023
 21
1704.5963884577
 31
0.0
  0
LINE
  5
ED
330
1F
100
AcDbEntity
  8
0
  6
Continuous
 62
     7
370
    25
100
AcDbLine
 10
3138.8214942023
 20
1739.5963884577
 30
0.0
 11
3138.8214942023
 21
1707.0963884577
 31
0.0
  0
LINE
  5
EE
330
1F
100
AcDbEntity
  8
0
  6
Continuous
 62
     7
370
    25
100
AcDbLine
 10
3137.3214942023
 20
1739.5963884577
 30
0.0
 11
3137.3214942023
 21
1707.0963884577
 31
0.0
  0
LINE
  5
EF
330
1F
100
AcDbEntity
  8
0
  6
Continuous
 62
     7
370
    25
100
AcDbLine
 10
2989.3214942023
 20
1749.8720667365
 30
0.0
 11
2993.6006608186
 21
1744.7723545482
 31
0.0
  0
LINE
  5
F0
330
1F
100
AcDbEntity
  8
0
  6
Continuous
 62
     7
370
    25
100
AcDbLine
 10
2994.9115686166
 20
1754.5626961158
 30
0.0
 11
2989.3214942023
 21
1749.8720667365
 31
0.0
  0
LINE
  5
F1
330
1F
100
AcDbEntity
  8
0
  6
Continuous
 62
     7
370
    25
100
AcDbLine
 10
2998.3214942023
 20
1754.5626961158
 30
0.0
 11
2994.9115686166
 21
1754.5626961158
 31
0.0
  0
LINE
  5
F2
330
1F
100
AcDbEntity
  8
0
  6
Continuous
 62
     7
370
    25
100
AcDbLine
 10
2998.3214942023
 20
1746.7754931653
 30
0.0
 11
2998.3214942023
 21
1754.5626961158
 31
0.0
  0
LINE
  5
F3
330
1F
100
AcDbEntity
  8
0
  6
Continuous
 62
     7
370
    25
100
AcDbLine
 10
2998.3214942023
 20
1746.7754931653
 30
0.0
 11
2990.6787065926
 21
1740.3624329008
 31
0.0
  0
LINE
  5
F4
330
1F
100
AcDbEntity
  8
0
  6
Continuous
 62
     7
370
    25
100
AcDbLine
 10
2993.6006608186
 20
1744.7723545482
 30
0.0
 11
2989.7145251781
 21
1741.5114995655
 31
0.0
  0
LINE
  5
F5
330
1F
100
AcDbEntity
  8
0
  6
Continuous
 62
     7
370
    25
100
AcDbLine
 10
3132.731419788
 20
1754.5626961158
 30
0.0
 11
3129.3214942023
 21
1754.5626961158
 31
0.0
  0
LINE
  5
F6
330
1F
100
AcDbEntity
  8
0
  6
Continuous
 62
     7
370
    25
100
AcDbLine
 10
3132.731419788
 20
1754.5626961158
 30
0.0
 11
3138.3214942023
 21
1749.8720667365
 31
0.0
  0
LINE
  5
F7
330
1F
100
AcDbEntity
  8
0
  6
Continuous
 62
     7
370
    25
100
AcDbLine
 10
3138.3214942023
 20
1749.8720667365
 30
0.0
 11
3134.042327586
 21
1744.7723545482
 31
0.0
  0
LINE
  5
F8
330
1F
100
AcDbEntity
  8
0
  6
Continuous
 62
     7
370
    25
100
AcDbLine
 10
3134.042327586
 20
1744.7723545482
 30
0.0
 11
3137.9284632265
 21
1741.5114995655
 31
0.0
  0
LINE
  5
F9
330
1F
100
AcDbEntity
  8
0
  6
Continuous
 62
     7
370
    25
100
AcDbLine
 10
3129.3214942023
 20
1746.7754931653
 30
0.0
 11
3129.3214942023
 21
1754.5626961158
 31
0.0
  0
LINE
  5
FA
330
1F
100
AcDbEntity
  8
0
  6
Continuous
 62
     7
370
    25
100
AcDbLine
 10
3129.3214942023
 20
1746.7754931653
 30
0.0
 11
3136.964281812
 21
1740.3624329008
 31
0.0
  0
LINE
  5
FB
330
1F
100
AcDbEntity
  8
0
  6
Continuous
 62
     7
370
    25
100
AcDbLine
 10
2990.6787065926
 20
1740.3624329008
 30
0.0
 11
2990.3214942023
 21
1740.0626961158
 31
0.0
  0
LINE
  5
FC
330
1F
100
AcDbEntity
  8
0
  6
Continuous
 62
     7
370
    25
100
AcDbLine
 10
2988.8214942023
 20
1740.7621576031
 30
0.0
 11
2988.8214942023
 21
1739.5963884577
 31
0.0
  0
LINE
  5
FD
330
1F
100
AcDbEntity
  8
0
  6
Continuous
 62
     7
370
    25
100
AcDbLine
 10
2990.3214942023
 20
1740.0626961158
 30
0.0
 11
2990.3214942023
 21
1739.5963884577
 31
0.0
  0
LINE
  5
FE
330
1F
100
AcDbEntity
  8
0
  6
Continuous
 62
     7
370
    25
100
AcDbLine
 10
2989.7145251781
 20
1741.5114995655
 30
0.0
 11
2988.8214942023
 21
1740.7621576031
 31
0.0
  0
LINE
  5
FF
330
1F
100
AcDbEntity
  8
0
  6
Continuous
 62
     7
370
    25
100
AcDbLine
 10
1197.4507774298
 20
272.0296613192
 30
0.0
 11
1202.8550443757
 21
263.6733189834
 31
0.0
  0
LINE
  5
100
330
1F
100
AcDbEntity
  8
0
  6
Continuous
 62
     7
370
    25
100
AcDbLine
 10
1197.4507774298
 20
272.0296613192
 30
0.0
 11
1197.4507774298
 21
278.3882303388
 31
0.0
  0
LINE
  5
101
330
1F
100
AcDbEntity
  8
0
  6
Continuous
 62
     7
370
    25
100
AcDbLine
 10
1199.8619589347
 20
276.9962848843
 30
0.0
 11
1197.4507774298
 21
278.3882303388
 31
0.0
  0
LINE
  5
102
330
1F
100
AcDbEntity
  8
0
  6
Continuous
 62
     7
370
    25
100
AcDbLine
 10
1199.8619589347
 20
276.9962848843
 30
0.0
 11
1203.8147384604
 21
270.8843035139
 31
0.0
  0
LINE
  5
103
330
1F
100
AcDbEntity
  8
0
  6
Continuous
 62
     7
370
    25
100
AcDbLine
 10
1203.8147384604
 20
270.8843035139
 30
0.0
 11
1200.7889107282
 21
268.466953552
 31
0.0
  0
LINE
  5
104
330
1F
100
AcDbEntity
  8
0
  6
Continuous
 62
     7
370
    25
100
AcDbLine
 10
1200.7889107282
 20
268.466953552
 30
0.0
 11
1203.5368235923
 21
264.2179960467
 31
0.0
  0
LINE
  5
105
330
1F
100
AcDbEntity
  8
0
  6
Continuous
 62
     7
370
    25
100
AcDbLine
 10
2967.6289119011
 20
1297.5064246627
 30
0.0
 11
1199.8619589347
 21
276.9962848843
 31
0.0
  0
LINE
  5
106
330
1F
100
AcDbEntity
  8
0
  6
Continuous
 62
     7
370
    25
100
AcDbLine
 10
2971.5816914268
 20
1291.3944432923
 30
0.0
 11
2967.6289119011
 21
1297.5064246627
 31
0.0
  0
LINE
  5
107
330
1F
100
AcDbEntity
  8
0
  6
Continuous
 62
     7
370
    25
100
AcDbLine
 10
1203.8147384604
 20
270.8843035139
 30
0.0
 11
2971.5816914268
 21
1291.3944432923
 31
0.0
  0
LINE
  5
108
330
1F
100
AcDbEntity
  8
0
  6
Continuous
 62
     7
370
    25
100
AcDbLine
 10
2971.5816914268
 20
1291.3944432923
 30
0.0
 11
2968.5558636946
 21
1288.9770933304
 31
0.0
  0
LINE
  5
109
330
1F
100
AcDbEntity
  8
0
  6
Continuous
 62
     7
370
    25
100
AcDbLine
 10
1200.7889107282
 20
268.466953552
 30
0.0
 11
2968.5558636946
 21
1288.9770933304
 31
0.0
  0
LINE
  5
10A
330
1F
100
AcDbEntity
  8
0
  6
Continuous
 62
     7
370
    25
100
AcDbLine
 10
2967.6289119011
 20
1297.5064246627
 30
0.0
 11
2965.2177303961
 21
1298.8983701172
 31
0.0
  0
LINE
  5
10B
330
1F
100
AcDbEntity
  8
0
  6
Continuous
 62
     7
370
    25
100
AcDbLine
 10
2965.2177303961
 20
1298.8983701172
 30
0.0
 11
1197.4507774298
 21
278.3882303388
 31
0.0
  0
LINE
  5
10C
330
1F
100
AcDbEntity
  8
0
  6
Continuous
 62
     7
370
    25
100
AcDbLine
 10
2971.3037765586
 20
1284.7281358251
 30
0.0
 11
2968.5558636946
 21
1288.9770933304
 31
0.0
  0
LINE
  5
10D
330
1F
100
AcDbEntity
  8
0
  6
Continuous
 62
     7
370
    25
100
AcDbLine
 10
2971.9352448174
 20
1283.7517286643
 30
0.0
 11
2971.3037765586
 21
1284.7281358251
 31
0.0
  0
LINE
  5
10E
330
1F
100
AcDbEntity
  8
0
  6
Continuous
 62
     7
370
    25
100
AcDbLine
 10
2971.9352448174
 20
1283.7517286643
 30
0.0
 11
1204.168291851
 21
263.2415888859
 31
0.0
  0
LINE
  5
10F
330
1F
100
AcDbEntity
  8
0
  6
Continuous
 62
     7
370
    25
100
AcDbLine
 10
1204.168291851
 20
263.2415888859
 30
0.0
 11
1203.5368235923
 21
264.2179960467
 31
0.0
  0
LINE
  5
110
330
1F
100
AcDbEntity
  8
0
  6
Continuous
 62
     7
370
    25
100
AcDbLine
 10
1204.168291851
 20
262.2896908015
 30
0.0
 11
1204.168291851
 21
263.2415888859
 31
0.0
  0
LINE
  5
111
330
1F
100
AcDbEntity
  8
0
  6
Continuous
 62
     7
370
    25
100
AcDbLine
 10
1203.1076316793
 20
262.9019968854
 30
0.0
 11
1203.1076316793
 21
263.2827561191
 31
0.0
  0
LINE
  5
112
330
1F
100
AcDbEntity
  8
0
  6
Continuous
 62
     7
370
    25
100
AcDbLine
 10
1203.1076316793
 20
263.2827561191
 30
0.0
 11
1202.8550443757
 21
263.6733189834
 31
0.0
  0
LINE
  5
113
330
1F
100
AcDbEntity
  8
0
  6
Continuous
 62
     7
370
    25
100
AcDbLine
 10
2971.9352448174
 20
1282.7998305799
 30
0.0
 11
2971.9352448174
 21
1283.7517286643
 31
0.0
  0
LINE
  5
114
330
1F
100
AcDbEntity
  8
0
  6
Continuous
 62
     7
370
    25
100
AcDbLine
 10
2971.9352448174
 20
1282.7998305799
 30
0.0
 11
2971.9352448174
 21
1256.2622541936
 31
0.0
  0
LINE
  5
115
330
1F
100
AcDbEntity
  8
0
  6
Continuous
 62
     7
370
    25
100
AcDbLine
 10
2971.9352448174
 20
1254.2209021639
 30
0.0
 11
2971.9352448174
 21
1256.2622541936
 31
0.0
  0
LINE
  5
116
330
1F
100
AcDbEntity
  8
0
  6
Continuous
 62
     7
370
    25
100
AcDbLine
 10
2971.9352448174
 20
1254.2209021639
 30
0.0
 11
1204.168291851
 21
233.7107623855
 31
0.0
  0
LINE
  5
117
330
1F
100
AcDbEntity
  8
0
  6
Continuous
 62
     7
370
    25
100
AcDbLine
 10
1204.168291851
 20
233.7107623855
 30
0.0
 11
1204.168291851
 21
235.7521144152
 31
0.0
  0
LINE
  5
118
330
1F
100
AcDbEntity
  8
0
  6
Continuous
 62
     7
370
    25
100
AcDbLine
 10
1204.168291851
 20
262.2896908015
 30
0.0
 11
1204.168291851
 21
235.7521144152
 31
0.0
  0
LWPOLYLINE
  5
119
330
1F
100
AcDbEntity
  8
0
  6
Continuous
 62
     7
370
    25
100
AcDbPolyline
 90
       10
 70
   128
 43
0.0
 10
1263.5652614707
 20
279.8397448544
 10
1264.41171814
 20
280.5007459157
 10
1265.1560796426
 20
281.4267245484
 10
1265.7085649956
 20
282.5059940634
 10
1266.0025363118
 20
283.6083786288
 10
1266.0025363118
 20
284.6009143967
 10
1265.7085649956
 20
285.363886905
 10
1265.1560796426
 20
285.8052704091
 10
1264.41171814
 20
285.8718275442
 10
1263.5652614707
 20
285.5555305376
  0
LINE
  5
11A
330
1F
100
AcDbEntity
  8
0
  6
Continuous
 62
     7
370
    25
100
AcDbLine
 10
1263.5652614707
 20
285.5555305376
 30
0.0
 11
1250.8373394094
 21
278.2078575312
 31
0.0
  0
LWPOLYLINE
  5
11B
330
1F
100
AcDbEntity
  8
0
  6
Continuous
 62
     7
370
    25
100
AcDbPolyline
 90
       10
 70
   128
 43
0.0
 10
1250.8373394094
 20
278.2078575312
 10
1249.9908827401
 20
277.5468564699
 10
1249.2465212375
 20
276.6208778371
 10
1248.6940358844
 20
275.5416083222
 10
1248.4000645682
 20
274.4392237567
 10
1248.4000645682
 20
273.4466879889
 10
1248.6940358844
 20
272.6837154806
 10
1249.2465212375
 20
272.2423319765
 10
1249.9908827401
 20
272.1757748414
 10
1250.8373394094
 20
272.492071848
  0
LINE
  5
11C
330
1F
100
AcDbEntity
  8
0
  6
Continuous
 62
     7
370
    25
100
AcDbLine
 10
1250.8373394094
 20
272.492071848
 30
0.0
 11
1263.5652614707
 21
279.8397448544
 31
0.0
  0
LWPOLYLINE
  5
11D
330
1F
100
AcDbEntity
  8
0
  6
Continuous
 62
     7
370
    25
100
AcDbPolyline
 90
       10
 70
   128
 43
0.0
 10
2947.8936142571
 20
1257.8975917184
 10
2947.0471575878
 20
1257.2365906571
 10
2946.3027960852
 20
1256.3106120244
 10
2945.7503107321
 20
1255.2313425094
 10
2945.4563394159
 20
1254.128957944
 10
2945.4563394159
 20
1253.1364221762
 10
2945.7503107321
 20
1252.3734496678
 10
2946.3027960852
 20
1251.9320661637
 10
2947.0471575878
 20
1251.8655090286
 10
2947.8936142571
 20
1252.1818060352
  0
LINE
  5
11E
330
1F
100
AcDbEntity
  8
0
  6
Continuous
 62
     7
370
    25
100
AcDbLine
 10
2947.8936142571
 20
1252.1818060352
 30
0.0
 11
2960.6215363184
 21
1259.5294790416
 31
0.0
  0
LWPOLYLINE
  5
11F
330
1F
100
AcDbEntity
  8
0
  6
Continuous
 62
     7
370
    25
100
AcDbPolyline
 90
       10
 70
   128
 43
0.0
 10
2960.6215363184
 20
1259.5294790416
 10
2961.4679929877
 20
1260.190480103
 10
2962.2123544903
 20
1261.1164587357
 10
2962.7648398434
 20
1262.1957282507
 10
2963.0588111595
 20
1263.2981128161
 10
2963.0588111595
 20
1264.2906485839
 10
2962.7648398434
 20
1265.0536210923
 10
2962.2123544903
 20
1265.4950045963
 10
2961.4679929877
 20
1265.5615617315
 10
2960.6215363184
 20
1265.2452647248
  0
LINE
  5
120
330
1F
100
AcDbEntity
  8
0
  6
Continuous
 62
     7
370
    25
100
AcDbLine
 10
2960.6215363184
 20
1265.2452647248
 30
0.0
 11
2947.8936142571
 21
1257.8975917184
 31
0.0
  0
LWPOLYLINE
  5
121
330
1F
100
AcDbEntity
  8
0
  6
Continuous
 62
     7
370
    25
100
AcDbPolyline
 90
       10
 70
   128
 43
0.0
 10
2912.5382751977
 20
1237.4873889229
 10
2911.6918185285
 20
1236.8263878615
 10
2910.9474570259
 20
1235.9004092288
 10
2910.3949716728
 20
1234.8211397139
 10
2910.1010003566
 20
1233.7187551484
 10
2910.1010003566
 20
1232.7262193806
 10
2910.3949716728
 20
1231.9632468723
 10
2910.9474570259
 20
1231.5218633682
 10
2911.6918185285
 20
1231.455306233
 10
2912.5382751977
 20
1231.7716032397
  0
LINE
  5
122
330
1F
100
AcDbEntity
  8
0
  6
Continuous
 62
     7
370
    25
100
AcDbLine
 10
2912.5382751977
 20
1231.7716032397
 30
0.0
 11
2925.2661972591
 21
1239.1192762461
 31
0.0
  0
LWPOLYLINE
  5
123
330
1F
100
AcDbEntity
  8
0
  6
Continuous
 62
     7
370
    25
100
AcDbPolyline
 90
       10
 70
   128
 43
0.0
 10
2925.2661972591
 20
1239.1192762461
 10
2926.1126539284
 20
1239.7802773074
 10
2926.857015431
 20
1240.7062559401
 10
2927.409500784
 20
1241.7855254551
 10
2927.7034721002
 20
1242.8879100205
 10
2927.7034721002
 20
1243.8804457883
 10
2927.409500784
 20
1244.6434182967
 10
2926.857015431
 20
1245.0848018008
 10
2926.1126539284
 20
1245.1513589359
 10
2925.2661972591
 20
1244.8350619293
  0
LINE
  5
124
330
1F
100
AcDbEntity
  8
0
  6
Continuous
 62
     7
370
    25
100
AcDbLine
 10
2925.2661972591
 20
1244.8350619293
 30
0.0
 11
2912.5382751977
 21
1237.4873889229
 31
0.0
  0
LWPOLYLINE
  5
125
330
1F
100
AcDbEntity
  8
0
  6
Continuous
 62
     7
370
    25
100
AcDbPolyline
 90
       10
 70
   128
 43
0.0
 10
1228.2099224114
 20
259.4295420588
 10
1229.0563790806
 20
260.0905431202
 10
1229.8007405832
 20
261.0165217529
 10
1230.3532259363
 20
262.0957912678
 10
1230.6471972525
 20
263.1981758333
 10
1230.6471972525
 20
264.1907116011
 10
1230.3532259363
 20
264.9536841094
 10
1229.8007405832
 20
265.3950676135
 10
1229.0563790807
 20
265.4616247487
 10
1228.2099224114
 20
265.145327742
  0
LINE
  5
126
330
1F
100
AcDbEntity
  8
0
  6
Continuous
 62
     7
370
    25
100
AcDbLine
 10
1228.2099224114
 20
265.145327742
 30
0.0
 11
1215.48200035
 21
257.7976547356
 31
0.0
  0
LWPOLYLINE
  5
127
330
1F
100
AcDbEntity
  8
0
  6
Continuous
 62
     7
370
    25
100
AcDbPolyline
 90
       10
 70
   128
 43
0.0
 10
1215.48200035
 20
257.7976547356
 10
1214.6355436808
 20
257.1366536743
 10
1213.8911821782
 20
256.2106750416
 10
1213.3386968251
 20
255.1314055266
 10
1213.0447255089
 20
254.0290209612
 10
1213.0447255089
 20
253.0364851934
 10
1213.3386968251
 20
252.273512685
 10
1213.8911821782
 20
251.8321291809
 10
1214.6355436808
 20
251.7655720458
 10
1215.48200035
 20
252.0818690524
  0
LINE
  5
128
330
1F
100
AcDbEntity
  8
0
  6
Continuous
 62
     7
370
    25
100
AcDbLine
 10
1215.48200035
 20
252.0818690524
 30
0.0
 11
1228.2099224114
 21
259.4295420588
 31
0.0
  0
LINE
  5
129
330
1F
100
AcDbEntity
  8
0
  6
Continuous
 62
     7
370
    25
100
AcDbLine
 10
1203.1076316793
 20
262.9019968854
 30
0.0
 11
1203.1076316793
 21
236.3644204991
 31
0.0
  0
LWPOLYLINE
  5
12A
330
1F
100
AcDbEntity
  8
0
  6
Continuous
 62
     7
370
    25
100
AcDbPolyline
 90
        3
 70
   128
 43
0.0
 10
1214.4213401782
 20
252.6941751363
 10
1213.574883509
 20
252.3778781297
 10
1213.284084085
 20
252.3572579557
  0
LINE
  5
12B
330
1F
100
AcDbEntity
  8
0
  6
Continuous
 62
     7
370
    25
100
AcDbLine
 10
1202.4005248981
 20
234.7312725253
 30
0.0
 11
1204.168291851
 21
233.7107623855
 31
0.0
  0
LINE
  5
12C
330
1F
100
AcDbEntity
  8
0
  6
Continuous
 62
     7
370
    25
100
AcDbLine
 10
1202.4005248981
 20
235.9560837431
 30
0.0
 11
1203.1076316793
 21
235.5478796872
 31
0.0
  0
LINE
  5
12D
330
1F
100
AcDbEntity
  8
0
  6
Continuous
 62
     7
370
    25
100
AcDbLine
 10
1203.1076316793
 20
235.5478796872
 30
0.0
 11
1203.1076316793
 21
236.3644204991
 31
0.0
  0
LINE
  5
12E
330
1F
100
AcDbEntity
  8
0
  6
Continuous
 62
     7
370
    25
100
AcDbLine
 10
1099.1629348448
 20
295.5538759062
 30
0.0
 11
1099.870041626
 21
295.1456718502
 31
0.0
  0
LINE
  5
12F
330
1F
100
AcDbEntity
  8
0
  6
Continuous
 62
     7
370
    25
100
AcDbLine
 10
2866.9298878112
 20
1316.0640156845
 30
0.0
 11
1099.1629348448
 21
295.5538759062
 31
0.0
  0
LINE
  5
130
330
1F
100
AcDbEntity
  8
0
  6
Continuous
 62
     7
370
    25
100
AcDbLine
 10
2866.9298878112
 20
1316.0640156845
 30
0.0
 11
2867.6369945924
 21
1315.6558116286
 31
0.0
  0
LINE
  5
131
330
1F
100
AcDbEntity
  8
0
  6
Continuous
 62
     7
370
    25
100
AcDbLine
 10
2961.1242750741
 20
1261.6867533703
 30
0.0
 11
2957.7908105121
 21
1263.6111215006
 31
0.0
  0
LINE
  5
132
330
1F
100
AcDbEntity
  8
0
  6
Continuous
 62
     7
370
    25
100
AcDbLine
 10
2930.9413051616
 20
1279.111011015
 30
0.0
 11
2867.6369945924
 21
1315.6558116286
 31
0.0
  0
LINE
  5
133
330
1F
100
AcDbEntity
  8
0
  6
Continuous
 62
     7
370
    25
100
AcDbLine
 10
1202.4005248981
 20
235.9560837431
 30
0.0
 11
1099.870041626
 21
295.1456718502
 31
0.0
  0
ARC
  5
134
330
1F
100
AcDbEntity
  8
0
  6
Continuous
 62
     7
370
    25
100
AcDbCircle
 10
2900.6723869444
 20
1279.1215486246
 30
0.0
 40
0.4366153168339614
100
AcDbArc
 50
110.7834207993
 51
249.2165792007
  0
LINE
  5
135
330
1F
100
AcDbEntity
  8
0
  6
Continuous
 62
     7
370
    25
100
AcDbLine
 10
2900.5174599176
 20
1278.7133445687
 30
0.0
 11
2906.1743141671
 21
1275.4477121214
 31
0.0
  0
ARC
  5
136
330
1F
100
AcDbEntity
  8
0
  6
Continuous
 62
     7
370
    25
100
AcDbCircle
 10
2906.8814209482
 20
1276.8124232063
 30
0.0
 40
1.537021907911218
100
AcDbArc
 50
242.6096722366
 51
297.3903277634
  0
LINE
  5
137
330
1F
100
AcDbEntity
  8
0
  6
Continuous
 62
     7
370
    25
100
AcDbLine
 10
2907.5885277294
 20
1275.4477121214
 30
0.0
 11
2911.1240616354
 21
1277.4887324009
 31
0.0
  0
ARC
  5
138
330
1F
100
AcDbEntity
  8
0
  6
Continuous
 62
     7
370
    25
100
AcDbCircle
 10
2910.9691346086
 20
1277.8969364568
 30
0.0
 40
0.4366153168346581
100
AcDbArc
 50
290.7834207995
 51
69.2165792005
  0
LINE
  5
139
330
1F
100
AcDbEntity
  8
0
  6
Continuous
 62
     7
370
    25
100
AcDbLine
 10
2911.1240616354
 20
1278.3051405127
 30
0.0
 11
2905.4672073859
 21
1281.57077296
 31
0.0
  0
ARC
  5
13A
330
1F
100
AcDbEntity
  8
0
  6
Continuous
 62
     7
370
    25
100
AcDbCircle
 10
2904.7601006047
 20
1280.2060618751
 30
0.0
 40
1.537021907914254
100
AcDbArc
 50
62.6096722366
 51
117.3903277634
  0
LINE
  5
13B
330
1F
100
AcDbEntity
  8
0
  6
Continuous
 62
     7
370
    25
100
AcDbLine
 10
2904.0529938235
 20
1281.57077296
 30
0.0
 11
2900.5174599176
 21
1279.5297526805
 31
0.0
  0
ARC
  5
13C
330
1F
100
AcDbEntity
  8
0
  6
Continuous
 62
     7
370
    25
100
AcDbCircle
 10
1159.0683848819
 20
273.7149589149
 30
0.0
 40
0.4366153168342585
100
AcDbArc
 50
110.7834207995
 51
249.2165792005
  0
LINE
  5
13D
330
1F
100
AcDbEntity
  8
0
  6
Continuous
 62
     7
370
    25
100
AcDbLine
 10
1158.9134578551
 20
273.306754859
 30
0.0
 11
1164.5703121046
 21
270.0411224117
 31
0.0
  0
ARC
  5
13E
330
1F
100
AcDbEntity
  8
0
  6
Continuous
 62
     7
370
    25
100
AcDbCircle
 10
1165.2774188858
 20
271.4058334967
 30
0.0
 40
1.537021907912278
100
AcDbArc
 50
242.6096722366
 51
297.3903277634
  0
LINE
  5
13F
330
1F
100
AcDbEntity
  8
0
  6
Continuous
 62
     7
370
    25
100
AcDbLine
 10
1165.984525667
 20
270.0411224117
 30
0.0
 11
1169.5200595729
 21
272.0821426913
 31
0.0
  0
ARC
  5
140
330
1F
100
AcDbEntity
  8
0
  6
Continuous
 62
     7
370
    25
100
AcDbCircle
 10
1169.3651325461
 20
272.4903467472
 30
0.0
 40
0.4366153168343392
100
AcDbArc
 50
290.7834207995
 51
69.2165792005
  0
LINE
  5
141
330
1F
100
AcDbEntity
  8
0
  6
Continuous
 62
     7
370
    25
100
AcDbLine
 10
1169.5200595729
 20
272.8985508031
 30
0.0
 11
1163.8632053234
 21
276.1641832504
 31
0.0
  0
ARC
  5
142
330
1F
100
AcDbEntity
  8
0
  6
Continuous
 62
     7
370
    25
100
AcDbCircle
 10
1163.1560985422
 20
274.7994721654
 30
0.0
 40
1.537021907911214
100
AcDbArc
 50
62.6096722366
 51
117.3903277634
  0
LINE
  5
143
330
1F
100
AcDbEntity
  8
0
  6
Continuous
 62
     7
370
    25
100
AcDbLine
 10
1162.448991761
 20
276.1641832504
 30
0.0
 11
1158.9134578551
 21
274.1231629708
 31
0.0
  0
LINE
  5
144
330
1F
100
AcDbEntity
  8
0
  6
Continuous
 62
     7
370
    25
100
AcDbLine
 10
1120.729691671
 20
296.16618199
 30
0.0
 11
1133.4576137324
 21
303.5138549964
 31
0.0
  0
LWPOLYLINE
  5
145
330
1F
100
AcDbEntity
  8
0
  6
Continuous
 62
     7
370
    25
100
AcDbPolyline
 90
       10
 70
   128
 43
0.0
 10
1133.4576137324
 20
303.5138549964
 10
1134.1548172529
 20
304.0886660392
 10
1134.4694214416
 20
304.7664704045
 10
1134.3634803902
 20
305.4655148825
 10
1133.8497721532
 20
306.1014843924
 10
1132.9902575255
 20
306.5976716254
 10
1131.8886066561
 20
306.8942290782
 10
1130.6776948986
 20
306.9553875453
 10
1129.5035760821
 20
306.773770413
 10
1128.5078662641
 20
306.3712833878
  0
LINE
  5
146
330
1F
100
AcDbEntity
  8
0
  6
Continuous
 62
     7
370
    25
100
AcDbLine
 10
1128.5078662641
 20
306.3712833878
 30
0.0
 11
1115.7799442027
 21
299.0236103814
 31
0.0
  0
LWPOLYLINE
  5
147
330
1F
100
AcDbEntity
  8
0
  6
Continuous
 62
     7
370
    25
100
AcDbPolyline
 90
       10
 70
   128
 43
0.0
 10
1115.7799442027
 20
299.0236103814
 10
1115.0827406822
 20
298.4487993386
 10
1114.7681364936
 20
297.7709949734
 10
1114.8740775449
 20
297.0719504953
 10
1115.3877857819
 20
296.4359809854
 10
1116.2473004096
 20
295.9397937525
 10
1117.348951279
 20
295.6432362997
 10
1118.5598630365
 20
295.5820778325
 10
1119.733981853
 20
295.7636949648
 10
1120.729691671
 20
296.16618199
  0
LINE
  5
148
330
1F
100
AcDbEntity
  8
0
  6
Continuous
 62
     7
370
    25
100
AcDbLine
 10
2913.9524887601
 20
1235.0355105861
 30
0.0
 11
2910.0890515452
 21
1232.8051957556
 31
0.0
  0
ARC
  5
149
330
1F
100
AcDbEntity
  8
0
  6
Continuous
 62
     7
370
    25
100
AcDbCircle
 10
2916.4079481949
 20
1230.2948372603
 30
0.0
 40
5.338844876753314
100
AcDbArc
 50
83.1834142245
 51
117.3821616972
  0
LINE
  5
14A
330
1F
100
AcDbEntity
  8
0
  6
Continuous
 62
     7
370
    25
100
AcDbLine
 10
2860.9194801711
 20
1306.4712203706
 30
0.0
 11
2848.1915581098
 21
1299.1235473642
 31
0.0
  0
LWPOLYLINE
  5
14B
330
1F
100
AcDbEntity
  8
0
  6
Continuous
 62
     7
370
    25
100
AcDbPolyline
 90
       10
 70
   128
 43
0.0
 10
2848.1915581098
 20
1299.1235473642
 10
2847.4943545893
 20
1298.5487363215
 10
2847.1797504006
 20
1297.8709319562
 10
2847.2856914519
 20
1297.1718874782
 10
2847.7993996889
 20
1296.5359179683
 10
2848.6589143167
 20
1296.0397307353
 10
2849.7605651861
 20
1295.7431732825
 10
2850.9714769435
 20
1295.6820148153
 10
2852.14559576
 20
1295.8636319476
 10
2853.1413055781
 20
1296.2661189728
  0
LINE
  5
14C
330
1F
100
AcDbEntity
  8
0
  6
Continuous
 62
     7
370
    25
100
AcDbLine
 10
2853.1413055781
 20
1296.2661189728
 30
0.0
 11
2865.8692276394
 21
1303.6137919792
 31
0.0
  0
LWPOLYLINE
  5
14D
330
1F
100
AcDbEntity
  8
0
  6
Continuous
 62
     7
370
    25
100
AcDbPolyline
 90
       10
 70
   128
 43
0.0
 10
2865.8692276394
 20
1303.6137919792
 10
2866.5664311599
 20
1304.188603022
 10
2866.8810353486
 20
1304.8664073873
 10
2866.7750942973
 20
1305.5654518653
 10
2866.2613860603
 20
1306.2014213752
 10
2865.4018714325
 20
1306.6976086082
 10
2864.3002205631
 20
1306.994166061
 10
2863.0893088057
 20
1307.0553245281
 10
2861.9151899892
 20
1306.8737073958
 10
2860.9194801711
 20
1306.4712203706
  0
LINE
  5
14E
330
1F
100
AcDbEntity
  8
0
  6
Continuous
 62
     7
370
    25
100
AcDbLine
 10
2825.5641411118
 20
1286.0610175751
 30
0.0
 11
2812.8362190504
 21
1278.7133445687
 31
0.0
  0
LWPOLYLINE
  5
14F
330
1F
100
AcDbEntity
  8
0
  6
Continuous
 62
     7
370
    25
100
AcDbPolyline
 90
       10
 70
   128
 43
0.0
 10
2812.8362190504
 20
1278.7133445687
 10
2812.13901553
 20
1278.1385335259
 10
2811.8244113413
 20
1277.4607291606
 10
2811.9303523926
 20
1276.7616846826
 10
2812.4440606296
 20
1276.1257151727
 10
2813.3035752574
 20
1275.6295279397
 10
2814.4052261267
 20
1275.3329704869
 10
2815.6161378842
 20
1275.2718120198
 10
2816.7902567007
 20
1275.4534291521
 10
2817.7859665187
 20
1275.8559161773
  0
LINE
  5
150
330
1F
100
AcDbEntity
  8
0
  6
Continuous
 62
     7
370
    25
100
AcDbLine
 10
2817.7859665187
 20
1275.8559161773
 30
0.0
 11
2830.5138885801
 21
1283.2035891837
 31
0.0
  0
LWPOLYLINE
  5
151
330
1F
100
AcDbEntity
  8
0
  6
Continuous
 62
     7
370
    25
100
AcDbPolyline
 90
       10
 70
   128
 43
0.0
 10
2830.5138885801
 20
1283.2035891837
 10
2831.2110921006
 20
1283.7784002264
 10
2831.5256962893
 20
1284.4562045917
 10
2831.419755238
 20
1285.1552490697
 10
2830.906047001
 20
1285.7912185796
 10
2830.0465323732
 20
1286.2874058126
 10
2828.9448815038
 20
1286.5839632654
 10
2827.7339697463
 20
1286.6451217326
 10
2826.5598509299
 20
1286.4635046002
 10
2825.5641411118
 20
1286.0610175751
  0
LINE
  5
152
330
1F
100
AcDbEntity
  8
0
  6
Continuous
 62
     7
370
    25
100
AcDbLine
 10
1156.0850307304
 20
316.5763847856
 30
0.0
 11
1168.8129527917
 21
323.924057792
 31
0.0
  0
LWPOLYLINE
  5
153
330
1F
100
AcDbEntity
  8
0
  6
Continuous
 62
     7
370
    25
100
AcDbPolyline
 90
       10
 70
   128
 43
0.0
 10
1168.8129527917
 20
323.924057792
 10
1169.5101563122
 20
324.4988688348
 10
1169.8247605009
 20
325.1766732
 10
1169.7188194496
 20
325.8757176781
 10
1169.2051112126
 20
326.511687188
 10
1168.3455965848
 20
327.0078744209
 10
1167.2439457154
 20
327.3044318737
 10
1166.0330339579
 20
327.3655903409
 10
1164.8589151415
 20
327.1839732086
 10
1163.8632053234
 20
326.7814861834
  0
LINE
  5
154
330
1F
100
AcDbEntity
  8
0
  6
Continuous
 62
     7
370
    25
100
AcDbLine
 10
1163.8632053234
 20
326.7814861834
 30
0.0
 11
1151.135283262
 21
319.433813177
 31
0.0
  0
LWPOLYLINE
  5
155
330
1F
100
AcDbEntity
  8
0
  6
Continuous
 62
     7
370
    25
100
AcDbPolyline
 90
       10
 70
   128
 43
0.0
 10
1151.135283262
 20
319.433813177
 10
1150.4380797416
 20
318.8590021342
 10
1150.1234755529
 20
318.1811977689
 10
1150.2294166042
 20
317.4821532909
 10
1150.7431248412
 20
316.846183781
 10
1151.602639469
 20
316.349996548
 10
1152.7042903383
 20
316.0534390952
 10
1153.9152020958
 20
315.9922806281
 10
1155.0893209123
 20
316.1738977604
 10
1156.0850307304
 20
316.5763847856
  0
ARC
  5
156
330
1F
100
AcDbEntity
  8
0
  6
Continuous
 62
     7
370
    25
100
AcDbCircle
 10
1219.3516733471
 20
250.605103073
 30
0.0
 40
5.338844876748823
100
AcDbArc
 50
83.1834142245
 51
117.3821616972
  0
LINE
  5
157
330
1F
100
AcDbEntity
  8
0
  6
Continuous
 62
     7
370
    25
100
AcDbLine
 10
1216.8962139124
 20
255.3457763989
 30
0.0
 11
1213.0327766975
 21
253.1154615683
 31
0.0
  0
ARC
  5
158
330
1F
100
AcDbEntity
  8
0
  6
Continuous
 62
     7
370
    25
100
AcDbCircle
 10
1254.7070124065
 20
271.0153058686
 30
0.0
 40
5.338844876746583
100
AcDbArc
 50
83.1834142245
 51
117.3821616972
  0
LINE
  5
159
330
1F
100
AcDbEntity
  8
0
  6
Continuous
 62
     7
370
    25
100
AcDbLine
 10
1252.2515529717
 20
275.7559791945
 30
0.0
 11
1248.3881157568
 21
273.5256643639
 31
0.0
  0
LINE
  5
15A
330
1F
100
AcDbEntity
  8
0
  6
Continuous
 62
     7
370
    25
100
AcDbLine
 10
2949.3078278194
 20
1255.4457133817
 30
0.0
 11
2945.4443906046
 21
1253.2153985511
 31
0.0
  0
ARC
  5
15B
330
1F
100
AcDbEntity
  8
0
  6
Continuous
 62
     7
370
    25
100
AcDbCircle
 10
2951.7632872542
 20
1250.7050400559
 30
0.0
 40
5.338844876749503
100
AcDbArc
 50
83.1834142245
 51
117.3821616972
  0
LINE
  5
15C
330
1F
100
AcDbEntity
  8
0
  6
Continuous
 62
     7
370
    25
100
AcDbLine
 10
1202.4005248981
 20
234.7312725253
 30
0.0
 11
1099.870041626
 21
293.9208606324
 31
0.0
  0
LINE
  5
15D
330
1F
100
AcDbEntity
  8
0
  6
Continuous
 62
     7
370
    25
100
AcDbLine
 10
1227.1492622396
 20
260.0418481427
 30
0.0
 11
1214.4213401782
 21
252.6941751363
 31
0.0
  0
ARC
  5
15E
330
1F
100
AcDbEntity
  8
0
  6
Continuous
 62
     7
370
    25
100
AcDbCircle
 10
1224.976012751
 20
264.0840159852
 30
0.0
 40
4.58935008543
100
AcDbArc
 50
298.2644546682
 51
17.738201934
  0
LWPOLYLINE
  5
15F
330
1F
100
AcDbEntity
  8
0
  6
Continuous
 62
     7
370
    25
100
AcDbPolyline
 90
        3
 70
   128
 43
0.0
 10
1249.7766792376
 20
273.1043779319
 10
1248.9302225683
 20
272.7880809252
 10
1248.6394231445
 20
272.7674607513
  0
LINE
  5
160
330
1F
100
AcDbEntity
  8
0
  6
Continuous
 62
     7
370
    25
100
AcDbLine
 10
1262.5046012989
 20
280.4520509383
 30
0.0
 11
1249.7766792376
 21
273.1043779319
 31
0.0
  0
ARC
  5
161
330
1F
100
AcDbEntity
  8
0
  6
Continuous
 62
     7
370
    25
100
AcDbCircle
 10
1260.3313518103
 20
284.4942187808
 30
0.0
 40
4.589350085460513
100
AcDbArc
 50
298.2644546684
 51
17.7382019331
  0
LINE
  5
162
330
1F
100
AcDbEntity
  8
0
  6
Continuous
 62
     7
370
    25
100
AcDbLine
 10
2872.5867420607
 20
1352.3731014415
 30
0.0
 11
1104.8197890943
 21
331.8629616632
 31
0.0
  0
LINE
  5
163
330
1F
100
AcDbEntity
  8
0
  6
Continuous
 62
     7
370
    25
100
AcDbLine
 10
1104.8197890943
 20
331.8629616632
 30
0.0
 11
1102.4086075894
 21
333.2549071176
 31
0.0
  0
LINE
  5
164
330
1F
100
AcDbEntity
  8
0
  6
Continuous
 62
     7
370
    25
100
AcDbLine
 10
2870.1755605557
 20
1353.765046896
 30
0.0
 11
1102.4086075894
 21
333.2549071176
 31
0.0
  0
LINE
  5
165
330
1F
100
AcDbEntity
  8
0
  6
Continuous
 62
     7
370
    25
100
AcDbLine
 10
2872.5867420607
 20
1352.3731014415
 30
0.0
 11
2870.1755605557
 21
1353.765046896
 31
0.0
  0
LINE
  5
166
330
1F
100
AcDbEntity
  8
0
  6
Continuous
 62
     7
370
    25
100
AcDbLine
 10
2872.5867420607
 20
1346.014532422
 30
0.0
 11
1104.8197890943
 21
325.5043926436
 31
0.0
  0
LINE
  5
167
330
1F
100
AcDbEntity
  8
0
  6
Continuous
 62
     7
370
    25
100
AcDbLine
 10
1104.8197890943
 20
325.5043926436
 30
0.0
 11
1104.8197890943
 21
331.8629616632
 31
0.0
  0
LINE
  5
168
330
1F
100
AcDbEntity
  8
0
  6
Continuous
 62
     7
370
    25
100
AcDbLine
 10
2872.5867420607
 20
1352.3731014415
 30
0.0
 11
2872.5867420607
 21
1346.014532422
 31
0.0
  0
LINE
  5
169
330
1F
100
AcDbEntity
  8
0
  6
Continuous
 62
     7
370
    25
100
AcDbLine
 10
1101.4816557959
 20
325.7958115454
 30
0.0
 11
1098.7337429318
 21
324.7195267006
 31
0.0
  0
LINE
  5
16A
330
1F
100
AcDbEntity
  8
0
  6
Continuous
 62
     7
370
    25
100
AcDbLine
 10
1098.4558280637
 20
331.7067078447
 30
0.0
 11
1101.4816557959
 21
325.7958115454
 31
0.0
  0
LINE
  5
16B
330
1F
100
AcDbEntity
  8
0
  6
Continuous
 62
     7
370
    25
100
AcDbLine
 10
1102.4086075894
 20
333.2549071176
 30
0.0
 11
1098.4558280637
 21
331.7067078447
 31
0.0
  0
LINE
  5
16C
330
1F
100
AcDbEntity
  8
0
  6
Continuous
 62
     7
370
    25
100
AcDbLine
 10
1104.8197890943
 20
325.5043926436
 30
0.0
 11
1099.4155221484
 21
323.3876841093
 31
0.0
  0
LINE
  5
16D
330
1F
100
AcDbEntity
  8
0
  6
Continuous
 62
     7
370
    25
100
AcDbLine
 10
1169.1663337812
 20
271.8779411383
 30
0.0
 11
1163.8632053234
 21
274.9393720325
 31
0.0
  0
LINE
  5
16E
330
1F
100
AcDbEntity
  8
0
  6
Continuous
 62
     7
370
    25
100
AcDbLine
 10
2866.22278103
 20
1352.2168476231
 30
0.0
 11
2870.1755605557
 21
1353.765046896
 31
0.0
  0
LINE
  5
16F
330
1F
100
AcDbEntity
  8
0
  6
Continuous
 62
     7
370
    25
100
AcDbLine
 10
1098.4558280637
 20
331.7067078447
 30
0.0
 11
2866.22278103
 21
1352.2168476231
 31
0.0
  0
LINE
  5
170
330
1F
100
AcDbEntity
  8
0
  6
Continuous
 62
     7
370
    25
100
AcDbLine
 10
1162.448991761
 20
274.9393720325
 30
0.0
 11
1159.2671836468
 21
273.102553306
 31
0.0
  0
ARC
  5
171
330
1F
100
AcDbEntity
  8
0
  6
Continuous
 62
     7
370
    25
100
AcDbCircle
 10
1163.1560985422
 20
273.5746609476
 30
0.0
 40
1.537021907910962
100
AcDbArc
 50
62.6096722366
 51
117.3903277634
  0
LINE
  5
172
330
1F
100
AcDbEntity
  8
0
  6
Continuous
 62
     7
370
    25
100
AcDbLine
 10
1098.7337429318
 20
324.7195267006
 30
0.0
 11
1098.1022746731
 21
324.4721972726
 31
0.0
  0
LINE
  5
173
330
1F
100
AcDbEntity
  8
0
  6
Continuous
 62
     7
370
    25
100
AcDbLine
 10
1101.2338018624
 20
326.2799894391
 30
0.0
 11
1098.1022746731
 21
324.4721972726
 31
0.0
  0
LINE
  5
174
330
1F
100
AcDbEntity
  8
0
  6
Continuous
 62
     7
370
    25
100
AcDbLine
 10
1098.1022746731
 20
324.4721972726
 30
0.0
 11
1098.1022746731
 21
323.5202991882
 31
0.0
  0
LINE
  5
175
330
1F
100
AcDbEntity
  8
0
  6
Continuous
 62
     7
370
    25
100
AcDbLine
 10
1099.1629348448
 20
323.2887523381
 30
0.0
 11
1099.1629348448
 21
322.9079931043
 31
0.0
  0
LINE
  5
176
330
1F
100
AcDbEntity
  8
0
  6
Continuous
 62
     7
370
    25
100
AcDbLine
 10
1099.4155221484
 20
323.3876841093
 30
0.0
 11
1099.1629348448
 21
323.2887523381
 31
0.0
  0
LINE
  5
177
330
1F
100
AcDbEntity
  8
0
  6
Continuous
 62
     7
370
    25
100
AcDbLine
 10
2866.9298878112
 20
1316.8805564964
 30
0.0
 11
2866.9298878112
 21
1342.7488999747
 31
0.0
  0
LINE
  5
178
330
1F
100
AcDbEntity
  8
0
  6
Continuous
 62
     7
370
    25
100
AcDbLine
 10
2866.9298878112
 20
1316.8805564964
 30
0.0
 11
2866.9298878112
 21
1316.0640156845
 31
0.0
  0
LINE
  5
179
330
1F
100
AcDbEntity
  8
0
  6
Continuous
 62
     7
370
    25
100
AcDbLine
 10
1099.1629348448
 20
296.370416718
 30
0.0
 11
1099.1629348448
 21
295.5538759062
 31
0.0
  0
LINE
  5
17A
330
1F
100
AcDbEntity
  8
0
  6
Continuous
 62
     7
370
    25
100
AcDbLine
 10
1099.1629348448
 20
296.370416718
 30
0.0
 11
1099.1629348448
 21
322.9079931043
 31
0.0
  0
LINE
  5
17B
330
1F
100
AcDbEntity
  8
0
  6
Continuous
 62
     7
370
    25
100
AcDbLine
 10
1145.8319824031
 20
333.1103741508
 30
0.0
 11
1158.5599044645
 21
340.4580471572
 31
0.0
  0
LWPOLYLINE
  5
17C
330
1F
100
AcDbEntity
  8
0
  6
Continuous
 62
     7
370
    25
100
AcDbPolyline
 90
       10
 70
   128
 43
0.0
 10
1158.5599044645
 20
340.4580471572
 10
1159.4063611338
 20
341.1190482186
 10
1160.1507226364
 20
342.0450268513
 10
1160.7032079894
 20
343.1242963662
 10
1160.9971793056
 20
344.2266809317
 10
1160.9971793056
 20
345.2192166995
 10
1160.7032079894
 20
345.9821892078
 10
1160.1507226364
 20
346.4235727119
 10
1159.4063611338
 20
346.4901298471
 10
1158.5599044645
 20
346.1738328404
  0
LINE
  5
17D
330
1F
100
AcDbEntity
  8
0
  6
Continuous
 62
     7
370
    25
100
AcDbLine
 10
1158.5599044645
 20
346.1738328404
 30
0.0
 11
1145.8319824031
 21
338.826159834
 31
0.0
  0
LWPOLYLINE
  5
17E
330
1F
100
AcDbEntity
  8
0
  6
Continuous
 62
     7
370
    25
100
AcDbPolyline
 90
       10
 70
   128
 43
0.0
 10
1145.8319824031
 20
338.826159834
 10
1144.9855257339
 20
338.1651587727
 10
1144.2411642313
 20
337.23918014
 10
1143.6886788782
 20
336.159910625
 10
1143.394707562
 20
335.0575260596
 10
1143.394707562
 20
334.0649902918
 10
1143.6886788782
 20
333.3020177834
 10
1144.2411642313
 20
332.8606342793
 10
1144.9855257339
 20
332.7940771442
 10
1145.8319824031
 20
333.1103741508
  0
LINE
  5
17F
330
1F
100
AcDbEntity
  8
0
  6
Continuous
 62
     7
370
    25
100
AcDbLine
 10
2855.6161793122
 20
1325.8635670277
 30
0.0
 11
2842.8882572509
 21
1318.5158940213
 31
0.0
  0
LWPOLYLINE
  5
180
330
1F
100
AcDbEntity
  8
0
  6
Continuous
 62
     7
370
    25
100
AcDbPolyline
 90
       10
 70
   128
 43
0.0
 10
2842.8882572509
 20
1318.5158940213
 10
2842.0418005816
 20
1317.8548929599
 10
2841.297439079
 20
1316.9289143272
 10
2840.7449537259
 20
1315.8496448123
 10
2840.4509824097
 20
1314.7472602468
 10
2840.4509824097
 20
1313.754724479
 10
2840.7449537259
 20
1312.9917519707
 10
2841.297439079
 20
1312.5503684666
 10
2842.0418005816
 20
1312.4838113314
 10
2842.8882572509
 20
1312.8001083381
  0
LINE
  5
181
330
1F
100
AcDbEntity
  8
0
  6
Continuous
 62
     7
370
    25
100
AcDbLine
 10
2842.8882572509
 20
1312.8001083381
 30
0.0
 11
2855.6161793122
 21
1320.1477813445
 31
0.0
  0
LWPOLYLINE
  5
182
330
1F
100
AcDbEntity
  8
0
  6
Continuous
 62
     7
370
    25
100
AcDbPolyline
 90
       10
 70
   128
 43
0.0
 10
2855.6161793122
 20
1320.1477813445
 10
2856.4626359815
 20
1320.8087824058
 10
2857.2069974841
 20
1321.7347610385
 10
2857.7594828372
 20
1322.8140305535
 10
2858.0534541533
 20
1323.9164151189
 10
2858.0534541533
 20
1324.9089508867
 10
2857.7594828372
 20
1325.6719233951
 10
2857.2069974841
 20
1326.1133068992
 10
2856.4626359815
 20
1326.1798640343
 10
2855.6161793122
 20
1325.8635670277
  0
LINE
  5
183
330
1F
100
AcDbEntity
  8
0
  6
Continuous
 62
     7
370
    25
100
AcDbLine
 10
2820.2608402529
 20
1305.4533642321
 30
0.0
 11
2807.5329181915
 21
1298.1056912257
 31
0.0
  0
LWPOLYLINE
  5
184
330
1F
100
AcDbEntity
  8
0
  6
Continuous
 62
     7
370
    25
100
AcDbPolyline
 90
       10
 70
   128
 43
0.0
 10
2807.5329181915
 20
1298.1056912257
 10
2806.6864615223
 20
1297.4446901644
 10
2805.9421000197
 20
1296.5187115317
 10
2805.3896146666
 20
1295.4394420167
 10
2805.0956433504
 20
1294.3370574513
 10
2805.0956433504
 20
1293.3445216834
 10
2805.3896146666
 20
1292.5815491751
 10
2805.9421000197
 20
1292.140165671
 10
2806.6864615223
 20
1292.0736085359
 10
2807.5329181915
 20
1292.3899055425
  0
LINE
  5
185
330
1F
100
AcDbEntity
  8
0
  6
Continuous
 62
     7
370
    25
100
AcDbLine
 10
2807.5329181915
 20
1292.3899055425
 30
0.0
 11
2820.2608402529
 21
1299.7375785489
 31
0.0
  0
LWPOLYLINE
  5
186
330
1F
100
AcDbEntity
  8
0
  6
Continuous
 62
     7
370
    25
100
AcDbPolyline
 90
       10
 70
   128
 43
0.0
 10
2820.2608402529
 20
1299.7375785489
 10
2821.1072969222
 20
1300.3985796102
 10
2821.8516584247
 20
1301.3245582429
 10
2822.4041437778
 20
1302.4038277579
 10
2822.698115094
 20
1303.5062123233
 10
2822.698115094
 20
1304.4987480912
 10
2822.4041437778
 20
1305.2617205995
 10
2821.8516584247
 20
1305.7031041036
 10
2821.1072969222
 20
1305.7696612387
 10
2820.2608402529
 20
1305.4533642321
  0
LINE
  5
187
330
1F
100
AcDbEntity
  8
0
  6
Continuous
 62
     7
370
    25
100
AcDbLine
 10
1110.4766433438
 20
312.7001713553
 30
0.0
 11
1123.2045654052
 21
320.0478443617
 31
0.0
  0
LWPOLYLINE
  5
188
330
1F
100
AcDbEntity
  8
0
  6
Continuous
 62
     7
370
    25
100
AcDbPolyline
 90
       10
 70
   128
 43
0.0
 10
1123.2045654052
 20
320.0478443617
 10
1124.0510220744
 20
320.708845423
 10
1124.795383577
 20
321.6348240557
 10
1125.3478689301
 20
322.7140935707
 10
1125.6418402463
 20
323.8164781361
 10
1125.6418402463
 20
324.8090139039
 10
1125.3478689301
 20
325.5719864123
 10
1124.795383577
 20
326.0133699164
 10
1124.0510220744
 20
326.0799270515
 10
1123.2045654052
 20
325.7636300449
  0
LINE
  5
189
330
1F
100
AcDbEntity
  8
0
  6
Continuous
 62
     7
370
    25
100
AcDbLine
 10
1123.2045654052
 20
325.7636300449
 30
0.0
 11
1110.4766433438
 21
318.4159570385
 31
0.0
  0
LWPOLYLINE
  5
18A
330
1F
100
AcDbEntity
  8
0
  6
Continuous
 62
     7
370
    25
100
AcDbPolyline
 90
       10
 70
   128
 43
0.0
 10
1110.4766433438
 20
318.4159570385
 10
1109.6301866746
 20
317.7549559771
 10
1108.885825172
 20
316.8289773444
 10
1108.3333398189
 20
315.7497078294
 10
1108.0393685027
 20
314.647323264
 10
1108.0393685027
 20
313.6547874962
 10
1108.3333398189
 20
312.8918149878
 10
1108.885825172
 20
312.4504314837
 10
1109.6301866746
 20
312.3838743486
 10
1110.4766433438
 20
312.7001713553
  0
LINE
  5
18B
330
1F
100
AcDbEntity
  8
0
  6
Continuous
 62
     7
370
    25
100
AcDbLine
 10
1098.1022746731
 20
296.9827228019
 30
0.0
 11
1098.1022746731
 21
323.5202991882
 31
0.0
  0
LWPOLYLINE
  5
18C
330
1F
100
AcDbEntity
  8
0
  6
Continuous
 62
     7
370
    25
100
AcDbPolyline
 90
        3
 70
   128
 43
0.0
 10
1108.2787270788
 20
312.9755602585
 10
1108.5695265028
 20
312.9961804325
 10
1109.415983172
 20
313.3124774391
  0
LWPOLYLINE
  5
18D
330
1F
100
AcDbEntity
  8
0
  6
Continuous
 62
     7
370
    25
100
AcDbPolyline
 90
        3
 70
   128
 43
0.0
 10
1115.7799442027
 20
297.7987991636
 10
1115.0827406822
 20
297.2239881208
 10
1114.9194567493
 20
296.9824905769
  0
LINE
  5
18E
330
1F
100
AcDbEntity
  8
0
  6
Continuous
 62
     7
370
    25
100
AcDbLine
 10
1098.1022746731
 20
296.9827228019
 30
0.0
 11
1098.1022746731
 21
294.9413707722
 31
0.0
  0
LINE
  5
18F
330
1F
100
AcDbEntity
  8
0
  6
Continuous
 62
     7
370
    25
100
AcDbLine
 10
1098.1022746731
 20
294.9413707722
 30
0.0
 11
1099.870041626
 21
293.9208606324
 31
0.0
  0
LINE
  5
190
330
1F
100
AcDbEntity
  8
0
  6
Continuous
 62
     7
370
    25
100
AcDbLine
 10
1109.415983172
 20
313.3124774391
 30
0.0
 11
1122.1439052334
 21
320.6601504455
 31
0.0
  0
LINE
  5
191
330
1F
100
AcDbEntity
  8
0
  6
Continuous
 62
     7
370
    25
100
AcDbLine
 10
1128.5078662641
 20
305.14647217
 30
0.0
 11
1115.7799442027
 21
297.7987991636
 31
0.0
  0
ARC
  5
192
330
1F
100
AcDbEntity
  8
0
  6
Continuous
 62
     7
370
    25
100
AcDbCircle
 10
1119.9706557449
 20
324.702318288
 30
0.0
 40
4.58935008539753
100
AcDbArc
 50
298.264454668
 51
17.738201935
  0
ARC
  5
193
330
1F
100
AcDbEntity
  8
0
  6
Continuous
 62
     7
370
    25
100
AcDbCircle
 10
1130.9218612171
 20
301.2426580334
 30
0.0
 40
4.589895036448329
100
AcDbArc
 50
42.2738244975
 51
121.7313331995
  0
LWPOLYLINE
  5
194
330
1F
100
AcDbEntity
  8
0
  6
Continuous
 62
     7
370
    25
100
AcDbPolyline
 90
        3
 70
   128
 43
0.0
 10
1143.6340661382
 20
333.3857630541
 10
1143.9248655621
 20
333.4063832281
 10
1144.7713222314
 20
333.7226802347
  0
LWPOLYLINE
  5
195
330
1F
100
AcDbEntity
  8
0
  6
Continuous
 62
     7
370
    25
100
AcDbPolyline
 90
        3
 70
   128
 43
0.0
 10
1151.135283262
 20
318.2090019591
 10
1150.4380797416
 20
317.6341909164
 10
1150.2747958085
 20
317.3926933723
  0
LINE
  5
196
330
1F
100
AcDbEntity
  8
0
  6
Continuous
 62
     7
370
    25
100
AcDbLine
 10
1144.7713222314
 20
333.7226802347
 30
0.0
 11
1157.4992442927
 21
341.0703532411
 31
0.0
  0
LINE
  5
197
330
1F
100
AcDbEntity
  8
0
  6
Continuous
 62
     7
370
    25
100
AcDbLine
 10
1163.8632053234
 20
325.5566749655
 30
0.0
 11
1151.135283262
 21
318.2090019591
 31
0.0
  0
ARC
  5
198
330
1F
100
AcDbEntity
  8
0
  6
Continuous
 62
     7
370
    25
100
AcDbCircle
 10
1155.3259948042
 20
345.1125210836
 30
0.0
 40
4.589350085446052
100
AcDbArc
 50
298.2644546683
 51
17.7382019335
  0
ARC
  5
199
330
1F
100
AcDbEntity
  8
0
  6
Continuous
 62
     7
370
    25
100
AcDbCircle
 10
1166.2772002764
 20
321.6528608289
 30
0.0
 40
4.589895036570301
100
AcDbArc
 50
42.2738245012
 51
121.7313331988
  0
LWPOLYLINE
  5
19A
330
1F
100
AcDbEntity
  8
0
  6
Continuous
 62
     7
370
    25
100
AcDbPolyline
 90
        3
 70
   128
 43
0.0
 10
2911.477615026
 20
1232.3839093235
 10
2910.6311583567
 20
1232.0676123169
 10
2910.3403589327
 20
1232.0469921429
  0
LINE
  5
19B
330
1F
100
AcDbEntity
  8
0
  6
Continuous
 62
     7
370
    25
100
AcDbLine
 10
2924.2055370873
 20
1239.7315823299
 30
0.0
 11
2911.477615026
 21
1232.3839093235
 31
0.0
  0
ARC
  5
19C
330
1F
100
AcDbEntity
  8
0
  6
Continuous
 62
     7
370
    25
100
AcDbCircle
 10
2922.0322875988
 20
1243.7737501724
 30
0.0
 40
4.589350085394774
100
AcDbArc
 50
298.264454668
 51
17.738201935
  0
LWPOLYLINE
  5
19D
330
1F
100
AcDbEntity
  8
0
  6
Continuous
 62
     7
370
    25
100
AcDbPolyline
 90
        3
 70
   128
 43
0.0
 10
2946.8329540853
 20
1252.7941121191
 10
2945.986497416
 20
1252.4778151125
 10
2945.6956979921
 20
1252.4571949385
  0
LINE
  5
19E
330
1F
100
AcDbEntity
  8
0
  6
Continuous
 62
     7
370
    25
100
AcDbLine
 10
2959.5608761466
 20
1260.1417851255
 30
0.0
 11
2946.8329540853
 21
1252.7941121191
 31
0.0
  0
ARC
  5
19F
330
1F
100
AcDbEntity
  8
0
  6
Continuous
 62
     7
370
    25
100
AcDbCircle
 10
2957.3876266581
 20
1264.183952968
 30
0.0
 40
4.589350085450636
100
AcDbArc
 50
298.2644546683
 51
17.7382019334
  0
LWPOLYLINE
  5
1A0
330
1F
100
AcDbEntity
  8
0
  6
Continuous
 62
     7
370
    25
100
AcDbPolyline
 90
        3
 70
   128
 43
0.0
 10
2805.3350019266
 20
1292.6652944458
 10
2805.6258013505
 20
1292.6859146197
 10
2806.4722580198
 20
1293.0022116264
  0
LWPOLYLINE
  5
1A1
330
1F
100
AcDbEntity
  8
0
  6
Continuous
 62
     7
370
    25
100
AcDbPolyline
 90
        3
 70
   128
 43
0.0
 10
2812.8362190504
 20
1277.4885333508
 10
2812.13901553
 20
1276.9137223081
 10
2811.975731597
 20
1276.6722247641
  0
LINE
  5
1A2
330
1F
100
AcDbEntity
  8
0
  6
Continuous
 62
     7
370
    25
100
AcDbLine
 10
2806.4722580198
 20
1293.0022116264
 30
0.0
 11
2819.2001800811
 21
1300.3498846328
 31
0.0
  0
LINE
  5
1A3
330
1F
100
AcDbEntity
  8
0
  6
Continuous
 62
     7
370
    25
100
AcDbLine
 10
2910.7703358437
 20
1277.2845308479
 30
0.0
 11
2905.4672073859
 21
1280.3459617422
 31
0.0
  0
LINE
  5
1A4
330
1F
100
AcDbEntity
  8
0
  6
Continuous
 62
     7
370
    25
100
AcDbLine
 10
2825.5641411118
 20
1284.8362063572
 30
0.0
 11
2812.8362190504
 21
1277.4885333508
 31
0.0
  0
LINE
  5
1A5
330
1F
100
AcDbEntity
  8
0
  6
Continuous
 62
     7
370
    25
100
AcDbLine
 10
2904.0529938235
 20
1280.3459617422
 30
0.0
 11
2900.8711857093
 21
1278.5091430156
 31
0.0
  0
ARC
  5
1A6
330
1F
100
AcDbEntity
  8
0
  6
Continuous
 62
     7
370
    25
100
AcDbCircle
 10
2817.0269305926
 20
1304.3920524753
 30
0.0
 40
4.589350085432344
100
AcDbArc
 50
298.2644546682
 51
17.7382019339
  0
ARC
  5
1A7
330
1F
100
AcDbEntity
  8
0
  6
Continuous
 62
     7
370
    25
100
AcDbCircle
 10
2904.7601006047
 20
1278.9812506572
 30
0.0
 40
1.537021907915061
100
AcDbArc
 50
62.6096722366
 51
117.3903277633
  0
ARC
  5
1A8
330
1F
100
AcDbEntity
  8
0
  6
Continuous
 62
     7
370
    25
100
AcDbCircle
 10
2827.9781360648
 20
1280.9323922206
 30
0.0
 40
4.589895036499246
100
AcDbArc
 50
42.273824499
 51
121.7313331992
  0
LWPOLYLINE
  5
1A9
330
1F
100
AcDbEntity
  8
0
  6
Continuous
 62
     7
370
    25
100
AcDbPolyline
 90
        3
 70
   128
 43
0.0
 10
2840.6903409859
 20
1313.0754972413
 10
2840.9811404098
 20
1313.0961174153
 10
2841.8275970791
 20
1313.4124144219
  0
LWPOLYLINE
  5
1AA
330
1F
100
AcDbEntity
  8
0
  6
Continuous
 62
     7
370
    25
100
AcDbPolyline
 90
        3
 70
   128
 43
0.0
 10
2848.1915581098
 20
1297.8987361464
 10
2847.4943545893
 20
1297.3239251036
 10
2847.3310706562
 20
1297.0824275596
  0
LINE
  5
1AB
330
1F
100
AcDbEntity
  8
0
  6
Continuous
 62
     7
370
    25
100
AcDbLine
 10
2841.8275970791
 20
1313.4124144219
 30
0.0
 11
2854.5555191404
 21
1320.7600874283
 31
0.0
  0
LINE
  5
1AC
330
1F
100
AcDbEntity
  8
0
  6
Continuous
 62
     7
370
    25
100
AcDbLine
 10
2860.9194801711
 20
1305.2464091528
 30
0.0
 11
2848.1915581098
 21
1297.8987361464
 31
0.0
  0
ARC
  5
1AD
330
1F
100
AcDbEntity
  8
0
  6
Continuous
 62
     7
370
    25
100
AcDbCircle
 10
2852.3822696519
 20
1324.8022552709
 30
0.0
 40
4.589350085444232
100
AcDbArc
 50
298.2644546683
 51
17.7382019336
  0
ARC
  5
1AE
330
1F
100
AcDbEntity
  8
0
  6
Continuous
 62
     7
370
    25
100
AcDbCircle
 10
2863.3334751241
 20
1301.3425950161
 30
0.0
 40
4.589895036567235
100
AcDbArc
 50
42.2738245011
 51
121.7313331988
  0
ENDSEC
  0
SECTION
  2
OBJECTS
  0
DICTIONARY
  5
C
330
0
100
AcDbDictionary
281
     1
  3
ACAD_GROUP
350
D
  3
ACAD_LAYOUT
350
1A
  3
ACAD_MLINESTYLE
350
17
  3
ACAD_PLOTSETTINGS
350
19
  3
ACAD_PLOTSTYLENAME
350
E
  3
ACAD_SCALELIST
350
47
  0
DICTIONARY
  5
D
102
{ACAD_REACTORS
330
C
102
}
330
C
100
AcDbDictionary
281
     1
  0
DICTIONARY
  5
1A
102
{ACAD_REACTORS
330
C
102
}
330
C
100
AcDbDictionary
281
     1
  3
Layout1
350
1E
  3
Layout2
350
26
  3
Model
350
22
  0
DICTIONARY
  5
17
102
{ACAD_REACTORS
330
C
102
}
330
C
100
AcDbDictionary
281
     1
  3
Standard
350
18
  0
DICTIONARY
  5
19
102
{ACAD_REACTORS
330
C
102
}
330
C
100
AcDbDictionary
281
     1
  0
ACDBDICTIONARYWDFLT
  5
E
102
{ACAD_REACTORS
330
C
102
}
330
C
100
AcDbDictionary
281
     1
  3
Normal
350
F
100
AcDbDictionaryWithDefault
340
F
  0
DICTIONARY
  5
47
102
{ACAD_REACTORS
330
C
102
}
330
C
100
AcDbDictionary
281
     1
  3
A0
350
48
  3
A1
350
49
  3
A2
350
4A
  3
A3
350
4B
  3
A4
350
4C
  3
A5
350
4D
  3
A6
350
4E
  3
A7
350
4F
  3
A8
350
50
  3
A9
350
51
  3
B0
350
52
  3
B1
350
53
  3
B2
350
54
  3
B3
350
55
  3
B4
350
56
  3
B5
350
57
  3
B6
350
58
  3
B7
350
59
  3
B8
350
5A
  3
B9
350
5B
  3
C0
350
5C
  3
C1
350
5D
  3
C2
350
5E
  3
C3
350
5F
  3
C4
350
60
  3
C5
350
61
  3
C6
350
62
  3
C7
350
63
  3
C8
350
64
  3
C9
350
65
  3
D0
350
66
  3
D1
350
67
  3
D2
350
68
  0
LAYOUT
  5
1E
102
{ACAD_REACTORS
330
1A
102
}
330
1A
100
AcDbPlotSettings
  1

  2
none_device
  4

  6

 40
0.0
 41
0.0
 42
0.0
 43
0.0
 44
0.0
 45
0.0
 46
0.0
 47
0.0
 48
0.0
 49
0.0
140
0.0
141
0.0
142
1.0
143
1.0
 70
   688
 72
     1
 73
     0
 74
     5
  7

 75
    16
147
1.0
148
0.0
149
0.0
100
AcDbLayout
  1
Layout1
 70
     1
 71
     1
 10
0.0
 20
0.0
 11
420.0
 21
297.0
 12
0.0
 22
0.0
 32
0.0
 14
1.0000000000E+20
 24
1.0000000000E+20
 34
1.0000000000E+20
 15
-1.0000000000E+20
 25
-1.0000000000E+20
 35
-1.0000000000E+20
146
0.0
 13
0.0
 23
0.0
 33
0.0
 16
1.0
 26
0.0
 36
0.0
 17
0.0
 27
1.0
 37
0.0
 76
     0
330
1B
  0
LAYOUT
  5
26
102
{ACAD_REACTORS
330
1A
102
}
330
1A
100
AcDbPlotSettings
  1

  2
none_device
  4

  6

 40
0.0
 41
0.0
 42
0.0
 43
0.0
 44
0.0
 45
0.0
 46
0.0
 47
0.0
 48
0.0
 49
0.0
140
0.0
141
0.0
142
1.0
143
1.0
 70
   688
 72
     1
 73
     0
 74
     5
  7

 75
    16
147
1.0
148
0.0
149
0.0
100
AcDbLayout
  1
Layout2
 70
     1
 71
     2
 10
0.0
 20
0.0
 11
0.0
 21
0.0
 12
0.0
 22
0.0
 32
0.0
 14
0.0
 24
0.0
 34
0.0
 15
0.0
 25
0.0
 35
0.0
146
0.0
 13
0.0
 23
0.0
 33
0.0
 16
1.0
 26
0.0
 36
0.0
 17
0.0
 27
1.0
 37
0.0
 76
     0
330
23
  0
LAYOUT
  5
22
102
{ACAD_REACTORS
330
1A
102
}
330
1A
100
AcDbPlotSettings
  1

  2
none_device
  4
Letter_(8.50_x_11.00_Inches)
  6

 40
6.35
 41
6.35
 42
6.35000508
 43
6.35000508
 44
215.9
 45
279.4
 46
0.0
 47
0.0
 48
0.0
 49
0.0
140
0.0
141
0.0
142
1.0
143
1.0
 70
  1712
 72
     1
 73
     0
 74
     0
  7

 75
     0
147
1.0
148
0.0
149
0.0
100
AcDbLayout
  1
Model
 70
     1
 71
     0
 10
0.0
 20
0.0
 11
3500.0
 21
3000.0
 12
0.0
 22
0.0
 32
0.0
 14
0.0
 24
0.0
 34
0.0
 15
3500.0
 25
3000.0
 35
0.0
146
0.0
 13
0.0
 23
0.0
 33
0.0
 16
1.0
 26
0.0
 36
0.0
 17
0.0
 27
1.0
 37
0.0
 76
     0
330
1F
331
29
  0
MLINESTYLE
  5
18
102
{ACAD_REACTORS
330
17
102
}
330
17
100
AcDbMlineStyle
  2
Standard
 70
     0
  3

 62
   256
 51
90.0
 52
90.0
 71
     2
 49
0.5
 62
   256
  6
BYLAYER
 49
-0.5
 62
   256
  6
BYLAYER
  0
ACDBPLACEHOLDER
  5
F
102
{ACAD_REACTORS
330
E
102
}
330
E
  0
SCALE
  5
48
102
{ACAD_REACTORS
330
47
102
}
330
47
100
AcDbScale
 70
     0
300
1:1
140
1.0
141
1.0
290
     1
  0
SCALE
  5
49
102
{ACAD_REACTORS
330
47
102
}
330
47
100
AcDbScale
 70
     0
300
1:2
140
1.0
141
2.0
290
     0
  0
SCALE
  5
4A
102
{ACAD_REACTORS
330
47
102
}
330
47
100
AcDbScale
 70
     0
300
1:4
140
1.0
141
4.0
290
     0
  0
SCALE
  5
4B
102
{ACAD_REACTORS
330
47
102
}
330
47
100
AcDbScale
 70
     0
300
1:5
140
1.0
141
5.0
290
     0
  0
SCALE
  5
4C
102
{ACAD_REACTORS
330
47
102
}
330
47
100
AcDbScale
 70
     0
300
1:8
140
1.0
141
8.0
290
     0
  0
SCALE
  5
4D
102
{ACAD_REACTORS
330
47
102
}
330
47
100
AcDbScale
 70
     0
300
1:10
140
1.0
141
10.0
290
     0
  0
SCALE
  5
4E
102
{ACAD_REACTORS
330
47
102
}
330
47
100
AcDbScale
 70
     0
300
1:16
140
1.0
141
16.0
290
     0
  0
SCALE
  5
4F
102
{ACAD_REACTORS
330
47
102
}
330
47
100
AcDbScale
 70
     0
300
1:20
140
1.0
141
20.0
290
     0
  0
SCALE
  5
50
102
{ACAD_REACTORS
330
47
102
}
330
47
100
AcDbScale
 70
     0
300
1:30
140
1.0
141
30.0
290
     0
  0
SCALE
  5
51
102
{ACAD_REACTORS
330
47
102
}
330
47
100
AcDbScale
 70
     0
300
1:40
140
1.0
141
40.0
290
     0
  0
SCALE
  5
52
102
{ACAD_REACTORS
330
47
102
}
330
47
100
AcDbScale
 70
     0
300
1:50
140
1.0
141
50.0
290
     0
  0
SCALE
  5
53
102
{ACAD_REACTORS
330
47
102
}
330
47
100
AcDbScale
 70
     0
300
1:100
140
1.0
141
100.0
290
     0
  0
SCALE
  5
54
102
{ACAD_REACTORS
330
47
102
}
330
47
100
AcDbScale
 70
     0
300
2:1
140
2.0
141
1.0
290
     0
  0
SCALE
  5
55
102
{ACAD_REACTORS
330
47
102
}
330
47
100
AcDbScale
 70
     0
300
4:1
140
4.0
141
1.0
290
     0
  0
SCALE
  5
56
102
{ACAD_REACTORS
330
47
102
}
330
47
100
AcDbScale
 70
     0
300
8:1
140
8.0
141
1.0
290
     0
  0
SCALE
  5
57
102
{ACAD_REACTORS
330
47
102
}
330
47
100
AcDbScale
 70
     0
300
10:1
140
10.0
141
1.0
290
     0
  0
SCALE
  5
58
102
{ACAD_REACTORS
330
47
102
}
330
47
100
AcDbScale
 70
     0
300
100:1
140
100.0
141
1.0
290
     0
  0
SCALE
  5
59
102
{ACAD_REACTORS
330
47
102
}
330
47
100
AcDbScale
 70
     0
300
1/128" = 1'-0"
140
0.0078125
141
12.0
290
     0
  0
SCALE
  5
5A
102
{ACAD_REACTORS
330
47
102
}
330
47
100
AcDbScale
 70
     0
300
1/64" = 1'-0"
140
0.015625
141
12.0
290
     0
  0
SCALE
  5
5B
102
{ACAD_REACTORS
330
47
102
}
330
47
100
AcDbScale
 70
     0
300
1/32" = 1'-0"
140
0.03125
141
12.0
290
     0
  0
SCALE
  5
5C
102
{ACAD_REACTORS
330
47
102
}
330
47
100
AcDbScale
 70
     0
300
1/16" = 1'-0"
140
0.0625
141
12.0
290
     0
  0
SCALE
  5
5D
102
{ACAD_REACTORS
330
47
102
}
330
47
100
AcDbScale
 70
     0
300
3/32" = 1'-0"
140
0.09375
141
12.0
290
     0
  0
SCALE
  5
5E
102
{ACAD_REACTORS
330
47
102
}
330
47
100
AcDbScale
 70
     0
300
1/8" = 1'-0"
140
0.125
141
12.0
290
     0
  0
SCALE
  5
5F
102
{ACAD_REACTORS
330
47
102
}
330
47
100
AcDbScale
 70
     0
300
3/16" = 1'-0"
140
0.1875
141
12.0
290
     0
  0
SCALE
  5
60
102
{ACAD_REACTORS
330
47
102
}
330
47
100
AcDbScale
 70
     0
300
1/4" = 1'-0"
140
0.25
141
12.0
290
     0
  0
SCALE
  5
61
102
{ACAD_REACTORS
330
47
102
}
330
47
100
AcDbScale
 70
     0
300
3/8" = 1'-0"
140
0.375
141
12.0
290
     0
  0
SCALE
  5
62
102
{ACAD_REACTORS
330
47
102
}
330
47
100
AcDbScale
 70
     0
300
1/2" = 1'-0"
140
0.5
141
12.0
290
     0
  0
SCALE
  5
63
102
{ACAD_REACTORS
330
47
102
}
330
47
100
AcDbScale
 70
     0
300
3/4" = 1'-0"
140
0.75
141
12.0
290
     0
  0
SCALE
  5
64
102
{ACAD_REACTORS
330
47
102
}
330
47
100
AcDbScale
 70
     0
300
1" = 1'-0"
140
1.0
141
12.0
290
     0
  0
SCALE
  5
65
102
{ACAD_REACTORS
330
47
102
}
330
47
100
AcDbScale
 70
     0
300
1-1/2" = 1'-0"
140
1.5
141
12.0
290
     0
  0
SCALE
  5
66
102
{ACAD_REACTORS
330
47
102
}
330
47
100
AcDbScale
 70
     0
300
3" = 1'-0"
140
3.0
141
12.0
290
     0
  0
SCALE
  5
67
102
{ACAD_REACTORS
330
47
102
}
330
47
100
AcDbScale
 70
     0
300
6" = 1'-0"
140
6.0
141
12.0
290
     0
  0
SCALE
  5
68
102
{ACAD_REACTORS
330
47
102
}
330
47
100
AcDbScale
 70
     0
300
1'-0" = 1'-0"
140
12.0
141
12.0
290
     0
  0
ENDSEC
  0
EOF
