  0
SECTION
  2
HEADER
  9
$ACADVER
  1
AC1015
  9
$ACADMAINTVER
 70
     6
  9
$DWGCODEPAGE
  3
ANSI_1251
  9
$INSBASE
 10
0.0
 20
0.0
 30
0.0
  9
$EXTMIN
 10
0.0
 20
0.0
 30
0.0
  9
$EXTMAX
 10
420.0
 20
297.0
 30
0.0
  9
$LIMMIN
 10
0.0
 20
0.0
  9
$LIMMAX
 10
420.0
 20
297.0
  9
$ORTHOMODE
 70
     0
  9
$REGENMODE
 70
     1
  9
$FILLMODE
 70
     1
  9
$QTEXTMODE
 70
     0
  9
$MIRRTEXT
 70
     1
  9
$LTSCALE
 40
1.0
  9
$ATTMODE
 70
     1
  9
$TEXTSIZE
 40
5.0
  9
$TRACEWID
 40
1.0
  9
$TEXTSTYLE
  7
Standard
  9
$CLAYER
  8
0
  9
$CELTYPE
  6
ByLayer
  9
$CECOLOR
 62
   256
  9
$CELTSCALE
 40
1.0
  9
$DISPSILH
 70
     0
  9
$DIMSCALE
 40
1.0
  9
$DIMASZ
 40
5.0
  9
$DIMEXO
 40
0.0
  9
$DIMDLI
 40
3.75
  9
$DIMRND
 40
0.0
  9
$DIMDLE
 40
0.0
  9
$DIMEXE
 40
1.0
  9
$DIMTP
 40
0.0
  9
$DIMTM
 40
0.0
  9
$DIMTXT
 40
3.5
  9
$DIMCEN
 40
2.5
  9
$DIMTSZ
 40
0.0
  9
$DIMTOL
 70
     0
  9
$DIMLIM
 70
     0
  9
$DIMTIH
 70
     1
  9
$DIMTOH
 70
     1
  9
$DIMSE1
 70
     0
  9
$DIMSE2
 70
     0
  9
$DIMTAD
 70
     1
  9
$DIMZIN
 70
     0
  9
$DIMBLK
  1

  9
$DIMASO
 70
     1
  9
$DIMSHO
 70
     1
  9
$DIMPOST
  1

  9
$DIMAPOST
  1

  9
$DIMALT
 70
     0
  9
$DIMALTD
 70
     3
  9
$DIMALTF
 40
0.0393700787
  9
$DIMLFAC
 40
1.0
  9
$DIMTOFL
 70
     1
  9
$DIMTVP
 40
0.0
  9
$DIMTIX
 70
     0
  9
$DIMSOXD
 70
     0
  9
$DIMSAH
 70
     0
  9
$DIMBLK1
  1

  9
$DIMBLK2
  1

  9
$DIMSTYLE
  2
ISO-25
  9
$DIMCLRD
 70
     0
  9
$DIMCLRE
 70
     0
  9
$DIMCLRT
 70
     0
  9
$DIMTFAC
 40
1.0
  9
$DIMGAP
 40
1.5
  9
$DIMJUST
 70
     0
  9
$DIMSD1
 70
     0
  9
$DIMSD2
 70
     0
  9
$DIMTOLJ
 70
     0
  9
$DIMTZIN
 70
     0
  9
$DIMALTZ
 70
     0
  9
$DIMALTTZ
 70
     0
  9
$DIMUPT
 70
     0
  9
$DIMDEC
 70
     1
  9
$DIMTDEC
 70
     1
  9
$DIMALTU
 70
     2
  9
$DIMALTTD
 70
     3
  9
$DIMTXSTY
  7
Standard
  9
$DIMAUNIT
 70
     0
  9
$DIMADEC
 70
     2
  9
$DIMALTRND
 40
0.0
  9
$DIMAZIN
 70
     0
  9
$DIMDSEP
 70
    44
  9
$DIMATFIT
 70
     3
  9
$DIMFRAC
 70
     0
  9
$DIMLDRBLK
  1

  9
$DIMLUNIT
 70
     2
  9
$DIMLWD
 70
    -2
  9
$DIMLWE
 70
    -2
  9
$DIMTMOVE
 70
     0
  9
$LUNITS
 70
     2
  9
$LUPREC
 70
     1
  9
$SKETCHINC
 40
1.0
  9
$FILLETRAD
 40
0.0
  9
$AUNITS
 70
     0
  9
$AUPREC
 70
     2
  9
$MENU
  1
.
  9
$ELEVATION
 40
0.0
  9
$PELEVATION
 40
0.0
  9
$THICKNESS
 40
0.0
  9
$LIMCHECK
 70
     0
  9
$CHAMFERA
 40
0.0
  9
$CHAMFERB
 40
0.0
  9
$CHAMFERC
 40
0.0
  9
$CHAMFERD
 40
0.0
  9
$SKPOLY
 70
     0
  9
$TDCREATE
 40
2460670.649361667
  9
$TDUCREATE
 40
2460670.524361667
  9
$TDUPDATE
 40
2460670.649363079
  9
$TDUUPDATE
 40
2460670.524363079
  9
$TDINDWG
 40
0.0000000116
  9
$TDUSRTIMER
 40
0.0000000116
  9
$USRTIMER
 70
     1
  9
$ANGBASE
 50
0.0
  9
$ANGDIR
 70
     0
  9
$PDMODE
 70
     0
  9
$PDSIZE
 40
-1.0
  9
$PLINEWID
 40
0.0
  9
$SPLFRAME
 70
     0
  9
$SPLINETYPE
 70
     6
  9
$SPLINESEGS
 70
     8
  9
$HANDSEED
  5
44C
  9
$SURFTAB1
 70
     6
  9
$SURFTAB2
 70
     6
  9
$SURFTYPE
 70
     6
  9
$SURFU
 70
     6
  9
$SURFV
 70
     6
  9
$UCSBASE
  2

  9
$UCSNAME
  2

  9
$UCSORG
 10
0.0
 20
0.0
 30
0.0
  9
$UCSXDIR
 10
1.0
 20
0.0
 30
0.0
  9
$UCSYDIR
 10
0.0
 20
1.0
 30
0.0
  9
$UCSORTHOREF
  2

  9
$UCSORTHOVIEW
 70
     0
  9
$UCSORGTOP
 10
0.0
 20
0.0
 30
0.0
  9
$UCSORGBOTTOM
 10
0.0
 20
0.0
 30
0.0
  9
$UCSORGLEFT
 10
0.0
 20
0.0
 30
0.0
  9
$UCSORGRIGHT
 10
0.0
 20
0.0
 30
0.0
  9
$UCSORGFRONT
 10
0.0
 20
0.0
 30
0.0
  9
$UCSORGBACK
 10
0.0
 20
0.0
 30
0.0
  9
$PUCSBASE
  2

  9
$PUCSNAME
  2

  9
$PUCSORG
 10
0.0
 20
0.0
 30
0.0
  9
$PUCSXDIR
 10
1.0
 20
0.0
 30
0.0
  9
$PUCSYDIR
 10
0.0
 20
1.0
 30
0.0
  9
$PUCSORTHOREF
  2

  9
$PUCSORTHOVIEW
 70
     0
  9
$PUCSORGTOP
 10
0.0
 20
0.0
 30
0.0
  9
$PUCSORGBOTTOM
 10
0.0
 20
0.0
 30
0.0
  9
$PUCSORGLEFT
 10
0.0
 20
0.0
 30
0.0
  9
$PUCSORGRIGHT
 10
0.0
 20
0.0
 30
0.0
  9
$PUCSORGFRONT
 10
0.0
 20
0.0
 30
0.0
  9
$PUCSORGBACK
 10
0.0
 20
0.0
 30
0.0
  9
$USERI1
 70
     0
  9
$USERI2
 70
     0
  9
$USERI3
 70
     0
  9
$USERI4
 70
     0
  9
$USERI5
 70
     0
  9
$USERR1
 40
0.0
  9
$USERR2
 40
0.0
  9
$USERR3
 40
0.0
  9
$USERR4
 40
0.0
  9
$USERR5
 40
0.0
  9
$WORLDVIEW
 70
     1
  9
$SHADEDGE
 70
     3
  9
$SHADEDIF
 70
    70
  9
$TILEMODE
 70
     1
  9
$MAXACTVP
 70
    64
  9
$PINSBASE
 10
0.0
 20
0.0
 30
0.0
  9
$PLIMCHECK
 70
     0
  9
$PEXTMIN
 10
1.0000000000E+20
 20
1.0000000000E+20
 30
1.0000000000E+20
  9
$PEXTMAX
 10
-1.0000000000E+20
 20
-1.0000000000E+20
 30
-1.0000000000E+20
  9
$PLIMMIN
 10
0.0
 20
0.0
  9
$PLIMMAX
 10
420.0
 20
297.0
  9
$UNITMODE
 70
     0
  9
$VISRETAIN
 70
     1
  9
$PLINEGEN
 70
     0
  9
$PSLTSCALE
 70
     1
  9
$TREEDEPTH
 70
  3020
  9
$CMLSTYLE
  2
Standard
  9
$CMLJUST
 70
     0
  9
$CMLSCALE
 40
20.0
  9
$PROXYGRAPHICS
 70
     1
  9
$MEASUREMENT
 70
     1
  9
$CELWEIGHT
370
    -1
  9
$ENDCAPS
280
     0
  9
$JOINSTYLE
280
     0
  9
$LWDISPLAY
290
     1
  9
$INSUNITS
 70
     4
  9
$HYPERLINKBASE
  1

  9
$STYLESHEET
  1

  9
$XEDIT
290
     1
  9
$CEPSNTYPE
380
     0
  9
$PSTYLEMODE
290
     1
  9
$FINGERPRINTGUID
  2
{a7dd7f18-df5d-44a9-aff9-e752aa976c29}
  9
$VERSIONGUID
  2
{FAEB1C32-E019-11D5-929B-00C0DF256EC4}
  9
$EXTNAMES
290
     1
  9
$PSVPSCALE
 40
0.0
  9
$OLESTARTUP
290
     0
  0
ENDSEC
  0
SECTION
  2
CLASSES
  0
CLASS
  1
ACDBDICTIONARYWDFLT
  2
AcDbDictionaryWithDefault
  3
ObjectDBX Classes
 90
        0
280
     0
281
     0
  0
CLASS
  1
VISUALSTYLE
  2
AcDbVisualStyle
  3
ObjectDBX Classes
 90
     4095
280
     0
281
     0
  0
CLASS
  1
MATERIAL
  2
AcDbMaterial
  3
ObjectDBX Classes
 90
     1153
280
     0
281
     0
  0
CLASS
  1
SCALE
  2
AcDbScale
  3
ObjectDBX Classes
 90
     1153
280
     0
281
     0
  0
CLASS
  1
TABLESTYLE
  2
AcDbTableStyle
  3
ObjectDBX Classes
 90
     4095
280
     0
281
     0
  0
CLASS
  1
MLEADERSTYLE
  2
AcDbMLeaderStyle
  3
ACDB_MLEADERSTYLE_CLASS
 90
     4095
280
     0
281
     0
  0
CLASS
  1
SUN
  2
AcDbSun
  3
SCENEOE
 90
     1153
280
     0
281
     0
  0
CLASS
  1
ACDBPLACEHOLDER
  2
AcDbPlaceHolder
  3
ObjectDBX Classes
 90
        0
280
     0
281
     0
  0
CLASS
  1
LAYOUT
  2
AcDbLayout
  3
ObjectDBX Classes
 90
        0
280
     0
281
     0
  0
ENDSEC
  0
SECTION
  2
TABLES
  0
TABLE
  2
VPORT
  5
8
330
0
100
AcDbSymbolTable
 70
     1
  0
VPORT
  5
29
330
8
100
AcDbSymbolTableRecord
100
AcDbViewportTableRecord
  2
*Active
 70
     0
 10
0.0
 20
0.0
 11
1.0
 21
1.0
 12
210.0
 22
148.5
 13
0.0
 23
0.0
 14
10.0
 24
10.0
 15
10.0
 25
10.0
 16
0.0
 26
0.0
 36
1.0
 17
0.0
 27
0.0
 37
0.0
 40
297.0
 41
1.4141414141
 42
50.0
 43
0.0
 44
0.0
 50
0.0
 51
0.0
 71
     0
 72
  2000
 73
     1
 74
     3
 75
     0
 76
     0
 77
     0
 78
     0
281
     0
 65
     1
110
0.0
120
0.0
130
0.0
111
1.0
121
0.0
131
0.0
112
0.0
122
1.0
132
0.0
 79
     0
146
0.0
  0
ENDTAB
  0
TABLE
  2
LTYPE
  5
5
330
0
100
AcDbSymbolTable
 70
     6
  0
LTYPE
  5
14
330
5
100
AcDbSymbolTableRecord
100
AcDbLinetypeTableRecord
  2
ByBlock
 70
     0
  3

 72
    65
 73
     0
 40
0.0
  0
LTYPE
  5
15
330
5
100
AcDbSymbolTableRecord
100
AcDbLinetypeTableRecord
  2
ByLayer
 70
     0
  3

 72
    65
 73
     0
 40
0.0
  0
LTYPE
  5
16
330
5
100
AcDbSymbolTableRecord
100
AcDbLinetypeTableRecord
  2
Continuous
 70
     0
  3
Solid line
 72
    65
 73
     0
 40
0.0
  0
LTYPE
  5
5E
330
5
100
AcDbSymbolTableRecord
100
AcDbLinetypeTableRecord
  2
HIDDEN
 70
     0
  3
Hidden __ __ __ __ __ __ __ __ __ __ __ __ __ __
 72
    65
 73
     2
 40
1.905
 49
1.27
 74
     0
 49
-0.635
 74
     0
  0
LTYPE
  5
5F
330
5
100
AcDbSymbolTableRecord
100
AcDbLinetypeTableRecord
  2
PHANTOM
 70
     0
  3
Phantom ______  __  __  ______  __  __  ______
 72
    65
 73
     6
 40
12.7
 49
6.35
 74
     0
 49
-1.27
 74
     0
 49
1.27
 74
     0
 49
-1.27
 74
     0
 49
1.27
 74
     0
 49
-1.27
 74
     0
  0
LTYPE
  5
60
330
5
100
AcDbSymbolTableRecord
100
AcDbLinetypeTableRecord
  2
CENTER
 70
     0
  3
Center ____ _ ____ _ ____ _ ____ _ ____ _ ____
 72
    65
 73
     4
 40
10.16
 49
6.35
 74
     0
 49
-1.27
 74
     0
 49
1.27
 74
     0
 49
-1.27
 74
     0
  0
LTYPE
  5
61
330
5
100
AcDbSymbolTableRecord
100
AcDbLinetypeTableRecord
  2
CENTERX2
 70
     0
  3
Center (2x) ________  __  ________  __  _____
 72
    65
 73
     4
 40
20.32
 49
12.7
 74
     0
 49
-2.54
 74
     0
 49
2.54
 74
     0
 49
-2.54
 74
     0
  0
LTYPE
  5
62
330
5
100
AcDbSymbolTableRecord
100
AcDbLinetypeTableRecord
  2
DOT2
 70
     0
  3
Dot (.5x) ........................................
 72
    65
 73
     2
 40
0.635
 49
0.0
 74
     0
 49
-0.635
 74
     0
  0
ENDTAB
  0
TABLE
  2
LAYER
  5
2
330
0
100
AcDbSymbolTable
 70
     3
  0
LAYER
  5
10
330
2
100
AcDbSymbolTableRecord
100
AcDbLayerTableRecord
  2
0
 70
     0
 62
     7
  6
Continuous
370
    -3
390
F
  0
LAYER
  5
63
330
2
100
AcDbSymbolTableRecord
100
AcDbLayerTableRecord
  2
ВОДЯНОЙ_ЗНАК
 70
     0
 62
    11
  6
Continuous
370
    -3
390
F
  0
LAYER
  5
64
330
2
100
AcDbSymbolTableRecord
100
AcDbLayerTableRecord
  2
ОСНОВНОЙ
 70
     0
 62
     7
  6
Continuous
370
    -3
390
F
  0
ENDTAB
  0
TABLE
  2
STYLE
  5
3
330
0
100
AcDbSymbolTable
 70
     1
  0
STYLE
  5
11
330
3
100
AcDbSymbolTableRecord
100
AcDbTextStyleTableRecord
  2
Standard
 70
     0
 40
0.0
 41
1.0
 50
0.0
 71
     0
 42
5.0
  3
txt
  4

  0
ENDTAB
  0
TABLE
  2
VIEW
  5
6
330
0
100
AcDbSymbolTable
 70
     0
  0
ENDTAB
  0
TABLE
  2
UCS
  5
7
330
0
100
AcDbSymbolTable
 70
     0
  0
ENDTAB
  0
TABLE
  2
APPID
  5
9
330
0
100
AcDbSymbolTable
 70
     1
  0
APPID
  5
12
330
9
100
AcDbSymbolTableRecord
100
AcDbRegAppTableRecord
  2
ACAD
 70
     0
  0
ENDTAB
  0
TABLE
  2
DIMSTYLE
  5
A
330
0
100
AcDbSymbolTable
 70
     1
100
AcDbDimStyleTable
  0
DIMSTYLE
105
27
330
A
100
AcDbSymbolTableRecord
100
AcDbDimStyleTableRecord
  2
ISO-25
 70
     0
 41
2.5
 42
0.625
 43
3.75
 44
1.25
 73
     0
 74
     0
 77
     1
 78
     8
140
2.5
141
2.5
143
0.0393700787
147
0.625
171
     3
172
     1
178
     0
271
     2
272
     2
274
     3
278
    44
283
     0
284
     8
340
11
  0
ENDTAB
  0
TABLE
  2
BLOCK_RECORD
  5
1
330
0
100
AcDbSymbolTable
 70
     1
  0
BLOCK_RECORD
  5
1F
330
1
100
AcDbSymbolTableRecord
100
AcDbBlockTableRecord
  2
*Model_Space
340
22
  0
BLOCK_RECORD
  5
1B
330
1
100
AcDbSymbolTableRecord
100
AcDbBlockTableRecord
  2
*Paper_Space
340
1E
  0
BLOCK_RECORD
  5
23
330
1
100
AcDbSymbolTableRecord
100
AcDbBlockTableRecord
  2
*Paper_Space0
340
26
  0
ENDTAB
  0
ENDSEC
  0
SECTION
  2
BLOCKS
  0
BLOCK
  5
20
330
1F
100
AcDbEntity
  8
0
100
AcDbBlockBegin
  2
*Model_Space
 70
     0
 10
0.0
 20
0.0
 30
0.0
  3
*Model_Space
  1

  0
ENDBLK
  5
21
330
1F
100
AcDbEntity
  8
0
100
AcDbBlockEnd
  0
BLOCK
  5
1C
330
1B
100
AcDbEntity
 67
     1
  8
0
100
AcDbBlockBegin
  2
*Paper_Space
 70
     0
 10
0.0
 20
0.0
 30
0.0
  3
*Paper_Space
  1

  0
ENDBLK
  5
1D
330
1B
100
AcDbEntity
 67
     1
  8
0
100
AcDbBlockEnd
  0
BLOCK
  5
24
330
23
100
AcDbEntity
  8
0
100
AcDbBlockBegin
  2
*Paper_Space0
 70
     0
 10
0.0
 20
0.0
 30
0.0
  3
*Paper_Space0
  1

  0
ENDBLK
  5
25
330
23
100
AcDbEntity
  8
0
100
AcDbBlockEnd
  0
ENDSEC
  0
SECTION
  2
ENTITIES
  0
CIRCLE
  5
65
330
1F
100
AcDbEntity
  8
0
  6
Continuous
 62
     7
100
AcDbCircle
 10
739.400940124
 20
77.585693355
 30
0.0
 40
3.825687437599186
  0
CIRCLE
  5
66
330
1F
100
AcDbEntity
  8
0
  6
Continuous
 62
     7
100
AcDbCircle
 10
739.400940124
 20
77.585693355
 30
0.0
 40
3.132785809343773
  0
ARC
  5
67
330
1F
100
AcDbEntity
  8
0
  6
Continuous
 62
     7
100
AcDbCircle
 10
745.8051416799
 20
77.585693355
 30
0.0
 40
4.154201555956317
100
AcDbArc
 50
164.0367205383
 51
195.9632794617
  0
ARC
  5
68
330
1F
100
AcDbEntity
  8
0
  6
Continuous
 62
     7
100
AcDbCircle
 10
741.5227023633
 20
78.810693355
 30
0.0
 40
0.3000000000005527
100
AcDbArc
 50
344.0367205383
 51
75.9632794617
  0
ARC
  5
69
330
1F
100
AcDbEntity
  8
0
  6
Continuous
 62
     7
100
AcDbCircle
 10
742.603040902
 20
83.1318945934
 30
0.0
 40
4.154201555956321
100
AcDbArc
 50
224.0367205383
 51
255.9632794618
  0
ARC
  5
6A
330
1F
100
AcDbEntity
  8
0
  6
Continuous
 62
     7
100
AcDbCircle
 10
739.400940124
 20
80.035693355
 30
0.0
 40
0.300000000000585
100
AcDbArc
 50
44.0367205382
 51
135.9632794617
  0
ARC
  5
6B
330
1F
100
AcDbEntity
  8
0
  6
Continuous
 62
     7
100
AcDbCircle
 10
736.198839346
 20
83.1318945934
 30
0.0
 40
4.154201555956258
100
AcDbArc
 50
284.0367205383
 51
315.9632794617
  0
ARC
  5
6C
330
1F
100
AcDbEntity
  8
0
  6
Continuous
 62
     7
100
AcDbCircle
 10
737.2791778847
 20
78.810693355
 30
0.0
 40
0.3000000000006078
100
AcDbArc
 50
104.0367205382
 51
195.9632794618
  0
ARC
  5
6D
330
1F
100
AcDbEntity
  8
0
  6
Continuous
 62
     7
100
AcDbCircle
 10
732.996738568
 20
77.585693355
 30
0.0
 40
4.154201555956274
100
AcDbArc
 50
344.0367205383
 51
15.9632794618
  0
ARC
  5
6E
330
1F
100
AcDbEntity
  8
0
  6
Continuous
 62
     7
100
AcDbCircle
 10
737.2791778847
 20
76.360693355
 30
0.0
 40
0.3000000000005634
100
AcDbArc
 50
164.0367205383
 51
255.9632794617
  0
ARC
  5
6F
330
1F
100
AcDbEntity
  8
0
  6
Continuous
 62
     7
100
AcDbCircle
 10
736.198839346
 20
72.0394921166
 30
0.0
 40
4.154201555956246
100
AcDbArc
 50
44.0367205383
 51
75.9632794618
  0
ARC
  5
70
330
1F
100
AcDbEntity
  8
0
  6
Continuous
 62
     7
100
AcDbCircle
 10
739.400940124
 20
75.135693355
 30
0.0
 40
0.2999999999998701
100
AcDbArc
 50
224.0367205383
 51
315.9632794617
  0
ARC
  5
71
330
1F
100
AcDbEntity
  8
0
  6
Continuous
 62
     7
100
AcDbCircle
 10
742.603040902
 20
72.0394921166
 30
0.0
 40
4.154201555956353
100
AcDbArc
 50
104.0367205382
 51
135.9632794617
  0
ARC
  5
72
330
1F
100
AcDbEntity
  8
0
  6
Continuous
 62
     7
100
AcDbCircle
 10
741.5227023633
 20
76.360693355
 30
0.0
 40
0.300000000000594
100
AcDbArc
 50
284.0367205383
 51
15.9632794618
  0
CIRCLE
  5
73
330
1F
100
AcDbEntity
  8
0
  6
Continuous
 62
     7
100
AcDbCircle
 10
739.400940124
 20
77.585693355
 30
0.0
 40
5.092901628255504
  0
CIRCLE
  5
74
330
1F
100
AcDbEntity
  8
0
  6
Continuous
 62
     7
100
AcDbCircle
 10
739.400940124
 20
77.585693355
 30
0.0
 40
5.900000000000091
  0
CIRCLE
  5
75
330
1F
100
AcDbEntity
  8
0
  6
Continuous
 62
     7
100
AcDbCircle
 10
1515.900940124
 20
127.585693355
 30
0.0
 40
3.825687437599072
  0
CIRCLE
  5
76
330
1F
100
AcDbEntity
  8
0
  6
Continuous
 62
     7
100
AcDbCircle
 10
1515.900940124
 20
127.585693355
 30
0.0
 40
3.132785809343659
  0
ARC
  5
77
330
1F
100
AcDbEntity
  8
0
  6
Continuous
 62
     7
100
AcDbCircle
 10
1522.3051416799
 20
127.585693355
 30
0.0
 40
4.154201555956309
100
AcDbArc
 50
164.0367205383
 51
195.9632794617
  0
ARC
  5
78
330
1F
100
AcDbEntity
  8
0
  6
Continuous
 62
     7
100
AcDbCircle
 10
1518.0227023633
 20
128.810693355
 30
0.0
 40
0.3000000000006064
100
AcDbArc
 50
344.0367205383
 51
75.9632794617
  0
ARC
  5
79
330
1F
100
AcDbEntity
  8
0
  6
Continuous
 62
     7
100
AcDbCircle
 10
1519.103040902
 20
133.1318945934
 30
0.0
 40
4.154201555956238
100
AcDbArc
 50
224.0367205383
 51
255.9632794618
  0
ARC
  5
7A
330
1F
100
AcDbEntity
  8
0
  6
Continuous
 62
     7
100
AcDbCircle
 10
1515.900940124
 20
130.035693355
 30
0.0
 40
0.3000000000004737
100
AcDbArc
 50
44.0367205382
 51
135.9632794618
  0
ARC
  5
7B
330
1F
100
AcDbEntity
  8
0
  6
Continuous
 62
     7
100
AcDbCircle
 10
1512.698839346
 20
133.1318945934
 30
0.0
 40
4.154201555956258
100
AcDbArc
 50
284.0367205383
 51
315.9632794617
  0
ARC
  5
7C
330
1F
100
AcDbEntity
  8
0
  6
Continuous
 62
     7
100
AcDbCircle
 10
1513.7791778847
 20
128.810693355
 30
0.0
 40
0.3000000000006492
100
AcDbArc
 50
104.0367205383
 51
195.9632794618
  0
ARC
  5
7D
330
1F
100
AcDbEntity
  8
0
  6
Continuous
 62
     7
100
AcDbCircle
 10
1509.496738568
 20
127.585693355
 30
0.0
 40
4.154201555956278
100
AcDbArc
 50
344.0367205383
 51
15.9632794618
  0
ARC
  5
7E
330
1F
100
AcDbEntity
  8
0
  6
Continuous
 62
     7
100
AcDbCircle
 10
1513.7791778847
 20
126.360693355
 30
0.0
 40
0.300000000000782
100
AcDbArc
 50
164.0367205383
 51
255.9632794617
  0
ARC
  5
7F
330
1F
100
AcDbEntity
  8
0
  6
Continuous
 62
     7
100
AcDbCircle
 10
1512.698839346
 20
122.0394921166
 30
0.0
 40
4.154201555956257
100
AcDbArc
 50
44.0367205383
 51
75.9632794618
  0
ARC
  5
80
330
1F
100
AcDbEntity
  8
0
  6
Continuous
 62
     7
100
AcDbCircle
 10
1515.900940124
 20
125.135693355
 30
0.0
 40
0.2999999999998701
100
AcDbArc
 50
224.0367205383
 51
315.9632794617
  0
ARC
  5
81
330
1F
100
AcDbEntity
  8
0
  6
Continuous
 62
     7
100
AcDbCircle
 10
1519.103040902
 20
122.0394921166
 30
0.0
 40
4.154201555956362
100
AcDbArc
 50
104.0367205382
 51
135.9632794617
  0
ARC
  5
82
330
1F
100
AcDbEntity
  8
0
  6
Continuous
 62
     7
100
AcDbCircle
 10
1518.0227023633
 20
126.360693355
 30
0.0
 40
0.300000000000622
100
AcDbArc
 50
284.0367205383
 51
15.9632794617
  0
CIRCLE
  5
83
330
1F
100
AcDbEntity
  8
0
  6
Continuous
 62
     7
100
AcDbCircle
 10
1515.900940124
 20
127.585693355
 30
0.0
 40
5.092901628255504
  0
CIRCLE
  5
84
330
1F
100
AcDbEntity
  8
0
  6
Continuous
 62
     7
100
AcDbCircle
 10
1515.900940124
 20
127.585693355
 30
0.0
 40
5.900000000000091
  0
CIRCLE
  5
85
330
1F
100
AcDbEntity
  8
0
  6
Continuous
 62
     7
100
AcDbCircle
 10
739.400940124
 20
127.585693355
 30
0.0
 40
3.825687437599072
  0
CIRCLE
  5
86
330
1F
100
AcDbEntity
  8
0
  6
Continuous
 62
     7
100
AcDbCircle
 10
739.400940124
 20
127.585693355
 30
0.0
 40
3.132785809343773
  0
ARC
  5
87
330
1F
100
AcDbEntity
  8
0
  6
Continuous
 62
     7
100
AcDbCircle
 10
745.8051416799
 20
127.585693355
 30
0.0
 40
4.154201555956321
100
AcDbArc
 50
164.0367205383
 51
195.9632794617
  0
ARC
  5
88
330
1F
100
AcDbEntity
  8
0
  6
Continuous
 62
     7
100
AcDbCircle
 10
741.5227023633
 20
128.810693355
 30
0.0
 40
0.3000000000005389
100
AcDbArc
 50
344.0367205383
 51
75.9632794617
  0
ARC
  5
89
330
1F
100
AcDbEntity
  8
0
  6
Continuous
 62
     7
100
AcDbCircle
 10
742.603040902
 20
133.1318945934
 30
0.0
 40
4.154201555956293
100
AcDbArc
 50
224.0367205383
 51
255.9632794618
  0
ARC
  5
8A
330
1F
100
AcDbEntity
  8
0
  6
Continuous
 62
     7
100
AcDbCircle
 10
739.400940124
 20
130.035693355
 30
0.0
 40
0.3000000000005554
100
AcDbArc
 50
44.0367205383
 51
135.9632794618
  0
ARC
  5
8B
330
1F
100
AcDbEntity
  8
0
  6
Continuous
 62
     7
100
AcDbCircle
 10
736.198839346
 20
133.1318945934
 30
0.0
 40
4.154201555956266
100
AcDbArc
 50
284.0367205383
 51
315.9632794617
  0
ARC
  5
8C
330
1F
100
AcDbEntity
  8
0
  6
Continuous
 62
     7
100
AcDbCircle
 10
737.2791778847
 20
128.810693355
 30
0.0
 40
0.3000000000005664
100
AcDbArc
 50
104.0367205383
 51
195.9632794618
  0
ARC
  5
8D
330
1F
100
AcDbEntity
  8
0
  6
Continuous
 62
     7
100
AcDbCircle
 10
732.996738568
 20
127.585693355
 30
0.0
 40
4.154201555956376
100
AcDbArc
 50
344.0367205383
 51
15.9632794618
  0
ARC
  5
8E
330
1F
100
AcDbEntity
  8
0
  6
Continuous
 62
     7
100
AcDbCircle
 10
737.2791778847
 20
126.360693355
 30
0.0
 40
0.3000000000006727
100
AcDbArc
 50
164.0367205383
 51
255.9632794617
  0
ARC
  5
8F
330
1F
100
AcDbEntity
  8
0
  6
Continuous
 62
     7
100
AcDbCircle
 10
736.198839346
 20
122.0394921166
 30
0.0
 40
4.15420155595628
100
AcDbArc
 50
44.0367205383
 51
75.9632794618
  0
ARC
  5
90
330
1F
100
AcDbEntity
  8
0
  6
Continuous
 62
     7
100
AcDbCircle
 10
739.400940124
 20
125.135693355
 30
0.0
 40
0.2999999999999519
100
AcDbArc
 50
224.0367205383
 51
315.9632794618
  0
ARC
  5
91
330
1F
100
AcDbEntity
  8
0
  6
Continuous
 62
     7
100
AcDbCircle
 10
742.603040902
 20
122.0394921166
 30
0.0
 40
4.154201555956362
100
AcDbArc
 50
104.0367205382
 51
135.9632794617
  0
ARC
  5
92
330
1F
100
AcDbEntity
  8
0
  6
Continuous
 62
     7
100
AcDbCircle
 10
741.5227023633
 20
126.360693355
 30
0.0
 40
0.300000000000594
100
AcDbArc
 50
284.0367205383
 51
15.9632794617
  0
CIRCLE
  5
93
330
1F
100
AcDbEntity
  8
0
  6
Continuous
 62
     7
100
AcDbCircle
 10
739.400940124
 20
127.585693355
 30
0.0
 40
5.092901628255504
  0
CIRCLE
  5
94
330
1F
100
AcDbEntity
  8
0
  6
Continuous
 62
     7
100
AcDbCircle
 10
739.400940124
 20
127.585693355
 30
0.0
 40
5.900000000000091
  0
CIRCLE
  5
95
330
1F
100
AcDbEntity
  8
0
  6
Continuous
 62
     7
100
AcDbCircle
 10
1515.900940124
 20
77.585693355
 30
0.0
 40
3.825687437599299
  0
CIRCLE
  5
96
330
1F
100
AcDbEntity
  8
0
  6
Continuous
 62
     7
100
AcDbCircle
 10
1515.900940124
 20
77.585693355
 30
0.0
 40
3.132785809343659
  0
ARC
  5
97
330
1F
100
AcDbEntity
  8
0
  6
Continuous
 62
     7
100
AcDbCircle
 10
1522.3051416799
 20
77.585693355
 30
0.0
 40
4.154201555956313
100
AcDbArc
 50
164.0367205383
 51
195.9632794617
  0
ARC
  5
98
330
1F
100
AcDbEntity
  8
0
  6
Continuous
 62
     7
100
AcDbCircle
 10
1518.0227023633
 20
78.810693355
 30
0.0
 40
0.3000000000006025
100
AcDbArc
 50
344.0367205383
 51
75.9632794617
  0
ARC
  5
99
330
1F
100
AcDbEntity
  8
0
  6
Continuous
 62
     7
100
AcDbCircle
 10
1519.103040902
 20
83.1318945934
 30
0.0
 40
4.154201555956321
100
AcDbArc
 50
224.0367205383
 51
255.9632794618
  0
ARC
  5
9A
330
1F
100
AcDbEntity
  8
0
  6
Continuous
 62
     7
100
AcDbCircle
 10
1515.900940124
 20
80.035693355
 30
0.0
 40
0.3000000000004934
100
AcDbArc
 50
44.0367205383
 51
135.9632794618
  0
ARC
  5
9B
330
1F
100
AcDbEntity
  8
0
  6
Continuous
 62
     7
100
AcDbCircle
 10
1512.698839346
 20
83.1318945934
 30
0.0
 40
4.154201555956249
100
AcDbArc
 50
284.0367205383
 51
315.9632794617
  0
ARC
  5
9C
330
1F
100
AcDbEntity
  8
0
  6
Continuous
 62
     7
100
AcDbCircle
 10
1513.7791778847
 20
78.810693355
 30
0.0
 40
0.3000000000006492
100
AcDbArc
 50
104.0367205383
 51
195.9632794618
  0
ARC
  5
9D
330
1F
100
AcDbEntity
  8
0
  6
Continuous
 62
     7
100
AcDbCircle
 10
1509.496738568
 20
77.585693355
 30
0.0
 40
4.154201555956345
100
AcDbArc
 50
344.0367205383
 51
15.9632794618
  0
ARC
  5
9E
330
1F
100
AcDbEntity
  8
0
  6
Continuous
 62
     7
100
AcDbCircle
 10
1513.7791778847
 20
76.360693355
 30
0.0
 40
0.300000000000594
100
AcDbArc
 50
164.0367205383
 51
255.9632794617
  0
ARC
  5
9F
330
1F
100
AcDbEntity
  8
0
  6
Continuous
 62
     7
100
AcDbCircle
 10
1512.698839346
 20
72.0394921166
 30
0.0
 40
4.154201555956246
100
AcDbArc
 50
44.0367205383
 51
75.9632794618
  0
ARC
  5
A0
330
1F
100
AcDbEntity
  8
0
  6
Continuous
 62
     7
100
AcDbCircle
 10
1515.900940124
 20
75.135693355
 30
0.0
 40
0.2999999999998701
100
AcDbArc
 50
224.0367205383
 51
315.9632794617
  0
ARC
  5
A1
330
1F
100
AcDbEntity
  8
0
  6
Continuous
 62
     7
100
AcDbCircle
 10
1519.103040902
 20
72.0394921166
 30
0.0
 40
4.15420155595621
100
AcDbArc
 50
104.0367205382
 51
135.9632794617
  0
ARC
  5
A2
330
1F
100
AcDbEntity
  8
0
  6
Continuous
 62
     7
100
AcDbCircle
 10
1518.0227023633
 20
76.360693355
 30
0.0
 40
0.3000000000005802
100
AcDbArc
 50
284.0367205383
 51
15.9632794618
  0
CIRCLE
  5
A3
330
1F
100
AcDbEntity
  8
0
  6
Continuous
 62
     7
100
AcDbCircle
 10
1515.900940124
 20
77.585693355
 30
0.0
 40
5.092901628255504
  0
CIRCLE
  5
A4
330
1F
100
AcDbEntity
  8
0
  6
Continuous
 62
     7
100
AcDbCircle
 10
1515.900940124
 20
77.585693355
 30
0.0
 40
5.900000000000091
  0
LINE
  5
A5
330
1F
100
AcDbEntity
  8
0
  6
Continuous
 62
     7
100
AcDbLine
 10
724.900940124
 20
135.085693355
 30
0.0
 11
721.900940124
 21
132.085693355
 31
0.0
  0
LINE
  5
A6
330
1F
100
AcDbEntity
  8
0
  6
Continuous
 62
     7
100
AcDbLine
 10
746.400940124
 20
135.085693355
 30
0.0
 11
724.900940124
 21
135.085693355
 31
0.0
  0
LINE
  5
A7
330
1F
100
AcDbEntity
  8
0
  6
Continuous
 62
     7
100
AcDbLine
 10
749.400940124
 20
132.085693355
 30
0.0
 11
746.400940124
 21
135.085693355
 31
0.0
  0
LINE
  5
A8
330
1F
100
AcDbEntity
  8
0
  6
Continuous
 62
     7
100
AcDbLine
 10
749.400940124
 20
73.085693355
 30
0.0
 11
749.400940124
 21
132.085693355
 31
0.0
  0
LINE
  5
A9
330
1F
100
AcDbEntity
  8
0
  6
Continuous
 62
     7
100
AcDbLine
 10
746.400940124
 20
70.085693355
 30
0.0
 11
749.400940124
 21
73.085693355
 31
0.0
  0
LINE
  5
AA
330
1F
100
AcDbEntity
  8
0
  6
Continuous
 62
     7
100
AcDbLine
 10
717.400940124
 20
70.085693355
 30
0.0
 11
746.400940124
 21
70.085693355
 31
0.0
  0
LINE
  5
AB
330
1F
100
AcDbEntity
  8
0
  6
Continuous
 62
     7
100
AcDbLine
 10
714.400940124
 20
73.085693355
 30
0.0
 11
717.400940124
 21
70.085693355
 31
0.0
  0
LINE
  5
AC
330
1F
100
AcDbEntity
  8
0
  6
Continuous
 62
     7
100
AcDbLine
 10
714.400940124
 20
110.085693355
 30
0.0
 11
714.400940124
 21
73.085693355
 31
0.0
  0
LINE
  5
AD
330
1F
100
AcDbEntity
  8
0
  6
Continuous
 62
     7
100
AcDbLine
 10
714.400940124
 20
110.085693355
 30
0.0
 11
719.400940124
 21
110.085693355
 31
0.0
  0
LINE
  5
AE
330
1F
100
AcDbEntity
  8
0
  6
Continuous
 62
     7
100
AcDbLine
 10
719.400940124
 20
110.085693355
 30
0.0
 11
719.400940124
 21
103.085693355
 31
0.0
  0
LINE
  5
AF
330
1F
100
AcDbEntity
  8
0
  6
Continuous
 62
     7
100
AcDbLine
 10
721.900940124
 20
103.085693355
 30
0.0
 11
719.400940124
 21
103.085693355
 31
0.0
  0
LINE
  5
B0
330
1F
100
AcDbEntity
  8
0
  6
Continuous
 62
     7
100
AcDbLine
 10
721.900940124
 20
132.085693355
 30
0.0
 11
721.900940124
 21
103.085693355
 31
0.0
  0
ARC
  5
B1
330
1F
100
AcDbEntity
  8
0
  6
Continuous
 62
     7
100
AcDbCircle
 10
741.900940124
 20
77.585693355
 30
0.0
 40
3.499999999999956
100
AcDbArc
 50
338.7487556471
 51
21.2512443379
  0
ARC
  5
B2
330
1F
100
AcDbEntity
  8
0
  6
Continuous
 62
     7
100
AcDbCircle
 10
736.900940124
 20
77.585693355
 30
0.0
 40
3.500000000000093
100
AcDbArc
 50
158.7487571628
 51
201.25124279
  0
ARC
  5
B3
330
1F
100
AcDbEntity
  8
0
  6
Continuous
 62
     7
100
AcDbCircle
 10
736.900940124
 20
127.585693355
 30
0.0
 40
3.50000000000007
100
AcDbArc
 50
158.7487563938
 51
201.2512435803
  0
ARC
  5
B4
330
1F
100
AcDbEntity
  8
0
  6
Continuous
 62
     7
100
AcDbCircle
 10
741.900940124
 20
127.585693355
 30
0.0
 40
3.500000000000151
100
AcDbArc
 50
338.7487560087
 51
21.2512439903
  0
LINE
  5
B5
330
1F
100
AcDbEntity
  8
0
  6
Continuous
 62
     7
100
AcDbLine
 10
1533.400940124
 20
103.085693355
 30
0.0
 11
1535.900940124
 21
103.085693355
 31
0.0
  0
LINE
  5
B6
330
1F
100
AcDbEntity
  8
0
  6
Continuous
 62
     7
100
AcDbLine
 10
1535.900940124
 20
110.085693355
 30
0.0
 11
1535.900940124
 21
103.085693355
 31
0.0
  0
LINE
  5
B7
330
1F
100
AcDbEntity
  8
0
  6
Continuous
 62
     7
100
AcDbLine
 10
1535.900940124
 20
110.085693355
 30
0.0
 11
1540.900940124
 21
110.085693355
 31
0.0
  0
LINE
  5
B8
330
1F
100
AcDbEntity
  8
0
  6
Continuous
 62
     7
100
AcDbLine
 10
1540.900940124
 20
110.085693355
 30
0.0
 11
1540.900940124
 21
73.085693355
 31
0.0
  0
LINE
  5
B9
330
1F
100
AcDbEntity
  8
0
  6
Continuous
 62
     7
100
AcDbLine
 10
1540.900940124
 20
73.085693355
 30
0.0
 11
1537.900940124
 21
70.085693355
 31
0.0
  0
LINE
  5
BA
330
1F
100
AcDbEntity
  8
0
  6
Continuous
 62
     7
100
AcDbLine
 10
1537.900940124
 20
70.085693355
 30
0.0
 11
1508.900940124
 21
70.085693355
 31
0.0
  0
LINE
  5
BB
330
1F
100
AcDbEntity
  8
0
  6
Continuous
 62
     7
100
AcDbLine
 10
1508.900940124
 20
70.085693355
 30
0.0
 11
1505.900940124
 21
73.085693355
 31
0.0
  0
LINE
  5
BC
330
1F
100
AcDbEntity
  8
0
  6
Continuous
 62
     7
100
AcDbLine
 10
1505.900940124
 20
73.085693355
 30
0.0
 11
1505.900940124
 21
132.085693355
 31
0.0
  0
LINE
  5
BD
330
1F
100
AcDbEntity
  8
0
  6
Continuous
 62
     7
100
AcDbLine
 10
1505.900940124
 20
132.085693355
 30
0.0
 11
1508.900940124
 21
135.085693355
 31
0.0
  0
LINE
  5
BE
330
1F
100
AcDbEntity
  8
0
  6
Continuous
 62
     7
100
AcDbLine
 10
1508.900940124
 20
135.085693355
 30
0.0
 11
1530.400940124
 21
135.085693355
 31
0.0
  0
LINE
  5
BF
330
1F
100
AcDbEntity
  8
0
  6
Continuous
 62
     7
100
AcDbLine
 10
1530.400940124
 20
135.085693355
 30
0.0
 11
1533.400940124
 21
132.085693355
 31
0.0
  0
LINE
  5
C0
330
1F
100
AcDbEntity
  8
0
  6
Continuous
 62
     7
100
AcDbLine
 10
1533.400940124
 20
132.085693355
 30
0.0
 11
1533.400940124
 21
103.085693355
 31
0.0
  0
ARC
  5
C1
330
1F
100
AcDbEntity
  8
0
  6
Continuous
 62
     7
100
AcDbCircle
 10
1513.400940124
 20
77.585693355
 30
0.0
 40
3.500000000000047
100
AcDbArc
 50
158.7487556622
 51
201.2512443528
  0
ARC
  5
C2
330
1F
100
AcDbEntity
  8
0
  6
Continuous
 62
     7
100
AcDbCircle
 10
1518.400940124
 20
77.585693355
 30
0.0
 40
3.500000000000031
100
AcDbArc
 50
338.7487571355
 51
21.2512429087
  0
ARC
  5
C3
330
1F
100
AcDbEntity
  8
0
  6
Continuous
 62
     7
100
AcDbCircle
 10
1518.400940124
 20
127.585693355
 30
0.0
 40
3.500000000000086
100
AcDbArc
 50
338.7487564197
 51
21.2512436062
  0
ARC
  5
C4
330
1F
100
AcDbEntity
  8
0
  6
Continuous
 62
     7
100
AcDbCircle
 10
1513.400940124
 20
127.585693355
 30
0.0
 40
3.50000000000008
100
AcDbArc
 50
158.7487560716
 51
201.2512439251
  0
CIRCLE
  5
C5
330
1F
100
AcDbEntity
  8
0
  6
Continuous
 62
     7
100
AcDbCircle
 10
1027.650940124
 20
180.585693355
 30
0.0
 40
2.599999999999994
  0
CIRCLE
  5
C6
330
1F
100
AcDbEntity
  8
0
  6
Continuous
 62
     7
100
AcDbCircle
 10
827.650940124
 20
180.585693355
 30
0.0
 40
2.599999999999994
  0
CIRCLE
  5
C7
330
1F
100
AcDbEntity
  8
0
  6
Continuous
 62
     7
100
AcDbCircle
 10
1077.650940124
 20
180.585693355
 30
0.0
 40
3.25
  0
CIRCLE
  5
C8
330
1F
100
AcDbEntity
  8
0
  6
Continuous
 62
     7
100
AcDbCircle
 10
877.650940124
 20
180.585693355
 30
0.0
 40
3.249999999999972
  0
CIRCLE
  5
C9
330
1F
100
AcDbEntity
  8
0
  6
Continuous
 62
     7
100
AcDbCircle
 10
1127.650940124
 20
180.585693355
 30
0.0
 40
2.599999999999994
  0
CIRCLE
  5
CA
330
1F
100
AcDbEntity
  8
0
  6
Continuous
 62
     7
100
AcDbCircle
 10
1327.650940124
 20
180.585693355
 30
0.0
 40
2.599999999999994
  0
LINE
  5
CB
330
1F
100
AcDbEntity
  8
0
  6
Continuous
 62
     7
100
AcDbLine
 10
705.150940124
 20
202.7639010922
 30
0.0
 11
705.150940124
 21
200.085693355
 31
0.0
  0
LINE
  5
CC
330
1F
100
AcDbEntity
  8
0
  6
Continuous
 62
     7
100
AcDbLine
 10
705.150940124
 20
200.085693355
 30
0.0
 11
750.150940124
 21
200.085693355
 31
0.0
  0
LINE
  5
CD
330
1F
100
AcDbEntity
  8
0
  6
Continuous
 62
     7
100
AcDbLine
 10
750.150940124
 20
200.085693355
 30
0.0
 11
750.150940124
 21
202.7639010922
 31
0.0
  0
LINE
  5
CE
330
1F
100
AcDbEntity
  8
0
  6
Continuous
 62
     7
100
AcDbLine
 10
750.150940124
 20
202.7639010922
 30
0.0
 11
705.150940124
 21
202.7639010922
 31
0.0
  0
LINE
  5
CF
330
1F
100
AcDbEntity
  8
0
  6
Continuous
 62
     7
100
AcDbLine
 10
755.150940124
 20
202.7639010922
 30
0.0
 11
755.150940124
 21
200.085693355
 31
0.0
  0
LINE
  5
D0
330
1F
100
AcDbEntity
  8
0
  6
Continuous
 62
     7
100
AcDbLine
 10
755.150940124
 20
200.085693355
 30
0.0
 11
800.150940124
 21
200.085693355
 31
0.0
  0
LINE
  5
D1
330
1F
100
AcDbEntity
  8
0
  6
Continuous
 62
     7
100
AcDbLine
 10
800.150940124
 20
200.085693355
 30
0.0
 11
800.150940124
 21
202.7639010922
 31
0.0
  0
LINE
  5
D2
330
1F
100
AcDbEntity
  8
0
  6
Continuous
 62
     7
100
AcDbLine
 10
800.150940124
 20
202.7639010922
 30
0.0
 11
755.150940124
 21
202.7639010922
 31
0.0
  0
LINE
  5
D3
330
1F
100
AcDbEntity
  8
0
  6
Continuous
 62
     7
100
AcDbLine
 10
805.150940124
 20
202.7639010922
 30
0.0
 11
805.150940124
 21
200.085693355
 31
0.0
  0
LINE
  5
D4
330
1F
100
AcDbEntity
  8
0
  6
Continuous
 62
     7
100
AcDbLine
 10
805.150940124
 20
200.085693355
 30
0.0
 11
850.150940124
 21
200.085693355
 31
0.0
  0
LINE
  5
D5
330
1F
100
AcDbEntity
  8
0
  6
Continuous
 62
     7
100
AcDbLine
 10
850.150940124
 20
200.085693355
 30
0.0
 11
850.150940124
 21
202.7639010922
 31
0.0
  0
LINE
  5
D6
330
1F
100
AcDbEntity
  8
0
  6
Continuous
 62
     7
100
AcDbLine
 10
850.150940124
 20
202.7639010922
 30
0.0
 11
805.150940124
 21
202.7639010922
 31
0.0
  0
LINE
  5
D7
330
1F
100
AcDbEntity
  8
0
  6
Continuous
 62
     7
100
AcDbLine
 10
855.150940124
 20
202.7639010922
 30
0.0
 11
855.150940124
 21
200.085693355
 31
0.0
  0
LINE
  5
D8
330
1F
100
AcDbEntity
  8
0
  6
Continuous
 62
     7
100
AcDbLine
 10
855.150940124
 20
200.085693355
 30
0.0
 11
900.150940124
 21
200.085693355
 31
0.0
  0
LINE
  5
D9
330
1F
100
AcDbEntity
  8
0
  6
Continuous
 62
     7
100
AcDbLine
 10
900.150940124
 20
200.085693355
 30
0.0
 11
900.150940124
 21
202.7639010922
 31
0.0
  0
LINE
  5
DA
330
1F
100
AcDbEntity
  8
0
  6
Continuous
 62
     7
100
AcDbLine
 10
900.150940124
 20
202.7639010922
 30
0.0
 11
855.150940124
 21
202.7639010922
 31
0.0
  0
LINE
  5
DB
330
1F
100
AcDbEntity
  8
0
  6
Continuous
 62
     7
100
AcDbLine
 10
905.150940124
 20
202.7639010922
 30
0.0
 11
905.150940124
 21
200.085693355
 31
0.0
  0
LINE
  5
DC
330
1F
100
AcDbEntity
  8
0
  6
Continuous
 62
     7
100
AcDbLine
 10
905.150940124
 20
200.085693355
 30
0.0
 11
950.150940124
 21
200.085693355
 31
0.0
  0
LINE
  5
DD
330
1F
100
AcDbEntity
  8
0
  6
Continuous
 62
     7
100
AcDbLine
 10
950.150940124
 20
200.085693355
 30
0.0
 11
950.150940124
 21
202.7639010922
 31
0.0
  0
LINE
  5
DE
330
1F
100
AcDbEntity
  8
0
  6
Continuous
 62
     7
100
AcDbLine
 10
950.150940124
 20
202.7639010922
 30
0.0
 11
905.150940124
 21
202.7639010922
 31
0.0
  0
LINE
  5
DF
330
1F
100
AcDbEntity
  8
0
  6
Continuous
 62
     7
100
AcDbLine
 10
955.150940124
 20
202.7639010922
 30
0.0
 11
955.150940124
 21
200.085693355
 31
0.0
  0
LINE
  5
E0
330
1F
100
AcDbEntity
  8
0
  6
Continuous
 62
     7
100
AcDbLine
 10
955.150940124
 20
200.085693355
 30
0.0
 11
1000.150940124
 21
200.085693355
 31
0.0
  0
LINE
  5
E1
330
1F
100
AcDbEntity
  8
0
  6
Continuous
 62
     7
100
AcDbLine
 10
1000.150940124
 20
200.085693355
 30
0.0
 11
1000.150940124
 21
202.7639010922
 31
0.0
  0
LINE
  5
E2
330
1F
100
AcDbEntity
  8
0
  6
Continuous
 62
     7
100
AcDbLine
 10
1000.150940124
 20
202.7639010922
 30
0.0
 11
955.150940124
 21
202.7639010922
 31
0.0
  0
LINE
  5
E3
330
1F
100
AcDbEntity
  8
0
  6
Continuous
 62
     7
100
AcDbLine
 10
1005.150940124
 20
202.7639010922
 30
0.0
 11
1005.150940124
 21
200.085693355
 31
0.0
  0
LINE
  5
E4
330
1F
100
AcDbEntity
  8
0
  6
Continuous
 62
     7
100
AcDbLine
 10
1005.150940124
 20
200.085693355
 30
0.0
 11
1050.150940124
 21
200.085693355
 31
0.0
  0
LINE
  5
E5
330
1F
100
AcDbEntity
  8
0
  6
Continuous
 62
     7
100
AcDbLine
 10
1050.150940124
 20
200.085693355
 30
0.0
 11
1050.150940124
 21
202.7639010922
 31
0.0
  0
LINE
  5
E6
330
1F
100
AcDbEntity
  8
0
  6
Continuous
 62
     7
100
AcDbLine
 10
1050.150940124
 20
202.7639010922
 30
0.0
 11
1005.150940124
 21
202.7639010922
 31
0.0
  0
LINE
  5
E7
330
1F
100
AcDbEntity
  8
0
  6
Continuous
 62
     7
100
AcDbLine
 10
1055.150940124
 20
202.7639010922
 30
0.0
 11
1055.150940124
 21
200.085693355
 31
0.0
  0
LINE
  5
E8
330
1F
100
AcDbEntity
  8
0
  6
Continuous
 62
     7
100
AcDbLine
 10
1055.150940124
 20
200.085693355
 30
0.0
 11
1100.150940124
 21
200.085693355
 31
0.0
  0
LINE
  5
E9
330
1F
100
AcDbEntity
  8
0
  6
Continuous
 62
     7
100
AcDbLine
 10
1100.150940124
 20
200.085693355
 30
0.0
 11
1100.150940124
 21
202.7639010922
 31
0.0
  0
LINE
  5
EA
330
1F
100
AcDbEntity
  8
0
  6
Continuous
 62
     7
100
AcDbLine
 10
1100.150940124
 20
202.7639010922
 30
0.0
 11
1055.150940124
 21
202.7639010922
 31
0.0
  0
LINE
  5
EB
330
1F
100
AcDbEntity
  8
0
  6
Continuous
 62
     7
100
AcDbLine
 10
1105.150940124
 20
202.7639010922
 30
0.0
 11
1105.150940124
 21
200.085693355
 31
0.0
  0
LINE
  5
EC
330
1F
100
AcDbEntity
  8
0
  6
Continuous
 62
     7
100
AcDbLine
 10
1105.150940124
 20
200.085693355
 30
0.0
 11
1150.150940124
 21
200.085693355
 31
0.0
  0
LINE
  5
ED
330
1F
100
AcDbEntity
  8
0
  6
Continuous
 62
     7
100
AcDbLine
 10
1150.150940124
 20
200.085693355
 30
0.0
 11
1150.150940124
 21
202.7639010922
 31
0.0
  0
LINE
  5
EE
330
1F
100
AcDbEntity
  8
0
  6
Continuous
 62
     7
100
AcDbLine
 10
1150.150940124
 20
202.7639010922
 30
0.0
 11
1105.150940124
 21
202.7639010922
 31
0.0
  0
LINE
  5
EF
330
1F
100
AcDbEntity
  8
0
  6
Continuous
 62
     7
100
AcDbLine
 10
1155.150940124
 20
202.7639010922
 30
0.0
 11
1155.150940124
 21
200.085693355
 31
0.0
  0
LINE
  5
F0
330
1F
100
AcDbEntity
  8
0
  6
Continuous
 62
     7
100
AcDbLine
 10
1155.150940124
 20
200.085693355
 30
0.0
 11
1200.150940124
 21
200.085693355
 31
0.0
  0
LINE
  5
F1
330
1F
100
AcDbEntity
  8
0
  6
Continuous
 62
     7
100
AcDbLine
 10
1200.150940124
 20
200.085693355
 30
0.0
 11
1200.150940124
 21
202.7639010922
 31
0.0
  0
LINE
  5
F2
330
1F
100
AcDbEntity
  8
0
  6
Continuous
 62
     7
100
AcDbLine
 10
1200.150940124
 20
202.7639010922
 30
0.0
 11
1155.150940124
 21
202.7639010922
 31
0.0
  0
LINE
  5
F3
330
1F
100
AcDbEntity
  8
0
  6
Continuous
 62
     7
100
AcDbLine
 10
1205.150940124
 20
202.7639010922
 30
0.0
 11
1205.150940124
 21
200.085693355
 31
0.0
  0
LINE
  5
F4
330
1F
100
AcDbEntity
  8
0
  6
Continuous
 62
     7
100
AcDbLine
 10
1205.150940124
 20
200.085693355
 30
0.0
 11
1250.150940124
 21
200.085693355
 31
0.0
  0
LINE
  5
F5
330
1F
100
AcDbEntity
  8
0
  6
Continuous
 62
     7
100
AcDbLine
 10
1250.150940124
 20
200.085693355
 30
0.0
 11
1250.150940124
 21
202.7639010922
 31
0.0
  0
LINE
  5
F6
330
1F
100
AcDbEntity
  8
0
  6
Continuous
 62
     7
100
AcDbLine
 10
1250.150940124
 20
202.7639010922
 30
0.0
 11
1205.150940124
 21
202.7639010922
 31
0.0
  0
LINE
  5
F7
330
1F
100
AcDbEntity
  8
0
  6
Continuous
 62
     7
100
AcDbLine
 10
1255.150940124
 20
202.7639010922
 30
0.0
 11
1255.150940124
 21
200.085693355
 31
0.0
  0
LINE
  5
F8
330
1F
100
AcDbEntity
  8
0
  6
Continuous
 62
     7
100
AcDbLine
 10
1255.150940124
 20
200.085693355
 30
0.0
 11
1300.150940124
 21
200.085693355
 31
0.0
  0
LINE
  5
F9
330
1F
100
AcDbEntity
  8
0
  6
Continuous
 62
     7
100
AcDbLine
 10
1300.150940124
 20
200.085693355
 30
0.0
 11
1300.150940124
 21
202.7639010922
 31
0.0
  0
LINE
  5
FA
330
1F
100
AcDbEntity
  8
0
  6
Continuous
 62
     7
100
AcDbLine
 10
1300.150940124
 20
202.7639010922
 30
0.0
 11
1255.150940124
 21
202.7639010922
 31
0.0
  0
LINE
  5
FB
330
1F
100
AcDbEntity
  8
0
  6
Continuous
 62
     7
100
AcDbLine
 10
1305.150940124
 20
202.7639010922
 30
0.0
 11
1305.150940124
 21
200.085693355
 31
0.0
  0
LINE
  5
FC
330
1F
100
AcDbEntity
  8
0
  6
Continuous
 62
     7
100
AcDbLine
 10
1305.150940124
 20
200.085693355
 30
0.0
 11
1350.150940124
 21
200.085693355
 31
0.0
  0
LINE
  5
FD
330
1F
100
AcDbEntity
  8
0
  6
Continuous
 62
     7
100
AcDbLine
 10
1350.150940124
 20
200.085693355
 30
0.0
 11
1350.150940124
 21
202.7639010922
 31
0.0
  0
LINE
  5
FE
330
1F
100
AcDbEntity
  8
0
  6
Continuous
 62
     7
100
AcDbLine
 10
1350.150940124
 20
202.7639010922
 30
0.0
 11
1305.150940124
 21
202.7639010922
 31
0.0
  0
LINE
  5
FF
330
1F
100
AcDbEntity
  8
0
  6
Continuous
 62
     7
100
AcDbLine
 10
1355.150940124
 20
202.7639010922
 30
0.0
 11
1355.150940124
 21
200.085693355
 31
0.0
  0
LINE
  5
100
330
1F
100
AcDbEntity
  8
0
  6
Continuous
 62
     7
100
AcDbLine
 10
1355.150940124
 20
200.085693355
 30
0.0
 11
1400.150940124
 21
200.085693355
 31
0.0
  0
LINE
  5
101
330
1F
100
AcDbEntity
  8
0
  6
Continuous
 62
     7
100
AcDbLine
 10
1400.150940124
 20
200.085693355
 30
0.0
 11
1400.150940124
 21
202.7639010922
 31
0.0
  0
LINE
  5
102
330
1F
100
AcDbEntity
  8
0
  6
Continuous
 62
     7
100
AcDbLine
 10
1400.150940124
 20
202.7639010922
 30
0.0
 11
1355.150940124
 21
202.7639010922
 31
0.0
  0
LINE
  5
103
330
1F
100
AcDbEntity
  8
0
  6
Continuous
 62
     7
100
AcDbLine
 10
1405.150940124
 20
202.7639010922
 30
0.0
 11
1405.150940124
 21
200.085693355
 31
0.0
  0
LINE
  5
104
330
1F
100
AcDbEntity
  8
0
  6
Continuous
 62
     7
100
AcDbLine
 10
1405.150940124
 20
200.085693355
 30
0.0
 11
1450.150940124
 21
200.085693355
 31
0.0
  0
LINE
  5
105
330
1F
100
AcDbEntity
  8
0
  6
Continuous
 62
     7
100
AcDbLine
 10
1450.150940124
 20
200.085693355
 30
0.0
 11
1450.150940124
 21
202.7639010922
 31
0.0
  0
LINE
  5
106
330
1F
100
AcDbEntity
  8
0
  6
Continuous
 62
     7
100
AcDbLine
 10
1450.150940124
 20
202.7639010922
 30
0.0
 11
1405.150940124
 21
202.7639010922
 31
0.0
  0
LINE
  5
107
330
1F
100
AcDbEntity
  8
0
  6
Continuous
 62
     7
100
AcDbLine
 10
767.150940124
 20
151.585693355
 30
0.0
 11
788.150940124
 21
151.585693355
 31
0.0
  0
ARC
  5
108
330
1F
100
AcDbEntity
  8
0
  6
Continuous
 62
     7
100
AcDbCircle
 10
788.150940124
 20
155.585693355
 30
0.0
 40
4.000000000000028
100
AcDbArc
 50
270.0
 51
90.0
  0
LINE
  5
109
330
1F
100
AcDbEntity
  8
0
  6
Continuous
 62
     7
100
AcDbLine
 10
788.150940124
 20
159.585693355
 30
0.0
 11
767.150940124
 21
159.585693355
 31
0.0
  0
ARC
  5
10A
330
1F
100
AcDbEntity
  8
0
  6
Continuous
 62
     7
100
AcDbCircle
 10
767.150940124
 20
155.585693355
 30
0.0
 40
4.0
100
AcDbArc
 50
90.0
 51
270.0
  0
LINE
  5
10B
330
1F
100
AcDbEntity
  8
0
  6
Continuous
 62
     7
100
AcDbLine
 10
817.150940124
 20
151.585693355
 30
0.0
 11
838.150940124
 21
151.585693355
 31
0.0
  0
ARC
  5
10C
330
1F
100
AcDbEntity
  8
0
  6
Continuous
 62
     7
100
AcDbCircle
 10
838.150940124
 20
155.585693355
 30
0.0
 40
4.0
100
AcDbArc
 50
270.0
 51
90.0
  0
LINE
  5
10D
330
1F
100
AcDbEntity
  8
0
  6
Continuous
 62
     7
100
AcDbLine
 10
838.150940124
 20
159.585693355
 30
0.0
 11
817.150940124
 21
159.585693355
 31
0.0
  0
ARC
  5
10E
330
1F
100
AcDbEntity
  8
0
  6
Continuous
 62
     7
100
AcDbCircle
 10
817.150940124
 20
155.585693355
 30
0.0
 40
4.0
100
AcDbArc
 50
90.0
 51
270.0
  0
LINE
  5
10F
330
1F
100
AcDbEntity
  8
0
  6
Continuous
 62
     7
100
AcDbLine
 10
867.150940124
 20
151.585693355
 30
0.0
 11
888.150940124
 21
151.585693355
 31
0.0
  0
ARC
  5
110
330
1F
100
AcDbEntity
  8
0
  6
Continuous
 62
     7
100
AcDbCircle
 10
888.150940124
 20
155.585693355
 30
0.0
 40
4.0
100
AcDbArc
 50
270.0
 51
90.0
  0
LINE
  5
111
330
1F
100
AcDbEntity
  8
0
  6
Continuous
 62
     7
100
AcDbLine
 10
888.150940124
 20
159.585693355
 30
0.0
 11
867.150940124
 21
159.585693355
 31
0.0
  0
ARC
  5
112
330
1F
100
AcDbEntity
  8
0
  6
Continuous
 62
     7
100
AcDbCircle
 10
867.150940124
 20
155.585693355
 30
0.0
 40
4.0
100
AcDbArc
 50
90.0
 51
270.0
  0
LINE
  5
113
330
1F
100
AcDbEntity
  8
0
  6
Continuous
 62
     7
100
AcDbLine
 10
917.150940124
 20
151.585693355
 30
0.0
 11
938.150940124
 21
151.585693355
 31
0.0
  0
ARC
  5
114
330
1F
100
AcDbEntity
  8
0
  6
Continuous
 62
     7
100
AcDbCircle
 10
938.150940124
 20
155.585693355
 30
0.0
 40
4.0
100
AcDbArc
 50
270.0
 51
90.0
  0
LINE
  5
115
330
1F
100
AcDbEntity
  8
0
  6
Continuous
 62
     7
100
AcDbLine
 10
938.150940124
 20
159.585693355
 30
0.0
 11
917.150940124
 21
159.585693355
 31
0.0
  0
ARC
  5
116
330
1F
100
AcDbEntity
  8
0
  6
Continuous
 62
     7
100
AcDbCircle
 10
917.150940124
 20
155.585693355
 30
0.0
 40
4.000000000000028
100
AcDbArc
 50
90.0
 51
270.0
  0
LINE
  5
117
330
1F
100
AcDbEntity
  8
0
  6
Continuous
 62
     7
100
AcDbLine
 10
967.150940124
 20
151.585693355
 30
0.0
 11
988.150940124
 21
151.585693355
 31
0.0
  0
ARC
  5
118
330
1F
100
AcDbEntity
  8
0
  6
Continuous
 62
     7
100
AcDbCircle
 10
988.150940124
 20
155.585693355
 30
0.0
 40
4.0
100
AcDbArc
 50
270.0
 51
90.0
  0
LINE
  5
119
330
1F
100
AcDbEntity
  8
0
  6
Continuous
 62
     7
100
AcDbLine
 10
988.150940124
 20
159.585693355
 30
0.0
 11
967.150940124
 21
159.585693355
 31
0.0
  0
ARC
  5
11A
330
1F
100
AcDbEntity
  8
0
  6
Continuous
 62
     7
100
AcDbCircle
 10
967.150940124
 20
155.585693355
 30
0.0
 40
4.0
100
AcDbArc
 50
90.0
 51
270.0
  0
LINE
  5
11B
330
1F
100
AcDbEntity
  8
0
  6
Continuous
 62
     7
100
AcDbLine
 10
1017.150940124
 20
151.585693355
 30
0.0
 11
1038.150940124
 21
151.585693355
 31
0.0
  0
ARC
  5
11C
330
1F
100
AcDbEntity
  8
0
  6
Continuous
 62
     7
100
AcDbCircle
 10
1038.150940124
 20
155.585693355
 30
0.0
 40
4.000000000000028
100
AcDbArc
 50
270.0
 51
90.0
  0
LINE
  5
11D
330
1F
100
AcDbEntity
  8
0
  6
Continuous
 62
     7
100
AcDbLine
 10
1038.150940124
 20
159.585693355
 30
0.0
 11
1017.150940124
 21
159.585693355
 31
0.0
  0
ARC
  5
11E
330
1F
100
AcDbEntity
  8
0
  6
Continuous
 62
     7
100
AcDbCircle
 10
1017.150940124
 20
155.585693355
 30
0.0
 40
4.000000000000028
100
AcDbArc
 50
90.0
 51
270.0
  0
LINE
  5
11F
330
1F
100
AcDbEntity
  8
0
  6
Continuous
 62
     7
100
AcDbLine
 10
1067.150940124
 20
151.585693355
 30
0.0
 11
1088.150940124
 21
151.585693355
 31
0.0
  0
ARC
  5
120
330
1F
100
AcDbEntity
  8
0
  6
Continuous
 62
     7
100
AcDbCircle
 10
1088.150940124
 20
155.585693355
 30
0.0
 40
4.0
100
AcDbArc
 50
270.0
 51
90.0
  0
LINE
  5
121
330
1F
100
AcDbEntity
  8
0
  6
Continuous
 62
     7
100
AcDbLine
 10
1088.150940124
 20
159.585693355
 30
0.0
 11
1067.150940124
 21
159.585693355
 31
0.0
  0
ARC
  5
122
330
1F
100
AcDbEntity
  8
0
  6
Continuous
 62
     7
100
AcDbCircle
 10
1067.150940124
 20
155.585693355
 30
0.0
 40
4.0
100
AcDbArc
 50
90.0
 51
270.0
  0
LINE
  5
123
330
1F
100
AcDbEntity
  8
0
  6
Continuous
 62
     7
100
AcDbLine
 10
1117.150940124
 20
151.585693355
 30
0.0
 11
1138.150940124
 21
151.585693355
 31
0.0
  0
ARC
  5
124
330
1F
100
AcDbEntity
  8
0
  6
Continuous
 62
     7
100
AcDbCircle
 10
1138.150940124
 20
155.585693355
 30
0.0
 40
4.000000000000028
100
AcDbArc
 50
270.0
 51
90.0
  0
LINE
  5
125
330
1F
100
AcDbEntity
  8
0
  6
Continuous
 62
     7
100
AcDbLine
 10
1138.150940124
 20
159.585693355
 30
0.0
 11
1117.150940124
 21
159.585693355
 31
0.0
  0
ARC
  5
126
330
1F
100
AcDbEntity
  8
0
  6
Continuous
 62
     7
100
AcDbCircle
 10
1117.150940124
 20
155.585693355
 30
0.0
 40
4.0
100
AcDbArc
 50
90.0
 51
270.0
  0
LINE
  5
127
330
1F
100
AcDbEntity
  8
0
  6
Continuous
 62
     7
100
AcDbLine
 10
1167.150940124
 20
151.585693355
 30
0.0
 11
1188.150940124
 21
151.585693355
 31
0.0
  0
ARC
  5
128
330
1F
100
AcDbEntity
  8
0
  6
Continuous
 62
     7
100
AcDbCircle
 10
1188.150940124
 20
155.585693355
 30
0.0
 40
4.0
100
AcDbArc
 50
270.0
 51
90.0
  0
LINE
  5
129
330
1F
100
AcDbEntity
  8
0
  6
Continuous
 62
     7
100
AcDbLine
 10
1188.150940124
 20
159.585693355
 30
0.0
 11
1167.150940124
 21
159.585693355
 31
0.0
  0
ARC
  5
12A
330
1F
100
AcDbEntity
  8
0
  6
Continuous
 62
     7
100
AcDbCircle
 10
1167.150940124
 20
155.585693355
 30
0.0
 40
4.0
100
AcDbArc
 50
90.0
 51
270.0
  0
LINE
  5
12B
330
1F
100
AcDbEntity
  8
0
  6
Continuous
 62
     7
100
AcDbLine
 10
1217.150940124
 20
151.585693355
 30
0.0
 11
1238.150940124
 21
151.585693355
 31
0.0
  0
ARC
  5
12C
330
1F
100
AcDbEntity
  8
0
  6
Continuous
 62
     7
100
AcDbCircle
 10
1238.150940124
 20
155.585693355
 30
0.0
 40
4.0
100
AcDbArc
 50
270.0
 51
90.0
  0
LINE
  5
12D
330
1F
100
AcDbEntity
  8
0
  6
Continuous
 62
     7
100
AcDbLine
 10
1238.150940124
 20
159.585693355
 30
0.0
 11
1217.150940124
 21
159.585693355
 31
0.0
  0
ARC
  5
12E
330
1F
100
AcDbEntity
  8
0
  6
Continuous
 62
     7
100
AcDbCircle
 10
1217.150940124
 20
155.585693355
 30
0.0
 40
4.0
100
AcDbArc
 50
90.0
 51
270.0
  0
LINE
  5
12F
330
1F
100
AcDbEntity
  8
0
  6
Continuous
 62
     7
100
AcDbLine
 10
1267.150940124
 20
151.585693355
 30
0.0
 11
1288.150940124
 21
151.585693355
 31
0.0
  0
ARC
  5
130
330
1F
100
AcDbEntity
  8
0
  6
Continuous
 62
     7
100
AcDbCircle
 10
1288.150940124
 20
155.585693355
 30
0.0
 40
4.0
100
AcDbArc
 50
270.0
 51
90.0
  0
LINE
  5
131
330
1F
100
AcDbEntity
  8
0
  6
Continuous
 62
     7
100
AcDbLine
 10
1288.150940124
 20
159.585693355
 30
0.0
 11
1267.150940124
 21
159.585693355
 31
0.0
  0
ARC
  5
132
330
1F
100
AcDbEntity
  8
0
  6
Continuous
 62
     7
100
AcDbCircle
 10
1267.150940124
 20
155.585693355
 30
0.0
 40
4.000000000000028
100
AcDbArc
 50
90.0
 51
270.0
  0
LINE
  5
133
330
1F
100
AcDbEntity
  8
0
  6
Continuous
 62
     7
100
AcDbLine
 10
1317.150940124
 20
151.585693355
 30
0.0
 11
1338.150940124
 21
151.585693355
 31
0.0
  0
ARC
  5
134
330
1F
100
AcDbEntity
  8
0
  6
Continuous
 62
     7
100
AcDbCircle
 10
1338.150940124
 20
155.585693355
 30
0.0
 40
4.0
100
AcDbArc
 50
270.0
 51
90.0
  0
LINE
  5
135
330
1F
100
AcDbEntity
  8
0
  6
Continuous
 62
     7
100
AcDbLine
 10
1338.150940124
 20
159.585693355
 30
0.0
 11
1317.150940124
 21
159.585693355
 31
0.0
  0
ARC
  5
136
330
1F
100
AcDbEntity
  8
0
  6
Continuous
 62
     7
100
AcDbCircle
 10
1317.150940124
 20
155.585693355
 30
0.0
 40
4.0
100
AcDbArc
 50
90.0
 51
270.0
  0
LINE
  5
137
330
1F
100
AcDbEntity
  8
0
  6
Continuous
 62
     7
100
AcDbLine
 10
1367.150940124
 20
151.585693355
 30
0.0
 11
1388.150940124
 21
151.585693355
 31
0.0
  0
ARC
  5
138
330
1F
100
AcDbEntity
  8
0
  6
Continuous
 62
     7
100
AcDbCircle
 10
1388.150940124
 20
155.585693355
 30
0.0
 40
4.0
100
AcDbArc
 50
270.0
 51
90.0
  0
LINE
  5
139
330
1F
100
AcDbEntity
  8
0
  6
Continuous
 62
     7
100
AcDbLine
 10
1388.150940124
 20
159.585693355
 30
0.0
 11
1367.150940124
 21
159.585693355
 31
0.0
  0
ARC
  5
13A
330
1F
100
AcDbEntity
  8
0
  6
Continuous
 62
     7
100
AcDbCircle
 10
1367.150940124
 20
155.585693355
 30
0.0
 40
4.000000000000028
100
AcDbArc
 50
90.0
 51
270.0
  0
LINE
  5
13B
330
1F
100
AcDbEntity
  8
0
  6
Continuous
 62
     7
100
AcDbLine
 10
1417.150940124
 20
151.585693355
 30
0.0
 11
1438.150940124
 21
151.585693355
 31
0.0
  0
ARC
  5
13C
330
1F
100
AcDbEntity
  8
0
  6
Continuous
 62
     7
100
AcDbCircle
 10
1438.150940124
 20
155.585693355
 30
0.0
 40
4.0
100
AcDbArc
 50
270.0
 51
90.0
  0
LINE
  5
13D
330
1F
100
AcDbEntity
  8
0
  6
Continuous
 62
     7
100
AcDbLine
 10
1438.150940124
 20
159.585693355
 30
0.0
 11
1417.150940124
 21
159.585693355
 31
0.0
  0
ARC
  5
13E
330
1F
100
AcDbEntity
  8
0
  6
Continuous
 62
     7
100
AcDbCircle
 10
1417.150940124
 20
155.585693355
 30
0.0
 40
4.0
100
AcDbArc
 50
90.0
 51
270.0
  0
LINE
  5
13F
330
1F
100
AcDbEntity
  8
0
  6
Continuous
 62
     7
100
AcDbLine
 10
1467.150940124
 20
151.585693355
 30
0.0
 11
1488.150940124
 21
151.585693355
 31
0.0
  0
ARC
  5
140
330
1F
100
AcDbEntity
  8
0
  6
Continuous
 62
     7
100
AcDbCircle
 10
1488.150940124
 20
155.585693355
 30
0.0
 40
4.000000000000028
100
AcDbArc
 50
270.0
 51
90.0
  0
LINE
  5
141
330
1F
100
AcDbEntity
  8
0
  6
Continuous
 62
     7
100
AcDbLine
 10
1488.150940124
 20
159.585693355
 30
0.0
 11
1467.150940124
 21
159.585693355
 31
0.0
  0
ARC
  5
142
330
1F
100
AcDbEntity
  8
0
  6
Continuous
 62
     7
100
AcDbCircle
 10
1467.150940124
 20
155.585693355
 30
0.0
 40
4.0
100
AcDbArc
 50
90.0
 51
270.0
  0
LINE
  5
143
330
1F
100
AcDbEntity
  8
0
  6
Continuous
 62
     7
100
AcDbLine
 10
767.150940124
 20
114.085693355
 30
0.0
 11
788.150940124
 21
114.085693355
 31
0.0
  0
ARC
  5
144
330
1F
100
AcDbEntity
  8
0
  6
Continuous
 62
     7
100
AcDbCircle
 10
788.150940124
 20
118.085693355
 30
0.0
 40
4.000000000000014
100
AcDbArc
 50
270.0
 51
90.0
  0
LINE
  5
145
330
1F
100
AcDbEntity
  8
0
  6
Continuous
 62
     7
100
AcDbLine
 10
788.150940124
 20
122.085693355
 30
0.0
 11
767.150940124
 21
122.085693355
 31
0.0
  0
ARC
  5
146
330
1F
100
AcDbEntity
  8
0
  6
Continuous
 62
     7
100
AcDbCircle
 10
767.150940124
 20
118.085693355
 30
0.0
 40
4.0
100
AcDbArc
 50
90.0
 51
270.0
  0
LINE
  5
147
330
1F
100
AcDbEntity
  8
0
  6
Continuous
 62
     7
100
AcDbLine
 10
817.150940124
 20
114.085693355
 30
0.0
 11
838.150940124
 21
114.085693355
 31
0.0
  0
ARC
  5
148
330
1F
100
AcDbEntity
  8
0
  6
Continuous
 62
     7
100
AcDbCircle
 10
838.150940124
 20
118.085693355
 30
0.0
 40
4.0
100
AcDbArc
 50
270.0
 51
90.0
  0
LINE
  5
149
330
1F
100
AcDbEntity
  8
0
  6
Continuous
 62
     7
100
AcDbLine
 10
838.150940124
 20
122.085693355
 30
0.0
 11
817.150940124
 21
122.085693355
 31
0.0
  0
ARC
  5
14A
330
1F
100
AcDbEntity
  8
0
  6
Continuous
 62
     7
100
AcDbCircle
 10
817.150940124
 20
118.085693355
 30
0.0
 40
4.0
100
AcDbArc
 50
90.0
 51
270.0
  0
LINE
  5
14B
330
1F
100
AcDbEntity
  8
0
  6
Continuous
 62
     7
100
AcDbLine
 10
867.150940124
 20
114.085693355
 30
0.0
 11
888.150940124
 21
114.085693355
 31
0.0
  0
ARC
  5
14C
330
1F
100
AcDbEntity
  8
0
  6
Continuous
 62
     7
100
AcDbCircle
 10
888.150940124
 20
118.085693355
 30
0.0
 40
4.0
100
AcDbArc
 50
270.0
 51
90.0
  0
LINE
  5
14D
330
1F
100
AcDbEntity
  8
0
  6
Continuous
 62
     7
100
AcDbLine
 10
888.150940124
 20
122.085693355
 30
0.0
 11
867.150940124
 21
122.085693355
 31
0.0
  0
ARC
  5
14E
330
1F
100
AcDbEntity
  8
0
  6
Continuous
 62
     7
100
AcDbCircle
 10
867.150940124
 20
118.085693355
 30
0.0
 40
4.000000000000014
100
AcDbArc
 50
90.0
 51
270.0
  0
LINE
  5
14F
330
1F
100
AcDbEntity
  8
0
  6
Continuous
 62
     7
100
AcDbLine
 10
917.150940124
 20
114.085693355
 30
0.0
 11
938.150940124
 21
114.085693355
 31
0.0
  0
ARC
  5
150
330
1F
100
AcDbEntity
  8
0
  6
Continuous
 62
     7
100
AcDbCircle
 10
938.150940124
 20
118.085693355
 30
0.0
 40
4.0
100
AcDbArc
 50
270.0
 51
90.0
  0
LINE
  5
151
330
1F
100
AcDbEntity
  8
0
  6
Continuous
 62
     7
100
AcDbLine
 10
938.150940124
 20
122.085693355
 30
0.0
 11
917.150940124
 21
122.085693355
 31
0.0
  0
ARC
  5
152
330
1F
100
AcDbEntity
  8
0
  6
Continuous
 62
     7
100
AcDbCircle
 10
917.150940124
 20
118.085693355
 30
0.0
 40
4.000000000000014
100
AcDbArc
 50
90.0
 51
270.0
  0
LINE
  5
153
330
1F
100
AcDbEntity
  8
0
  6
Continuous
 62
     7
100
AcDbLine
 10
967.150940124
 20
114.085693355
 30
0.0
 11
988.150940124
 21
114.085693355
 31
0.0
  0
ARC
  5
154
330
1F
100
AcDbEntity
  8
0
  6
Continuous
 62
     7
100
AcDbCircle
 10
988.150940124
 20
118.085693355
 30
0.0
 40
4.0
100
AcDbArc
 50
270.0
 51
90.0
  0
LINE
  5
155
330
1F
100
AcDbEntity
  8
0
  6
Continuous
 62
     7
100
AcDbLine
 10
988.150940124
 20
122.085693355
 30
0.0
 11
967.150940124
 21
122.085693355
 31
0.0
  0
ARC
  5
156
330
1F
100
AcDbEntity
  8
0
  6
Continuous
 62
     7
100
AcDbCircle
 10
967.150940124
 20
118.085693355
 30
0.0
 40
4.000000000000014
100
AcDbArc
 50
90.0
 51
270.0
  0
LINE
  5
157
330
1F
100
AcDbEntity
  8
0
  6
Continuous
 62
     7
100
AcDbLine
 10
1017.150940124
 20
114.085693355
 30
0.0
 11
1038.150940124
 21
114.085693355
 31
0.0
  0
ARC
  5
158
330
1F
100
AcDbEntity
  8
0
  6
Continuous
 62
     7
100
AcDbCircle
 10
1038.150940124
 20
118.085693355
 30
0.0
 40
4.000000000000014
100
AcDbArc
 50
270.0
 51
90.0
  0
LINE
  5
159
330
1F
100
AcDbEntity
  8
0
  6
Continuous
 62
     7
100
AcDbLine
 10
1038.150940124
 20
122.085693355
 30
0.0
 11
1017.150940124
 21
122.085693355
 31
0.0
  0
ARC
  5
15A
330
1F
100
AcDbEntity
  8
0
  6
Continuous
 62
     7
100
AcDbCircle
 10
1017.150940124
 20
118.085693355
 30
0.0
 40
4.000000000000014
100
AcDbArc
 50
90.0
 51
270.0
  0
LINE
  5
15B
330
1F
100
AcDbEntity
  8
0
  6
Continuous
 62
     7
100
AcDbLine
 10
1067.150940124
 20
114.085693355
 30
0.0
 11
1088.150940124
 21
114.085693355
 31
0.0
  0
ARC
  5
15C
330
1F
100
AcDbEntity
  8
0
  6
Continuous
 62
     7
100
AcDbCircle
 10
1088.150940124
 20
118.085693355
 30
0.0
 40
4.000000000000014
100
AcDbArc
 50
270.0
 51
90.0
  0
LINE
  5
15D
330
1F
100
AcDbEntity
  8
0
  6
Continuous
 62
     7
100
AcDbLine
 10
1088.150940124
 20
122.085693355
 30
0.0
 11
1067.150940124
 21
122.085693355
 31
0.0
  0
ARC
  5
15E
330
1F
100
AcDbEntity
  8
0
  6
Continuous
 62
     7
100
AcDbCircle
 10
1067.150940124
 20
118.085693355
 30
0.0
 40
4.0
100
AcDbArc
 50
90.0
 51
270.0
  0
LINE
  5
15F
330
1F
100
AcDbEntity
  8
0
  6
Continuous
 62
     7
100
AcDbLine
 10
1117.150940124
 20
114.085693355
 30
0.0
 11
1138.150940124
 21
114.085693355
 31
0.0
  0
ARC
  5
160
330
1F
100
AcDbEntity
  8
0
  6
Continuous
 62
     7
100
AcDbCircle
 10
1138.150940124
 20
118.085693355
 30
0.0
 40
4.000000000000014
100
AcDbArc
 50
270.0
 51
90.0
  0
LINE
  5
161
330
1F
100
AcDbEntity
  8
0
  6
Continuous
 62
     7
100
AcDbLine
 10
1138.150940124
 20
122.085693355
 30
0.0
 11
1117.150940124
 21
122.085693355
 31
0.0
  0
ARC
  5
162
330
1F
100
AcDbEntity
  8
0
  6
Continuous
 62
     7
100
AcDbCircle
 10
1117.150940124
 20
118.085693355
 30
0.0
 40
4.0
100
AcDbArc
 50
90.0
 51
270.0
  0
LINE
  5
163
330
1F
100
AcDbEntity
  8
0
  6
Continuous
 62
     7
100
AcDbLine
 10
1167.150940124
 20
114.085693355
 30
0.0
 11
1188.150940124
 21
114.085693355
 31
0.0
  0
ARC
  5
164
330
1F
100
AcDbEntity
  8
0
  6
Continuous
 62
     7
100
AcDbCircle
 10
1188.150940124
 20
118.085693355
 30
0.0
 40
4.000000000000014
100
AcDbArc
 50
270.0
 51
90.0
  0
LINE
  5
165
330
1F
100
AcDbEntity
  8
0
  6
Continuous
 62
     7
100
AcDbLine
 10
1188.150940124
 20
122.085693355
 30
0.0
 11
1167.150940124
 21
122.085693355
 31
0.0
  0
ARC
  5
166
330
1F
100
AcDbEntity
  8
0
  6
Continuous
 62
     7
100
AcDbCircle
 10
1167.150940124
 20
118.085693355
 30
0.0
 40
4.0
100
AcDbArc
 50
90.0
 51
270.0
  0
LINE
  5
167
330
1F
100
AcDbEntity
  8
0
  6
Continuous
 62
     7
100
AcDbLine
 10
1217.150940124
 20
114.085693355
 30
0.0
 11
1238.150940124
 21
114.085693355
 31
0.0
  0
ARC
  5
168
330
1F
100
AcDbEntity
  8
0
  6
Continuous
 62
     7
100
AcDbCircle
 10
1238.150940124
 20
118.085693355
 30
0.0
 40
4.0
100
AcDbArc
 50
270.0
 51
90.0
  0
LINE
  5
169
330
1F
100
AcDbEntity
  8
0
  6
Continuous
 62
     7
100
AcDbLine
 10
1238.150940124
 20
122.085693355
 30
0.0
 11
1217.150940124
 21
122.085693355
 31
0.0
  0
ARC
  5
16A
330
1F
100
AcDbEntity
  8
0
  6
Continuous
 62
     7
100
AcDbCircle
 10
1217.150940124
 20
118.085693355
 30
0.0
 40
4.000000000000014
100
AcDbArc
 50
90.0
 51
270.0
  0
LINE
  5
16B
330
1F
100
AcDbEntity
  8
0
  6
Continuous
 62
     7
100
AcDbLine
 10
1267.150940124
 20
114.085693355
 30
0.0
 11
1288.150940124
 21
114.085693355
 31
0.0
  0
ARC
  5
16C
330
1F
100
AcDbEntity
  8
0
  6
Continuous
 62
     7
100
AcDbCircle
 10
1288.150940124
 20
118.085693355
 30
0.0
 40
4.0
100
AcDbArc
 50
270.0
 51
90.0
  0
LINE
  5
16D
330
1F
100
AcDbEntity
  8
0
  6
Continuous
 62
     7
100
AcDbLine
 10
1288.150940124
 20
122.085693355
 30
0.0
 11
1267.150940124
 21
122.085693355
 31
0.0
  0
ARC
  5
16E
330
1F
100
AcDbEntity
  8
0
  6
Continuous
 62
     7
100
AcDbCircle
 10
1267.150940124
 20
118.085693355
 30
0.0
 40
4.000000000000014
100
AcDbArc
 50
90.0
 51
270.0
  0
LINE
  5
16F
330
1F
100
AcDbEntity
  8
0
  6
Continuous
 62
     7
100
AcDbLine
 10
1317.150940124
 20
114.085693355
 30
0.0
 11
1338.150940124
 21
114.085693355
 31
0.0
  0
ARC
  5
170
330
1F
100
AcDbEntity
  8
0
  6
Continuous
 62
     7
100
AcDbCircle
 10
1338.150940124
 20
118.085693355
 30
0.0
 40
4.0
100
AcDbArc
 50
270.0
 51
90.0
  0
LINE
  5
171
330
1F
100
AcDbEntity
  8
0
  6
Continuous
 62
     7
100
AcDbLine
 10
1338.150940124
 20
122.085693355
 30
0.0
 11
1317.150940124
 21
122.085693355
 31
0.0
  0
ARC
  5
172
330
1F
100
AcDbEntity
  8
0
  6
Continuous
 62
     7
100
AcDbCircle
 10
1317.150940124
 20
118.085693355
 30
0.0
 40
4.000000000000014
100
AcDbArc
 50
90.0
 51
270.0
  0
LINE
  5
173
330
1F
100
AcDbEntity
  8
0
  6
Continuous
 62
     7
100
AcDbLine
 10
1367.150940124
 20
114.085693355
 30
0.0
 11
1388.150940124
 21
114.085693355
 31
0.0
  0
ARC
  5
174
330
1F
100
AcDbEntity
  8
0
  6
Continuous
 62
     7
100
AcDbCircle
 10
1388.150940124
 20
118.085693355
 30
0.0
 40
4.000000000000014
100
AcDbArc
 50
270.0
 51
90.0
  0
LINE
  5
175
330
1F
100
AcDbEntity
  8
0
  6
Continuous
 62
     7
100
AcDbLine
 10
1388.150940124
 20
122.085693355
 30
0.0
 11
1367.150940124
 21
122.085693355
 31
0.0
  0
ARC
  5
176
330
1F
100
AcDbEntity
  8
0
  6
Continuous
 62
     7
100
AcDbCircle
 10
1367.150940124
 20
118.085693355
 30
0.0
 40
4.000000000000014
100
AcDbArc
 50
90.0
 51
270.0
  0
LINE
  5
177
330
1F
100
AcDbEntity
  8
0
  6
Continuous
 62
     7
100
AcDbLine
 10
1417.150940124
 20
114.085693355
 30
0.0
 11
1438.150940124
 21
114.085693355
 31
0.0
  0
ARC
  5
178
330
1F
100
AcDbEntity
  8
0
  6
Continuous
 62
     7
100
AcDbCircle
 10
1438.150940124
 20
118.085693355
 30
0.0
 40
4.000000000000014
100
AcDbArc
 50
270.0
 51
90.0
  0
LINE
  5
179
330
1F
100
AcDbEntity
  8
0
  6
Continuous
 62
     7
100
AcDbLine
 10
1438.150940124
 20
122.085693355
 30
0.0
 11
1417.150940124
 21
122.085693355
 31
0.0
  0
ARC
  5
17A
330
1F
100
AcDbEntity
  8
0
  6
Continuous
 62
     7
100
AcDbCircle
 10
1417.150940124
 20
118.085693355
 30
0.0
 40
4.0
100
AcDbArc
 50
90.0
 51
270.0
  0
LINE
  5
17B
330
1F
100
AcDbEntity
  8
0
  6
Continuous
 62
     7
100
AcDbLine
 10
1467.150940124
 20
114.085693355
 30
0.0
 11
1488.150940124
 21
114.085693355
 31
0.0
  0
ARC
  5
17C
330
1F
100
AcDbEntity
  8
0
  6
Continuous
 62
     7
100
AcDbCircle
 10
1488.150940124
 20
118.085693355
 30
0.0
 40
4.000000000000014
100
AcDbArc
 50
270.0
 51
90.0
  0
LINE
  5
17D
330
1F
100
AcDbEntity
  8
0
  6
Continuous
 62
     7
100
AcDbLine
 10
1488.150940124
 20
122.085693355
 30
0.0
 11
1467.150940124
 21
122.085693355
 31
0.0
  0
ARC
  5
17E
330
1F
100
AcDbEntity
  8
0
  6
Continuous
 62
     7
100
AcDbCircle
 10
1467.150940124
 20
118.085693355
 30
0.0
 40
4.0
100
AcDbArc
 50
90.0
 51
270.0
  0
LINE
  5
17F
330
1F
100
AcDbEntity
  8
0
  6
Continuous
 62
     7
100
AcDbLine
 10
767.150940124
 20
76.585693355
 30
0.0
 11
788.150940124
 21
76.585693355
 31
0.0
  0
ARC
  5
180
330
1F
100
AcDbEntity
  8
0
  6
Continuous
 62
     7
100
AcDbCircle
 10
788.150940124
 20
80.585693355
 30
0.0
 40
4.000000000000014
100
AcDbArc
 50
270.0
 51
90.0
  0
LINE
  5
181
330
1F
100
AcDbEntity
  8
0
  6
Continuous
 62
     7
100
AcDbLine
 10
788.150940124
 20
84.585693355
 30
0.0
 11
767.150940124
 21
84.585693355
 31
0.0
  0
ARC
  5
182
330
1F
100
AcDbEntity
  8
0
  6
Continuous
 62
     7
100
AcDbCircle
 10
767.150940124
 20
80.585693355
 30
0.0
 40
4.000000000000028
100
AcDbArc
 50
90.0
 51
270.0
  0
LINE
  5
183
330
1F
100
AcDbEntity
  8
0
  6
Continuous
 62
     7
100
AcDbLine
 10
817.150940124
 20
76.585693355
 30
0.0
 11
838.150940124
 21
76.585693355
 31
0.0
  0
ARC
  5
184
330
1F
100
AcDbEntity
  8
0
  6
Continuous
 62
     7
100
AcDbCircle
 10
838.150940124
 20
80.585693355
 30
0.0
 40
4.000000000000028
100
AcDbArc
 50
270.0
 51
90.0
  0
LINE
  5
185
330
1F
100
AcDbEntity
  8
0
  6
Continuous
 62
     7
100
AcDbLine
 10
838.150940124
 20
84.585693355
 30
0.0
 11
817.150940124
 21
84.585693355
 31
0.0
  0
ARC
  5
186
330
1F
100
AcDbEntity
  8
0
  6
Continuous
 62
     7
100
AcDbCircle
 10
817.150940124
 20
80.585693355
 30
0.0
 40
4.0
100
AcDbArc
 50
90.0
 51
270.0
  0
LINE
  5
187
330
1F
100
AcDbEntity
  8
0
  6
Continuous
 62
     7
100
AcDbLine
 10
867.150940124
 20
76.585693355
 30
0.0
 11
888.150940124
 21
76.585693355
 31
0.0
  0
ARC
  5
188
330
1F
100
AcDbEntity
  8
0
  6
Continuous
 62
     7
100
AcDbCircle
 10
888.150940124
 20
80.585693355
 30
0.0
 40
4.000000000000028
100
AcDbArc
 50
270.0
 51
90.0
  0
LINE
  5
189
330
1F
100
AcDbEntity
  8
0
  6
Continuous
 62
     7
100
AcDbLine
 10
888.150940124
 20
84.585693355
 30
0.0
 11
867.150940124
 21
84.585693355
 31
0.0
  0
ARC
  5
18A
330
1F
100
AcDbEntity
  8
0
  6
Continuous
 62
     7
100
AcDbCircle
 10
867.150940124
 20
80.585693355
 30
0.0
 40
4.000000000000014
100
AcDbArc
 50
90.0
 51
270.0
  0
LINE
  5
18B
330
1F
100
AcDbEntity
  8
0
  6
Continuous
 62
     7
100
AcDbLine
 10
917.150940124
 20
76.585693355
 30
0.0
 11
938.150940124
 21
76.585693355
 31
0.0
  0
ARC
  5
18C
330
1F
100
AcDbEntity
  8
0
  6
Continuous
 62
     7
100
AcDbCircle
 10
938.150940124
 20
80.585693355
 30
0.0
 40
4.000000000000043
100
AcDbArc
 50
270.0
 51
90.0
  0
LINE
  5
18D
330
1F
100
AcDbEntity
  8
0
  6
Continuous
 62
     7
100
AcDbLine
 10
938.150940124
 20
84.585693355
 30
0.0
 11
917.150940124
 21
84.585693355
 31
0.0
  0
ARC
  5
18E
330
1F
100
AcDbEntity
  8
0
  6
Continuous
 62
     7
100
AcDbCircle
 10
917.150940124
 20
80.585693355
 30
0.0
 40
4.0
100
AcDbArc
 50
90.0
 51
270.0
  0
LINE
  5
18F
330
1F
100
AcDbEntity
  8
0
  6
Continuous
 62
     7
100
AcDbLine
 10
967.150940124
 20
76.585693355
 30
0.0
 11
988.150940124
 21
76.585693355
 31
0.0
  0
ARC
  5
190
330
1F
100
AcDbEntity
  8
0
  6
Continuous
 62
     7
100
AcDbCircle
 10
988.150940124
 20
80.585693355
 30
0.0
 40
4.0
100
AcDbArc
 50
270.0
 51
90.0
  0
LINE
  5
191
330
1F
100
AcDbEntity
  8
0
  6
Continuous
 62
     7
100
AcDbLine
 10
988.150940124
 20
84.585693355
 30
0.0
 11
967.150940124
 21
84.585693355
 31
0.0
  0
ARC
  5
192
330
1F
100
AcDbEntity
  8
0
  6
Continuous
 62
     7
100
AcDbCircle
 10
967.150940124
 20
80.585693355
 30
0.0
 40
4.000000000000014
100
AcDbArc
 50
90.0
 51
270.0
  0
LINE
  5
193
330
1F
100
AcDbEntity
  8
0
  6
Continuous
 62
     7
100
AcDbLine
 10
1017.150940124
 20
76.585693355
 30
0.0
 11
1038.150940124
 21
76.585693355
 31
0.0
  0
ARC
  5
194
330
1F
100
AcDbEntity
  8
0
  6
Continuous
 62
     7
100
AcDbCircle
 10
1038.150940124
 20
80.585693355
 30
0.0
 40
4.0
100
AcDbArc
 50
270.0
 51
90.0
  0
LINE
  5
195
330
1F
100
AcDbEntity
  8
0
  6
Continuous
 62
     7
100
AcDbLine
 10
1038.150940124
 20
84.585693355
 30
0.0
 11
1017.150940124
 21
84.585693355
 31
0.0
  0
ARC
  5
196
330
1F
100
AcDbEntity
  8
0
  6
Continuous
 62
     7
100
AcDbCircle
 10
1017.150940124
 20
80.585693355
 30
0.0
 40
4.000000000000014
100
AcDbArc
 50
90.0
 51
270.0
  0
LINE
  5
197
330
1F
100
AcDbEntity
  8
0
  6
Continuous
 62
     7
100
AcDbLine
 10
1067.150940124
 20
76.585693355
 30
0.0
 11
1088.150940124
 21
76.585693355
 31
0.0
  0
ARC
  5
198
330
1F
100
AcDbEntity
  8
0
  6
Continuous
 62
     7
100
AcDbCircle
 10
1088.150940124
 20
80.585693355
 30
0.0
 40
4.0
100
AcDbArc
 50
270.0
 51
90.0
  0
LINE
  5
199
330
1F
100
AcDbEntity
  8
0
  6
Continuous
 62
     7
100
AcDbLine
 10
1088.150940124
 20
84.585693355
 30
0.0
 11
1067.150940124
 21
84.585693355
 31
0.0
  0
ARC
  5
19A
330
1F
100
AcDbEntity
  8
0
  6
Continuous
 62
     7
100
AcDbCircle
 10
1067.150940124
 20
80.585693355
 30
0.0
 40
4.000000000000014
100
AcDbArc
 50
90.0
 51
270.0
  0
LINE
  5
19B
330
1F
100
AcDbEntity
  8
0
  6
Continuous
 62
     7
100
AcDbLine
 10
1117.150940124
 20
76.585693355
 30
0.0
 11
1138.150940124
 21
76.585693355
 31
0.0
  0
ARC
  5
19C
330
1F
100
AcDbEntity
  8
0
  6
Continuous
 62
     7
100
AcDbCircle
 10
1138.150940124
 20
80.585693355
 30
0.0
 40
4.0
100
AcDbArc
 50
270.0
 51
90.0
  0
LINE
  5
19D
330
1F
100
AcDbEntity
  8
0
  6
Continuous
 62
     7
100
AcDbLine
 10
1138.150940124
 20
84.585693355
 30
0.0
 11
1117.150940124
 21
84.585693355
 31
0.0
  0
ARC
  5
19E
330
1F
100
AcDbEntity
  8
0
  6
Continuous
 62
     7
100
AcDbCircle
 10
1117.150940124
 20
80.585693355
 30
0.0
 40
4.0
100
AcDbArc
 50
90.0
 51
270.0
  0
LINE
  5
19F
330
1F
100
AcDbEntity
  8
0
  6
Continuous
 62
     7
100
AcDbLine
 10
1167.150940124
 20
76.585693355
 30
0.0
 11
1188.150940124
 21
76.585693355
 31
0.0
  0
ARC
  5
1A0
330
1F
100
AcDbEntity
  8
0
  6
Continuous
 62
     7
100
AcDbCircle
 10
1188.150940124
 20
80.585693355
 30
0.0
 40
4.000000000000014
100
AcDbArc
 50
270.0
 51
90.0
  0
LINE
  5
1A1
330
1F
100
AcDbEntity
  8
0
  6
Continuous
 62
     7
100
AcDbLine
 10
1188.150940124
 20
84.585693355
 30
0.0
 11
1167.150940124
 21
84.585693355
 31
0.0
  0
ARC
  5
1A2
330
1F
100
AcDbEntity
  8
0
  6
Continuous
 62
     7
100
AcDbCircle
 10
1167.150940124
 20
80.585693355
 30
0.0
 40
4.0
100
AcDbArc
 50
90.0
 51
270.0
  0
LINE
  5
1A3
330
1F
100
AcDbEntity
  8
0
  6
Continuous
 62
     7
100
AcDbLine
 10
1217.150940124
 20
76.585693355
 30
0.0
 11
1238.150940124
 21
76.585693355
 31
0.0
  0
ARC
  5
1A4
330
1F
100
AcDbEntity
  8
0
  6
Continuous
 62
     7
100
AcDbCircle
 10
1238.150940124
 20
80.585693355
 30
0.0
 40
4.000000000000014
100
AcDbArc
 50
270.0
 51
90.0
  0
LINE
  5
1A5
330
1F
100
AcDbEntity
  8
0
  6
Continuous
 62
     7
100
AcDbLine
 10
1238.150940124
 20
84.585693355
 30
0.0
 11
1217.150940124
 21
84.585693355
 31
0.0
  0
ARC
  5
1A6
330
1F
100
AcDbEntity
  8
0
  6
Continuous
 62
     7
100
AcDbCircle
 10
1217.150940124
 20
80.585693355
 30
0.0
 40
4.0
100
AcDbArc
 50
90.0
 51
270.0
  0
LINE
  5
1A7
330
1F
100
AcDbEntity
  8
0
  6
Continuous
 62
     7
100
AcDbLine
 10
1267.150940124
 20
76.585693355
 30
0.0
 11
1288.150940124
 21
76.585693355
 31
0.0
  0
ARC
  5
1A8
330
1F
100
AcDbEntity
  8
0
  6
Continuous
 62
     7
100
AcDbCircle
 10
1288.150940124
 20
80.585693355
 30
0.0
 40
4.000000000000014
100
AcDbArc
 50
270.0
 51
90.0
  0
LINE
  5
1A9
330
1F
100
AcDbEntity
  8
0
  6
Continuous
 62
     7
100
AcDbLine
 10
1288.150940124
 20
84.585693355
 30
0.0
 11
1267.150940124
 21
84.585693355
 31
0.0
  0
ARC
  5
1AA
330
1F
100
AcDbEntity
  8
0
  6
Continuous
 62
     7
100
AcDbCircle
 10
1267.150940124
 20
80.585693355
 30
0.0
 40
4.000000000000014
100
AcDbArc
 50
90.0
 51
270.0
  0
LINE
  5
1AB
330
1F
100
AcDbEntity
  8
0
  6
Continuous
 62
     7
100
AcDbLine
 10
1317.150940124
 20
76.585693355
 30
0.0
 11
1338.150940124
 21
76.585693355
 31
0.0
  0
ARC
  5
1AC
330
1F
100
AcDbEntity
  8
0
  6
Continuous
 62
     7
100
AcDbCircle
 10
1338.150940124
 20
80.585693355
 30
0.0
 40
4.000000000000014
100
AcDbArc
 50
270.0
 51
90.0
  0
LINE
  5
1AD
330
1F
100
AcDbEntity
  8
0
  6
Continuous
 62
     7
100
AcDbLine
 10
1338.150940124
 20
84.585693355
 30
0.0
 11
1317.150940124
 21
84.585693355
 31
0.0
  0
ARC
  5
1AE
330
1F
100
AcDbEntity
  8
0
  6
Continuous
 62
     7
100
AcDbCircle
 10
1317.150940124
 20
80.585693355
 30
0.0
 40
4.0
100
AcDbArc
 50
90.0
 51
270.0
  0
LINE
  5
1AF
330
1F
100
AcDbEntity
  8
0
  6
Continuous
 62
     7
100
AcDbLine
 10
1367.150940124
 20
76.585693355
 30
0.0
 11
1388.150940124
 21
76.585693355
 31
0.0
  0
ARC
  5
1B0
330
1F
100
AcDbEntity
  8
0
  6
Continuous
 62
     7
100
AcDbCircle
 10
1388.150940124
 20
80.585693355
 30
0.0
 40
4.0
100
AcDbArc
 50
270.0
 51
90.0
  0
LINE
  5
1B1
330
1F
100
AcDbEntity
  8
0
  6
Continuous
 62
     7
100
AcDbLine
 10
1388.150940124
 20
84.585693355
 30
0.0
 11
1367.150940124
 21
84.585693355
 31
0.0
  0
ARC
  5
1B2
330
1F
100
AcDbEntity
  8
0
  6
Continuous
 62
     7
100
AcDbCircle
 10
1367.150940124
 20
80.585693355
 30
0.0
 40
4.000000000000014
100
AcDbArc
 50
90.0
 51
270.0
  0
CIRCLE
  5
1B3
330
1F
100
AcDbEntity
  8
0
  6
Continuous
 62
     7
100
AcDbCircle
 10
1177.650940124
 20
180.585693355
 30
0.0
 40
3.249999999999972
  0
CIRCLE
  5
1B4
330
1F
100
AcDbEntity
  8
0
  6
Continuous
 62
     7
100
AcDbCircle
 10
1277.650940124
 20
180.585693355
 30
0.0
 40
3.249999999999972
  0
CIRCLE
  5
1B5
330
1F
100
AcDbEntity
  8
0
  6
Continuous
 62
     7
100
AcDbCircle
 10
1190.150940124
 20
223.2639010922
 30
0.0
 40
3.25
  0
CIRCLE
  5
1B6
330
1F
100
AcDbEntity
  8
0
  6
Continuous
 62
     7
100
AcDbCircle
 10
1290.150940124
 20
223.2639010922
 30
0.0
 40
3.249999999999972
  0
LINE
  5
1B7
330
1F
100
AcDbEntity
  8
0
  6
Continuous
 62
     7
100
AcDbLine
 10
1570.400940124
 20
230.2639010922
 30
0.0
 11
684.900940124
 21
230.2639010922
 31
0.0
  0
LINE
  5
1B8
330
1F
100
AcDbEntity
  8
0
  6
Continuous
 62
     7
100
AcDbLine
 10
1573.400940124
 20
227.2639010922
 30
0.0
 11
1570.400940124
 21
230.2639010922
 31
0.0
  0
LINE
  5
1B9
330
1F
100
AcDbEntity
  8
0
  6
Continuous
 62
     7
100
AcDbLine
 10
1573.400940124
 20
170.585693355
 30
0.0
 11
1573.400940124
 21
227.2639010922
 31
0.0
  0
LINE
  5
1BA
330
1F
100
AcDbEntity
  8
0
  6
Continuous
 62
     7
100
AcDbLine
 10
1570.400940124
 20
167.585693355
 30
0.0
 11
1573.400940124
 21
170.585693355
 31
0.0
  0
LINE
  5
1BB
330
1F
100
AcDbEntity
  8
0
  6
Continuous
 62
     7
100
AcDbLine
 10
1534.900940124
 20
167.585693355
 30
0.0
 11
1570.400940124
 21
167.585693355
 31
0.0
  0
LINE
  5
1BC
330
1F
100
AcDbEntity
  8
0
  6
Continuous
 62
     7
100
AcDbLine
 10
1531.900940124
 20
164.585693355
 30
0.0
 11
1534.900940124
 21
167.585693355
 31
0.0
  0
LINE
  5
1BD
330
1F
100
AcDbEntity
  8
0
  6
Continuous
 62
     7
100
AcDbLine
 10
1531.900940124
 20
55.585693355
 30
0.0
 11
1531.900940124
 21
70.085693355
 31
0.0
  0
LINE
  5
1BE
330
1F
100
AcDbEntity
  8
0
  6
Continuous
 62
     7
100
AcDbLine
 10
1531.900940124
 20
133.585693355
 30
0.0
 11
1531.900940124
 21
164.585693355
 31
0.0
  0
LINE
  5
1BF
330
1F
100
AcDbEntity
  8
0
  6
Continuous
 62
     7
100
AcDbLine
 10
1528.900940124
 20
52.585693355
 30
0.0
 11
1531.900940124
 21
55.585693355
 31
0.0
  0
LINE
  5
1C0
330
1F
100
AcDbEntity
  8
0
  6
Continuous
 62
     7
100
AcDbLine
 10
726.400940124
 20
52.585693355
 30
0.0
 11
1528.900940124
 21
52.585693355
 31
0.0
  0
LINE
  5
1C1
330
1F
100
AcDbEntity
  8
0
  6
Continuous
 62
     7
100
AcDbLine
 10
723.400940124
 20
55.585693355
 30
0.0
 11
726.400940124
 21
52.585693355
 31
0.0
  0
LINE
  5
1C2
330
1F
100
AcDbEntity
  8
0
  6
Continuous
 62
     7
100
AcDbLine
 10
723.400940124
 20
164.585693355
 30
0.0
 11
723.400940124
 21
133.585693355
 31
0.0
  0
LINE
  5
1C3
330
1F
100
AcDbEntity
  8
0
  6
Continuous
 62
     7
100
AcDbLine
 10
723.400940124
 20
70.085693355
 30
0.0
 11
723.400940124
 21
55.585693355
 31
0.0
  0
LINE
  5
1C4
330
1F
100
AcDbEntity
  8
0
  6
Continuous
 62
     7
100
AcDbLine
 10
720.400940124
 20
167.585693355
 30
0.0
 11
723.400940124
 21
164.585693355
 31
0.0
  0
LINE
  5
1C5
330
1F
100
AcDbEntity
  8
0
  6
Continuous
 62
     7
100
AcDbLine
 10
684.900940124
 20
167.585693355
 30
0.0
 11
720.400940124
 21
167.585693355
 31
0.0
  0
LINE
  5
1C6
330
1F
100
AcDbEntity
  8
0
  6
Continuous
 62
     7
100
AcDbLine
 10
681.900940124
 20
170.585693355
 30
0.0
 11
684.900940124
 21
167.585693355
 31
0.0
  0
LINE
  5
1C7
330
1F
100
AcDbEntity
  8
0
  6
Continuous
 62
     7
100
AcDbLine
 10
681.900940124
 20
227.2639010922
 30
0.0
 11
681.900940124
 21
170.585693355
 31
0.0
  0
LINE
  5
1C8
330
1F
100
AcDbEntity
  8
0
  6
Continuous
 62
     7
100
AcDbLine
 10
684.900940124
 20
230.2639010922
 30
0.0
 11
681.900940124
 21
227.2639010922
 31
0.0
  0
LINE
  5
1C9
330
1F
100
AcDbEntity
  8
0
  6
Continuous
 62
     7
100
AcDbLine
 10
1505.150940124
 20
202.7639010922
 30
0.0
 11
1505.150940124
 21
200.085693355
 31
0.0
  0
LINE
  5
1CA
330
1F
100
AcDbEntity
  8
0
  6
Continuous
 62
     7
100
AcDbLine
 10
1505.150940124
 20
200.085693355
 30
0.0
 11
1550.150940124
 21
200.085693355
 31
0.0
  0
LINE
  5
1CB
330
1F
100
AcDbEntity
  8
0
  6
Continuous
 62
     7
100
AcDbLine
 10
1550.150940124
 20
200.085693355
 30
0.0
 11
1550.150940124
 21
202.7639010922
 31
0.0
  0
LINE
  5
1CC
330
1F
100
AcDbEntity
  8
0
  6
Continuous
 62
     7
100
AcDbLine
 10
1550.150940124
 20
202.7639010922
 30
0.0
 11
1505.150940124
 21
202.7639010922
 31
0.0
  0
LINE
  5
1CD
330
1F
100
AcDbEntity
  8
0
  6
Continuous
 62
     7
100
AcDbLine
 10
1467.150940124
 20
76.585693355
 30
0.0
 11
1488.150940124
 21
76.585693355
 31
0.0
  0
ARC
  5
1CE
330
1F
100
AcDbEntity
  8
0
  6
Continuous
 62
     7
100
AcDbCircle
 10
1488.150940124
 20
80.585693355
 30
0.0
 40
4.0
100
AcDbArc
 50
270.0
 51
90.0
  0
LINE
  5
1CF
330
1F
100
AcDbEntity
  8
0
  6
Continuous
 62
     7
100
AcDbLine
 10
1488.150940124
 20
84.585693355
 30
0.0
 11
1467.150940124
 21
84.585693355
 31
0.0
  0
ARC
  5
1D0
330
1F
100
AcDbEntity
  8
0
  6
Continuous
 62
     7
100
AcDbCircle
 10
1467.150940124
 20
80.585693355
 30
0.0
 40
4.000000000000014
100
AcDbArc
 50
90.0
 51
270.0
  0
CIRCLE
  5
1D1
330
1F
100
AcDbEntity
  8
0
  6
Continuous
 62
     7
100
AcDbCircle
 10
1490.150940124
 20
223.2639010922
 30
0.0
 40
3.249999999999972
  0
CIRCLE
  5
1D2
330
1F
100
AcDbEntity
  8
0
  6
Continuous
 62
     7
100
AcDbCircle
 10
1390.150940124
 20
223.2639010922
 30
0.0
 40
3.249999999999972
  0
CIRCLE
  5
1D3
330
1F
100
AcDbEntity
  8
0
  6
Continuous
 62
     7
100
AcDbCircle
 10
1477.650940124
 20
180.585693355
 30
0.0
 40
3.25
  0
CIRCLE
  5
1D4
330
1F
100
AcDbEntity
  8
0
  6
Continuous
 62
     7
100
AcDbCircle
 10
1377.650940124
 20
180.585693355
 30
0.0
 40
3.249999999999972
  0
LINE
  5
1D5
330
1F
100
AcDbEntity
  8
0
  6
Continuous
 62
     7
100
AcDbLine
 10
1417.150940124
 20
76.585693355
 30
0.0
 11
1438.150940124
 21
76.585693355
 31
0.0
  0
ARC
  5
1D6
330
1F
100
AcDbEntity
  8
0
  6
Continuous
 62
     7
100
AcDbCircle
 10
1438.150940124
 20
80.585693355
 30
0.0
 40
4.000000000000014
100
AcDbArc
 50
270.0
 51
90.0
  0
LINE
  5
1D7
330
1F
100
AcDbEntity
  8
0
  6
Continuous
 62
     7
100
AcDbLine
 10
1438.150940124
 20
84.585693355
 30
0.0
 11
1417.150940124
 21
84.585693355
 31
0.0
  0
ARC
  5
1D8
330
1F
100
AcDbEntity
  8
0
  6
Continuous
 62
     7
100
AcDbCircle
 10
1417.150940124
 20
80.585693355
 30
0.0
 40
4.000000000000014
100
AcDbArc
 50
90.0
 51
270.0
  0
LINE
  5
1D9
330
1F
100
AcDbEntity
  8
0
  6
Continuous
 62
     7
100
AcDbLine
 10
1455.150940124
 20
202.7639010922
 30
0.0
 11
1455.150940124
 21
200.085693355
 31
0.0
  0
LINE
  5
1DA
330
1F
100
AcDbEntity
  8
0
  6
Continuous
 62
     7
100
AcDbLine
 10
1455.150940124
 20
200.085693355
 30
0.0
 11
1500.150940124
 21
200.085693355
 31
0.0
  0
LINE
  5
1DB
330
1F
100
AcDbEntity
  8
0
  6
Continuous
 62
     7
100
AcDbLine
 10
1500.150940124
 20
200.085693355
 30
0.0
 11
1500.150940124
 21
202.7639010922
 31
0.0
  0
LINE
  5
1DC
330
1F
100
AcDbEntity
  8
0
  6
Continuous
 62
     7
100
AcDbLine
 10
1500.150940124
 20
202.7639010922
 30
0.0
 11
1455.150940124
 21
202.7639010922
 31
0.0
  0
CIRCLE
  5
1DD
330
1F
100
AcDbEntity
  8
0
  6
Continuous
 62
     7
100
AcDbCircle
 10
1527.650940124
 20
180.585693355
 30
0.0
 40
2.599999999999994
  0
CIRCLE
  5
1DE
330
1F
100
AcDbEntity
  8
0
  6
Continuous
 62
     7
100
AcDbCircle
 10
1427.650940124
 20
180.585693355
 30
0.0
 40
2.599999999999994
  0
CIRCLE
  5
1DF
330
1F
100
AcDbEntity
  8
0
  6
Continuous
 62
     7
100
AcDbCircle
 10
1227.650940124
 20
180.585693355
 30
0.0
 40
2.599999999999966
  0
CIRCLE
  5
1E0
330
1F
100
AcDbEntity
  8
0
  6
Continuous
 62
     7
100
AcDbCircle
 10
765.150940124
 20
223.2639010922
 30
0.0
 40
3.249999999999972
  0
CIRCLE
  5
1E1
330
1F
100
AcDbEntity
  8
0
  6
Continuous
 62
     7
100
AcDbCircle
 10
865.150940124
 20
223.2639010922
 30
0.0
 40
3.249999999999972
  0
CIRCLE
  5
1E2
330
1F
100
AcDbEntity
  8
0
  6
Continuous
 62
     7
100
AcDbCircle
 10
965.150940124
 20
223.2639010922
 30
0.0
 40
3.25
  0
CIRCLE
  5
1E3
330
1F
100
AcDbEntity
  8
0
  6
Continuous
 62
     7
100
AcDbCircle
 10
1065.150940124
 20
223.2639010922
 30
0.0
 40
3.249999999999943
  0
CIRCLE
  5
1E4
330
1F
100
AcDbEntity
  8
0
  6
Continuous
 62
     7
100
AcDbCircle
 10
777.650940124
 20
180.585693355
 30
0.0
 40
3.25
  0
CIRCLE
  5
1E5
330
1F
100
AcDbEntity
  8
0
  6
Continuous
 62
     7
100
AcDbCircle
 10
977.650940124
 20
180.585693355
 30
0.0
 40
3.25
  0
CIRCLE
  5
1E6
330
1F
100
AcDbEntity
  8
0
  6
Continuous
 62
     7
100
AcDbCircle
 10
727.650940124
 20
180.585693355
 30
0.0
 40
2.599999999999994
  0
CIRCLE
  5
1E7
330
1F
100
AcDbEntity
  8
0
  6
Continuous
 62
     7
100
AcDbCircle
 10
927.650940124
 20
180.585693355
 30
0.0
 40
2.599999999999994
  0
ARC
  5
1E8
330
1F
100
AcDbEntity
  8
0
  6
Continuous
 62
     7
100
AcDbCircle
 10
599.6248760242
 20
131.985693355
 30
0.0
 40
1.500000000000007
100
AcDbArc
 50
90.0
 51
152.4879973762
  0
ARC
  5
1E9
330
1F
100
AcDbEntity
  8
0
  6
Continuous
 62
     7
100
AcDbCircle
 10
599.6248760242
 20
123.185693355
 30
0.0
 40
1.500000000000013
100
AcDbArc
 50
207.5120026239
 51
270.0
  0
LINE
  5
1EA
330
1F
100
AcDbEntity
  8
0
  6
Continuous
 62
     7
100
AcDbLine
 10
602.4648686332
 20
133.485693355
 30
0.0
 11
599.6248760242
 21
133.485693355
 31
0.0
  0
LINE
  5
1EB
330
1F
100
AcDbEntity
  8
0
  6
Continuous
 62
     7
100
AcDbLine
 10
599.6248760242
 20
121.685693355
 30
0.0
 11
602.4648686332
 21
121.685693355
 31
0.0
  0
LINE
  5
1EC
330
1F
100
AcDbEntity
  8
0
  6
Continuous
 62
     7
100
AcDbLine
 10
598.2945048979
 20
132.6785949833
 30
0.0
 11
597.6344975069
 21
131.4113807926
 31
0.0
  0
LINE
  5
1ED
330
1F
100
AcDbEntity
  8
0
  6
Continuous
 62
     7
100
AcDbLine
 10
597.6344975069
 20
123.7600059174
 30
0.0
 11
598.2945048979
 21
122.4927917268
 31
0.0
  0
ARC
  5
1EE
330
1F
100
AcDbEntity
  8
0
  6
Continuous
 62
     7
100
AcDbCircle
 10
598.9648686332
 20
130.7184791644
 30
0.0
 40
1.499999999999919
100
AcDbArc
 50
152.4879973761
 51
180.0
  0
ARC
  5
1EF
330
1F
100
AcDbEntity
  8
0
  6
Continuous
 62
     7
100
AcDbCircle
 10
598.9648686332
 20
124.4529075457
 30
0.0
 40
1.499999999999926
100
AcDbArc
 50
180.0
 51
207.5120026239
  0
LINE
  5
1F0
330
1F
100
AcDbEntity
  8
0
  6
Continuous
 62
     7
100
AcDbLine
 10
611.1648686332
 20
124.585693355
 30
0.0
 11
611.6648686332
 21
125.085693355
 31
0.0
  0
LINE
  5
1F1
330
1F
100
AcDbEntity
  8
0
  6
Continuous
 62
     7
100
AcDbLine
 10
611.6648686332
 20
130.085693355
 30
0.0
 11
611.1648686332
 21
130.585693355
 31
0.0
  0
LINE
  5
1F2
330
1F
100
AcDbEntity
  8
0
  6
Continuous
 62
     7
100
AcDbLine
 10
605.4648686332
 20
124.585693355
 30
0.0
 11
611.1648686332
 21
124.585693355
 31
0.0
  0
LINE
  5
1F3
330
1F
100
AcDbEntity
  8
0
  6
Continuous
 62
     7
100
AcDbLine
 10
611.1648686332
 20
130.585693355
 30
0.0
 11
605.4648686332
 21
130.585693355
 31
0.0
  0
ARC
  5
1F4
330
1F
100
AcDbEntity
  8
0
  6
Continuous
 62
     7
100
AcDbCircle
 10
599.6248760242
 20
81.985693355
 30
0.0
 40
1.500000000000114
100
AcDbArc
 50
90.0
 51
152.4879973762
  0
ARC
  5
1F5
330
1F
100
AcDbEntity
  8
0
  6
Continuous
 62
     7
100
AcDbCircle
 10
599.6248760242
 20
73.185693355
 30
0.0
 40
1.500000000000121
100
AcDbArc
 50
207.5120026238
 51
270.0
  0
LINE
  5
1F6
330
1F
100
AcDbEntity
  8
0
  6
Continuous
 62
     7
100
AcDbLine
 10
602.4648686332
 20
83.485693355
 30
0.0
 11
599.6248760242
 21
83.485693355
 31
0.0
  0
LINE
  5
1F7
330
1F
100
AcDbEntity
  8
0
  6
Continuous
 62
     7
100
AcDbLine
 10
599.6248760242
 20
71.685693355
 30
0.0
 11
602.4648686332
 21
71.685693355
 31
0.0
  0
LINE
  5
1F8
330
1F
100
AcDbEntity
  8
0
  6
Continuous
 62
     7
100
AcDbLine
 10
598.2945048979
 20
82.6785949833
 30
0.0
 11
597.6344975069
 21
81.4113807926
 31
0.0
  0
LINE
  5
1F9
330
1F
100
AcDbEntity
  8
0
  6
Continuous
 62
     7
100
AcDbLine
 10
597.6344975069
 20
73.7600059174
 30
0.0
 11
598.2945048979
 21
72.4927917268
 31
0.0
  0
ARC
  5
1FA
330
1F
100
AcDbEntity
  8
0
  6
Continuous
 62
     7
100
AcDbCircle
 10
598.9648686332
 20
80.7184791644
 30
0.0
 40
1.499999999999919
100
AcDbArc
 50
152.4879973761
 51
180.0
  0
ARC
  5
1FB
330
1F
100
AcDbEntity
  8
0
  6
Continuous
 62
     7
100
AcDbCircle
 10
598.9648686332
 20
74.4529075457
 30
0.0
 40
1.499999999999919
100
AcDbArc
 50
180.0
 51
207.5120026239
  0
LINE
  5
1FC
330
1F
100
AcDbEntity
  8
0
  6
Continuous
 62
     7
100
AcDbLine
 10
611.1648686332
 20
74.585693355
 30
0.0
 11
611.6648686332
 21
75.085693355
 31
0.0
  0
LINE
  5
1FD
330
1F
100
AcDbEntity
  8
0
  6
Continuous
 62
     7
100
AcDbLine
 10
611.6648686332
 20
80.085693355
 30
0.0
 11
611.1648686332
 21
80.585693355
 31
0.0
  0
LINE
  5
1FE
330
1F
100
AcDbEntity
  8
0
  6
Continuous
 62
     7
100
AcDbLine
 10
605.4648686332
 20
74.585693355
 30
0.0
 11
611.1648686332
 21
74.585693355
 31
0.0
  0
LINE
  5
1FF
330
1F
100
AcDbEntity
  8
0
  6
Continuous
 62
     7
100
AcDbLine
 10
611.1648686332
 20
80.585693355
 30
0.0
 11
605.4648686332
 21
80.585693355
 31
0.0
  0
LINE
  5
200
330
1F
100
AcDbEntity
  8
0
  6
Continuous
 62
     7
100
AcDbLine
 10
597.4648686332
 20
127.585693355
 30
0.0
 11
597.4648686332
 21
124.4529075457
 31
0.0
  0
LINE
  5
201
330
1F
100
AcDbEntity
  8
0
  6
Continuous
 62
     7
100
AcDbLine
 10
597.4648686332
 20
130.7184791644
 30
0.0
 11
597.4648686332
 21
127.585693355
 31
0.0
  0
LINE
  5
202
330
1F
100
AcDbEntity
  8
0
  6
Continuous
 62
     7
100
AcDbLine
 10
611.1648686332
 20
127.585693355
 30
0.0
 11
611.1648686332
 21
124.585693355
 31
0.0
  0
LINE
  5
203
330
1F
100
AcDbEntity
  8
0
  6
Continuous
 62
     7
100
AcDbLine
 10
611.1648686332
 20
130.585693355
 30
0.0
 11
611.1648686332
 21
127.585693355
 31
0.0
  0
LINE
  5
204
330
1F
100
AcDbEntity
  8
0
  6
Continuous
 62
     7
100
AcDbLine
 10
611.6648686332
 20
127.585693355
 30
0.0
 11
611.6648686332
 21
125.085693355
 31
0.0
  0
LINE
  5
205
330
1F
100
AcDbEntity
  8
0
  6
Continuous
 62
     7
100
AcDbLine
 10
611.6648686332
 20
130.085693355
 30
0.0
 11
611.6648686332
 21
127.585693355
 31
0.0
  0
LINE
  5
206
330
1F
100
AcDbEntity
  8
0
  6
Continuous
 62
     7
100
AcDbLine
 10
597.4648686332
 20
77.585693355
 30
0.0
 11
597.4648686332
 21
74.4529075457
 31
0.0
  0
LINE
  5
207
330
1F
100
AcDbEntity
  8
0
  6
Continuous
 62
     7
100
AcDbLine
 10
597.4648686332
 20
80.7184791644
 30
0.0
 11
597.4648686332
 21
77.585693355
 31
0.0
  0
LINE
  5
208
330
1F
100
AcDbEntity
  8
0
  6
Continuous
 62
     7
100
AcDbLine
 10
611.1648686332
 20
77.585693355
 30
0.0
 11
611.1648686332
 21
74.585693355
 31
0.0
  0
LINE
  5
209
330
1F
100
AcDbEntity
  8
0
  6
Continuous
 62
     7
100
AcDbLine
 10
611.1648686332
 20
80.585693355
 30
0.0
 11
611.1648686332
 21
77.585693355
 31
0.0
  0
LINE
  5
20A
330
1F
100
AcDbEntity
  8
0
  6
Continuous
 62
     7
100
AcDbLine
 10
611.6648686332
 20
77.585693355
 30
0.0
 11
611.6648686332
 21
75.085693355
 31
0.0
  0
LINE
  5
20B
330
1F
100
AcDbEntity
  8
0
  6
Continuous
 62
     7
100
AcDbLine
 10
611.6648686332
 20
80.085693355
 30
0.0
 11
611.6648686332
 21
77.585693355
 31
0.0
  0
LINE
  5
20C
330
1F
100
AcDbEntity
  8
0
  6
Continuous
 62
     7
100
AcDbLine
 10
602.4648686332
 20
70.085693355
 30
0.0
 11
603.9648686332
 21
70.085693355
 31
0.0
  0
LINE
  5
20D
330
1F
100
AcDbEntity
  8
0
  6
Continuous
 62
     7
100
AcDbLine
 10
602.4648686332
 20
73.085693355
 30
0.0
 11
603.9648686332
 21
73.085693355
 31
0.0
  0
LINE
  5
20E
330
1F
100
AcDbEntity
  8
0
  6
Continuous
 62
     7
100
AcDbLine
 10
603.9648686332
 20
73.085693355
 30
0.0
 11
603.9648686332
 21
70.085693355
 31
0.0
  0
LINE
  5
20F
330
1F
100
AcDbEntity
  8
0
  6
Continuous
 62
     7
100
AcDbLine
 10
602.4648686332
 20
73.085693355
 30
0.0
 11
602.4648686332
 21
70.085693355
 31
0.0
  0
LINE
  5
210
330
1F
100
AcDbEntity
  8
0
  6
Continuous
 62
     7
100
AcDbLine
 10
602.4648686332
 20
110.085693355
 30
0.0
 11
603.9648686332
 21
110.085693355
 31
0.0
  0
LINE
  5
211
330
1F
100
AcDbEntity
  8
0
  6
Continuous
 62
     7
100
AcDbLine
 10
603.9648686332
 20
110.085693355
 30
0.0
 11
603.9648686332
 21
73.085693355
 31
0.0
  0
LINE
  5
212
330
1F
100
AcDbEntity
  8
0
  6
Continuous
 62
     7
100
AcDbLine
 10
602.4648686332
 20
110.085693355
 30
0.0
 11
602.4648686332
 21
73.085693355
 31
0.0
  0
LINE
  5
213
330
1F
100
AcDbEntity
  8
0
  6
Continuous
 62
     7
100
AcDbLine
 10
602.4648686332
 20
132.085693355
 30
0.0
 11
603.9648686332
 21
132.085693355
 31
0.0
  0
LINE
  5
214
330
1F
100
AcDbEntity
  8
0
  6
Continuous
 62
     7
100
AcDbLine
 10
603.9648686332
 20
132.085693355
 30
0.0
 11
603.9648686332
 21
110.085693355
 31
0.0
  0
LINE
  5
215
330
1F
100
AcDbEntity
  8
0
  6
Continuous
 62
     7
100
AcDbLine
 10
602.4648686332
 20
132.085693355
 30
0.0
 11
602.4648686332
 21
110.085693355
 31
0.0
  0
LINE
  5
216
330
1F
100
AcDbEntity
  8
0
  6
Continuous
 62
     7
100
AcDbLine
 10
602.4648686332
 20
135.085693355
 30
0.0
 11
603.9648686332
 21
135.085693355
 31
0.0
  0
LINE
  5
217
330
1F
100
AcDbEntity
  8
0
  6
Continuous
 62
     7
100
AcDbLine
 10
603.9648686332
 20
133.585693355
 30
0.0
 11
603.9648686332
 21
132.085693355
 31
0.0
  0
LINE
  5
218
330
1F
100
AcDbEntity
  8
0
  6
Continuous
 62
     7
100
AcDbLine
 10
602.4648686332
 20
135.085693355
 30
0.0
 11
602.4648686332
 21
132.085693355
 31
0.0
  0
LINE
  5
219
330
1F
100
AcDbEntity
  8
0
  6
Continuous
 62
     7
100
AcDbLine
 10
605.4648686332
 20
170.585693355
 30
0.0
 11
603.9648686332
 21
170.585693355
 31
0.0
  0
LINE
  5
21A
330
1F
100
AcDbEntity
  8
0
  6
Continuous
 62
     7
100
AcDbLine
 10
605.4648686332
 20
167.585693355
 30
0.0
 11
603.9648686332
 21
167.585693355
 31
0.0
  0
LINE
  5
21B
330
1F
100
AcDbEntity
  8
0
  6
Continuous
 62
     7
100
AcDbLine
 10
605.4648686332
 20
167.585693355
 30
0.0
 11
605.4648686332
 21
170.585693355
 31
0.0
  0
LINE
  5
21C
330
1F
100
AcDbEntity
  8
0
  6
Continuous
 62
     7
100
AcDbLine
 10
603.9648686332
 20
167.585693355
 30
0.0
 11
603.9648686332
 21
170.585693355
 31
0.0
  0
LINE
  5
21D
330
1F
100
AcDbEntity
  8
0
  6
Continuous
 62
     7
100
AcDbLine
 10
605.4648686332
 20
227.2639010922
 30
0.0
 11
603.9648686332
 21
227.2639010922
 31
0.0
  0
LINE
  5
21E
330
1F
100
AcDbEntity
  8
0
  6
Continuous
 62
     7
100
AcDbLine
 10
605.4648686332
 20
170.585693355
 30
0.0
 11
605.4648686332
 21
227.2639010922
 31
0.0
  0
LINE
  5
21F
330
1F
100
AcDbEntity
  8
0
  6
Continuous
 62
     7
100
AcDbLine
 10
603.9648686332
 20
170.585693355
 30
0.0
 11
603.9648686332
 21
227.2639010922
 31
0.0
  0
LINE
  5
220
330
1F
100
AcDbEntity
  8
0
  6
Continuous
 62
     7
100
AcDbLine
 10
605.4648686332
 20
230.2639010922
 30
0.0
 11
603.9648686332
 21
230.2639010922
 31
0.0
  0
LINE
  5
221
330
1F
100
AcDbEntity
  8
0
  6
Continuous
 62
     7
100
AcDbLine
 10
605.4648686332
 20
227.2639010922
 30
0.0
 11
605.4648686332
 21
230.2639010922
 31
0.0
  0
LINE
  5
222
330
1F
100
AcDbEntity
  8
0
  6
Continuous
 62
     7
100
AcDbLine
 10
603.9648686332
 20
227.2639010922
 30
0.0
 11
603.9648686332
 21
230.2639010922
 31
0.0
  0
LINE
  5
223
330
1F
100
AcDbEntity
  8
0
  6
Continuous
 62
     7
100
AcDbLine
 10
605.4648686332
 20
164.585693355
 30
0.0
 11
603.9648686332
 21
164.585693355
 31
0.0
  0
LINE
  5
224
330
1F
100
AcDbEntity
  8
0
  6
Continuous
 62
     7
100
AcDbLine
 10
605.4648686332
 20
164.585693355
 30
0.0
 11
605.4648686332
 21
167.585693355
 31
0.0
  0
LINE
  5
225
330
1F
100
AcDbEntity
  8
0
  6
Continuous
 62
     7
100
AcDbLine
 10
603.9648686332
 20
164.585693355
 30
0.0
 11
603.9648686332
 21
167.585693355
 31
0.0
  0
LINE
  5
226
330
1F
100
AcDbEntity
  8
0
  6
Continuous
 62
     7
100
AcDbLine
 10
605.4648686332
 20
55.585693355
 30
0.0
 11
603.9648686332
 21
55.585693355
 31
0.0
  0
LINE
  5
227
330
1F
100
AcDbEntity
  8
0
  6
Continuous
 62
     7
100
AcDbLine
 10
605.4648686332
 20
52.585693355
 30
0.0
 11
603.9648686332
 21
52.585693355
 31
0.0
  0
LINE
  5
228
330
1F
100
AcDbEntity
  8
0
  6
Continuous
 62
     7
100
AcDbLine
 10
605.4648686332
 20
52.585693355
 30
0.0
 11
605.4648686332
 21
55.585693355
 31
0.0
  0
LINE
  5
229
330
1F
100
AcDbEntity
  8
0
  6
Continuous
 62
     7
100
AcDbLine
 10
603.9648686332
 20
52.585693355
 30
0.0
 11
603.9648686332
 21
55.585693355
 31
0.0
  0
LINE
  5
22A
330
1F
100
AcDbEntity
  8
0
  6
Continuous
 62
     7
100
AcDbLine
 10
605.4648686332
 20
55.585693355
 30
0.0
 11
605.4648686332
 21
164.585693355
 31
0.0
  0
LINE
  5
22B
330
1F
100
AcDbEntity
  8
0
  6
Continuous
 62
     7
100
AcDbLine
 10
603.9648686332
 20
55.585693355
 30
0.0
 11
603.9648686332
 21
70.085693355
 31
0.0
  0
LINE
  5
22C
330
1F
100
AcDbEntity
  8
0
  6
Continuous
 62
     7
100
AcDbLine
 10
603.9648686332
 20
133.585693355
 30
0.0
 11
603.9648686332
 21
164.585693355
 31
0.0
  0
LINE
  5
22D
330
1F
100
AcDbEntity
  8
0
  6
Continuous
 62
     7
100
AcDbLine
 10
599.6248760242
 20
127.585693355
 30
0.0
 11
599.6248760242
 21
121.685693355
 31
0.0
  0
LINE
  5
22E
330
1F
100
AcDbEntity
  8
0
  6
Continuous
 62
     7
100
AcDbLine
 10
599.6248760242
 20
133.485693355
 30
0.0
 11
599.6248760242
 21
127.585693355
 31
0.0
  0
LINE
  5
22F
330
1F
100
AcDbEntity
  8
0
  6
Continuous
 62
     7
100
AcDbLine
 10
598.2945048979
 20
127.585693355
 30
0.0
 11
598.2945048979
 21
122.4927917268
 31
0.0
  0
LINE
  5
230
330
1F
100
AcDbEntity
  8
0
  6
Continuous
 62
     7
100
AcDbLine
 10
598.2945048979
 20
132.6785949833
 30
0.0
 11
598.2945048979
 21
127.585693355
 31
0.0
  0
LINE
  5
231
330
1F
100
AcDbEntity
  8
0
  6
Continuous
 62
     7
100
AcDbLine
 10
597.6344975069
 20
127.585693355
 30
0.0
 11
597.6344975069
 21
123.7600059174
 31
0.0
  0
LINE
  5
232
330
1F
100
AcDbEntity
  8
0
  6
Continuous
 62
     7
100
AcDbLine
 10
597.6344975069
 20
131.4113807926
 30
0.0
 11
597.6344975069
 21
127.585693355
 31
0.0
  0
LINE
  5
233
330
1F
100
AcDbEntity
  8
0
  6
Continuous
 62
     7
100
AcDbLine
 10
599.6248760242
 20
77.585693355
 30
0.0
 11
599.6248760242
 21
71.685693355
 31
0.0
  0
LINE
  5
234
330
1F
100
AcDbEntity
  8
0
  6
Continuous
 62
     7
100
AcDbLine
 10
599.6248760242
 20
83.485693355
 30
0.0
 11
599.6248760242
 21
77.585693355
 31
0.0
  0
LINE
  5
235
330
1F
100
AcDbEntity
  8
0
  6
Continuous
 62
     7
100
AcDbLine
 10
598.2945048979
 20
77.585693355
 30
0.0
 11
598.2945048979
 21
72.4927917268
 31
0.0
  0
LINE
  5
236
330
1F
100
AcDbEntity
  8
0
  6
Continuous
 62
     7
100
AcDbLine
 10
598.2945048979
 20
82.6785949833
 30
0.0
 11
598.2945048979
 21
77.585693355
 31
0.0
  0
LINE
  5
237
330
1F
100
AcDbEntity
  8
0
  6
Continuous
 62
     7
100
AcDbLine
 10
597.6344975069
 20
77.585693355
 30
0.0
 11
597.6344975069
 21
73.7600059174
 31
0.0
  0
LINE
  5
238
330
1F
100
AcDbEntity
  8
0
  6
Continuous
 62
     7
100
AcDbLine
 10
597.6344975069
 20
81.4113807926
 30
0.0
 11
597.6344975069
 21
77.585693355
 31
0.0
  0
LINE
  5
239
330
1F
100
AcDbEntity
  8
0
  6
Continuous
 62
     7
100
AcDbLine
 10
745.300940124
 20
311.9534679927
 30
0.0
 11
745.300940124
 21
314.7934606017
 31
0.0
  0
LINE
  5
23A
330
1F
100
AcDbEntity
  8
0
  6
Continuous
 62
     7
100
AcDbLine
 10
733.500940124
 20
314.7934606017
 30
0.0
 11
733.500940124
 21
311.9534679927
 31
0.0
  0
ARC
  5
23B
330
1F
100
AcDbEntity
  8
0
  6
Continuous
 62
     7
100
AcDbCircle
 10
743.800940124
 20
314.7934606017
 30
0.0
 40
1.500000000000007
100
AcDbArc
 50
0.0
 51
62.4879973762
  0
ARC
  5
23C
330
1F
100
AcDbEntity
  8
0
  6
Continuous
 62
     7
100
AcDbCircle
 10
735.000940124
 20
314.7934606017
 30
0.0
 40
1.500000000000114
100
AcDbArc
 50
117.5120026239
 51
180.0
  0
LINE
  5
23D
330
1F
100
AcDbEntity
  8
0
  6
Continuous
 62
     7
100
AcDbLine
 10
744.4938417522
 20
316.123831728
 30
0.0
 11
743.2266275616
 21
316.7838391189
 31
0.0
  0
LINE
  5
23E
330
1F
100
AcDbEntity
  8
0
  6
Continuous
 62
     7
100
AcDbLine
 10
735.5752526864
 20
316.7838391189
 30
0.0
 11
734.3080384957
 21
316.123831728
 31
0.0
  0
ARC
  5
23F
330
1F
100
AcDbEntity
  8
0
  6
Continuous
 62
     7
100
AcDbCircle
 10
742.5337259333
 20
315.4534679927
 30
0.0
 40
1.499999999999956
100
AcDbArc
 50
62.4879973761
 51
90.0
  0
ARC
  5
240
330
1F
100
AcDbEntity
  8
0
  6
Continuous
 62
     7
100
AcDbCircle
 10
736.2681543146
 20
315.4534679927
 30
0.0
 40
1.499999999999956
100
AcDbArc
 50
90.0
 51
117.5120026239
  0
LINE
  5
241
330
1F
100
AcDbEntity
  8
0
  6
Continuous
 62
     7
100
AcDbLine
 10
736.400940124
 20
303.2534679927
 30
0.0
 11
736.900940124
 21
302.7534679927
 31
0.0
  0
LINE
  5
242
330
1F
100
AcDbEntity
  8
0
  6
Continuous
 62
     7
100
AcDbLine
 10
741.900940124
 20
302.7534679927
 30
0.0
 11
742.400940124
 21
303.2534679927
 31
0.0
  0
LINE
  5
243
330
1F
100
AcDbEntity
  8
0
  6
Continuous
 62
     7
100
AcDbLine
 10
736.400940124
 20
308.9534679927
 30
0.0
 11
736.400940124
 21
303.2534679927
 31
0.0
  0
LINE
  5
244
330
1F
100
AcDbEntity
  8
0
  6
Continuous
 62
     7
100
AcDbLine
 10
742.400940124
 20
303.2534679927
 30
0.0
 11
742.400940124
 21
308.9534679927
 31
0.0
  0
ARC
  5
245
330
1F
100
AcDbEntity
  8
0
  6
Continuous
 62
     7
100
AcDbCircle
 10
1520.300940124
 20
314.7934606017
 30
0.0
 40
1.500000000000227
100
AcDbArc
 50
0.0
 51
62.4879973761
  0
ARC
  5
246
330
1F
100
AcDbEntity
  8
0
  6
Continuous
 62
     7
100
AcDbCircle
 10
1511.500940124
 20
314.7934606017
 30
0.0
 40
1.500000000000227
100
AcDbArc
 50
117.5120026239
 51
180.0
  0
LINE
  5
247
330
1F
100
AcDbEntity
  8
0
  6
Continuous
 62
     7
100
AcDbLine
 10
1521.800940124
 20
311.9534679927
 30
0.0
 11
1521.800940124
 21
314.7934606017
 31
0.0
  0
LINE
  5
248
330
1F
100
AcDbEntity
  8
0
  6
Continuous
 62
     7
100
AcDbLine
 10
1510.000940124
 20
314.7934606017
 30
0.0
 11
1510.000940124
 21
311.9534679927
 31
0.0
  0
LINE
  5
249
330
1F
100
AcDbEntity
  8
0
  6
Continuous
 62
     7
100
AcDbLine
 10
1520.9938417522
 20
316.123831728
 30
0.0
 11
1519.7266275616
 21
316.7838391189
 31
0.0
  0
LINE
  5
24A
330
1F
100
AcDbEntity
  8
0
  6
Continuous
 62
     7
100
AcDbLine
 10
1512.0752526864
 20
316.7838391189
 30
0.0
 11
1510.8080384957
 21
316.123831728
 31
0.0
  0
ARC
  5
24B
330
1F
100
AcDbEntity
  8
0
  6
Continuous
 62
     7
100
AcDbCircle
 10
1519.0337259333
 20
315.4534679927
 30
0.0
 40
1.500000000000112
100
AcDbArc
 50
62.4879973761
 51
90.0
  0
ARC
  5
24C
330
1F
100
AcDbEntity
  8
0
  6
Continuous
 62
     7
100
AcDbCircle
 10
1512.7681543146
 20
315.4534679927
 30
0.0
 40
1.500000000000007
100
AcDbArc
 50
90.0
 51
117.5120026238
  0
LINE
  5
24D
330
1F
100
AcDbEntity
  8
0
  6
Continuous
 62
     7
100
AcDbLine
 10
1512.900940124
 20
308.9534679927
 30
0.0
 11
1512.900940124
 21
303.2534679927
 31
0.0
  0
LINE
  5
24E
330
1F
100
AcDbEntity
  8
0
  6
Continuous
 62
     7
100
AcDbLine
 10
1518.900940124
 20
303.2534679927
 30
0.0
 11
1518.900940124
 21
308.9534679927
 31
0.0
  0
LINE
  5
24F
330
1F
100
AcDbEntity
  8
0
  6
Continuous
 62
     7
100
AcDbLine
 10
1512.900940124
 20
303.2534679927
 30
0.0
 11
1513.400940124
 21
302.7534679927
 31
0.0
  0
LINE
  5
250
330
1F
100
AcDbEntity
  8
0
  6
Continuous
 62
     7
100
AcDbLine
 10
1518.400940124
 20
302.7534679927
 30
0.0
 11
1518.900940124
 21
303.2534679927
 31
0.0
  0
LINE
  5
251
330
1F
100
AcDbEntity
  8
0
  6
Continuous
 62
     7
100
AcDbLine
 10
742.5337259333
 20
316.9534679927
 30
0.0
 11
736.2681543146
 21
316.9534679927
 31
0.0
  0
LINE
  5
252
330
1F
100
AcDbEntity
  8
0
  6
Continuous
 62
     7
100
AcDbLine
 10
742.400940124
 20
303.2534679927
 30
0.0
 11
736.400940124
 21
303.2534679927
 31
0.0
  0
LINE
  5
253
330
1F
100
AcDbEntity
  8
0
  6
Continuous
 62
     7
100
AcDbLine
 10
741.900940124
 20
302.7534679927
 30
0.0
 11
736.900940124
 21
302.7534679927
 31
0.0
  0
LINE
  5
254
330
1F
100
AcDbEntity
  8
0
  6
Continuous
 62
     7
100
AcDbLine
 10
1519.0337259333
 20
316.9534679927
 30
0.0
 11
1512.7681543146
 21
316.9534679927
 31
0.0
  0
LINE
  5
255
330
1F
100
AcDbEntity
  8
0
  6
Continuous
 62
     7
100
AcDbLine
 10
1518.900940124
 20
303.2534679927
 30
0.0
 11
1512.900940124
 21
303.2534679927
 31
0.0
  0
LINE
  5
256
330
1F
100
AcDbEntity
  8
0
  6
Continuous
 62
     7
100
AcDbLine
 10
1518.400940124
 20
302.7534679927
 30
0.0
 11
1513.400940124
 21
302.7534679927
 31
0.0
  0
LINE
  5
257
330
1F
100
AcDbEntity
  8
0
  6
Continuous
 62
     7
100
AcDbLine
 10
717.400940124
 20
310.4534679927
 30
0.0
 11
717.400940124
 21
311.9534679927
 31
0.0
  0
LINE
  5
258
330
1F
100
AcDbEntity
  8
0
  6
Continuous
 62
     7
100
AcDbLine
 10
714.400940124
 20
310.4534679927
 30
0.0
 11
717.400940124
 21
310.4534679927
 31
0.0
  0
LINE
  5
259
330
1F
100
AcDbEntity
  8
0
  6
Continuous
 62
     7
100
AcDbLine
 10
714.400940124
 20
310.4534679927
 30
0.0
 11
714.400940124
 21
311.9534679927
 31
0.0
  0
LINE
  5
25A
330
1F
100
AcDbEntity
  8
0
  6
Continuous
 62
     7
100
AcDbLine
 10
714.400940124
 20
311.9534679927
 30
0.0
 11
717.400940124
 21
311.9534679927
 31
0.0
  0
LINE
  5
25B
330
1F
100
AcDbEntity
  8
0
  6
Continuous
 62
     7
100
AcDbLine
 10
746.400940124
 20
310.4534679927
 30
0.0
 11
746.400940124
 21
311.9534679927
 31
0.0
  0
LINE
  5
25C
330
1F
100
AcDbEntity
  8
0
  6
Continuous
 62
     7
100
AcDbLine
 10
717.400940124
 20
310.4534679927
 30
0.0
 11
723.400940124
 21
310.4534679927
 31
0.0
  0
LINE
  5
25D
330
1F
100
AcDbEntity
  8
0
  6
Continuous
 62
     7
100
AcDbLine
 10
717.400940124
 20
311.9534679927
 30
0.0
 11
746.400940124
 21
311.9534679927
 31
0.0
  0
LINE
  5
25E
330
1F
100
AcDbEntity
  8
0
  6
Continuous
 62
     7
100
AcDbLine
 10
749.400940124
 20
310.4534679927
 30
0.0
 11
749.400940124
 21
311.9534679927
 31
0.0
  0
LINE
  5
25F
330
1F
100
AcDbEntity
  8
0
  6
Continuous
 62
     7
100
AcDbLine
 10
746.400940124
 20
311.9534679927
 30
0.0
 11
749.400940124
 21
311.9534679927
 31
0.0
  0
LINE
  5
260
330
1F
100
AcDbEntity
  8
0
  6
Continuous
 62
     7
100
AcDbLine
 10
1505.900940124
 20
311.9534679927
 30
0.0
 11
1505.900940124
 21
310.4534679927
 31
0.0
  0
LINE
  5
261
330
1F
100
AcDbEntity
  8
0
  6
Continuous
 62
     7
100
AcDbLine
 10
1508.900940124
 20
311.9534679927
 30
0.0
 11
1505.900940124
 21
311.9534679927
 31
0.0
  0
LINE
  5
262
330
1F
100
AcDbEntity
  8
0
  6
Continuous
 62
     7
100
AcDbLine
 10
1508.900940124
 20
311.9534679927
 30
0.0
 11
1508.900940124
 21
310.4534679927
 31
0.0
  0
LINE
  5
263
330
1F
100
AcDbEntity
  8
0
  6
Continuous
 62
     7
100
AcDbLine
 10
1537.900940124
 20
311.9534679927
 30
0.0
 11
1508.900940124
 21
311.9534679927
 31
0.0
  0
LINE
  5
264
330
1F
100
AcDbEntity
  8
0
  6
Continuous
 62
     7
100
AcDbLine
 10
1537.900940124
 20
311.9534679927
 30
0.0
 11
1537.900940124
 21
310.4534679927
 31
0.0
  0
LINE
  5
265
330
1F
100
AcDbEntity
  8
0
  6
Continuous
 62
     7
100
AcDbLine
 10
1537.900940124
 20
310.4534679927
 30
0.0
 11
1531.900940124
 21
310.4534679927
 31
0.0
  0
LINE
  5
266
330
1F
100
AcDbEntity
  8
0
  6
Continuous
 62
     7
100
AcDbLine
 10
1540.900940124
 20
311.9534679927
 30
0.0
 11
1540.900940124
 21
310.4534679927
 31
0.0
  0
LINE
  5
267
330
1F
100
AcDbEntity
  8
0
  6
Continuous
 62
     7
100
AcDbLine
 10
1540.900940124
 20
311.9534679927
 30
0.0
 11
1537.900940124
 21
311.9534679927
 31
0.0
  0
LINE
  5
268
330
1F
100
AcDbEntity
  8
0
  6
Continuous
 62
     7
100
AcDbLine
 10
1540.900940124
 20
310.4534679927
 30
0.0
 11
1537.900940124
 21
310.4534679927
 31
0.0
  0
LINE
  5
269
330
1F
100
AcDbEntity
  8
0
  6
Continuous
 62
     7
100
AcDbLine
 10
726.400940124
 20
308.9534679927
 30
0.0
 11
726.400940124
 21
310.4534679927
 31
0.0
  0
LINE
  5
26A
330
1F
100
AcDbEntity
  8
0
  6
Continuous
 62
     7
100
AcDbLine
 10
723.400940124
 20
308.9534679927
 30
0.0
 11
723.400940124
 21
310.4534679927
 31
0.0
  0
LINE
  5
26B
330
1F
100
AcDbEntity
  8
0
  6
Continuous
 62
     7
100
AcDbLine
 10
723.400940124
 20
308.9534679927
 30
0.0
 11
726.400940124
 21
308.9534679927
 31
0.0
  0
LINE
  5
26C
330
1F
100
AcDbEntity
  8
0
  6
Continuous
 62
     7
100
AcDbLine
 10
723.400940124
 20
310.4534679927
 30
0.0
 11
726.400940124
 21
310.4534679927
 31
0.0
  0
LINE
  5
26D
330
1F
100
AcDbEntity
  8
0
  6
Continuous
 62
     7
100
AcDbLine
 10
1528.900940124
 20
308.9534679927
 30
0.0
 11
1528.900940124
 21
310.4534679927
 31
0.0
  0
LINE
  5
26E
330
1F
100
AcDbEntity
  8
0
  6
Continuous
 62
     7
100
AcDbLine
 10
726.400940124
 20
308.9534679927
 30
0.0
 11
1528.900940124
 21
308.9534679927
 31
0.0
  0
LINE
  5
26F
330
1F
100
AcDbEntity
  8
0
  6
Continuous
 62
     7
100
AcDbLine
 10
726.400940124
 20
310.4534679927
 30
0.0
 11
1528.900940124
 21
310.4534679927
 31
0.0
  0
LINE
  5
270
330
1F
100
AcDbEntity
  8
0
  6
Continuous
 62
     7
100
AcDbLine
 10
1531.900940124
 20
308.9534679927
 30
0.0
 11
1531.900940124
 21
310.4534679927
 31
0.0
  0
LINE
  5
271
330
1F
100
AcDbEntity
  8
0
  6
Continuous
 62
     7
100
AcDbLine
 10
1528.900940124
 20
308.9534679927
 30
0.0
 11
1531.900940124
 21
308.9534679927
 31
0.0
  0
LINE
  5
272
330
1F
100
AcDbEntity
  8
0
  6
Continuous
 62
     7
100
AcDbLine
 10
1528.900940124
 20
310.4534679927
 30
0.0
 11
1531.900940124
 21
310.4534679927
 31
0.0
  0
LINE
  5
273
330
1F
100
AcDbEntity
  8
0
  6
Continuous
 62
     7
100
AcDbLine
 10
720.400940124
 20
308.9534679927
 30
0.0
 11
720.400940124
 21
310.4534679927
 31
0.0
  0
LINE
  5
274
330
1F
100
AcDbEntity
  8
0
  6
Continuous
 62
     7
100
AcDbLine
 10
720.400940124
 20
308.9534679927
 30
0.0
 11
723.400940124
 21
308.9534679927
 31
0.0
  0
LINE
  5
275
330
1F
100
AcDbEntity
  8
0
  6
Continuous
 62
     7
100
AcDbLine
 10
1534.900940124
 20
308.9534679927
 30
0.0
 11
1534.900940124
 21
310.4534679927
 31
0.0
  0
LINE
  5
276
330
1F
100
AcDbEntity
  8
0
  6
Continuous
 62
     7
100
AcDbLine
 10
1531.900940124
 20
308.9534679927
 30
0.0
 11
1534.900940124
 21
308.9534679927
 31
0.0
  0
LINE
  5
277
330
1F
100
AcDbEntity
  8
0
  6
Continuous
 62
     7
100
AcDbLine
 10
684.900940124
 20
308.9534679927
 30
0.0
 11
684.900940124
 21
310.4534679927
 31
0.0
  0
LINE
  5
278
330
1F
100
AcDbEntity
  8
0
  6
Continuous
 62
     7
100
AcDbLine
 10
681.900940124
 20
308.9534679927
 30
0.0
 11
681.900940124
 21
310.4534679927
 31
0.0
  0
LINE
  5
279
330
1F
100
AcDbEntity
  8
0
  6
Continuous
 62
     7
100
AcDbLine
 10
681.900940124
 20
308.9534679927
 30
0.0
 11
684.900940124
 21
308.9534679927
 31
0.0
  0
LINE
  5
27A
330
1F
100
AcDbEntity
  8
0
  6
Continuous
 62
     7
100
AcDbLine
 10
681.900940124
 20
310.4534679927
 30
0.0
 11
684.900940124
 21
310.4534679927
 31
0.0
  0
LINE
  5
27B
330
1F
100
AcDbEntity
  8
0
  6
Continuous
 62
     7
100
AcDbLine
 10
684.900940124
 20
308.9534679927
 30
0.0
 11
720.400940124
 21
308.9534679927
 31
0.0
  0
LINE
  5
27C
330
1F
100
AcDbEntity
  8
0
  6
Continuous
 62
     7
100
AcDbLine
 10
684.900940124
 20
310.4534679927
 30
0.0
 11
714.400940124
 21
310.4534679927
 31
0.0
  0
LINE
  5
27D
330
1F
100
AcDbEntity
  8
0
  6
Continuous
 62
     7
100
AcDbLine
 10
1570.400940124
 20
308.9534679927
 30
0.0
 11
1570.400940124
 21
310.4534679927
 31
0.0
  0
LINE
  5
27E
330
1F
100
AcDbEntity
  8
0
  6
Continuous
 62
     7
100
AcDbLine
 10
1534.900940124
 20
308.9534679927
 30
0.0
 11
1570.400940124
 21
308.9534679927
 31
0.0
  0
LINE
  5
27F
330
1F
100
AcDbEntity
  8
0
  6
Continuous
 62
     7
100
AcDbLine
 10
1540.900940124
 20
310.4534679927
 30
0.0
 11
1570.400940124
 21
310.4534679927
 31
0.0
  0
LINE
  5
280
330
1F
100
AcDbEntity
  8
0
  6
Continuous
 62
     7
100
AcDbLine
 10
1573.400940124
 20
308.9534679927
 30
0.0
 11
1573.400940124
 21
310.4534679927
 31
0.0
  0
LINE
  5
281
330
1F
100
AcDbEntity
  8
0
  6
Continuous
 62
     7
100
AcDbLine
 10
1570.400940124
 20
308.9534679927
 30
0.0
 11
1573.400940124
 21
308.9534679927
 31
0.0
  0
LINE
  5
282
330
1F
100
AcDbEntity
  8
0
  6
Continuous
 62
     7
100
AcDbLine
 10
1570.400940124
 20
310.4534679927
 30
0.0
 11
1573.400940124
 21
310.4534679927
 31
0.0
  0
LINE
  5
283
330
1F
100
AcDbEntity
  8
0
  6
Continuous
 62
     7
100
AcDbLine
 10
745.300940124
 20
314.7934606017
 30
0.0
 11
733.500940124
 21
314.7934606017
 31
0.0
  0
LINE
  5
284
330
1F
100
AcDbEntity
  8
0
  6
Continuous
 62
     7
100
AcDbLine
 10
744.4938417522
 20
316.123831728
 30
0.0
 11
734.3080384957
 21
316.123831728
 31
0.0
  0
LINE
  5
285
330
1F
100
AcDbEntity
  8
0
  6
Continuous
 62
     7
100
AcDbLine
 10
743.2266275616
 20
316.7838391189
 30
0.0
 11
735.5752526864
 21
316.7838391189
 31
0.0
  0
LINE
  5
286
330
1F
100
AcDbEntity
  8
0
  6
Continuous
 62
     7
100
AcDbLine
 10
1521.800940124
 20
314.7934606017
 30
0.0
 11
1510.000940124
 21
314.7934606017
 31
0.0
  0
LINE
  5
287
330
1F
100
AcDbEntity
  8
0
  6
Continuous
 62
     7
100
AcDbLine
 10
1520.9938417522
 20
316.123831728
 30
0.0
 11
1510.8080384957
 21
316.123831728
 31
0.0
  0
LINE
  5
288
330
1F
100
AcDbEntity
  8
0
  6
Continuous
 62
     7
100
AcDbLine
 10
1519.7266275616
 20
316.7838391189
 30
0.0
 11
1512.0752526864
 21
316.7838391189
 31
0.0
  0
ARC
  5
289
330
1F
100
AcDbEntity
  8
0
  6
Continuous
 62
     7
100
AcDbCircle
 10
1511.500940124
 20
-25.3510156479
 30
0.0
 40
1.500000000000227
100
AcDbArc
 50
180.0
 51
242.4879973761
  0
ARC
  5
28A
330
1F
100
AcDbEntity
  8
0
  6
Continuous
 62
     7
100
AcDbCircle
 10
1520.300940124
 20
-25.3510156479
 30
0.0
 40
1.5
100
AcDbArc
 50
297.5120026239
 51
0.0
  0
LINE
  5
28B
330
1F
100
AcDbEntity
  8
0
  6
Continuous
 62
     7
100
AcDbLine
 10
1510.000940124
 20
-22.5110230389
 30
0.0
 11
1510.000940124
 21
-25.3510156479
 31
0.0
  0
LINE
  5
28C
330
1F
100
AcDbEntity
  8
0
  6
Continuous
 62
     7
100
AcDbLine
 10
1521.800940124
 20
-25.3510156479
 30
0.0
 11
1521.800940124
 21
-22.5110230389
 31
0.0
  0
LINE
  5
28D
330
1F
100
AcDbEntity
  8
0
  6
Continuous
 62
     7
100
AcDbLine
 10
1510.8080384957
 20
-26.6813867742
 30
0.0
 11
1512.0752526864
 21
-27.3413941651
 31
0.0
  0
LINE
  5
28E
330
1F
100
AcDbEntity
  8
0
  6
Continuous
 62
     7
100
AcDbLine
 10
1519.7266275616
 20
-27.3413941651
 30
0.0
 11
1520.9938417522
 21
-26.6813867742
 31
0.0
  0
ARC
  5
28F
330
1F
100
AcDbEntity
  8
0
  6
Continuous
 62
     7
100
AcDbCircle
 10
1512.7681543146
 20
-26.0110230389
 30
0.0
 40
1.5
100
AcDbArc
 50
242.4879973762
 51
270.0
  0
ARC
  5
290
330
1F
100
AcDbEntity
  8
0
  6
Continuous
 62
     7
100
AcDbCircle
 10
1519.0337259333
 20
-26.0110230389
 30
0.0
 40
1.5
100
AcDbArc
 50
270.0
 51
297.5120026239
  0
LINE
  5
291
330
1F
100
AcDbEntity
  8
0
  6
Continuous
 62
     7
100
AcDbLine
 10
1518.900940124
 20
-13.8110230389
 30
0.0
 11
1518.400940124
 21
-13.3110230389
 31
0.0
  0
LINE
  5
292
330
1F
100
AcDbEntity
  8
0
  6
Continuous
 62
     7
100
AcDbLine
 10
1513.400940124
 20
-13.3110230389
 30
0.0
 11
1512.900940124
 21
-13.8110230389
 31
0.0
  0
LINE
  5
293
330
1F
100
AcDbEntity
  8
0
  6
Continuous
 62
     7
100
AcDbLine
 10
1518.900940124
 20
-19.5110230389
 30
0.0
 11
1518.900940124
 21
-13.8110230389
 31
0.0
  0
LINE
  5
294
330
1F
100
AcDbEntity
  8
0
  6
Continuous
 62
     7
100
AcDbLine
 10
1512.900940124
 20
-13.8110230389
 30
0.0
 11
1512.900940124
 21
-19.5110230389
 31
0.0
  0
LINE
  5
295
330
1F
100
AcDbEntity
  8
0
  6
Continuous
 62
     7
100
AcDbLine
 10
733.500940124
 20
-22.5110230389
 30
0.0
 11
733.500940124
 21
-25.3510156479
 31
0.0
  0
LINE
  5
296
330
1F
100
AcDbEntity
  8
0
  6
Continuous
 62
     7
100
AcDbLine
 10
745.300940124
 20
-25.3510156479
 30
0.0
 11
745.300940124
 21
-22.5110230389
 31
0.0
  0
ARC
  5
297
330
1F
100
AcDbEntity
  8
0
  6
Continuous
 62
     7
100
AcDbCircle
 10
735.000940124
 20
-25.3510156479
 30
0.0
 40
1.500000000000114
100
AcDbArc
 50
180.0
 51
242.4879973761
  0
ARC
  5
298
330
1F
100
AcDbEntity
  8
0
  6
Continuous
 62
     7
100
AcDbCircle
 10
743.800940124
 20
-25.3510156479
 30
0.0
 40
1.500000000000114
100
AcDbArc
 50
297.5120026239
 51
0.0
  0
LINE
  5
299
330
1F
100
AcDbEntity
  8
0
  6
Continuous
 62
     7
100
AcDbLine
 10
734.3080384957
 20
-26.6813867742
 30
0.0
 11
735.5752526864
 21
-27.3413941651
 31
0.0
  0
LINE
  5
29A
330
1F
100
AcDbEntity
  8
0
  6
Continuous
 62
     7
100
AcDbLine
 10
743.2266275616
 20
-27.3413941651
 30
0.0
 11
744.4938417522
 21
-26.6813867742
 31
0.0
  0
ARC
  5
29B
330
1F
100
AcDbEntity
  8
0
  6
Continuous
 62
     7
100
AcDbCircle
 10
736.2681543146
 20
-26.0110230389
 30
0.0
 40
1.5
100
AcDbArc
 50
242.4879973762
 51
270.0
  0
ARC
  5
29C
330
1F
100
AcDbEntity
  8
0
  6
Continuous
 62
     7
100
AcDbCircle
 10
742.5337259333
 20
-26.0110230389
 30
0.0
 40
1.5
100
AcDbArc
 50
270.0
 51
297.5120026238
  0
LINE
  5
29D
330
1F
100
AcDbEntity
  8
0
  6
Continuous
 62
     7
100
AcDbLine
 10
742.400940124
 20
-13.8110230389
 30
0.0
 11
741.900940124
 21
-13.3110230389
 31
0.0
  0
LINE
  5
29E
330
1F
100
AcDbEntity
  8
0
  6
Continuous
 62
     7
100
AcDbLine
 10
736.900940124
 20
-13.3110230389
 30
0.0
 11
736.400940124
 21
-13.8110230389
 31
0.0
  0
LINE
  5
29F
330
1F
100
AcDbEntity
  8
0
  6
Continuous
 62
     7
100
AcDbLine
 10
742.400940124
 20
-19.5110230389
 30
0.0
 11
742.400940124
 21
-13.8110230389
 31
0.0
  0
LINE
  5
2A0
330
1F
100
AcDbEntity
  8
0
  6
Continuous
 62
     7
100
AcDbLine
 10
736.400940124
 20
-13.8110230389
 30
0.0
 11
736.400940124
 21
-19.5110230389
 31
0.0
  0
LINE
  5
2A1
330
1F
100
AcDbEntity
  8
0
  6
Continuous
 62
     7
100
AcDbLine
 10
1512.768154692
 20
-27.5110230389
 30
0.0
 11
1519.0337259333
 21
-27.5110230389
 31
0.0
  0
LINE
  5
2A2
330
1F
100
AcDbEntity
  8
0
  6
Continuous
 62
     7
100
AcDbLine
 10
1512.900940124
 20
-13.8110230389
 30
0.0
 11
1518.900940124
 21
-13.8110230389
 31
0.0
  0
LINE
  5
2A3
330
1F
100
AcDbEntity
  8
0
  6
Continuous
 62
     7
100
AcDbLine
 10
1513.400940124
 20
-13.3110230389
 30
0.0
 11
1518.400940124
 21
-13.3110230389
 31
0.0
  0
LINE
  5
2A4
330
1F
100
AcDbEntity
  8
0
  6
Continuous
 62
     7
100
AcDbLine
 10
736.268154692
 20
-27.5110230389
 30
0.0
 11
742.5337259333
 21
-27.5110230389
 31
0.0
  0
LINE
  5
2A5
330
1F
100
AcDbEntity
  8
0
  6
Continuous
 62
     7
100
AcDbLine
 10
736.400940124
 20
-13.8110230389
 30
0.0
 11
742.400940124
 21
-13.8110230389
 31
0.0
  0
LINE
  5
2A6
330
1F
100
AcDbEntity
  8
0
  6
Continuous
 62
     7
100
AcDbLine
 10
736.900940124
 20
-13.3110230389
 30
0.0
 11
741.900940124
 21
-13.3110230389
 31
0.0
  0
LINE
  5
2A7
330
1F
100
AcDbEntity
  8
0
  6
Continuous
 62
     7
100
AcDbLine
 10
746.400940124
 20
-21.0110230389
 30
0.0
 11
746.400940124
 21
-22.5110230389
 31
0.0
  0
LINE
  5
2A8
330
1F
100
AcDbEntity
  8
0
  6
Continuous
 62
     7
100
AcDbLine
 10
749.400940124
 20
-21.0110230389
 30
0.0
 11
749.400940124
 21
-22.5110230389
 31
0.0
  0
LINE
  5
2A9
330
1F
100
AcDbEntity
  8
0
  6
Continuous
 62
     7
100
AcDbLine
 10
749.400940124
 20
-22.5110230389
 30
0.0
 11
746.400940124
 21
-22.5110230389
 31
0.0
  0
LINE
  5
2AA
330
1F
100
AcDbEntity
  8
0
  6
Continuous
 62
     7
100
AcDbLine
 10
724.900940124
 20
-21.0110230389
 30
0.0
 11
724.900940124
 21
-22.5110230389
 31
0.0
  0
LINE
  5
2AB
330
1F
100
AcDbEntity
  8
0
  6
Continuous
 62
     7
100
AcDbLine
 10
746.400940124
 20
-22.5110230389
 30
0.0
 11
724.900940124
 21
-22.5110230389
 31
0.0
  0
LINE
  5
2AC
330
1F
100
AcDbEntity
  8
0
  6
Continuous
 62
     7
100
AcDbLine
 10
721.900940124
 20
-21.0110230389
 30
0.0
 11
721.900940124
 21
-22.5110230389
 31
0.0
  0
LINE
  5
2AD
330
1F
100
AcDbEntity
  8
0
  6
Continuous
 62
     7
100
AcDbLine
 10
724.900940124
 20
-22.5110230389
 30
0.0
 11
721.900940124
 21
-22.5110230389
 31
0.0
  0
LINE
  5
2AE
330
1F
100
AcDbEntity
  8
0
  6
Continuous
 62
     7
100
AcDbLine
 10
719.400940124
 20
-22.5110230389
 30
0.0
 11
719.400940124
 21
-21.0110230389
 31
0.0
  0
LINE
  5
2AF
330
1F
100
AcDbEntity
  8
0
  6
Continuous
 62
     7
100
AcDbLine
 10
714.400940124
 20
-21.0110230389
 30
0.0
 11
714.400940124
 21
-22.5110230389
 31
0.0
  0
LINE
  5
2B0
330
1F
100
AcDbEntity
  8
0
  6
Continuous
 62
     7
100
AcDbLine
 10
714.400940124
 20
-22.5110230389
 30
0.0
 11
719.400940124
 21
-22.5110230389
 31
0.0
  0
LINE
  5
2B1
330
1F
100
AcDbEntity
  8
0
  6
Continuous
 62
     7
100
AcDbLine
 10
721.900940124
 20
-22.5110230389
 30
0.0
 11
719.400940124
 21
-22.5110230389
 31
0.0
  0
LINE
  5
2B2
330
1F
100
AcDbEntity
  8
0
  6
Continuous
 62
     7
100
AcDbLine
 10
1533.400940124
 20
-22.5110230389
 30
0.0
 11
1533.400940124
 21
-21.0110230389
 31
0.0
  0
LINE
  5
2B3
330
1F
100
AcDbEntity
  8
0
  6
Continuous
 62
     7
100
AcDbLine
 10
1530.400940124
 20
-22.5110230389
 30
0.0
 11
1530.400940124
 21
-21.0110230389
 31
0.0
  0
LINE
  5
2B4
330
1F
100
AcDbEntity
  8
0
  6
Continuous
 62
     7
100
AcDbLine
 10
1530.400940124
 20
-22.5110230389
 30
0.0
 11
1533.400940124
 21
-22.5110230389
 31
0.0
  0
LINE
  5
2B5
330
1F
100
AcDbEntity
  8
0
  6
Continuous
 62
     7
100
AcDbLine
 10
1508.900940124
 20
-22.5110230389
 30
0.0
 11
1508.900940124
 21
-21.0110230389
 31
0.0
  0
LINE
  5
2B6
330
1F
100
AcDbEntity
  8
0
  6
Continuous
 62
     7
100
AcDbLine
 10
1508.900940124
 20
-22.5110230389
 30
0.0
 11
1530.400940124
 21
-22.5110230389
 31
0.0
  0
LINE
  5
2B7
330
1F
100
AcDbEntity
  8
0
  6
Continuous
 62
     7
100
AcDbLine
 10
1505.900940124
 20
-22.5110230389
 30
0.0
 11
1505.900940124
 21
-21.0110230389
 31
0.0
  0
LINE
  5
2B8
330
1F
100
AcDbEntity
  8
0
  6
Continuous
 62
     7
100
AcDbLine
 10
1505.900940124
 20
-22.5110230389
 30
0.0
 11
1508.900940124
 21
-22.5110230389
 31
0.0
  0
LINE
  5
2B9
330
1F
100
AcDbEntity
  8
0
  6
Continuous
 62
     7
100
AcDbLine
 10
1535.900940124
 20
-21.0110230389
 30
0.0
 11
1535.900940124
 21
-22.5110230389
 31
0.0
  0
LINE
  5
2BA
330
1F
100
AcDbEntity
  8
0
  6
Continuous
 62
     7
100
AcDbLine
 10
1540.900940124
 20
-22.5110230389
 30
0.0
 11
1540.900940124
 21
-21.0110230389
 31
0.0
  0
LINE
  5
2BB
330
1F
100
AcDbEntity
  8
0
  6
Continuous
 62
     7
100
AcDbLine
 10
1535.900940124
 20
-22.5110230389
 30
0.0
 11
1540.900940124
 21
-22.5110230389
 31
0.0
  0
LINE
  5
2BC
330
1F
100
AcDbEntity
  8
0
  6
Continuous
 62
     7
100
AcDbLine
 10
1533.400940124
 20
-22.5110230389
 30
0.0
 11
1535.900940124
 21
-22.5110230389
 31
0.0
  0
LINE
  5
2BD
330
1F
100
AcDbEntity
  8
0
  6
Continuous
 62
     7
100
AcDbLine
 10
1570.400940124
 20
-19.5110230389
 30
0.0
 11
1570.400940124
 21
-21.0110230389
 31
0.0
  0
LINE
  5
2BE
330
1F
100
AcDbEntity
  8
0
  6
Continuous
 62
     7
100
AcDbLine
 10
1573.400940124
 20
-19.5110230389
 30
0.0
 11
1570.400940124
 21
-19.5110230389
 31
0.0
  0
LINE
  5
2BF
330
1F
100
AcDbEntity
  8
0
  6
Continuous
 62
     7
100
AcDbLine
 10
1573.400940124
 20
-19.5110230389
 30
0.0
 11
1573.400940124
 21
-21.0110230389
 31
0.0
  0
LINE
  5
2C0
330
1F
100
AcDbEntity
  8
0
  6
Continuous
 62
     7
100
AcDbLine
 10
1573.400940124
 20
-21.0110230389
 30
0.0
 11
1570.400940124
 21
-21.0110230389
 31
0.0
  0
LINE
  5
2C1
330
1F
100
AcDbEntity
  8
0
  6
Continuous
 62
     7
100
AcDbLine
 10
684.900940124
 20
-19.5110230389
 30
0.0
 11
684.900940124
 21
-21.0110230389
 31
0.0
  0
LINE
  5
2C2
330
1F
100
AcDbEntity
  8
0
  6
Continuous
 62
     7
100
AcDbLine
 10
1570.400940124
 20
-21.0110230389
 30
0.0
 11
684.900940124
 21
-21.0110230389
 31
0.0
  0
LINE
  5
2C3
330
1F
100
AcDbEntity
  8
0
  6
Continuous
 62
     7
100
AcDbLine
 10
1570.400940124
 20
-19.5110230389
 30
0.0
 11
684.900940124
 21
-19.5110230389
 31
0.0
  0
LINE
  5
2C4
330
1F
100
AcDbEntity
  8
0
  6
Continuous
 62
     7
100
AcDbLine
 10
681.900940124
 20
-19.5110230389
 30
0.0
 11
681.900940124
 21
-21.0110230389
 31
0.0
  0
LINE
  5
2C5
330
1F
100
AcDbEntity
  8
0
  6
Continuous
 62
     7
100
AcDbLine
 10
684.900940124
 20
-21.0110230389
 30
0.0
 11
681.900940124
 21
-21.0110230389
 31
0.0
  0
LINE
  5
2C6
330
1F
100
AcDbEntity
  8
0
  6
Continuous
 62
     7
100
AcDbLine
 10
684.900940124
 20
-19.5110230389
 30
0.0
 11
681.900940124
 21
-19.5110230389
 31
0.0
  0
LINE
  5
2C7
330
1F
100
AcDbEntity
  8
0
  6
Continuous
 62
     7
100
AcDbLine
 10
1510.000940124
 20
-25.3510156479
 30
0.0
 11
1521.800940124
 21
-25.3510156479
 31
0.0
  0
LINE
  5
2C8
330
1F
100
AcDbEntity
  8
0
  6
Continuous
 62
     7
100
AcDbLine
 10
1510.8080384957
 20
-26.6813867742
 30
0.0
 11
1520.9938417522
 21
-26.6813867742
 31
0.0
  0
LINE
  5
2C9
330
1F
100
AcDbEntity
  8
0
  6
Continuous
 62
     7
100
AcDbLine
 10
1512.0752526864
 20
-27.3413941651
 30
0.0
 11
1519.7266275616
 21
-27.3413941651
 31
0.0
  0
LINE
  5
2CA
330
1F
100
AcDbEntity
  8
0
  6
Continuous
 62
     7
100
AcDbLine
 10
733.500940124
 20
-25.3510156479
 30
0.0
 11
745.300940124
 21
-25.3510156479
 31
0.0
  0
LINE
  5
2CB
330
1F
100
AcDbEntity
  8
0
  6
Continuous
 62
     7
100
AcDbLine
 10
734.3080384957
 20
-26.6813867742
 30
0.0
 11
744.4938417522
 21
-26.6813867742
 31
0.0
  0
LINE
  5
2CC
330
1F
100
AcDbEntity
  8
0
  6
Continuous
 62
     7
100
AcDbLine
 10
735.5752526864
 20
-27.3413941651
 30
0.0
 11
743.2266275616
 21
-27.3413941651
 31
0.0
  0
LINE
  5
2CD
330
1F
100
AcDbEntity
  8
0
  6
Continuous
 62
     7
100
AcDbLine
 10
1660.2129800303
 20
71.685693355
 30
0.0
 11
1663.0529726393
 21
71.685693355
 31
0.0
  0
LINE
  5
2CE
330
1F
100
AcDbEntity
  8
0
  6
Continuous
 62
     7
100
AcDbLine
 10
1663.0529726393
 20
83.485693355
 30
0.0
 11
1660.2129800303
 21
83.485693355
 31
0.0
  0
ARC
  5
2CF
330
1F
100
AcDbEntity
  8
0
  6
Continuous
 62
     7
100
AcDbCircle
 10
1663.0529726393
 20
73.185693355
 30
0.0
 40
1.5
100
AcDbArc
 50
270.0
 51
332.4879973761
  0
ARC
  5
2D0
330
1F
100
AcDbEntity
  8
0
  6
Continuous
 62
     7
100
AcDbCircle
 10
1663.0529726393
 20
81.985693355
 30
0.0
 40
1.5
100
AcDbArc
 50
27.5120026239
 51
90.0
  0
LINE
  5
2D1
330
1F
100
AcDbEntity
  8
0
  6
Continuous
 62
     7
100
AcDbLine
 10
1664.3833437656
 20
72.4927917267
 30
0.0
 11
1665.0433511566
 21
73.7600059174
 31
0.0
  0
LINE
  5
2D2
330
1F
100
AcDbEntity
  8
0
  6
Continuous
 62
     7
100
AcDbLine
 10
1665.0433511566
 20
81.4113807926
 30
0.0
 11
1664.3833437656
 21
82.6785949833
 31
0.0
  0
ARC
  5
2D3
330
1F
100
AcDbEntity
  8
0
  6
Continuous
 62
     7
100
AcDbCircle
 10
1663.7129800303
 20
74.4529075457
 30
0.0
 40
1.5
100
AcDbArc
 50
332.4879973761
 51
360.0
  0
ARC
  5
2D4
330
1F
100
AcDbEntity
  8
0
  6
Continuous
 62
     7
100
AcDbCircle
 10
1663.7129800303
 20
80.7184791643
 30
0.0
 40
1.5
100
AcDbArc
 50
0.0
 51
27.5120026239
  0
LINE
  5
2D5
330
1F
100
AcDbEntity
  8
0
  6
Continuous
 62
     7
100
AcDbLine
 10
1651.5129800303
 20
80.585693355
 30
0.0
 11
1651.0129800303
 21
80.085693355
 31
0.0
  0
LINE
  5
2D6
330
1F
100
AcDbEntity
  8
0
  6
Continuous
 62
     7
100
AcDbLine
 10
1651.0129800303
 20
75.085693355
 30
0.0
 11
1651.5129800303
 21
74.585693355
 31
0.0
  0
LINE
  5
2D7
330
1F
100
AcDbEntity
  8
0
  6
Continuous
 62
     7
100
AcDbLine
 10
1657.2129800303
 20
80.585693355
 30
0.0
 11
1651.5129800303
 21
80.585693355
 31
0.0
  0
LINE
  5
2D8
330
1F
100
AcDbEntity
  8
0
  6
Continuous
 62
     7
100
AcDbLine
 10
1651.5129800303
 20
74.585693355
 30
0.0
 11
1657.2129800303
 21
74.585693355
 31
0.0
  0
LINE
  5
2D9
330
1F
100
AcDbEntity
  8
0
  6
Continuous
 62
     7
100
AcDbLine
 10
1660.2129800303
 20
121.685693355
 30
0.0
 11
1663.0529726393
 21
121.685693355
 31
0.0
  0
LINE
  5
2DA
330
1F
100
AcDbEntity
  8
0
  6
Continuous
 62
     7
100
AcDbLine
 10
1663.0529726393
 20
133.485693355
 30
0.0
 11
1660.2129800303
 21
133.485693355
 31
0.0
  0
ARC
  5
2DB
330
1F
100
AcDbEntity
  8
0
  6
Continuous
 62
     7
100
AcDbCircle
 10
1663.0529726393
 20
123.185693355
 30
0.0
 40
1.5
100
AcDbArc
 50
270.0
 51
332.4879973761
  0
ARC
  5
2DC
330
1F
100
AcDbEntity
  8
0
  6
Continuous
 62
     7
100
AcDbCircle
 10
1663.0529726393
 20
131.985693355
 30
0.0
 40
1.5
100
AcDbArc
 50
27.5120026239
 51
90.0
  0
LINE
  5
2DD
330
1F
100
AcDbEntity
  8
0
  6
Continuous
 62
     7
100
AcDbLine
 10
1664.3833437656
 20
122.4927917267
 30
0.0
 11
1665.0433511566
 21
123.7600059174
 31
0.0
  0
LINE
  5
2DE
330
1F
100
AcDbEntity
  8
0
  6
Continuous
 62
     7
100
AcDbLine
 10
1665.0433511566
 20
131.4113807926
 30
0.0
 11
1664.3833437656
 21
132.6785949833
 31
0.0
  0
ARC
  5
2DF
330
1F
100
AcDbEntity
  8
0
  6
Continuous
 62
     7
100
AcDbCircle
 10
1663.7129800303
 20
124.4529075457
 30
0.0
 40
1.5
100
AcDbArc
 50
332.4879973761
 51
360.0
  0
ARC
  5
2E0
330
1F
100
AcDbEntity
  8
0
  6
Continuous
 62
     7
100
AcDbCircle
 10
1663.7129800303
 20
130.7184791643
 30
0.0
 40
1.5
100
AcDbArc
 50
0.0
 51
27.5120026239
  0
LINE
  5
2E1
330
1F
100
AcDbEntity
  8
0
  6
Continuous
 62
     7
100
AcDbLine
 10
1657.2129800303
 20
130.585693355
 30
0.0
 11
1651.5129800303
 21
130.585693355
 31
0.0
  0
LINE
  5
2E2
330
1F
100
AcDbEntity
  8
0
  6
Continuous
 62
     7
100
AcDbLine
 10
1651.5129800303
 20
124.585693355
 30
0.0
 11
1657.2129800303
 21
124.585693355
 31
0.0
  0
LINE
  5
2E3
330
1F
100
AcDbEntity
  8
0
  6
Continuous
 62
     7
100
AcDbLine
 10
1651.5129800303
 20
130.585693355
 30
0.0
 11
1651.0129800303
 21
130.085693355
 31
0.0
  0
LINE
  5
2E4
330
1F
100
AcDbEntity
  8
0
  6
Continuous
 62
     7
100
AcDbLine
 10
1651.0129800303
 20
125.085693355
 30
0.0
 11
1651.5129800303
 21
124.585693355
 31
0.0
  0
LINE
  5
2E5
330
1F
100
AcDbEntity
  8
0
  6
Continuous
 62
     7
100
AcDbLine
 10
1665.2129800303
 20
74.4529075457
 30
0.0
 11
1665.2129800303
 21
80.7184791643
 31
0.0
  0
LINE
  5
2E6
330
1F
100
AcDbEntity
  8
0
  6
Continuous
 62
     7
100
AcDbLine
 10
1651.5129800303
 20
74.585693355
 30
0.0
 11
1651.5129800303
 21
80.585693355
 31
0.0
  0
LINE
  5
2E7
330
1F
100
AcDbEntity
  8
0
  6
Continuous
 62
     7
100
AcDbLine
 10
1651.0129800303
 20
75.085693355
 30
0.0
 11
1651.0129800303
 21
80.085693355
 31
0.0
  0
LINE
  5
2E8
330
1F
100
AcDbEntity
  8
0
  6
Continuous
 62
     7
100
AcDbLine
 10
1665.2129800303
 20
124.4529075457
 30
0.0
 11
1665.2129800303
 21
130.7184791643
 31
0.0
  0
LINE
  5
2E9
330
1F
100
AcDbEntity
  8
0
  6
Continuous
 62
     7
100
AcDbLine
 10
1651.5129800303
 20
124.585693355
 30
0.0
 11
1651.5129800303
 21
130.585693355
 31
0.0
  0
LINE
  5
2EA
330
1F
100
AcDbEntity
  8
0
  6
Continuous
 62
     7
100
AcDbLine
 10
1651.0129800303
 20
125.085693355
 30
0.0
 11
1651.0129800303
 21
130.085693355
 31
0.0
  0
LINE
  5
2EB
330
1F
100
AcDbEntity
  8
0
  6
Continuous
 62
     7
100
AcDbLine
 10
1658.7129800303
 20
73.085693355
 30
0.0
 11
1660.2129800303
 21
73.085693355
 31
0.0
  0
LINE
  5
2EC
330
1F
100
AcDbEntity
  8
0
  6
Continuous
 62
     7
100
AcDbLine
 10
1658.7129800303
 20
110.085693355
 30
0.0
 11
1660.2129800303
 21
110.085693355
 31
0.0
  0
LINE
  5
2ED
330
1F
100
AcDbEntity
  8
0
  6
Continuous
 62
     7
100
AcDbLine
 10
1660.2129800303
 20
110.085693355
 30
0.0
 11
1660.2129800303
 21
73.085693355
 31
0.0
  0
LINE
  5
2EE
330
1F
100
AcDbEntity
  8
0
  6
Continuous
 62
     7
100
AcDbLine
 10
1658.7129800303
 20
110.085693355
 30
0.0
 11
1658.7129800303
 21
73.085693355
 31
0.0
  0
LINE
  5
2EF
330
1F
100
AcDbEntity
  8
0
  6
Continuous
 62
     7
100
AcDbLine
 10
1658.7129800303
 20
70.085693355
 30
0.0
 11
1660.2129800303
 21
70.085693355
 31
0.0
  0
LINE
  5
2F0
330
1F
100
AcDbEntity
  8
0
  6
Continuous
 62
     7
100
AcDbLine
 10
1660.2129800303
 20
73.085693355
 30
0.0
 11
1660.2129800303
 21
70.085693355
 31
0.0
  0
LINE
  5
2F1
330
1F
100
AcDbEntity
  8
0
  6
Continuous
 62
     7
100
AcDbLine
 10
1658.7129800303
 20
73.085693355
 30
0.0
 11
1658.7129800303
 21
70.085693355
 31
0.0
  0
LINE
  5
2F2
330
1F
100
AcDbEntity
  8
0
  6
Continuous
 62
     7
100
AcDbLine
 10
1658.7129800303
 20
132.085693355
 30
0.0
 11
1660.2129800303
 21
132.085693355
 31
0.0
  0
LINE
  5
2F3
330
1F
100
AcDbEntity
  8
0
  6
Continuous
 62
     7
100
AcDbLine
 10
1660.2129800303
 20
132.085693355
 30
0.0
 11
1660.2129800303
 21
110.085693355
 31
0.0
  0
LINE
  5
2F4
330
1F
100
AcDbEntity
  8
0
  6
Continuous
 62
     7
100
AcDbLine
 10
1658.7129800303
 20
132.085693355
 30
0.0
 11
1658.7129800303
 21
110.085693355
 31
0.0
  0
LINE
  5
2F5
330
1F
100
AcDbEntity
  8
0
  6
Continuous
 62
     7
100
AcDbLine
 10
1658.7129800303
 20
135.085693355
 30
0.0
 11
1660.2129800303
 21
135.085693355
 31
0.0
  0
LINE
  5
2F6
330
1F
100
AcDbEntity
  8
0
  6
Continuous
 62
     7
100
AcDbLine
 10
1660.2129800303
 20
135.085693355
 30
0.0
 11
1660.2129800303
 21
132.085693355
 31
0.0
  0
LINE
  5
2F7
330
1F
100
AcDbEntity
  8
0
  6
Continuous
 62
     7
100
AcDbLine
 10
1658.7129800303
 20
133.585693355
 30
0.0
 11
1658.7129800303
 21
132.085693355
 31
0.0
  0
LINE
  5
2F8
330
1F
100
AcDbEntity
  8
0
  6
Continuous
 62
     7
100
AcDbLine
 10
1657.2129800303
 20
227.2639010922
 30
0.0
 11
1658.7129800303
 21
227.2639010922
 31
0.0
  0
LINE
  5
2F9
330
1F
100
AcDbEntity
  8
0
  6
Continuous
 62
     7
100
AcDbLine
 10
1657.2129800303
 20
230.2639010922
 30
0.0
 11
1658.7129800303
 21
230.2639010922
 31
0.0
  0
LINE
  5
2FA
330
1F
100
AcDbEntity
  8
0
  6
Continuous
 62
     7
100
AcDbLine
 10
1657.2129800303
 20
230.2639010922
 30
0.0
 11
1657.2129800303
 21
227.2639010922
 31
0.0
  0
LINE
  5
2FB
330
1F
100
AcDbEntity
  8
0
  6
Continuous
 62
     7
100
AcDbLine
 10
1658.7129800303
 20
230.2639010922
 30
0.0
 11
1658.7129800303
 21
227.2639010922
 31
0.0
  0
LINE
  5
2FC
330
1F
100
AcDbEntity
  8
0
  6
Continuous
 62
     7
100
AcDbLine
 10
1657.2129800303
 20
170.585693355
 30
0.0
 11
1658.7129800303
 21
170.585693355
 31
0.0
  0
LINE
  5
2FD
330
1F
100
AcDbEntity
  8
0
  6
Continuous
 62
     7
100
AcDbLine
 10
1657.2129800303
 20
227.2639010922
 30
0.0
 11
1657.2129800303
 21
170.585693355
 31
0.0
  0
LINE
  5
2FE
330
1F
100
AcDbEntity
  8
0
  6
Continuous
 62
     7
100
AcDbLine
 10
1658.7129800303
 20
227.2639010922
 30
0.0
 11
1658.7129800303
 21
170.585693355
 31
0.0
  0
LINE
  5
2FF
330
1F
100
AcDbEntity
  8
0
  6
Continuous
 62
     7
100
AcDbLine
 10
1657.2129800303
 20
167.585693355
 30
0.0
 11
1658.7129800303
 21
167.585693355
 31
0.0
  0
LINE
  5
300
330
1F
100
AcDbEntity
  8
0
  6
Continuous
 62
     7
100
AcDbLine
 10
1657.2129800303
 20
170.585693355
 30
0.0
 11
1657.2129800303
 21
167.585693355
 31
0.0
  0
LINE
  5
301
330
1F
100
AcDbEntity
  8
0
  6
Continuous
 62
     7
100
AcDbLine
 10
1658.7129800303
 20
170.585693355
 30
0.0
 11
1658.7129800303
 21
167.585693355
 31
0.0
  0
LINE
  5
302
330
1F
100
AcDbEntity
  8
0
  6
Continuous
 62
     7
100
AcDbLine
 10
1657.2129800303
 20
164.585693355
 30
0.0
 11
1658.7129800303
 21
164.585693355
 31
0.0
  0
LINE
  5
303
330
1F
100
AcDbEntity
  8
0
  6
Continuous
 62
     7
100
AcDbLine
 10
1657.2129800303
 20
167.585693355
 30
0.0
 11
1657.2129800303
 21
164.585693355
 31
0.0
  0
LINE
  5
304
330
1F
100
AcDbEntity
  8
0
  6
Continuous
 62
     7
100
AcDbLine
 10
1658.7129800303
 20
167.585693355
 30
0.0
 11
1658.7129800303
 21
164.585693355
 31
0.0
  0
LINE
  5
305
330
1F
100
AcDbEntity
  8
0
  6
Continuous
 62
     7
100
AcDbLine
 10
1657.2129800303
 20
55.585693355
 30
0.0
 11
1658.7129800303
 21
55.585693355
 31
0.0
  0
LINE
  5
306
330
1F
100
AcDbEntity
  8
0
  6
Continuous
 62
     7
100
AcDbLine
 10
1657.2129800303
 20
164.585693355
 30
0.0
 11
1657.2129800303
 21
55.585693355
 31
0.0
  0
LINE
  5
307
330
1F
100
AcDbEntity
  8
0
  6
Continuous
 62
     7
100
AcDbLine
 10
1658.7129800303
 20
164.585693355
 30
0.0
 11
1658.7129800303
 21
133.585693355
 31
0.0
  0
LINE
  5
308
330
1F
100
AcDbEntity
  8
0
  6
Continuous
 62
     7
100
AcDbLine
 10
1658.7129800303
 20
70.085693355
 30
0.0
 11
1658.7129800303
 21
55.585693355
 31
0.0
  0
LINE
  5
309
330
1F
100
AcDbEntity
  8
0
  6
Continuous
 62
     7
100
AcDbLine
 10
1657.2129800303
 20
52.585693355
 30
0.0
 11
1658.7129800303
 21
52.585693355
 31
0.0
  0
LINE
  5
30A
330
1F
100
AcDbEntity
  8
0
  6
Continuous
 62
     7
100
AcDbLine
 10
1657.2129800303
 20
55.585693355
 30
0.0
 11
1657.2129800303
 21
52.585693355
 31
0.0
  0
LINE
  5
30B
330
1F
100
AcDbEntity
  8
0
  6
Continuous
 62
     7
100
AcDbLine
 10
1658.7129800303
 20
55.585693355
 30
0.0
 11
1658.7129800303
 21
52.585693355
 31
0.0
  0
LINE
  5
30C
330
1F
100
AcDbEntity
  8
0
  6
Continuous
 62
     7
100
AcDbLine
 10
1663.0529726393
 20
71.685693355
 30
0.0
 11
1663.0529726393
 21
83.485693355
 31
0.0
  0
LINE
  5
30D
330
1F
100
AcDbEntity
  8
0
  6
Continuous
 62
     7
100
AcDbLine
 10
1664.3833437656
 20
72.4927917267
 30
0.0
 11
1664.3833437656
 21
82.6785949833
 31
0.0
  0
LINE
  5
30E
330
1F
100
AcDbEntity
  8
0
  6
Continuous
 62
     7
100
AcDbLine
 10
1665.0433511566
 20
73.7600059174
 30
0.0
 11
1665.0433511566
 21
81.4113807926
 31
0.0
  0
LINE
  5
30F
330
1F
100
AcDbEntity
  8
0
  6
Continuous
 62
     7
100
AcDbLine
 10
1663.0529726393
 20
121.685693355
 30
0.0
 11
1663.0529726393
 21
133.485693355
 31
0.0
  0
LINE
  5
310
330
1F
100
AcDbEntity
  8
0
  6
Continuous
 62
     7
100
AcDbLine
 10
1664.3833437656
 20
122.4927917267
 30
0.0
 11
1664.3833437656
 21
132.6785949833
 31
0.0
  0
LINE
  5
311
330
1F
100
AcDbEntity
  8
0
  6
Continuous
 62
     7
100
AcDbLine
 10
1665.0433511566
 20
123.7600059174
 30
0.0
 11
1665.0433511566
 21
131.4113807926
 31
0.0
  0
CIRCLE
  5
312
330
1F
100
AcDbEntity
  8
0
  6
Continuous
 62
     7
100
AcDbCircle
 10
2563.7675358726
 20
77.585693355
 30
0.0
 40
3.0
  0
CIRCLE
  5
313
330
1F
100
AcDbEntity
  8
0
  6
Continuous
 62
     7
100
AcDbCircle
 10
2563.7675358726
 20
77.585693355
 30
0.0
 40
2.5
  0
CIRCLE
  5
314
330
1F
100
AcDbEntity
  8
0
  6
Continuous
 62
     7
100
AcDbCircle
 10
1787.2675358726
 20
127.585693355
 30
0.0
 40
2.999999999999773
  0
CIRCLE
  5
315
330
1F
100
AcDbEntity
  8
0
  6
Continuous
 62
     7
100
AcDbCircle
 10
1787.2675358726
 20
127.585693355
 30
0.0
 40
2.5
  0
CIRCLE
  5
316
330
1F
100
AcDbEntity
  8
0
  6
Continuous
 62
     7
100
AcDbCircle
 10
2563.7675358726
 20
127.585693355
 30
0.0
 40
2.999999999999545
  0
CIRCLE
  5
317
330
1F
100
AcDbEntity
  8
0
  6
Continuous
 62
     7
100
AcDbCircle
 10
2563.7675358726
 20
127.585693355
 30
0.0
 40
2.5
  0
CIRCLE
  5
318
330
1F
100
AcDbEntity
  8
0
  6
Continuous
 62
     7
100
AcDbCircle
 10
1787.2675358726
 20
77.585693355
 30
0.0
 40
2.999999999999773
  0
CIRCLE
  5
319
330
1F
100
AcDbEntity
  8
0
  6
Continuous
 62
     7
100
AcDbCircle
 10
1787.2675358726
 20
77.585693355
 30
0.0
 40
2.5
  0
LINE
  5
31A
330
1F
100
AcDbEntity
  8
0
  6
Continuous
 62
     7
100
AcDbLine
 10
2581.2675358726
 20
103.085693355
 30
0.0
 11
2583.7675358726
 21
103.085693355
 31
0.0
  0
LINE
  5
31B
330
1F
100
AcDbEntity
  8
0
  6
Continuous
 62
     7
100
AcDbLine
 10
2583.7675358726
 20
110.085693355
 30
0.0
 11
2583.7675358726
 21
103.085693355
 31
0.0
  0
LINE
  5
31C
330
1F
100
AcDbEntity
  8
0
  6
Continuous
 62
     7
100
AcDbLine
 10
2583.7675358726
 20
110.085693355
 30
0.0
 11
2588.7675358726
 21
110.085693355
 31
0.0
  0
LINE
  5
31D
330
1F
100
AcDbEntity
  8
0
  6
Continuous
 62
     7
100
AcDbLine
 10
2588.7675358726
 20
110.085693355
 30
0.0
 11
2588.7675358726
 21
73.085693355
 31
0.0
  0
LINE
  5
31E
330
1F
100
AcDbEntity
  8
0
  6
Continuous
 62
     7
100
AcDbLine
 10
2588.7675358726
 20
73.085693355
 30
0.0
 11
2585.7675358726
 21
70.085693355
 31
0.0
  0
LINE
  5
31F
330
1F
100
AcDbEntity
  8
0
  6
Continuous
 62
     7
100
AcDbLine
 10
2585.7675358726
 20
70.085693355
 30
0.0
 11
2579.7675358726
 21
70.085693355
 31
0.0
  0
LINE
  5
320
330
1F
100
AcDbEntity
  8
0
  6
Continuous
 62
     7
100
AcDbLine
 10
2579.7675358726
 20
133.585693355
 30
0.0
 11
2581.2675358726
 21
132.085693355
 31
0.0
  0
LINE
  5
321
330
1F
100
AcDbEntity
  8
0
  6
Continuous
 62
     7
100
AcDbLine
 10
2581.2675358726
 20
132.085693355
 30
0.0
 11
2581.2675358726
 21
103.085693355
 31
0.0
  0
LINE
  5
322
330
1F
100
AcDbEntity
  8
0
  6
Continuous
 62
     7
100
AcDbLine
 10
1771.2675358726
 20
133.585693355
 30
0.0
 11
1769.7675358726
 21
132.085693355
 31
0.0
  0
LINE
  5
323
330
1F
100
AcDbEntity
  8
0
  6
Continuous
 62
     7
100
AcDbLine
 10
1765.2675358726
 20
70.085693355
 30
0.0
 11
1771.2675358726
 21
70.085693355
 31
0.0
  0
LINE
  5
324
330
1F
100
AcDbEntity
  8
0
  6
Continuous
 62
     7
100
AcDbLine
 10
1762.2675358726
 20
73.085693355
 30
0.0
 11
1765.2675358726
 21
70.085693355
 31
0.0
  0
LINE
  5
325
330
1F
100
AcDbEntity
  8
0
  6
Continuous
 62
     7
100
AcDbLine
 10
1762.2675358726
 20
110.085693355
 30
0.0
 11
1762.2675358726
 21
73.085693355
 31
0.0
  0
LINE
  5
326
330
1F
100
AcDbEntity
  8
0
  6
Continuous
 62
     7
100
AcDbLine
 10
1762.2675358726
 20
110.085693355
 30
0.0
 11
1767.2675358726
 21
110.085693355
 31
0.0
  0
LINE
  5
327
330
1F
100
AcDbEntity
  8
0
  6
Continuous
 62
     7
100
AcDbLine
 10
1767.2675358726
 20
110.085693355
 30
0.0
 11
1767.2675358726
 21
103.085693355
 31
0.0
  0
LINE
  5
328
330
1F
100
AcDbEntity
  8
0
  6
Continuous
 62
     7
100
AcDbLine
 10
1769.7675358726
 20
103.085693355
 30
0.0
 11
1767.2675358726
 21
103.085693355
 31
0.0
  0
LINE
  5
329
330
1F
100
AcDbEntity
  8
0
  6
Continuous
 62
     7
100
AcDbLine
 10
1769.7675358726
 20
132.085693355
 30
0.0
 11
1769.7675358726
 21
103.085693355
 31
0.0
  0
CIRCLE
  5
32A
330
1F
100
AcDbEntity
  8
0
  6
Continuous
 62
     7
100
AcDbCircle
 10
2275.5175358726
 20
180.585693355
 30
0.0
 40
2.599999999999994
  0
CIRCLE
  5
32B
330
1F
100
AcDbEntity
  8
0
  6
Continuous
 62
     7
100
AcDbCircle
 10
2375.5175358726
 20
180.585693355
 30
0.0
 40
2.599999999999994
  0
CIRCLE
  5
32C
330
1F
100
AcDbEntity
  8
0
  6
Continuous
 62
     7
100
AcDbCircle
 10
2475.5175358726
 20
180.585693355
 30
0.0
 40
2.599999999999994
  0
CIRCLE
  5
32D
330
1F
100
AcDbEntity
  8
0
  6
Continuous
 62
     7
100
AcDbCircle
 10
2575.5175358726
 20
180.585693355
 30
0.0
 40
2.599999999999994
  0
CIRCLE
  5
32E
330
1F
100
AcDbEntity
  8
0
  6
Continuous
 62
     7
100
AcDbCircle
 10
2225.5175358726
 20
180.585693355
 30
0.0
 40
3.25
  0
CIRCLE
  5
32F
330
1F
100
AcDbEntity
  8
0
  6
Continuous
 62
     7
100
AcDbCircle
 10
2325.5175358726
 20
180.585693355
 30
0.0
 40
3.25
  0
CIRCLE
  5
330
330
1F
100
AcDbEntity
  8
0
  6
Continuous
 62
     7
100
AcDbCircle
 10
2425.5175358726
 20
180.585693355
 30
0.0
 40
3.249999999999972
  0
CIRCLE
  5
331
330
1F
100
AcDbEntity
  8
0
  6
Continuous
 62
     7
100
AcDbCircle
 10
2525.5175358726
 20
180.585693355
 30
0.0
 40
3.25
  0
CIRCLE
  5
332
330
1F
100
AcDbEntity
  8
0
  6
Continuous
 62
     7
100
AcDbCircle
 10
2175.5175358726
 20
180.585693355
 30
0.0
 40
2.599999999999994
  0
CIRCLE
  5
333
330
1F
100
AcDbEntity
  8
0
  6
Continuous
 62
     7
100
AcDbCircle
 10
2075.5175358726
 20
180.585693355
 30
0.0
 40
2.599999999999966
  0
CIRCLE
  5
334
330
1F
100
AcDbEntity
  8
0
  6
Continuous
 62
     7
100
AcDbCircle
 10
1975.5175358726
 20
180.585693355
 30
0.0
 40
2.599999999999994
  0
CIRCLE
  5
335
330
1F
100
AcDbEntity
  8
0
  6
Continuous
 62
     7
100
AcDbCircle
 10
1875.5175358726
 20
180.585693355
 30
0.0
 40
2.599999999999994
  0
CIRCLE
  5
336
330
1F
100
AcDbEntity
  8
0
  6
Continuous
 62
     7
100
AcDbCircle
 10
1775.5175358726
 20
180.585693355
 30
0.0
 40
2.599999999999994
  0
LINE
  5
337
330
1F
100
AcDbEntity
  8
0
  6
Continuous
 62
     7
100
AcDbLine
 10
2553.0175358726
 20
200.085693355
 30
0.0
 11
2553.0175358726
 21
202.7639010922
 31
0.0
  0
LINE
  5
338
330
1F
100
AcDbEntity
  8
0
  6
Continuous
 62
     7
100
AcDbLine
 10
2598.0175358726
 20
200.085693355
 30
0.0
 11
2553.0175358726
 21
200.085693355
 31
0.0
  0
LINE
  5
339
330
1F
100
AcDbEntity
  8
0
  6
Continuous
 62
     7
100
AcDbLine
 10
2598.0175358726
 20
202.7639010922
 30
0.0
 11
2598.0175358726
 21
200.085693355
 31
0.0
  0
LINE
  5
33A
330
1F
100
AcDbEntity
  8
0
  6
Continuous
 62
     7
100
AcDbLine
 10
2553.0175358726
 20
202.7639010922
 30
0.0
 11
2598.0175358726
 21
202.7639010922
 31
0.0
  0
LINE
  5
33B
330
1F
100
AcDbEntity
  8
0
  6
Continuous
 62
     7
100
AcDbLine
 10
2503.0175358726
 20
200.085693355
 30
0.0
 11
2503.0175358726
 21
202.7639010922
 31
0.0
  0
LINE
  5
33C
330
1F
100
AcDbEntity
  8
0
  6
Continuous
 62
     7
100
AcDbLine
 10
2548.0175358726
 20
200.085693355
 30
0.0
 11
2503.0175358726
 21
200.085693355
 31
0.0
  0
LINE
  5
33D
330
1F
100
AcDbEntity
  8
0
  6
Continuous
 62
     7
100
AcDbLine
 10
2548.0175358726
 20
202.7639010922
 30
0.0
 11
2548.0175358726
 21
200.085693355
 31
0.0
  0
LINE
  5
33E
330
1F
100
AcDbEntity
  8
0
  6
Continuous
 62
     7
100
AcDbLine
 10
2503.0175358726
 20
202.7639010922
 30
0.0
 11
2548.0175358726
 21
202.7639010922
 31
0.0
  0
LINE
  5
33F
330
1F
100
AcDbEntity
  8
0
  6
Continuous
 62
     7
100
AcDbLine
 10
2453.0175358726
 20
200.085693355
 30
0.0
 11
2453.0175358726
 21
202.7639010922
 31
0.0
  0
LINE
  5
340
330
1F
100
AcDbEntity
  8
0
  6
Continuous
 62
     7
100
AcDbLine
 10
2498.0175358726
 20
200.085693355
 30
0.0
 11
2453.0175358726
 21
200.085693355
 31
0.0
  0
LINE
  5
341
330
1F
100
AcDbEntity
  8
0
  6
Continuous
 62
     7
100
AcDbLine
 10
2498.0175358726
 20
202.7639010922
 30
0.0
 11
2498.0175358726
 21
200.085693355
 31
0.0
  0
LINE
  5
342
330
1F
100
AcDbEntity
  8
0
  6
Continuous
 62
     7
100
AcDbLine
 10
2453.0175358726
 20
202.7639010922
 30
0.0
 11
2498.0175358726
 21
202.7639010922
 31
0.0
  0
LINE
  5
343
330
1F
100
AcDbEntity
  8
0
  6
Continuous
 62
     7
100
AcDbLine
 10
2403.0175358726
 20
200.085693355
 30
0.0
 11
2403.0175358726
 21
202.7639010922
 31
0.0
  0
LINE
  5
344
330
1F
100
AcDbEntity
  8
0
  6
Continuous
 62
     7
100
AcDbLine
 10
2448.0175358726
 20
200.085693355
 30
0.0
 11
2403.0175358726
 21
200.085693355
 31
0.0
  0
LINE
  5
345
330
1F
100
AcDbEntity
  8
0
  6
Continuous
 62
     7
100
AcDbLine
 10
2448.0175358726
 20
202.7639010922
 30
0.0
 11
2448.0175358726
 21
200.085693355
 31
0.0
  0
LINE
  5
346
330
1F
100
AcDbEntity
  8
0
  6
Continuous
 62
     7
100
AcDbLine
 10
2403.0175358726
 20
202.7639010922
 30
0.0
 11
2448.0175358726
 21
202.7639010922
 31
0.0
  0
LINE
  5
347
330
1F
100
AcDbEntity
  8
0
  6
Continuous
 62
     7
100
AcDbLine
 10
2353.0175358726
 20
200.085693355
 30
0.0
 11
2353.0175358726
 21
202.7639010922
 31
0.0
  0
LINE
  5
348
330
1F
100
AcDbEntity
  8
0
  6
Continuous
 62
     7
100
AcDbLine
 10
2398.0175358726
 20
200.085693355
 30
0.0
 11
2353.0175358726
 21
200.085693355
 31
0.0
  0
LINE
  5
349
330
1F
100
AcDbEntity
  8
0
  6
Continuous
 62
     7
100
AcDbLine
 10
2398.0175358726
 20
202.7639010922
 30
0.0
 11
2398.0175358726
 21
200.085693355
 31
0.0
  0
LINE
  5
34A
330
1F
100
AcDbEntity
  8
0
  6
Continuous
 62
     7
100
AcDbLine
 10
2353.0175358726
 20
202.7639010922
 30
0.0
 11
2398.0175358726
 21
202.7639010922
 31
0.0
  0
LINE
  5
34B
330
1F
100
AcDbEntity
  8
0
  6
Continuous
 62
     7
100
AcDbLine
 10
2303.0175358726
 20
200.085693355
 30
0.0
 11
2303.0175358726
 21
202.7639010922
 31
0.0
  0
LINE
  5
34C
330
1F
100
AcDbEntity
  8
0
  6
Continuous
 62
     7
100
AcDbLine
 10
2348.0175358726
 20
200.085693355
 30
0.0
 11
2303.0175358726
 21
200.085693355
 31
0.0
  0
LINE
  5
34D
330
1F
100
AcDbEntity
  8
0
  6
Continuous
 62
     7
100
AcDbLine
 10
2348.0175358726
 20
202.7639010922
 30
0.0
 11
2348.0175358726
 21
200.085693355
 31
0.0
  0
LINE
  5
34E
330
1F
100
AcDbEntity
  8
0
  6
Continuous
 62
     7
100
AcDbLine
 10
2303.0175358726
 20
202.7639010922
 30
0.0
 11
2348.0175358726
 21
202.7639010922
 31
0.0
  0
LINE
  5
34F
330
1F
100
AcDbEntity
  8
0
  6
Continuous
 62
     7
100
AcDbLine
 10
2253.0175358726
 20
200.085693355
 30
0.0
 11
2253.0175358726
 21
202.7639010922
 31
0.0
  0
LINE
  5
350
330
1F
100
AcDbEntity
  8
0
  6
Continuous
 62
     7
100
AcDbLine
 10
2298.0175358726
 20
200.085693355
 30
0.0
 11
2253.0175358726
 21
200.085693355
 31
0.0
  0
LINE
  5
351
330
1F
100
AcDbEntity
  8
0
  6
Continuous
 62
     7
100
AcDbLine
 10
2298.0175358726
 20
202.7639010922
 30
0.0
 11
2298.0175358726
 21
200.085693355
 31
0.0
  0
LINE
  5
352
330
1F
100
AcDbEntity
  8
0
  6
Continuous
 62
     7
100
AcDbLine
 10
2253.0175358726
 20
202.7639010922
 30
0.0
 11
2298.0175358726
 21
202.7639010922
 31
0.0
  0
LINE
  5
353
330
1F
100
AcDbEntity
  8
0
  6
Continuous
 62
     7
100
AcDbLine
 10
2203.0175358726
 20
200.085693355
 30
0.0
 11
2203.0175358726
 21
202.7639010922
 31
0.0
  0
LINE
  5
354
330
1F
100
AcDbEntity
  8
0
  6
Continuous
 62
     7
100
AcDbLine
 10
2248.0175358726
 20
200.085693355
 30
0.0
 11
2203.0175358726
 21
200.085693355
 31
0.0
  0
LINE
  5
355
330
1F
100
AcDbEntity
  8
0
  6
Continuous
 62
     7
100
AcDbLine
 10
2248.0175358726
 20
202.7639010922
 30
0.0
 11
2248.0175358726
 21
200.085693355
 31
0.0
  0
LINE
  5
356
330
1F
100
AcDbEntity
  8
0
  6
Continuous
 62
     7
100
AcDbLine
 10
2203.0175358726
 20
202.7639010922
 30
0.0
 11
2248.0175358726
 21
202.7639010922
 31
0.0
  0
LINE
  5
357
330
1F
100
AcDbEntity
  8
0
  6
Continuous
 62
     7
100
AcDbLine
 10
2153.0175358726
 20
200.085693355
 30
0.0
 11
2153.0175358726
 21
202.7639010922
 31
0.0
  0
LINE
  5
358
330
1F
100
AcDbEntity
  8
0
  6
Continuous
 62
     7
100
AcDbLine
 10
2198.0175358726
 20
200.085693355
 30
0.0
 11
2153.0175358726
 21
200.085693355
 31
0.0
  0
LINE
  5
359
330
1F
100
AcDbEntity
  8
0
  6
Continuous
 62
     7
100
AcDbLine
 10
2198.0175358726
 20
202.7639010922
 30
0.0
 11
2198.0175358726
 21
200.085693355
 31
0.0
  0
LINE
  5
35A
330
1F
100
AcDbEntity
  8
0
  6
Continuous
 62
     7
100
AcDbLine
 10
2153.0175358726
 20
202.7639010922
 30
0.0
 11
2198.0175358726
 21
202.7639010922
 31
0.0
  0
LINE
  5
35B
330
1F
100
AcDbEntity
  8
0
  6
Continuous
 62
     7
100
AcDbLine
 10
2103.0175358726
 20
200.085693355
 30
0.0
 11
2103.0175358726
 21
202.7639010922
 31
0.0
  0
LINE
  5
35C
330
1F
100
AcDbEntity
  8
0
  6
Continuous
 62
     7
100
AcDbLine
 10
2148.0175358726
 20
200.085693355
 30
0.0
 11
2103.0175358726
 21
200.085693355
 31
0.0
  0
LINE
  5
35D
330
1F
100
AcDbEntity
  8
0
  6
Continuous
 62
     7
100
AcDbLine
 10
2148.0175358726
 20
202.7639010922
 30
0.0
 11
2148.0175358726
 21
200.085693355
 31
0.0
  0
LINE
  5
35E
330
1F
100
AcDbEntity
  8
0
  6
Continuous
 62
     7
100
AcDbLine
 10
2103.0175358726
 20
202.7639010922
 30
0.0
 11
2148.0175358726
 21
202.7639010922
 31
0.0
  0
LINE
  5
35F
330
1F
100
AcDbEntity
  8
0
  6
Continuous
 62
     7
100
AcDbLine
 10
2053.0175358726
 20
200.085693355
 30
0.0
 11
2053.0175358726
 21
202.7639010922
 31
0.0
  0
LINE
  5
360
330
1F
100
AcDbEntity
  8
0
  6
Continuous
 62
     7
100
AcDbLine
 10
2098.0175358726
 20
200.085693355
 30
0.0
 11
2053.0175358726
 21
200.085693355
 31
0.0
  0
LINE
  5
361
330
1F
100
AcDbEntity
  8
0
  6
Continuous
 62
     7
100
AcDbLine
 10
2098.0175358726
 20
202.7639010922
 30
0.0
 11
2098.0175358726
 21
200.085693355
 31
0.0
  0
LINE
  5
362
330
1F
100
AcDbEntity
  8
0
  6
Continuous
 62
     7
100
AcDbLine
 10
2053.0175358726
 20
202.7639010922
 30
0.0
 11
2098.0175358726
 21
202.7639010922
 31
0.0
  0
LINE
  5
363
330
1F
100
AcDbEntity
  8
0
  6
Continuous
 62
     7
100
AcDbLine
 10
2003.0175358726
 20
200.085693355
 30
0.0
 11
2003.0175358726
 21
202.7639010922
 31
0.0
  0
LINE
  5
364
330
1F
100
AcDbEntity
  8
0
  6
Continuous
 62
     7
100
AcDbLine
 10
2048.0175358726
 20
200.085693355
 30
0.0
 11
2003.0175358726
 21
200.085693355
 31
0.0
  0
LINE
  5
365
330
1F
100
AcDbEntity
  8
0
  6
Continuous
 62
     7
100
AcDbLine
 10
2048.0175358726
 20
202.7639010922
 30
0.0
 11
2048.0175358726
 21
200.085693355
 31
0.0
  0
LINE
  5
366
330
1F
100
AcDbEntity
  8
0
  6
Continuous
 62
     7
100
AcDbLine
 10
2003.0175358726
 20
202.7639010922
 30
0.0
 11
2048.0175358726
 21
202.7639010922
 31
0.0
  0
LINE
  5
367
330
1F
100
AcDbEntity
  8
0
  6
Continuous
 62
     7
100
AcDbLine
 10
1953.0175358726
 20
200.085693355
 30
0.0
 11
1953.0175358726
 21
202.7639010922
 31
0.0
  0
LINE
  5
368
330
1F
100
AcDbEntity
  8
0
  6
Continuous
 62
     7
100
AcDbLine
 10
1998.0175358726
 20
200.085693355
 30
0.0
 11
1953.0175358726
 21
200.085693355
 31
0.0
  0
LINE
  5
369
330
1F
100
AcDbEntity
  8
0
  6
Continuous
 62
     7
100
AcDbLine
 10
1998.0175358726
 20
202.7639010922
 30
0.0
 11
1998.0175358726
 21
200.085693355
 31
0.0
  0
LINE
  5
36A
330
1F
100
AcDbEntity
  8
0
  6
Continuous
 62
     7
100
AcDbLine
 10
1953.0175358726
 20
202.7639010922
 30
0.0
 11
1998.0175358726
 21
202.7639010922
 31
0.0
  0
LINE
  5
36B
330
1F
100
AcDbEntity
  8
0
  6
Continuous
 62
     7
100
AcDbLine
 10
1903.0175358726
 20
200.085693355
 30
0.0
 11
1903.0175358726
 21
202.7639010922
 31
0.0
  0
LINE
  5
36C
330
1F
100
AcDbEntity
  8
0
  6
Continuous
 62
     7
100
AcDbLine
 10
1948.0175358726
 20
200.085693355
 30
0.0
 11
1903.0175358726
 21
200.085693355
 31
0.0
  0
LINE
  5
36D
330
1F
100
AcDbEntity
  8
0
  6
Continuous
 62
     7
100
AcDbLine
 10
1948.0175358726
 20
202.7639010922
 30
0.0
 11
1948.0175358726
 21
200.085693355
 31
0.0
  0
LINE
  5
36E
330
1F
100
AcDbEntity
  8
0
  6
Continuous
 62
     7
100
AcDbLine
 10
1903.0175358726
 20
202.7639010922
 30
0.0
 11
1948.0175358726
 21
202.7639010922
 31
0.0
  0
LINE
  5
36F
330
1F
100
AcDbEntity
  8
0
  6
Continuous
 62
     7
100
AcDbLine
 10
1853.0175358726
 20
200.085693355
 30
0.0
 11
1853.0175358726
 21
202.7639010922
 31
0.0
  0
LINE
  5
370
330
1F
100
AcDbEntity
  8
0
  6
Continuous
 62
     7
100
AcDbLine
 10
1898.0175358726
 20
200.085693355
 30
0.0
 11
1853.0175358726
 21
200.085693355
 31
0.0
  0
LINE
  5
371
330
1F
100
AcDbEntity
  8
0
  6
Continuous
 62
     7
100
AcDbLine
 10
1898.0175358726
 20
202.7639010922
 30
0.0
 11
1898.0175358726
 21
200.085693355
 31
0.0
  0
LINE
  5
372
330
1F
100
AcDbEntity
  8
0
  6
Continuous
 62
     7
100
AcDbLine
 10
1853.0175358726
 20
202.7639010922
 30
0.0
 11
1898.0175358726
 21
202.7639010922
 31
0.0
  0
LINE
  5
373
330
1F
100
AcDbEntity
  8
0
  6
Continuous
 62
     7
100
AcDbLine
 10
2515.0175358726
 20
159.585693355
 30
0.0
 11
2536.0175358726
 21
159.585693355
 31
0.0
  0
ARC
  5
374
330
1F
100
AcDbEntity
  8
0
  6
Continuous
 62
     7
100
AcDbCircle
 10
2515.0175358726
 20
155.585693355
 30
0.0
 40
4.000000000000028
100
AcDbArc
 50
90.0
 51
270.0
  0
LINE
  5
375
330
1F
100
AcDbEntity
  8
0
  6
Continuous
 62
     7
100
AcDbLine
 10
2536.0175358726
 20
151.585693355
 30
0.0
 11
2515.0175358726
 21
151.585693355
 31
0.0
  0
ARC
  5
376
330
1F
100
AcDbEntity
  8
0
  6
Continuous
 62
     7
100
AcDbCircle
 10
2536.0175358726
 20
155.585693355
 30
0.0
 40
4.0
100
AcDbArc
 50
270.0
 51
90.0
  0
LINE
  5
377
330
1F
100
AcDbEntity
  8
0
  6
Continuous
 62
     7
100
AcDbLine
 10
2465.0175358726
 20
159.585693355
 30
0.0
 11
2486.0175358726
 21
159.585693355
 31
0.0
  0
ARC
  5
378
330
1F
100
AcDbEntity
  8
0
  6
Continuous
 62
     7
100
AcDbCircle
 10
2465.0175358726
 20
155.585693355
 30
0.0
 40
4.0
100
AcDbArc
 50
90.0
 51
270.0
  0
LINE
  5
379
330
1F
100
AcDbEntity
  8
0
  6
Continuous
 62
     7
100
AcDbLine
 10
2486.0175358726
 20
151.585693355
 30
0.0
 11
2465.0175358726
 21
151.585693355
 31
0.0
  0
ARC
  5
37A
330
1F
100
AcDbEntity
  8
0
  6
Continuous
 62
     7
100
AcDbCircle
 10
2486.0175358726
 20
155.585693355
 30
0.0
 40
4.0
100
AcDbArc
 50
270.0
 51
90.0
  0
LINE
  5
37B
330
1F
100
AcDbEntity
  8
0
  6
Continuous
 62
     7
100
AcDbLine
 10
2415.0175358726
 20
159.585693355
 30
0.0
 11
2436.0175358726
 21
159.585693355
 31
0.0
  0
ARC
  5
37C
330
1F
100
AcDbEntity
  8
0
  6
Continuous
 62
     7
100
AcDbCircle
 10
2415.0175358726
 20
155.585693355
 30
0.0
 40
4.0
100
AcDbArc
 50
90.0
 51
270.0
  0
LINE
  5
37D
330
1F
100
AcDbEntity
  8
0
  6
Continuous
 62
     7
100
AcDbLine
 10
2436.0175358726
 20
151.585693355
 30
0.0
 11
2415.0175358726
 21
151.585693355
 31
0.0
  0
ARC
  5
37E
330
1F
100
AcDbEntity
  8
0
  6
Continuous
 62
     7
100
AcDbCircle
 10
2436.0175358726
 20
155.585693355
 30
0.0
 40
4.0
100
AcDbArc
 50
270.0
 51
90.0
  0
LINE
  5
37F
330
1F
100
AcDbEntity
  8
0
  6
Continuous
 62
     7
100
AcDbLine
 10
2365.0175358726
 20
159.585693355
 30
0.0
 11
2386.0175358726
 21
159.585693355
 31
0.0
  0
ARC
  5
380
330
1F
100
AcDbEntity
  8
0
  6
Continuous
 62
     7
100
AcDbCircle
 10
2365.0175358726
 20
155.585693355
 30
0.0
 40
4.0
100
AcDbArc
 50
90.0
 51
270.0
  0
LINE
  5
381
330
1F
100
AcDbEntity
  8
0
  6
Continuous
 62
     7
100
AcDbLine
 10
2386.0175358726
 20
151.585693355
 30
0.0
 11
2365.0175358726
 21
151.585693355
 31
0.0
  0
ARC
  5
382
330
1F
100
AcDbEntity
  8
0
  6
Continuous
 62
     7
100
AcDbCircle
 10
2386.0175358726
 20
155.585693355
 30
0.0
 40
4.000000000000028
100
AcDbArc
 50
270.0
 51
90.0
  0
LINE
  5
383
330
1F
100
AcDbEntity
  8
0
  6
Continuous
 62
     7
100
AcDbLine
 10
2315.0175358726
 20
159.585693355
 30
0.0
 11
2336.0175358726
 21
159.585693355
 31
0.0
  0
ARC
  5
384
330
1F
100
AcDbEntity
  8
0
  6
Continuous
 62
     7
100
AcDbCircle
 10
2315.0175358726
 20
155.585693355
 30
0.0
 40
4.0
100
AcDbArc
 50
90.0
 51
270.0
  0
LINE
  5
385
330
1F
100
AcDbEntity
  8
0
  6
Continuous
 62
     7
100
AcDbLine
 10
2336.0175358726
 20
151.585693355
 30
0.0
 11
2315.0175358726
 21
151.585693355
 31
0.0
  0
ARC
  5
386
330
1F
100
AcDbEntity
  8
0
  6
Continuous
 62
     7
100
AcDbCircle
 10
2336.0175358726
 20
155.585693355
 30
0.0
 40
4.0
100
AcDbArc
 50
270.0
 51
90.0
  0
LINE
  5
387
330
1F
100
AcDbEntity
  8
0
  6
Continuous
 62
     7
100
AcDbLine
 10
2265.0175358726
 20
159.585693355
 30
0.0
 11
2286.0175358726
 21
159.585693355
 31
0.0
  0
ARC
  5
388
330
1F
100
AcDbEntity
  8
0
  6
Continuous
 62
     7
100
AcDbCircle
 10
2265.0175358726
 20
155.585693355
 30
0.0
 40
4.000000000000028
100
AcDbArc
 50
90.0
 51
270.0
  0
LINE
  5
389
330
1F
100
AcDbEntity
  8
0
  6
Continuous
 62
     7
100
AcDbLine
 10
2286.0175358726
 20
151.585693355
 30
0.0
 11
2265.0175358726
 21
151.585693355
 31
0.0
  0
ARC
  5
38A
330
1F
100
AcDbEntity
  8
0
  6
Continuous
 62
     7
100
AcDbCircle
 10
2286.0175358726
 20
155.585693355
 30
0.0
 40
4.000000000000028
100
AcDbArc
 50
270.0
 51
90.0
  0
LINE
  5
38B
330
1F
100
AcDbEntity
  8
0
  6
Continuous
 62
     7
100
AcDbLine
 10
2215.0175358726
 20
159.585693355
 30
0.0
 11
2236.0175358726
 21
159.585693355
 31
0.0
  0
ARC
  5
38C
330
1F
100
AcDbEntity
  8
0
  6
Continuous
 62
     7
100
AcDbCircle
 10
2215.0175358726
 20
155.585693355
 30
0.0
 40
4.0
100
AcDbArc
 50
90.0
 51
270.0
  0
LINE
  5
38D
330
1F
100
AcDbEntity
  8
0
  6
Continuous
 62
     7
100
AcDbLine
 10
2236.0175358726
 20
151.585693355
 30
0.0
 11
2215.0175358726
 21
151.585693355
 31
0.0
  0
ARC
  5
38E
330
1F
100
AcDbEntity
  8
0
  6
Continuous
 62
     7
100
AcDbCircle
 10
2236.0175358726
 20
155.585693355
 30
0.0
 40
4.0
100
AcDbArc
 50
270.0
 51
90.0
  0
LINE
  5
38F
330
1F
100
AcDbEntity
  8
0
  6
Continuous
 62
     7
100
AcDbLine
 10
2165.0175358726
 20
159.585693355
 30
0.0
 11
2186.0175358726
 21
159.585693355
 31
0.0
  0
ARC
  5
390
330
1F
100
AcDbEntity
  8
0
  6
Continuous
 62
     7
100
AcDbCircle
 10
2165.0175358726
 20
155.585693355
 30
0.0
 40
4.000000000000028
100
AcDbArc
 50
90.0
 51
270.0
  0
LINE
  5
391
330
1F
100
AcDbEntity
  8
0
  6
Continuous
 62
     7
100
AcDbLine
 10
2186.0175358726
 20
151.585693355
 30
0.0
 11
2165.0175358726
 21
151.585693355
 31
0.0
  0
ARC
  5
392
330
1F
100
AcDbEntity
  8
0
  6
Continuous
 62
     7
100
AcDbCircle
 10
2186.0175358726
 20
155.585693355
 30
0.0
 40
4.0
100
AcDbArc
 50
270.0
 51
90.0
  0
LINE
  5
393
330
1F
100
AcDbEntity
  8
0
  6
Continuous
 62
     7
100
AcDbLine
 10
2115.0175358726
 20
159.585693355
 30
0.0
 11
2136.0175358726
 21
159.585693355
 31
0.0
  0
ARC
  5
394
330
1F
100
AcDbEntity
  8
0
  6
Continuous
 62
     7
100
AcDbCircle
 10
2115.0175358726
 20
155.585693355
 30
0.0
 40
4.0
100
AcDbArc
 50
90.0
 51
270.0
  0
LINE
  5
395
330
1F
100
AcDbEntity
  8
0
  6
Continuous
 62
     7
100
AcDbLine
 10
2136.0175358726
 20
151.585693355
 30
0.0
 11
2115.0175358726
 21
151.585693355
 31
0.0
  0
ARC
  5
396
330
1F
100
AcDbEntity
  8
0
  6
Continuous
 62
     7
100
AcDbCircle
 10
2136.0175358726
 20
155.585693355
 30
0.0
 40
4.0
100
AcDbArc
 50
270.0
 51
90.0
  0
LINE
  5
397
330
1F
100
AcDbEntity
  8
0
  6
Continuous
 62
     7
100
AcDbLine
 10
2065.0175358726
 20
159.585693355
 30
0.0
 11
2086.0175358726
 21
159.585693355
 31
0.0
  0
ARC
  5
398
330
1F
100
AcDbEntity
  8
0
  6
Continuous
 62
     7
100
AcDbCircle
 10
2065.0175358726
 20
155.585693355
 30
0.0
 40
4.0
100
AcDbArc
 50
90.0
 51
270.0
  0
LINE
  5
399
330
1F
100
AcDbEntity
  8
0
  6
Continuous
 62
     7
100
AcDbLine
 10
2086.0175358726
 20
151.585693355
 30
0.0
 11
2065.0175358726
 21
151.585693355
 31
0.0
  0
ARC
  5
39A
330
1F
100
AcDbEntity
  8
0
  6
Continuous
 62
     7
100
AcDbCircle
 10
2086.0175358726
 20
155.585693355
 30
0.0
 40
4.0
100
AcDbArc
 50
270.0
 51
90.0
  0
LINE
  5
39B
330
1F
100
AcDbEntity
  8
0
  6
Continuous
 62
     7
100
AcDbLine
 10
2015.0175358726
 20
159.585693355
 30
0.0
 11
2036.0175358726
 21
159.585693355
 31
0.0
  0
ARC
  5
39C
330
1F
100
AcDbEntity
  8
0
  6
Continuous
 62
     7
100
AcDbCircle
 10
2015.0175358726
 20
155.585693355
 30
0.0
 40
4.0
100
AcDbArc
 50
90.0
 51
270.0
  0
LINE
  5
39D
330
1F
100
AcDbEntity
  8
0
  6
Continuous
 62
     7
100
AcDbLine
 10
2036.0175358726
 20
151.585693355
 30
0.0
 11
2015.0175358726
 21
151.585693355
 31
0.0
  0
ARC
  5
39E
330
1F
100
AcDbEntity
  8
0
  6
Continuous
 62
     7
100
AcDbCircle
 10
2036.0175358726
 20
155.585693355
 30
0.0
 40
4.000000000000028
100
AcDbArc
 50
270.0
 51
90.0
  0
LINE
  5
39F
330
1F
100
AcDbEntity
  8
0
  6
Continuous
 62
     7
100
AcDbLine
 10
1965.0175358726
 20
159.585693355
 30
0.0
 11
1986.0175358726
 21
159.585693355
 31
0.0
  0
ARC
  5
3A0
330
1F
100
AcDbEntity
  8
0
  6
Continuous
 62
     7
100
AcDbCircle
 10
1965.0175358726
 20
155.585693355
 30
0.0
 40
4.0
100
AcDbArc
 50
90.0
 51
270.0
  0
LINE
  5
3A1
330
1F
100
AcDbEntity
  8
0
  6
Continuous
 62
     7
100
AcDbLine
 10
1986.0175358726
 20
151.585693355
 30
0.0
 11
1965.0175358726
 21
151.585693355
 31
0.0
  0
ARC
  5
3A2
330
1F
100
AcDbEntity
  8
0
  6
Continuous
 62
     7
100
AcDbCircle
 10
1986.0175358726
 20
155.585693355
 30
0.0
 40
4.0
100
AcDbArc
 50
270.0
 51
90.0
  0
LINE
  5
3A3
330
1F
100
AcDbEntity
  8
0
  6
Continuous
 62
     7
100
AcDbLine
 10
1915.0175358726
 20
159.585693355
 30
0.0
 11
1936.0175358726
 21
159.585693355
 31
0.0
  0
ARC
  5
3A4
330
1F
100
AcDbEntity
  8
0
  6
Continuous
 62
     7
100
AcDbCircle
 10
1915.0175358726
 20
155.585693355
 30
0.0
 40
4.0
100
AcDbArc
 50
90.0
 51
270.0
  0
LINE
  5
3A5
330
1F
100
AcDbEntity
  8
0
  6
Continuous
 62
     7
100
AcDbLine
 10
1936.0175358726
 20
151.585693355
 30
0.0
 11
1915.0175358726
 21
151.585693355
 31
0.0
  0
ARC
  5
3A6
330
1F
100
AcDbEntity
  8
0
  6
Continuous
 62
     7
100
AcDbCircle
 10
1936.0175358726
 20
155.585693355
 30
0.0
 40
4.000000000000028
100
AcDbArc
 50
270.0
 51
90.0
  0
LINE
  5
3A7
330
1F
100
AcDbEntity
  8
0
  6
Continuous
 62
     7
100
AcDbLine
 10
1865.0175358726
 20
159.585693355
 30
0.0
 11
1886.0175358726
 21
159.585693355
 31
0.0
  0
ARC
  5
3A8
330
1F
100
AcDbEntity
  8
0
  6
Continuous
 62
     7
100
AcDbCircle
 10
1865.0175358726
 20
155.585693355
 30
0.0
 40
4.0
100
AcDbArc
 50
90.0
 51
270.0
  0
LINE
  5
3A9
330
1F
100
AcDbEntity
  8
0
  6
Continuous
 62
     7
100
AcDbLine
 10
1886.0175358726
 20
151.585693355
 30
0.0
 11
1865.0175358726
 21
151.585693355
 31
0.0
  0
ARC
  5
3AA
330
1F
100
AcDbEntity
  8
0
  6
Continuous
 62
     7
100
AcDbCircle
 10
1886.0175358726
 20
155.585693355
 30
0.0
 40
4.0
100
AcDbArc
 50
270.0
 51
90.0
  0
LINE
  5
3AB
330
1F
100
AcDbEntity
  8
0
  6
Continuous
 62
     7
100
AcDbLine
 10
1815.0175358726
 20
159.585693355
 30
0.0
 11
1836.0175358726
 21
159.585693355
 31
0.0
  0
ARC
  5
3AC
330
1F
100
AcDbEntity
  8
0
  6
Continuous
 62
     7
100
AcDbCircle
 10
1815.0175358726
 20
155.585693355
 30
0.0
 40
4.000000000000028
100
AcDbArc
 50
90.0
 51
270.0
  0
LINE
  5
3AD
330
1F
100
AcDbEntity
  8
0
  6
Continuous
 62
     7
100
AcDbLine
 10
1836.0175358726
 20
151.585693355
 30
0.0
 11
1815.0175358726
 21
151.585693355
 31
0.0
  0
ARC
  5
3AE
330
1F
100
AcDbEntity
  8
0
  6
Continuous
 62
     7
100
AcDbCircle
 10
1836.0175358726
 20
155.585693355
 30
0.0
 40
4.0
100
AcDbArc
 50
270.0
 51
90.0
  0
LINE
  5
3AF
330
1F
100
AcDbEntity
  8
0
  6
Continuous
 62
     7
100
AcDbLine
 10
2515.0175358726
 20
122.085693355
 30
0.0
 11
2536.0175358726
 21
122.085693355
 31
0.0
  0
ARC
  5
3B0
330
1F
100
AcDbEntity
  8
0
  6
Continuous
 62
     7
100
AcDbCircle
 10
2515.0175358726
 20
118.085693355
 30
0.0
 40
4.000000000000014
100
AcDbArc
 50
90.0
 51
270.0
  0
LINE
  5
3B1
330
1F
100
AcDbEntity
  8
0
  6
Continuous
 62
     7
100
AcDbLine
 10
2536.0175358726
 20
114.085693355
 30
0.0
 11
2515.0175358726
 21
114.085693355
 31
0.0
  0
ARC
  5
3B2
330
1F
100
AcDbEntity
  8
0
  6
Continuous
 62
     7
100
AcDbCircle
 10
2536.0175358726
 20
118.085693355
 30
0.0
 40
4.0
100
AcDbArc
 50
270.0
 51
90.0
  0
LINE
  5
3B3
330
1F
100
AcDbEntity
  8
0
  6
Continuous
 62
     7
100
AcDbLine
 10
2465.0175358726
 20
122.085693355
 30
0.0
 11
2486.0175358726
 21
122.085693355
 31
0.0
  0
ARC
  5
3B4
330
1F
100
AcDbEntity
  8
0
  6
Continuous
 62
     7
100
AcDbCircle
 10
2465.0175358726
 20
118.085693355
 30
0.0
 40
4.0
100
AcDbArc
 50
90.0
 51
270.0
  0
LINE
  5
3B5
330
1F
100
AcDbEntity
  8
0
  6
Continuous
 62
     7
100
AcDbLine
 10
2486.0175358726
 20
114.085693355
 30
0.0
 11
2465.0175358726
 21
114.085693355
 31
0.0
  0
ARC
  5
3B6
330
1F
100
AcDbEntity
  8
0
  6
Continuous
 62
     7
100
AcDbCircle
 10
2486.0175358726
 20
118.085693355
 30
0.0
 40
4.0
100
AcDbArc
 50
270.0
 51
90.0
  0
LINE
  5
3B7
330
1F
100
AcDbEntity
  8
0
  6
Continuous
 62
     7
100
AcDbLine
 10
2415.0175358726
 20
122.085693355
 30
0.0
 11
2436.0175358726
 21
122.085693355
 31
0.0
  0
ARC
  5
3B8
330
1F
100
AcDbEntity
  8
0
  6
Continuous
 62
     7
100
AcDbCircle
 10
2415.0175358726
 20
118.085693355
 30
0.0
 40
4.0
100
AcDbArc
 50
90.0
 51
270.0
  0
LINE
  5
3B9
330
1F
100
AcDbEntity
  8
0
  6
Continuous
 62
     7
100
AcDbLine
 10
2436.0175358726
 20
114.085693355
 30
0.0
 11
2415.0175358726
 21
114.085693355
 31
0.0
  0
ARC
  5
3BA
330
1F
100
AcDbEntity
  8
0
  6
Continuous
 62
     7
100
AcDbCircle
 10
2436.0175358726
 20
118.085693355
 30
0.0
 40
4.000000000000014
100
AcDbArc
 50
270.0
 51
90.0
  0
LINE
  5
3BB
330
1F
100
AcDbEntity
  8
0
  6
Continuous
 62
     7
100
AcDbLine
 10
2365.0175358726
 20
122.085693355
 30
0.0
 11
2386.0175358726
 21
122.085693355
 31
0.0
  0
ARC
  5
3BC
330
1F
100
AcDbEntity
  8
0
  6
Continuous
 62
     7
100
AcDbCircle
 10
2365.0175358726
 20
118.085693355
 30
0.0
 40
4.0
100
AcDbArc
 50
90.0
 51
270.0
  0
LINE
  5
3BD
330
1F
100
AcDbEntity
  8
0
  6
Continuous
 62
     7
100
AcDbLine
 10
2386.0175358726
 20
114.085693355
 30
0.0
 11
2365.0175358726
 21
114.085693355
 31
0.0
  0
ARC
  5
3BE
330
1F
100
AcDbEntity
  8
0
  6
Continuous
 62
     7
100
AcDbCircle
 10
2386.0175358726
 20
118.085693355
 30
0.0
 40
4.000000000000014
100
AcDbArc
 50
270.0
 51
90.0
  0
LINE
  5
3BF
330
1F
100
AcDbEntity
  8
0
  6
Continuous
 62
     7
100
AcDbLine
 10
2315.0175358726
 20
122.085693355
 30
0.0
 11
2336.0175358726
 21
122.085693355
 31
0.0
  0
ARC
  5
3C0
330
1F
100
AcDbEntity
  8
0
  6
Continuous
 62
     7
100
AcDbCircle
 10
2315.0175358726
 20
118.085693355
 30
0.0
 40
4.0
100
AcDbArc
 50
90.0
 51
270.0
  0
LINE
  5
3C1
330
1F
100
AcDbEntity
  8
0
  6
Continuous
 62
     7
100
AcDbLine
 10
2336.0175358726
 20
114.085693355
 30
0.0
 11
2315.0175358726
 21
114.085693355
 31
0.0
  0
ARC
  5
3C2
330
1F
100
AcDbEntity
  8
0
  6
Continuous
 62
     7
100
AcDbCircle
 10
2336.0175358726
 20
118.085693355
 30
0.0
 40
4.000000000000014
100
AcDbArc
 50
270.0
 51
90.0
  0
LINE
  5
3C3
330
1F
100
AcDbEntity
  8
0
  6
Continuous
 62
     7
100
AcDbLine
 10
2265.0175358726
 20
122.085693355
 30
0.0
 11
2286.0175358726
 21
122.085693355
 31
0.0
  0
ARC
  5
3C4
330
1F
100
AcDbEntity
  8
0
  6
Continuous
 62
     7
100
AcDbCircle
 10
2265.0175358726
 20
118.085693355
 30
0.0
 40
4.000000000000014
100
AcDbArc
 50
90.0
 51
270.0
  0
LINE
  5
3C5
330
1F
100
AcDbEntity
  8
0
  6
Continuous
 62
     7
100
AcDbLine
 10
2286.0175358726
 20
114.085693355
 30
0.0
 11
2265.0175358726
 21
114.085693355
 31
0.0
  0
ARC
  5
3C6
330
1F
100
AcDbEntity
  8
0
  6
Continuous
 62
     7
100
AcDbCircle
 10
2286.0175358726
 20
118.085693355
 30
0.0
 40
4.000000000000014
100
AcDbArc
 50
270.0
 51
90.0
  0
LINE
  5
3C7
330
1F
100
AcDbEntity
  8
0
  6
Continuous
 62
     7
100
AcDbLine
 10
2215.0175358726
 20
122.085693355
 30
0.0
 11
2236.0175358726
 21
122.085693355
 31
0.0
  0
ARC
  5
3C8
330
1F
100
AcDbEntity
  8
0
  6
Continuous
 62
     7
100
AcDbCircle
 10
2215.0175358726
 20
118.085693355
 30
0.0
 40
4.000000000000014
100
AcDbArc
 50
90.0
 51
270.0
  0
LINE
  5
3C9
330
1F
100
AcDbEntity
  8
0
  6
Continuous
 62
     7
100
AcDbLine
 10
2236.0175358726
 20
114.085693355
 30
0.0
 11
2215.0175358726
 21
114.085693355
 31
0.0
  0
ARC
  5
3CA
330
1F
100
AcDbEntity
  8
0
  6
Continuous
 62
     7
100
AcDbCircle
 10
2236.0175358726
 20
118.085693355
 30
0.0
 40
4.0
100
AcDbArc
 50
270.0
 51
90.0
  0
LINE
  5
3CB
330
1F
100
AcDbEntity
  8
0
  6
Continuous
 62
     7
100
AcDbLine
 10
2165.0175358726
 20
122.085693355
 30
0.0
 11
2186.0175358726
 21
122.085693355
 31
0.0
  0
ARC
  5
3CC
330
1F
100
AcDbEntity
  8
0
  6
Continuous
 62
     7
100
AcDbCircle
 10
2165.0175358726
 20
118.085693355
 30
0.0
 40
4.000000000000014
100
AcDbArc
 50
90.0
 51
270.0
  0
LINE
  5
3CD
330
1F
100
AcDbEntity
  8
0
  6
Continuous
 62
     7
100
AcDbLine
 10
2186.0175358726
 20
114.085693355
 30
0.0
 11
2165.0175358726
 21
114.085693355
 31
0.0
  0
ARC
  5
3CE
330
1F
100
AcDbEntity
  8
0
  6
Continuous
 62
     7
100
AcDbCircle
 10
2186.0175358726
 20
118.085693355
 30
0.0
 40
4.0
100
AcDbArc
 50
270.0
 51
90.0
  0
LINE
  5
3CF
330
1F
100
AcDbEntity
  8
0
  6
Continuous
 62
     7
100
AcDbLine
 10
2115.0175358726
 20
122.085693355
 30
0.0
 11
2136.0175358726
 21
122.085693355
 31
0.0
  0
ARC
  5
3D0
330
1F
100
AcDbEntity
  8
0
  6
Continuous
 62
     7
100
AcDbCircle
 10
2115.0175358726
 20
118.085693355
 30
0.0
 40
4.000000000000014
100
AcDbArc
 50
90.0
 51
270.0
  0
LINE
  5
3D1
330
1F
100
AcDbEntity
  8
0
  6
Continuous
 62
     7
100
AcDbLine
 10
2136.0175358726
 20
114.085693355
 30
0.0
 11
2115.0175358726
 21
114.085693355
 31
0.0
  0
ARC
  5
3D2
330
1F
100
AcDbEntity
  8
0
  6
Continuous
 62
     7
100
AcDbCircle
 10
2136.0175358726
 20
118.085693355
 30
0.0
 40
4.0
100
AcDbArc
 50
270.0
 51
90.0
  0
LINE
  5
3D3
330
1F
100
AcDbEntity
  8
0
  6
Continuous
 62
     7
100
AcDbLine
 10
2065.0175358726
 20
122.085693355
 30
0.0
 11
2086.0175358726
 21
122.085693355
 31
0.0
  0
ARC
  5
3D4
330
1F
100
AcDbEntity
  8
0
  6
Continuous
 62
     7
100
AcDbCircle
 10
2065.0175358726
 20
118.085693355
 30
0.0
 40
4.0
100
AcDbArc
 50
90.0
 51
270.0
  0
LINE
  5
3D5
330
1F
100
AcDbEntity
  8
0
  6
Continuous
 62
     7
100
AcDbLine
 10
2086.0175358726
 20
114.085693355
 30
0.0
 11
2065.0175358726
 21
114.085693355
 31
0.0
  0
ARC
  5
3D6
330
1F
100
AcDbEntity
  8
0
  6
Continuous
 62
     7
100
AcDbCircle
 10
2086.0175358726
 20
118.085693355
 30
0.0
 40
4.000000000000014
100
AcDbArc
 50
270.0
 51
90.0
  0
LINE
  5
3D7
330
1F
100
AcDbEntity
  8
0
  6
Continuous
 62
     7
100
AcDbLine
 10
2015.0175358726
 20
122.085693355
 30
0.0
 11
2036.0175358726
 21
122.085693355
 31
0.0
  0
ARC
  5
3D8
330
1F
100
AcDbEntity
  8
0
  6
Continuous
 62
     7
100
AcDbCircle
 10
2015.0175358726
 20
118.085693355
 30
0.0
 40
4.0
100
AcDbArc
 50
90.0
 51
270.0
  0
LINE
  5
3D9
330
1F
100
AcDbEntity
  8
0
  6
Continuous
 62
     7
100
AcDbLine
 10
2036.0175358726
 20
114.085693355
 30
0.0
 11
2015.0175358726
 21
114.085693355
 31
0.0
  0
ARC
  5
3DA
330
1F
100
AcDbEntity
  8
0
  6
Continuous
 62
     7
100
AcDbCircle
 10
2036.0175358726
 20
118.085693355
 30
0.0
 40
4.000000000000014
100
AcDbArc
 50
270.0
 51
90.0
  0
LINE
  5
3DB
330
1F
100
AcDbEntity
  8
0
  6
Continuous
 62
     7
100
AcDbLine
 10
1965.0175358726
 20
122.085693355
 30
0.0
 11
1986.0175358726
 21
122.085693355
 31
0.0
  0
ARC
  5
3DC
330
1F
100
AcDbEntity
  8
0
  6
Continuous
 62
     7
100
AcDbCircle
 10
1965.0175358726
 20
118.085693355
 30
0.0
 40
4.0
100
AcDbArc
 50
90.0
 51
270.0
  0
LINE
  5
3DD
330
1F
100
AcDbEntity
  8
0
  6
Continuous
 62
     7
100
AcDbLine
 10
1986.0175358726
 20
114.085693355
 30
0.0
 11
1965.0175358726
 21
114.085693355
 31
0.0
  0
ARC
  5
3DE
330
1F
100
AcDbEntity
  8
0
  6
Continuous
 62
     7
100
AcDbCircle
 10
1986.0175358726
 20
118.085693355
 30
0.0
 40
4.000000000000014
100
AcDbArc
 50
270.0
 51
90.0
  0
LINE
  5
3DF
330
1F
100
AcDbEntity
  8
0
  6
Continuous
 62
     7
100
AcDbLine
 10
1915.0175358726
 20
122.085693355
 30
0.0
 11
1936.0175358726
 21
122.085693355
 31
0.0
  0
ARC
  5
3E0
330
1F
100
AcDbEntity
  8
0
  6
Continuous
 62
     7
100
AcDbCircle
 10
1915.0175358726
 20
118.085693355
 30
0.0
 40
4.000000000000014
100
AcDbArc
 50
90.0
 51
270.0
  0
LINE
  5
3E1
330
1F
100
AcDbEntity
  8
0
  6
Continuous
 62
     7
100
AcDbLine
 10
1936.0175358726
 20
114.085693355
 30
0.0
 11
1915.0175358726
 21
114.085693355
 31
0.0
  0
ARC
  5
3E2
330
1F
100
AcDbEntity
  8
0
  6
Continuous
 62
     7
100
AcDbCircle
 10
1936.0175358726
 20
118.085693355
 30
0.0
 40
4.000000000000014
100
AcDbArc
 50
270.0
 51
90.0
  0
LINE
  5
3E3
330
1F
100
AcDbEntity
  8
0
  6
Continuous
 62
     7
100
AcDbLine
 10
1865.0175358726
 20
122.085693355
 30
0.0
 11
1886.0175358726
 21
122.085693355
 31
0.0
  0
ARC
  5
3E4
330
1F
100
AcDbEntity
  8
0
  6
Continuous
 62
     7
100
AcDbCircle
 10
1865.0175358726
 20
118.085693355
 30
0.0
 40
4.000000000000014
100
AcDbArc
 50
90.0
 51
270.0
  0
LINE
  5
3E5
330
1F
100
AcDbEntity
  8
0
  6
Continuous
 62
     7
100
AcDbLine
 10
1886.0175358726
 20
114.085693355
 30
0.0
 11
1865.0175358726
 21
114.085693355
 31
0.0
  0
ARC
  5
3E6
330
1F
100
AcDbEntity
  8
0
  6
Continuous
 62
     7
100
AcDbCircle
 10
1886.0175358726
 20
118.085693355
 30
0.0
 40
4.0
100
AcDbArc
 50
270.0
 51
90.0
  0
LINE
  5
3E7
330
1F
100
AcDbEntity
  8
0
  6
Continuous
 62
     7
100
AcDbLine
 10
1815.0175358726
 20
122.085693355
 30
0.0
 11
1836.0175358726
 21
122.085693355
 31
0.0
  0
ARC
  5
3E8
330
1F
100
AcDbEntity
  8
0
  6
Continuous
 62
     7
100
AcDbCircle
 10
1815.0175358726
 20
118.085693355
 30
0.0
 40
4.000000000000014
100
AcDbArc
 50
90.0
 51
270.0
  0
LINE
  5
3E9
330
1F
100
AcDbEntity
  8
0
  6
Continuous
 62
     7
100
AcDbLine
 10
1836.0175358726
 20
114.085693355
 30
0.0
 11
1815.0175358726
 21
114.085693355
 31
0.0
  0
ARC
  5
3EA
330
1F
100
AcDbEntity
  8
0
  6
Continuous
 62
     7
100
AcDbCircle
 10
1836.0175358726
 20
118.085693355
 30
0.0
 40
4.0
100
AcDbArc
 50
270.0
 51
90.0
  0
LINE
  5
3EB
330
1F
100
AcDbEntity
  8
0
  6
Continuous
 62
     7
100
AcDbLine
 10
2515.0175358726
 20
84.585693355
 30
0.0
 11
2536.0175358726
 21
84.585693355
 31
0.0
  0
ARC
  5
3EC
330
1F
100
AcDbEntity
  8
0
  6
Continuous
 62
     7
100
AcDbCircle
 10
2515.0175358726
 20
80.585693355
 30
0.0
 40
4.000000000000014
100
AcDbArc
 50
90.0
 51
270.0
  0
LINE
  5
3ED
330
1F
100
AcDbEntity
  8
0
  6
Continuous
 62
     7
100
AcDbLine
 10
2536.0175358726
 20
76.585693355
 30
0.0
 11
2515.0175358726
 21
76.585693355
 31
0.0
  0
ARC
  5
3EE
330
1F
100
AcDbEntity
  8
0
  6
Continuous
 62
     7
100
AcDbCircle
 10
2536.0175358726
 20
80.585693355
 30
0.0
 40
4.000000000000028
100
AcDbArc
 50
270.0
 51
90.0
  0
LINE
  5
3EF
330
1F
100
AcDbEntity
  8
0
  6
Continuous
 62
     7
100
AcDbLine
 10
2465.0175358726
 20
84.585693355
 30
0.0
 11
2486.0175358726
 21
84.585693355
 31
0.0
  0
ARC
  5
3F0
330
1F
100
AcDbEntity
  8
0
  6
Continuous
 62
     7
100
AcDbCircle
 10
2465.0175358726
 20
80.585693355
 30
0.0
 40
4.000000000000028
100
AcDbArc
 50
90.0
 51
270.0
  0
LINE
  5
3F1
330
1F
100
AcDbEntity
  8
0
  6
Continuous
 62
     7
100
AcDbLine
 10
2486.0175358726
 20
76.585693355
 30
0.0
 11
2465.0175358726
 21
76.585693355
 31
0.0
  0
ARC
  5
3F2
330
1F
100
AcDbEntity
  8
0
  6
Continuous
 62
     7
100
AcDbCircle
 10
2486.0175358726
 20
80.585693355
 30
0.0
 40
4.0
100
AcDbArc
 50
270.0
 51
90.0
  0
LINE
  5
3F3
330
1F
100
AcDbEntity
  8
0
  6
Continuous
 62
     7
100
AcDbLine
 10
2415.0175358726
 20
84.585693355
 30
0.0
 11
2436.0175358726
 21
84.585693355
 31
0.0
  0
ARC
  5
3F4
330
1F
100
AcDbEntity
  8
0
  6
Continuous
 62
     7
100
AcDbCircle
 10
2415.0175358726
 20
80.585693355
 30
0.0
 40
4.000000000000028
100
AcDbArc
 50
90.0
 51
270.0
  0
LINE
  5
3F5
330
1F
100
AcDbEntity
  8
0
  6
Continuous
 62
     7
100
AcDbLine
 10
2436.0175358726
 20
76.585693355
 30
0.0
 11
2415.0175358726
 21
76.585693355
 31
0.0
  0
ARC
  5
3F6
330
1F
100
AcDbEntity
  8
0
  6
Continuous
 62
     7
100
AcDbCircle
 10
2436.0175358726
 20
80.585693355
 30
0.0
 40
4.000000000000014
100
AcDbArc
 50
270.0
 51
90.0
  0
LINE
  5
3F7
330
1F
100
AcDbEntity
  8
0
  6
Continuous
 62
     7
100
AcDbLine
 10
2365.0175358726
 20
84.585693355
 30
0.0
 11
2386.0175358726
 21
84.585693355
 31
0.0
  0
ARC
  5
3F8
330
1F
100
AcDbEntity
  8
0
  6
Continuous
 62
     7
100
AcDbCircle
 10
2365.0175358726
 20
80.585693355
 30
0.0
 40
4.000000000000043
100
AcDbArc
 50
90.0
 51
270.0
  0
LINE
  5
3F9
330
1F
100
AcDbEntity
  8
0
  6
Continuous
 62
     7
100
AcDbLine
 10
2386.0175358726
 20
76.585693355
 30
0.0
 11
2365.0175358726
 21
76.585693355
 31
0.0
  0
ARC
  5
3FA
330
1F
100
AcDbEntity
  8
0
  6
Continuous
 62
     7
100
AcDbCircle
 10
2386.0175358726
 20
80.585693355
 30
0.0
 40
4.0
100
AcDbArc
 50
270.0
 51
90.0
  0
LINE
  5
3FB
330
1F
100
AcDbEntity
  8
0
  6
Continuous
 62
     7
100
AcDbLine
 10
2315.0175358726
 20
84.585693355
 30
0.0
 11
2336.0175358726
 21
84.585693355
 31
0.0
  0
ARC
  5
3FC
330
1F
100
AcDbEntity
  8
0
  6
Continuous
 62
     7
100
AcDbCircle
 10
2315.0175358726
 20
80.585693355
 30
0.0
 40
4.0
100
AcDbArc
 50
90.0
 51
270.0
  0
LINE
  5
3FD
330
1F
100
AcDbEntity
  8
0
  6
Continuous
 62
     7
100
AcDbLine
 10
2336.0175358726
 20
76.585693355
 30
0.0
 11
2315.0175358726
 21
76.585693355
 31
0.0
  0
ARC
  5
3FE
330
1F
100
AcDbEntity
  8
0
  6
Continuous
 62
     7
100
AcDbCircle
 10
2336.0175358726
 20
80.585693355
 30
0.0
 40
4.000000000000014
100
AcDbArc
 50
270.0
 51
90.0
  0
LINE
  5
3FF
330
1F
100
AcDbEntity
  8
0
  6
Continuous
 62
     7
100
AcDbLine
 10
2265.0175358726
 20
84.585693355
 30
0.0
 11
2286.0175358726
 21
84.585693355
 31
0.0
  0
ARC
  5
400
330
1F
100
AcDbEntity
  8
0
  6
Continuous
 62
     7
100
AcDbCircle
 10
2265.0175358726
 20
80.585693355
 30
0.0
 40
4.0
100
AcDbArc
 50
90.0
 51
270.0
  0
LINE
  5
401
330
1F
100
AcDbEntity
  8
0
  6
Continuous
 62
     7
100
AcDbLine
 10
2286.0175358726
 20
76.585693355
 30
0.0
 11
2265.0175358726
 21
76.585693355
 31
0.0
  0
ARC
  5
402
330
1F
100
AcDbEntity
  8
0
  6
Continuous
 62
     7
100
AcDbCircle
 10
2286.0175358726
 20
80.585693355
 30
0.0
 40
4.000000000000014
100
AcDbArc
 50
270.0
 51
90.0
  0
LINE
  5
403
330
1F
100
AcDbEntity
  8
0
  6
Continuous
 62
     7
100
AcDbLine
 10
2215.0175358726
 20
84.585693355
 30
0.0
 11
2236.0175358726
 21
84.585693355
 31
0.0
  0
ARC
  5
404
330
1F
100
AcDbEntity
  8
0
  6
Continuous
 62
     7
100
AcDbCircle
 10
2215.0175358726
 20
80.585693355
 30
0.0
 40
4.0
100
AcDbArc
 50
90.0
 51
270.0
  0
LINE
  5
405
330
1F
100
AcDbEntity
  8
0
  6
Continuous
 62
     7
100
AcDbLine
 10
2236.0175358726
 20
76.585693355
 30
0.0
 11
2215.0175358726
 21
76.585693355
 31
0.0
  0
ARC
  5
406
330
1F
100
AcDbEntity
  8
0
  6
Continuous
 62
     7
100
AcDbCircle
 10
2236.0175358726
 20
80.585693355
 30
0.0
 40
4.000000000000014
100
AcDbArc
 50
270.0
 51
90.0
  0
LINE
  5
407
330
1F
100
AcDbEntity
  8
0
  6
Continuous
 62
     7
100
AcDbLine
 10
2165.0175358726
 20
84.585693355
 30
0.0
 11
2186.0175358726
 21
84.585693355
 31
0.0
  0
ARC
  5
408
330
1F
100
AcDbEntity
  8
0
  6
Continuous
 62
     7
100
AcDbCircle
 10
2165.0175358726
 20
80.585693355
 30
0.0
 40
4.0
100
AcDbArc
 50
90.0
 51
270.0
  0
LINE
  5
409
330
1F
100
AcDbEntity
  8
0
  6
Continuous
 62
     7
100
AcDbLine
 10
2186.0175358726
 20
76.585693355
 30
0.0
 11
2165.0175358726
 21
76.585693355
 31
0.0
  0
ARC
  5
40A
330
1F
100
AcDbEntity
  8
0
  6
Continuous
 62
     7
100
AcDbCircle
 10
2186.0175358726
 20
80.585693355
 30
0.0
 40
4.0
100
AcDbArc
 50
270.0
 51
90.0
  0
LINE
  5
40B
330
1F
100
AcDbEntity
  8
0
  6
Continuous
 62
     7
100
AcDbLine
 10
2115.0175358726
 20
84.585693355
 30
0.0
 11
2136.0175358726
 21
84.585693355
 31
0.0
  0
ARC
  5
40C
330
1F
100
AcDbEntity
  8
0
  6
Continuous
 62
     7
100
AcDbCircle
 10
2115.0175358726
 20
80.585693355
 30
0.0
 40
4.000000000000014
100
AcDbArc
 50
90.0
 51
270.0
  0
LINE
  5
40D
330
1F
100
AcDbEntity
  8
0
  6
Continuous
 62
     7
100
AcDbLine
 10
2136.0175358726
 20
76.585693355
 30
0.0
 11
2115.0175358726
 21
76.585693355
 31
0.0
  0
ARC
  5
40E
330
1F
100
AcDbEntity
  8
0
  6
Continuous
 62
     7
100
AcDbCircle
 10
2136.0175358726
 20
80.585693355
 30
0.0
 40
4.0
100
AcDbArc
 50
270.0
 51
90.0
  0
LINE
  5
40F
330
1F
100
AcDbEntity
  8
0
  6
Continuous
 62
     7
100
AcDbLine
 10
2065.0175358726
 20
84.585693355
 30
0.0
 11
2086.0175358726
 21
84.585693355
 31
0.0
  0
ARC
  5
410
330
1F
100
AcDbEntity
  8
0
  6
Continuous
 62
     7
100
AcDbCircle
 10
2065.0175358726
 20
80.585693355
 30
0.0
 40
4.000000000000014
100
AcDbArc
 50
90.0
 51
270.0
  0
LINE
  5
411
330
1F
100
AcDbEntity
  8
0
  6
Continuous
 62
     7
100
AcDbLine
 10
2086.0175358726
 20
76.585693355
 30
0.0
 11
2065.0175358726
 21
76.585693355
 31
0.0
  0
ARC
  5
412
330
1F
100
AcDbEntity
  8
0
  6
Continuous
 62
     7
100
AcDbCircle
 10
2086.0175358726
 20
80.585693355
 30
0.0
 40
4.0
100
AcDbArc
 50
270.0
 51
90.0
  0
LINE
  5
413
330
1F
100
AcDbEntity
  8
0
  6
Continuous
 62
     7
100
AcDbLine
 10
2015.0175358726
 20
84.585693355
 30
0.0
 11
2036.0175358726
 21
84.585693355
 31
0.0
  0
ARC
  5
414
330
1F
100
AcDbEntity
  8
0
  6
Continuous
 62
     7
100
AcDbCircle
 10
2015.0175358726
 20
80.585693355
 30
0.0
 40
4.000000000000014
100
AcDbArc
 50
90.0
 51
270.0
  0
LINE
  5
415
330
1F
100
AcDbEntity
  8
0
  6
Continuous
 62
     7
100
AcDbLine
 10
2036.0175358726
 20
76.585693355
 30
0.0
 11
2015.0175358726
 21
76.585693355
 31
0.0
  0
ARC
  5
416
330
1F
100
AcDbEntity
  8
0
  6
Continuous
 62
     7
100
AcDbCircle
 10
2036.0175358726
 20
80.585693355
 30
0.0
 40
4.000000000000014
100
AcDbArc
 50
270.0
 51
90.0
  0
LINE
  5
417
330
1F
100
AcDbEntity
  8
0
  6
Continuous
 62
     7
100
AcDbLine
 10
1965.0175358726
 20
84.585693355
 30
0.0
 11
1986.0175358726
 21
84.585693355
 31
0.0
  0
ARC
  5
418
330
1F
100
AcDbEntity
  8
0
  6
Continuous
 62
     7
100
AcDbCircle
 10
1965.0175358726
 20
80.585693355
 30
0.0
 40
4.000000000000014
100
AcDbArc
 50
90.0
 51
270.0
  0
LINE
  5
419
330
1F
100
AcDbEntity
  8
0
  6
Continuous
 62
     7
100
AcDbLine
 10
1986.0175358726
 20
76.585693355
 30
0.0
 11
1965.0175358726
 21
76.585693355
 31
0.0
  0
ARC
  5
41A
330
1F
100
AcDbEntity
  8
0
  6
Continuous
 62
     7
100
AcDbCircle
 10
1986.0175358726
 20
80.585693355
 30
0.0
 40
4.0
100
AcDbArc
 50
270.0
 51
90.0
  0
LINE
  5
41B
330
1F
100
AcDbEntity
  8
0
  6
Continuous
 62
     7
100
AcDbLine
 10
1915.0175358726
 20
84.585693355
 30
0.0
 11
1936.0175358726
 21
84.585693355
 31
0.0
  0
ARC
  5
41C
330
1F
100
AcDbEntity
  8
0
  6
Continuous
 62
     7
100
AcDbCircle
 10
1915.0175358726
 20
80.585693355
 30
0.0
 40
4.0
100
AcDbArc
 50
90.0
 51
270.0
  0
LINE
  5
41D
330
1F
100
AcDbEntity
  8
0
  6
Continuous
 62
     7
100
AcDbLine
 10
1936.0175358726
 20
76.585693355
 30
0.0
 11
1915.0175358726
 21
76.585693355
 31
0.0
  0
ARC
  5
41E
330
1F
100
AcDbEntity
  8
0
  6
Continuous
 62
     7
100
AcDbCircle
 10
1936.0175358726
 20
80.585693355
 30
0.0
 40
4.000000000000014
100
AcDbArc
 50
270.0
 51
90.0
  0
CIRCLE
  5
41F
330
1F
100
AcDbEntity
  8
0
  6
Continuous
 62
     7
100
AcDbCircle
 10
2125.5175358726
 20
180.585693355
 30
0.0
 40
3.249999999999972
  0
CIRCLE
  5
420
330
1F
100
AcDbEntity
  8
0
  6
Continuous
 62
     7
100
AcDbCircle
 10
2025.5175358726
 20
180.585693355
 30
0.0
 40
3.249999999999972
  0
CIRCLE
  5
421
330
1F
100
AcDbEntity
  8
0
  6
Continuous
 62
     7
100
AcDbCircle
 10
2113.0175358726
 20
223.2639010922
 30
0.0
 40
3.25
  0
CIRCLE
  5
422
330
1F
100
AcDbEntity
  8
0
  6
Continuous
 62
     7
100
AcDbCircle
 10
2013.0175358726
 20
223.2639010922
 30
0.0
 40
3.249999999999972
  0
LINE
  5
423
330
1F
100
AcDbEntity
  8
0
  6
Continuous
 62
     7
100
AcDbLine
 10
2621.2675358726
 20
227.2639010922
 30
0.0
 11
2621.2675358726
 21
170.585693355
 31
0.0
  0
LINE
  5
424
330
1F
100
AcDbEntity
  8
0
  6
Continuous
 62
     7
100
AcDbLine
 10
2621.2675358726
 20
170.585693355
 30
0.0
 11
2618.2675358726
 21
167.585693355
 31
0.0
  0
LINE
  5
425
330
1F
100
AcDbEntity
  8
0
  6
Continuous
 62
     7
100
AcDbLine
 10
2618.2675358726
 20
167.585693355
 30
0.0
 11
2582.7675358726
 21
167.585693355
 31
0.0
  0
LINE
  5
426
330
1F
100
AcDbEntity
  8
0
  6
Continuous
 62
     7
100
AcDbLine
 10
2582.7675358726
 20
167.585693355
 30
0.0
 11
2579.7675358726
 21
164.585693355
 31
0.0
  0
LINE
  5
427
330
1F
100
AcDbEntity
  8
0
  6
Continuous
 62
     7
100
AcDbLine
 10
2579.7675358726
 20
164.585693355
 30
0.0
 11
2579.7675358726
 21
55.585693355
 31
0.0
  0
LINE
  5
428
330
1F
100
AcDbEntity
  8
0
  6
Continuous
 62
     7
100
AcDbLine
 10
2579.7675358726
 20
55.585693355
 30
0.0
 11
2576.7675358726
 21
52.585693355
 31
0.0
  0
LINE
  5
429
330
1F
100
AcDbEntity
  8
0
  6
Continuous
 62
     7
100
AcDbLine
 10
2576.7675358726
 20
52.585693355
 30
0.0
 11
1774.2675358726
 21
52.585693355
 31
0.0
  0
LINE
  5
42A
330
1F
100
AcDbEntity
  8
0
  6
Continuous
 62
     7
100
AcDbLine
 10
1774.2675358726
 20
52.585693355
 30
0.0
 11
1771.2675358726
 21
55.585693355
 31
0.0
  0
LINE
  5
42B
330
1F
100
AcDbEntity
  8
0
  6
Continuous
 62
     7
100
AcDbLine
 10
1771.2675358726
 20
55.585693355
 30
0.0
 11
1771.2675358726
 21
164.585693355
 31
0.0
  0
LINE
  5
42C
330
1F
100
AcDbEntity
  8
0
  6
Continuous
 62
     7
100
AcDbLine
 10
1771.2675358726
 20
164.585693355
 30
0.0
 11
1768.2675358726
 21
167.585693355
 31
0.0
  0
LINE
  5
42D
330
1F
100
AcDbEntity
  8
0
  6
Continuous
 62
     7
100
AcDbLine
 10
1768.2675358726
 20
167.585693355
 30
0.0
 11
1732.7675358726
 21
167.585693355
 31
0.0
  0
LINE
  5
42E
330
1F
100
AcDbEntity
  8
0
  6
Continuous
 62
     7
100
AcDbLine
 10
1732.7675358726
 20
167.585693355
 30
0.0
 11
1729.7675358726
 21
170.585693355
 31
0.0
  0
LINE
  5
42F
330
1F
100
AcDbEntity
  8
0
  6
Continuous
 62
     7
100
AcDbLine
 10
1729.7675358726
 20
170.585693355
 30
0.0
 11
1729.7675358726
 21
227.2639010922
 31
0.0
  0
LINE
  5
430
330
1F
100
AcDbEntity
  8
0
  6
Continuous
 62
     7
100
AcDbLine
 10
1729.7675358726
 20
227.2639010922
 30
0.0
 11
1732.7675358726
 21
230.2639010922
 31
0.0
  0
LINE
  5
431
330
1F
100
AcDbEntity
  8
0
  6
Continuous
 62
     7
100
AcDbLine
 10
1732.7675358726
 20
230.2639010922
 30
0.0
 11
2618.2675358726
 21
230.2639010922
 31
0.0
  0
LINE
  5
432
330
1F
100
AcDbEntity
  8
0
  6
Continuous
 62
     7
100
AcDbLine
 10
2618.2675358726
 20
230.2639010922
 30
0.0
 11
2621.2675358726
 21
227.2639010922
 31
0.0
  0
LINE
  5
433
330
1F
100
AcDbEntity
  8
0
  6
Continuous
 62
     7
100
AcDbLine
 10
1798.0175358726
 20
200.085693355
 30
0.0
 11
1753.0175358726
 21
200.085693355
 31
0.0
  0
LINE
  5
434
330
1F
100
AcDbEntity
  8
0
  6
Continuous
 62
     7
100
AcDbLine
 10
1798.0175358726
 20
202.7639010922
 30
0.0
 11
1798.0175358726
 21
200.085693355
 31
0.0
  0
LINE
  5
435
330
1F
100
AcDbEntity
  8
0
  6
Continuous
 62
     7
100
AcDbLine
 10
1753.0175358726
 20
202.7639010922
 30
0.0
 11
1798.0175358726
 21
202.7639010922
 31
0.0
  0
LINE
  5
436
330
1F
100
AcDbEntity
  8
0
  6
Continuous
 62
     7
100
AcDbLine
 10
1753.0175358726
 20
200.085693355
 30
0.0
 11
1753.0175358726
 21
202.7639010922
 31
0.0
  0
ARC
  5
437
330
1F
100
AcDbEntity
  8
0
  6
Continuous
 62
     7
100
AcDbCircle
 10
1815.0175358726
 20
80.585693355
 30
0.0
 40
4.0
100
AcDbArc
 50
90.0
 51
270.0
  0
LINE
  5
438
330
1F
100
AcDbEntity
  8
0
  6
Continuous
 62
     7
100
AcDbLine
 10
1836.0175358726
 20
76.585693355
 30
0.0
 11
1815.0175358726
 21
76.585693355
 31
0.0
  0
ARC
  5
439
330
1F
100
AcDbEntity
  8
0
  6
Continuous
 62
     7
100
AcDbCircle
 10
1836.0175358726
 20
80.585693355
 30
0.0
 40
4.000000000000014
100
AcDbArc
 50
270.0
 51
90.0
  0
LINE
  5
43A
330
1F
100
AcDbEntity
  8
0
  6
Continuous
 62
     7
100
AcDbLine
 10
1815.0175358726
 20
84.585693355
 30
0.0
 11
1836.0175358726
 21
84.585693355
 31
0.0
  0
CIRCLE
  5
43B
330
1F
100
AcDbEntity
  8
0
  6
Continuous
 62
     7
100
AcDbCircle
 10
1813.0175358726
 20
223.2639010922
 30
0.0
 40
3.249999999999972
  0
CIRCLE
  5
43C
330
1F
100
AcDbEntity
  8
0
  6
Continuous
 62
     7
100
AcDbCircle
 10
1913.0175358726
 20
223.2639010922
 30
0.0
 40
3.249999999999972
  0
CIRCLE
  5
43D
330
1F
100
AcDbEntity
  8
0
  6
Continuous
 62
     7
100
AcDbCircle
 10
1825.5175358726
 20
180.585693355
 30
0.0
 40
3.25
  0
CIRCLE
  5
43E
330
1F
100
AcDbEntity
  8
0
  6
Continuous
 62
     7
100
AcDbCircle
 10
1925.5175358726
 20
180.585693355
 30
0.0
 40
3.249999999999972
  0
ARC
  5
43F
330
1F
100
AcDbEntity
  8
0
  6
Continuous
 62
     7
100
AcDbCircle
 10
1865.0175358726
 20
80.585693355
 30
0.0
 40
4.000000000000014
100
AcDbArc
 50
90.0
 51
270.0
  0
LINE
  5
440
330
1F
100
AcDbEntity
  8
0
  6
Continuous
 62
     7
100
AcDbLine
 10
1886.0175358726
 20
76.585693355
 30
0.0
 11
1865.0175358726
 21
76.585693355
 31
0.0
  0
ARC
  5
441
330
1F
100
AcDbEntity
  8
0
  6
Continuous
 62
     7
100
AcDbCircle
 10
1886.0175358726
 20
80.585693355
 30
0.0
 40
4.000000000000014
100
AcDbArc
 50
270.0
 51
90.0
  0
LINE
  5
442
330
1F
100
AcDbEntity
  8
0
  6
Continuous
 62
     7
100
AcDbLine
 10
1865.0175358726
 20
84.585693355
 30
0.0
 11
1886.0175358726
 21
84.585693355
 31
0.0
  0
LINE
  5
443
330
1F
100
AcDbEntity
  8
0
  6
Continuous
 62
     7
100
AcDbLine
 10
1848.0175358726
 20
200.085693355
 30
0.0
 11
1803.0175358726
 21
200.085693355
 31
0.0
  0
LINE
  5
444
330
1F
100
AcDbEntity
  8
0
  6
Continuous
 62
     7
100
AcDbLine
 10
1848.0175358726
 20
202.7639010922
 30
0.0
 11
1848.0175358726
 21
200.085693355
 31
0.0
  0
LINE
  5
445
330
1F
100
AcDbEntity
  8
0
  6
Continuous
 62
     7
100
AcDbLine
 10
1803.0175358726
 20
202.7639010922
 30
0.0
 11
1848.0175358726
 21
202.7639010922
 31
0.0
  0
LINE
  5
446
330
1F
100
AcDbEntity
  8
0
  6
Continuous
 62
     7
100
AcDbLine
 10
1803.0175358726
 20
200.085693355
 30
0.0
 11
1803.0175358726
 21
202.7639010922
 31
0.0
  0
CIRCLE
  5
447
330
1F
100
AcDbEntity
  8
0
  6
Continuous
 62
     7
100
AcDbCircle
 10
2538.0175358726
 20
223.2639010922
 30
0.0
 40
3.249999999999972
  0
CIRCLE
  5
448
330
1F
100
AcDbEntity
  8
0
  6
Continuous
 62
     7
100
AcDbCircle
 10
2438.0175358726
 20
223.2639010922
 30
0.0
 40
3.249999999999972
  0
CIRCLE
  5
449
330
1F
100
AcDbEntity
  8
0
  6
Continuous
 62
     7
100
AcDbCircle
 10
2338.0175358726
 20
223.2639010922
 30
0.0
 40
3.25
  0
CIRCLE
  5
44A
330
1F
100
AcDbEntity
  8
0
  6
Continuous
 62
     7
100
AcDbCircle
 10
2238.0175358726
 20
223.2639010922
 30
0.0
 40
3.249999999999943
  0
ENDSEC
  0
SECTION
  2
OBJECTS
  0
DICTIONARY
  5
C
330
0
100
AcDbDictionary
281
     1
  3
ACAD_GROUP
350
D
  3
ACAD_LAYOUT
350
1A
  3
ACAD_MLINESTYLE
350
17
  3
ACAD_PLOTSETTINGS
350
19
  3
ACAD_PLOTSTYLENAME
350
E
  3
ACAD_SCALELIST
350
47
  3
DWGPROPS
350
44B
  0
DICTIONARY
  5
D
102
{ACAD_REACTORS
330
C
102
}
330
C
100
AcDbDictionary
281
     1
  0
DICTIONARY
  5
1A
102
{ACAD_REACTORS
330
C
102
}
330
C
100
AcDbDictionary
281
     1
  3
Layout1
350
1E
  3
Layout2
350
26
  3
Model
350
22
  0
DICTIONARY
  5
17
102
{ACAD_REACTORS
330
C
102
}
330
C
100
AcDbDictionary
281
     1
  3
Standard
350
18
  0
DICTIONARY
  5
19
102
{ACAD_REACTORS
330
C
102
}
330
C
100
AcDbDictionary
281
     1
  0
ACDBDICTIONARYWDFLT
  5
E
102
{ACAD_REACTORS
330
C
102
}
330
C
100
AcDbDictionary
281
     1
  3
Normal
350
F
100
AcDbDictionaryWithDefault
340
F
  0
DICTIONARY
  5
47
102
{ACAD_REACTORS
330
C
102
}
330
C
100
AcDbDictionary
281
     1
  3
A0
350
48
  3
A1
350
49
  3
A2
350
4A
  3
A3
350
4B
  3
A4
350
4C
  3
A5
350
4D
  3
A6
350
4E
  3
A7
350
4F
  3
A8
350
50
  3
A9
350
51
  3
B0
350
52
  3
B1
350
53
  3
B2
350
54
  3
B3
350
55
  3
B4
350
56
  3
B5
350
57
  3
B6
350
58
  0
XRECORD
  5
44B
102
{ACAD_REACTORS
330
C
102
}
330
C
100
AcDbXrecord
280
     1
  1
DWGPROPS COOKIE
  2

  3

  4

  6

  7

  8
moskovchenkovapa
  9

300
=
301
=
302
=
303
=
304
=
305
=
306
=
307
=
308
=
309
=
 40
0.0
 41
2460670.524361667
 42
2460670.524363079
  1

 90
        0
  0
LAYOUT
  5
1E
102
{ACAD_REACTORS
330
1A
102
}
330
1A
100
AcDbPlotSettings
  1

  2
none_device
  4

  6

 40
0.0
 41
0.0
 42
0.0
 43
0.0
 44
0.0
 45
0.0
 46
0.0
 47
0.0
 48
0.0
 49
0.0
140
0.0
141
0.0
142
1.0
143
1.0
 70
   688
 72
     1
 73
     0
 74
     5
  7

 75
    16
147
1.0
148
0.0
149
0.0
100
AcDbLayout
  1
Layout1
 70
     1
 71
     1
 10
0.0
 20
0.0
 11
420.0
 21
297.0
 12
0.0
 22
0.0
 32
0.0
 14
1.0000000000E+20
 24
1.0000000000E+20
 34
1.0000000000E+20
 15
-1.0000000000E+20
 25
-1.0000000000E+20
 35
-1.0000000000E+20
146
0.0
 13
0.0
 23
0.0
 33
0.0
 16
1.0
 26
0.0
 36
0.0
 17
0.0
 27
1.0
 37
0.0
 76
     0
330
1B
  0
LAYOUT
  5
26
102
{ACAD_REACTORS
330
1A
102
}
330
1A
100
AcDbPlotSettings
  1

  2
none_device
  4

  6

 40
0.0
 41
0.0
 42
0.0
 43
0.0
 44
0.0
 45
0.0
 46
0.0
 47
0.0
 48
0.0
 49
0.0
140
0.0
141
0.0
142
1.0
143
1.0
 70
   688
 72
     1
 73
     0
 74
     5
  7

 75
    16
147
1.0
148
0.0
149
0.0
100
AcDbLayout
  1
Layout2
 70
     1
 71
     2
 10
0.0
 20
0.0
 11
0.0
 21
0.0
 12
0.0
 22
0.0
 32
0.0
 14
0.0
 24
0.0
 34
0.0
 15
0.0
 25
0.0
 35
0.0
146
0.0
 13
0.0
 23
0.0
 33
0.0
 16
1.0
 26
0.0
 36
0.0
 17
0.0
 27
1.0
 37
0.0
 76
     0
330
23
  0
LAYOUT
  5
22
102
{ACAD_REACTORS
330
1A
102
}
330
1A
100
AcDbPlotSettings
  1

  2
none_device
  4
Letter_(8.50_x_11.00_Inches)
  6

 40
6.35
 41
6.35
 42
6.35000508
 43
6.35000508
 44
215.9
 45
279.4
 46
0.0
 47
0.0
 48
0.0
 49
0.0
140
0.0
141
0.0
142
1.0
143
1.0
 70
  1712
 72
     1
 73
     0
 74
     0
  7

 75
     0
147
1.0
148
0.0
149
0.0
100
AcDbLayout
  1
Model
 70
     1
 71
     0
 10
0.0
 20
0.0
 11
420.0
 21
297.0
 12
0.0
 22
0.0
 32
0.0
 14
0.0
 24
0.0
 34
0.0
 15
420.0
 25
297.0
 35
0.0
146
0.0
 13
0.0
 23
0.0
 33
0.0
 16
1.0
 26
0.0
 36
0.0
 17
0.0
 27
1.0
 37
0.0
 76
     0
330
1F
331
29
  0
MLINESTYLE
  5
18
102
{ACAD_REACTORS
330
17
102
}
330
17
100
AcDbMlineStyle
  2
Standard
 70
     0
  3

 62
   256
 51
90.0
 52
90.0
 71
     2
 49
0.5
 62
   256
  6
BYLAYER
 49
-0.5
 62
   256
  6
BYLAYER
  0
ACDBPLACEHOLDER
  5
F
102
{ACAD_REACTORS
330
E
102
}
330
E
  0
SCALE
  5
48
102
{ACAD_REACTORS
330
47
102
}
330
47
100
AcDbScale
 70
     0
300
1:1
140
1.0
141
1.0
290
     1
  0
SCALE
  5
49
102
{ACAD_REACTORS
330
47
102
}
330
47
100
AcDbScale
 70
     0
300
1:2
140
1.0
141
2.0
290
     0
  0
SCALE
  5
4A
102
{ACAD_REACTORS
330
47
102
}
330
47
100
AcDbScale
 70
     0
300
1:4
140
1.0
141
4.0
290
     0
  0
SCALE
  5
4B
102
{ACAD_REACTORS
330
47
102
}
330
47
100
AcDbScale
 70
     0
300
1:5
140
1.0
141
5.0
290
     0
  0
SCALE
  5
4C
102
{ACAD_REACTORS
330
47
102
}
330
47
100
AcDbScale
 70
     0
300
1:8
140
1.0
141
8.0
290
     0
  0
SCALE
  5
4D
102
{ACAD_REACTORS
330
47
102
}
330
47
100
AcDbScale
 70
     0
300
1:10
140
1.0
141
10.0
290
     0
  0
SCALE
  5
4E
102
{ACAD_REACTORS
330
47
102
}
330
47
100
AcDbScale
 70
     0
300
1:16
140
1.0
141
16.0
290
     0
  0
SCALE
  5
4F
102
{ACAD_REACTORS
330
47
102
}
330
47
100
AcDbScale
 70
     0
300
1:20
140
1.0
141
20.0
290
     0
  0
SCALE
  5
50
102
{ACAD_REACTORS
330
47
102
}
330
47
100
AcDbScale
 70
     0
300
1:30
140
1.0
141
30.0
290
     0
  0
SCALE
  5
51
102
{ACAD_REACTORS
330
47
102
}
330
47
100
AcDbScale
 70
     0
300
1:40
140
1.0
141
40.0
290
     0
  0
SCALE
  5
52
102
{ACAD_REACTORS
330
47
102
}
330
47
100
AcDbScale
 70
     0
300
1:50
140
1.0
141
50.0
290
     0
  0
SCALE
  5
53
102
{ACAD_REACTORS
330
47
102
}
330
47
100
AcDbScale
 70
     0
300
1:100
140
1.0
141
100.0
290
     0
  0
SCALE
  5
54
102
{ACAD_REACTORS
330
47
102
}
330
47
100
AcDbScale
 70
     0
300
2:1
140
2.0
141
1.0
290
     0
  0
SCALE
  5
55
102
{ACAD_REACTORS
330
47
102
}
330
47
100
AcDbScale
 70
     0
300
4:1
140
4.0
141
1.0
290
     0
  0
SCALE
  5
56
102
{ACAD_REACTORS
330
47
102
}
330
47
100
AcDbScale
 70
     0
300
8:1
140
8.0
141
1.0
290
     0
  0
SCALE
  5
57
102
{ACAD_REACTORS
330
47
102
}
330
47
100
AcDbScale
 70
     0
300
10:1
140
10.0
141
1.0
290
     0
  0
SCALE
  5
58
102
{ACAD_REACTORS
330
47
102
}
330
47
100
AcDbScale
 70
     0
300
100:1
140
100.0
141
1.0
290
     0
  0
ENDSEC
  0
EOF
