  0
SECTION
  2
HEADER
  9
$ACADVER
  1
AC1015
  9
$ACADMAINTVER
 70
     6
  9
$DWGCODEPAGE
  3
ANSI_1251
  9
$INSBASE
 10
0.0
 20
0.0
 30
0.0
  9
$EXTMIN
 10
0.0
 20
0.0
 30
0.0
  9
$EXTMAX
 10
3000.0
 20
2500.0
 30
0.0
  9
$LIMMIN
 10
0.0
 20
0.0
  9
$LIMMAX
 10
3000.0
 20
2500.0
  9
$ORTHOMODE
 70
     0
  9
$REGENMODE
 70
     1
  9
$FILLMODE
 70
     1
  9
$QTEXTMODE
 70
     0
  9
$MIRRTEXT
 70
     1
  9
$LTSCALE
 40
1.0
  9
$ATTMODE
 70
     1
  9
$TEXTSIZE
 40
3.5
  9
$TRACEWID
 40
1.0
  9
$TEXTSTYLE
  7
Standard
  9
$CLAYER
  8
0
  9
$CELTYPE
  6
ByLayer
  9
$CECOLOR
 62
   256
  9
$CELTSCALE
 40
1.0
  9
$DISPSILH
 70
     0
  9
$DIMSCALE
 40
1.0
  9
$DIMASZ
 40
3.302
  9
$DIMEXO
 40
0.0
  9
$DIMDLI
 40
3.75
  9
$DIMRND
 40
0.0
  9
$DIMDLE
 40
0.0
  9
$DIMEXE
 40
1.0
  9
$DIMTP
 40
0.0
  9
$DIMTM
 40
0.0
  9
$DIMTXT
 40
3.5
  9
$DIMCEN
 40
2.5
  9
$DIMTSZ
 40
0.0
  9
$DIMTOL
 70
     0
  9
$DIMLIM
 70
     0
  9
$DIMTIH
 70
     1
  9
$DIMTOH
 70
     1
  9
$DIMSE1
 70
     0
  9
$DIMSE2
 70
     0
  9
$DIMTAD
 70
     1
  9
$DIMZIN
 70
     0
  9
$DIMBLK
  1

  9
$DIMASO
 70
     1
  9
$DIMSHO
 70
     1
  9
$DIMPOST
  1

  9
$DIMAPOST
  1

  9
$DIMALT
 70
     0
  9
$DIMALTD
 70
     3
  9
$DIMALTF
 40
0.0393700787
  9
$DIMLFAC
 40
1.0
  9
$DIMTOFL
 70
     1
  9
$DIMTVP
 40
0.0
  9
$DIMTIX
 70
     0
  9
$DIMSOXD
 70
     0
  9
$DIMSAH
 70
     0
  9
$DIMBLK1
  1

  9
$DIMBLK2
  1

  9
$DIMSTYLE
  2
ISO-25
  9
$DIMCLRD
 70
     0
  9
$DIMCLRE
 70
     0
  9
$DIMCLRT
 70
     0
  9
$DIMTFAC
 40
1.0
  9
$DIMGAP
 40
1.524
  9
$DIMJUST
 70
     0
  9
$DIMSD1
 70
     0
  9
$DIMSD2
 70
     0
  9
$DIMTOLJ
 70
     0
  9
$DIMTZIN
 70
     0
  9
$DIMALTZ
 70
     0
  9
$DIMALTTZ
 70
     0
  9
$DIMUPT
 70
     0
  9
$DIMDEC
 70
     2
  9
$DIMTDEC
 70
     2
  9
$DIMALTU
 70
     2
  9
$DIMALTTD
 70
     3
  9
$DIMTXSTY
  7
Standard
  9
$DIMAUNIT
 70
     0
  9
$DIMADEC
 70
     2
  9
$DIMALTRND
 40
0.0
  9
$DIMAZIN
 70
     0
  9
$DIMDSEP
 70
    44
  9
$DIMATFIT
 70
     3
  9
$DIMFRAC
 70
     0
  9
$DIMLDRBLK
  1

  9
$DIMLUNIT
 70
     2
  9
$DIMLWD
 70
    -2
  9
$DIMLWE
 70
    -2
  9
$DIMTMOVE
 70
     0
  9
$LUNITS
 70
     2
  9
$LUPREC
 70
     1
  9
$SKETCHINC
 40
1.0
  9
$FILLETRAD
 40
10.0
  9
$AUNITS
 70
     1
  9
$AUPREC
 70
     2
  9
$MENU
  1
.
  9
$ELEVATION
 40
0.0
  9
$PELEVATION
 40
0.0
  9
$THICKNESS
 40
0.0
  9
$LIMCHECK
 70
     0
  9
$CHAMFERA
 40
0.0
  9
$CHAMFERB
 40
0.0
  9
$CHAMFERC
 40
0.0
  9
$CHAMFERD
 40
0.0
  9
$SKPOLY
 70
     0
  9
$TDCREATE
 40
2459492.408875185
  9
$TDUCREATE
 40
2459492.283875185
  9
$TDUPDATE
 40
2459492.408878449
  9
$TDUUPDATE
 40
2459492.283878449
  9
$TDINDWG
 40
0.0000000116
  9
$TDUSRTIMER
 40
0.0000000116
  9
$USRTIMER
 70
     1
  9
$ANGBASE
 50
0.0
  9
$ANGDIR
 70
     0
  9
$PDMODE
 70
     0
  9
$PDSIZE
 40
-1.0
  9
$PLINEWID
 40
0.0
  9
$SPLFRAME
 70
     0
  9
$SPLINETYPE
 70
     6
  9
$SPLINESEGS
 70
     8
  9
$HANDSEED
  5
5EC
  9
$SURFTAB1
 70
     6
  9
$SURFTAB2
 70
     6
  9
$SURFTYPE
 70
     6
  9
$SURFU
 70
     6
  9
$SURFV
 70
     6
  9
$UCSBASE
  2

  9
$UCSNAME
  2

  9
$UCSORG
 10
0.0
 20
0.0
 30
0.0
  9
$UCSXDIR
 10
1.0
 20
0.0
 30
0.0
  9
$UCSYDIR
 10
0.0
 20
1.0
 30
0.0
  9
$UCSORTHOREF
  2

  9
$UCSORTHOVIEW
 70
     0
  9
$UCSORGTOP
 10
0.0
 20
0.0
 30
0.0
  9
$UCSORGBOTTOM
 10
0.0
 20
0.0
 30
0.0
  9
$UCSORGLEFT
 10
0.0
 20
0.0
 30
0.0
  9
$UCSORGRIGHT
 10
0.0
 20
0.0
 30
0.0
  9
$UCSORGFRONT
 10
0.0
 20
0.0
 30
0.0
  9
$UCSORGBACK
 10
0.0
 20
0.0
 30
0.0
  9
$PUCSBASE
  2

  9
$PUCSNAME
  2

  9
$PUCSORG
 10
0.0
 20
0.0
 30
0.0
  9
$PUCSXDIR
 10
1.0
 20
0.0
 30
0.0
  9
$PUCSYDIR
 10
0.0
 20
1.0
 30
0.0
  9
$PUCSORTHOREF
  2

  9
$PUCSORTHOVIEW
 70
     0
  9
$PUCSORGTOP
 10
0.0
 20
0.0
 30
0.0
  9
$PUCSORGBOTTOM
 10
0.0
 20
0.0
 30
0.0
  9
$PUCSORGLEFT
 10
0.0
 20
0.0
 30
0.0
  9
$PUCSORGRIGHT
 10
0.0
 20
0.0
 30
0.0
  9
$PUCSORGFRONT
 10
0.0
 20
0.0
 30
0.0
  9
$PUCSORGBACK
 10
0.0
 20
0.0
 30
0.0
  9
$USERI1
 70
     0
  9
$USERI2
 70
     0
  9
$USERI3
 70
     0
  9
$USERI4
 70
     0
  9
$USERI5
 70
     0
  9
$USERR1
 40
0.0
  9
$USERR2
 40
0.0
  9
$USERR3
 40
0.0
  9
$USERR4
 40
0.0
  9
$USERR5
 40
0.0
  9
$WORLDVIEW
 70
     1
  9
$SHADEDGE
 70
     3
  9
$SHADEDIF
 70
    70
  9
$TILEMODE
 70
     1
  9
$MAXACTVP
 70
    64
  9
$PINSBASE
 10
0.0
 20
0.0
 30
0.0
  9
$PLIMCHECK
 70
     0
  9
$PEXTMIN
 10
1.0000000000E+20
 20
1.0000000000E+20
 30
1.0000000000E+20
  9
$PEXTMAX
 10
-1.0000000000E+20
 20
-1.0000000000E+20
 30
-1.0000000000E+20
  9
$PLIMMIN
 10
0.0
 20
0.0
  9
$PLIMMAX
 10
420.0
 20
297.0
  9
$UNITMODE
 70
     0
  9
$VISRETAIN
 70
     1
  9
$PLINEGEN
 70
     0
  9
$PSLTSCALE
 70
     1
  9
$TREEDEPTH
 70
  3020
  9
$CMLSTYLE
  2
Standard
  9
$CMLJUST
 70
     0
  9
$CMLSCALE
 40
20.0
  9
$PROXYGRAPHICS
 70
     1
  9
$MEASUREMENT
 70
     1
  9
$CELWEIGHT
370
    -1
  9
$ENDCAPS
280
     0
  9
$JOINSTYLE
280
     0
  9
$LWDISPLAY
290
     1
  9
$INSUNITS
 70
     4
  9
$HYPERLINKBASE
  1

  9
$STYLESHEET
  1

  9
$XEDIT
290
     1
  9
$CEPSNTYPE
380
     0
  9
$PSTYLEMODE
290
     1
  9
$FINGERPRINTGUID
  2
{B79351DE-2905-4B2B-835B-56049E4D3A14}
  9
$VERSIONGUID
  2
{FAEB1C32-E019-11D5-929B-00C0DF256EC4}
  9
$EXTNAMES
290
     1
  9
$PSVPSCALE
 40
0.0
  9
$OLESTARTUP
290
     0
  0
ENDSEC
  0
SECTION
  2
CLASSES
  0
CLASS
  1
ACDBDICTIONARYWDFLT
  2
AcDbDictionaryWithDefault
  3
ObjectDBX Classes
 90
        0
280
     0
281
     0
  0
CLASS
  1
VISUALSTYLE
  2
AcDbVisualStyle
  3
ObjectDBX Classes
 90
     4095
280
     0
281
     0
  0
CLASS
  1
MATERIAL
  2
AcDbMaterial
  3
ObjectDBX Classes
 90
     1153
280
     0
281
     0
  0
CLASS
  1
SCALE
  2
AcDbScale
  3
ObjectDBX Classes
 90
     1153
280
     0
281
     0
  0
CLASS
  1
TABLESTYLE
  2
AcDbTableStyle
  3
ObjectDBX Classes
 90
     4095
280
     0
281
     0
  0
CLASS
  1
MLEADERSTYLE
  2
AcDbMLeaderStyle
  3
ACDB_MLEADERSTYLE_CLASS
 90
     4095
280
     0
281
     0
  0
CLASS
  1
SUN
  2
AcDbSun
  3
SCENEOE
 90
     1153
280
     0
281
     0
  0
CLASS
  1
ACDBPLACEHOLDER
  2
AcDbPlaceHolder
  3
ObjectDBX Classes
 90
        0
280
     0
281
     0
  0
CLASS
  1
LAYOUT
  2
AcDbLayout
  3
ObjectDBX Classes
 90
        0
280
     0
281
     0
  0
ENDSEC
  0
SECTION
  2
TABLES
  0
TABLE
  2
VPORT
  5
8
330
0
100
AcDbSymbolTable
 70
     1
  0
VPORT
  5
29
330
8
100
AcDbSymbolTableRecord
100
AcDbViewportTableRecord
  2
*Active
 70
     0
 10
0.0
 20
0.0
 11
1.0
 21
1.0
 12
1500.0
 22
1250.0
 13
0.0
 23
0.0
 14
10.0
 24
10.0
 15
10.0
 25
10.0
 16
0.0
 26
0.0
 36
1.0
 17
0.0
 27
0.0
 37
0.0
 40
2500.0
 41
1.2
 42
50.0
 43
0.0
 44
0.0
 50
0.0
 51
0.0
 71
     0
 72
  2000
 73
     1
 74
     3
 75
     0
 76
     0
 77
     0
 78
     0
281
     0
 65
     1
110
0.0
120
0.0
130
0.0
111
1.0
121
0.0
131
0.0
112
0.0
122
1.0
132
0.0
 79
     0
146
0.0
  0
ENDTAB
  0
TABLE
  2
LTYPE
  5
5
330
0
100
AcDbSymbolTable
 70
     6
  0
LTYPE
  5
14
330
5
100
AcDbSymbolTableRecord
100
AcDbLinetypeTableRecord
  2
ByBlock
 70
     0
  3

 72
    65
 73
     0
 40
0.0
  0
LTYPE
  5
15
330
5
100
AcDbSymbolTableRecord
100
AcDbLinetypeTableRecord
  2
ByLayer
 70
     0
  3

 72
    65
 73
     0
 40
0.0
  0
LTYPE
  5
16
330
5
100
AcDbSymbolTableRecord
100
AcDbLinetypeTableRecord
  2
Continuous
 70
     0
  3
Solid line
 72
    65
 73
     0
 40
0.0
  0
LTYPE
  5
6E
330
5
100
AcDbSymbolTableRecord
100
AcDbLinetypeTableRecord
  2
HIDDEN
 70
     0
  3
Hidden __ __ __ __ __ __ __ __ __ __ __ __ __ __
 72
    65
 73
     2
 40
1.905
 49
1.27
 74
     0
 49
-0.635
 74
     0
  0
LTYPE
  5
6F
330
5
100
AcDbSymbolTableRecord
100
AcDbLinetypeTableRecord
  2
PHANTOM
 70
     0
  3
Phantom ______  __  __  ______  __  __  ______
 72
    65
 73
     6
 40
12.7
 49
6.35
 74
     0
 49
-1.27
 74
     0
 49
1.27
 74
     0
 49
-1.27
 74
     0
 49
1.27
 74
     0
 49
-1.27
 74
     0
  0
LTYPE
  5
70
330
5
100
AcDbSymbolTableRecord
100
AcDbLinetypeTableRecord
  2
CENTER
 70
     0
  3
Center ____ _ ____ _ ____ _ ____ _ ____ _ ____
 72
    65
 73
     4
 40
10.16
 49
6.35
 74
     0
 49
-1.27
 74
     0
 49
1.27
 74
     0
 49
-1.27
 74
     0
  0
LTYPE
  5
71
330
5
100
AcDbSymbolTableRecord
100
AcDbLinetypeTableRecord
  2
CENTERX2
 70
     0
  3
Center (2x) ________  __  ________  __  _____
 72
    65
 73
     4
 40
20.32
 49
12.7
 74
     0
 49
-2.54
 74
     0
 49
2.54
 74
     0
 49
-2.54
 74
     0
  0
LTYPE
  5
72
330
5
100
AcDbSymbolTableRecord
100
AcDbLinetypeTableRecord
  2
DOT2
 70
     0
  3
Dot (.5x) ........................................
 72
    65
 73
     2
 40
0.635
 49
0.0
 74
     0
 49
-0.635
 74
     0
  0
ENDTAB
  0
TABLE
  2
LAYER
  5
2
330
0
100
AcDbSymbolTable
 70
     8
  0
LAYER
  5
10
330
2
100
AcDbSymbolTableRecord
100
AcDbLayerTableRecord
  2
0
 70
     0
 62
     7
  6
Continuous
370
    -3
390
F
  0
LAYER
  5
73
330
2
100
AcDbSymbolTableRecord
100
AcDbLayerTableRecord
  2
SLD-0
 70
     0
 62
     7
  6
Continuous
370
    25
390
F
  0
LAYER
  5
74
330
2
100
AcDbSymbolTableRecord
100
AcDbLayerTableRecord
  2
OSNOVA
 70
     0
 62
     5
  6
Continuous
370
    -3
390
F
  0
LAYER
  5
75
330
2
100
AcDbSymbolTableRecord
100
AcDbLayerTableRecord
  2
THIN_LINE
 70
     0
 62
     7
  6
Continuous
370
    25
390
F
  0
LAYER
  5
76
330
2
100
AcDbSymbolTableRecord
100
AcDbLayerTableRecord
  2
THICK_LINE
 70
     0
 62
     7
  6
Continuous
370
    25
390
F
  0
LAYER
  5
77
330
2
100
AcDbSymbolTableRecord
100
AcDbLayerTableRecord
  2
THIN_LIONE
 70
     0
 62
     7
  6
Continuous
370
    -3
390
F
  0
LAYER
  5
78
330
2
100
AcDbSymbolTableRecord
100
AcDbLayerTableRecord
  2
THICK_LIONE
 70
     0
 62
     7
  6
Continuous
370
    25
390
F
  0
LAYER
  5
79
330
2
100
AcDbSymbolTableRecord
100
AcDbLayerTableRecord
  2
ИЗМЕН_РАЗМЕР
 70
     0
 62
     1
  6
Continuous
370
    -3
390
F
  0
ENDTAB
  0
TABLE
  2
STYLE
  5
3
330
0
100
AcDbSymbolTable
 70
     1
  0
STYLE
  5
11
330
3
100
AcDbSymbolTableRecord
100
AcDbTextStyleTableRecord
  2
Standard
 70
     0
 40
0.0
 41
1.0
 50
0.0
 71
     0
 42
3.5
  3
txt
  4

  0
ENDTAB
  0
TABLE
  2
VIEW
  5
6
330
0
100
AcDbSymbolTable
 70
     0
  0
ENDTAB
  0
TABLE
  2
UCS
  5
7
330
0
100
AcDbSymbolTable
 70
     0
  0
ENDTAB
  0
TABLE
  2
APPID
  5
9
330
0
100
AcDbSymbolTable
 70
     1
  0
APPID
  5
12
330
9
100
AcDbSymbolTableRecord
100
AcDbRegAppTableRecord
  2
ACAD
 70
     0
  0
ENDTAB
  0
TABLE
  2
DIMSTYLE
  5
A
330
0
100
AcDbSymbolTable
 70
     1
100
AcDbDimStyleTable
  0
DIMSTYLE
105
27
330
A
100
AcDbSymbolTableRecord
100
AcDbDimStyleTableRecord
  2
ISO-25
 70
     0
 41
2.5
 42
0.625
 43
3.75
 44
1.25
 73
     0
 74
     0
 77
     1
 78
     8
140
2.5
141
2.5
143
0.0393700787
147
0.625
171
     3
172
     1
178
     0
271
     2
272
     2
274
     3
278
    44
283
     0
284
     8
340
11
  0
ENDTAB
  0
TABLE
  2
BLOCK_RECORD
  5
1
330
0
100
AcDbSymbolTable
 70
     1
  0
BLOCK_RECORD
  5
1F
330
1
100
AcDbSymbolTableRecord
100
AcDbBlockTableRecord
  2
*Model_Space
340
22
  0
BLOCK_RECORD
  5
1B
330
1
100
AcDbSymbolTableRecord
100
AcDbBlockTableRecord
  2
*Paper_Space
340
1E
  0
BLOCK_RECORD
  5
23
330
1
100
AcDbSymbolTableRecord
100
AcDbBlockTableRecord
  2
*Paper_Space0
340
26
  0
ENDTAB
  0
ENDSEC
  0
SECTION
  2
BLOCKS
  0
BLOCK
  5
20
330
1F
100
AcDbEntity
  8
0
100
AcDbBlockBegin
  2
*Model_Space
 70
     0
 10
0.0
 20
0.0
 30
0.0
  3
*Model_Space
  1

  0
ENDBLK
  5
21
330
1F
100
AcDbEntity
  8
0
100
AcDbBlockEnd
  0
BLOCK
  5
1C
330
1B
100
AcDbEntity
 67
     1
  8
0
100
AcDbBlockBegin
  2
*Paper_Space
 70
     0
 10
0.0
 20
0.0
 30
0.0
  3
*Paper_Space
  1

  0
ENDBLK
  5
1D
330
1B
100
AcDbEntity
 67
     1
  8
0
100
AcDbBlockEnd
  0
BLOCK
  5
24
330
23
100
AcDbEntity
  8
0
100
AcDbBlockBegin
  2
*Paper_Space0
 70
     0
 10
0.0
 20
0.0
 30
0.0
  3
*Paper_Space0
  1

  0
ENDBLK
  5
25
330
23
100
AcDbEntity
  8
0
100
AcDbBlockEnd
  0
ENDSEC
  0
SECTION
  2
ENTITIES
  0
LINE
  5
7A
330
1F
100
AcDbEntity
  8
0
  6
Continuous
 62
     7
370
    25
100
AcDbLine
 10
120.9319913136
 20
1380.4773348986
 30
0.0
 11
120.9319913136
 21
1379.3115657532
 31
0.0
  0
LINE
  5
7B
330
1F
100
AcDbEntity
  8
0
  6
Continuous
 62
     7
370
    25
100
AcDbLine
 10
120.9319913136
 20
1380.4773348986
 30
0.0
 11
2120.9319913136
 21
1380.4773348986
 31
0.0
  0
LINE
  5
7C
330
1F
100
AcDbEntity
  8
0
  6
Continuous
 62
     7
370
    25
100
AcDbLine
 10
2120.9319913136
 20
1380.4773348986
 30
0.0
 11
2120.9319913136
 21
1379.3115657532
 31
0.0
  0
LINE
  5
7D
330
1F
100
AcDbEntity
  8
0
  6
Continuous
 62
     7
370
    25
100
AcDbLine
 10
2120.9319913136
 20
1379.3115657532
 30
0.0
 11
2120.9319913136
 21
1346.8115657532
 31
0.0
  0
LINE
  5
7E
330
1F
100
AcDbEntity
  8
0
  6
Continuous
 62
     7
370
    25
100
AcDbLine
 10
2120.9319913136
 20
1346.8115657532
 30
0.0
 11
2120.9319913136
 21
1344.3115657532
 31
0.0
  0
LINE
  5
7F
330
1F
100
AcDbEntity
  8
0
  6
Continuous
 62
     7
370
    25
100
AcDbLine
 10
120.9319913136
 20
1344.3115657532
 30
0.0
 11
2120.9319913136
 21
1344.3115657532
 31
0.0
  0
LINE
  5
80
330
1F
100
AcDbEntity
  8
0
  6
Continuous
 62
     7
370
    25
100
AcDbLine
 10
120.9319913136
 20
1346.8115657532
 30
0.0
 11
120.9319913136
 21
1344.3115657532
 31
0.0
  0
LINE
  5
81
330
1F
100
AcDbEntity
  8
0
  6
Continuous
 62
     7
370
    25
100
AcDbLine
 10
120.9319913136
 20
1379.3115657532
 30
0.0
 11
120.9319913136
 21
1346.8115657532
 31
0.0
  0
ARC
  5
82
330
1F
100
AcDbEntity
  8
0
  6
Continuous
 62
     7
370
    25
100
AcDbCircle
 10
204.9319913136
 20
1362.3115657532
 30
0.0
 40
3.500000000000227
100
AcDbArc
 50
270.0
 51
90.0
  0
LINE
  5
83
330
1F
100
AcDbEntity
  8
0
  6
Continuous
 62
     7
370
    25
100
AcDbLine
 10
204.9319913136
 20
1365.8115657532
 30
0.0
 11
186.9319913136
 21
1365.8115657532
 31
0.0
  0
ARC
  5
84
330
1F
100
AcDbEntity
  8
0
  6
Continuous
 62
     7
370
    25
100
AcDbCircle
 10
186.9319913136
 20
1362.3115657532
 30
0.0
 40
3.500000000000455
100
AcDbArc
 50
90.0
 51
270.0
  0
LINE
  5
85
330
1F
100
AcDbEntity
  8
0
  6
Continuous
 62
     7
370
    25
100
AcDbLine
 10
186.9319913136
 20
1358.8115657532
 30
0.0
 11
204.9319913136
 21
1358.8115657532
 31
0.0
  0
ARC
  5
86
330
1F
100
AcDbEntity
  8
0
  6
Continuous
 62
     7
370
    25
100
AcDbCircle
 10
554.9319913136
 20
1362.3115657532
 30
0.0
 40
3.500000000002728
100
AcDbArc
 50
270.0
 51
90.0
  0
LINE
  5
87
330
1F
100
AcDbEntity
  8
0
  6
Continuous
 62
     7
370
    25
100
AcDbLine
 10
554.9319913136
 20
1365.8115657532
 30
0.0
 11
536.9319913136
 21
1365.8115657532
 31
0.0
  0
ARC
  5
88
330
1F
100
AcDbEntity
  8
0
  6
Continuous
 62
     7
370
    25
100
AcDbCircle
 10
536.9319913136
 20
1362.3115657532
 30
0.0
 40
3.500000000005457
100
AcDbArc
 50
90.0
 51
270.0
  0
LINE
  5
89
330
1F
100
AcDbEntity
  8
0
  6
Continuous
 62
     7
370
    25
100
AcDbLine
 10
536.9319913136
 20
1358.8115657532
 30
0.0
 11
554.9319913136
 21
1358.8115657532
 31
0.0
  0
ARC
  5
8A
330
1F
100
AcDbEntity
  8
0
  6
Continuous
 62
     7
370
    25
100
AcDbCircle
 10
504.9319913136
 20
1362.3115657532
 30
0.0
 40
3.500000000002501
100
AcDbArc
 50
270.0
 51
90.0
  0
LINE
  5
8B
330
1F
100
AcDbEntity
  8
0
  6
Continuous
 62
     7
370
    25
100
AcDbLine
 10
504.9319913136
 20
1365.8115657532
 30
0.0
 11
486.9319913136
 21
1365.8115657532
 31
0.0
  0
ARC
  5
8C
330
1F
100
AcDbEntity
  8
0
  6
Continuous
 62
     7
370
    25
100
AcDbCircle
 10
486.9319913136
 20
1362.3115657532
 30
0.0
 40
3.500000000005002
100
AcDbArc
 50
90.0
 51
270.0
  0
LINE
  5
8D
330
1F
100
AcDbEntity
  8
0
  6
Continuous
 62
     7
370
    25
100
AcDbLine
 10
486.9319913136
 20
1358.8115657532
 30
0.0
 11
504.9319913136
 21
1358.8115657532
 31
0.0
  0
ARC
  5
8E
330
1F
100
AcDbEntity
  8
0
  6
Continuous
 62
     7
370
    25
100
AcDbCircle
 10
154.9319913136
 20
1362.3115657532
 30
0.0
 40
3.5
100
AcDbArc
 50
270.0
 51
90.0
  0
LINE
  5
8F
330
1F
100
AcDbEntity
  8
0
  6
Continuous
 62
     7
370
    25
100
AcDbLine
 10
154.9319913136
 20
1365.8115657532
 30
0.0
 11
136.9319913136
 21
1365.8115657532
 31
0.0
  0
ARC
  5
90
330
1F
100
AcDbEntity
  8
0
  6
Continuous
 62
     7
370
    25
100
AcDbCircle
 10
136.9319913136
 20
1362.3115657532
 30
0.0
 40
3.5
100
AcDbArc
 50
90.0
 51
270.0
  0
LINE
  5
91
330
1F
100
AcDbEntity
  8
0
  6
Continuous
 62
     7
370
    25
100
AcDbLine
 10
136.9319913136
 20
1358.8115657532
 30
0.0
 11
154.9319913136
 21
1358.8115657532
 31
0.0
  0
ARC
  5
92
330
1F
100
AcDbEntity
  8
0
  6
Continuous
 62
     7
370
    25
100
AcDbCircle
 10
454.9319913136
 20
1362.3115657532
 30
0.0
 40
3.500000000002046
100
AcDbArc
 50
270.0
 51
90.0
  0
LINE
  5
93
330
1F
100
AcDbEntity
  8
0
  6
Continuous
 62
     7
370
    25
100
AcDbLine
 10
454.9319913136
 20
1365.8115657532
 30
0.0
 11
436.9319913136
 21
1365.8115657532
 31
0.0
  0
ARC
  5
94
330
1F
100
AcDbEntity
  8
0
  6
Continuous
 62
     7
370
    25
100
AcDbCircle
 10
436.9319913136
 20
1362.3115657532
 30
0.0
 40
3.500000000004093
100
AcDbArc
 50
90.0
 51
270.0
  0
LINE
  5
95
330
1F
100
AcDbEntity
  8
0
  6
Continuous
 62
     7
370
    25
100
AcDbLine
 10
436.9319913136
 20
1358.8115657532
 30
0.0
 11
454.9319913136
 21
1358.8115657532
 31
0.0
  0
ARC
  5
96
330
1F
100
AcDbEntity
  8
0
  6
Continuous
 62
     7
370
    25
100
AcDbCircle
 10
404.9319913136
 20
1362.3115657532
 30
0.0
 40
3.500000000001819
100
AcDbArc
 50
270.0
 51
90.0
  0
LINE
  5
97
330
1F
100
AcDbEntity
  8
0
  6
Continuous
 62
     7
370
    25
100
AcDbLine
 10
404.9319913136
 20
1365.8115657532
 30
0.0
 11
386.9319913136
 21
1365.8115657532
 31
0.0
  0
ARC
  5
98
330
1F
100
AcDbEntity
  8
0
  6
Continuous
 62
     7
370
    25
100
AcDbCircle
 10
386.9319913136
 20
1362.3115657532
 30
0.0
 40
3.500000000003638
100
AcDbArc
 50
90.0
 51
270.0
  0
LINE
  5
99
330
1F
100
AcDbEntity
  8
0
  6
Continuous
 62
     7
370
    25
100
AcDbLine
 10
386.9319913136
 20
1358.8115657532
 30
0.0
 11
404.9319913136
 21
1358.8115657532
 31
0.0
  0
ARC
  5
9A
330
1F
100
AcDbEntity
  8
0
  6
Continuous
 62
     7
370
    25
100
AcDbCircle
 10
354.9319913136
 20
1362.3115657532
 30
0.0
 40
3.500000000001364
100
AcDbArc
 50
270.0
 51
90.0
  0
LINE
  5
9B
330
1F
100
AcDbEntity
  8
0
  6
Continuous
 62
     7
370
    25
100
AcDbLine
 10
354.9319913136
 20
1365.8115657532
 30
0.0
 11
336.9319913136
 21
1365.8115657532
 31
0.0
  0
ARC
  5
9C
330
1F
100
AcDbEntity
  8
0
  6
Continuous
 62
     7
370
    25
100
AcDbCircle
 10
336.9319913136
 20
1362.3115657532
 30
0.0
 40
3.500000000002728
100
AcDbArc
 50
90.0
 51
270.0
  0
LINE
  5
9D
330
1F
100
AcDbEntity
  8
0
  6
Continuous
 62
     7
370
    25
100
AcDbLine
 10
336.9319913136
 20
1358.8115657532
 30
0.0
 11
354.9319913136
 21
1358.8115657532
 31
0.0
  0
ARC
  5
9E
330
1F
100
AcDbEntity
  8
0
  6
Continuous
 62
     7
370
    25
100
AcDbCircle
 10
304.9319913136
 20
1362.3115657532
 30
0.0
 40
3.500000000000909
100
AcDbArc
 50
270.0
 51
90.0
  0
LINE
  5
9F
330
1F
100
AcDbEntity
  8
0
  6
Continuous
 62
     7
370
    25
100
AcDbLine
 10
304.9319913136
 20
1365.8115657532
 30
0.0
 11
286.9319913136
 21
1365.8115657532
 31
0.0
  0
ARC
  5
A0
330
1F
100
AcDbEntity
  8
0
  6
Continuous
 62
     7
370
    25
100
AcDbCircle
 10
286.9319913136
 20
1362.3115657532
 30
0.0
 40
3.500000000002046
100
AcDbArc
 50
90.0
 51
270.0
  0
LINE
  5
A1
330
1F
100
AcDbEntity
  8
0
  6
Continuous
 62
     7
370
    25
100
AcDbLine
 10
286.9319913136
 20
1358.8115657532
 30
0.0
 11
304.9319913136
 21
1358.8115657532
 31
0.0
  0
ARC
  5
A2
330
1F
100
AcDbEntity
  8
0
  6
Continuous
 62
     7
370
    25
100
AcDbCircle
 10
254.9319913136
 20
1362.3115657532
 30
0.0
 40
3.500000000000682
100
AcDbArc
 50
270.0
 51
90.0
  0
LINE
  5
A3
330
1F
100
AcDbEntity
  8
0
  6
Continuous
 62
     7
370
    25
100
AcDbLine
 10
254.9319913136
 20
1365.8115657532
 30
0.0
 11
236.9319913136
 21
1365.8115657532
 31
0.0
  0
ARC
  5
A4
330
1F
100
AcDbEntity
  8
0
  6
Continuous
 62
     7
370
    25
100
AcDbCircle
 10
236.9319913136
 20
1362.3115657532
 30
0.0
 40
3.500000000001364
100
AcDbArc
 50
90.0
 51
270.0
  0
LINE
  5
A5
330
1F
100
AcDbEntity
  8
0
  6
Continuous
 62
     7
370
    25
100
AcDbLine
 10
236.9319913136
 20
1358.8115657532
 30
0.0
 11
254.9319913136
 21
1358.8115657532
 31
0.0
  0
ARC
  5
A6
330
1F
100
AcDbEntity
  8
0
  6
Continuous
 62
     7
370
    25
100
AcDbCircle
 10
604.9319913136
 20
1362.3115657532
 30
0.0
 40
3.500000000003183
100
AcDbArc
 50
270.0
 51
90.0
  0
LINE
  5
A7
330
1F
100
AcDbEntity
  8
0
  6
Continuous
 62
     7
370
    25
100
AcDbLine
 10
604.9319913136
 20
1365.8115657532
 30
0.0
 11
586.9319913136
 21
1365.8115657532
 31
0.0
  0
ARC
  5
A8
330
1F
100
AcDbEntity
  8
0
  6
Continuous
 62
     7
370
    25
100
AcDbCircle
 10
586.9319913136
 20
1362.3115657532
 30
0.0
 40
3.500000000006366
100
AcDbArc
 50
90.0
 51
270.0
  0
LINE
  5
A9
330
1F
100
AcDbEntity
  8
0
  6
Continuous
 62
     7
370
    25
100
AcDbLine
 10
586.9319913136
 20
1358.8115657532
 30
0.0
 11
604.9319913136
 21
1358.8115657532
 31
0.0
  0
ARC
  5
AA
330
1F
100
AcDbEntity
  8
0
  6
Continuous
 62
     7
370
    25
100
AcDbCircle
 10
654.9319913136
 20
1362.3115657532
 30
0.0
 40
3.500000000003638
100
AcDbArc
 50
270.0
 51
90.0
  0
LINE
  5
AB
330
1F
100
AcDbEntity
  8
0
  6
Continuous
 62
     7
370
    25
100
AcDbLine
 10
654.9319913136
 20
1365.8115657532
 30
0.0
 11
636.9319913136
 21
1365.8115657532
 31
0.0
  0
ARC
  5
AC
330
1F
100
AcDbEntity
  8
0
  6
Continuous
 62
     7
370
    25
100
AcDbCircle
 10
636.9319913136
 20
1362.3115657532
 30
0.0
 40
3.500000000007276
100
AcDbArc
 50
90.0
 51
270.0
  0
LINE
  5
AD
330
1F
100
AcDbEntity
  8
0
  6
Continuous
 62
     7
370
    25
100
AcDbLine
 10
636.9319913136
 20
1358.8115657532
 30
0.0
 11
654.9319913136
 21
1358.8115657532
 31
0.0
  0
ARC
  5
AE
330
1F
100
AcDbEntity
  8
0
  6
Continuous
 62
     7
370
    25
100
AcDbCircle
 10
704.9319913136
 20
1362.3115657532
 30
0.0
 40
3.500000000003865
100
AcDbArc
 50
270.0
 51
90.0
  0
LINE
  5
AF
330
1F
100
AcDbEntity
  8
0
  6
Continuous
 62
     7
370
    25
100
AcDbLine
 10
704.9319913136
 20
1365.8115657532
 30
0.0
 11
686.9319913136
 21
1365.8115657532
 31
0.0
  0
ARC
  5
B0
330
1F
100
AcDbEntity
  8
0
  6
Continuous
 62
     7
370
    25
100
AcDbCircle
 10
686.9319913136
 20
1362.3115657532
 30
0.0
 40
3.500000000007731
100
AcDbArc
 50
90.0
 51
270.0
  0
LINE
  5
B1
330
1F
100
AcDbEntity
  8
0
  6
Continuous
 62
     7
370
    25
100
AcDbLine
 10
686.9319913136
 20
1358.8115657532
 30
0.0
 11
704.9319913136
 21
1358.8115657532
 31
0.0
  0
ARC
  5
B2
330
1F
100
AcDbEntity
  8
0
  6
Continuous
 62
     7
370
    25
100
AcDbCircle
 10
754.9319913136
 20
1362.3115657532
 30
0.0
 40
3.50000000000432
100
AcDbArc
 50
270.0
 51
90.0
  0
LINE
  5
B3
330
1F
100
AcDbEntity
  8
0
  6
Continuous
 62
     7
370
    25
100
AcDbLine
 10
754.9319913136
 20
1365.8115657532
 30
0.0
 11
736.9319913136
 21
1365.8115657532
 31
0.0
  0
ARC
  5
B4
330
1F
100
AcDbEntity
  8
0
  6
Continuous
 62
     7
370
    25
100
AcDbCircle
 10
736.9319913136
 20
1362.3115657532
 30
0.0
 40
3.50000000000864
100
AcDbArc
 50
90.0
 51
270.0
  0
LINE
  5
B5
330
1F
100
AcDbEntity
  8
0
  6
Continuous
 62
     7
370
    25
100
AcDbLine
 10
736.9319913136
 20
1358.8115657532
 30
0.0
 11
754.9319913136
 21
1358.8115657532
 31
0.0
  0
ARC
  5
B6
330
1F
100
AcDbEntity
  8
0
  6
Continuous
 62
     7
370
    25
100
AcDbCircle
 10
804.9319913136
 20
1362.3115657532
 30
0.0
 40
3.500000000004547
100
AcDbArc
 50
270.0
 51
90.0
  0
LINE
  5
B7
330
1F
100
AcDbEntity
  8
0
  6
Continuous
 62
     7
370
    25
100
AcDbLine
 10
804.9319913136
 20
1365.8115657532
 30
0.0
 11
786.9319913136
 21
1365.8115657532
 31
0.0
  0
ARC
  5
B8
330
1F
100
AcDbEntity
  8
0
  6
Continuous
 62
     7
370
    25
100
AcDbCircle
 10
786.9319913136
 20
1362.3115657532
 30
0.0
 40
3.500000000009095
100
AcDbArc
 50
90.0
 51
270.0
  0
LINE
  5
B9
330
1F
100
AcDbEntity
  8
0
  6
Continuous
 62
     7
370
    25
100
AcDbLine
 10
786.9319913136
 20
1358.8115657532
 30
0.0
 11
804.9319913136
 21
1358.8115657532
 31
0.0
  0
ARC
  5
BA
330
1F
100
AcDbEntity
  8
0
  6
Continuous
 62
     7
370
    25
100
AcDbCircle
 10
854.9319913136
 20
1362.3115657532
 30
0.0
 40
3.500000000004775
100
AcDbArc
 50
270.0
 51
90.0
  0
LINE
  5
BB
330
1F
100
AcDbEntity
  8
0
  6
Continuous
 62
     7
370
    25
100
AcDbLine
 10
854.9319913136
 20
1365.8115657532
 30
0.0
 11
836.9319913136
 21
1365.8115657532
 31
0.0
  0
ARC
  5
BC
330
1F
100
AcDbEntity
  8
0
  6
Continuous
 62
     7
370
    25
100
AcDbCircle
 10
836.9319913136
 20
1362.3115657532
 30
0.0
 40
3.500000000009777
100
AcDbArc
 50
90.0
 51
270.0
  0
LINE
  5
BD
330
1F
100
AcDbEntity
  8
0
  6
Continuous
 62
     7
370
    25
100
AcDbLine
 10
836.9319913136
 20
1358.8115657532
 30
0.0
 11
854.9319913136
 21
1358.8115657532
 31
0.0
  0
ARC
  5
BE
330
1F
100
AcDbEntity
  8
0
  6
Continuous
 62
     7
370
    25
100
AcDbCircle
 10
904.9319913136
 20
1362.3115657532
 30
0.0
 40
3.500000000005002
100
AcDbArc
 50
270.0
 51
90.0
  0
LINE
  5
BF
330
1F
100
AcDbEntity
  8
0
  6
Continuous
 62
     7
370
    25
100
AcDbLine
 10
904.9319913136
 20
1365.8115657532
 30
0.0
 11
886.9319913136
 21
1365.8115657532
 31
0.0
  0
ARC
  5
C0
330
1F
100
AcDbEntity
  8
0
  6
Continuous
 62
     7
370
    25
100
AcDbCircle
 10
886.9319913136
 20
1362.3115657532
 30
0.0
 40
3.500000000010232
100
AcDbArc
 50
90.0
 51
270.0
  0
LINE
  5
C1
330
1F
100
AcDbEntity
  8
0
  6
Continuous
 62
     7
370
    25
100
AcDbLine
 10
886.9319913136
 20
1358.8115657532
 30
0.0
 11
904.9319913136
 21
1358.8115657532
 31
0.0
  0
ARC
  5
C2
330
1F
100
AcDbEntity
  8
0
  6
Continuous
 62
     7
370
    25
100
AcDbCircle
 10
954.9319913136
 20
1362.3115657532
 30
0.0
 40
3.500000000005457
100
AcDbArc
 50
270.0
 51
90.0
  0
LINE
  5
C3
330
1F
100
AcDbEntity
  8
0
  6
Continuous
 62
     7
370
    25
100
AcDbLine
 10
954.9319913136
 20
1365.8115657532
 30
0.0
 11
936.9319913136
 21
1365.8115657532
 31
0.0
  0
ARC
  5
C4
330
1F
100
AcDbEntity
  8
0
  6
Continuous
 62
     7
370
    25
100
AcDbCircle
 10
936.9319913136
 20
1362.3115657532
 30
0.0
 40
3.500000000011141
100
AcDbArc
 50
90.0
 51
270.0
  0
LINE
  5
C5
330
1F
100
AcDbEntity
  8
0
  6
Continuous
 62
     7
370
    25
100
AcDbLine
 10
936.9319913136
 20
1358.8115657532
 30
0.0
 11
954.9319913136
 21
1358.8115657532
 31
0.0
  0
ARC
  5
C6
330
1F
100
AcDbEntity
  8
0
  6
Continuous
 62
     7
370
    25
100
AcDbCircle
 10
1004.9319913136
 20
1362.3115657532
 30
0.0
 40
3.500000000005912
100
AcDbArc
 50
270.0
 51
90.0
  0
LINE
  5
C7
330
1F
100
AcDbEntity
  8
0
  6
Continuous
 62
     7
370
    25
100
AcDbLine
 10
1004.9319913136
 20
1365.8115657532
 30
0.0
 11
986.9319913136
 21
1365.8115657532
 31
0.0
  0
ARC
  5
C8
330
1F
100
AcDbEntity
  8
0
  6
Continuous
 62
     7
370
    25
100
AcDbCircle
 10
986.9319913136
 20
1362.3115657532
 30
0.0
 40
3.500000000012051
100
AcDbArc
 50
90.0
 51
270.0
  0
LINE
  5
C9
330
1F
100
AcDbEntity
  8
0
  6
Continuous
 62
     7
370
    25
100
AcDbLine
 10
986.9319913136
 20
1358.8115657532
 30
0.0
 11
1004.9319913136
 21
1358.8115657532
 31
0.0
  0
ARC
  5
CA
330
1F
100
AcDbEntity
  8
0
  6
Continuous
 62
     7
370
    25
100
AcDbCircle
 10
1054.9319913136
 20
1362.3115657532
 30
0.0
 40
3.500000000006139
100
AcDbArc
 50
270.0
 51
90.0
  0
LINE
  5
CB
330
1F
100
AcDbEntity
  8
0
  6
Continuous
 62
     7
370
    25
100
AcDbLine
 10
1054.9319913136
 20
1365.8115657532
 30
0.0
 11
1036.9319913136
 21
1365.8115657532
 31
0.0
  0
ARC
  5
CC
330
1F
100
AcDbEntity
  8
0
  6
Continuous
 62
     7
370
    25
100
AcDbCircle
 10
1036.9319913136
 20
1362.3115657532
 30
0.0
 40
3.500000000012506
100
AcDbArc
 50
90.0
 51
270.0
  0
LINE
  5
CD
330
1F
100
AcDbEntity
  8
0
  6
Continuous
 62
     7
370
    25
100
AcDbLine
 10
1036.9319913136
 20
1358.8115657532
 30
0.0
 11
1054.9319913136
 21
1358.8115657532
 31
0.0
  0
ARC
  5
CE
330
1F
100
AcDbEntity
  8
0
  6
Continuous
 62
     7
370
    25
100
AcDbCircle
 10
1104.9319913136
 20
1362.3115657532
 30
0.0
 40
3.500000000006594
100
AcDbArc
 50
270.0
 51
90.0
  0
LINE
  5
CF
330
1F
100
AcDbEntity
  8
0
  6
Continuous
 62
     7
370
    25
100
AcDbLine
 10
1104.9319913136
 20
1365.8115657532
 30
0.0
 11
1086.9319913136
 21
1365.8115657532
 31
0.0
  0
ARC
  5
D0
330
1F
100
AcDbEntity
  8
0
  6
Continuous
 62
     7
370
    25
100
AcDbCircle
 10
1086.9319913136
 20
1362.3115657532
 30
0.0
 40
3.500000000013415
100
AcDbArc
 50
90.0
 51
270.0
  0
LINE
  5
D1
330
1F
100
AcDbEntity
  8
0
  6
Continuous
 62
     7
370
    25
100
AcDbLine
 10
1086.9319913136
 20
1358.8115657532
 30
0.0
 11
1104.9319913136
 21
1358.8115657532
 31
0.0
  0
ARC
  5
D2
330
1F
100
AcDbEntity
  8
0
  6
Continuous
 62
     7
370
    25
100
AcDbCircle
 10
1154.9319913136
 20
1362.3115657532
 30
0.0
 40
3.500000000006821
100
AcDbArc
 50
270.0
 51
90.0
  0
LINE
  5
D3
330
1F
100
AcDbEntity
  8
0
  6
Continuous
 62
     7
370
    25
100
AcDbLine
 10
1154.9319913136
 20
1365.8115657532
 30
0.0
 11
1136.9319913136
 21
1365.8115657532
 31
0.0
  0
ARC
  5
D4
330
1F
100
AcDbEntity
  8
0
  6
Continuous
 62
     7
370
    25
100
AcDbCircle
 10
1136.9319913136
 20
1362.3115657532
 30
0.0
 40
3.50000000001387
100
AcDbArc
 50
90.0
 51
270.0
  0
LINE
  5
D5
330
1F
100
AcDbEntity
  8
0
  6
Continuous
 62
     7
370
    25
100
AcDbLine
 10
1136.9319913136
 20
1358.8115657532
 30
0.0
 11
1154.9319913136
 21
1358.8115657532
 31
0.0
  0
ARC
  5
D6
330
1F
100
AcDbEntity
  8
0
  6
Continuous
 62
     7
370
    25
100
AcDbCircle
 10
1204.9319913136
 20
1362.3115657532
 30
0.0
 40
3.500000000007276
100
AcDbArc
 50
270.0
 51
90.0
  0
LINE
  5
D7
330
1F
100
AcDbEntity
  8
0
  6
Continuous
 62
     7
370
    25
100
AcDbLine
 10
1204.9319913136
 20
1365.8115657532
 30
0.0
 11
1186.9319913136
 21
1365.8115657532
 31
0.0
  0
ARC
  5
D8
330
1F
100
AcDbEntity
  8
0
  6
Continuous
 62
     7
370
    25
100
AcDbCircle
 10
1186.9319913136
 20
1362.3115657532
 30
0.0
 40
3.500000000014552
100
AcDbArc
 50
90.0
 51
270.0
  0
LINE
  5
D9
330
1F
100
AcDbEntity
  8
0
  6
Continuous
 62
     7
370
    25
100
AcDbLine
 10
1186.9319913136
 20
1358.8115657532
 30
0.0
 11
1204.9319913136
 21
1358.8115657532
 31
0.0
  0
ARC
  5
DA
330
1F
100
AcDbEntity
  8
0
  6
Continuous
 62
     7
370
    25
100
AcDbCircle
 10
1254.9319913136
 20
1362.3115657532
 30
0.0
 40
3.500000000007503
100
AcDbArc
 50
270.0
 51
90.0
  0
LINE
  5
DB
330
1F
100
AcDbEntity
  8
0
  6
Continuous
 62
     7
370
    25
100
AcDbLine
 10
1254.9319913136
 20
1365.8115657532
 30
0.0
 11
1236.9319913136
 21
1365.8115657532
 31
0.0
  0
ARC
  5
DC
330
1F
100
AcDbEntity
  8
0
  6
Continuous
 62
     7
370
    25
100
AcDbCircle
 10
1236.9319913136
 20
1362.3115657532
 30
0.0
 40
3.500000000015234
100
AcDbArc
 50
90.0
 51
270.0
  0
LINE
  5
DD
330
1F
100
AcDbEntity
  8
0
  6
Continuous
 62
     7
370
    25
100
AcDbLine
 10
1236.9319913136
 20
1358.8115657532
 30
0.0
 11
1254.9319913136
 21
1358.8115657532
 31
0.0
  0
ARC
  5
DE
330
1F
100
AcDbEntity
  8
0
  6
Continuous
 62
     7
370
    25
100
AcDbCircle
 10
1304.9319913136
 20
1362.3115657532
 30
0.0
 40
3.500000000007958
100
AcDbArc
 50
270.0
 51
90.0
  0
LINE
  5
DF
330
1F
100
AcDbEntity
  8
0
  6
Continuous
 62
     7
370
    25
100
AcDbLine
 10
1304.9319913136
 20
1365.8115657532
 30
0.0
 11
1286.9319913136
 21
1365.8115657532
 31
0.0
  0
ARC
  5
E0
330
1F
100
AcDbEntity
  8
0
  6
Continuous
 62
     7
370
    25
100
AcDbCircle
 10
1286.9319913136
 20
1362.3115657532
 30
0.0
 40
3.500000000015916
100
AcDbArc
 50
90.0
 51
270.0
  0
LINE
  5
E1
330
1F
100
AcDbEntity
  8
0
  6
Continuous
 62
     7
370
    25
100
AcDbLine
 10
1286.9319913136
 20
1358.8115657532
 30
0.0
 11
1304.9319913136
 21
1358.8115657532
 31
0.0
  0
ARC
  5
E2
330
1F
100
AcDbEntity
  8
0
  6
Continuous
 62
     7
370
    25
100
AcDbCircle
 10
1354.9319913136
 20
1362.3115657532
 30
0.0
 40
3.500000000008413
100
AcDbArc
 50
270.0
 51
90.0
  0
LINE
  5
E3
330
1F
100
AcDbEntity
  8
0
  6
Continuous
 62
     7
370
    25
100
AcDbLine
 10
1354.9319913136
 20
1365.8115657532
 30
0.0
 11
1336.9319913136
 21
1365.8115657532
 31
0.0
  0
ARC
  5
E4
330
1F
100
AcDbEntity
  8
0
  6
Continuous
 62
     7
370
    25
100
AcDbCircle
 10
1336.9319913136
 20
1362.3115657532
 30
0.0
 40
3.500000000016826
100
AcDbArc
 50
90.0
 51
270.0
  0
LINE
  5
E5
330
1F
100
AcDbEntity
  8
0
  6
Continuous
 62
     7
370
    25
100
AcDbLine
 10
1336.9319913136
 20
1358.8115657532
 30
0.0
 11
1354.9319913136
 21
1358.8115657532
 31
0.0
  0
ARC
  5
E6
330
1F
100
AcDbEntity
  8
0
  6
Continuous
 62
     7
370
    25
100
AcDbCircle
 10
1404.9319913136
 20
1362.3115657532
 30
0.0
 40
3.50000000000864
100
AcDbArc
 50
270.0
 51
90.0
  0
LINE
  5
E7
330
1F
100
AcDbEntity
  8
0
  6
Continuous
 62
     7
370
    25
100
AcDbLine
 10
1404.9319913136
 20
1365.8115657532
 30
0.0
 11
1386.9319913136
 21
1365.8115657532
 31
0.0
  0
ARC
  5
E8
330
1F
100
AcDbEntity
  8
0
  6
Continuous
 62
     7
370
    25
100
AcDbCircle
 10
1386.9319913136
 20
1362.3115657532
 30
0.0
 40
3.50000000001728
100
AcDbArc
 50
90.0
 51
270.0
  0
LINE
  5
E9
330
1F
100
AcDbEntity
  8
0
  6
Continuous
 62
     7
370
    25
100
AcDbLine
 10
1386.9319913136
 20
1358.8115657532
 30
0.0
 11
1404.9319913136
 21
1358.8115657532
 31
0.0
  0
ARC
  5
EA
330
1F
100
AcDbEntity
  8
0
  6
Continuous
 62
     7
370
    25
100
AcDbCircle
 10
1454.9319913136
 20
1362.3115657532
 30
0.0
 40
3.500000000009095
100
AcDbArc
 50
270.0
 51
90.0
  0
LINE
  5
EB
330
1F
100
AcDbEntity
  8
0
  6
Continuous
 62
     7
370
    25
100
AcDbLine
 10
1454.9319913136
 20
1365.8115657532
 30
0.0
 11
1436.9319913136
 21
1365.8115657532
 31
0.0
  0
ARC
  5
EC
330
1F
100
AcDbEntity
  8
0
  6
Continuous
 62
     7
370
    25
100
AcDbCircle
 10
1436.9319913136
 20
1362.3115657532
 30
0.0
 40
3.50000000001819
100
AcDbArc
 50
90.0
 51
270.0
  0
LINE
  5
ED
330
1F
100
AcDbEntity
  8
0
  6
Continuous
 62
     7
370
    25
100
AcDbLine
 10
1436.9319913136
 20
1358.8115657532
 30
0.0
 11
1454.9319913136
 21
1358.8115657532
 31
0.0
  0
ARC
  5
EE
330
1F
100
AcDbEntity
  8
0
  6
Continuous
 62
     7
370
    25
100
AcDbCircle
 10
1504.9319913136
 20
1362.3115657532
 30
0.0
 40
3.500000000009322
100
AcDbArc
 50
270.0
 51
90.0
  0
LINE
  5
EF
330
1F
100
AcDbEntity
  8
0
  6
Continuous
 62
     7
370
    25
100
AcDbLine
 10
1504.9319913136
 20
1365.8115657532
 30
0.0
 11
1486.9319913136
 21
1365.8115657532
 31
0.0
  0
ARC
  5
F0
330
1F
100
AcDbEntity
  8
0
  6
Continuous
 62
     7
370
    25
100
AcDbCircle
 10
1486.9319913136
 20
1362.3115657532
 30
0.0
 40
3.500000000018645
100
AcDbArc
 50
90.0
 51
270.0
  0
LINE
  5
F1
330
1F
100
AcDbEntity
  8
0
  6
Continuous
 62
     7
370
    25
100
AcDbLine
 10
1486.9319913136
 20
1358.8115657532
 30
0.0
 11
1504.9319913136
 21
1358.8115657532
 31
0.0
  0
ARC
  5
F2
330
1F
100
AcDbEntity
  8
0
  6
Continuous
 62
     7
370
    25
100
AcDbCircle
 10
1554.9319913136
 20
1362.3115657532
 30
0.0
 40
3.500000000009777
100
AcDbArc
 50
270.0
 51
90.0
  0
LINE
  5
F3
330
1F
100
AcDbEntity
  8
0
  6
Continuous
 62
     7
370
    25
100
AcDbLine
 10
1554.9319913136
 20
1365.8115657532
 30
0.0
 11
1536.9319913136
 21
1365.8115657532
 31
0.0
  0
ARC
  5
F4
330
1F
100
AcDbEntity
  8
0
  6
Continuous
 62
     7
370
    25
100
AcDbCircle
 10
1536.9319913136
 20
1362.3115657532
 30
0.0
 40
3.500000000019554
100
AcDbArc
 50
90.0
 51
270.0
  0
LINE
  5
F5
330
1F
100
AcDbEntity
  8
0
  6
Continuous
 62
     7
370
    25
100
AcDbLine
 10
1536.9319913136
 20
1358.8115657532
 30
0.0
 11
1554.9319913136
 21
1358.8115657532
 31
0.0
  0
ARC
  5
F6
330
1F
100
AcDbEntity
  8
0
  6
Continuous
 62
     7
370
    25
100
AcDbCircle
 10
1604.9319913136
 20
1362.3115657532
 30
0.0
 40
3.500000000010004
100
AcDbArc
 50
270.0
 51
90.0
  0
LINE
  5
F7
330
1F
100
AcDbEntity
  8
0
  6
Continuous
 62
     7
370
    25
100
AcDbLine
 10
1604.9319913136
 20
1365.8115657532
 30
0.0
 11
1586.9319913136
 21
1365.8115657532
 31
0.0
  0
ARC
  5
F8
330
1F
100
AcDbEntity
  8
0
  6
Continuous
 62
     7
370
    25
100
AcDbCircle
 10
1586.9319913136
 20
1362.3115657532
 30
0.0
 40
3.500000000020009
100
AcDbArc
 50
90.0
 51
270.0
  0
LINE
  5
F9
330
1F
100
AcDbEntity
  8
0
  6
Continuous
 62
     7
370
    25
100
AcDbLine
 10
1586.9319913136
 20
1358.8115657532
 30
0.0
 11
1604.9319913136
 21
1358.8115657532
 31
0.0
  0
ARC
  5
FA
330
1F
100
AcDbEntity
  8
0
  6
Continuous
 62
     7
370
    25
100
AcDbCircle
 10
1654.9319913136
 20
1362.3115657532
 30
0.0
 40
3.500000000010459
100
AcDbArc
 50
270.0
 51
90.0
  0
LINE
  5
FB
330
1F
100
AcDbEntity
  8
0
  6
Continuous
 62
     7
370
    25
100
AcDbLine
 10
1654.9319913136
 20
1365.8115657532
 30
0.0
 11
1636.9319913136
 21
1365.8115657532
 31
0.0
  0
ARC
  5
FC
330
1F
100
AcDbEntity
  8
0
  6
Continuous
 62
     7
370
    25
100
AcDbCircle
 10
1636.9319913136
 20
1362.3115657532
 30
0.0
 40
3.500000000020918
100
AcDbArc
 50
90.0
 51
270.0
  0
LINE
  5
FD
330
1F
100
AcDbEntity
  8
0
  6
Continuous
 62
     7
370
    25
100
AcDbLine
 10
1636.9319913136
 20
1358.8115657532
 30
0.0
 11
1654.9319913136
 21
1358.8115657532
 31
0.0
  0
ARC
  5
FE
330
1F
100
AcDbEntity
  8
0
  6
Continuous
 62
     7
370
    25
100
AcDbCircle
 10
1704.9319913136
 20
1362.3115657532
 30
0.0
 40
3.500000000010914
100
AcDbArc
 50
270.0
 51
90.0
  0
LINE
  5
FF
330
1F
100
AcDbEntity
  8
0
  6
Continuous
 62
     7
370
    25
100
AcDbLine
 10
1704.9319913136
 20
1365.8115657532
 30
0.0
 11
1686.9319913136
 21
1365.8115657532
 31
0.0
  0
ARC
  5
100
330
1F
100
AcDbEntity
  8
0
  6
Continuous
 62
     7
370
    25
100
AcDbCircle
 10
1686.9319913136
 20
1362.3115657532
 30
0.0
 40
3.500000000021828
100
AcDbArc
 50
90.0
 51
270.0
  0
LINE
  5
101
330
1F
100
AcDbEntity
  8
0
  6
Continuous
 62
     7
370
    25
100
AcDbLine
 10
1686.9319913136
 20
1358.8115657532
 30
0.0
 11
1704.9319913136
 21
1358.8115657532
 31
0.0
  0
ARC
  5
102
330
1F
100
AcDbEntity
  8
0
  6
Continuous
 62
     7
370
    25
100
AcDbCircle
 10
1754.9319913136
 20
1362.3115657532
 30
0.0
 40
3.500000000011141
100
AcDbArc
 50
270.0
 51
90.0
  0
LINE
  5
103
330
1F
100
AcDbEntity
  8
0
  6
Continuous
 62
     7
370
    25
100
AcDbLine
 10
1754.9319913136
 20
1365.8115657532
 30
0.0
 11
1736.9319913136
 21
1365.8115657532
 31
0.0
  0
ARC
  5
104
330
1F
100
AcDbEntity
  8
0
  6
Continuous
 62
     7
370
    25
100
AcDbCircle
 10
1736.9319913136
 20
1362.3115657532
 30
0.0
 40
3.500000000022283
100
AcDbArc
 50
90.0
 51
270.0
  0
LINE
  5
105
330
1F
100
AcDbEntity
  8
0
  6
Continuous
 62
     7
370
    25
100
AcDbLine
 10
1736.9319913136
 20
1358.8115657532
 30
0.0
 11
1754.9319913136
 21
1358.8115657532
 31
0.0
  0
ARC
  5
106
330
1F
100
AcDbEntity
  8
0
  6
Continuous
 62
     7
370
    25
100
AcDbCircle
 10
1804.9319913136
 20
1362.3115657532
 30
0.0
 40
3.500000000011596
100
AcDbArc
 50
270.0
 51
90.0
  0
LINE
  5
107
330
1F
100
AcDbEntity
  8
0
  6
Continuous
 62
     7
370
    25
100
AcDbLine
 10
1804.9319913136
 20
1365.8115657532
 30
0.0
 11
1786.9319913136
 21
1365.8115657532
 31
0.0
  0
ARC
  5
108
330
1F
100
AcDbEntity
  8
0
  6
Continuous
 62
     7
370
    25
100
AcDbCircle
 10
1786.9319913136
 20
1362.3115657532
 30
0.0
 40
3.500000000023192
100
AcDbArc
 50
90.0
 51
270.0
  0
LINE
  5
109
330
1F
100
AcDbEntity
  8
0
  6
Continuous
 62
     7
370
    25
100
AcDbLine
 10
1786.9319913136
 20
1358.8115657532
 30
0.0
 11
1804.9319913136
 21
1358.8115657532
 31
0.0
  0
ARC
  5
10A
330
1F
100
AcDbEntity
  8
0
  6
Continuous
 62
     7
370
    25
100
AcDbCircle
 10
1854.9319913136
 20
1362.3115657532
 30
0.0
 40
3.500000000011823
100
AcDbArc
 50
270.0
 51
90.0
  0
LINE
  5
10B
330
1F
100
AcDbEntity
  8
0
  6
Continuous
 62
     7
370
    25
100
AcDbLine
 10
1854.9319913136
 20
1365.8115657532
 30
0.0
 11
1836.9319913136
 21
1365.8115657532
 31
0.0
  0
ARC
  5
10C
330
1F
100
AcDbEntity
  8
0
  6
Continuous
 62
     7
370
    25
100
AcDbCircle
 10
1836.9319913136
 20
1362.3115657532
 30
0.0
 40
3.500000000023647
100
AcDbArc
 50
90.0
 51
270.0
  0
LINE
  5
10D
330
1F
100
AcDbEntity
  8
0
  6
Continuous
 62
     7
370
    25
100
AcDbLine
 10
1836.9319913136
 20
1358.8115657532
 30
0.0
 11
1854.9319913136
 21
1358.8115657532
 31
0.0
  0
ARC
  5
10E
330
1F
100
AcDbEntity
  8
0
  6
Continuous
 62
     7
370
    25
100
AcDbCircle
 10
1904.9319913136
 20
1362.3115657532
 30
0.0
 40
3.500000000012278
100
AcDbArc
 50
270.0
 51
90.0
  0
LINE
  5
10F
330
1F
100
AcDbEntity
  8
0
  6
Continuous
 62
     7
370
    25
100
AcDbLine
 10
1904.9319913136
 20
1365.8115657532
 30
0.0
 11
1886.9319913136
 21
1365.8115657532
 31
0.0
  0
ARC
  5
110
330
1F
100
AcDbEntity
  8
0
  6
Continuous
 62
     7
370
    25
100
AcDbCircle
 10
1886.9319913136
 20
1362.3115657532
 30
0.0
 40
3.500000000024556
100
AcDbArc
 50
90.0
 51
270.0
  0
LINE
  5
111
330
1F
100
AcDbEntity
  8
0
  6
Continuous
 62
     7
370
    25
100
AcDbLine
 10
1886.9319913136
 20
1358.8115657532
 30
0.0
 11
1904.9319913136
 21
1358.8115657532
 31
0.0
  0
ARC
  5
112
330
1F
100
AcDbEntity
  8
0
  6
Continuous
 62
     7
370
    25
100
AcDbCircle
 10
1954.9319913136
 20
1362.3115657532
 30
0.0
 40
3.500000000012506
100
AcDbArc
 50
270.0
 51
90.0
  0
LINE
  5
113
330
1F
100
AcDbEntity
  8
0
  6
Continuous
 62
     7
370
    25
100
AcDbLine
 10
1954.9319913136
 20
1365.8115657532
 30
0.0
 11
1936.9319913136
 21
1365.8115657532
 31
0.0
  0
ARC
  5
114
330
1F
100
AcDbEntity
  8
0
  6
Continuous
 62
     7
370
    25
100
AcDbCircle
 10
1936.9319913136
 20
1362.3115657532
 30
0.0
 40
3.500000000025238
100
AcDbArc
 50
90.0
 51
270.0
  0
LINE
  5
115
330
1F
100
AcDbEntity
  8
0
  6
Continuous
 62
     7
370
    25
100
AcDbLine
 10
1936.9319913136
 20
1358.8115657532
 30
0.0
 11
1954.9319913136
 21
1358.8115657532
 31
0.0
  0
ARC
  5
116
330
1F
100
AcDbEntity
  8
0
  6
Continuous
 62
     7
370
    25
100
AcDbCircle
 10
2004.9319913136
 20
1362.3115657532
 30
0.0
 40
3.50000000001296
100
AcDbArc
 50
270.0
 51
90.0
  0
LINE
  5
117
330
1F
100
AcDbEntity
  8
0
  6
Continuous
 62
     7
370
    25
100
AcDbLine
 10
2004.9319913136
 20
1365.8115657532
 30
0.0
 11
1986.9319913136
 21
1365.8115657532
 31
0.0
  0
ARC
  5
118
330
1F
100
AcDbEntity
  8
0
  6
Continuous
 62
     7
370
    25
100
AcDbCircle
 10
1986.9319913136
 20
1362.3115657532
 30
0.0
 40
3.500000000025921
100
AcDbArc
 50
90.0
 51
270.0
  0
LINE
  5
119
330
1F
100
AcDbEntity
  8
0
  6
Continuous
 62
     7
370
    25
100
AcDbLine
 10
1986.9319913136
 20
1358.8115657532
 30
0.0
 11
2004.9319913136
 21
1358.8115657532
 31
0.0
  0
ARC
  5
11A
330
1F
100
AcDbEntity
  8
0
  6
Continuous
 62
     7
370
    25
100
AcDbCircle
 10
2054.9319913136
 20
1362.3115657532
 30
0.0
 40
3.500000000013415
100
AcDbArc
 50
270.0
 51
90.0
  0
LINE
  5
11B
330
1F
100
AcDbEntity
  8
0
  6
Continuous
 62
     7
370
    25
100
AcDbLine
 10
2054.9319913136
 20
1365.8115657532
 30
0.0
 11
2036.9319913136
 21
1365.8115657532
 31
0.0
  0
ARC
  5
11C
330
1F
100
AcDbEntity
  8
0
  6
Continuous
 62
     7
370
    25
100
AcDbCircle
 10
2036.9319913136
 20
1362.3115657532
 30
0.0
 40
3.50000000002683
100
AcDbArc
 50
90.0
 51
270.0
  0
LINE
  5
11D
330
1F
100
AcDbEntity
  8
0
  6
Continuous
 62
     7
370
    25
100
AcDbLine
 10
2036.9319913136
 20
1358.8115657532
 30
0.0
 11
2054.9319913136
 21
1358.8115657532
 31
0.0
  0
ARC
  5
11E
330
1F
100
AcDbEntity
  8
0
  6
Continuous
 62
     7
370
    25
100
AcDbCircle
 10
2104.9319913136
 20
1362.3115657532
 30
0.0
 40
3.500000000013642
100
AcDbArc
 50
270.0
 51
90.0
  0
LINE
  5
11F
330
1F
100
AcDbEntity
  8
0
  6
Continuous
 62
     7
370
    25
100
AcDbLine
 10
2104.9319913136
 20
1365.8115657532
 30
0.0
 11
2086.9319913136
 21
1365.8115657532
 31
0.0
  0
ARC
  5
120
330
1F
100
AcDbEntity
  8
0
  6
Continuous
 62
     7
370
    25
100
AcDbCircle
 10
2086.9319913136
 20
1362.3115657532
 30
0.0
 40
3.500000000027285
100
AcDbArc
 50
90.0
 51
270.0
  0
LINE
  5
121
330
1F
100
AcDbEntity
  8
0
  6
Continuous
 62
     7
370
    25
100
AcDbLine
 10
2086.9319913136
 20
1358.8115657532
 30
0.0
 11
2104.9319913136
 21
1358.8115657532
 31
0.0
  0
LINE
  5
122
330
1F
100
AcDbEntity
  8
0
  6
Continuous
 62
     7
370
    25
100
AcDbLine
 10
2120.9319913136
 20
1381.226676861
 30
0.0
 11
2120.9319913136
 21
1384.4875318437
 31
0.0
  0
LINE
  5
123
330
1F
100
AcDbEntity
  8
0
  6
Continuous
 62
     7
370
    25
100
AcDbLine
 10
120.9319913136
 20
1384.4875318437
 30
0.0
 11
120.9319913136
 21
1381.226676861
 31
0.0
  0
LINE
  5
124
330
1F
100
AcDbEntity
  8
0
  6
Continuous
 62
     7
370
    25
100
AcDbLine
 10
120.9319913136
 20
1384.4875318437
 30
0.0
 11
2120.9319913136
 21
1384.4875318437
 31
0.0
  0
LINE
  5
125
330
1F
100
AcDbEntity
  8
0
  6
Continuous
 62
     7
370
    25
100
AcDbLine
 10
120.9319913136
 20
1381.226676861
 30
0.0
 11
120.9319913136
 21
1380.4773348986
 31
0.0
  0
LINE
  5
126
330
1F
100
AcDbEntity
  8
0
  6
Continuous
 62
     7
370
    25
100
AcDbLine
 10
2120.9319913136
 20
1381.226676861
 30
0.0
 11
2120.9319913136
 21
1380.4773348986
 31
0.0
  0
LINE
  5
127
330
1F
100
AcDbEntity
  8
0
  6
Continuous
 62
     7
370
    25
100
AcDbLine
 10
120.9319913136
 20
1389.5872440321
 30
0.0
 11
2120.9319913136
 21
1389.5872440321
 31
0.0
  0
LINE
  5
128
330
1F
100
AcDbEntity
  8
0
  6
Continuous
 62
     7
370
    25
100
AcDbLine
 10
2120.9319913136
 20
1389.5872440321
 30
0.0
 11
2120.9319913136
 21
1384.4875318437
 31
0.0
  0
LINE
  5
129
330
1F
100
AcDbEntity
  8
0
  6
Continuous
 62
     7
370
    25
100
AcDbLine
 10
120.9319913136
 20
1389.5872440321
 30
0.0
 11
120.9319913136
 21
1384.4875318437
 31
0.0
  0
LINE
  5
12A
330
1F
100
AcDbEntity
  8
0
  6
Continuous
 62
     7
370
    25
100
AcDbLine
 10
120.9319913136
 20
1394.2778734114
 30
0.0
 11
120.9319913136
 21
1389.5872440321
 31
0.0
  0
LINE
  5
12B
330
1F
100
AcDbEntity
  8
0
  6
Continuous
 62
     7
370
    25
100
AcDbLine
 10
120.9319913136
 20
1394.2778734114
 30
0.0
 11
2120.9319913136
 21
1394.2778734114
 31
0.0
  0
LINE
  5
12C
330
1F
100
AcDbEntity
  8
0
  6
Continuous
 62
     7
370
    25
100
AcDbLine
 10
2120.9319913136
 20
1389.5872440321
 30
0.0
 11
2120.9319913136
 21
1394.2778734114
 31
0.0
  0
LINE
  5
12D
330
1F
100
AcDbEntity
  8
0
  6
Continuous
 62
     7
370
    25
100
AcDbLine
 10
120.9319913136
 20
1936.3121672365
 30
0.0
 11
120.9319913136
 21
1933.8121672365
 31
0.0
  0
LINE
  5
12E
330
1F
100
AcDbEntity
  8
0
  6
Continuous
 62
     7
370
    25
100
AcDbLine
 10
120.9319913136
 20
1936.3121672365
 30
0.0
 11
2120.9319913136
 21
1936.3121672365
 31
0.0
  0
LINE
  5
12F
330
1F
100
AcDbEntity
  8
0
  6
Continuous
 62
     7
370
    25
100
AcDbLine
 10
2120.9319913136
 20
1936.3121672365
 30
0.0
 11
2120.9319913136
 21
1933.8121672365
 31
0.0
  0
LINE
  5
130
330
1F
100
AcDbEntity
  8
0
  6
Continuous
 62
     7
370
    25
100
AcDbLine
 10
2120.9319913136
 20
1933.8121672365
 30
0.0
 11
2120.9319913136
 21
1888.8121672365
 31
0.0
  0
LINE
  5
131
330
1F
100
AcDbEntity
  8
0
  6
Continuous
 62
     7
370
    25
100
AcDbLine
 10
2120.9319913136
 20
1888.8121672365
 30
0.0
 11
2120.9319913136
 21
1886.3121672365
 31
0.0
  0
LINE
  5
132
330
1F
100
AcDbEntity
  8
0
  6
Continuous
 62
     7
370
    25
100
AcDbLine
 10
120.9319913136
 20
1886.3121672365
 30
0.0
 11
2120.9319913136
 21
1886.3121672365
 31
0.0
  0
LINE
  5
133
330
1F
100
AcDbEntity
  8
0
  6
Continuous
 62
     7
370
    25
100
AcDbLine
 10
120.9319913136
 20
1888.8121672365
 30
0.0
 11
120.9319913136
 21
1886.3121672365
 31
0.0
  0
LINE
  5
134
330
1F
100
AcDbEntity
  8
0
  6
Continuous
 62
     7
370
    25
100
AcDbLine
 10
120.9319913136
 20
1933.8121672365
 30
0.0
 11
120.9319913136
 21
1888.8121672365
 31
0.0
  0
ARC
  5
135
330
1F
100
AcDbEntity
  8
0
  6
Continuous
 62
     7
370
    25
100
AcDbCircle
 10
133.4319913136
 20
1898.8121672365
 30
0.0
 40
3.500000000000227
100
AcDbArc
 50
90.0
 51
270.0
  0
LINE
  5
136
330
1F
100
AcDbEntity
  8
0
  6
Continuous
 62
     7
370
    25
100
AcDbLine
 10
158.4319913136
 20
1895.3121672365
 30
0.0
 11
133.4319913136
 21
1895.3121672365
 31
0.0
  0
ARC
  5
137
330
1F
100
AcDbEntity
  8
0
  6
Continuous
 62
     7
370
    25
100
AcDbCircle
 10
158.4319913136
 20
1898.8121672365
 30
0.0
 40
3.500000000000227
100
AcDbArc
 50
270.0
 51
90.0
  0
LINE
  5
138
330
1F
100
AcDbEntity
  8
0
  6
Continuous
 62
     7
370
    25
100
AcDbLine
 10
133.4319913136
 20
1902.3121672365
 30
0.0
 11
158.4319913136
 21
1902.3121672365
 31
0.0
  0
ARC
  5
139
330
1F
100
AcDbEntity
  8
0
  6
Continuous
 62
     7
370
    25
100
AcDbCircle
 10
1833.4319913136
 20
1923.8121672365
 30
0.0
 40
3.500000000006139
100
AcDbArc
 50
90.0
 51
270.0
  0
LINE
  5
13A
330
1F
100
AcDbEntity
  8
0
  6
Continuous
 62
     7
370
    25
100
AcDbLine
 10
1858.4319913136
 20
1920.3121672365
 30
0.0
 11
1833.4319913136
 21
1920.3121672365
 31
0.0
  0
ARC
  5
13B
330
1F
100
AcDbEntity
  8
0
  6
Continuous
 62
     7
370
    25
100
AcDbCircle
 10
1858.4319913136
 20
1923.8121672365
 30
0.0
 40
3.500000000012278
100
AcDbArc
 50
270.0
 51
90.0
  0
LINE
  5
13C
330
1F
100
AcDbEntity
  8
0
  6
Continuous
 62
     7
370
    25
100
AcDbLine
 10
1833.4319913136
 20
1927.3121672365
 30
0.0
 11
1858.4319913136
 21
1927.3121672365
 31
0.0
  0
ARC
  5
13D
330
1F
100
AcDbEntity
  8
0
  6
Continuous
 62
     7
370
    25
100
AcDbCircle
 10
1883.4319913136
 20
1898.8121672365
 30
0.0
 40
3.500000000012278
100
AcDbArc
 50
90.0
 51
270.0
  0
LINE
  5
13E
330
1F
100
AcDbEntity
  8
0
  6
Continuous
 62
     7
370
    25
100
AcDbLine
 10
1908.4319913136
 20
1895.3121672364
 30
0.0
 11
1883.4319913136
 21
1895.3121672364
 31
0.0
  0
ARC
  5
13F
330
1F
100
AcDbEntity
  8
0
  6
Continuous
 62
     7
370
    25
100
AcDbCircle
 10
1908.4319913136
 20
1898.8121672365
 30
0.0
 40
3.500000000012733
100
AcDbArc
 50
270.0
 51
90.0
  0
LINE
  5
140
330
1F
100
AcDbEntity
  8
0
  6
Continuous
 62
     7
370
    25
100
AcDbLine
 10
1883.4319913136
 20
1902.3121672365
 30
0.0
 11
1908.4319913136
 21
1902.3121672365
 31
0.0
  0
ARC
  5
141
330
1F
100
AcDbEntity
  8
0
  6
Continuous
 62
     7
370
    25
100
AcDbCircle
 10
1883.4319913136
 20
1923.8121672365
 30
0.0
 40
3.500000000006366
100
AcDbArc
 50
90.0
 51
270.0
  0
LINE
  5
142
330
1F
100
AcDbEntity
  8
0
  6
Continuous
 62
     7
370
    25
100
AcDbLine
 10
1908.4319913136
 20
1920.3121672365
 30
0.0
 11
1883.4319913136
 21
1920.3121672365
 31
0.0
  0
ARC
  5
143
330
1F
100
AcDbEntity
  8
0
  6
Continuous
 62
     7
370
    25
100
AcDbCircle
 10
1908.4319913136
 20
1923.8121672365
 30
0.0
 40
3.500000000012733
100
AcDbArc
 50
270.0
 51
90.0
  0
LINE
  5
144
330
1F
100
AcDbEntity
  8
0
  6
Continuous
 62
     7
370
    25
100
AcDbLine
 10
1883.4319913136
 20
1927.3121672365
 30
0.0
 11
1908.4319913136
 21
1927.3121672365
 31
0.0
  0
ARC
  5
145
330
1F
100
AcDbEntity
  8
0
  6
Continuous
 62
     7
370
    25
100
AcDbCircle
 10
1933.4319913136
 20
1898.8121672365
 30
0.0
 40
3.500000000012506
100
AcDbArc
 50
90.0
 51
270.0
  0
LINE
  5
146
330
1F
100
AcDbEntity
  8
0
  6
Continuous
 62
     7
370
    25
100
AcDbLine
 10
1958.4319913136
 20
1895.3121672364
 30
0.0
 11
1933.4319913136
 21
1895.3121672364
 31
0.0
  0
ARC
  5
147
330
1F
100
AcDbEntity
  8
0
  6
Continuous
 62
     7
370
    25
100
AcDbCircle
 10
1958.4319913136
 20
1898.8121672365
 30
0.0
 40
3.50000000001296
100
AcDbArc
 50
270.0
 51
90.0
  0
LINE
  5
148
330
1F
100
AcDbEntity
  8
0
  6
Continuous
 62
     7
370
    25
100
AcDbLine
 10
1933.4319913136
 20
1902.3121672365
 30
0.0
 11
1958.4319913136
 21
1902.3121672365
 31
0.0
  0
ARC
  5
149
330
1F
100
AcDbEntity
  8
0
  6
Continuous
 62
     7
370
    25
100
AcDbCircle
 10
1733.4319913136
 20
1923.8121672365
 30
0.0
 40
3.500000000005684
100
AcDbArc
 50
90.0
 51
270.0
  0
LINE
  5
14A
330
1F
100
AcDbEntity
  8
0
  6
Continuous
 62
     7
370
    25
100
AcDbLine
 10
1758.4319913136
 20
1920.3121672365
 30
0.0
 11
1733.4319913136
 21
1920.3121672365
 31
0.0
  0
ARC
  5
14B
330
1F
100
AcDbEntity
  8
0
  6
Continuous
 62
     7
370
    25
100
AcDbCircle
 10
1758.4319913136
 20
1923.8121672365
 30
0.0
 40
3.500000000011369
100
AcDbArc
 50
270.0
 51
90.0
  0
LINE
  5
14C
330
1F
100
AcDbEntity
  8
0
  6
Continuous
 62
     7
370
    25
100
AcDbLine
 10
1733.4319913136
 20
1927.3121672365
 30
0.0
 11
1758.4319913136
 21
1927.3121672365
 31
0.0
  0
ARC
  5
14D
330
1F
100
AcDbEntity
  8
0
  6
Continuous
 62
     7
370
    25
100
AcDbCircle
 10
1783.4319913136
 20
1898.8121672365
 30
0.0
 40
3.500000000011369
100
AcDbArc
 50
90.0
 51
270.0
  0
LINE
  5
14E
330
1F
100
AcDbEntity
  8
0
  6
Continuous
 62
     7
370
    25
100
AcDbLine
 10
1808.4319913136
 20
1895.3121672364
 30
0.0
 11
1783.4319913136
 21
1895.3121672364
 31
0.0
  0
ARC
  5
14F
330
1F
100
AcDbEntity
  8
0
  6
Continuous
 62
     7
370
    25
100
AcDbCircle
 10
1808.4319913136
 20
1898.8121672365
 30
0.0
 40
3.500000000011823
100
AcDbArc
 50
270.0
 51
90.0
  0
LINE
  5
150
330
1F
100
AcDbEntity
  8
0
  6
Continuous
 62
     7
370
    25
100
AcDbLine
 10
1783.4319913136
 20
1902.3121672365
 30
0.0
 11
1808.4319913136
 21
1902.3121672365
 31
0.0
  0
ARC
  5
151
330
1F
100
AcDbEntity
  8
0
  6
Continuous
 62
     7
370
    25
100
AcDbCircle
 10
1783.4319913136
 20
1923.8121672365
 30
0.0
 40
3.500000000005912
100
AcDbArc
 50
90.0
 51
270.0
  0
LINE
  5
152
330
1F
100
AcDbEntity
  8
0
  6
Continuous
 62
     7
370
    25
100
AcDbLine
 10
1808.4319913136
 20
1920.3121672365
 30
0.0
 11
1783.4319913136
 21
1920.3121672365
 31
0.0
  0
ARC
  5
153
330
1F
100
AcDbEntity
  8
0
  6
Continuous
 62
     7
370
    25
100
AcDbCircle
 10
1808.4319913136
 20
1923.8121672365
 30
0.0
 40
3.500000000011823
100
AcDbArc
 50
270.0
 51
90.0
  0
LINE
  5
154
330
1F
100
AcDbEntity
  8
0
  6
Continuous
 62
     7
370
    25
100
AcDbLine
 10
1783.4319913136
 20
1927.3121672365
 30
0.0
 11
1808.4319913136
 21
1927.3121672365
 31
0.0
  0
ARC
  5
155
330
1F
100
AcDbEntity
  8
0
  6
Continuous
 62
     7
370
    25
100
AcDbCircle
 10
1833.4319913136
 20
1898.8121672365
 30
0.0
 40
3.500000000011823
100
AcDbArc
 50
90.0
 51
270.0
  0
LINE
  5
156
330
1F
100
AcDbEntity
  8
0
  6
Continuous
 62
     7
370
    25
100
AcDbLine
 10
1858.4319913136
 20
1895.3121672364
 30
0.0
 11
1833.4319913136
 21
1895.3121672364
 31
0.0
  0
ARC
  5
157
330
1F
100
AcDbEntity
  8
0
  6
Continuous
 62
     7
370
    25
100
AcDbCircle
 10
1858.4319913136
 20
1898.8121672365
 30
0.0
 40
3.500000000012051
100
AcDbArc
 50
270.0
 51
90.0
  0
LINE
  5
158
330
1F
100
AcDbEntity
  8
0
  6
Continuous
 62
     7
370
    25
100
AcDbLine
 10
1833.4319913136
 20
1902.3121672365
 30
0.0
 11
1858.4319913136
 21
1902.3121672365
 31
0.0
  0
ARC
  5
159
330
1F
100
AcDbEntity
  8
0
  6
Continuous
 62
     7
370
    25
100
AcDbCircle
 10
2033.4319913136
 20
1923.8121672365
 30
0.0
 40
3.500000000006821
100
AcDbArc
 50
90.0
 51
270.0
  0
LINE
  5
15A
330
1F
100
AcDbEntity
  8
0
  6
Continuous
 62
     7
370
    25
100
AcDbLine
 10
2058.4319913136
 20
1920.3121672365
 30
0.0
 11
2033.4319913136
 21
1920.3121672365
 31
0.0
  0
ARC
  5
15B
330
1F
100
AcDbEntity
  8
0
  6
Continuous
 62
     7
370
    25
100
AcDbCircle
 10
2058.4319913136
 20
1923.8121672365
 30
0.0
 40
3.500000000013642
100
AcDbArc
 50
270.0
 51
90.0
  0
LINE
  5
15C
330
1F
100
AcDbEntity
  8
0
  6
Continuous
 62
     7
370
    25
100
AcDbLine
 10
2033.4319913136
 20
1927.3121672365
 30
0.0
 11
2058.4319913136
 21
1927.3121672365
 31
0.0
  0
ARC
  5
15D
330
1F
100
AcDbEntity
  8
0
  6
Continuous
 62
     7
370
    25
100
AcDbCircle
 10
2083.4319913136
 20
1898.8121672365
 30
0.0
 40
3.500000000013642
100
AcDbArc
 50
90.0
 51
270.0
  0
LINE
  5
15E
330
1F
100
AcDbEntity
  8
0
  6
Continuous
 62
     7
370
    25
100
AcDbLine
 10
2108.4319913136
 20
1895.3121672364
 30
0.0
 11
2083.4319913136
 21
1895.3121672364
 31
0.0
  0
ARC
  5
15F
330
1F
100
AcDbEntity
  8
0
  6
Continuous
 62
     7
370
    25
100
AcDbCircle
 10
2108.4319913136
 20
1898.8121672365
 30
0.0
 40
3.500000000014097
100
AcDbArc
 50
270.0
 51
90.0
  0
LINE
  5
160
330
1F
100
AcDbEntity
  8
0
  6
Continuous
 62
     7
370
    25
100
AcDbLine
 10
2083.4319913136
 20
1902.3121672365
 30
0.0
 11
2108.4319913136
 21
1902.3121672365
 31
0.0
  0
ARC
  5
161
330
1F
100
AcDbEntity
  8
0
  6
Continuous
 62
     7
370
    25
100
AcDbCircle
 10
2083.4319913136
 20
1923.8121672365
 30
0.0
 40
3.500000000007049
100
AcDbArc
 50
90.0
 51
270.0
  0
LINE
  5
162
330
1F
100
AcDbEntity
  8
0
  6
Continuous
 62
     7
370
    25
100
AcDbLine
 10
2108.4319913136
 20
1920.3121672365
 30
0.0
 11
2083.4319913136
 21
1920.3121672365
 31
0.0
  0
ARC
  5
163
330
1F
100
AcDbEntity
  8
0
  6
Continuous
 62
     7
370
    25
100
AcDbCircle
 10
2108.4319913136
 20
1923.8121672365
 30
0.0
 40
3.500000000014097
100
AcDbArc
 50
270.0
 51
90.0
  0
LINE
  5
164
330
1F
100
AcDbEntity
  8
0
  6
Continuous
 62
     7
370
    25
100
AcDbLine
 10
2083.4319913136
 20
1927.3121672365
 30
0.0
 11
2108.4319913136
 21
1927.3121672365
 31
0.0
  0
ARC
  5
165
330
1F
100
AcDbEntity
  8
0
  6
Continuous
 62
     7
370
    25
100
AcDbCircle
 10
1933.4319913136
 20
1923.8121672365
 30
0.0
 40
3.500000000006594
100
AcDbArc
 50
90.0
 51
270.0
  0
LINE
  5
166
330
1F
100
AcDbEntity
  8
0
  6
Continuous
 62
     7
370
    25
100
AcDbLine
 10
1958.4319913136
 20
1920.3121672365
 30
0.0
 11
1933.4319913136
 21
1920.3121672365
 31
0.0
  0
ARC
  5
167
330
1F
100
AcDbEntity
  8
0
  6
Continuous
 62
     7
370
    25
100
AcDbCircle
 10
1958.4319913136
 20
1923.8121672365
 30
0.0
 40
3.500000000012733
100
AcDbArc
 50
270.0
 51
90.0
  0
LINE
  5
168
330
1F
100
AcDbEntity
  8
0
  6
Continuous
 62
     7
370
    25
100
AcDbLine
 10
1933.4319913136
 20
1927.3121672365
 30
0.0
 11
1958.4319913136
 21
1927.3121672365
 31
0.0
  0
ARC
  5
169
330
1F
100
AcDbEntity
  8
0
  6
Continuous
 62
     7
370
    25
100
AcDbCircle
 10
1983.4319913136
 20
1898.8121672365
 30
0.0
 40
3.50000000001296
100
AcDbArc
 50
90.0
 51
270.0
  0
LINE
  5
16A
330
1F
100
AcDbEntity
  8
0
  6
Continuous
 62
     7
370
    25
100
AcDbLine
 10
2008.4319913136
 20
1895.3121672364
 30
0.0
 11
1983.4319913136
 21
1895.3121672364
 31
0.0
  0
ARC
  5
16B
330
1F
100
AcDbEntity
  8
0
  6
Continuous
 62
     7
370
    25
100
AcDbCircle
 10
2008.4319913136
 20
1898.8121672365
 30
0.0
 40
3.500000000013188
100
AcDbArc
 50
270.0
 51
90.0
  0
LINE
  5
16C
330
1F
100
AcDbEntity
  8
0
  6
Continuous
 62
     7
370
    25
100
AcDbLine
 10
1983.4319913136
 20
1902.3121672365
 30
0.0
 11
2008.4319913136
 21
1902.3121672365
 31
0.0
  0
ARC
  5
16D
330
1F
100
AcDbEntity
  8
0
  6
Continuous
 62
     7
370
    25
100
AcDbCircle
 10
1983.4319913136
 20
1923.8121672365
 30
0.0
 40
3.500000000006594
100
AcDbArc
 50
90.0
 51
270.0
  0
LINE
  5
16E
330
1F
100
AcDbEntity
  8
0
  6
Continuous
 62
     7
370
    25
100
AcDbLine
 10
2008.4319913136
 20
1920.3121672365
 30
0.0
 11
1983.4319913136
 21
1920.3121672365
 31
0.0
  0
ARC
  5
16F
330
1F
100
AcDbEntity
  8
0
  6
Continuous
 62
     7
370
    25
100
AcDbCircle
 10
2008.4319913136
 20
1923.8121672365
 30
0.0
 40
3.500000000013188
100
AcDbArc
 50
270.0
 51
90.0
  0
LINE
  5
170
330
1F
100
AcDbEntity
  8
0
  6
Continuous
 62
     7
370
    25
100
AcDbLine
 10
1983.4319913136
 20
1927.3121672365
 30
0.0
 11
2008.4319913136
 21
1927.3121672365
 31
0.0
  0
ARC
  5
171
330
1F
100
AcDbEntity
  8
0
  6
Continuous
 62
     7
370
    25
100
AcDbCircle
 10
2033.4319913136
 20
1898.8121672365
 30
0.0
 40
3.500000000013188
100
AcDbArc
 50
90.0
 51
270.0
  0
LINE
  5
172
330
1F
100
AcDbEntity
  8
0
  6
Continuous
 62
     7
370
    25
100
AcDbLine
 10
2058.4319913136
 20
1895.3121672364
 30
0.0
 11
2033.4319913136
 21
1895.3121672364
 31
0.0
  0
ARC
  5
173
330
1F
100
AcDbEntity
  8
0
  6
Continuous
 62
     7
370
    25
100
AcDbCircle
 10
2058.4319913136
 20
1898.8121672365
 30
0.0
 40
3.500000000013642
100
AcDbArc
 50
270.0
 51
90.0
  0
LINE
  5
174
330
1F
100
AcDbEntity
  8
0
  6
Continuous
 62
     7
370
    25
100
AcDbLine
 10
2033.4319913136
 20
1902.3121672365
 30
0.0
 11
2058.4319913136
 21
1902.3121672365
 31
0.0
  0
ARC
  5
175
330
1F
100
AcDbEntity
  8
0
  6
Continuous
 62
     7
370
    25
100
AcDbCircle
 10
633.4319913136
 20
1923.8121672365
 30
0.0
 40
3.500000000002046
100
AcDbArc
 50
90.0
 51
270.0
  0
LINE
  5
176
330
1F
100
AcDbEntity
  8
0
  6
Continuous
 62
     7
370
    25
100
AcDbLine
 10
658.4319913136
 20
1920.3121672365
 30
0.0
 11
633.4319913136
 21
1920.3121672365
 31
0.0
  0
ARC
  5
177
330
1F
100
AcDbEntity
  8
0
  6
Continuous
 62
     7
370
    25
100
AcDbCircle
 10
658.4319913136
 20
1923.8121672365
 30
0.0
 40
3.500000000003865
100
AcDbArc
 50
270.0
 51
90.0
  0
LINE
  5
178
330
1F
100
AcDbEntity
  8
0
  6
Continuous
 62
     7
370
    25
100
AcDbLine
 10
633.4319913136
 20
1927.3121672365
 30
0.0
 11
658.4319913136
 21
1927.3121672365
 31
0.0
  0
ARC
  5
179
330
1F
100
AcDbEntity
  8
0
  6
Continuous
 62
     7
370
    25
100
AcDbCircle
 10
683.4319913136
 20
1898.8121672365
 30
0.0
 40
3.500000000003865
100
AcDbArc
 50
90.0
 51
270.0
  0
LINE
  5
17A
330
1F
100
AcDbEntity
  8
0
  6
Continuous
 62
     7
370
    25
100
AcDbLine
 10
708.4319913136
 20
1895.3121672365
 30
0.0
 11
683.4319913136
 21
1895.3121672365
 31
0.0
  0
ARC
  5
17B
330
1F
100
AcDbEntity
  8
0
  6
Continuous
 62
     7
370
    25
100
AcDbCircle
 10
708.4319913136
 20
1898.8121672365
 30
0.0
 40
3.50000000000432
100
AcDbArc
 50
270.0
 51
90.0
  0
LINE
  5
17C
330
1F
100
AcDbEntity
  8
0
  6
Continuous
 62
     7
370
    25
100
AcDbLine
 10
683.4319913136
 20
1902.3121672365
 30
0.0
 11
708.4319913136
 21
1902.3121672365
 31
0.0
  0
ARC
  5
17D
330
1F
100
AcDbEntity
  8
0
  6
Continuous
 62
     7
370
    25
100
AcDbCircle
 10
683.4319913136
 20
1923.8121672365
 30
0.0
 40
3.500000000002274
100
AcDbArc
 50
90.0
 51
270.0
  0
LINE
  5
17E
330
1F
100
AcDbEntity
  8
0
  6
Continuous
 62
     7
370
    25
100
AcDbLine
 10
708.4319913136
 20
1920.3121672365
 30
0.0
 11
683.4319913136
 21
1920.3121672365
 31
0.0
  0
ARC
  5
17F
330
1F
100
AcDbEntity
  8
0
  6
Continuous
 62
     7
370
    25
100
AcDbCircle
 10
708.4319913136
 20
1923.8121672365
 30
0.0
 40
3.500000000004093
100
AcDbArc
 50
270.0
 51
90.0
  0
LINE
  5
180
330
1F
100
AcDbEntity
  8
0
  6
Continuous
 62
     7
370
    25
100
AcDbLine
 10
683.4319913136
 20
1927.3121672365
 30
0.0
 11
708.4319913136
 21
1927.3121672365
 31
0.0
  0
ARC
  5
181
330
1F
100
AcDbEntity
  8
0
  6
Continuous
 62
     7
370
    25
100
AcDbCircle
 10
733.4319913136
 20
1898.8121672365
 30
0.0
 40
3.50000000000432
100
AcDbArc
 50
90.0
 51
270.0
  0
LINE
  5
182
330
1F
100
AcDbEntity
  8
0
  6
Continuous
 62
     7
370
    25
100
AcDbLine
 10
758.4319913136
 20
1895.3121672365
 30
0.0
 11
733.4319913136
 21
1895.3121672365
 31
0.0
  0
ARC
  5
183
330
1F
100
AcDbEntity
  8
0
  6
Continuous
 62
     7
370
    25
100
AcDbCircle
 10
758.4319913136
 20
1898.8121672365
 30
0.0
 40
3.500000000004547
100
AcDbArc
 50
270.0
 51
90.0
  0
LINE
  5
184
330
1F
100
AcDbEntity
  8
0
  6
Continuous
 62
     7
370
    25
100
AcDbLine
 10
733.4319913136
 20
1902.3121672365
 30
0.0
 11
758.4319913136
 21
1902.3121672365
 31
0.0
  0
ARC
  5
185
330
1F
100
AcDbEntity
  8
0
  6
Continuous
 62
     7
370
    25
100
AcDbCircle
 10
533.4319913136
 20
1923.8121672365
 30
0.0
 40
3.500000000001819
100
AcDbArc
 50
90.0
 51
270.0
  0
LINE
  5
186
330
1F
100
AcDbEntity
  8
0
  6
Continuous
 62
     7
370
    25
100
AcDbLine
 10
558.4319913136
 20
1920.3121672365
 30
0.0
 11
533.4319913136
 21
1920.3121672365
 31
0.0
  0
ARC
  5
187
330
1F
100
AcDbEntity
  8
0
  6
Continuous
 62
     7
370
    25
100
AcDbCircle
 10
558.4319913136
 20
1923.8121672365
 30
0.0
 40
3.500000000002956
100
AcDbArc
 50
270.0
 51
90.0
  0
LINE
  5
188
330
1F
100
AcDbEntity
  8
0
  6
Continuous
 62
     7
370
    25
100
AcDbLine
 10
533.4319913136
 20
1927.3121672365
 30
0.0
 11
558.4319913136
 21
1927.3121672365
 31
0.0
  0
ARC
  5
189
330
1F
100
AcDbEntity
  8
0
  6
Continuous
 62
     7
370
    25
100
AcDbCircle
 10
583.4319913136
 20
1898.8121672365
 30
0.0
 40
3.500000000003183
100
AcDbArc
 50
90.0
 51
270.0
  0
LINE
  5
18A
330
1F
100
AcDbEntity
  8
0
  6
Continuous
 62
     7
370
    25
100
AcDbLine
 10
608.4319913136
 20
1895.3121672365
 30
0.0
 11
583.4319913136
 21
1895.3121672365
 31
0.0
  0
ARC
  5
18B
330
1F
100
AcDbEntity
  8
0
  6
Continuous
 62
     7
370
    25
100
AcDbCircle
 10
608.4319913136
 20
1898.8121672365
 30
0.0
 40
3.500000000003411
100
AcDbArc
 50
270.0
 51
90.0
  0
LINE
  5
18C
330
1F
100
AcDbEntity
  8
0
  6
Continuous
 62
     7
370
    25
100
AcDbLine
 10
583.4319913136
 20
1902.3121672365
 30
0.0
 11
608.4319913136
 21
1902.3121672365
 31
0.0
  0
ARC
  5
18D
330
1F
100
AcDbEntity
  8
0
  6
Continuous
 62
     7
370
    25
100
AcDbCircle
 10
583.4319913136
 20
1923.8121672365
 30
0.0
 40
3.500000000001819
100
AcDbArc
 50
90.0
 51
270.0
  0
LINE
  5
18E
330
1F
100
AcDbEntity
  8
0
  6
Continuous
 62
     7
370
    25
100
AcDbLine
 10
608.4319913136
 20
1920.3121672365
 30
0.0
 11
583.4319913136
 21
1920.3121672365
 31
0.0
  0
ARC
  5
18F
330
1F
100
AcDbEntity
  8
0
  6
Continuous
 62
     7
370
    25
100
AcDbCircle
 10
608.4319913136
 20
1923.8121672365
 30
0.0
 40
3.500000000003411
100
AcDbArc
 50
270.0
 51
90.0
  0
LINE
  5
190
330
1F
100
AcDbEntity
  8
0
  6
Continuous
 62
     7
370
    25
100
AcDbLine
 10
583.4319913136
 20
1927.3121672365
 30
0.0
 11
608.4319913136
 21
1927.3121672365
 31
0.0
  0
ARC
  5
191
330
1F
100
AcDbEntity
  8
0
  6
Continuous
 62
     7
370
    25
100
AcDbCircle
 10
633.4319913136
 20
1898.8121672365
 30
0.0
 40
3.500000000003411
100
AcDbArc
 50
90.0
 51
270.0
  0
LINE
  5
192
330
1F
100
AcDbEntity
  8
0
  6
Continuous
 62
     7
370
    25
100
AcDbLine
 10
658.4319913136
 20
1895.3121672365
 30
0.0
 11
633.4319913136
 21
1895.3121672365
 31
0.0
  0
ARC
  5
193
330
1F
100
AcDbEntity
  8
0
  6
Continuous
 62
     7
370
    25
100
AcDbCircle
 10
658.4319913136
 20
1898.8121672365
 30
0.0
 40
3.500000000003865
100
AcDbArc
 50
270.0
 51
90.0
  0
LINE
  5
194
330
1F
100
AcDbEntity
  8
0
  6
Continuous
 62
     7
370
    25
100
AcDbLine
 10
633.4319913136
 20
1902.3121672365
 30
0.0
 11
658.4319913136
 21
1902.3121672365
 31
0.0
  0
ARC
  5
195
330
1F
100
AcDbEntity
  8
0
  6
Continuous
 62
     7
370
    25
100
AcDbCircle
 10
833.4319913136
 20
1923.8121672365
 30
0.0
 40
3.500000000002501
100
AcDbArc
 50
90.0
 51
270.0
  0
LINE
  5
196
330
1F
100
AcDbEntity
  8
0
  6
Continuous
 62
     7
370
    25
100
AcDbLine
 10
858.4319913136
 20
1920.3121672365
 30
0.0
 11
833.4319913136
 21
1920.3121672365
 31
0.0
  0
ARC
  5
197
330
1F
100
AcDbEntity
  8
0
  6
Continuous
 62
     7
370
    25
100
AcDbCircle
 10
858.4319913136
 20
1923.8121672365
 30
0.0
 40
3.500000000005002
100
AcDbArc
 50
270.0
 51
90.0
  0
LINE
  5
198
330
1F
100
AcDbEntity
  8
0
  6
Continuous
 62
     7
370
    25
100
AcDbLine
 10
833.4319913136
 20
1927.3121672365
 30
0.0
 11
858.4319913136
 21
1927.3121672365
 31
0.0
  0
ARC
  5
199
330
1F
100
AcDbEntity
  8
0
  6
Continuous
 62
     7
370
    25
100
AcDbCircle
 10
883.4319913136
 20
1898.8121672365
 30
0.0
 40
3.50000000000523
100
AcDbArc
 50
90.0
 51
270.0
  0
LINE
  5
19A
330
1F
100
AcDbEntity
  8
0
  6
Continuous
 62
     7
370
    25
100
AcDbLine
 10
908.4319913136
 20
1895.3121672365
 30
0.0
 11
883.4319913136
 21
1895.3121672365
 31
0.0
  0
ARC
  5
19B
330
1F
100
AcDbEntity
  8
0
  6
Continuous
 62
     7
370
    25
100
AcDbCircle
 10
908.4319913136
 20
1898.8121672365
 30
0.0
 40
3.500000000005457
100
AcDbArc
 50
270.0
 51
90.0
  0
LINE
  5
19C
330
1F
100
AcDbEntity
  8
0
  6
Continuous
 62
     7
370
    25
100
AcDbLine
 10
883.4319913136
 20
1902.3121672365
 30
0.0
 11
908.4319913136
 21
1902.3121672365
 31
0.0
  0
ARC
  5
19D
330
1F
100
AcDbEntity
  8
0
  6
Continuous
 62
     7
370
    25
100
AcDbCircle
 10
883.4319913136
 20
1923.8121672365
 30
0.0
 40
3.500000000002728
100
AcDbArc
 50
90.0
 51
270.0
  0
LINE
  5
19E
330
1F
100
AcDbEntity
  8
0
  6
Continuous
 62
     7
370
    25
100
AcDbLine
 10
908.4319913136
 20
1920.3121672365
 30
0.0
 11
883.4319913136
 21
1920.3121672365
 31
0.0
  0
ARC
  5
19F
330
1F
100
AcDbEntity
  8
0
  6
Continuous
 62
     7
370
    25
100
AcDbCircle
 10
908.4319913136
 20
1923.8121672365
 30
0.0
 40
3.500000000005457
100
AcDbArc
 50
270.0
 51
90.0
  0
LINE
  5
1A0
330
1F
100
AcDbEntity
  8
0
  6
Continuous
 62
     7
370
    25
100
AcDbLine
 10
883.4319913136
 20
1927.3121672365
 30
0.0
 11
908.4319913136
 21
1927.3121672365
 31
0.0
  0
ARC
  5
1A1
330
1F
100
AcDbEntity
  8
0
  6
Continuous
 62
     7
370
    25
100
AcDbCircle
 10
933.4319913136
 20
1898.8121672365
 30
0.0
 40
3.500000000005684
100
AcDbArc
 50
90.0
 51
270.0
  0
LINE
  5
1A2
330
1F
100
AcDbEntity
  8
0
  6
Continuous
 62
     7
370
    25
100
AcDbLine
 10
958.4319913136
 20
1895.3121672365
 30
0.0
 11
933.4319913136
 21
1895.3121672365
 31
0.0
  0
ARC
  5
1A3
330
1F
100
AcDbEntity
  8
0
  6
Continuous
 62
     7
370
    25
100
AcDbCircle
 10
958.4319913136
 20
1898.8121672365
 30
0.0
 40
3.500000000006139
100
AcDbArc
 50
270.0
 51
90.0
  0
LINE
  5
1A4
330
1F
100
AcDbEntity
  8
0
  6
Continuous
 62
     7
370
    25
100
AcDbLine
 10
933.4319913136
 20
1902.3121672365
 30
0.0
 11
958.4319913136
 21
1902.3121672365
 31
0.0
  0
ARC
  5
1A5
330
1F
100
AcDbEntity
  8
0
  6
Continuous
 62
     7
370
    25
100
AcDbCircle
 10
733.4319913136
 20
1923.8121672365
 30
0.0
 40
3.500000000002274
100
AcDbArc
 50
90.0
 51
270.0
  0
LINE
  5
1A6
330
1F
100
AcDbEntity
  8
0
  6
Continuous
 62
     7
370
    25
100
AcDbLine
 10
758.4319913136
 20
1920.3121672365
 30
0.0
 11
733.4319913136
 21
1920.3121672365
 31
0.0
  0
ARC
  5
1A7
330
1F
100
AcDbEntity
  8
0
  6
Continuous
 62
     7
370
    25
100
AcDbCircle
 10
758.4319913136
 20
1923.8121672365
 30
0.0
 40
3.50000000000432
100
AcDbArc
 50
270.0
 51
90.0
  0
LINE
  5
1A8
330
1F
100
AcDbEntity
  8
0
  6
Continuous
 62
     7
370
    25
100
AcDbLine
 10
733.4319913136
 20
1927.3121672365
 30
0.0
 11
758.4319913136
 21
1927.3121672365
 31
0.0
  0
ARC
  5
1A9
330
1F
100
AcDbEntity
  8
0
  6
Continuous
 62
     7
370
    25
100
AcDbCircle
 10
783.4319913136
 20
1898.8121672365
 30
0.0
 40
3.500000000004547
100
AcDbArc
 50
90.0
 51
270.0
  0
LINE
  5
1AA
330
1F
100
AcDbEntity
  8
0
  6
Continuous
 62
     7
370
    25
100
AcDbLine
 10
808.4319913136
 20
1895.3121672365
 30
0.0
 11
783.4319913136
 21
1895.3121672365
 31
0.0
  0
ARC
  5
1AB
330
1F
100
AcDbEntity
  8
0
  6
Continuous
 62
     7
370
    25
100
AcDbCircle
 10
808.4319913136
 20
1898.8121672365
 30
0.0
 40
3.500000000005002
100
AcDbArc
 50
270.0
 51
90.0
  0
LINE
  5
1AC
330
1F
100
AcDbEntity
  8
0
  6
Continuous
 62
     7
370
    25
100
AcDbLine
 10
783.4319913136
 20
1902.3121672365
 30
0.0
 11
808.4319913136
 21
1902.3121672365
 31
0.0
  0
ARC
  5
1AD
330
1F
100
AcDbEntity
  8
0
  6
Continuous
 62
     7
370
    25
100
AcDbCircle
 10
783.4319913136
 20
1923.8121672365
 30
0.0
 40
3.500000000002501
100
AcDbArc
 50
90.0
 51
270.0
  0
LINE
  5
1AE
330
1F
100
AcDbEntity
  8
0
  6
Continuous
 62
     7
370
    25
100
AcDbLine
 10
808.4319913136
 20
1920.3121672365
 30
0.0
 11
783.4319913136
 21
1920.3121672365
 31
0.0
  0
ARC
  5
1AF
330
1F
100
AcDbEntity
  8
0
  6
Continuous
 62
     7
370
    25
100
AcDbCircle
 10
808.4319913136
 20
1923.8121672365
 30
0.0
 40
3.500000000004547
100
AcDbArc
 50
270.0
 51
90.0
  0
LINE
  5
1B0
330
1F
100
AcDbEntity
  8
0
  6
Continuous
 62
     7
370
    25
100
AcDbLine
 10
783.4319913136
 20
1927.3121672365
 30
0.0
 11
808.4319913136
 21
1927.3121672365
 31
0.0
  0
ARC
  5
1B1
330
1F
100
AcDbEntity
  8
0
  6
Continuous
 62
     7
370
    25
100
AcDbCircle
 10
833.4319913136
 20
1898.8121672365
 30
0.0
 40
3.500000000004775
100
AcDbArc
 50
90.0
 51
270.0
  0
LINE
  5
1B2
330
1F
100
AcDbEntity
  8
0
  6
Continuous
 62
     7
370
    25
100
AcDbLine
 10
858.4319913136
 20
1895.3121672365
 30
0.0
 11
833.4319913136
 21
1895.3121672365
 31
0.0
  0
ARC
  5
1B3
330
1F
100
AcDbEntity
  8
0
  6
Continuous
 62
     7
370
    25
100
AcDbCircle
 10
858.4319913136
 20
1898.8121672365
 30
0.0
 40
3.50000000000523
100
AcDbArc
 50
270.0
 51
90.0
  0
LINE
  5
1B4
330
1F
100
AcDbEntity
  8
0
  6
Continuous
 62
     7
370
    25
100
AcDbLine
 10
833.4319913136
 20
1902.3121672365
 30
0.0
 11
858.4319913136
 21
1902.3121672365
 31
0.0
  0
ARC
  5
1B5
330
1F
100
AcDbEntity
  8
0
  6
Continuous
 62
     7
370
    25
100
AcDbCircle
 10
233.4319913136
 20
1923.8121672365
 30
0.0
 40
3.500000000000682
100
AcDbArc
 50
90.0
 51
270.0
  0
LINE
  5
1B6
330
1F
100
AcDbEntity
  8
0
  6
Continuous
 62
     7
370
    25
100
AcDbLine
 10
258.4319913136
 20
1920.3121672365
 30
0.0
 11
233.4319913136
 21
1920.3121672365
 31
0.0
  0
ARC
  5
1B7
330
1F
100
AcDbEntity
  8
0
  6
Continuous
 62
     7
370
    25
100
AcDbCircle
 10
258.4319913136
 20
1923.8121672365
 30
0.0
 40
3.500000000001137
100
AcDbArc
 50
270.0
 51
90.0
  0
LINE
  5
1B8
330
1F
100
AcDbEntity
  8
0
  6
Continuous
 62
     7
370
    25
100
AcDbLine
 10
233.4319913136
 20
1927.3121672365
 30
0.0
 11
258.4319913136
 21
1927.3121672365
 31
0.0
  0
ARC
  5
1B9
330
1F
100
AcDbEntity
  8
0
  6
Continuous
 62
     7
370
    25
100
AcDbCircle
 10
283.4319913136
 20
1898.8121672365
 30
0.0
 40
3.500000000001137
100
AcDbArc
 50
90.0
 51
270.0
  0
LINE
  5
1BA
330
1F
100
AcDbEntity
  8
0
  6
Continuous
 62
     7
370
    25
100
AcDbLine
 10
308.4319913136
 20
1895.3121672365
 30
0.0
 11
283.4319913136
 21
1895.3121672365
 31
0.0
  0
ARC
  5
1BB
330
1F
100
AcDbEntity
  8
0
  6
Continuous
 62
     7
370
    25
100
AcDbCircle
 10
308.4319913136
 20
1898.8121672365
 30
0.0
 40
3.500000000001364
100
AcDbArc
 50
270.0
 51
90.0
  0
LINE
  5
1BC
330
1F
100
AcDbEntity
  8
0
  6
Continuous
 62
     7
370
    25
100
AcDbLine
 10
283.4319913136
 20
1902.3121672365
 30
0.0
 11
308.4319913136
 21
1902.3121672365
 31
0.0
  0
ARC
  5
1BD
330
1F
100
AcDbEntity
  8
0
  6
Continuous
 62
     7
370
    25
100
AcDbCircle
 10
283.4319913136
 20
1923.8121672365
 30
0.0
 40
3.500000000000909
100
AcDbArc
 50
90.0
 51
270.0
  0
LINE
  5
1BE
330
1F
100
AcDbEntity
  8
0
  6
Continuous
 62
     7
370
    25
100
AcDbLine
 10
308.4319913136
 20
1920.3121672365
 30
0.0
 11
283.4319913136
 21
1920.3121672365
 31
0.0
  0
ARC
  5
1BF
330
1F
100
AcDbEntity
  8
0
  6
Continuous
 62
     7
370
    25
100
AcDbCircle
 10
308.4319913136
 20
1923.8121672365
 30
0.0
 40
3.500000000001137
100
AcDbArc
 50
270.0
 51
90.0
  0
LINE
  5
1C0
330
1F
100
AcDbEntity
  8
0
  6
Continuous
 62
     7
370
    25
100
AcDbLine
 10
283.4319913136
 20
1927.3121672365
 30
0.0
 11
308.4319913136
 21
1927.3121672365
 31
0.0
  0
ARC
  5
1C1
330
1F
100
AcDbEntity
  8
0
  6
Continuous
 62
     7
370
    25
100
AcDbCircle
 10
333.4319913136
 20
1898.8121672365
 30
0.0
 40
3.500000000001364
100
AcDbArc
 50
90.0
 51
270.0
  0
LINE
  5
1C2
330
1F
100
AcDbEntity
  8
0
  6
Continuous
 62
     7
370
    25
100
AcDbLine
 10
358.4319913136
 20
1895.3121672365
 30
0.0
 11
333.4319913136
 21
1895.3121672365
 31
0.0
  0
ARC
  5
1C3
330
1F
100
AcDbEntity
  8
0
  6
Continuous
 62
     7
370
    25
100
AcDbCircle
 10
358.4319913136
 20
1898.8121672365
 30
0.0
 40
3.500000000001592
100
AcDbArc
 50
270.0
 51
90.0
  0
LINE
  5
1C4
330
1F
100
AcDbEntity
  8
0
  6
Continuous
 62
     7
370
    25
100
AcDbLine
 10
333.4319913136
 20
1902.3121672365
 30
0.0
 11
358.4319913136
 21
1902.3121672365
 31
0.0
  0
ARC
  5
1C5
330
1F
100
AcDbEntity
  8
0
  6
Continuous
 62
     7
370
    25
100
AcDbCircle
 10
133.4319913136
 20
1923.8121672365
 30
0.0
 40
3.5
100
AcDbArc
 50
90.0
 51
270.0
  0
LINE
  5
1C6
330
1F
100
AcDbEntity
  8
0
  6
Continuous
 62
     7
370
    25
100
AcDbLine
 10
158.4319913136
 20
1920.3121672365
 30
0.0
 11
133.4319913136
 21
1920.3121672365
 31
0.0
  0
ARC
  5
1C7
330
1F
100
AcDbEntity
  8
0
  6
Continuous
 62
     7
370
    25
100
AcDbCircle
 10
158.4319913136
 20
1923.8121672365
 30
0.0
 40
3.5
100
AcDbArc
 50
270.0
 51
90.0
  0
LINE
  5
1C8
330
1F
100
AcDbEntity
  8
0
  6
Continuous
 62
     7
370
    25
100
AcDbLine
 10
133.4319913136
 20
1927.3121672365
 30
0.0
 11
158.4319913136
 21
1927.3121672365
 31
0.0
  0
ARC
  5
1C9
330
1F
100
AcDbEntity
  8
0
  6
Continuous
 62
     7
370
    25
100
AcDbCircle
 10
183.4319913136
 20
1898.8121672365
 30
0.0
 40
3.500000000000455
100
AcDbArc
 50
90.0
 51
270.0
  0
LINE
  5
1CA
330
1F
100
AcDbEntity
  8
0
  6
Continuous
 62
     7
370
    25
100
AcDbLine
 10
208.4319913136
 20
1895.3121672365
 30
0.0
 11
183.4319913136
 21
1895.3121672365
 31
0.0
  0
ARC
  5
1CB
330
1F
100
AcDbEntity
  8
0
  6
Continuous
 62
     7
370
    25
100
AcDbCircle
 10
208.4319913136
 20
1898.8121672365
 30
0.0
 40
3.500000000000455
100
AcDbArc
 50
270.0
 51
90.0
  0
LINE
  5
1CC
330
1F
100
AcDbEntity
  8
0
  6
Continuous
 62
     7
370
    25
100
AcDbLine
 10
183.4319913136
 20
1902.3121672365
 30
0.0
 11
208.4319913136
 21
1902.3121672365
 31
0.0
  0
ARC
  5
1CD
330
1F
100
AcDbEntity
  8
0
  6
Continuous
 62
     7
370
    25
100
AcDbCircle
 10
183.4319913136
 20
1923.8121672365
 30
0.0
 40
3.500000000000455
100
AcDbArc
 50
90.0
 51
270.0
  0
LINE
  5
1CE
330
1F
100
AcDbEntity
  8
0
  6
Continuous
 62
     7
370
    25
100
AcDbLine
 10
208.4319913136
 20
1920.3121672365
 30
0.0
 11
183.4319913136
 21
1920.3121672365
 31
0.0
  0
ARC
  5
1CF
330
1F
100
AcDbEntity
  8
0
  6
Continuous
 62
     7
370
    25
100
AcDbCircle
 10
208.4319913136
 20
1923.8121672365
 30
0.0
 40
3.500000000000909
100
AcDbArc
 50
270.0
 51
90.0
  0
LINE
  5
1D0
330
1F
100
AcDbEntity
  8
0
  6
Continuous
 62
     7
370
    25
100
AcDbLine
 10
183.4319913136
 20
1927.3121672365
 30
0.0
 11
208.4319913136
 21
1927.3121672365
 31
0.0
  0
ARC
  5
1D1
330
1F
100
AcDbEntity
  8
0
  6
Continuous
 62
     7
370
    25
100
AcDbCircle
 10
233.4319913136
 20
1898.8121672365
 30
0.0
 40
3.500000000000682
100
AcDbArc
 50
90.0
 51
270.0
  0
LINE
  5
1D2
330
1F
100
AcDbEntity
  8
0
  6
Continuous
 62
     7
370
    25
100
AcDbLine
 10
258.4319913136
 20
1895.3121672365
 30
0.0
 11
233.4319913136
 21
1895.3121672365
 31
0.0
  0
ARC
  5
1D3
330
1F
100
AcDbEntity
  8
0
  6
Continuous
 62
     7
370
    25
100
AcDbCircle
 10
258.4319913136
 20
1898.8121672365
 30
0.0
 40
3.500000000001137
100
AcDbArc
 50
270.0
 51
90.0
  0
LINE
  5
1D4
330
1F
100
AcDbEntity
  8
0
  6
Continuous
 62
     7
370
    25
100
AcDbLine
 10
233.4319913136
 20
1902.3121672365
 30
0.0
 11
258.4319913136
 21
1902.3121672365
 31
0.0
  0
ARC
  5
1D5
330
1F
100
AcDbEntity
  8
0
  6
Continuous
 62
     7
370
    25
100
AcDbCircle
 10
433.4319913136
 20
1923.8121672365
 30
0.0
 40
3.500000000001364
100
AcDbArc
 50
90.0
 51
270.0
  0
LINE
  5
1D6
330
1F
100
AcDbEntity
  8
0
  6
Continuous
 62
     7
370
    25
100
AcDbLine
 10
458.4319913136
 20
1920.3121672365
 30
0.0
 11
433.4319913136
 21
1920.3121672365
 31
0.0
  0
ARC
  5
1D7
330
1F
100
AcDbEntity
  8
0
  6
Continuous
 62
     7
370
    25
100
AcDbCircle
 10
458.4319913136
 20
1923.8121672365
 30
0.0
 40
3.500000000002501
100
AcDbArc
 50
270.0
 51
90.0
  0
LINE
  5
1D8
330
1F
100
AcDbEntity
  8
0
  6
Continuous
 62
     7
370
    25
100
AcDbLine
 10
433.4319913136
 20
1927.3121672365
 30
0.0
 11
458.4319913136
 21
1927.3121672365
 31
0.0
  0
ARC
  5
1D9
330
1F
100
AcDbEntity
  8
0
  6
Continuous
 62
     7
370
    25
100
AcDbCircle
 10
483.4319913136
 20
1898.8121672365
 30
0.0
 40
3.500000000002501
100
AcDbArc
 50
90.0
 51
270.0
  0
LINE
  5
1DA
330
1F
100
AcDbEntity
  8
0
  6
Continuous
 62
     7
370
    25
100
AcDbLine
 10
508.4319913136
 20
1895.3121672365
 30
0.0
 11
483.4319913136
 21
1895.3121672365
 31
0.0
  0
ARC
  5
1DB
330
1F
100
AcDbEntity
  8
0
  6
Continuous
 62
     7
370
    25
100
AcDbCircle
 10
508.4319913136
 20
1898.8121672365
 30
0.0
 40
3.500000000002956
100
AcDbArc
 50
270.0
 51
90.0
  0
LINE
  5
1DC
330
1F
100
AcDbEntity
  8
0
  6
Continuous
 62
     7
370
    25
100
AcDbLine
 10
483.4319913136
 20
1902.3121672365
 30
0.0
 11
508.4319913136
 21
1902.3121672365
 31
0.0
  0
ARC
  5
1DD
330
1F
100
AcDbEntity
  8
0
  6
Continuous
 62
     7
370
    25
100
AcDbCircle
 10
483.4319913136
 20
1923.8121672365
 30
0.0
 40
3.500000000001592
100
AcDbArc
 50
90.0
 51
270.0
  0
LINE
  5
1DE
330
1F
100
AcDbEntity
  8
0
  6
Continuous
 62
     7
370
    25
100
AcDbLine
 10
508.4319913136
 20
1920.3121672365
 30
0.0
 11
483.4319913136
 21
1920.3121672365
 31
0.0
  0
ARC
  5
1DF
330
1F
100
AcDbEntity
  8
0
  6
Continuous
 62
     7
370
    25
100
AcDbCircle
 10
508.4319913136
 20
1923.8121672365
 30
0.0
 40
3.500000000002956
100
AcDbArc
 50
270.0
 51
90.0
  0
LINE
  5
1E0
330
1F
100
AcDbEntity
  8
0
  6
Continuous
 62
     7
370
    25
100
AcDbLine
 10
483.4319913136
 20
1927.3121672365
 30
0.0
 11
508.4319913136
 21
1927.3121672365
 31
0.0
  0
ARC
  5
1E1
330
1F
100
AcDbEntity
  8
0
  6
Continuous
 62
     7
370
    25
100
AcDbCircle
 10
533.4319913136
 20
1898.8121672365
 30
0.0
 40
3.500000000002728
100
AcDbArc
 50
90.0
 51
270.0
  0
LINE
  5
1E2
330
1F
100
AcDbEntity
  8
0
  6
Continuous
 62
     7
370
    25
100
AcDbLine
 10
558.4319913136
 20
1895.3121672365
 30
0.0
 11
533.4319913136
 21
1895.3121672365
 31
0.0
  0
ARC
  5
1E3
330
1F
100
AcDbEntity
  8
0
  6
Continuous
 62
     7
370
    25
100
AcDbCircle
 10
558.4319913136
 20
1898.8121672365
 30
0.0
 40
3.500000000003183
100
AcDbArc
 50
270.0
 51
90.0
  0
LINE
  5
1E4
330
1F
100
AcDbEntity
  8
0
  6
Continuous
 62
     7
370
    25
100
AcDbLine
 10
533.4319913136
 20
1902.3121672365
 30
0.0
 11
558.4319913136
 21
1902.3121672365
 31
0.0
  0
ARC
  5
1E5
330
1F
100
AcDbEntity
  8
0
  6
Continuous
 62
     7
370
    25
100
AcDbCircle
 10
333.4319913136
 20
1923.8121672365
 30
0.0
 40
3.500000000000909
100
AcDbArc
 50
90.0
 51
270.0
  0
LINE
  5
1E6
330
1F
100
AcDbEntity
  8
0
  6
Continuous
 62
     7
370
    25
100
AcDbLine
 10
358.4319913136
 20
1920.3121672365
 30
0.0
 11
333.4319913136
 21
1920.3121672365
 31
0.0
  0
ARC
  5
1E7
330
1F
100
AcDbEntity
  8
0
  6
Continuous
 62
     7
370
    25
100
AcDbCircle
 10
358.4319913136
 20
1923.8121672365
 30
0.0
 40
3.500000000001592
100
AcDbArc
 50
270.0
 51
90.0
  0
LINE
  5
1E8
330
1F
100
AcDbEntity
  8
0
  6
Continuous
 62
     7
370
    25
100
AcDbLine
 10
333.4319913136
 20
1927.3121672365
 30
0.0
 11
358.4319913136
 21
1927.3121672365
 31
0.0
  0
ARC
  5
1E9
330
1F
100
AcDbEntity
  8
0
  6
Continuous
 62
     7
370
    25
100
AcDbCircle
 10
383.4319913136
 20
1898.8121672365
 30
0.0
 40
3.500000000001819
100
AcDbArc
 50
90.0
 51
270.0
  0
LINE
  5
1EA
330
1F
100
AcDbEntity
  8
0
  6
Continuous
 62
     7
370
    25
100
AcDbLine
 10
408.4319913136
 20
1895.3121672365
 30
0.0
 11
383.4319913136
 21
1895.3121672365
 31
0.0
  0
ARC
  5
1EB
330
1F
100
AcDbEntity
  8
0
  6
Continuous
 62
     7
370
    25
100
AcDbCircle
 10
408.4319913136
 20
1898.8121672365
 30
0.0
 40
3.500000000002274
100
AcDbArc
 50
270.0
 51
90.0
  0
LINE
  5
1EC
330
1F
100
AcDbEntity
  8
0
  6
Continuous
 62
     7
370
    25
100
AcDbLine
 10
383.4319913136
 20
1902.3121672365
 30
0.0
 11
408.4319913136
 21
1902.3121672365
 31
0.0
  0
ARC
  5
1ED
330
1F
100
AcDbEntity
  8
0
  6
Continuous
 62
     7
370
    25
100
AcDbCircle
 10
383.4319913136
 20
1923.8121672365
 30
0.0
 40
3.500000000001137
100
AcDbArc
 50
90.0
 51
270.0
  0
LINE
  5
1EE
330
1F
100
AcDbEntity
  8
0
  6
Continuous
 62
     7
370
    25
100
AcDbLine
 10
408.4319913136
 20
1920.3121672365
 30
0.0
 11
383.4319913136
 21
1920.3121672365
 31
0.0
  0
ARC
  5
1EF
330
1F
100
AcDbEntity
  8
0
  6
Continuous
 62
     7
370
    25
100
AcDbCircle
 10
408.4319913136
 20
1923.8121672365
 30
0.0
 40
3.500000000002046
100
AcDbArc
 50
270.0
 51
90.0
  0
LINE
  5
1F0
330
1F
100
AcDbEntity
  8
0
  6
Continuous
 62
     7
370
    25
100
AcDbLine
 10
383.4319913136
 20
1927.3121672365
 30
0.0
 11
408.4319913136
 21
1927.3121672365
 31
0.0
  0
ARC
  5
1F1
330
1F
100
AcDbEntity
  8
0
  6
Continuous
 62
     7
370
    25
100
AcDbCircle
 10
433.4319913136
 20
1898.8121672365
 30
0.0
 40
3.500000000002274
100
AcDbArc
 50
90.0
 51
270.0
  0
LINE
  5
1F2
330
1F
100
AcDbEntity
  8
0
  6
Continuous
 62
     7
370
    25
100
AcDbLine
 10
458.4319913136
 20
1895.3121672365
 30
0.0
 11
433.4319913136
 21
1895.3121672365
 31
0.0
  0
ARC
  5
1F3
330
1F
100
AcDbEntity
  8
0
  6
Continuous
 62
     7
370
    25
100
AcDbCircle
 10
458.4319913136
 20
1898.8121672365
 30
0.0
 40
3.500000000002274
100
AcDbArc
 50
270.0
 51
90.0
  0
LINE
  5
1F4
330
1F
100
AcDbEntity
  8
0
  6
Continuous
 62
     7
370
    25
100
AcDbLine
 10
433.4319913136
 20
1902.3121672365
 30
0.0
 11
458.4319913136
 21
1902.3121672365
 31
0.0
  0
ARC
  5
1F5
330
1F
100
AcDbEntity
  8
0
  6
Continuous
 62
     7
370
    25
100
AcDbCircle
 10
1433.4319913136
 20
1923.8121672365
 30
0.0
 40
3.500000000004775
100
AcDbArc
 50
90.0
 51
270.0
  0
LINE
  5
1F6
330
1F
100
AcDbEntity
  8
0
  6
Continuous
 62
     7
370
    25
100
AcDbLine
 10
1458.4319913136
 20
1920.3121672365
 30
0.0
 11
1433.4319913136
 21
1920.3121672365
 31
0.0
  0
ARC
  5
1F7
330
1F
100
AcDbEntity
  8
0
  6
Continuous
 62
     7
370
    25
100
AcDbCircle
 10
1458.4319913136
 20
1923.8121672365
 30
0.0
 40
3.500000000009322
100
AcDbArc
 50
270.0
 51
90.0
  0
LINE
  5
1F8
330
1F
100
AcDbEntity
  8
0
  6
Continuous
 62
     7
370
    25
100
AcDbLine
 10
1433.4319913136
 20
1927.3121672365
 30
0.0
 11
1458.4319913136
 21
1927.3121672365
 31
0.0
  0
ARC
  5
1F9
330
1F
100
AcDbEntity
  8
0
  6
Continuous
 62
     7
370
    25
100
AcDbCircle
 10
1483.4319913136
 20
1898.8121672365
 30
0.0
 40
3.500000000009322
100
AcDbArc
 50
90.0
 51
270.0
  0
LINE
  5
1FA
330
1F
100
AcDbEntity
  8
0
  6
Continuous
 62
     7
370
    25
100
AcDbLine
 10
1508.4319913136
 20
1895.3121672364
 30
0.0
 11
1483.4319913136
 21
1895.3121672364
 31
0.0
  0
ARC
  5
1FB
330
1F
100
AcDbEntity
  8
0
  6
Continuous
 62
     7
370
    25
100
AcDbCircle
 10
1508.4319913136
 20
1898.8121672365
 30
0.0
 40
3.500000000009777
100
AcDbArc
 50
270.0
 51
90.0
  0
LINE
  5
1FC
330
1F
100
AcDbEntity
  8
0
  6
Continuous
 62
     7
370
    25
100
AcDbLine
 10
1483.4319913136
 20
1902.3121672365
 30
0.0
 11
1508.4319913136
 21
1902.3121672365
 31
0.0
  0
ARC
  5
1FD
330
1F
100
AcDbEntity
  8
0
  6
Continuous
 62
     7
370
    25
100
AcDbCircle
 10
1483.4319913136
 20
1923.8121672365
 30
0.0
 40
3.500000000005002
100
AcDbArc
 50
90.0
 51
270.0
  0
LINE
  5
1FE
330
1F
100
AcDbEntity
  8
0
  6
Continuous
 62
     7
370
    25
100
AcDbLine
 10
1508.4319913136
 20
1920.3121672365
 30
0.0
 11
1483.4319913136
 21
1920.3121672365
 31
0.0
  0
ARC
  5
1FF
330
1F
100
AcDbEntity
  8
0
  6
Continuous
 62
     7
370
    25
100
AcDbCircle
 10
1508.4319913136
 20
1923.8121672365
 30
0.0
 40
3.50000000000955
100
AcDbArc
 50
270.0
 51
90.0
  0
LINE
  5
200
330
1F
100
AcDbEntity
  8
0
  6
Continuous
 62
     7
370
    25
100
AcDbLine
 10
1483.4319913136
 20
1927.3121672365
 30
0.0
 11
1508.4319913136
 21
1927.3121672365
 31
0.0
  0
ARC
  5
201
330
1F
100
AcDbEntity
  8
0
  6
Continuous
 62
     7
370
    25
100
AcDbCircle
 10
1533.4319913136
 20
1898.8121672365
 30
0.0
 40
3.50000000000955
100
AcDbArc
 50
90.0
 51
270.0
  0
LINE
  5
202
330
1F
100
AcDbEntity
  8
0
  6
Continuous
 62
     7
370
    25
100
AcDbLine
 10
1558.4319913136
 20
1895.3121672364
 30
0.0
 11
1533.4319913136
 21
1895.3121672364
 31
0.0
  0
ARC
  5
203
330
1F
100
AcDbEntity
  8
0
  6
Continuous
 62
     7
370
    25
100
AcDbCircle
 10
1558.4319913136
 20
1898.8121672365
 30
0.0
 40
3.500000000010004
100
AcDbArc
 50
270.0
 51
90.0
  0
LINE
  5
204
330
1F
100
AcDbEntity
  8
0
  6
Continuous
 62
     7
370
    25
100
AcDbLine
 10
1533.4319913136
 20
1902.3121672365
 30
0.0
 11
1558.4319913136
 21
1902.3121672365
 31
0.0
  0
ARC
  5
205
330
1F
100
AcDbEntity
  8
0
  6
Continuous
 62
     7
370
    25
100
AcDbCircle
 10
1333.4319913136
 20
1923.8121672365
 30
0.0
 40
3.50000000000432
100
AcDbArc
 50
90.0
 51
270.0
  0
LINE
  5
206
330
1F
100
AcDbEntity
  8
0
  6
Continuous
 62
     7
370
    25
100
AcDbLine
 10
1358.4319913136
 20
1920.3121672365
 30
0.0
 11
1333.4319913136
 21
1920.3121672365
 31
0.0
  0
ARC
  5
207
330
1F
100
AcDbEntity
  8
0
  6
Continuous
 62
     7
370
    25
100
AcDbCircle
 10
1358.4319913136
 20
1923.8121672365
 30
0.0
 40
3.50000000000864
100
AcDbArc
 50
270.0
 51
90.0
  0
LINE
  5
208
330
1F
100
AcDbEntity
  8
0
  6
Continuous
 62
     7
370
    25
100
AcDbLine
 10
1333.4319913136
 20
1927.3121672365
 30
0.0
 11
1358.4319913136
 21
1927.3121672365
 31
0.0
  0
ARC
  5
209
330
1F
100
AcDbEntity
  8
0
  6
Continuous
 62
     7
370
    25
100
AcDbCircle
 10
1383.4319913136
 20
1898.8121672365
 30
0.0
 40
3.50000000000864
100
AcDbArc
 50
90.0
 51
270.0
  0
LINE
  5
20A
330
1F
100
AcDbEntity
  8
0
  6
Continuous
 62
     7
370
    25
100
AcDbLine
 10
1408.4319913136
 20
1895.3121672364
 30
0.0
 11
1383.4319913136
 21
1895.3121672364
 31
0.0
  0
ARC
  5
20B
330
1F
100
AcDbEntity
  8
0
  6
Continuous
 62
     7
370
    25
100
AcDbCircle
 10
1408.4319913136
 20
1898.8121672365
 30
0.0
 40
3.500000000009095
100
AcDbArc
 50
270.0
 51
90.0
  0
LINE
  5
20C
330
1F
100
AcDbEntity
  8
0
  6
Continuous
 62
     7
370
    25
100
AcDbLine
 10
1383.4319913136
 20
1902.3121672365
 30
0.0
 11
1408.4319913136
 21
1902.3121672365
 31
0.0
  0
ARC
  5
20D
330
1F
100
AcDbEntity
  8
0
  6
Continuous
 62
     7
370
    25
100
AcDbCircle
 10
1383.4319913136
 20
1923.8121672365
 30
0.0
 40
3.500000000004547
100
AcDbArc
 50
90.0
 51
270.0
  0
LINE
  5
20E
330
1F
100
AcDbEntity
  8
0
  6
Continuous
 62
     7
370
    25
100
AcDbLine
 10
1408.4319913136
 20
1920.3121672365
 30
0.0
 11
1383.4319913136
 21
1920.3121672365
 31
0.0
  0
ARC
  5
20F
330
1F
100
AcDbEntity
  8
0
  6
Continuous
 62
     7
370
    25
100
AcDbCircle
 10
1408.4319913136
 20
1923.8121672365
 30
0.0
 40
3.500000000009095
100
AcDbArc
 50
270.0
 51
90.0
  0
LINE
  5
210
330
1F
100
AcDbEntity
  8
0
  6
Continuous
 62
     7
370
    25
100
AcDbLine
 10
1383.4319913136
 20
1927.3121672365
 30
0.0
 11
1408.4319913136
 21
1927.3121672365
 31
0.0
  0
ARC
  5
211
330
1F
100
AcDbEntity
  8
0
  6
Continuous
 62
     7
370
    25
100
AcDbCircle
 10
1433.4319913136
 20
1898.8121672365
 30
0.0
 40
3.500000000009095
100
AcDbArc
 50
90.0
 51
270.0
  0
LINE
  5
212
330
1F
100
AcDbEntity
  8
0
  6
Continuous
 62
     7
370
    25
100
AcDbLine
 10
1458.4319913136
 20
1895.3121672364
 30
0.0
 11
1433.4319913136
 21
1895.3121672364
 31
0.0
  0
ARC
  5
213
330
1F
100
AcDbEntity
  8
0
  6
Continuous
 62
     7
370
    25
100
AcDbCircle
 10
1458.4319913136
 20
1898.8121672365
 30
0.0
 40
3.500000000009322
100
AcDbArc
 50
270.0
 51
90.0
  0
LINE
  5
214
330
1F
100
AcDbEntity
  8
0
  6
Continuous
 62
     7
370
    25
100
AcDbLine
 10
1433.4319913136
 20
1902.3121672365
 30
0.0
 11
1458.4319913136
 21
1902.3121672365
 31
0.0
  0
ARC
  5
215
330
1F
100
AcDbEntity
  8
0
  6
Continuous
 62
     7
370
    25
100
AcDbCircle
 10
1633.4319913136
 20
1923.8121672365
 30
0.0
 40
3.500000000005457
100
AcDbArc
 50
90.0
 51
270.0
  0
LINE
  5
216
330
1F
100
AcDbEntity
  8
0
  6
Continuous
 62
     7
370
    25
100
AcDbLine
 10
1658.4319913136
 20
1920.3121672365
 30
0.0
 11
1633.4319913136
 21
1920.3121672365
 31
0.0
  0
ARC
  5
217
330
1F
100
AcDbEntity
  8
0
  6
Continuous
 62
     7
370
    25
100
AcDbCircle
 10
1658.4319913136
 20
1923.8121672365
 30
0.0
 40
3.500000000010914
100
AcDbArc
 50
270.0
 51
90.0
  0
LINE
  5
218
330
1F
100
AcDbEntity
  8
0
  6
Continuous
 62
     7
370
    25
100
AcDbLine
 10
1633.4319913136
 20
1927.3121672365
 30
0.0
 11
1658.4319913136
 21
1927.3121672365
 31
0.0
  0
ARC
  5
219
330
1F
100
AcDbEntity
  8
0
  6
Continuous
 62
     7
370
    25
100
AcDbCircle
 10
1683.4319913136
 20
1898.8121672365
 30
0.0
 40
3.500000000010914
100
AcDbArc
 50
90.0
 51
270.0
  0
LINE
  5
21A
330
1F
100
AcDbEntity
  8
0
  6
Continuous
 62
     7
370
    25
100
AcDbLine
 10
1708.4319913136
 20
1895.3121672364
 30
0.0
 11
1683.4319913136
 21
1895.3121672364
 31
0.0
  0
ARC
  5
21B
330
1F
100
AcDbEntity
  8
0
  6
Continuous
 62
     7
370
    25
100
AcDbCircle
 10
1708.4319913136
 20
1898.8121672365
 30
0.0
 40
3.500000000011141
100
AcDbArc
 50
270.0
 51
90.0
  0
LINE
  5
21C
330
1F
100
AcDbEntity
  8
0
  6
Continuous
 62
     7
370
    25
100
AcDbLine
 10
1683.4319913136
 20
1902.3121672365
 30
0.0
 11
1708.4319913136
 21
1902.3121672365
 31
0.0
  0
ARC
  5
21D
330
1F
100
AcDbEntity
  8
0
  6
Continuous
 62
     7
370
    25
100
AcDbCircle
 10
1683.4319913136
 20
1923.8121672365
 30
0.0
 40
3.500000000005684
100
AcDbArc
 50
90.0
 51
270.0
  0
LINE
  5
21E
330
1F
100
AcDbEntity
  8
0
  6
Continuous
 62
     7
370
    25
100
AcDbLine
 10
1708.4319913136
 20
1920.3121672365
 30
0.0
 11
1683.4319913136
 21
1920.3121672365
 31
0.0
  0
ARC
  5
21F
330
1F
100
AcDbEntity
  8
0
  6
Continuous
 62
     7
370
    25
100
AcDbCircle
 10
1708.4319913136
 20
1923.8121672365
 30
0.0
 40
3.500000000010914
100
AcDbArc
 50
270.0
 51
90.0
  0
LINE
  5
220
330
1F
100
AcDbEntity
  8
0
  6
Continuous
 62
     7
370
    25
100
AcDbLine
 10
1683.4319913136
 20
1927.3121672365
 30
0.0
 11
1708.4319913136
 21
1927.3121672365
 31
0.0
  0
ARC
  5
221
330
1F
100
AcDbEntity
  8
0
  6
Continuous
 62
     7
370
    25
100
AcDbCircle
 10
1733.4319913136
 20
1898.8121672365
 30
0.0
 40
3.500000000011141
100
AcDbArc
 50
90.0
 51
270.0
  0
LINE
  5
222
330
1F
100
AcDbEntity
  8
0
  6
Continuous
 62
     7
370
    25
100
AcDbLine
 10
1758.4319913136
 20
1895.3121672364
 30
0.0
 11
1733.4319913136
 21
1895.3121672364
 31
0.0
  0
ARC
  5
223
330
1F
100
AcDbEntity
  8
0
  6
Continuous
 62
     7
370
    25
100
AcDbCircle
 10
1758.4319913136
 20
1898.8121672365
 30
0.0
 40
3.500000000011369
100
AcDbArc
 50
270.0
 51
90.0
  0
LINE
  5
224
330
1F
100
AcDbEntity
  8
0
  6
Continuous
 62
     7
370
    25
100
AcDbLine
 10
1733.4319913136
 20
1902.3121672365
 30
0.0
 11
1758.4319913136
 21
1902.3121672365
 31
0.0
  0
ARC
  5
225
330
1F
100
AcDbEntity
  8
0
  6
Continuous
 62
     7
370
    25
100
AcDbCircle
 10
1533.4319913136
 20
1923.8121672365
 30
0.0
 40
3.500000000005002
100
AcDbArc
 50
90.0
 51
270.0
  0
LINE
  5
226
330
1F
100
AcDbEntity
  8
0
  6
Continuous
 62
     7
370
    25
100
AcDbLine
 10
1558.4319913136
 20
1920.3121672365
 30
0.0
 11
1533.4319913136
 21
1920.3121672365
 31
0.0
  0
ARC
  5
227
330
1F
100
AcDbEntity
  8
0
  6
Continuous
 62
     7
370
    25
100
AcDbCircle
 10
1558.4319913136
 20
1923.8121672365
 30
0.0
 40
3.500000000010004
100
AcDbArc
 50
270.0
 51
90.0
  0
LINE
  5
228
330
1F
100
AcDbEntity
  8
0
  6
Continuous
 62
     7
370
    25
100
AcDbLine
 10
1533.4319913136
 20
1927.3121672365
 30
0.0
 11
1558.4319913136
 21
1927.3121672365
 31
0.0
  0
ARC
  5
229
330
1F
100
AcDbEntity
  8
0
  6
Continuous
 62
     7
370
    25
100
AcDbCircle
 10
1583.4319913136
 20
1898.8121672365
 30
0.0
 40
3.500000000010004
100
AcDbArc
 50
90.0
 51
270.0
  0
LINE
  5
22A
330
1F
100
AcDbEntity
  8
0
  6
Continuous
 62
     7
370
    25
100
AcDbLine
 10
1608.4319913136
 20
1895.3121672364
 30
0.0
 11
1583.4319913136
 21
1895.3121672364
 31
0.0
  0
ARC
  5
22B
330
1F
100
AcDbEntity
  8
0
  6
Continuous
 62
     7
370
    25
100
AcDbCircle
 10
1608.4319913136
 20
1898.8121672365
 30
0.0
 40
3.500000000010232
100
AcDbArc
 50
270.0
 51
90.0
  0
LINE
  5
22C
330
1F
100
AcDbEntity
  8
0
  6
Continuous
 62
     7
370
    25
100
AcDbLine
 10
1583.4319913136
 20
1902.3121672365
 30
0.0
 11
1608.4319913136
 21
1902.3121672365
 31
0.0
  0
ARC
  5
22D
330
1F
100
AcDbEntity
  8
0
  6
Continuous
 62
     7
370
    25
100
AcDbCircle
 10
1583.4319913136
 20
1923.8121672365
 30
0.0
 40
3.50000000000523
100
AcDbArc
 50
90.0
 51
270.0
  0
LINE
  5
22E
330
1F
100
AcDbEntity
  8
0
  6
Continuous
 62
     7
370
    25
100
AcDbLine
 10
1608.4319913136
 20
1920.3121672365
 30
0.0
 11
1583.4319913136
 21
1920.3121672365
 31
0.0
  0
ARC
  5
22F
330
1F
100
AcDbEntity
  8
0
  6
Continuous
 62
     7
370
    25
100
AcDbCircle
 10
1608.4319913136
 20
1923.8121672365
 30
0.0
 40
3.500000000010459
100
AcDbArc
 50
270.0
 51
90.0
  0
LINE
  5
230
330
1F
100
AcDbEntity
  8
0
  6
Continuous
 62
     7
370
    25
100
AcDbLine
 10
1583.4319913136
 20
1927.3121672365
 30
0.0
 11
1608.4319913136
 21
1927.3121672365
 31
0.0
  0
ARC
  5
231
330
1F
100
AcDbEntity
  8
0
  6
Continuous
 62
     7
370
    25
100
AcDbCircle
 10
1633.4319913136
 20
1898.8121672365
 30
0.0
 40
3.500000000010459
100
AcDbArc
 50
90.0
 51
270.0
  0
LINE
  5
232
330
1F
100
AcDbEntity
  8
0
  6
Continuous
 62
     7
370
    25
100
AcDbLine
 10
1658.4319913136
 20
1895.3121672364
 30
0.0
 11
1633.4319913136
 21
1895.3121672364
 31
0.0
  0
ARC
  5
233
330
1F
100
AcDbEntity
  8
0
  6
Continuous
 62
     7
370
    25
100
AcDbCircle
 10
1658.4319913136
 20
1898.8121672365
 30
0.0
 40
3.500000000010914
100
AcDbArc
 50
270.0
 51
90.0
  0
LINE
  5
234
330
1F
100
AcDbEntity
  8
0
  6
Continuous
 62
     7
370
    25
100
AcDbLine
 10
1633.4319913136
 20
1902.3121672365
 30
0.0
 11
1658.4319913136
 21
1902.3121672365
 31
0.0
  0
ARC
  5
235
330
1F
100
AcDbEntity
  8
0
  6
Continuous
 62
     7
370
    25
100
AcDbCircle
 10
1033.4319913136
 20
1923.8121672365
 30
0.0
 40
3.500000000003183
100
AcDbArc
 50
90.0
 51
270.0
  0
LINE
  5
236
330
1F
100
AcDbEntity
  8
0
  6
Continuous
 62
     7
370
    25
100
AcDbLine
 10
1058.4319913136
 20
1920.3121672365
 30
0.0
 11
1033.4319913136
 21
1920.3121672365
 31
0.0
  0
ARC
  5
237
330
1F
100
AcDbEntity
  8
0
  6
Continuous
 62
     7
370
    25
100
AcDbCircle
 10
1058.4319913136
 20
1923.8121672365
 30
0.0
 40
3.500000000006366
100
AcDbArc
 50
270.0
 51
90.0
  0
LINE
  5
238
330
1F
100
AcDbEntity
  8
0
  6
Continuous
 62
     7
370
    25
100
AcDbLine
 10
1033.4319913136
 20
1927.3121672365
 30
0.0
 11
1058.4319913136
 21
1927.3121672365
 31
0.0
  0
ARC
  5
239
330
1F
100
AcDbEntity
  8
0
  6
Continuous
 62
     7
370
    25
100
AcDbCircle
 10
1083.4319913136
 20
1898.8121672365
 30
0.0
 40
3.500000000006594
100
AcDbArc
 50
90.0
 51
270.0
  0
LINE
  5
23A
330
1F
100
AcDbEntity
  8
0
  6
Continuous
 62
     7
370
    25
100
AcDbLine
 10
1108.4319913136
 20
1895.3121672365
 30
0.0
 11
1083.4319913136
 21
1895.3121672365
 31
0.0
  0
ARC
  5
23B
330
1F
100
AcDbEntity
  8
0
  6
Continuous
 62
     7
370
    25
100
AcDbCircle
 10
1108.4319913136
 20
1898.8121672365
 30
0.0
 40
3.500000000007049
100
AcDbArc
 50
270.0
 51
90.0
  0
LINE
  5
23C
330
1F
100
AcDbEntity
  8
0
  6
Continuous
 62
     7
370
    25
100
AcDbLine
 10
1083.4319913136
 20
1902.3121672365
 30
0.0
 11
1108.4319913136
 21
1902.3121672365
 31
0.0
  0
ARC
  5
23D
330
1F
100
AcDbEntity
  8
0
  6
Continuous
 62
     7
370
    25
100
AcDbCircle
 10
1083.4319913136
 20
1923.8121672365
 30
0.0
 40
3.500000000003411
100
AcDbArc
 50
90.0
 51
270.0
  0
LINE
  5
23E
330
1F
100
AcDbEntity
  8
0
  6
Continuous
 62
     7
370
    25
100
AcDbLine
 10
1108.4319913136
 20
1920.3121672365
 30
0.0
 11
1083.4319913136
 21
1920.3121672365
 31
0.0
  0
ARC
  5
23F
330
1F
100
AcDbEntity
  8
0
  6
Continuous
 62
     7
370
    25
100
AcDbCircle
 10
1108.4319913136
 20
1923.8121672365
 30
0.0
 40
3.500000000006821
100
AcDbArc
 50
270.0
 51
90.0
  0
LINE
  5
240
330
1F
100
AcDbEntity
  8
0
  6
Continuous
 62
     7
370
    25
100
AcDbLine
 10
1083.4319913136
 20
1927.3121672365
 30
0.0
 11
1108.4319913136
 21
1927.3121672365
 31
0.0
  0
ARC
  5
241
330
1F
100
AcDbEntity
  8
0
  6
Continuous
 62
     7
370
    25
100
AcDbCircle
 10
1133.4319913136
 20
1898.8121672365
 30
0.0
 40
3.500000000007049
100
AcDbArc
 50
90.0
 51
270.0
  0
LINE
  5
242
330
1F
100
AcDbEntity
  8
0
  6
Continuous
 62
     7
370
    25
100
AcDbLine
 10
1158.4319913136
 20
1895.3121672365
 30
0.0
 11
1133.4319913136
 21
1895.3121672365
 31
0.0
  0
ARC
  5
243
330
1F
100
AcDbEntity
  8
0
  6
Continuous
 62
     7
370
    25
100
AcDbCircle
 10
1158.4319913136
 20
1898.8121672365
 30
0.0
 40
3.500000000007276
100
AcDbArc
 50
270.0
 51
90.0
  0
LINE
  5
244
330
1F
100
AcDbEntity
  8
0
  6
Continuous
 62
     7
370
    25
100
AcDbLine
 10
1133.4319913136
 20
1902.3121672365
 30
0.0
 11
1158.4319913136
 21
1902.3121672365
 31
0.0
  0
ARC
  5
245
330
1F
100
AcDbEntity
  8
0
  6
Continuous
 62
     7
370
    25
100
AcDbCircle
 10
933.4319913136
 20
1923.8121672365
 30
0.0
 40
3.500000000002956
100
AcDbArc
 50
90.0
 51
270.0
  0
LINE
  5
246
330
1F
100
AcDbEntity
  8
0
  6
Continuous
 62
     7
370
    25
100
AcDbLine
 10
958.4319913136
 20
1920.3121672365
 30
0.0
 11
933.4319913136
 21
1920.3121672365
 31
0.0
  0
ARC
  5
247
330
1F
100
AcDbEntity
  8
0
  6
Continuous
 62
     7
370
    25
100
AcDbCircle
 10
958.4319913136
 20
1923.8121672365
 30
0.0
 40
3.500000000005912
100
AcDbArc
 50
270.0
 51
90.0
  0
LINE
  5
248
330
1F
100
AcDbEntity
  8
0
  6
Continuous
 62
     7
370
    25
100
AcDbLine
 10
933.4319913136
 20
1927.3121672365
 30
0.0
 11
958.4319913136
 21
1927.3121672365
 31
0.0
  0
ARC
  5
249
330
1F
100
AcDbEntity
  8
0
  6
Continuous
 62
     7
370
    25
100
AcDbCircle
 10
983.4319913136
 20
1898.8121672365
 30
0.0
 40
3.500000000006139
100
AcDbArc
 50
90.0
 51
270.0
  0
LINE
  5
24A
330
1F
100
AcDbEntity
  8
0
  6
Continuous
 62
     7
370
    25
100
AcDbLine
 10
1008.4319913136
 20
1895.3121672365
 30
0.0
 11
983.4319913136
 21
1895.3121672365
 31
0.0
  0
ARC
  5
24B
330
1F
100
AcDbEntity
  8
0
  6
Continuous
 62
     7
370
    25
100
AcDbCircle
 10
1008.4319913136
 20
1898.8121672365
 30
0.0
 40
3.500000000006366
100
AcDbArc
 50
270.0
 51
90.0
  0
LINE
  5
24C
330
1F
100
AcDbEntity
  8
0
  6
Continuous
 62
     7
370
    25
100
AcDbLine
 10
983.4319913136
 20
1902.3121672365
 30
0.0
 11
1008.4319913136
 21
1902.3121672365
 31
0.0
  0
ARC
  5
24D
330
1F
100
AcDbEntity
  8
0
  6
Continuous
 62
     7
370
    25
100
AcDbCircle
 10
983.4319913136
 20
1923.8121672365
 30
0.0
 40
3.500000000003183
100
AcDbArc
 50
90.0
 51
270.0
  0
LINE
  5
24E
330
1F
100
AcDbEntity
  8
0
  6
Continuous
 62
     7
370
    25
100
AcDbLine
 10
1008.4319913136
 20
1920.3121672365
 30
0.0
 11
983.4319913136
 21
1920.3121672365
 31
0.0
  0
ARC
  5
24F
330
1F
100
AcDbEntity
  8
0
  6
Continuous
 62
     7
370
    25
100
AcDbCircle
 10
1008.4319913136
 20
1923.8121672365
 30
0.0
 40
3.500000000005912
100
AcDbArc
 50
270.0
 51
90.0
  0
LINE
  5
250
330
1F
100
AcDbEntity
  8
0
  6
Continuous
 62
     7
370
    25
100
AcDbLine
 10
983.4319913136
 20
1927.3121672365
 30
0.0
 11
1008.4319913136
 21
1927.3121672365
 31
0.0
  0
ARC
  5
251
330
1F
100
AcDbEntity
  8
0
  6
Continuous
 62
     7
370
    25
100
AcDbCircle
 10
1033.4319913136
 20
1898.8121672365
 30
0.0
 40
3.500000000006366
100
AcDbArc
 50
90.0
 51
270.0
  0
LINE
  5
252
330
1F
100
AcDbEntity
  8
0
  6
Continuous
 62
     7
370
    25
100
AcDbLine
 10
1058.4319913136
 20
1895.3121672365
 30
0.0
 11
1033.4319913136
 21
1895.3121672365
 31
0.0
  0
ARC
  5
253
330
1F
100
AcDbEntity
  8
0
  6
Continuous
 62
     7
370
    25
100
AcDbCircle
 10
1058.4319913136
 20
1898.8121672365
 30
0.0
 40
3.500000000006594
100
AcDbArc
 50
270.0
 51
90.0
  0
LINE
  5
254
330
1F
100
AcDbEntity
  8
0
  6
Continuous
 62
     7
370
    25
100
AcDbLine
 10
1033.4319913136
 20
1902.3121672365
 30
0.0
 11
1058.4319913136
 21
1902.3121672365
 31
0.0
  0
ARC
  5
255
330
1F
100
AcDbEntity
  8
0
  6
Continuous
 62
     7
370
    25
100
AcDbCircle
 10
1233.4319913136
 20
1923.8121672365
 30
0.0
 40
3.500000000004093
100
AcDbArc
 50
90.0
 51
270.0
  0
LINE
  5
256
330
1F
100
AcDbEntity
  8
0
  6
Continuous
 62
     7
370
    25
100
AcDbLine
 10
1258.4319913136
 20
1920.3121672365
 30
0.0
 11
1233.4319913136
 21
1920.3121672365
 31
0.0
  0
ARC
  5
257
330
1F
100
AcDbEntity
  8
0
  6
Continuous
 62
     7
370
    25
100
AcDbCircle
 10
1258.4319913136
 20
1923.8121672365
 30
0.0
 40
3.500000000007731
100
AcDbArc
 50
270.0
 51
90.0
  0
LINE
  5
258
330
1F
100
AcDbEntity
  8
0
  6
Continuous
 62
     7
370
    25
100
AcDbLine
 10
1233.4319913136
 20
1927.3121672365
 30
0.0
 11
1258.4319913136
 21
1927.3121672365
 31
0.0
  0
ARC
  5
259
330
1F
100
AcDbEntity
  8
0
  6
Continuous
 62
     7
370
    25
100
AcDbCircle
 10
1283.4319913136
 20
1898.8121672365
 30
0.0
 40
3.500000000008185
100
AcDbArc
 50
90.0
 51
270.0
  0
LINE
  5
25A
330
1F
100
AcDbEntity
  8
0
  6
Continuous
 62
     7
370
    25
100
AcDbLine
 10
1308.4319913136
 20
1895.3121672365
 30
0.0
 11
1283.4319913136
 21
1895.3121672365
 31
0.0
  0
ARC
  5
25B
330
1F
100
AcDbEntity
  8
0
  6
Continuous
 62
     7
370
    25
100
AcDbCircle
 10
1308.4319913136
 20
1898.8121672365
 30
0.0
 40
3.500000000008413
100
AcDbArc
 50
270.0
 51
90.0
  0
LINE
  5
25C
330
1F
100
AcDbEntity
  8
0
  6
Continuous
 62
     7
370
    25
100
AcDbLine
 10
1283.4319913136
 20
1902.3121672365
 30
0.0
 11
1308.4319913136
 21
1902.3121672365
 31
0.0
  0
ARC
  5
25D
330
1F
100
AcDbEntity
  8
0
  6
Continuous
 62
     7
370
    25
100
AcDbCircle
 10
1283.4319913136
 20
1923.8121672365
 30
0.0
 40
3.500000000004093
100
AcDbArc
 50
90.0
 51
270.0
  0
LINE
  5
25E
330
1F
100
AcDbEntity
  8
0
  6
Continuous
 62
     7
370
    25
100
AcDbLine
 10
1308.4319913136
 20
1920.3121672365
 30
0.0
 11
1283.4319913136
 21
1920.3121672365
 31
0.0
  0
ARC
  5
25F
330
1F
100
AcDbEntity
  8
0
  6
Continuous
 62
     7
370
    25
100
AcDbCircle
 10
1308.4319913136
 20
1923.8121672365
 30
0.0
 40
3.500000000008185
100
AcDbArc
 50
270.0
 51
90.0
  0
LINE
  5
260
330
1F
100
AcDbEntity
  8
0
  6
Continuous
 62
     7
370
    25
100
AcDbLine
 10
1283.4319913136
 20
1927.3121672365
 30
0.0
 11
1308.4319913136
 21
1927.3121672365
 31
0.0
  0
ARC
  5
261
330
1F
100
AcDbEntity
  8
0
  6
Continuous
 62
     7
370
    25
100
AcDbCircle
 10
1333.4319913136
 20
1898.8121672365
 30
0.0
 40
3.500000000008413
100
AcDbArc
 50
90.0
 51
270.0
  0
LINE
  5
262
330
1F
100
AcDbEntity
  8
0
  6
Continuous
 62
     7
370
    25
100
AcDbLine
 10
1358.4319913136
 20
1895.3121672364
 30
0.0
 11
1333.4319913136
 21
1895.3121672365
 31
0.0
  0
ARC
  5
263
330
1F
100
AcDbEntity
  8
0
  6
Continuous
 62
     7
370
    25
100
AcDbCircle
 10
1358.4319913136
 20
1898.8121672365
 30
0.0
 40
3.50000000000864
100
AcDbArc
 50
270.0
 51
90.0
  0
LINE
  5
264
330
1F
100
AcDbEntity
  8
0
  6
Continuous
 62
     7
370
    25
100
AcDbLine
 10
1333.4319913136
 20
1902.3121672365
 30
0.0
 11
1358.4319913136
 21
1902.3121672365
 31
0.0
  0
ARC
  5
265
330
1F
100
AcDbEntity
  8
0
  6
Continuous
 62
     7
370
    25
100
AcDbCircle
 10
1133.4319913136
 20
1923.8121672365
 30
0.0
 40
3.500000000003638
100
AcDbArc
 50
90.0
 51
270.0
  0
LINE
  5
266
330
1F
100
AcDbEntity
  8
0
  6
Continuous
 62
     7
370
    25
100
AcDbLine
 10
1158.4319913136
 20
1920.3121672365
 30
0.0
 11
1133.4319913136
 21
1920.3121672365
 31
0.0
  0
ARC
  5
267
330
1F
100
AcDbEntity
  8
0
  6
Continuous
 62
     7
370
    25
100
AcDbCircle
 10
1158.4319913136
 20
1923.8121672365
 30
0.0
 40
3.500000000007276
100
AcDbArc
 50
270.0
 51
90.0
  0
LINE
  5
268
330
1F
100
AcDbEntity
  8
0
  6
Continuous
 62
     7
370
    25
100
AcDbLine
 10
1133.4319913136
 20
1927.3121672365
 30
0.0
 11
1158.4319913136
 21
1927.3121672365
 31
0.0
  0
ARC
  5
269
330
1F
100
AcDbEntity
  8
0
  6
Continuous
 62
     7
370
    25
100
AcDbCircle
 10
1183.4319913136
 20
1898.8121672365
 30
0.0
 40
3.500000000007503
100
AcDbArc
 50
90.0
 51
270.0
  0
LINE
  5
26A
330
1F
100
AcDbEntity
  8
0
  6
Continuous
 62
     7
370
    25
100
AcDbLine
 10
1208.4319913136
 20
1895.3121672365
 30
0.0
 11
1183.4319913136
 21
1895.3121672365
 31
0.0
  0
ARC
  5
26B
330
1F
100
AcDbEntity
  8
0
  6
Continuous
 62
     7
370
    25
100
AcDbCircle
 10
1208.4319913136
 20
1898.8121672365
 30
0.0
 40
3.500000000007958
100
AcDbArc
 50
270.0
 51
90.0
  0
LINE
  5
26C
330
1F
100
AcDbEntity
  8
0
  6
Continuous
 62
     7
370
    25
100
AcDbLine
 10
1183.4319913136
 20
1902.3121672365
 30
0.0
 11
1208.4319913136
 21
1902.3121672365
 31
0.0
  0
ARC
  5
26D
330
1F
100
AcDbEntity
  8
0
  6
Continuous
 62
     7
370
    25
100
AcDbCircle
 10
1183.4319913136
 20
1923.8121672365
 30
0.0
 40
3.500000000003865
100
AcDbArc
 50
90.0
 51
270.0
  0
LINE
  5
26E
330
1F
100
AcDbEntity
  8
0
  6
Continuous
 62
     7
370
    25
100
AcDbLine
 10
1208.4319913136
 20
1920.3121672365
 30
0.0
 11
1183.4319913136
 21
1920.3121672365
 31
0.0
  0
ARC
  5
26F
330
1F
100
AcDbEntity
  8
0
  6
Continuous
 62
     7
370
    25
100
AcDbCircle
 10
1208.4319913136
 20
1923.8121672365
 30
0.0
 40
3.500000000007731
100
AcDbArc
 50
270.0
 51
90.0
  0
LINE
  5
270
330
1F
100
AcDbEntity
  8
0
  6
Continuous
 62
     7
370
    25
100
AcDbLine
 10
1183.4319913136
 20
1927.3121672365
 30
0.0
 11
1208.4319913136
 21
1927.3121672365
 31
0.0
  0
ARC
  5
271
330
1F
100
AcDbEntity
  8
0
  6
Continuous
 62
     7
370
    25
100
AcDbCircle
 10
1233.4319913136
 20
1898.8121672365
 30
0.0
 40
3.500000000007731
100
AcDbArc
 50
90.0
 51
270.0
  0
LINE
  5
272
330
1F
100
AcDbEntity
  8
0
  6
Continuous
 62
     7
370
    25
100
AcDbLine
 10
1258.4319913136
 20
1895.3121672365
 30
0.0
 11
1233.4319913136
 21
1895.3121672365
 31
0.0
  0
ARC
  5
273
330
1F
100
AcDbEntity
  8
0
  6
Continuous
 62
     7
370
    25
100
AcDbCircle
 10
1258.4319913136
 20
1898.8121672365
 30
0.0
 40
3.500000000008185
100
AcDbArc
 50
270.0
 51
90.0
  0
LINE
  5
274
330
1F
100
AcDbEntity
  8
0
  6
Continuous
 62
     7
370
    25
100
AcDbLine
 10
1233.4319913136
 20
1902.3121672365
 30
0.0
 11
1258.4319913136
 21
1902.3121672365
 31
0.0
  0
ARC
  5
275
330
1F
100
AcDbEntity
  8
0
  6
Continuous
 62
     7
370
    25
100
AcDbCircle
 10
2104.9319913136
 20
1915.3121672365
 30
0.0
 40
1.000000000000909
100
AcDbArc
 50
0.0
 51
90.0
  0
LINE
  5
276
330
1F
100
AcDbEntity
  8
0
  6
Continuous
 62
     7
370
    25
100
AcDbLine
 10
2099.9319913136
 20
1916.3121672365
 30
0.0
 11
2104.9319913136
 21
1916.3121672365
 31
0.0
  0
ARC
  5
277
330
1F
100
AcDbEntity
  8
0
  6
Continuous
 62
     7
370
    25
100
AcDbCircle
 10
2099.9319913136
 20
1915.3121672365
 30
0.0
 40
1.000000000000227
100
AcDbArc
 50
90.0
 51
180.0
  0
LINE
  5
278
330
1F
100
AcDbEntity
  8
0
  6
Continuous
 62
     7
370
    25
100
AcDbLine
 10
2098.9319913136
 20
1907.3121672365
 30
0.0
 11
2098.9319913136
 21
1915.3121672365
 31
0.0
  0
ARC
  5
279
330
1F
100
AcDbEntity
  8
0
  6
Continuous
 62
     7
370
    25
100
AcDbCircle
 10
2099.9319913136
 20
1907.3121672365
 30
0.0
 40
1.0
100
AcDbArc
 50
180.0
 51
270.0
  0
LINE
  5
27A
330
1F
100
AcDbEntity
  8
0
  6
Continuous
 62
     7
370
    25
100
AcDbLine
 10
2104.9319913136
 20
1906.3121672365
 30
0.0
 11
2099.9319913136
 21
1906.3121672365
 31
0.0
  0
ARC
  5
27B
330
1F
100
AcDbEntity
  8
0
  6
Continuous
 62
     7
370
    25
100
AcDbCircle
 10
2104.9319913136
 20
1907.3121672365
 30
0.0
 40
1.000000000000682
100
AcDbArc
 50
270.0
 51
0.0
  0
LINE
  5
27C
330
1F
100
AcDbEntity
  8
0
  6
Continuous
 62
     7
370
    25
100
AcDbLine
 10
2105.9319913136
 20
1915.3121672365
 30
0.0
 11
2105.9319913136
 21
1907.3121672365
 31
0.0
  0
ARC
  5
27D
330
1F
100
AcDbEntity
  8
0
  6
Continuous
 62
     7
370
    25
100
AcDbCircle
 10
136.9319913136
 20
1907.3121672365
 30
0.0
 40
1.000000000000227
100
AcDbArc
 50
180.0000000001
 51
270.0
  0
LINE
  5
27E
330
1F
100
AcDbEntity
  8
0
  6
Continuous
 62
     7
370
    25
100
AcDbLine
 10
141.9319913136
 20
1906.3121672365
 30
0.0
 11
136.9319913136
 21
1906.3121672365
 31
0.0
  0
ARC
  5
27F
330
1F
100
AcDbEntity
  8
0
  6
Continuous
 62
     7
370
    25
100
AcDbCircle
 10
141.9319913136
 20
1907.3121672365
 30
0.0
 40
1.000000000000114
100
AcDbArc
 50
270.0
 51
0.0
  0
LINE
  5
280
330
1F
100
AcDbEntity
  8
0
  6
Continuous
 62
     7
370
    25
100
AcDbLine
 10
142.9319913136
 20
1915.3121672365
 30
0.0
 11
142.9319913136
 21
1907.3121672365
 31
0.0
  0
ARC
  5
281
330
1F
100
AcDbEntity
  8
0
  6
Continuous
 62
     7
370
    25
100
AcDbCircle
 10
141.9319913136
 20
1915.3121672365
 30
0.0
 40
1.000000000000227
100
AcDbArc
 50
0.0
 51
90.0
  0
LINE
  5
282
330
1F
100
AcDbEntity
  8
0
  6
Continuous
 62
     7
370
    25
100
AcDbLine
 10
136.9319913136
 20
1916.3121672365
 30
0.0
 11
141.9319913136
 21
1916.3121672365
 31
0.0
  0
ARC
  5
283
330
1F
100
AcDbEntity
  8
0
  6
Continuous
 62
     7
370
    25
100
AcDbCircle
 10
136.9319913136
 20
1915.3121672365
 30
0.0
 40
1.000000000000909
100
AcDbArc
 50
90.0
 51
180.0
  0
LINE
  5
284
330
1F
100
AcDbEntity
  8
0
  6
Continuous
 62
     7
370
    25
100
AcDbLine
 10
135.9319913136
 20
1907.3121672365
 30
0.0
 11
135.9319913136
 21
1915.3121672365
 31
0.0
  0
CIRCLE
  5
285
330
1F
100
AcDbEntity
  8
0
  6
Continuous
 62
     7
370
    25
100
AcDbCircle
 10
2070.9319913136
 20
1911.3121672365
 30
0.0
 40
5.5
  0
CIRCLE
  5
286
330
1F
100
AcDbEntity
  8
0
  6
Continuous
 62
     7
370
    25
100
AcDbCircle
 10
1995.9319913136
 20
1911.3121672365
 30
0.0
 40
5.500000000000455
  0
CIRCLE
  5
287
330
1F
100
AcDbEntity
  8
0
  6
Continuous
 62
     7
370
    25
100
AcDbCircle
 10
1920.9319913136
 20
1911.3121672365
 30
0.0
 40
5.500000000000455
  0
CIRCLE
  5
288
330
1F
100
AcDbEntity
  8
0
  6
Continuous
 62
     7
370
    25
100
AcDbCircle
 10
1845.9319913136
 20
1911.3121672365
 30
0.0
 40
5.500000000000227
  0
CIRCLE
  5
289
330
1F
100
AcDbEntity
  8
0
  6
Continuous
 62
     7
370
    25
100
AcDbCircle
 10
1770.9319913136
 20
1911.3121672365
 30
0.0
 40
5.500000000000455
  0
CIRCLE
  5
28A
330
1F
100
AcDbEntity
  8
0
  6
Continuous
 62
     7
370
    25
100
AcDbCircle
 10
1695.9319913136
 20
1911.3121672365
 30
0.0
 40
5.500000000000455
  0
CIRCLE
  5
28B
330
1F
100
AcDbEntity
  8
0
  6
Continuous
 62
     7
370
    25
100
AcDbCircle
 10
1620.9319913136
 20
1911.3121672365
 30
0.0
 40
5.500000000000455
  0
CIRCLE
  5
28C
330
1F
100
AcDbEntity
  8
0
  6
Continuous
 62
     7
370
    25
100
AcDbCircle
 10
1545.9319913136
 20
1911.3121672365
 30
0.0
 40
5.500000000000227
  0
CIRCLE
  5
28D
330
1F
100
AcDbEntity
  8
0
  6
Continuous
 62
     7
370
    25
100
AcDbCircle
 10
1470.9319913136
 20
1911.3121672365
 30
0.0
 40
5.500000000000455
  0
CIRCLE
  5
28E
330
1F
100
AcDbEntity
  8
0
  6
Continuous
 62
     7
370
    25
100
AcDbCircle
 10
1395.9319913136
 20
1911.3121672365
 30
0.0
 40
5.500000000000227
  0
CIRCLE
  5
28F
330
1F
100
AcDbEntity
  8
0
  6
Continuous
 62
     7
370
    25
100
AcDbCircle
 10
1320.9319913136
 20
1911.3121672365
 30
0.0
 40
5.500000000000455
  0
CIRCLE
  5
290
330
1F
100
AcDbEntity
  8
0
  6
Continuous
 62
     7
370
    25
100
AcDbCircle
 10
1245.9319913136
 20
1911.3121672365
 30
0.0
 40
5.500000000000227
  0
CIRCLE
  5
291
330
1F
100
AcDbEntity
  8
0
  6
Continuous
 62
     7
370
    25
100
AcDbCircle
 10
1170.9319913136
 20
1911.3121672365
 30
0.0
 40
5.500000000000227
  0
CIRCLE
  5
292
330
1F
100
AcDbEntity
  8
0
  6
Continuous
 62
     7
370
    25
100
AcDbCircle
 10
1095.9319913136
 20
1911.3121672365
 30
0.0
 40
5.500000000000227
  0
CIRCLE
  5
293
330
1F
100
AcDbEntity
  8
0
  6
Continuous
 62
     7
370
    25
100
AcDbCircle
 10
1020.9319913136
 20
1911.3121672365
 30
0.0
 40
5.499999999999886
  0
CIRCLE
  5
294
330
1F
100
AcDbEntity
  8
0
  6
Continuous
 62
     7
370
    25
100
AcDbCircle
 10
945.9319913136
 20
1911.3121672365
 30
0.0
 40
5.499999999999886
  0
CIRCLE
  5
295
330
1F
100
AcDbEntity
  8
0
  6
Continuous
 62
     7
370
    25
100
AcDbCircle
 10
870.9319913136
 20
1911.3121672365
 30
0.0
 40
5.5
  0
CIRCLE
  5
296
330
1F
100
AcDbEntity
  8
0
  6
Continuous
 62
     7
370
    25
100
AcDbCircle
 10
795.9319913136
 20
1911.3121672365
 30
0.0
 40
5.5
  0
CIRCLE
  5
297
330
1F
100
AcDbEntity
  8
0
  6
Continuous
 62
     7
370
    25
100
AcDbCircle
 10
720.9319913136
 20
1911.3121672365
 30
0.0
 40
5.499999999999886
  0
CIRCLE
  5
298
330
1F
100
AcDbEntity
  8
0
  6
Continuous
 62
     7
370
    25
100
AcDbCircle
 10
645.9319913136
 20
1911.3121672365
 30
0.0
 40
5.5
  0
CIRCLE
  5
299
330
1F
100
AcDbEntity
  8
0
  6
Continuous
 62
     7
370
    25
100
AcDbCircle
 10
570.9319913136
 20
1911.3121672365
 30
0.0
 40
5.500000000000114
  0
CIRCLE
  5
29A
330
1F
100
AcDbEntity
  8
0
  6
Continuous
 62
     7
370
    25
100
AcDbCircle
 10
495.9319913136
 20
1911.3121672365
 30
0.0
 40
5.500000000000171
  0
CIRCLE
  5
29B
330
1F
100
AcDbEntity
  8
0
  6
Continuous
 62
     7
370
    25
100
AcDbCircle
 10
420.9319913136
 20
1911.3121672365
 30
0.0
 40
5.500000000000171
  0
CIRCLE
  5
29C
330
1F
100
AcDbEntity
  8
0
  6
Continuous
 62
     7
370
    25
100
AcDbCircle
 10
345.9319913136
 20
1911.3121672365
 30
0.0
 40
5.500000000000284
  0
CIRCLE
  5
29D
330
1F
100
AcDbEntity
  8
0
  6
Continuous
 62
     7
370
    25
100
AcDbCircle
 10
270.9319913136
 20
1911.3121672365
 30
0.0
 40
5.500000000000398
  0
CIRCLE
  5
29E
330
1F
100
AcDbEntity
  8
0
  6
Continuous
 62
     7
370
    25
100
AcDbCircle
 10
195.9319913136
 20
1911.3121672365
 30
0.0
 40
5.500000000000398
  0
LINE
  5
29F
330
1F
100
AcDbEntity
  8
0
  6
Continuous
 62
     7
370
    25
100
AcDbLine
 10
131.6292156759
 20
1895.8121672365
 30
0.0
 11
160.2347669513
 21
1895.8121672365
 31
0.0
  0
LINE
  5
2A0
330
1F
100
AcDbEntity
  8
0
  6
Continuous
 62
     7
370
    25
100
AcDbLine
 10
181.6292156759
 20
1895.8121672365
 30
0.0
 11
210.2347669513
 21
1895.8121672365
 31
0.0
  0
LINE
  5
2A1
330
1F
100
AcDbEntity
  8
0
  6
Continuous
 62
     7
370
    25
100
AcDbLine
 10
231.6292156759
 20
1895.8121672365
 30
0.0
 11
260.2347669513
 21
1895.8121672365
 31
0.0
  0
LINE
  5
2A2
330
1F
100
AcDbEntity
  8
0
  6
Continuous
 62
     7
370
    25
100
AcDbLine
 10
281.6292156759
 20
1895.8121672365
 30
0.0
 11
310.2347669513
 21
1895.8121672365
 31
0.0
  0
LINE
  5
2A3
330
1F
100
AcDbEntity
  8
0
  6
Continuous
 62
     7
370
    25
100
AcDbLine
 10
331.6292156759
 20
1895.8121672365
 30
0.0
 11
360.2347669513
 21
1895.8121672365
 31
0.0
  0
LINE
  5
2A4
330
1F
100
AcDbEntity
  8
0
  6
Continuous
 62
     7
370
    25
100
AcDbLine
 10
381.6292156759
 20
1895.8121672365
 30
0.0
 11
410.2347669513
 21
1895.8121672365
 31
0.0
  0
LINE
  5
2A5
330
1F
100
AcDbEntity
  8
0
  6
Continuous
 62
     7
370
    25
100
AcDbLine
 10
431.6292156759
 20
1895.8121672365
 30
0.0
 11
460.2347669513
 21
1895.8121672365
 31
0.0
  0
LINE
  5
2A6
330
1F
100
AcDbEntity
  8
0
  6
Continuous
 62
     7
370
    25
100
AcDbLine
 10
481.6292156759
 20
1895.8121672365
 30
0.0
 11
510.2347669513
 21
1895.8121672365
 31
0.0
  0
LINE
  5
2A7
330
1F
100
AcDbEntity
  8
0
  6
Continuous
 62
     7
370
    25
100
AcDbLine
 10
531.6292156759
 20
1895.8121672365
 30
0.0
 11
560.2347669513
 21
1895.8121672365
 31
0.0
  0
LINE
  5
2A8
330
1F
100
AcDbEntity
  8
0
  6
Continuous
 62
     7
370
    25
100
AcDbLine
 10
581.6292156759
 20
1895.8121672365
 30
0.0
 11
610.2347669513
 21
1895.8121672365
 31
0.0
  0
LINE
  5
2A9
330
1F
100
AcDbEntity
  8
0
  6
Continuous
 62
     7
370
    25
100
AcDbLine
 10
631.6292156759
 20
1895.8121672365
 30
0.0
 11
660.2347669513
 21
1895.8121672365
 31
0.0
  0
LINE
  5
2AA
330
1F
100
AcDbEntity
  8
0
  6
Continuous
 62
     7
370
    25
100
AcDbLine
 10
681.6292156759
 20
1895.8121672365
 30
0.0
 11
710.2347669513
 21
1895.8121672365
 31
0.0
  0
LINE
  5
2AB
330
1F
100
AcDbEntity
  8
0
  6
Continuous
 62
     7
370
    25
100
AcDbLine
 10
731.6292156759
 20
1895.8121672365
 30
0.0
 11
760.2347669513
 21
1895.8121672365
 31
0.0
  0
LINE
  5
2AC
330
1F
100
AcDbEntity
  8
0
  6
Continuous
 62
     7
370
    25
100
AcDbLine
 10
781.6292156758
 20
1895.8121672365
 30
0.0
 11
810.2347669513
 21
1895.8121672365
 31
0.0
  0
LINE
  5
2AD
330
1F
100
AcDbEntity
  8
0
  6
Continuous
 62
     7
370
    25
100
AcDbLine
 10
831.6292156758
 20
1895.8121672365
 30
0.0
 11
860.2347669513
 21
1895.8121672365
 31
0.0
  0
LINE
  5
2AE
330
1F
100
AcDbEntity
  8
0
  6
Continuous
 62
     7
370
    25
100
AcDbLine
 10
881.6292156758
 20
1895.8121672365
 30
0.0
 11
910.2347669513
 21
1895.8121672365
 31
0.0
  0
LINE
  5
2AF
330
1F
100
AcDbEntity
  8
0
  6
Continuous
 62
     7
370
    25
100
AcDbLine
 10
931.6292156758
 20
1895.8121672365
 30
0.0
 11
960.2347669513
 21
1895.8121672365
 31
0.0
  0
LINE
  5
2B0
330
1F
100
AcDbEntity
  8
0
  6
Continuous
 62
     7
370
    25
100
AcDbLine
 10
981.6292156758
 20
1895.8121672365
 30
0.0
 11
1010.2347669513
 21
1895.8121672365
 31
0.0
  0
LINE
  5
2B1
330
1F
100
AcDbEntity
  8
0
  6
Continuous
 62
     7
370
    25
100
AcDbLine
 10
1031.6292156758
 20
1895.8121672365
 30
0.0
 11
1060.2347669513
 21
1895.8121672365
 31
0.0
  0
LINE
  5
2B2
330
1F
100
AcDbEntity
  8
0
  6
Continuous
 62
     7
370
    25
100
AcDbLine
 10
1081.6292156758
 20
1895.8121672365
 30
0.0
 11
1110.2347669513
 21
1895.8121672365
 31
0.0
  0
LINE
  5
2B3
330
1F
100
AcDbEntity
  8
0
  6
Continuous
 62
     7
370
    25
100
AcDbLine
 10
1131.6292156758
 20
1895.8121672365
 30
0.0
 11
1160.2347669513
 21
1895.8121672365
 31
0.0
  0
LINE
  5
2B4
330
1F
100
AcDbEntity
  8
0
  6
Continuous
 62
     7
370
    25
100
AcDbLine
 10
1181.6292156758
 20
1895.8121672365
 30
0.0
 11
1210.2347669513
 21
1895.8121672365
 31
0.0
  0
LINE
  5
2B5
330
1F
100
AcDbEntity
  8
0
  6
Continuous
 62
     7
370
    25
100
AcDbLine
 10
1231.6292156758
 20
1895.8121672365
 30
0.0
 11
1260.2347669513
 21
1895.8121672365
 31
0.0
  0
LINE
  5
2B6
330
1F
100
AcDbEntity
  8
0
  6
Continuous
 62
     7
370
    25
100
AcDbLine
 10
1281.6292156758
 20
1895.8121672365
 30
0.0
 11
1310.2347669513
 21
1895.8121672365
 31
0.0
  0
LINE
  5
2B7
330
1F
100
AcDbEntity
  8
0
  6
Continuous
 62
     7
370
    25
100
AcDbLine
 10
1331.6292156758
 20
1895.8121672365
 30
0.0
 11
1360.2347669513
 21
1895.8121672365
 31
0.0
  0
LINE
  5
2B8
330
1F
100
AcDbEntity
  8
0
  6
Continuous
 62
     7
370
    25
100
AcDbLine
 10
1381.6292156758
 20
1895.8121672365
 30
0.0
 11
1410.2347669513
 21
1895.8121672365
 31
0.0
  0
LINE
  5
2B9
330
1F
100
AcDbEntity
  8
0
  6
Continuous
 62
     7
370
    25
100
AcDbLine
 10
1431.6292156758
 20
1895.8121672365
 30
0.0
 11
1460.2347669513
 21
1895.8121672365
 31
0.0
  0
LINE
  5
2BA
330
1F
100
AcDbEntity
  8
0
  6
Continuous
 62
     7
370
    25
100
AcDbLine
 10
1481.6292156758
 20
1895.8121672365
 30
0.0
 11
1510.2347669513
 21
1895.8121672365
 31
0.0
  0
LINE
  5
2BB
330
1F
100
AcDbEntity
  8
0
  6
Continuous
 62
     7
370
    25
100
AcDbLine
 10
1531.6292156758
 20
1895.8121672365
 30
0.0
 11
1560.2347669513
 21
1895.8121672365
 31
0.0
  0
LINE
  5
2BC
330
1F
100
AcDbEntity
  8
0
  6
Continuous
 62
     7
370
    25
100
AcDbLine
 10
1581.6292156758
 20
1895.8121672365
 30
0.0
 11
1610.2347669513
 21
1895.8121672365
 31
0.0
  0
LINE
  5
2BD
330
1F
100
AcDbEntity
  8
0
  6
Continuous
 62
     7
370
    25
100
AcDbLine
 10
1631.6292156758
 20
1895.8121672365
 30
0.0
 11
1660.2347669513
 21
1895.8121672365
 31
0.0
  0
LINE
  5
2BE
330
1F
100
AcDbEntity
  8
0
  6
Continuous
 62
     7
370
    25
100
AcDbLine
 10
1681.6292156758
 20
1895.8121672365
 30
0.0
 11
1710.2347669513
 21
1895.8121672365
 31
0.0
  0
LINE
  5
2BF
330
1F
100
AcDbEntity
  8
0
  6
Continuous
 62
     7
370
    25
100
AcDbLine
 10
1731.6292156758
 20
1895.8121672365
 30
0.0
 11
1760.2347669513
 21
1895.8121672365
 31
0.0
  0
LINE
  5
2C0
330
1F
100
AcDbEntity
  8
0
  6
Continuous
 62
     7
370
    25
100
AcDbLine
 10
1781.6292156758
 20
1895.8121672365
 30
0.0
 11
1810.2347669513
 21
1895.8121672365
 31
0.0
  0
LINE
  5
2C1
330
1F
100
AcDbEntity
  8
0
  6
Continuous
 62
     7
370
    25
100
AcDbLine
 10
1831.6292156758
 20
1895.8121672365
 30
0.0
 11
1860.2347669513
 21
1895.8121672365
 31
0.0
  0
LINE
  5
2C2
330
1F
100
AcDbEntity
  8
0
  6
Continuous
 62
     7
370
    25
100
AcDbLine
 10
1881.6292156758
 20
1895.8121672365
 30
0.0
 11
1910.2347669513
 21
1895.8121672365
 31
0.0
  0
LINE
  5
2C3
330
1F
100
AcDbEntity
  8
0
  6
Continuous
 62
     7
370
    25
100
AcDbLine
 10
1931.6292156758
 20
1895.8121672365
 30
0.0
 11
1960.2347669513
 21
1895.8121672365
 31
0.0
  0
LINE
  5
2C4
330
1F
100
AcDbEntity
  8
0
  6
Continuous
 62
     7
370
    25
100
AcDbLine
 10
1981.6292156758
 20
1895.8121672365
 30
0.0
 11
2010.2347669513
 21
1895.8121672365
 31
0.0
  0
LINE
  5
2C5
330
1F
100
AcDbEntity
  8
0
  6
Continuous
 62
     7
370
    25
100
AcDbLine
 10
2031.6292156758
 20
1895.8121672365
 30
0.0
 11
2060.2347669513
 21
1895.8121672365
 31
0.0
  0
LINE
  5
2C6
330
1F
100
AcDbEntity
  8
0
  6
Continuous
 62
     7
370
    25
100
AcDbLine
 10
2081.6292156758
 20
1895.8121672365
 30
0.0
 11
2110.2347669513
 21
1895.8121672365
 31
0.0
  0
LINE
  5
2C7
330
1F
100
AcDbEntity
  8
0
  6
Continuous
 62
     7
370
    25
100
AcDbLine
 10
131.6292156758
 20
1926.8121672365
 30
0.0
 11
160.2347669513
 21
1926.8121672365
 31
0.0
  0
LINE
  5
2C8
330
1F
100
AcDbEntity
  8
0
  6
Continuous
 62
     7
370
    25
100
AcDbLine
 10
181.6292156758
 20
1926.8121672365
 30
0.0
 11
210.2347669513
 21
1926.8121672365
 31
0.0
  0
LINE
  5
2C9
330
1F
100
AcDbEntity
  8
0
  6
Continuous
 62
     7
370
    25
100
AcDbLine
 10
231.6292156758
 20
1926.8121672365
 30
0.0
 11
260.2347669513
 21
1926.8121672365
 31
0.0
  0
LINE
  5
2CA
330
1F
100
AcDbEntity
  8
0
  6
Continuous
 62
     7
370
    25
100
AcDbLine
 10
281.6292156758
 20
1926.8121672365
 30
0.0
 11
310.2347669513
 21
1926.8121672365
 31
0.0
  0
LINE
  5
2CB
330
1F
100
AcDbEntity
  8
0
  6
Continuous
 62
     7
370
    25
100
AcDbLine
 10
331.6292156758
 20
1926.8121672365
 30
0.0
 11
360.2347669513
 21
1926.8121672365
 31
0.0
  0
LINE
  5
2CC
330
1F
100
AcDbEntity
  8
0
  6
Continuous
 62
     7
370
    25
100
AcDbLine
 10
381.6292156758
 20
1926.8121672365
 30
0.0
 11
410.2347669513
 21
1926.8121672365
 31
0.0
  0
LINE
  5
2CD
330
1F
100
AcDbEntity
  8
0
  6
Continuous
 62
     7
370
    25
100
AcDbLine
 10
431.6292156758
 20
1926.8121672365
 30
0.0
 11
460.2347669513
 21
1926.8121672365
 31
0.0
  0
LINE
  5
2CE
330
1F
100
AcDbEntity
  8
0
  6
Continuous
 62
     7
370
    25
100
AcDbLine
 10
481.6292156758
 20
1926.8121672365
 30
0.0
 11
510.2347669513
 21
1926.8121672365
 31
0.0
  0
LINE
  5
2CF
330
1F
100
AcDbEntity
  8
0
  6
Continuous
 62
     7
370
    25
100
AcDbLine
 10
531.6292156758
 20
1926.8121672365
 30
0.0
 11
560.2347669513
 21
1926.8121672365
 31
0.0
  0
LINE
  5
2D0
330
1F
100
AcDbEntity
  8
0
  6
Continuous
 62
     7
370
    25
100
AcDbLine
 10
581.6292156758
 20
1926.8121672365
 30
0.0
 11
610.2347669513
 21
1926.8121672365
 31
0.0
  0
LINE
  5
2D1
330
1F
100
AcDbEntity
  8
0
  6
Continuous
 62
     7
370
    25
100
AcDbLine
 10
631.6292156758
 20
1926.8121672365
 30
0.0
 11
660.2347669513
 21
1926.8121672365
 31
0.0
  0
LINE
  5
2D2
330
1F
100
AcDbEntity
  8
0
  6
Continuous
 62
     7
370
    25
100
AcDbLine
 10
681.6292156758
 20
1926.8121672365
 30
0.0
 11
710.2347669513
 21
1926.8121672365
 31
0.0
  0
LINE
  5
2D3
330
1F
100
AcDbEntity
  8
0
  6
Continuous
 62
     7
370
    25
100
AcDbLine
 10
731.6292156758
 20
1926.8121672365
 30
0.0
 11
760.2347669513
 21
1926.8121672365
 31
0.0
  0
LINE
  5
2D4
330
1F
100
AcDbEntity
  8
0
  6
Continuous
 62
     7
370
    25
100
AcDbLine
 10
781.6292156758
 20
1926.8121672365
 30
0.0
 11
810.2347669513
 21
1926.8121672365
 31
0.0
  0
LINE
  5
2D5
330
1F
100
AcDbEntity
  8
0
  6
Continuous
 62
     7
370
    25
100
AcDbLine
 10
831.6292156758
 20
1926.8121672365
 30
0.0
 11
860.2347669513
 21
1926.8121672365
 31
0.0
  0
LINE
  5
2D6
330
1F
100
AcDbEntity
  8
0
  6
Continuous
 62
     7
370
    25
100
AcDbLine
 10
881.6292156758
 20
1926.8121672365
 30
0.0
 11
910.2347669513
 21
1926.8121672365
 31
0.0
  0
LINE
  5
2D7
330
1F
100
AcDbEntity
  8
0
  6
Continuous
 62
     7
370
    25
100
AcDbLine
 10
931.6292156758
 20
1926.8121672365
 30
0.0
 11
960.2347669513
 21
1926.8121672365
 31
0.0
  0
LINE
  5
2D8
330
1F
100
AcDbEntity
  8
0
  6
Continuous
 62
     7
370
    25
100
AcDbLine
 10
981.6292156758
 20
1926.8121672365
 30
0.0
 11
1010.2347669513
 21
1926.8121672365
 31
0.0
  0
LINE
  5
2D9
330
1F
100
AcDbEntity
  8
0
  6
Continuous
 62
     7
370
    25
100
AcDbLine
 10
1031.6292156758
 20
1926.8121672365
 30
0.0
 11
1060.2347669513
 21
1926.8121672365
 31
0.0
  0
LINE
  5
2DA
330
1F
100
AcDbEntity
  8
0
  6
Continuous
 62
     7
370
    25
100
AcDbLine
 10
1081.6292156758
 20
1926.8121672365
 30
0.0
 11
1110.2347669513
 21
1926.8121672365
 31
0.0
  0
LINE
  5
2DB
330
1F
100
AcDbEntity
  8
0
  6
Continuous
 62
     7
370
    25
100
AcDbLine
 10
1131.6292156758
 20
1926.8121672365
 30
0.0
 11
1160.2347669513
 21
1926.8121672365
 31
0.0
  0
LINE
  5
2DC
330
1F
100
AcDbEntity
  8
0
  6
Continuous
 62
     7
370
    25
100
AcDbLine
 10
1181.6292156758
 20
1926.8121672365
 30
0.0
 11
1210.2347669513
 21
1926.8121672365
 31
0.0
  0
LINE
  5
2DD
330
1F
100
AcDbEntity
  8
0
  6
Continuous
 62
     7
370
    25
100
AcDbLine
 10
1231.6292156758
 20
1926.8121672365
 30
0.0
 11
1260.2347669513
 21
1926.8121672365
 31
0.0
  0
LINE
  5
2DE
330
1F
100
AcDbEntity
  8
0
  6
Continuous
 62
     7
370
    25
100
AcDbLine
 10
1281.6292156758
 20
1926.8121672365
 30
0.0
 11
1310.2347669513
 21
1926.8121672365
 31
0.0
  0
LINE
  5
2DF
330
1F
100
AcDbEntity
  8
0
  6
Continuous
 62
     7
370
    25
100
AcDbLine
 10
1331.6292156758
 20
1926.8121672365
 30
0.0
 11
1360.2347669513
 21
1926.8121672365
 31
0.0
  0
LINE
  5
2E0
330
1F
100
AcDbEntity
  8
0
  6
Continuous
 62
     7
370
    25
100
AcDbLine
 10
1381.6292156758
 20
1926.8121672365
 30
0.0
 11
1410.2347669513
 21
1926.8121672365
 31
0.0
  0
LINE
  5
2E1
330
1F
100
AcDbEntity
  8
0
  6
Continuous
 62
     7
370
    25
100
AcDbLine
 10
1431.6292156758
 20
1926.8121672365
 30
0.0
 11
1460.2347669513
 21
1926.8121672365
 31
0.0
  0
LINE
  5
2E2
330
1F
100
AcDbEntity
  8
0
  6
Continuous
 62
     7
370
    25
100
AcDbLine
 10
1481.6292156758
 20
1926.8121672365
 30
0.0
 11
1510.2347669513
 21
1926.8121672365
 31
0.0
  0
LINE
  5
2E3
330
1F
100
AcDbEntity
  8
0
  6
Continuous
 62
     7
370
    25
100
AcDbLine
 10
1531.6292156758
 20
1926.8121672365
 30
0.0
 11
1560.2347669513
 21
1926.8121672365
 31
0.0
  0
LINE
  5
2E4
330
1F
100
AcDbEntity
  8
0
  6
Continuous
 62
     7
370
    25
100
AcDbLine
 10
1581.6292156758
 20
1926.8121672365
 30
0.0
 11
1610.2347669513
 21
1926.8121672365
 31
0.0
  0
LINE
  5
2E5
330
1F
100
AcDbEntity
  8
0
  6
Continuous
 62
     7
370
    25
100
AcDbLine
 10
1631.6292156758
 20
1926.8121672365
 30
0.0
 11
1660.2347669513
 21
1926.8121672365
 31
0.0
  0
LINE
  5
2E6
330
1F
100
AcDbEntity
  8
0
  6
Continuous
 62
     7
370
    25
100
AcDbLine
 10
1681.6292156758
 20
1926.8121672365
 30
0.0
 11
1710.2347669513
 21
1926.8121672365
 31
0.0
  0
LINE
  5
2E7
330
1F
100
AcDbEntity
  8
0
  6
Continuous
 62
     7
370
    25
100
AcDbLine
 10
1731.6292156758
 20
1926.8121672365
 30
0.0
 11
1760.2347669513
 21
1926.8121672365
 31
0.0
  0
LINE
  5
2E8
330
1F
100
AcDbEntity
  8
0
  6
Continuous
 62
     7
370
    25
100
AcDbLine
 10
1781.6292156758
 20
1926.8121672365
 30
0.0
 11
1810.2347669513
 21
1926.8121672365
 31
0.0
  0
LINE
  5
2E9
330
1F
100
AcDbEntity
  8
0
  6
Continuous
 62
     7
370
    25
100
AcDbLine
 10
1831.6292156758
 20
1926.8121672365
 30
0.0
 11
1860.2347669513
 21
1926.8121672365
 31
0.0
  0
LINE
  5
2EA
330
1F
100
AcDbEntity
  8
0
  6
Continuous
 62
     7
370
    25
100
AcDbLine
 10
1881.6292156758
 20
1926.8121672365
 30
0.0
 11
1910.2347669513
 21
1926.8121672365
 31
0.0
  0
LINE
  5
2EB
330
1F
100
AcDbEntity
  8
0
  6
Continuous
 62
     7
370
    25
100
AcDbLine
 10
1931.6292156758
 20
1926.8121672365
 30
0.0
 11
1960.2347669513
 21
1926.8121672365
 31
0.0
  0
LINE
  5
2EC
330
1F
100
AcDbEntity
  8
0
  6
Continuous
 62
     7
370
    25
100
AcDbLine
 10
1981.6292156758
 20
1926.8121672365
 30
0.0
 11
2010.2347669513
 21
1926.8121672365
 31
0.0
  0
LINE
  5
2ED
330
1F
100
AcDbEntity
  8
0
  6
Continuous
 62
     7
370
    25
100
AcDbLine
 10
2031.6292156758
 20
1926.8121672365
 30
0.0
 11
2060.2347669513
 21
1926.8121672365
 31
0.0
  0
LINE
  5
2EE
330
1F
100
AcDbEntity
  8
0
  6
Continuous
 62
     7
370
    25
100
AcDbLine
 10
2081.6292156758
 20
1926.8121672365
 30
0.0
 11
2110.2347669513
 21
1926.8121672365
 31
0.0
  0
LINE
  5
2EF
330
1F
100
AcDbEntity
  8
0
  6
Continuous
 62
     7
370
    25
100
AcDbLine
 10
2536.7120495373
 20
1345.8115657532
 30
0.0
 11
2535.7120495373
 21
1345.8115657532
 31
0.0
  0
LINE
  5
2F0
330
1F
100
AcDbEntity
  8
0
  6
Continuous
 62
     7
370
    25
100
AcDbLine
 10
2536.7120495373
 20
1344.3115657532
 30
0.0
 11
2534.2120495373
 21
1344.3115657532
 31
0.0
  0
LINE
  5
2F1
330
1F
100
AcDbEntity
  8
0
  6
Continuous
 62
     7
370
    25
100
AcDbLine
 10
2534.2120495373
 20
1344.3115657532
 30
0.0
 11
2534.2120495373
 21
1346.8115657532
 31
0.0
  0
LINE
  5
2F2
330
1F
100
AcDbEntity
  8
0
  6
Continuous
 62
     7
370
    25
100
AcDbLine
 10
2535.7120495373
 20
1345.8115657532
 30
0.0
 11
2535.7120495373
 21
1346.8115657532
 31
0.0
  0
LINE
  5
2F3
330
1F
100
AcDbEntity
  8
0
  6
Continuous
 62
     7
370
    25
100
AcDbLine
 10
2535.7120495373
 20
1346.8115657532
 30
0.0
 11
2535.7120495373
 21
1379.3115657532
 31
0.0
  0
LINE
  5
2F4
330
1F
100
AcDbEntity
  8
0
  6
Continuous
 62
     7
370
    25
100
AcDbLine
 10
2534.2120495373
 20
1346.8115657532
 30
0.0
 11
2534.2120495373
 21
1379.3115657532
 31
0.0
  0
LINE
  5
2F5
330
1F
100
AcDbEntity
  8
0
  6
Continuous
 62
     7
370
    25
100
AcDbLine
 10
2538.9912161536
 20
1384.4875318437
 30
0.0
 11
2535.1050805131
 21
1381.226676861
 31
0.0
  0
LINE
  5
2F6
330
1F
100
AcDbEntity
  8
0
  6
Continuous
 62
     7
370
    25
100
AcDbLine
 10
2534.7120495373
 20
1389.5872440321
 30
0.0
 11
2538.9912161536
 21
1384.4875318437
 31
0.0
  0
LINE
  5
2F7
330
1F
100
AcDbEntity
  8
0
  6
Continuous
 62
     7
370
    25
100
AcDbLine
 10
2540.3021239516
 20
1394.2778734114
 30
0.0
 11
2534.7120495373
 21
1389.5872440321
 31
0.0
  0
LINE
  5
2F8
330
1F
100
AcDbEntity
  8
0
  6
Continuous
 62
     7
370
    25
100
AcDbLine
 10
2543.7120495373
 20
1386.4906704608
 30
0.0
 11
2543.7120495373
 21
1394.2778734114
 31
0.0
  0
LINE
  5
2F9
330
1F
100
AcDbEntity
  8
0
  6
Continuous
 62
     7
370
    25
100
AcDbLine
 10
2543.7120495373
 20
1386.4906704608
 30
0.0
 11
2536.0692619276
 21
1380.0776101964
 31
0.0
  0
LINE
  5
2FA
330
1F
100
AcDbEntity
  8
0
  6
Continuous
 62
     7
370
    25
100
AcDbLine
 10
2540.3021239516
 20
1394.2778734114
 30
0.0
 11
2543.7120495373
 21
1394.2778734114
 31
0.0
  0
LINE
  5
2FB
330
1F
100
AcDbEntity
  8
0
  6
Continuous
 62
     7
370
    25
100
AcDbLine
 10
2582.7120495373
 20
1346.8115657532
 30
0.0
 11
2582.7120495373
 21
1345.8115657532
 31
0.0
  0
LINE
  5
2FC
330
1F
100
AcDbEntity
  8
0
  6
Continuous
 62
     7
370
    25
100
AcDbLine
 10
2584.2120495373
 20
1346.8115657532
 30
0.0
 11
2584.2120495373
 21
1344.3115657532
 31
0.0
  0
LINE
  5
2FD
330
1F
100
AcDbEntity
  8
0
  6
Continuous
 62
     7
370
    25
100
AcDbLine
 10
2584.2120495373
 20
1344.3115657532
 30
0.0
 11
2581.7120495373
 21
1344.3115657532
 31
0.0
  0
LINE
  5
2FE
330
1F
100
AcDbEntity
  8
0
  6
Continuous
 62
     7
370
    25
100
AcDbLine
 10
2582.7120495373
 20
1345.8115657532
 30
0.0
 11
2581.7120495373
 21
1345.8115657532
 31
0.0
  0
LINE
  5
2FF
330
1F
100
AcDbEntity
  8
0
  6
Continuous
 62
     7
370
    25
100
AcDbLine
 10
2581.7120495373
 20
1345.8115657532
 30
0.0
 11
2536.7120495373
 21
1345.8115657532
 31
0.0
  0
LINE
  5
300
330
1F
100
AcDbEntity
  8
0
  6
Continuous
 62
     7
370
    25
100
AcDbLine
 10
2581.7120495373
 20
1344.3115657532
 30
0.0
 11
2536.7120495373
 21
1344.3115657532
 31
0.0
  0
LINE
  5
301
330
1F
100
AcDbEntity
  8
0
  6
Continuous
 62
     7
370
    25
100
AcDbLine
 10
2574.7120495373
 20
1386.4906704608
 30
0.0
 11
2582.354837147
 21
1380.0776101964
 31
0.0
  0
LINE
  5
302
330
1F
100
AcDbEntity
  8
0
  6
Continuous
 62
     7
370
    25
100
AcDbLine
 10
2574.7120495373
 20
1386.4906704608
 30
0.0
 11
2574.7120495373
 21
1394.2778734114
 31
0.0
  0
LINE
  5
303
330
1F
100
AcDbEntity
  8
0
  6
Continuous
 62
     7
370
    25
100
AcDbLine
 10
2578.121975123
 20
1394.2778734114
 30
0.0
 11
2583.7120495373
 21
1389.5872440321
 31
0.0
  0
LINE
  5
304
330
1F
100
AcDbEntity
  8
0
  6
Continuous
 62
     7
370
    25
100
AcDbLine
 10
2579.4328829209
 20
1384.4875318437
 30
0.0
 11
2583.3190185615
 21
1381.226676861
 31
0.0
  0
LINE
  5
305
330
1F
100
AcDbEntity
  8
0
  6
Continuous
 62
     7
370
    25
100
AcDbLine
 10
2583.7120495373
 20
1389.5872440321
 30
0.0
 11
2579.4328829209
 21
1384.4875318437
 31
0.0
  0
LINE
  5
306
330
1F
100
AcDbEntity
  8
0
  6
Continuous
 62
     7
370
    25
100
AcDbLine
 10
2574.7120495373
 20
1394.2778734114
 30
0.0
 11
2578.121975123
 21
1394.2778734114
 31
0.0
  0
LINE
  5
307
330
1F
100
AcDbEntity
  8
0
  6
Continuous
 62
     7
370
    25
100
AcDbLine
 10
2584.2120495373
 20
1379.3115657532
 30
0.0
 11
2584.2120495373
 21
1346.8115657532
 31
0.0
  0
LINE
  5
308
330
1F
100
AcDbEntity
  8
0
  6
Continuous
 62
     7
370
    25
100
AcDbLine
 10
2582.7120495373
 20
1379.3115657532
 30
0.0
 11
2582.7120495373
 21
1346.8115657532
 31
0.0
  0
LINE
  5
309
330
1F
100
AcDbEntity
  8
0
  6
Continuous
 62
     7
370
    25
100
AcDbLine
 10
2535.7120495373
 20
1379.7778734114
 30
0.0
 11
2536.0692619276
 21
1380.0776101964
 31
0.0
  0
LINE
  5
30A
330
1F
100
AcDbEntity
  8
0
  6
Continuous
 62
     7
370
    25
100
AcDbLine
 10
2534.2120495373
 20
1380.4773348986
 30
0.0
 11
2535.1050805131
 21
1381.226676861
 31
0.0
  0
LINE
  5
30B
330
1F
100
AcDbEntity
  8
0
  6
Continuous
 62
     7
370
    25
100
AcDbLine
 10
2534.2120495373
 20
1379.3115657532
 30
0.0
 11
2534.2120495373
 21
1380.4773348986
 31
0.0
  0
LINE
  5
30C
330
1F
100
AcDbEntity
  8
0
  6
Continuous
 62
     7
370
    25
100
AcDbLine
 10
2535.7120495373
 20
1379.3115657532
 30
0.0
 11
2535.7120495373
 21
1379.7778734114
 31
0.0
  0
LINE
  5
30D
330
1F
100
AcDbEntity
  8
0
  6
Continuous
 62
     7
370
    25
100
AcDbLine
 10
2583.3190185615
 20
1381.226676861
 30
0.0
 11
2584.2120495373
 21
1380.4773348986
 31
0.0
  0
LINE
  5
30E
330
1F
100
AcDbEntity
  8
0
  6
Continuous
 62
     7
370
    25
100
AcDbLine
 10
2582.354837147
 20
1380.0776101964
 30
0.0
 11
2582.7120495373
 21
1379.7778734114
 31
0.0
  0
LINE
  5
30F
330
1F
100
AcDbEntity
  8
0
  6
Continuous
 62
     7
370
    25
100
AcDbLine
 10
2584.2120495373
 20
1380.4773348986
 30
0.0
 11
2584.2120495373
 21
1379.3115657532
 31
0.0
  0
LINE
  5
310
330
1F
100
AcDbEntity
  8
0
  6
Continuous
 62
     7
370
    25
100
AcDbLine
 10
2582.7120495373
 20
1379.7778734114
 30
0.0
 11
2582.7120495373
 21
1379.3115657532
 31
0.0
  0
LINE
  5
311
330
1F
100
AcDbEntity
  8
0
  6
Continuous
 62
     7
370
    25
100
AcDbLine
 10
1241.7309299511
 20
200.3527312158
 30
0.0
 11
1245.6837094768
 21
194.2407498454
 31
0.0
  0
LINE
  5
312
330
1F
100
AcDbEntity
  8
0
  6
Continuous
 62
     7
370
    25
100
AcDbLine
 10
1241.7309299511
 20
200.3527312158
 30
0.0
 11
2655.9444923242
 21
1016.7608430385
 31
0.0
  0
LINE
  5
313
330
1F
100
AcDbEntity
  8
0
  6
Continuous
 62
     7
370
    25
100
AcDbLine
 10
2659.8972718499
 20
1010.6488616681
 30
0.0
 11
2655.9444923242
 21
1016.7608430385
 31
0.0
  0
LINE
  5
314
330
1F
100
AcDbEntity
  8
0
  6
Continuous
 62
     7
370
    25
100
AcDbLine
 10
1245.6837094768
 20
194.2407498454
 30
0.0
 11
2659.8972718499
 21
1010.6488616681
 31
0.0
  0
LINE
  5
315
330
1F
100
AcDbEntity
  8
0
  6
Continuous
 62
     7
370
    25
100
AcDbLine
 10
1239.3197484461
 20
195.3861076507
 30
0.0
 11
1244.7240153921
 21
187.0297653149
 31
0.0
  0
LINE
  5
316
330
1F
100
AcDbEntity
  8
0
  6
Continuous
 62
     7
370
    25
100
AcDbLine
 10
1239.3197484461
 20
195.3861076507
 30
0.0
 11
1239.3197484461
 21
201.7446766702
 31
0.0
  0
LINE
  5
317
330
1F
100
AcDbEntity
  8
0
  6
Continuous
 62
     7
370
    25
100
AcDbLine
 10
1239.3197484461
 20
201.7446766702
 30
0.0
 11
1241.7309299511
 21
200.3527312158
 31
0.0
  0
LINE
  5
318
330
1F
100
AcDbEntity
  8
0
  6
Continuous
 62
     7
370
    25
100
AcDbLine
 10
1245.6837094768
 20
194.2407498454
 30
0.0
 11
1242.6578817445
 21
191.8233998835
 31
0.0
  0
LINE
  5
319
330
1F
100
AcDbEntity
  8
0
  6
Continuous
 62
     7
370
    25
100
AcDbLine
 10
1242.6578817445
 20
191.8233998835
 30
0.0
 11
1245.4057946086
 21
187.5744423781
 31
0.0
  0
LINE
  5
31A
330
1F
100
AcDbEntity
  8
0
  6
Continuous
 62
     7
370
    25
100
AcDbLine
 10
2659.8972718499
 20
1010.6488616681
 30
0.0
 11
2656.8714441176
 21
1008.2315117062
 31
0.0
  0
LINE
  5
31B
330
1F
100
AcDbEntity
  8
0
  6
Continuous
 62
     7
370
    25
100
AcDbLine
 10
1242.6578817445
 20
191.8233998835
 30
0.0
 11
2656.8714441176
 21
1008.2315117062
 31
0.0
  0
LINE
  5
31C
330
1F
100
AcDbEntity
  8
0
  6
Continuous
 62
     7
370
    25
100
AcDbLine
 10
1239.3197484461
 20
201.7446766702
 30
0.0
 11
2653.5333108192
 21
1018.152788493
 31
0.0
  0
LINE
  5
31D
330
1F
100
AcDbEntity
  8
0
  6
Continuous
 62
     7
370
    25
100
AcDbLine
 10
2653.5333108192
 20
1018.152788493
 30
0.0
 11
2655.9444923242
 21
1016.7608430385
 31
0.0
  0
LINE
  5
31E
330
1F
100
AcDbEntity
  8
0
  6
Continuous
 62
     7
370
    25
100
AcDbLine
 10
2659.6193569817
 20
1003.9825542009
 30
0.0
 11
2656.8714441176
 21
1008.2315117062
 31
0.0
  0
LINE
  5
31F
330
1F
100
AcDbEntity
  8
0
  6
Continuous
 62
     7
370
    25
100
AcDbLine
 10
2659.6193569817
 20
1003.9825542009
 30
0.0
 11
2660.2508252405
 21
1003.0061470401
 31
0.0
  0
LINE
  5
320
330
1F
100
AcDbEntity
  8
0
  6
Continuous
 62
     7
370
    25
100
AcDbLine
 10
1246.0372628674
 20
186.5980352174
 30
0.0
 11
2660.2508252405
 21
1003.0061470401
 31
0.0
  0
LINE
  5
321
330
1F
100
AcDbEntity
  8
0
  6
Continuous
 62
     7
370
    25
100
AcDbLine
 10
1245.4057946086
 20
187.5744423781
 30
0.0
 11
1246.0372628674
 21
186.5980352174
 31
0.0
  0
LINE
  5
322
330
1F
100
AcDbEntity
  8
0
  6
Continuous
 62
     7
370
    25
100
AcDbLine
 10
1246.0372628674
 20
186.5980352174
 30
0.0
 11
1246.0372628674
 21
185.646137133
 31
0.0
  0
LINE
  5
323
330
1F
100
AcDbEntity
  8
0
  6
Continuous
 62
     7
370
    25
100
AcDbLine
 10
1244.9766026956
 20
186.6392024506
 30
0.0
 11
1244.9766026956
 21
186.2584432168
 31
0.0
  0
LINE
  5
324
330
1F
100
AcDbEntity
  8
0
  6
Continuous
 62
     7
370
    25
100
AcDbLine
 10
1244.7240153921
 20
187.0297653149
 30
0.0
 11
1244.9766026956
 21
186.6392024506
 31
0.0
  0
LINE
  5
325
330
1F
100
AcDbEntity
  8
0
  6
Continuous
 62
     7
370
    25
100
AcDbLine
 10
2660.2508252405
 20
1003.0061470401
 30
0.0
 11
2660.2508252405
 21
1002.0542489557
 31
0.0
  0
LINE
  5
326
330
1F
100
AcDbEntity
  8
0
  6
Continuous
 62
     7
370
    25
100
AcDbLine
 10
2660.2508252405
 20
1002.0542489557
 30
0.0
 11
2660.2508252405
 21
975.5166725694
 31
0.0
  0
LINE
  5
327
330
1F
100
AcDbEntity
  8
0
  6
Continuous
 62
     7
370
    25
100
AcDbLine
 10
2660.2508252405
 20
975.5166725694
 30
0.0
 11
2660.2508252405
 21
973.4753205397
 31
0.0
  0
LINE
  5
328
330
1F
100
AcDbEntity
  8
0
  6
Continuous
 62
     7
370
    25
100
AcDbLine
 10
1246.0372628674
 20
157.067208717
 30
0.0
 11
2660.2508252405
 21
973.4753205397
 31
0.0
  0
LINE
  5
329
330
1F
100
AcDbEntity
  8
0
  6
Continuous
 62
     7
370
    25
100
AcDbLine
 10
1246.0372628674
 20
159.1085607467
 30
0.0
 11
1246.0372628674
 21
157.067208717
 31
0.0
  0
LINE
  5
32A
330
1F
100
AcDbEntity
  8
0
  6
Continuous
 62
     7
370
    25
100
AcDbLine
 10
1246.0372628674
 20
185.646137133
 30
0.0
 11
1246.0372628674
 21
159.1085607467
 31
0.0
  0
LWPOLYLINE
  5
32B
330
1F
100
AcDbEntity
  8
0
  6
Continuous
 62
     7
370
    25
100
AcDbPolyline
 90
       10
 70
   128
 43
0.0
 10
1305.4342324871
 20
203.1961911859
 10
1306.2806891563
 20
203.8571922472
 10
1307.0250506589
 20
204.7831708799
 10
1307.577536012
 20
205.8624403949
 10
1307.8715073282
 20
206.9648249603
 10
1307.8715073282
 20
207.9573607281
 10
1307.577536012
 20
208.7203332365
 10
1307.0250506589
 20
209.1617167406
 10
1306.2806891563
 20
209.2282738757
 10
1305.4342324871
 20
208.9119768691
  0
LINE
  5
32C
330
1F
100
AcDbEntity
  8
0
  6
Continuous
 62
     7
370
    25
100
AcDbLine
 10
1305.4342324871
 20
208.9119768691
 30
0.0
 11
1292.7063104257
 21
201.5643038627
 31
0.0
  0
LWPOLYLINE
  5
32D
330
1F
100
AcDbEntity
  8
0
  6
Continuous
 62
     7
370
    25
100
AcDbPolyline
 90
       10
 70
   128
 43
0.0
 10
1292.7063104257
 20
201.5643038627
 10
1291.8598537564
 20
200.9033028013
 10
1291.1154922538
 20
199.9773241686
 10
1290.5630069008
 20
198.8980546536
 10
1290.2690355846
 20
197.7956700882
 10
1290.2690355846
 20
196.8031343204
 10
1290.5630069008
 20
196.040161812
 10
1291.1154922538
 20
195.5987783079
 10
1291.8598537564
 20
195.5322211728
 10
1292.7063104257
 20
195.8485181795
  0
LINE
  5
32E
330
1F
100
AcDbEntity
  8
0
  6
Continuous
 62
     7
370
    25
100
AcDbLine
 10
1292.7063104257
 20
195.8485181795
 30
0.0
 11
1305.4342324871
 21
203.1961911859
 31
0.0
  0
LWPOLYLINE
  5
32F
330
1F
100
AcDbEntity
  8
0
  6
Continuous
 62
     7
370
    25
100
AcDbPolyline
 90
       10
 70
   128
 43
0.0
 10
1552.9216059023
 20
346.0676107548
 10
1553.7680625716
 20
346.7286118162
 10
1554.5124240742
 20
347.6545904489
 10
1555.0649094273
 20
348.7338599639
 10
1555.3588807435
 20
349.8362445293
 10
1555.3588807435
 20
350.8287802971
 10
1555.0649094273
 20
351.5917528055
 10
1554.5124240742
 20
352.0331363095
 10
1553.7680625716
 20
352.0996934447
 10
1552.9216059023
 20
351.783396438
  0
LINE
  5
330
330
1F
100
AcDbEntity
  8
0
  6
Continuous
 62
     7
370
    25
100
AcDbLine
 10
1552.9216059023
 20
351.783396438
 30
0.0
 11
1540.193683841
 21
344.4357234316
 31
0.0
  0
LWPOLYLINE
  5
331
330
1F
100
AcDbEntity
  8
0
  6
Continuous
 62
     7
370
    25
100
AcDbPolyline
 90
       10
 70
   128
 43
0.0
 10
1540.193683841
 20
344.4357234316
 10
1539.3472271717
 20
343.7747223703
 10
1538.6028656691
 20
342.8487437376
 10
1538.0503803161
 20
341.7694742226
 10
1537.7564089999
 20
340.6670896572
 10
1537.7564089999
 20
339.6745538894
 10
1538.0503803161
 20
338.911581381
 10
1538.6028656691
 20
338.4701978769
 10
1539.3472271717
 20
338.4036407418
 10
1540.193683841
 20
338.7199377484
  0
LINE
  5
332
330
1F
100
AcDbEntity
  8
0
  6
Continuous
 62
     7
370
    25
100
AcDbLine
 10
1540.193683841
 20
338.7199377484
 30
0.0
 11
1552.9216059023
 21
346.0676107548
 31
0.0
  0
LWPOLYLINE
  5
333
330
1F
100
AcDbEntity
  8
0
  6
Continuous
 62
     7
370
    25
100
AcDbPolyline
 90
       10
 70
   128
 43
0.0
 10
1517.566266843
 20
325.6574079593
 10
1518.4127235123
 20
326.3184090206
 10
1519.1570850149
 20
327.2443876533
 10
1519.709570368
 20
328.3236571683
 10
1520.0035416841
 20
329.4260417337
 10
1520.0035416841
 20
330.4185775015
 10
1519.709570368
 20
331.1815500099
 10
1519.1570850149
 20
331.622933514
 10
1518.4127235123
 20
331.6894906491
 10
1517.566266843
 20
331.3731936425
  0
LINE
  5
334
330
1F
100
AcDbEntity
  8
0
  6
Continuous
 62
     7
370
    25
100
AcDbLine
 10
1517.566266843
 20
331.3731936425
 30
0.0
 11
1504.8383447817
 21
324.0255206361
 31
0.0
  0
LWPOLYLINE
  5
335
330
1F
100
AcDbEntity
  8
0
  6
Continuous
 62
     7
370
    25
100
AcDbPolyline
 90
       10
 70
   128
 43
0.0
 10
1504.8383447817
 20
324.0255206361
 10
1503.9918881124
 20
323.3645195747
 10
1503.2475266098
 20
322.438540942
 10
1502.6950412567
 20
321.3592714271
 10
1502.4010699405
 20
320.2568868616
 10
1502.4010699405
 20
319.2643510938
 10
1502.6950412567
 20
318.5013785855
 10
1503.2475266098
 20
318.0599950814
 10
1503.9918881124
 20
317.9934379462
 10
1504.8383447817
 20
318.3097349529
  0
LINE
  5
336
330
1F
100
AcDbEntity
  8
0
  6
Continuous
 62
     7
370
    25
100
AcDbLine
 10
1504.8383447817
 20
318.3097349529
 30
0.0
 11
1517.566266843
 21
325.6574079593
 31
0.0
  0
LWPOLYLINE
  5
337
330
1F
100
AcDbEntity
  8
0
  6
Continuous
 62
     7
370
    25
100
AcDbPolyline
 90
       10
 70
   128
 43
0.0
 10
1270.0788934277
 20
182.7859883903
 10
1270.925350097
 20
183.4469894516
 10
1271.6697115996
 20
184.3729680843
 10
1272.2221969527
 20
185.4522375993
 10
1272.5161682688
 20
186.5546221647
 10
1272.5161682688
 20
187.5471579326
 10
1272.2221969527
 20
188.3101304409
 10
1271.6697115996
 20
188.751513945
 10
1270.925350097
 20
188.8180710801
 10
1270.0788934277
 20
188.5017740735
  0
LINE
  5
338
330
1F
100
AcDbEntity
  8
0
  6
Continuous
 62
     7
370
    25
100
AcDbLine
 10
1270.0788934277
 20
188.5017740735
 30
0.0
 11
1257.3509713664
 21
181.1541010671
 31
0.0
  0
LWPOLYLINE
  5
339
330
1F
100
AcDbEntity
  8
0
  6
Continuous
 62
     7
370
    25
100
AcDbPolyline
 90
       10
 70
   128
 43
0.0
 10
1257.3509713664
 20
181.1541010671
 10
1256.5045146971
 20
180.4931000058
 10
1255.7601531945
 20
179.5671213731
 10
1255.2076678414
 20
178.4878518581
 10
1254.9136965252
 20
177.3854672926
 10
1254.9136965252
 20
176.3929315248
 10
1255.2076678414
 20
175.6299590165
 10
1255.7601531945
 20
175.1885755124
 10
1256.5045146971
 20
175.1220183773
 10
1257.3509713664
 20
175.4383153839
  0
LINE
  5
33A
330
1F
100
AcDbEntity
  8
0
  6
Continuous
 62
     7
370
    25
100
AcDbLine
 10
1257.3509713664
 20
175.4383153839
 30
0.0
 11
1270.0788934277
 21
182.7859883903
 31
0.0
  0
LWPOLYLINE
  5
33B
330
1F
100
AcDbEntity
  8
0
  6
Continuous
 62
     7
370
    25
100
AcDbPolyline
 90
       10
 70
   128
 43
0.0
 10
1482.2109277837
 20
305.2472051637
 10
1483.057384453
 20
305.908206225
 10
1483.8017459555
 20
306.8341848577
 10
1484.3542313086
 20
307.9134543727
 10
1484.6482026248
 20
309.0158389381
 10
1484.6482026248
 20
310.008374706
 10
1484.3542313086
 20
310.7713472143
 10
1483.8017459555
 20
311.2127307184
 10
1483.057384453
 20
311.2792878535
 10
1482.2109277837
 20
310.9629908469
  0
LINE
  5
33C
330
1F
100
AcDbEntity
  8
0
  6
Continuous
 62
     7
370
    25
100
AcDbLine
 10
1482.2109277837
 20
310.9629908469
 30
0.0
 11
1469.4830057223
 21
303.6153178405
 31
0.0
  0
LWPOLYLINE
  5
33D
330
1F
100
AcDbEntity
  8
0
  6
Continuous
 62
     7
370
    25
100
AcDbPolyline
 90
       10
 70
   128
 43
0.0
 10
1469.4830057223
 20
303.6153178405
 10
1468.6365490531
 20
302.9543167792
 10
1467.8921875505
 20
302.0283381465
 10
1467.3397021974
 20
300.9490686315
 10
1467.0457308812
 20
299.8466840661
 10
1467.0457308812
 20
298.8541482982
 10
1467.3397021974
 20
298.0911757899
 10
1467.8921875505
 20
297.6497922858
 10
1468.6365490531
 20
297.5832351507
 10
1469.4830057223
 20
297.8995321573
  0
LINE
  5
33E
330
1F
100
AcDbEntity
  8
0
  6
Continuous
 62
     7
370
    25
100
AcDbLine
 10
1469.4830057223
 20
297.8995321573
 30
0.0
 11
1482.2109277837
 21
305.2472051637
 31
0.0
  0
LWPOLYLINE
  5
33F
330
1F
100
AcDbEntity
  8
0
  6
Continuous
 62
     7
370
    25
100
AcDbPolyline
 90
       10
 70
   128
 43
0.0
 10
1446.8555887244
 20
284.8370023681
 10
1447.7020453936
 20
285.4980034295
 10
1448.4464068962
 20
286.4239820622
 10
1448.9988922493
 20
287.5032515771
 10
1449.2928635655
 20
288.6056361426
 10
1449.2928635655
 20
289.5981719104
 10
1448.9988922493
 20
290.3611444187
 10
1448.4464068962
 20
290.8025279228
 10
1447.7020453936
 20
290.869085058
 10
1446.8555887244
 20
290.5527880513
  0
LINE
  5
340
330
1F
100
AcDbEntity
  8
0
  6
Continuous
 62
     7
370
    25
100
AcDbLine
 10
1446.8555887244
 20
290.5527880513
 30
0.0
 11
1434.127666663
 21
283.2051150449
 31
0.0
  0
LWPOLYLINE
  5
341
330
1F
100
AcDbEntity
  8
0
  6
Continuous
 62
     7
370
    25
100
AcDbPolyline
 90
       10
 70
   128
 43
0.0
 10
1434.127666663
 20
283.2051150449
 10
1433.2812099937
 20
282.5441139836
 10
1432.5368484912
 20
281.6181353509
 10
1431.9843631381
 20
280.5388658359
 10
1431.6903918219
 20
279.4364812705
 10
1431.6903918219
 20
278.4439455027
 10
1431.9843631381
 20
277.6809729943
 10
1432.5368484912
 20
277.2395894902
 10
1433.2812099937
 20
277.1730323551
 10
1434.127666663
 20
277.4893293617
  0
LINE
  5
342
330
1F
100
AcDbEntity
  8
0
  6
Continuous
 62
     7
370
    25
100
AcDbLine
 10
1434.127666663
 20
277.4893293617
 30
0.0
 11
1446.8555887244
 21
284.8370023681
 31
0.0
  0
LWPOLYLINE
  5
343
330
1F
100
AcDbEntity
  8
0
  6
Continuous
 62
     7
370
    25
100
AcDbPolyline
 90
       10
 70
   128
 43
0.0
 10
1411.500249665
 20
264.4267995726
 10
1412.3467063343
 20
265.0878006339
 10
1413.0910678369
 20
266.0137792666
 10
1413.64355319
 20
267.0930487816
 10
1413.9375245062
 20
268.195433347
 10
1413.9375245062
 20
269.1879691148
 10
1413.64355319
 20
269.9509416232
 10
1413.0910678369
 20
270.3923251273
 10
1412.3467063343
 20
270.4588822624
 10
1411.500249665
 20
270.1425852558
  0
LINE
  5
344
330
1F
100
AcDbEntity
  8
0
  6
Continuous
 62
     7
370
    25
100
AcDbLine
 10
1411.500249665
 20
270.1425852558
 30
0.0
 11
1398.7723276037
 21
262.7949122494
 31
0.0
  0
LWPOLYLINE
  5
345
330
1F
100
AcDbEntity
  8
0
  6
Continuous
 62
     7
370
    25
100
AcDbPolyline
 90
       10
 70
   128
 43
0.0
 10
1398.7723276037
 20
262.7949122494
 10
1397.9258709344
 20
262.133911188
 10
1397.1815094318
 20
261.2079325553
 10
1396.6290240787
 20
260.1286630403
 10
1396.3350527626
 20
259.0262784749
 10
1396.3350527626
 20
258.0337427071
 10
1396.6290240787
 20
257.2707701987
 10
1397.1815094318
 20
256.8293866947
 10
1397.9258709344
 20
256.7628295595
 10
1398.7723276037
 20
257.0791265662
  0
LINE
  5
346
330
1F
100
AcDbEntity
  8
0
  6
Continuous
 62
     7
370
    25
100
AcDbLine
 10
1398.7723276037
 20
257.0791265662
 30
0.0
 11
1411.500249665
 21
264.4267995726
 31
0.0
  0
LWPOLYLINE
  5
347
330
1F
100
AcDbEntity
  8
0
  6
Continuous
 62
     7
370
    25
100
AcDbPolyline
 90
       10
 70
   128
 43
0.0
 10
1376.1449106057
 20
244.016596777
 10
1376.991367275
 20
244.6775978383
 10
1377.7357287776
 20
245.603576471
 10
1378.2882141306
 20
246.682845986
 10
1378.5821854468
 20
247.7852305514
 10
1378.5821854468
 20
248.7777663193
 10
1378.2882141306
 20
249.5407388276
 10
1377.7357287776
 20
249.9821223317
 10
1376.991367275
 20
250.0486794668
 10
1376.1449106057
 20
249.7323824602
  0
LINE
  5
348
330
1F
100
AcDbEntity
  8
0
  6
Continuous
 62
     7
370
    25
100
AcDbLine
 10
1376.1449106057
 20
249.7323824602
 30
0.0
 11
1363.4169885443
 21
242.3847094538
 31
0.0
  0
LWPOLYLINE
  5
349
330
1F
100
AcDbEntity
  8
0
  6
Continuous
 62
     7
370
    25
100
AcDbPolyline
 90
       10
 70
   128
 43
0.0
 10
1363.4169885443
 20
242.3847094538
 10
1362.5705318751
 20
241.7237083925
 10
1361.8261703725
 20
240.7977297598
 10
1361.2736850194
 20
239.7184602448
 10
1360.9797137032
 20
238.6160756794
 10
1360.9797137032
 20
237.6235399115
 10
1361.2736850194
 20
236.8605674032
 10
1361.8261703725
 20
236.4191838991
 10
1362.5705318751
 20
236.352626764
 10
1363.4169885443
 20
236.6689237706
  0
LINE
  5
34A
330
1F
100
AcDbEntity
  8
0
  6
Continuous
 62
     7
370
    25
100
AcDbLine
 10
1363.4169885443
 20
236.6689237706
 30
0.0
 11
1376.1449106057
 21
244.016596777
 31
0.0
  0
LWPOLYLINE
  5
34B
330
1F
100
AcDbEntity
  8
0
  6
Continuous
 62
     7
370
    25
100
AcDbPolyline
 90
       10
 70
   128
 43
0.0
 10
1340.7895715464
 20
223.6063939814
 10
1341.6360282156
 20
224.2673950428
 10
1342.3803897182
 20
225.1933736755
 10
1342.9328750713
 20
226.2726431904
 10
1343.2268463875
 20
227.3750277559
 10
1343.2268463875
 20
228.3675635237
 10
1342.9328750713
 20
229.130536032
 10
1342.3803897182
 20
229.5719195361
 10
1341.6360282156
 20
229.6384766713
 10
1340.7895715464
 20
229.3221796646
  0
LINE
  5
34C
330
1F
100
AcDbEntity
  8
0
  6
Continuous
 62
     7
370
    25
100
AcDbLine
 10
1340.7895715464
 20
229.3221796646
 30
0.0
 11
1328.061649485
 21
221.9745066582
 31
0.0
  0
LWPOLYLINE
  5
34D
330
1F
100
AcDbEntity
  8
0
  6
Continuous
 62
     7
370
    25
100
AcDbPolyline
 90
       10
 70
   128
 43
0.0
 10
1328.061649485
 20
221.9745066582
 10
1327.2151928158
 20
221.3135055969
 10
1326.4708313132
 20
220.3875269642
 10
1325.9183459601
 20
219.3082574492
 10
1325.6243746439
 20
218.2058728838
 10
1325.6243746439
 20
217.213337116
 10
1325.9183459601
 20
216.4503646076
 10
1326.4708313132
 20
216.0089811035
 10
1327.2151928158
 20
215.9424239684
 10
1328.061649485
 20
216.258720975
  0
LINE
  5
34E
330
1F
100
AcDbEntity
  8
0
  6
Continuous
 62
     7
370
    25
100
AcDbLine
 10
1328.061649485
 20
216.258720975
 30
0.0
 11
1340.7895715464
 21
223.6063939814
 31
0.0
  0
LWPOLYLINE
  5
34F
330
1F
100
AcDbEntity
  8
0
  6
Continuous
 62
     7
370
    25
100
AcDbPolyline
 90
       10
 70
   128
 43
0.0
 10
1588.2769449617
 20
366.4778135504
 10
1589.1234016309
 20
367.1388146117
 10
1589.8677631335
 20
368.0647932444
 10
1590.4202484866
 20
369.1440627594
 10
1590.7142198028
 20
370.2464473248
 10
1590.7142198028
 20
371.2389830927
 10
1590.4202484866
 20
372.001955601
 10
1589.8677631335
 20
372.4433391051
 10
1589.1234016309
 20
372.5098962402
 10
1588.2769449617
 20
372.1935992336
  0
LINE
  5
350
330
1F
100
AcDbEntity
  8
0
  6
Continuous
 62
     7
370
    25
100
AcDbLine
 10
1588.2769449617
 20
372.1935992336
 30
0.0
 11
1575.5490229003
 21
364.8459262272
 31
0.0
  0
LWPOLYLINE
  5
351
330
1F
100
AcDbEntity
  8
0
  6
Continuous
 62
     7
370
    25
100
AcDbPolyline
 90
       10
 70
   128
 43
0.0
 10
1575.5490229003
 20
364.8459262272
 10
1574.702566231
 20
364.1849251659
 10
1573.9582047285
 20
363.2589465332
 10
1573.4057193754
 20
362.1796770182
 10
1573.1117480592
 20
361.0772924528
 10
1573.1117480592
 20
360.0847566849
 10
1573.4057193754
 20
359.3217841766
 10
1573.9582047285
 20
358.8804006725
 10
1574.702566231
 20
358.8138435374
 10
1575.5490229003
 20
359.130140544
  0
LINE
  5
352
330
1F
100
AcDbEntity
  8
0
  6
Continuous
 62
     7
370
    25
100
AcDbLine
 10
1575.5490229003
 20
359.130140544
 30
0.0
 11
1588.2769449617
 21
366.4778135504
 31
0.0
  0
LWPOLYLINE
  5
353
330
1F
100
AcDbEntity
  8
0
  6
Continuous
 62
     7
370
    25
100
AcDbPolyline
 90
       10
 70
   128
 43
0.0
 10
1623.632284021
 20
386.888016346
 10
1624.4787406903
 20
387.5490174073
 10
1625.2231021929
 20
388.47499604
 10
1625.7755875459
 20
389.554265555
 10
1626.0695588621
 20
390.6566501204
 10
1626.0695588621
 20
391.6491858882
 10
1625.7755875459
 20
392.4121583966
 10
1625.2231021929
 20
392.8535419007
 10
1624.4787406903
 20
392.9200990358
 10
1623.632284021
 20
392.6038020292
  0
LINE
  5
354
330
1F
100
AcDbEntity
  8
0
  6
Continuous
 62
     7
370
    25
100
AcDbLine
 10
1623.632284021
 20
392.6038020292
 30
0.0
 11
1610.9043619596
 21
385.2561290228
 31
0.0
  0
LWPOLYLINE
  5
355
330
1F
100
AcDbEntity
  8
0
  6
Continuous
 62
     7
370
    25
100
AcDbPolyline
 90
       10
 70
   128
 43
0.0
 10
1610.9043619596
 20
385.2561290228
 10
1610.0579052904
 20
384.5951279614
 10
1609.3135437878
 20
383.6691493287
 10
1608.7610584347
 20
382.5898798138
 10
1608.4670871185
 20
381.4874952483
 10
1608.4670871185
 20
380.4949594805
 10
1608.7610584347
 20
379.7319869722
 10
1609.3135437878
 20
379.2906034681
 10
1610.0579052904
 20
379.2240463329
 10
1610.9043619596
 20
379.5403433396
  0
LINE
  5
356
330
1F
100
AcDbEntity
  8
0
  6
Continuous
 62
     7
370
    25
100
AcDbLine
 10
1610.9043619596
 20
379.5403433396
 30
0.0
 11
1623.632284021
 21
386.888016346
 31
0.0
  0
LWPOLYLINE
  5
357
330
1F
100
AcDbEntity
  8
0
  6
Continuous
 62
     7
370
    25
100
AcDbPolyline
 90
       10
 70
   128
 43
0.0
 10
1658.9876230803
 20
407.2982191415
 10
1659.8340797496
 20
407.9592202029
 10
1660.5784412522
 20
408.8851988356
 10
1661.1309266053
 20
409.9644683506
 10
1661.4248979214
 20
411.066852916
 10
1661.4248979214
 20
412.0593886838
 10
1661.1309266053
 20
412.8223611922
 10
1660.5784412522
 20
413.2637446963
 10
1659.8340797496
 20
413.3303018314
 10
1658.9876230803
 20
413.0140048247
  0
LINE
  5
358
330
1F
100
AcDbEntity
  8
0
  6
Continuous
 62
     7
370
    25
100
AcDbLine
 10
1658.9876230803
 20
413.0140048247
 30
0.0
 11
1646.259701019
 21
405.6663318183
 31
0.0
  0
LWPOLYLINE
  5
359
330
1F
100
AcDbEntity
  8
0
  6
Continuous
 62
     7
370
    25
100
AcDbPolyline
 90
       10
 70
   128
 43
0.0
 10
1646.259701019
 20
405.6663318183
 10
1645.4132443497
 20
405.005330757
 10
1644.6688828471
 20
404.0793521243
 10
1644.116397494
 20
403.0000826093
 10
1643.8224261778
 20
401.8976980439
 10
1643.8224261778
 20
400.9051622761
 10
1644.116397494
 20
400.1421897677
 10
1644.6688828471
 20
399.7008062636
 10
1645.4132443497
 20
399.6342491285
 10
1646.259701019
 20
399.9505461351
  0
LINE
  5
35A
330
1F
100
AcDbEntity
  8
0
  6
Continuous
 62
     7
370
    25
100
AcDbLine
 10
1646.259701019
 20
399.9505461351
 30
0.0
 11
1658.9876230803
 21
407.2982191415
 31
0.0
  0
LWPOLYLINE
  5
35B
330
1F
100
AcDbEntity
  8
0
  6
Continuous
 62
     7
370
    25
100
AcDbPolyline
 90
       10
 70
   128
 43
0.0
 10
1694.3429621397
 20
427.7084219371
 10
1695.1894188089
 20
428.3694229984
 10
1695.9337803115
 20
429.2954016311
 10
1696.4862656646
 20
430.3746711461
 10
1696.7802369808
 20
431.4770557116
 10
1696.7802369808
 20
432.4695914794
 10
1696.4862656646
 20
433.2325639877
 10
1695.9337803115
 20
433.6739474918
 10
1695.1894188089
 20
433.7405046269
 10
1694.3429621397
 20
433.4242076203
  0
LINE
  5
35C
330
1F
100
AcDbEntity
  8
0
  6
Continuous
 62
     7
370
    25
100
AcDbLine
 10
1694.3429621397
 20
433.4242076203
 30
0.0
 11
1681.6150400783
 21
426.0765346139
 31
0.0
  0
LWPOLYLINE
  5
35D
330
1F
100
AcDbEntity
  8
0
  6
Continuous
 62
     7
370
    25
100
AcDbPolyline
 90
       10
 70
   128
 43
0.0
 10
1681.6150400783
 20
426.0765346139
 10
1680.768583409
 20
425.4155335526
 10
1680.0242219064
 20
424.4895549199
 10
1679.4717365534
 20
423.4102854049
 10
1679.1777652372
 20
422.3079008395
 10
1679.1777652372
 20
421.3153650716
 10
1679.4717365534
 20
420.5523925633
 10
1680.0242219064
 20
420.1110090592
 10
1680.768583409
 20
420.0444519241
 10
1681.6150400783
 20
420.3607489307
  0
LINE
  5
35E
330
1F
100
AcDbEntity
  8
0
  6
Continuous
 62
     7
370
    25
100
AcDbLine
 10
1681.6150400783
 20
420.3607489307
 30
0.0
 11
1694.3429621397
 21
427.7084219371
 31
0.0
  0
LWPOLYLINE
  5
35F
330
1F
100
AcDbEntity
  8
0
  6
Continuous
 62
     7
370
    25
100
AcDbPolyline
 90
       10
 70
   128
 43
0.0
 10
1729.698301199
 20
448.1186247327
 10
1730.5447578682
 20
448.779625794
 10
1731.2891193708
 20
449.7056044267
 10
1731.8416047239
 20
450.7848739417
 10
1732.1355760401
 20
451.8872585071
 10
1732.1355760401
 20
452.8797942749
 10
1731.8416047239
 20
453.6427667833
 10
1731.2891193708
 20
454.0841502874
 10
1730.5447578682
 20
454.1507074225
 10
1729.698301199
 20
453.8344104159
  0
LINE
  5
360
330
1F
100
AcDbEntity
  8
0
  6
Continuous
 62
     7
370
    25
100
AcDbLine
 10
1729.698301199
 20
453.8344104159
 30
0.0
 11
1716.9703791376
 21
446.4867374095
 31
0.0
  0
LWPOLYLINE
  5
361
330
1F
100
AcDbEntity
  8
0
  6
Continuous
 62
     7
370
    25
100
AcDbPolyline
 90
       10
 70
   128
 43
0.0
 10
1716.9703791376
 20
446.4867374095
 10
1716.1239224684
 20
445.8257363481
 10
1715.3795609658
 20
444.8997577154
 10
1714.8270756127
 20
443.8204882005
 10
1714.5331042965
 20
442.718103635
 10
1714.5331042965
 20
441.7255678672
 10
1714.8270756127
 20
440.9625953589
 10
1715.3795609658
 20
440.5212118548
 10
1716.1239224684
 20
440.4546547196
 10
1716.9703791376
 20
440.7709517263
  0
LINE
  5
362
330
1F
100
AcDbEntity
  8
0
  6
Continuous
 62
     7
370
    25
100
AcDbLine
 10
1716.9703791376
 20
440.7709517263
 30
0.0
 11
1729.698301199
 21
448.1186247327
 31
0.0
  0
LWPOLYLINE
  5
363
330
1F
100
AcDbEntity
  8
0
  6
Continuous
 62
     7
370
    25
100
AcDbPolyline
 90
       10
 70
   128
 43
0.0
 10
1765.0536402583
 20
468.5288275282
 10
1765.9000969276
 20
469.1898285896
 10
1766.6444584302
 20
470.1158072223
 10
1767.1969437832
 20
471.1950767373
 10
1767.4909150994
 20
472.2974613027
 10
1767.4909150994
 20
473.2899970705
 10
1767.1969437832
 20
474.0529695789
 10
1766.6444584302
 20
474.494353083
 10
1765.9000969276
 20
474.5609102181
 10
1765.0536402583
 20
474.2446132114
  0
LINE
  5
364
330
1F
100
AcDbEntity
  8
0
  6
Continuous
 62
     7
370
    25
100
AcDbLine
 10
1765.0536402583
 20
474.2446132114
 30
0.0
 11
1752.325718197
 21
466.896940205
 31
0.0
  0
LWPOLYLINE
  5
365
330
1F
100
AcDbEntity
  8
0
  6
Continuous
 62
     7
370
    25
100
AcDbPolyline
 90
       10
 70
   128
 43
0.0
 10
1752.325718197
 20
466.896940205
 10
1751.4792615277
 20
466.2359391437
 10
1750.7349000251
 20
465.309960511
 10
1750.182414672
 20
464.230690996
 10
1749.8884433558
 20
463.1283064306
 10
1749.8884433558
 20
462.1357706628
 10
1750.182414672
 20
461.3727981544
 10
1750.7349000251
 20
460.9314146503
 10
1751.4792615277
 20
460.8648575152
 10
1752.325718197
 20
461.1811545218
  0
LINE
  5
366
330
1F
100
AcDbEntity
  8
0
  6
Continuous
 62
     7
370
    25
100
AcDbLine
 10
1752.325718197
 20
461.1811545218
 30
0.0
 11
1765.0536402583
 21
468.5288275282
 31
0.0
  0
LWPOLYLINE
  5
367
330
1F
100
AcDbEntity
  8
0
  6
Continuous
 62
     7
370
    25
100
AcDbPolyline
 90
       10
 70
   128
 43
0.0
 10
1800.4089793176
 20
488.9390303238
 10
1801.2554359869
 20
489.6000313851
 10
1801.9997974895
 20
490.5260100178
 10
1802.5522828426
 20
491.6052795328
 10
1802.8462541588
 20
492.7076640983
 10
1802.8462541588
 20
493.7001998661
 10
1802.5522828426
 20
494.4631723744
 10
1801.9997974895
 20
494.9045558785
 10
1801.2554359869
 20
494.9711130136
 10
1800.4089793176
 20
494.654816007
  0
LINE
  5
368
330
1F
100
AcDbEntity
  8
0
  6
Continuous
 62
     7
370
    25
100
AcDbLine
 10
1800.4089793176
 20
494.654816007
 30
0.0
 11
1787.6810572563
 21
487.3071430006
 31
0.0
  0
LWPOLYLINE
  5
369
330
1F
100
AcDbEntity
  8
0
  6
Continuous
 62
     7
370
    25
100
AcDbPolyline
 90
       10
 70
   128
 43
0.0
 10
1787.6810572563
 20
487.3071430006
 10
1786.834600587
 20
486.6461419393
 10
1786.0902390844
 20
485.7201633066
 10
1785.5377537313
 20
484.6408937916
 10
1785.2437824152
 20
483.5385092262
 10
1785.2437824152
 20
482.5459734583
 10
1785.5377537313
 20
481.78300095
 10
1786.0902390844
 20
481.3416174459
 10
1786.834600587
 20
481.2750603108
 10
1787.6810572563
 20
481.5913573174
  0
LINE
  5
36A
330
1F
100
AcDbEntity
  8
0
  6
Continuous
 62
     7
370
    25
100
AcDbLine
 10
1787.6810572563
 20
481.5913573174
 30
0.0
 11
1800.4089793176
 21
488.9390303238
 31
0.0
  0
LWPOLYLINE
  5
36B
330
1F
100
AcDbEntity
  8
0
  6
Continuous
 62
     7
370
    25
100
AcDbPolyline
 90
       10
 70
   128
 43
0.0
 10
1835.764318377
 20
509.3492331194
 10
1836.6107750462
 20
510.0102341807
 10
1837.3551365488
 20
510.9362128134
 10
1837.9076219019
 20
512.0154823284
 10
1838.2015932181
 20
513.1178668938
 10
1838.2015932181
 20
514.1104026616
 10
1837.9076219019
 20
514.87337517
 10
1837.3551365488
 20
515.3147586741
 10
1836.6107750462
 20
515.3813158092
 10
1835.764318377
 20
515.0650188026
  0
LINE
  5
36C
330
1F
100
AcDbEntity
  8
0
  6
Continuous
 62
     7
370
    25
100
AcDbLine
 10
1835.764318377
 20
515.0650188026
 30
0.0
 11
1823.0363963156
 21
507.7173457962
 31
0.0
  0
LWPOLYLINE
  5
36D
330
1F
100
AcDbEntity
  8
0
  6
Continuous
 62
     7
370
    25
100
AcDbPolyline
 90
       10
 70
   128
 43
0.0
 10
1823.0363963156
 20
507.7173457962
 10
1822.1899396463
 20
507.0563447348
 10
1821.4455781438
 20
506.1303661021
 10
1820.8930927907
 20
505.0510965872
 10
1820.5991214745
 20
503.9487120217
 10
1820.5991214745
 20
502.9561762539
 10
1820.8930927907
 20
502.1932037456
 10
1821.4455781438
 20
501.7518202415
 10
1822.1899396463
 20
501.6852631063
 10
1823.0363963156
 20
502.001560113
  0
LINE
  5
36E
330
1F
100
AcDbEntity
  8
0
  6
Continuous
 62
     7
370
    25
100
AcDbLine
 10
1823.0363963156
 20
502.001560113
 30
0.0
 11
1835.764318377
 21
509.3492331194
 31
0.0
  0
LWPOLYLINE
  5
36F
330
1F
100
AcDbEntity
  8
0
  6
Continuous
 62
     7
370
    25
100
AcDbPolyline
 90
       10
 70
   128
 43
0.0
 10
1871.1196574363
 20
529.7594359149
 10
1871.9661141056
 20
530.4204369763
 10
1872.7104756081
 20
531.346415609
 10
1873.2629609612
 20
532.425685124
 10
1873.5569322774
 20
533.5280696894
 10
1873.5569322774
 20
534.5206054572
 10
1873.2629609612
 20
535.2835779656
 10
1872.7104756081
 20
535.7249614697
 10
1871.9661141056
 20
535.7915186048
 10
1871.1196574363
 20
535.4752215981
  0
LINE
  5
370
330
1F
100
AcDbEntity
  8
0
  6
Continuous
 62
     7
370
    25
100
AcDbLine
 10
1871.1196574363
 20
535.4752215981
 30
0.0
 11
1858.3917353749
 21
528.1275485917
 31
0.0
  0
LWPOLYLINE
  5
371
330
1F
100
AcDbEntity
  8
0
  6
Continuous
 62
     7
370
    25
100
AcDbPolyline
 90
       10
 70
   128
 43
0.0
 10
1858.3917353749
 20
528.1275485917
 10
1857.5452787057
 20
527.4665475304
 10
1856.8009172031
 20
526.5405688977
 10
1856.24843185
 20
525.4612993827
 10
1855.9544605338
 20
524.3589148173
 10
1855.9544605338
 20
523.3663790495
 10
1856.24843185
 20
522.6034065411
 10
1856.8009172031
 20
522.162023037
 10
1857.5452787057
 20
522.0954659019
 10
1858.3917353749
 20
522.4117629085
  0
LINE
  5
372
330
1F
100
AcDbEntity
  8
0
  6
Continuous
 62
     7
370
    25
100
AcDbLine
 10
1858.3917353749
 20
522.4117629085
 30
0.0
 11
1871.1196574363
 21
529.7594359149
 31
0.0
  0
LWPOLYLINE
  5
373
330
1F
100
AcDbEntity
  8
0
  6
Continuous
 62
     7
370
    25
100
AcDbPolyline
 90
       10
 70
   128
 43
0.0
 10
1906.4749964956
 20
550.1696387105
 10
1907.3214531649
 20
550.8306397718
 10
1908.0658146675
 20
551.7566184046
 10
1908.6183000206
 20
552.8358879195
 10
1908.9122713367
 20
553.938272485
 10
1908.9122713367
 20
554.9308082528
 10
1908.6183000206
 20
555.6937807611
 10
1908.0658146675
 20
556.1351642652
 10
1907.3214531649
 20
556.2017214004
 10
1906.4749964956
 20
555.8854243937
  0
LINE
  5
374
330
1F
100
AcDbEntity
  8
0
  6
Continuous
 62
     7
370
    25
100
AcDbLine
 10
1906.4749964956
 20
555.8854243937
 30
0.0
 11
1893.7470744343
 21
548.5377513873
 31
0.0
  0
LWPOLYLINE
  5
375
330
1F
100
AcDbEntity
  8
0
  6
Continuous
 62
     7
370
    25
100
AcDbPolyline
 90
       10
 70
   128
 43
0.0
 10
1893.7470744343
 20
548.5377513873
 10
1892.900617765
 20
547.876750326
 10
1892.1562562624
 20
546.9507716933
 10
1891.6037709093
 20
545.8715021783
 10
1891.3097995931
 20
544.7691176129
 10
1891.3097995931
 20
543.776581845
 10
1891.6037709093
 20
543.0136093367
 10
1892.1562562624
 20
542.5722258326
 10
1892.900617765
 20
542.5056686975
 10
1893.7470744343
 20
542.8219657041
  0
LINE
  5
376
330
1F
100
AcDbEntity
  8
0
  6
Continuous
 62
     7
370
    25
100
AcDbLine
 10
1893.7470744343
 20
542.8219657041
 30
0.0
 11
1906.4749964956
 21
550.1696387105
 31
0.0
  0
LWPOLYLINE
  5
377
330
1F
100
AcDbEntity
  8
0
  6
Continuous
 62
     7
370
    25
100
AcDbPolyline
 90
       10
 70
   128
 43
0.0
 10
1941.8303355549
 20
570.5798415061
 10
1942.6767922242
 20
571.2408425674
 10
1943.4211537268
 20
572.1668212001
 10
1943.9736390799
 20
573.2460907151
 10
1944.2676103961
 20
574.3484752805
 10
1944.2676103961
 20
575.3410110484
 10
1943.9736390799
 20
576.1039835567
 10
1943.4211537268
 20
576.5453670608
 10
1942.6767922242
 20
576.6119241959
 10
1941.8303355549
 20
576.2956271893
  0
LINE
  5
378
330
1F
100
AcDbEntity
  8
0
  6
Continuous
 62
     7
370
    25
100
AcDbLine
 10
1941.8303355549
 20
576.2956271893
 30
0.0
 11
1929.1024134936
 21
568.9479541829
 31
0.0
  0
LWPOLYLINE
  5
379
330
1F
100
AcDbEntity
  8
0
  6
Continuous
 62
     7
370
    25
100
AcDbPolyline
 90
       10
 70
   128
 43
0.0
 10
1929.1024134936
 20
568.9479541829
 10
1928.2559568243
 20
568.2869531215
 10
1927.5115953217
 20
567.3609744888
 10
1926.9591099687
 20
566.2817049739
 10
1926.6651386525
 20
565.1793204084
 10
1926.6651386525
 20
564.1867846406
 10
1926.9591099687
 20
563.4238121323
 10
1927.5115953217
 20
562.9824286282
 10
1928.2559568243
 20
562.9158714931
 10
1929.1024134936
 20
563.2321684997
  0
LINE
  5
37A
330
1F
100
AcDbEntity
  8
0
  6
Continuous
 62
     7
370
    25
100
AcDbLine
 10
1929.1024134936
 20
563.2321684997
 30
0.0
 11
1941.8303355549
 21
570.5798415061
 31
0.0
  0
LWPOLYLINE
  5
37B
330
1F
100
AcDbEntity
  8
0
  6
Continuous
 62
     7
370
    25
100
AcDbPolyline
 90
       10
 70
   128
 43
0.0
 10
1977.1856746143
 20
590.9900443016
 10
1978.0321312835
 20
591.651045363
 10
1978.7764927861
 20
592.5770239957
 10
1979.3289781392
 20
593.6562935107
 10
1979.6229494554
 20
594.7586780761
 10
1979.6229494554
 20
595.7512138439
 10
1979.3289781392
 20
596.5141863523
 10
1978.7764927861
 20
596.9555698564
 10
1978.0321312835
 20
597.0221269915
 10
1977.1856746143
 20
596.7058299849
  0
LINE
  5
37C
330
1F
100
AcDbEntity
  8
0
  6
Continuous
 62
     7
370
    25
100
AcDbLine
 10
1977.1856746143
 20
596.7058299849
 30
0.0
 11
1964.4577525529
 21
589.3581569784
 31
0.0
  0
LWPOLYLINE
  5
37D
330
1F
100
AcDbEntity
  8
0
  6
Continuous
 62
     7
370
    25
100
AcDbPolyline
 90
       10
 70
   128
 43
0.0
 10
1964.4577525529
 20
589.3581569784
 10
1963.6112958836
 20
588.6971559171
 10
1962.8669343811
 20
587.7711772844
 10
1962.314449028
 20
586.6919077694
 10
1962.0204777118
 20
585.589523204
 10
1962.0204777118
 20
584.5969874362
 10
1962.314449028
 20
583.8340149278
 10
1962.8669343811
 20
583.3926314237
 10
1963.6112958836
 20
583.3260742886
 10
1964.4577525529
 20
583.6423712952
  0
LINE
  5
37E
330
1F
100
AcDbEntity
  8
0
  6
Continuous
 62
     7
370
    25
100
AcDbLine
 10
1964.4577525529
 20
583.6423712952
 30
0.0
 11
1977.1856746143
 21
590.9900443016
 31
0.0
  0
LWPOLYLINE
  5
37F
330
1F
100
AcDbEntity
  8
0
  6
Continuous
 62
     7
370
    25
100
AcDbPolyline
 90
       10
 70
   128
 43
0.0
 10
2012.5410136736
 20
611.4002470972
 10
2013.3874703429
 20
612.0612481585
 10
2014.1318318455
 20
612.9872267913
 10
2014.6843171985
 20
614.0664963062
 10
2014.9782885147
 20
615.1688808717
 10
2014.9782885147
 20
616.1614166395
 10
2014.6843171985
 20
616.9243891478
 10
2014.1318318455
 20
617.3657726519
 10
2013.3874703429
 20
617.4323297871
 10
2012.5410136736
 20
617.1160327804
  0
LINE
  5
380
330
1F
100
AcDbEntity
  8
0
  6
Continuous
 62
     7
370
    25
100
AcDbLine
 10
2012.5410136736
 20
617.1160327804
 30
0.0
 11
1999.8130916122
 21
609.768359774
 31
0.0
  0
LWPOLYLINE
  5
381
330
1F
100
AcDbEntity
  8
0
  6
Continuous
 62
     7
370
    25
100
AcDbPolyline
 90
       10
 70
   128
 43
0.0
 10
1999.8130916122
 20
609.768359774
 10
1998.966634943
 20
609.1073587127
 10
1998.2222734404
 20
608.18138008
 10
1997.6697880873
 20
607.102110565
 10
1997.3758167711
 20
605.9997259996
 10
1997.3758167711
 20
605.0071902318
 10
1997.6697880873
 20
604.2442177234
 10
1998.2222734404
 20
603.8028342193
 10
1998.966634943
 20
603.7362770842
 10
1999.8130916122
 20
604.0525740908
  0
LINE
  5
382
330
1F
100
AcDbEntity
  8
0
  6
Continuous
 62
     7
370
    25
100
AcDbLine
 10
1999.8130916122
 20
604.0525740908
 30
0.0
 11
2012.5410136736
 21
611.4002470972
 31
0.0
  0
LWPOLYLINE
  5
383
330
1F
100
AcDbEntity
  8
0
  6
Continuous
 62
     7
370
    25
100
AcDbPolyline
 90
       10
 70
   128
 43
0.0
 10
2047.8963527329
 20
631.8104498928
 10
2048.7428094022
 20
632.4714509541
 10
2049.4871709048
 20
633.3974295868
 10
2050.0396562579
 20
634.4766991018
 10
2050.3336275741
 20
635.5790836672
 10
2050.3336275741
 20
636.5716194351
 10
2050.0396562579
 20
637.3345919434
 10
2049.4871709048
 20
637.7759754475
 10
2048.7428094022
 20
637.8425325826
 10
2047.8963527329
 20
637.526235576
  0
LINE
  5
384
330
1F
100
AcDbEntity
  8
0
  6
Continuous
 62
     7
370
    25
100
AcDbLine
 10
2047.8963527329
 20
637.526235576
 30
0.0
 11
2035.1684306716
 21
630.1785625696
 31
0.0
  0
LWPOLYLINE
  5
385
330
1F
100
AcDbEntity
  8
0
  6
Continuous
 62
     7
370
    25
100
AcDbPolyline
 90
       10
 70
   128
 43
0.0
 10
2035.1684306716
 20
630.1785625696
 10
2034.3219740023
 20
629.5175615083
 10
2033.5776124997
 20
628.5915828755
 10
2033.0251271466
 20
627.5123133606
 10
2032.7311558305
 20
626.4099287951
 10
2032.7311558305
 20
625.4173930273
 10
2033.0251271466
 20
624.654420519
 10
2033.5776124997
 20
624.2130370149
 10
2034.3219740023
 20
624.1464798798
 10
2035.1684306716
 20
624.4627768864
  0
LINE
  5
386
330
1F
100
AcDbEntity
  8
0
  6
Continuous
 62
     7
370
    25
100
AcDbLine
 10
2035.1684306716
 20
624.4627768864
 30
0.0
 11
2047.8963527329
 21
631.8104498928
 31
0.0
  0
LWPOLYLINE
  5
387
330
1F
100
AcDbEntity
  8
0
  6
Continuous
 62
     7
370
    25
100
AcDbPolyline
 90
       10
 70
   128
 43
0.0
 10
2083.2516917923
 20
652.2206526884
 10
2084.0981484615
 20
652.8816537497
 10
2084.8425099641
 20
653.8076323824
 10
2085.3949953172
 20
654.8869018974
 10
2085.6889666334
 20
655.9892864628
 10
2085.6889666334
 20
656.9818222306
 10
2085.3949953172
 20
657.744794739
 10
2084.8425099641
 20
658.1861782431
 10
2084.0981484615
 20
658.2527353782
 10
2083.2516917923
 20
657.9364383716
  0
LINE
  5
388
330
1F
100
AcDbEntity
  8
0
  6
Continuous
 62
     7
370
    25
100
AcDbLine
 10
2083.2516917923
 20
657.9364383716
 30
0.0
 11
2070.5237697309
 21
650.5887653652
 31
0.0
  0
LWPOLYLINE
  5
389
330
1F
100
AcDbEntity
  8
0
  6
Continuous
 62
     7
370
    25
100
AcDbPolyline
 90
       10
 70
   128
 43
0.0
 10
2070.5237697309
 20
650.5887653652
 10
2069.6773130616
 20
649.9277643038
 10
2068.932951559
 20
649.0017856711
 10
2068.380466206
 20
647.9225161561
 10
2068.0864948898
 20
646.8201315907
 10
2068.0864948898
 20
645.8275958229
 10
2068.380466206
 20
645.0646233145
 10
2068.932951559
 20
644.6232398104
 10
2069.6773130616
 20
644.5566826753
 10
2070.5237697309
 20
644.8729796819
  0
LINE
  5
38A
330
1F
100
AcDbEntity
  8
0
  6
Continuous
 62
     7
370
    25
100
AcDbLine
 10
2070.5237697309
 20
644.8729796819
 30
0.0
 11
2083.2516917923
 21
652.2206526884
 31
0.0
  0
LWPOLYLINE
  5
38B
330
1F
100
AcDbEntity
  8
0
  6
Continuous
 62
     7
370
    25
100
AcDbPolyline
 90
       10
 70
   128
 43
0.0
 10
2118.6070308516
 20
672.6308554839
 10
2119.4534875209
 20
673.2918565453
 10
2120.1978490234
 20
674.217835178
 10
2120.7503343765
 20
675.2971046929
 10
2121.0443056927
 20
676.3994892584
 10
2121.0443056927
 20
677.3920250262
 10
2120.7503343765
 20
678.1549975345
 10
2120.1978490234
 20
678.5963810386
 10
2119.4534875209
 20
678.6629381738
 10
2118.6070308516
 20
678.3466411671
  0
LINE
  5
38C
330
1F
100
AcDbEntity
  8
0
  6
Continuous
 62
     7
370
    25
100
AcDbLine
 10
2118.6070308516
 20
678.3466411671
 30
0.0
 11
2105.8791087902
 21
670.9989681607
 31
0.0
  0
LWPOLYLINE
  5
38D
330
1F
100
AcDbEntity
  8
0
  6
Continuous
 62
     7
370
    25
100
AcDbPolyline
 90
       10
 70
   128
 43
0.0
 10
2105.8791087902
 20
670.9989681607
 10
2105.032652121
 20
670.3379670994
 10
2104.2882906184
 20
669.4119884667
 10
2103.7358052653
 20
668.3327189517
 10
2103.4418339491
 20
667.2303343863
 10
2103.4418339491
 20
666.2377986185
 10
2103.7358052653
 20
665.4748261101
 10
2104.2882906184
 20
665.033442606
 10
2105.032652121
 20
664.9668854709
 10
2105.8791087902
 20
665.2831824775
  0
LINE
  5
38E
330
1F
100
AcDbEntity
  8
0
  6
Continuous
 62
     7
370
    25
100
AcDbLine
 10
2105.8791087902
 20
665.2831824775
 30
0.0
 11
2118.6070308516
 21
672.6308554839
 31
0.0
  0
LWPOLYLINE
  5
38F
330
1F
100
AcDbEntity
  8
0
  6
Continuous
 62
     7
370
    25
100
AcDbPolyline
 90
       10
 70
   128
 43
0.0
 10
2153.9623699109
 20
693.0410582795
 10
2154.8088265802
 20
693.7020593408
 10
2155.5531880828
 20
694.6280379735
 10
2156.1056734359
 20
695.7073074885
 10
2156.399644752
 20
696.8096920539
 10
2156.399644752
 20
697.8022278218
 10
2156.1056734359
 20
698.5652003301
 10
2155.5531880828
 20
699.0065838342
 10
2154.8088265802
 20
699.0731409693
 10
2153.9623699109
 20
698.7568439627
  0
LINE
  5
390
330
1F
100
AcDbEntity
  8
0
  6
Continuous
 62
     7
370
    25
100
AcDbLine
 10
2153.9623699109
 20
698.7568439627
 30
0.0
 11
2141.2344478496
 21
691.4091709563
 31
0.0
  0
LWPOLYLINE
  5
391
330
1F
100
AcDbEntity
  8
0
  6
Continuous
 62
     7
370
    25
100
AcDbPolyline
 90
       10
 70
   128
 43
0.0
 10
2141.2344478496
 20
691.4091709563
 10
2140.3879911803
 20
690.748169895
 10
2139.6436296777
 20
689.8221912623
 10
2139.0911443246
 20
688.7429217473
 10
2138.7971730084
 20
687.6405371818
 10
2138.7971730084
 20
686.648001414
 10
2139.0911443246
 20
685.8850289057
 10
2139.6436296777
 20
685.4436454016
 10
2140.3879911803
 20
685.3770882665
 10
2141.2344478496
 20
685.6933852731
  0
LINE
  5
392
330
1F
100
AcDbEntity
  8
0
  6
Continuous
 62
     7
370
    25
100
AcDbLine
 10
2141.2344478496
 20
685.6933852731
 30
0.0
 11
2153.9623699109
 21
693.0410582795
 31
0.0
  0
LWPOLYLINE
  5
393
330
1F
100
AcDbEntity
  8
0
  6
Continuous
 62
     7
370
    25
100
AcDbPolyline
 90
       10
 70
   128
 43
0.0
 10
2189.3177089702
 20
713.4512610751
 10
2190.1641656395
 20
714.1122621364
 10
2190.9085271421
 20
715.0382407691
 10
2191.4610124952
 20
716.1175102841
 10
2191.7549838114
 20
717.2198948495
 10
2191.7549838114
 20
718.2124306173
 10
2191.4610124952
 20
718.9754031257
 10
2190.9085271421
 20
719.4167866298
 10
2190.1641656395
 20
719.4833437649
 10
2189.3177089702
 20
719.1670467583
  0
LINE
  5
394
330
1F
100
AcDbEntity
  8
0
  6
Continuous
 62
     7
370
    25
100
AcDbLine
 10
2189.3177089702
 20
719.1670467583
 30
0.0
 11
2176.5897869089
 21
711.8193737519
 31
0.0
  0
LWPOLYLINE
  5
395
330
1F
100
AcDbEntity
  8
0
  6
Continuous
 62
     7
370
    25
100
AcDbPolyline
 90
       10
 70
   128
 43
0.0
 10
2176.5897869089
 20
711.8193737519
 10
2175.7433302396
 20
711.1583726905
 10
2174.998968737
 20
710.2323940578
 10
2174.4464833839
 20
709.1531245428
 10
2174.1525120678
 20
708.0507399774
 10
2174.1525120678
 20
707.0582042096
 10
2174.4464833839
 20
706.2952317012
 10
2174.998968737
 20
705.8538481971
 10
2175.7433302396
 20
705.787291062
 10
2176.5897869089
 20
706.1035880686
  0
LINE
  5
396
330
1F
100
AcDbEntity
  8
0
  6
Continuous
 62
     7
370
    25
100
AcDbLine
 10
2176.5897869089
 20
706.1035880686
 30
0.0
 11
2189.3177089702
 21
713.4512610751
 31
0.0
  0
LWPOLYLINE
  5
397
330
1F
100
AcDbEntity
  8
0
  6
Continuous
 62
     7
370
    25
100
AcDbPolyline
 90
       10
 70
   128
 43
0.0
 10
2224.6730480296
 20
733.8614638706
 10
2225.5195046988
 20
734.522464932
 10
2226.2638662014
 20
735.4484435647
 10
2226.8163515545
 20
736.5277130796
 10
2227.1103228707
 20
737.6300976451
 10
2227.1103228707
 20
738.6226334129
 10
2226.8163515545
 20
739.3856059213
 10
2226.2638662014
 20
739.8269894253
 10
2225.5195046988
 20
739.8935465605
 10
2224.6730480296
 20
739.5772495538
  0
LINE
  5
398
330
1F
100
AcDbEntity
  8
0
  6
Continuous
 62
     7
370
    25
100
AcDbLine
 10
2224.6730480296
 20
739.5772495538
 30
0.0
 11
2211.9451259682
 21
732.2295765474
 31
0.0
  0
LWPOLYLINE
  5
399
330
1F
100
AcDbEntity
  8
0
  6
Continuous
 62
     7
370
    25
100
AcDbPolyline
 90
       10
 70
   128
 43
0.0
 10
2211.9451259682
 20
732.2295765474
 10
2211.0986692989
 20
731.5685754861
 10
2210.3543077964
 20
730.6425968534
 10
2209.8018224433
 20
729.5633273384
 10
2209.5078511271
 20
728.460942773
 10
2209.5078511271
 20
727.4684070052
 10
2209.8018224433
 20
726.7054344968
 10
2210.3543077964
 20
726.2640509927
 10
2211.0986692989
 20
726.1974938576
 10
2211.9451259682
 20
726.5137908642
  0
LINE
  5
39A
330
1F
100
AcDbEntity
  8
0
  6
Continuous
 62
     7
370
    25
100
AcDbLine
 10
2211.9451259682
 20
726.5137908642
 30
0.0
 11
2224.6730480296
 21
733.8614638706
 31
0.0
  0
LWPOLYLINE
  5
39B
330
1F
100
AcDbEntity
  8
0
  6
Continuous
 62
     7
370
    25
100
AcDbPolyline
 90
       10
 70
   128
 43
0.0
 10
2260.0283870889
 20
754.2716666662
 10
2260.8748437582
 20
754.9326677275
 10
2261.6192052607
 20
755.8586463602
 10
2262.1716906138
 20
756.9379158752
 10
2262.46566193
 20
758.0403004406
 10
2262.46566193
 20
759.0328362085
 10
2262.1716906138
 20
759.7958087168
 10
2261.6192052607
 20
760.2371922209
 10
2260.8748437582
 20
760.303749356
 10
2260.0283870889
 20
759.9874523494
  0
LINE
  5
39C
330
1F
100
AcDbEntity
  8
0
  6
Continuous
 62
     7
370
    25
100
AcDbLine
 10
2260.0283870889
 20
759.9874523494
 30
0.0
 11
2247.3004650275
 21
752.639779343
 31
0.0
  0
LWPOLYLINE
  5
39D
330
1F
100
AcDbEntity
  8
0
  6
Continuous
 62
     7
370
    25
100
AcDbPolyline
 90
       10
 70
   128
 43
0.0
 10
2247.3004650275
 20
752.639779343
 10
2246.4540083583
 20
751.9787782817
 10
2245.7096468557
 20
751.052799649
 10
2245.1571615026
 20
749.973530134
 10
2244.8631901864
 20
748.8711455686
 10
2244.8631901864
 20
747.8786098007
 10
2245.1571615026
 20
747.1156372924
 10
2245.7096468557
 20
746.6742537883
 10
2246.4540083583
 20
746.6076966532
 10
2247.3004650275
 20
746.9239936598
  0
LINE
  5
39E
330
1F
100
AcDbEntity
  8
0
  6
Continuous
 62
     7
370
    25
100
AcDbLine
 10
2247.3004650275
 20
746.9239936598
 30
0.0
 11
2260.0283870889
 21
754.2716666662
 31
0.0
  0
LWPOLYLINE
  5
39F
330
1F
100
AcDbEntity
  8
0
  6
Continuous
 62
     7
370
    25
100
AcDbPolyline
 90
       10
 70
   128
 43
0.0
 10
2295.3837261482
 20
774.6818694618
 10
2296.2301828175
 20
775.3428705231
 10
2296.9745443201
 20
776.2688491558
 10
2297.5270296732
 20
777.3481186708
 10
2297.8210009893
 20
778.4505032362
 10
2297.8210009893
 20
779.443039004
 10
2297.5270296732
 20
780.2060115124
 10
2296.9745443201
 20
780.6473950165
 10
2296.2301828175
 20
780.7139521516
 10
2295.3837261482
 20
780.397655145
  0
LINE
  5
3A0
330
1F
100
AcDbEntity
  8
0
  6
Continuous
 62
     7
370
    25
100
AcDbLine
 10
2295.3837261482
 20
780.397655145
 30
0.0
 11
2282.6558040869
 21
773.0499821386
 31
0.0
  0
LWPOLYLINE
  5
3A1
330
1F
100
AcDbEntity
  8
0
  6
Continuous
 62
     7
370
    25
100
AcDbPolyline
 90
       10
 70
   128
 43
0.0
 10
2282.6558040869
 20
773.0499821386
 10
2281.8093474176
 20
772.3889810772
 10
2281.064985915
 20
771.4630024445
 10
2280.5125005619
 20
770.3837329295
 10
2280.2185292457
 20
769.2813483641
 10
2280.2185292457
 20
768.2888125963
 10
2280.5125005619
 20
767.5258400879
 10
2281.064985915
 20
767.0844565839
 10
2281.8093474176
 20
767.0178994487
 10
2282.6558040869
 20
767.3341964553
  0
LINE
  5
3A2
330
1F
100
AcDbEntity
  8
0
  6
Continuous
 62
     7
370
    25
100
AcDbLine
 10
2282.6558040869
 20
767.3341964553
 30
0.0
 11
2295.3837261482
 21
774.6818694618
 31
0.0
  0
LWPOLYLINE
  5
3A3
330
1F
100
AcDbEntity
  8
0
  6
Continuous
 62
     7
370
    25
100
AcDbPolyline
 90
       10
 70
   128
 43
0.0
 10
2330.7390652075
 20
795.0920722573
 10
2331.5855218768
 20
795.7530733187
 10
2332.3298833794
 20
796.6790519514
 10
2332.8823687325
 20
797.7583214663
 10
2333.1763400487
 20
798.8607060318
 10
2333.1763400487
 20
799.8532417996
 10
2332.8823687325
 20
800.616214308
 10
2332.3298833794
 20
801.0575978121
 10
2331.5855218768
 20
801.1241549472
 10
2330.7390652075
 20
800.8078579405
  0
LINE
  5
3A4
330
1F
100
AcDbEntity
  8
0
  6
Continuous
 62
     7
370
    25
100
AcDbLine
 10
2330.7390652075
 20
800.8078579405
 30
0.0
 11
2318.0111431462
 21
793.4601849341
 31
0.0
  0
LWPOLYLINE
  5
3A5
330
1F
100
AcDbEntity
  8
0
  6
Continuous
 62
     7
370
    25
100
AcDbPolyline
 90
       10
 70
   128
 43
0.0
 10
2318.0111431462
 20
793.4601849341
 10
2317.1646864769
 20
792.7991838728
 10
2316.4203249743
 20
791.8732052401
 10
2315.8678396213
 20
790.7939357251
 10
2315.5738683051
 20
789.6915511597
 10
2315.5738683051
 20
788.6990153919
 10
2315.8678396213
 20
787.9360428835
 10
2316.4203249743
 20
787.4946593794
 10
2317.1646864769
 20
787.4281022443
 10
2318.0111431462
 20
787.7443992509
  0
LINE
  5
3A6
330
1F
100
AcDbEntity
  8
0
  6
Continuous
 62
     7
370
    25
100
AcDbLine
 10
2318.0111431462
 20
787.7443992509
 30
0.0
 11
2330.7390652075
 21
795.0920722573
 31
0.0
  0
LWPOLYLINE
  5
3A7
330
1F
100
AcDbEntity
  8
0
  6
Continuous
 62
     7
370
    25
100
AcDbPolyline
 90
       10
 70
   128
 43
0.0
 10
2366.0944042669
 20
815.5022750529
 10
2366.9408609361
 20
816.1632761142
 10
2367.6852224387
 20
817.0892547469
 10
2368.2377077918
 20
818.1685242619
 10
2368.531679108
 20
819.2709088273
 10
2368.531679108
 20
820.2634445952
 10
2368.2377077918
 20
821.0264171035
 10
2367.6852224387
 20
821.4678006076
 10
2366.9408609361
 20
821.5343577427
 10
2366.0944042669
 20
821.2180607361
  0
LINE
  5
3A8
330
1F
100
AcDbEntity
  8
0
  6
Continuous
 62
     7
370
    25
100
AcDbLine
 10
2366.0944042669
 20
821.2180607361
 30
0.0
 11
2353.3664822055
 21
813.8703877297
 31
0.0
  0
LWPOLYLINE
  5
3A9
330
1F
100
AcDbEntity
  8
0
  6
Continuous
 62
     7
370
    25
100
AcDbPolyline
 90
       10
 70
   128
 43
0.0
 10
2353.3664822055
 20
813.8703877297
 10
2352.5200255363
 20
813.2093866684
 10
2351.7756640337
 20
812.2834080357
 10
2351.2231786806
 20
811.2041385207
 10
2350.9292073644
 20
810.1017539553
 10
2350.9292073644
 20
809.1092181874
 10
2351.2231786806
 20
808.3462456791
 10
2351.7756640337
 20
807.904862175
 10
2352.5200255363
 20
807.8383050399
 10
2353.3664822055
 20
808.1546020465
  0
LINE
  5
3AA
330
1F
100
AcDbEntity
  8
0
  6
Continuous
 62
     7
370
    25
100
AcDbLine
 10
2353.3664822055
 20
808.1546020465
 30
0.0
 11
2366.0944042669
 21
815.5022750529
 31
0.0
  0
LWPOLYLINE
  5
3AB
330
1F
100
AcDbEntity
  8
0
  6
Continuous
 62
     7
370
    25
100
AcDbPolyline
 90
       10
 70
   128
 43
0.0
 10
2401.4497433262
 20
835.9124778485
 10
2402.2961999955
 20
836.5734789098
 10
2403.0405614981
 20
837.4994575425
 10
2403.5930468511
 20
838.5787270575
 10
2403.8870181673
 20
839.6811116229
 10
2403.8870181673
 20
840.6736473907
 10
2403.5930468511
 20
841.4366198991
 10
2403.0405614981
 20
841.8780034032
 10
2402.2961999955
 20
841.9445605383
 10
2401.4497433262
 20
841.6282635317
  0
LINE
  5
3AC
330
1F
100
AcDbEntity
  8
0
  6
Continuous
 62
     7
370
    25
100
AcDbLine
 10
2401.4497433262
 20
841.6282635317
 30
0.0
 11
2388.7218212648
 21
834.2805905253
 31
0.0
  0
LWPOLYLINE
  5
3AD
330
1F
100
AcDbEntity
  8
0
  6
Continuous
 62
     7
370
    25
100
AcDbPolyline
 90
       10
 70
   128
 43
0.0
 10
2388.7218212648
 20
834.2805905253
 10
2387.8753645956
 20
833.6195894639
 10
2387.131003093
 20
832.6936108312
 10
2386.5785177399
 20
831.6143413163
 10
2386.2845464237
 20
830.5119567508
 10
2386.2845464237
 20
829.519420983
 10
2386.5785177399
 20
828.7564484747
 10
2387.131003093
 20
828.3150649706
 10
2387.8753645956
 20
828.2485078354
 10
2388.7218212648
 20
828.564804842
  0
LINE
  5
3AE
330
1F
100
AcDbEntity
  8
0
  6
Continuous
 62
     7
370
    25
100
AcDbLine
 10
2388.7218212648
 20
828.564804842
 30
0.0
 11
2401.4497433262
 21
835.9124778485
 31
0.0
  0
LWPOLYLINE
  5
3AF
330
1F
100
AcDbEntity
  8
0
  6
Continuous
 62
     7
370
    25
100
AcDbPolyline
 90
       10
 70
   128
 43
0.0
 10
2436.8050823855
 20
856.322680644
 10
2437.6515390548
 20
856.9836817054
 10
2438.3959005574
 20
857.9096603381
 10
2438.9483859105
 20
858.9889298531
 10
2439.2423572267
 20
860.0913144185
 10
2439.2423572267
 20
861.0838501863
 10
2438.9483859105
 20
861.8468226947
 10
2438.3959005574
 20
862.2882061988
 10
2437.6515390548
 20
862.3547633339
 10
2436.8050823855
 20
862.0384663272
  0
LINE
  5
3B0
330
1F
100
AcDbEntity
  8
0
  6
Continuous
 62
     7
370
    25
100
AcDbLine
 10
2436.8050823855
 20
862.0384663272
 30
0.0
 11
2424.0771603242
 21
854.6907933208
 31
0.0
  0
LWPOLYLINE
  5
3B1
330
1F
100
AcDbEntity
  8
0
  6
Continuous
 62
     7
370
    25
100
AcDbPolyline
 90
       10
 70
   128
 43
0.0
 10
2424.0771603242
 20
854.6907933208
 10
2423.2307036549
 20
854.0297922595
 10
2422.4863421523
 20
853.1038136268
 10
2421.9338567992
 20
852.0245441118
 10
2421.6398854831
 20
850.9221595464
 10
2421.6398854831
 20
849.9296237786
 10
2421.9338567992
 20
849.1666512702
 10
2422.4863421523
 20
848.7252677661
 10
2423.2307036549
 20
848.658710631
 10
2424.0771603242
 20
848.9750076376
  0
LINE
  5
3B2
330
1F
100
AcDbEntity
  8
0
  6
Continuous
 62
     7
370
    25
100
AcDbLine
 10
2424.0771603242
 20
848.9750076376
 30
0.0
 11
2436.8050823855
 21
856.322680644
 31
0.0
  0
LWPOLYLINE
  5
3B3
330
1F
100
AcDbEntity
  8
0
  6
Continuous
 62
     7
370
    25
100
AcDbPolyline
 90
       10
 70
   128
 43
0.0
 10
2472.1604214449
 20
876.7328834396
 10
2473.0068781141
 20
877.3938845009
 10
2473.7512396167
 20
878.3198631336
 10
2474.3037249698
 20
879.3991326486
 10
2474.597696286
 20
880.5015172141
 10
2474.597696286
 20
881.4940529819
 10
2474.3037249698
 20
882.2570254902
 10
2473.7512396167
 20
882.6984089943
 10
2473.0068781141
 20
882.7649661294
 10
2472.1604214449
 20
882.4486691228
  0
LINE
  5
3B4
330
1F
100
AcDbEntity
  8
0
  6
Continuous
 62
     7
370
    25
100
AcDbLine
 10
2472.1604214449
 20
882.4486691228
 30
0.0
 11
2459.4324993835
 21
875.1009961164
 31
0.0
  0
LWPOLYLINE
  5
3B5
330
1F
100
AcDbEntity
  8
0
  6
Continuous
 62
     7
370
    25
100
AcDbPolyline
 90
       10
 70
   128
 43
0.0
 10
2459.4324993835
 20
875.1009961164
 10
2458.5860427142
 20
874.4399950551
 10
2457.8416812116
 20
873.5140164224
 10
2457.2891958586
 20
872.4347469074
 10
2456.9952245424
 20
871.332362342
 10
2456.9952245424
 20
870.3398265741
 10
2457.2891958586
 20
869.5768540658
 10
2457.8416812116
 20
869.1354705617
 10
2458.5860427142
 20
869.0689134266
 10
2459.4324993835
 20
869.3852104332
  0
LINE
  5
3B6
330
1F
100
AcDbEntity
  8
0
  6
Continuous
 62
     7
370
    25
100
AcDbLine
 10
2459.4324993835
 20
869.3852104332
 30
0.0
 11
2472.1604214449
 21
876.7328834396
 31
0.0
  0
LWPOLYLINE
  5
3B7
330
1F
100
AcDbEntity
  8
0
  6
Continuous
 62
     7
370
    25
100
AcDbPolyline
 90
       10
 70
   128
 43
0.0
 10
2507.5157605042
 20
897.1430862352
 10
2508.3622171735
 20
897.8040872965
 10
2509.106578676
 20
898.7300659292
 10
2509.6590640291
 20
899.8093354442
 10
2509.9530353453
 20
900.9117200096
 10
2509.9530353453
 20
901.9042557774
 10
2509.6590640291
 20
902.6672282858
 10
2509.106578676
 20
903.1086117899
 10
2508.3622171735
 20
903.175168925
 10
2507.5157605042
 20
902.8588719184
  0
LINE
  5
3B8
330
1F
100
AcDbEntity
  8
0
  6
Continuous
 62
     7
370
    25
100
AcDbLine
 10
2507.5157605042
 20
902.8588719184
 30
0.0
 11
2494.7878384428
 21
895.511198912
 31
0.0
  0
LWPOLYLINE
  5
3B9
330
1F
100
AcDbEntity
  8
0
  6
Continuous
 62
     7
370
    25
100
AcDbPolyline
 90
       10
 70
   128
 43
0.0
 10
2494.7878384428
 20
895.511198912
 10
2493.9413817736
 20
894.8501978506
 10
2493.197020271
 20
893.9242192179
 10
2492.6445349179
 20
892.844949703
 10
2492.3505636017
 20
891.7425651375
 10
2492.3505636017
 20
890.7500293697
 10
2492.6445349179
 20
889.9870568614
 10
2493.197020271
 20
889.5456733573
 10
2493.9413817736
 20
889.4791162221
 10
2494.7878384428
 20
889.7954132287
  0
LINE
  5
3BA
330
1F
100
AcDbEntity
  8
0
  6
Continuous
 62
     7
370
    25
100
AcDbLine
 10
2494.7878384428
 20
889.7954132287
 30
0.0
 11
2507.5157605042
 21
897.1430862352
 31
0.0
  0
LWPOLYLINE
  5
3BB
330
1F
100
AcDbEntity
  8
0
  6
Continuous
 62
     7
370
    25
100
AcDbPolyline
 90
       10
 70
   128
 43
0.0
 10
2542.8710995635
 20
917.5532890307
 10
2543.7175562328
 20
918.2142900921
 10
2544.4619177354
 20
919.1402687248
 10
2545.0144030885
 20
920.2195382398
 10
2545.3083744046
 20
921.3219228052
 10
2545.3083744046
 20
922.314458573
 10
2545.0144030885
 20
923.0774310814
 10
2544.4619177354
 20
923.5188145855
 10
2543.7175562328
 20
923.5853717206
 10
2542.8710995635
 20
923.2690747139
  0
LINE
  5
3BC
330
1F
100
AcDbEntity
  8
0
  6
Continuous
 62
     7
370
    25
100
AcDbLine
 10
2542.8710995635
 20
923.2690747139
 30
0.0
 11
2530.1431775022
 21
915.9214017075
 31
0.0
  0
LWPOLYLINE
  5
3BD
330
1F
100
AcDbEntity
  8
0
  6
Continuous
 62
     7
370
    25
100
AcDbPolyline
 90
       10
 70
   128
 43
0.0
 10
2530.1431775022
 20
915.9214017075
 10
2529.2967208329
 20
915.2604006462
 10
2528.5523593303
 20
914.3344220135
 10
2527.9998739772
 20
913.2551524985
 10
2527.705902661
 20
912.1527679331
 10
2527.705902661
 20
911.1602321653
 10
2527.9998739772
 20
910.3972596569
 10
2528.5523593303
 20
909.9558761528
 10
2529.2967208329
 20
909.8893190177
 10
2530.1431775022
 20
910.2056160243
  0
LINE
  5
3BE
330
1F
100
AcDbEntity
  8
0
  6
Continuous
 62
     7
370
    25
100
AcDbLine
 10
2530.1431775022
 20
910.2056160243
 30
0.0
 11
2542.8710995635
 21
917.5532890307
 31
0.0
  0
LWPOLYLINE
  5
3BF
330
1F
100
AcDbEntity
  8
0
  6
Continuous
 62
     7
370
    25
100
AcDbPolyline
 90
       10
 70
   128
 43
0.0
 10
2578.2264386228
 20
937.9634918263
 10
2579.0728952921
 20
938.6244928876
 10
2579.8172567947
 20
939.5504715203
 10
2580.3697421478
 20
940.6297410353
 10
2580.663713464
 20
941.7321256008
 10
2580.663713464
 20
942.7246613686
 10
2580.3697421478
 20
943.4876338769
 10
2579.8172567947
 20
943.929017381
 10
2579.0728952921
 20
943.9955745161
 10
2578.2264386228
 20
943.6792775095
  0
LINE
  5
3C0
330
1F
100
AcDbEntity
  8
0
  6
Continuous
 62
     7
370
    25
100
AcDbLine
 10
2578.2264386228
 20
943.6792775095
 30
0.0
 11
2565.4985165615
 21
936.3316045031
 31
0.0
  0
LWPOLYLINE
  5
3C1
330
1F
100
AcDbEntity
  8
0
  6
Continuous
 62
     7
370
    25
100
AcDbPolyline
 90
       10
 70
   128
 43
0.0
 10
2565.4985165615
 20
936.3316045031
 10
2564.6520598922
 20
935.6706034418
 10
2563.9076983896
 20
934.7446248091
 10
2563.3552130365
 20
933.6653552941
 10
2563.0612417204
 20
932.5629707287
 10
2563.0612417204
 20
931.5704349608
 10
2563.3552130365
 20
930.8074624525
 10
2563.9076983896
 20
930.3660789484
 10
2564.6520598922
 20
930.2995218133
 10
2565.4985165615
 20
930.6158188199
  0
LINE
  5
3C2
330
1F
100
AcDbEntity
  8
0
  6
Continuous
 62
     7
370
    25
100
AcDbLine
 10
2565.4985165615
 20
930.6158188199
 30
0.0
 11
2578.2264386228
 21
937.9634918263
 31
0.0
  0
LWPOLYLINE
  5
3C3
330
1F
100
AcDbEntity
  8
0
  6
Continuous
 62
     7
370
    25
100
AcDbPolyline
 90
       10
 70
   128
 43
0.0
 10
2613.5817776822
 20
958.3736946219
 10
2614.4282343514
 20
959.0346956832
 10
2615.172595854
 20
959.9606743159
 10
2615.7250812071
 20
961.0399438309
 10
2616.0190525233
 20
962.1423283963
 10
2616.0190525233
 20
963.1348641641
 10
2615.7250812071
 20
963.8978366725
 10
2615.172595854
 20
964.3392201766
 10
2614.4282343514
 20
964.4057773117
 10
2613.5817776822
 20
964.0894803051
  0
LINE
  5
3C4
330
1F
100
AcDbEntity
  8
0
  6
Continuous
 62
     7
370
    25
100
AcDbLine
 10
2613.5817776822
 20
964.0894803051
 30
0.0
 11
2600.8538556208
 21
956.7418072987
 31
0.0
  0
LWPOLYLINE
  5
3C5
330
1F
100
AcDbEntity
  8
0
  6
Continuous
 62
     7
370
    25
100
AcDbPolyline
 90
       10
 70
   128
 43
0.0
 10
2600.8538556208
 20
956.7418072987
 10
2600.0073989515
 20
956.0808062373
 10
2599.263037449
 20
955.1548276046
 10
2598.7105520959
 20
954.0755580897
 10
2598.4165807797
 20
952.9731735242
 10
2598.4165807797
 20
951.9806377564
 10
2598.7105520959
 20
951.2176652481
 10
2599.263037449
 20
950.776281744
 10
2600.0073989515
 20
950.7097246088
 10
2600.8538556208
 20
951.0260216155
  0
LINE
  5
3C6
330
1F
100
AcDbEntity
  8
0
  6
Continuous
 62
     7
370
    25
100
AcDbLine
 10
2600.8538556208
 20
951.0260216155
 30
0.0
 11
2613.5817776822
 21
958.3736946219
 31
0.0
  0
LWPOLYLINE
  5
3C7
330
1F
100
AcDbEntity
  8
0
  6
Continuous
 62
     7
370
    25
100
AcDbPolyline
 90
       10
 70
   128
 43
0.0
 10
2648.9371167415
 20
978.7838974174
 10
2649.7835734108
 20
979.4448984788
 10
2650.5279349134
 20
980.3708771115
 10
2651.0804202664
 20
981.4501466265
 10
2651.3743915826
 20
982.5525311919
 10
2651.3743915826
 20
983.5450669597
 10
2651.0804202664
 20
984.3080394681
 10
2650.5279349134
 20
984.7494229722
 10
2649.7835734108
 20
984.8159801073
 10
2648.9371167415
 20
984.4996831006
  0
LINE
  5
3C8
330
1F
100
AcDbEntity
  8
0
  6
Continuous
 62
     7
370
    25
100
AcDbLine
 10
2648.9371167415
 20
984.4996831006
 30
0.0
 11
2636.2091946801
 21
977.1520100942
 31
0.0
  0
LWPOLYLINE
  5
3C9
330
1F
100
AcDbEntity
  8
0
  6
Continuous
 62
     7
370
    25
100
AcDbPolyline
 90
       10
 70
   128
 43
0.0
 10
2636.2091946801
 20
977.1520100942
 10
2635.3627380109
 20
976.4910090329
 10
2634.6183765083
 20
975.5650304002
 10
2634.0658911552
 20
974.4857608852
 10
2633.771919839
 20
973.3833763198
 10
2633.771919839
 20
972.390840552
 10
2634.0658911552
 20
971.6278680436
 10
2634.6183765083
 20
971.1864845395
 10
2635.3627380109
 20
971.1199274044
 10
2636.2091946801
 20
971.436224411
  0
LINE
  5
3CA
330
1F
100
AcDbEntity
  8
0
  6
Continuous
 62
     7
370
    25
100
AcDbLine
 10
2636.2091946801
 20
971.436224411
 30
0.0
 11
2648.9371167415
 21
978.7838974174
 31
0.0
  0
LINE
  5
3CB
330
1F
100
AcDbEntity
  8
0
  6
Continuous
 62
     7
370
    25
100
AcDbLine
 10
1244.9766026956
 20
186.2584432168
 30
0.0
 11
1244.9766026956
 21
159.7208668305
 31
0.0
  0
LINE
  5
3CC
330
1F
100
AcDbEntity
  8
0
  6
Continuous
 62
     7
370
    25
100
AcDbLine
 10
1217.3994382293
 20
208.0404333839
 30
0.0
 11
2631.6130006024
 21
1024.4485452066
 31
0.0
  0
LINE
  5
3CD
330
1F
100
AcDbEntity
  8
0
  6
Continuous
 62
     7
370
    25
100
AcDbLine
 10
1217.3994382293
 20
208.0404333839
 30
0.0
 11
1217.3994382293
 21
214.3990024035
 31
0.0
  0
LINE
  5
3CE
330
1F
100
AcDbEntity
  8
0
  6
Continuous
 62
     7
370
    25
100
AcDbLine
 10
1217.3994382293
 20
214.3990024035
 30
0.0
 11
2631.6130006024
 21
1030.8071142262
 31
0.0
  0
LINE
  5
3CF
330
1F
100
AcDbEntity
  8
0
  6
Continuous
 62
     7
370
    25
100
AcDbLine
 10
2631.6130006024
 20
1030.8071142262
 30
0.0
 11
2631.6130006024
 21
1024.4485452066
 31
0.0
  0
LINE
  5
3D0
330
1F
100
AcDbEntity
  8
0
  6
Continuous
 62
     7
370
    25
100
AcDbLine
 10
1214.9882567244
 20
215.7909478579
 30
0.0
 11
1217.3994382293
 21
214.3990024035
 31
0.0
  0
LINE
  5
3D1
330
1F
100
AcDbEntity
  8
0
  6
Continuous
 62
     7
370
    25
100
AcDbLine
 10
1214.9882567244
 20
215.7909478579
 30
0.0
 11
2629.2018190975
 21
1032.1990596806
 31
0.0
  0
LINE
  5
3D2
330
1F
100
AcDbEntity
  8
0
  6
Continuous
 62
     7
370
    25
100
AcDbLine
 10
2629.2018190975
 20
1032.1990596806
 30
0.0
 11
2631.6130006024
 21
1030.8071142262
 31
0.0
  0
LINE
  5
3D3
330
1F
100
AcDbEntity
  8
0
  6
Continuous
 62
     7
370
    25
100
AcDbLine
 10
1214.0613049309
 20
208.3318522857
 30
0.0
 11
1211.3133920668
 21
207.255567441
 31
0.0
  0
LINE
  5
3D4
330
1F
100
AcDbEntity
  8
0
  6
Continuous
 62
     7
370
    25
100
AcDbLine
 10
1211.0354771986
 20
214.2427485851
 30
0.0
 11
1214.0613049309
 21
208.3318522857
 31
0.0
  0
LINE
  5
3D5
330
1F
100
AcDbEntity
  8
0
  6
Continuous
 62
     7
370
    25
100
AcDbLine
 10
1214.9882567244
 20
215.7909478579
 30
0.0
 11
1211.0354771986
 21
214.2427485851
 31
0.0
  0
LINE
  5
3D6
330
1F
100
AcDbEntity
  8
0
  6
Continuous
 62
     7
370
    25
100
AcDbLine
 10
1217.3994382293
 20
208.0404333839
 30
0.0
 11
1211.9951712833
 21
205.9237248496
 31
0.0
  0
LWPOLYLINE
  5
3D7
330
1F
100
AcDbEntity
  8
0
  6
Continuous
 62
     7
370
    25
100
AcDbPolyline
 90
        3
 70
   128
 43
0.0
 10
1256.2903111946
 20
176.0506214678
 10
1255.4438545253
 20
175.7343244611
 10
1255.1530551014
 20
175.7137042872
  0
LINE
  5
3D8
330
1F
100
AcDbEntity
  8
0
  6
Continuous
 62
     7
370
    25
100
AcDbLine
 10
2625.2490395717
 20
1030.6508604078
 30
0.0
 11
2629.2018190975
 21
1032.1990596806
 31
0.0
  0
LINE
  5
3D9
330
1F
100
AcDbEntity
  8
0
  6
Continuous
 62
     7
370
    25
100
AcDbLine
 10
1211.0354771986
 20
214.2427485851
 30
0.0
 11
2625.2490395717
 21
1030.6508604078
 31
0.0
  0
LINE
  5
3DA
330
1F
100
AcDbEntity
  8
0
  6
Continuous
 62
     7
370
    25
100
AcDbLine
 10
1246.0372628674
 20
157.067208717
 30
0.0
 11
1244.2694959144
 21
158.0877188567
 31
0.0
  0
LINE
  5
3DB
330
1F
100
AcDbEntity
  8
0
  6
Continuous
 62
     7
370
    25
100
AcDbLine
 10
1244.9766026956
 20
158.9043260187
 30
0.0
 11
1244.2694959144
 21
159.3125300746
 31
0.0
  0
LINE
  5
3DC
330
1F
100
AcDbEntity
  8
0
  6
Continuous
 62
     7
370
    25
100
AcDbLine
 10
1244.9766026956
 20
159.7208668305
 30
0.0
 11
1244.9766026956
 21
158.9043260187
 31
0.0
  0
LINE
  5
3DD
330
1F
100
AcDbEntity
  8
0
  6
Continuous
 62
     7
370
    25
100
AcDbLine
 10
1212.449690761
 20
177.6817125906
 30
0.0
 11
1211.7425839798
 21
178.0899166465
 31
0.0
  0
LINE
  5
3DE
330
1F
100
AcDbEntity
  8
0
  6
Continuous
 62
     7
370
    25
100
AcDbLine
 10
1211.7425839798
 20
178.0899166465
 30
0.0
 11
1239.9678336988
 21
194.3840064798
 31
0.0
  0
LINE
  5
3DF
330
1F
100
AcDbEntity
  8
0
  6
Continuous
 62
     7
370
    25
100
AcDbLine
 10
2649.4398554972
 20
980.941171746
 30
0.0
 11
2646.1063909352
 21
982.8655398764
 31
0.0
  0
LINE
  5
3E0
330
1F
100
AcDbEntity
  8
0
  6
Continuous
 62
     7
370
    25
100
AcDbLine
 10
1244.2694959144
 20
159.3125300746
 30
0.0
 11
1212.449690761
 21
177.6817125906
 31
0.0
  0
LINE
  5
3E1
330
1F
100
AcDbEntity
  8
0
  6
Continuous
 62
     7
370
    25
100
AcDbLine
 10
1242.8512596444
 20
189.9255120082
 30
0.0
 11
1225.8847196036
 21
180.1309369261
 31
0.0
  0
LWPOLYLINE
  5
3E2
330
1F
100
AcDbEntity
  8
0
  6
Continuous
 62
     7
370
    25
100
AcDbPolyline
 90
       10
 70
   128
 43
0.0
 10
1225.8847196036
 20
180.1309369261
 10
1225.1875160831
 20
179.5561258833
 10
1224.8729118944
 20
178.878321518
 10
1224.9788529457
 20
178.17927704
 10
1225.4925611827
 20
177.5433075301
 10
1226.3520758105
 20
177.0471202971
 10
1227.4537266799
 20
176.7505628443
 10
1228.6646384373
 20
176.6894043772
 10
1229.8387572538
 20
176.8710215095
 10
1230.8344670719
 20
177.2735085347
  0
LINE
  5
3E3
330
1F
100
AcDbEntity
  8
0
  6
Continuous
 62
     7
370
    25
100
AcDbLine
 10
1230.8344670719
 20
177.2735085347
 30
0.0
 11
1244.9766026956
 21
185.4375896529
 31
0.0
  0
LINE
  5
3E4
330
1F
100
AcDbEntity
  8
0
  6
Continuous
 62
     7
370
    25
100
AcDbLine
 10
2463.32158668
 20
874.0778319754
 30
0.0
 11
2456.983275731
 21
870.4188029491
 31
0.0
  0
ARC
  5
3E5
330
1F
100
AcDbEntity
  8
0
  6
Continuous
 62
     7
370
    25
100
AcDbCircle
 10
2465.7770461147
 20
869.3371586496
 30
0.0
 40
5.338844876615913
100
AcDbArc
 50
83.1834142239
 51
117.3821616977
  0
LINE
  5
3E6
330
1F
100
AcDbEntity
  8
0
  6
Continuous
 62
     7
370
    25
100
AcDbLine
 10
2498.6769257394
 20
894.4880347709
 30
0.0
 11
2492.3386147903
 21
890.8290057447
 31
0.0
  0
ARC
  5
3E7
330
1F
100
AcDbEntity
  8
0
  6
Continuous
 62
     7
370
    25
100
AcDbCircle
 10
2501.1323851741
 20
889.7473614452
 30
0.0
 40
5.338844876616427
100
AcDbArc
 50
83.1834142239
 51
117.3821616977
  0
LINE
  5
3E8
330
1F
100
AcDbEntity
  8
0
  6
Continuous
 62
     7
370
    25
100
AcDbLine
 10
2392.6109085614
 20
833.2574263842
 30
0.0
 11
2386.2725976123
 21
829.598397358
 31
0.0
  0
ARC
  5
3E9
330
1F
100
AcDbEntity
  8
0
  6
Continuous
 62
     7
370
    25
100
AcDbCircle
 10
2395.0663679961
 20
828.5167530585
 30
0.0
 40
5.338844876625026
100
AcDbArc
 50
83.183414224
 51
117.3821616976
  0
LINE
  5
3EA
330
1F
100
AcDbEntity
  8
0
  6
Continuous
 62
     7
370
    25
100
AcDbLine
 10
2427.9662476207
 20
853.6676291798
 30
0.0
 11
2421.6279366717
 21
850.0086001535
 31
0.0
  0
ARC
  5
3EB
330
1F
100
AcDbEntity
  8
0
  6
Continuous
 62
     7
370
    25
100
AcDbCircle
 10
2430.4217070554
 20
848.9269558541
 30
0.0
 40
5.338844876623096
100
AcDbArc
 50
83.1834142239
 51
117.3821616977
  0
LINE
  5
3EC
330
1F
100
AcDbEntity
  8
0
  6
Continuous
 62
     7
370
    25
100
AcDbLine
 10
2604.7429429173
 20
955.7186431576
 30
0.0
 11
2598.4046319683
 21
952.0596141314
 31
0.0
  0
ARC
  5
3ED
330
1F
100
AcDbEntity
  8
0
  6
Continuous
 62
     7
370
    25
100
AcDbCircle
 10
2607.198402352
 20
950.9779698319
 30
0.0
 40
5.338844876600439
100
AcDbArc
 50
83.1834142238
 51
117.3821616977
  0
LINE
  5
3EE
330
1F
100
AcDbEntity
  8
0
  6
Continuous
 62
     7
370
    25
100
AcDbLine
 10
2640.0982819767
 20
976.1288459532
 30
0.0
 11
2633.7599710276
 21
972.4698169269
 31
0.0
  0
ARC
  5
3EF
330
1F
100
AcDbEntity
  8
0
  6
Continuous
 62
     7
370
    25
100
AcDbCircle
 10
2642.5537414114
 20
971.3881726275
 30
0.0
 40
5.338844876602155
100
AcDbArc
 50
83.1834142238
 51
117.3821616977
  0
LINE
  5
3F0
330
1F
100
AcDbEntity
  8
0
  6
Continuous
 62
     7
370
    25
100
AcDbLine
 10
2534.0322647987
 20
914.8982375665
 30
0.0
 11
2527.6939538496
 21
911.2392085402
 31
0.0
  0
ARC
  5
3F1
330
1F
100
AcDbEntity
  8
0
  6
Continuous
 62
     7
370
    25
100
AcDbCircle
 10
2536.4877242334
 20
910.1575642408
 30
0.0
 40
5.338844876610246
100
AcDbArc
 50
83.1834142239
 51
117.3821616977
  0
LINE
  5
3F2
330
1F
100
AcDbEntity
  8
0
  6
Continuous
 62
     7
370
    25
100
AcDbLine
 10
2569.387603858
 20
935.3084403621
 30
0.0
 11
2563.049292909
 21
931.6494113358
 31
0.0
  0
ARC
  5
3F3
330
1F
100
AcDbEntity
  8
0
  6
Continuous
 62
     7
370
    25
100
AcDbCircle
 10
2571.8430632927
 20
930.5677670364
 30
0.0
 40
5.338844876605124
100
AcDbArc
 50
83.1834142239
 51
117.3821616977
  0
LINE
  5
3F4
330
1F
100
AcDbEntity
  8
0
  6
Continuous
 62
     7
370
    25
100
AcDbLine
 10
1614.7934492562
 20
384.2329648817
 30
0.0
 11
1608.4551383071
 21
380.5739358555
 31
0.0
  0
ARC
  5
3F5
330
1F
100
AcDbEntity
  8
0
  6
Continuous
 62
     7
370
    25
100
AcDbCircle
 10
1617.2489086909
 20
379.4922915559
 30
0.0
 40
5.338844876706033
100
AcDbArc
 50
83.1834142244
 51
117.3821616973
  0
LINE
  5
3F6
330
1F
100
AcDbEntity
  8
0
  6
Continuous
 62
     7
370
    25
100
AcDbLine
 10
1650.1487883155
 20
404.6431676773
 30
0.0
 11
1643.8104773665
 21
400.984138651
 31
0.0
  0
ARC
  5
3F7
330
1F
100
AcDbEntity
  8
0
  6
Continuous
 62
     7
370
    25
100
AcDbCircle
 10
1652.6042477502
 20
399.9024943515
 30
0.0
 40
5.338844876702871
100
AcDbArc
 50
83.1834142243
 51
117.3821616973
  0
LINE
  5
3F8
330
1F
100
AcDbEntity
  8
0
  6
Continuous
 62
     7
370
    25
100
AcDbLine
 10
1544.0827711375
 20
343.4125592906
 30
0.0
 11
1537.7444601885
 21
339.7535302643
 31
0.0
  0
ARC
  5
3F9
330
1F
100
AcDbEntity
  8
0
  6
Continuous
 62
     7
370
    25
100
AcDbCircle
 10
1546.5382305722
 20
338.6718859648
 30
0.0
 40
5.338844876716376
100
AcDbArc
 50
83.1834142244
 51
117.3821616973
  0
LINE
  5
3FA
330
1F
100
AcDbEntity
  8
0
  6
Continuous
 62
     7
370
    25
100
AcDbLine
 10
1579.4381101968
 20
363.8227620862
 30
0.0
 11
1573.0997992478
 21
360.1637330599
 31
0.0
  0
ARC
  5
3FB
330
1F
100
AcDbEntity
  8
0
  6
Continuous
 62
     7
370
    25
100
AcDbCircle
 10
1581.8935696316
 20
359.0820887604
 30
0.0
 40
5.338844876709397
100
AcDbArc
 50
83.1834142244
 51
117.3821616973
  0
LINE
  5
3FC
330
1F
100
AcDbEntity
  8
0
  6
Continuous
 62
     7
370
    25
100
AcDbLine
 10
1756.2148054935
 20
465.873776064
 30
0.0
 11
1749.8764945444
 21
462.2147470377
 31
0.0
  0
ARC
  5
3FD
330
1F
100
AcDbEntity
  8
0
  6
Continuous
 62
     7
370
    25
100
AcDbCircle
 10
1758.6702649282
 20
461.1331027382
 30
0.0
 40
5.338844876691947
100
AcDbArc
 50
83.1834142243
 51
117.3821616974
  0
LINE
  5
3FE
330
1F
100
AcDbEntity
  8
0
  6
Continuous
 62
     7
370
    25
100
AcDbLine
 10
1791.5701445528
 20
486.2839788596
 30
0.0
 11
1785.2318336038
 21
482.6249498333
 31
0.0
  0
ARC
  5
3FF
330
1F
100
AcDbEntity
  8
0
  6
Continuous
 62
     7
370
    25
100
AcDbCircle
 10
1794.0256039875
 20
481.5433055338
 30
0.0
 40
5.338844876687189
100
AcDbArc
 50
83.1834142243
 51
117.3821616974
  0
LINE
  5
400
330
1F
100
AcDbEntity
  8
0
  6
Continuous
 62
     7
370
    25
100
AcDbLine
 10
1685.5041273748
 20
425.0533704729
 30
0.0
 11
1679.1658164258
 21
421.3943414466
 31
0.0
  0
ARC
  5
401
330
1F
100
AcDbEntity
  8
0
  6
Continuous
 62
     7
370
    25
100
AcDbCircle
 10
1687.9595868096
 20
420.3126971471
 30
0.0
 40
5.338844876699613
100
AcDbArc
 50
83.1834142243
 51
117.3821616974
  0
LINE
  5
402
330
1F
100
AcDbEntity
  8
0
  6
Continuous
 62
     7
370
    25
100
AcDbLine
 10
1720.8594664342
 20
445.4635732684
 30
0.0
 11
1714.5211554851
 21
441.8045442422
 31
0.0
  0
ARC
  5
403
330
1F
100
AcDbEntity
  8
0
  6
Continuous
 62
     7
370
    25
100
AcDbCircle
 10
1723.3149258689
 20
440.7228999426
 30
0.0
 40
5.338844876693819
100
AcDbArc
 50
83.1834142243
 51
117.3821616974
  0
LINE
  5
404
330
1F
100
AcDbEntity
  8
0
  6
Continuous
 62
     7
370
    25
100
AcDbLine
 10
1331.9507367816
 20
220.9513425172
 30
0.0
 11
1325.6124258325
 21
217.2923134909
 31
0.0
  0
ARC
  5
405
330
1F
100
AcDbEntity
  8
0
  6
Continuous
 62
     7
370
    25
100
AcDbCircle
 10
1334.4061962163
 20
216.2106691914
 30
0.0
 40
5.338844876736236
100
AcDbArc
 50
83.1834142245
 51
117.3821616972
  0
LINE
  5
406
330
1F
100
AcDbEntity
  8
0
  6
Continuous
 62
     7
370
    25
100
AcDbLine
 10
1367.3060758409
 20
241.3615453128
 30
0.0
 11
1360.9677648918
 21
237.7025162865
 31
0.0
  0
ARC
  5
407
330
1F
100
AcDbEntity
  8
0
  6
Continuous
 62
     7
370
    25
100
AcDbCircle
 10
1369.7615352756
 20
236.6208719869
 30
0.0
 40
5.338844876731649
100
AcDbArc
 50
83.1834142245
 51
117.3821616972
  0
LINE
  5
408
330
1F
100
AcDbEntity
  8
0
  6
Continuous
 62
     7
370
    25
100
AcDbLine
 10
1261.2400586629
 20
180.130936926
 30
0.0
 11
1254.9017477139
 21
176.4719078998
 31
0.0
  0
LINE
  5
409
330
1F
100
AcDbEntity
  8
0
  6
Continuous
 62
     7
370
    25
100
AcDbLine
 10
1244.9766026956
 20
170.7422436401
 30
0.0
 11
1243.5623891332
 21
169.9258355283
 31
0.0
  0
LWPOLYLINE
  5
40A
330
1F
100
AcDbEntity
  8
0
  6
Continuous
 62
     7
370
    25
100
AcDbPolyline
 90
        7
 70
   128
 43
0.0
 10
1243.5623891332
 20
169.9258355283
 10
1242.8651856128
 20
169.3510244855
 10
1242.5505814241
 20
168.6732201202
 10
1242.6565224754
 20
167.9741756422
 10
1243.1702307124
 20
167.3382061323
 10
1244.0297453402
 20
166.8420188993
 10
1244.9766026956
 20
166.5716266518
  0
ARC
  5
40B
330
1F
100
AcDbEntity
  8
0
  6
Continuous
 62
     7
370
    25
100
AcDbCircle
 10
1263.6955180976
 20
175.3902636002
 30
0.0
 40
5.338844876747764
100
AcDbArc
 50
83.1834142246
 51
117.3821616972
  0
LINE
  5
40C
330
1F
100
AcDbEntity
  8
0
  6
Continuous
 62
     7
370
    25
100
AcDbLine
 10
1296.5953977222
 20
200.5411397216
 30
0.0
 11
1290.2570867732
 21
196.8821106954
 31
0.0
  0
ARC
  5
40D
330
1F
100
AcDbEntity
  8
0
  6
Continuous
 62
     7
370
    25
100
AcDbCircle
 10
1299.050857157
 20
195.8004663958
 30
0.0
 40
5.338844876738747
100
AcDbArc
 50
83.1834142245
 51
117.3821616972
  0
LINE
  5
40E
330
1F
100
AcDbEntity
  8
0
  6
Continuous
 62
     7
370
    25
100
AcDbLine
 10
1473.3720930189
 20
302.5921536995
 30
0.0
 11
1467.0337820698
 21
298.9331246732
 31
0.0
  0
ARC
  5
40F
330
1F
100
AcDbEntity
  8
0
  6
Continuous
 62
     7
370
    25
100
AcDbCircle
 10
1475.8275524536
 20
297.8514803736
 30
0.0
 40
5.338844876720087
100
AcDbArc
 50
83.1834142244
 51
117.3821616973
  0
LINE
  5
410
330
1F
100
AcDbEntity
  8
0
  6
Continuous
 62
     7
370
    25
100
AcDbLine
 10
1508.7274320782
 20
323.002356495
 30
0.0
 11
1502.3891211291
 21
319.3433274688
 31
0.0
  0
ARC
  5
411
330
1F
100
AcDbEntity
  8
0
  6
Continuous
 62
     7
370
    25
100
AcDbCircle
 10
1511.1828915129
 20
318.2616831692
 30
0.0
 40
5.338844876716886
100
AcDbArc
 50
83.1834142244
 51
117.3821616973
  0
LINE
  5
412
330
1F
100
AcDbEntity
  8
0
  6
Continuous
 62
     7
370
    25
100
AcDbLine
 10
1402.6614149002
 20
261.7717481083
 30
0.0
 11
1396.3231039512
 21
258.1127190821
 31
0.0
  0
ARC
  5
413
330
1F
100
AcDbEntity
  8
0
  6
Continuous
 62
     7
370
    25
100
AcDbCircle
 10
1405.1168743349
 20
257.0310747825
 30
0.0
 40
5.33884487672817
100
AcDbArc
 50
83.1834142245
 51
117.3821616972
  0
LINE
  5
414
330
1F
100
AcDbEntity
  8
0
  6
Continuous
 62
     7
370
    25
100
AcDbLine
 10
1438.0167539595
 20
282.1819509039
 30
0.0
 11
1431.6784430105
 21
278.5229218776
 31
0.0
  0
ARC
  5
415
330
1F
100
AcDbEntity
  8
0
  6
Continuous
 62
     7
370
    25
100
AcDbCircle
 10
1440.4722133943
 20
277.4412775781
 30
0.0
 40
5.338844876724519
100
AcDbArc
 50
83.1834142245
 51
117.3821616973
  0
LINE
  5
416
330
1F
100
AcDbEntity
  8
0
  6
Continuous
 62
     7
370
    25
100
AcDbLine
 10
2180.4788742054
 20
710.7962096108
 30
0.0
 11
2174.1405632564
 21
707.1371805845
 31
0.0
  0
ARC
  5
417
330
1F
100
AcDbEntity
  8
0
  6
Continuous
 62
     7
370
    25
100
AcDbCircle
 10
2182.9343336401
 20
706.0555362851
 30
0.0
 40
5.338844876646288
100
AcDbArc
 50
83.1834142241
 51
117.3821616976
  0
LINE
  5
418
330
1F
100
AcDbEntity
  8
0
  6
Continuous
 62
     7
370
    25
100
AcDbLine
 10
2215.8342132647
 20
731.2064124064
 30
0.0
 11
2209.4959023157
 21
727.5473833801
 31
0.0
  0
ARC
  5
419
330
1F
100
AcDbEntity
  8
0
  6
Continuous
 62
     7
370
    25
100
AcDbCircle
 10
2218.2896726995
 20
726.4657390806
 30
0.0
 40
5.338844876642428
100
AcDbArc
 50
83.1834142241
 51
117.3821616976
  0
LINE
  5
41A
330
1F
100
AcDbEntity
  8
0
  6
Continuous
 62
     7
370
    25
100
AcDbLine
 10
2109.7681960868
 20
669.9758040197
 30
0.0
 11
2103.4298851377
 21
666.3167749934
 31
0.0
  0
ARC
  5
41B
330
1F
100
AcDbEntity
  8
0
  6
Continuous
 62
     7
370
    25
100
AcDbCircle
 10
2112.2236555215
 20
665.2351306939
 30
0.0
 40
5.338844876651441
100
AcDbArc
 50
83.1834142241
 51
117.3821616975
  0
LINE
  5
41C
330
1F
100
AcDbEntity
  8
0
  6
Continuous
 62
     7
370
    25
100
AcDbLine
 10
2145.1235351461
 20
690.3860068152
 30
0.0
 11
2138.785224197
 21
686.726977789
 31
0.0
  0
ARC
  5
41D
330
1F
100
AcDbEntity
  8
0
  6
Continuous
 62
     7
370
    25
100
AcDbCircle
 10
2147.5789945808
 20
685.6453334895
 30
0.0
 40
5.338844876651039
100
AcDbArc
 50
83.1834142241
 51
117.3821616975
  0
LINE
  5
41E
330
1F
100
AcDbEntity
  8
0
  6
Continuous
 62
     7
370
    25
100
AcDbLine
 10
2321.9002304427
 20
792.4370207931
 30
0.0
 11
2315.5619194937
 21
788.7779917668
 31
0.0
  0
ARC
  5
41F
330
1F
100
AcDbEntity
  8
0
  6
Continuous
 62
     7
370
    25
100
AcDbCircle
 10
2324.3556898774
 20
787.6963474674
 30
0.0
 40
5.338844876634935
100
AcDbArc
 50
83.183414224
 51
117.3821616976
  0
LINE
  5
420
330
1F
100
AcDbEntity
  8
0
  6
Continuous
 62
     7
370
    25
100
AcDbLine
 10
2357.255569502
 20
812.8472235886
 30
0.0
 11
2350.917258553
 21
809.1881945624
 31
0.0
  0
ARC
  5
421
330
1F
100
AcDbEntity
  8
0
  6
Continuous
 62
     7
370
    25
100
AcDbCircle
 10
2359.7110289368
 20
808.1065502629
 30
0.0
 40
5.338844876626037
100
AcDbArc
 50
83.183414224
 51
117.3821616976
  0
LINE
  5
422
330
1F
100
AcDbEntity
  8
0
  6
Continuous
 62
     7
370
    25
100
AcDbLine
 10
2251.1895523241
 20
751.6166152019
 30
0.0
 11
2244.851241375
 21
747.9575861757
 31
0.0
  0
ARC
  5
423
330
1F
100
AcDbEntity
  8
0
  6
Continuous
 62
     7
370
    25
100
AcDbCircle
 10
2253.6450117588
 20
746.8759418762
 30
0.0
 40
5.338844876637467
100
AcDbArc
 50
83.183414224
 51
117.3821616976
  0
LINE
  5
424
330
1F
100
AcDbEntity
  8
0
  6
Continuous
 62
     7
370
    25
100
AcDbLine
 10
2286.5448913834
 20
772.0268179975
 30
0.0
 11
2280.2065804343
 21
768.3677889713
 31
0.0
  0
ARC
  5
425
330
1F
100
AcDbEntity
  8
0
  6
Continuous
 62
     7
370
    25
100
AcDbCircle
 10
2289.0003508181
 20
767.2861446718
 30
0.0
 40
5.33884487664029
100
AcDbArc
 50
83.183414224
 51
117.3821616976
  0
LINE
  5
426
330
1F
100
AcDbEntity
  8
0
  6
Continuous
 62
     7
370
    25
100
AcDbLine
 10
1897.6361617308
 20
547.5145872463
 30
0.0
 11
1891.2978507817
 21
543.85555822
 31
0.0
  0
ARC
  5
427
330
1F
100
AcDbEntity
  8
0
  6
Continuous
 62
     7
370
    25
100
AcDbCircle
 10
1900.0916211655
 20
542.7739139205
 30
0.0
 40
5.338844876674707
100
AcDbArc
 50
83.1834142242
 51
117.3821616975
  0
LINE
  5
428
330
1F
100
AcDbEntity
  8
0
  6
Continuous
 62
     7
370
    25
100
AcDbLine
 10
1932.9915007901
 20
567.9247900418
 30
0.0
 11
1926.6531898411
 21
564.2657610156
 31
0.0
  0
ARC
  5
429
330
1F
100
AcDbEntity
  8
0
  6
Continuous
 62
     7
370
    25
100
AcDbCircle
 10
1935.4469602248
 20
563.1841167161
 30
0.0
 40
5.338844876672413
100
AcDbArc
 50
83.1834142242
 51
117.3821616975
  0
LINE
  5
42A
330
1F
100
AcDbEntity
  8
0
  6
Continuous
 62
     7
370
    25
100
AcDbLine
 10
1826.9254836121
 20
506.6941816551
 30
0.0
 11
1820.5871726631
 21
503.0351526289
 31
0.0
  0
ARC
  5
42B
330
1F
100
AcDbEntity
  8
0
  6
Continuous
 62
     7
370
    25
100
AcDbCircle
 10
1829.3809430469
 20
501.9535083294
 30
0.0
 40
5.338844876685173
100
AcDbArc
 50
83.1834142243
 51
117.3821616974
  0
LINE
  5
42C
330
1F
100
AcDbEntity
  8
0
  6
Continuous
 62
     7
370
    25
100
AcDbLine
 10
1862.2808226715
 20
527.1043844507
 30
0.0
 11
1855.9425117224
 21
523.4453554244
 31
0.0
  0
ARC
  5
42D
330
1F
100
AcDbEntity
  8
0
  6
Continuous
 62
     7
370
    25
100
AcDbCircle
 10
1864.7362821062
 20
522.3637111249
 30
0.0
 40
5.338844876681604
100
AcDbArc
 50
83.1834142242
 51
117.3821616974
  0
LINE
  5
42E
330
1F
100
AcDbEntity
  8
0
  6
Continuous
 62
     7
370
    25
100
AcDbLine
 10
2039.0575179681
 20
629.1553984285
 30
0.0
 11
2032.7192070191
 21
625.4963694023
 31
0.0
  0
ARC
  5
42F
330
1F
100
AcDbEntity
  8
0
  6
Continuous
 62
     7
370
    25
100
AcDbCircle
 10
2041.5129774028
 20
624.4147251028
 30
0.0
 40
5.338844876660653
100
AcDbArc
 50
83.1834142241
 51
117.3821616975
  0
LINE
  5
430
330
1F
100
AcDbEntity
  8
0
  6
Continuous
 62
     7
370
    25
100
AcDbLine
 10
2074.4128570274
 20
649.5656012241
 30
0.0
 11
2068.0745460784
 21
645.9065721978
 31
0.0
  0
ARC
  5
431
330
1F
100
AcDbEntity
  8
0
  6
Continuous
 62
     7
370
    25
100
AcDbCircle
 10
2076.8683164621
 20
644.8249278984
 30
0.0
 40
5.338844876657909
100
AcDbArc
 50
83.1834142241
 51
117.3821616975
  0
LINE
  5
432
330
1F
100
AcDbEntity
  8
0
  6
Continuous
 62
     7
370
    25
100
AcDbLine
 10
1968.3468398494
 20
588.3349928374
 30
0.0
 11
1962.0085289004
 21
584.6759638111
 31
0.0
  0
ARC
  5
433
330
1F
100
AcDbEntity
  8
0
  6
Continuous
 62
     7
370
    25
100
AcDbCircle
 10
1970.8022992842
 20
583.5943195116
 30
0.0
 40
5.338844876671162
100
AcDbArc
 50
83.1834142242
 51
117.3821616975
  0
LINE
  5
434
330
1F
100
AcDbEntity
  8
0
  6
Continuous
 62
     7
370
    25
100
AcDbLine
 10
2003.7021789088
 20
608.745195633
 30
0.0
 11
1997.3638679597
 21
605.0861666067
 31
0.0
  0
ARC
  5
435
330
1F
100
AcDbEntity
  8
0
  6
Continuous
 62
     7
370
    25
100
AcDbCircle
 10
2006.1576383435
 20
604.0045223072
 30
0.0
 40
5.338844876663364
100
AcDbArc
 50
83.1834142242
 51
117.3821616975
  0
LINE
  5
436
330
1F
100
AcDbEntity
  8
0
  6
Continuous
 62
     7
370
    25
100
AcDbLine
 10
1243.2088357426
 20
172.9873659476
 30
0.0
 11
1244.9766026956
 21
174.0078760874
 31
0.0
  0
LINE
  5
437
330
1F
100
AcDbEntity
  8
0
  6
Continuous
 62
     7
370
    25
100
AcDbLine
 10
1244.9766026956
 20
176.8653044788
 30
0.0
 11
1241.0875153991
 21
179.1104267863
 31
0.0
  0
ARC
  5
438
330
1F
100
AcDbEntity
  8
0
  6
Continuous
 62
     7
370
    25
100
AcDbCircle
 10
1240.3804086179
 20
177.7457157013
 30
0.0
 40
1.537021907910713
100
AcDbArc
 50
62.6096722366
 51
117.3903277634
  0
LINE
  5
439
330
1F
100
AcDbEntity
  8
0
  6
Continuous
 62
     7
370
    25
100
AcDbLine
 10
1239.6733018367
 20
179.1104267863
 30
0.0
 11
1236.1377679308
 21
177.0694065067
 31
0.0
  0
ARC
  5
43A
330
1F
100
AcDbEntity
  8
0
  6
Continuous
 62
     7
370
    25
100
AcDbCircle
 10
1236.2926949576
 20
176.6612024508
 30
0.0
 40
0.4366153168341788
100
AcDbArc
 50
110.7834207995
 51
249.2165792005
  0
LINE
  5
43B
330
1F
100
AcDbEntity
  8
0
  6
Continuous
 62
     7
370
    25
100
AcDbLine
 10
1236.1377679308
 20
176.2529983949
 30
0.0
 11
1241.7946221803
 21
172.9873659476
 31
0.0
  0
ARC
  5
43C
330
1F
100
AcDbEntity
  8
0
  6
Continuous
 62
     7
370
    25
100
AcDbCircle
 10
1242.5017289614
 20
174.3520770326
 30
0.0
 40
1.537021907915
100
AcDbArc
 50
242.6096722366
 51
297.3903277633
  0
ARC
  5
43D
330
1F
100
AcDbEntity
  8
0
  6
Continuous
 62
     7
370
    25
100
AcDbCircle
 10
2608.3956893305
 20
966.5353867615
 30
0.0
 40
5.071095785898068
100
AcDbArc
 50
278.2786085554
 51
321.7160149119
  0
ARC
  5
43E
330
1F
100
AcDbEntity
  8
0
  6
Continuous
 62
     7
370
    25
100
AcDbCircle
 10
2502.3296721525
 20
905.3047783748
 30
0.0
 40
5.071095785896715
100
AcDbArc
 50
278.2786085554
 51
321.7160149119
  0
ARC
  5
43F
330
1F
100
AcDbEntity
  8
0
  6
Continuous
 62
     7
370
    25
100
AcDbCircle
 10
2396.2636549745
 20
844.0741699881
 30
0.0
 40
5.071095785898312
100
AcDbArc
 50
278.2786085554
 51
321.7160149119
  0
ARC
  5
440
330
1F
100
AcDbEntity
  8
0
  6
Continuous
 62
     7
370
    25
100
AcDbCircle
 10
2290.1976377965
 20
782.8435616014
 30
0.0
 40
5.071095785897994
100
AcDbArc
 50
278.2786085554
 51
321.7160149119
  0
ARC
  5
441
330
1F
100
AcDbEntity
  8
0
  6
Continuous
 62
     7
370
    25
100
AcDbCircle
 10
2184.1316206186
 20
721.6129532147
 30
0.0
 40
5.071095785901181
100
AcDbArc
 50
278.2786085555
 51
321.7160149118
  0
ARC
  5
442
330
1F
100
AcDbEntity
  8
0
  6
Continuous
 62
     7
370
    25
100
AcDbCircle
 10
2078.0656034406
 20
660.3823448279
 30
0.0
 40
5.071095785900867
100
AcDbArc
 50
278.2786085555
 51
321.7160149118
  0
ARC
  5
443
330
1F
100
AcDbEntity
  8
0
  6
Continuous
 62
     7
370
    25
100
AcDbCircle
 10
1971.9995862626
 20
599.1517364412
 30
0.0
 40
5.071095785898194
100
AcDbArc
 50
278.2786085555
 51
321.7160149118
  0
ARC
  5
444
330
1F
100
AcDbEntity
  8
0
  6
Continuous
 62
     7
370
    25
100
AcDbCircle
 10
1865.9335690846
 20
537.9211280545
 30
0.0
 40
5.071095785898311
100
AcDbArc
 50
278.2786085555
 51
321.7160149118
  0
ARC
  5
445
330
1F
100
AcDbEntity
  8
0
  6
Continuous
 62
     7
370
    25
100
AcDbCircle
 10
1759.8675519066
 20
476.6905196678
 30
0.0
 40
5.071095785900003
100
AcDbArc
 50
278.2786085555
 51
321.7160149118
  0
ARC
  5
446
330
1F
100
AcDbEntity
  8
0
  6
Continuous
 62
     7
370
    25
100
AcDbCircle
 10
1653.8015347286
 20
415.4599112811
 30
0.0
 40
5.071095785900818
100
AcDbArc
 50
278.2786085555
 51
321.7160149118
  0
ARC
  5
447
330
1F
100
AcDbEntity
  8
0
  6
Continuous
 62
     7
370
    25
100
AcDbCircle
 10
1547.7355175507
 20
354.2293028944
 30
0.0
 40
5.071095785898198
100
AcDbArc
 50
278.2786085555
 51
321.7160149118
  0
ARC
  5
448
330
1F
100
AcDbEntity
  8
0
  6
Continuous
 62
     7
370
    25
100
AcDbCircle
 10
1441.6695003727
 20
292.9986945077
 30
0.0
 40
5.071095785899407
100
AcDbArc
 50
278.2786085555
 51
321.7160149118
  0
ARC
  5
449
330
1F
100
AcDbEntity
  8
0
  6
Continuous
 62
     7
370
    25
100
AcDbCircle
 10
1335.6034831947
 20
231.768086121
 30
0.0
 40
5.071095785901146
100
AcDbArc
 50
278.2786085555
 51
321.7160149117
  0
LINE
  5
44A
330
1F
100
AcDbEntity
  8
0
  6
Continuous
 62
     7
370
    25
100
AcDbLine
 10
1244.2694959144
 20
158.0877188567
 30
0.0
 11
1212.449690761
 21
176.4569013728
 31
0.0
  0
LINE
  5
44B
330
1F
100
AcDbEntity
  8
0
  6
Continuous
 62
     7
370
    25
100
AcDbLine
 10
1269.0182332559
 20
183.3982944742
 30
0.0
 11
1256.2903111946
 21
176.0506214678
 31
0.0
  0
LINE
  5
44C
330
1F
100
AcDbEntity
  8
0
  6
Continuous
 62
     7
370
    25
100
AcDbLine
 10
1210.6819238081
 20
207.008238013
 30
0.0
 11
1211.3133920668
 21
207.255567441
 31
0.0
  0
LINE
  5
44D
330
1F
100
AcDbEntity
  8
0
  6
Continuous
 62
     7
370
    25
100
AcDbLine
 10
1210.6819238081
 20
207.008238013
 30
0.0
 11
1213.8134509974
 21
208.8160301794
 31
0.0
  0
LINE
  5
44E
330
1F
100
AcDbEntity
  8
0
  6
Continuous
 62
     7
370
    25
100
AcDbLine
 10
1211.7425839798
 20
205.4440338447
 30
0.0
 11
1211.7425839798
 21
205.8247930784
 31
0.0
  0
LINE
  5
44F
330
1F
100
AcDbEntity
  8
0
  6
Continuous
 62
     7
370
    25
100
AcDbLine
 10
1210.6819238081
 20
206.0563399285
 30
0.0
 11
1210.6819238081
 21
207.008238013
 31
0.0
  0
LINE
  5
450
330
1F
100
AcDbEntity
  8
0
  6
Continuous
 62
     7
370
    25
100
AcDbLine
 10
1211.7425839798
 20
205.8247930784
 30
0.0
 11
1211.9951712833
 21
205.9237248496
 31
0.0
  0
ARC
  5
451
330
1F
100
AcDbEntity
  8
0
  6
Continuous
 62
     7
370
    25
100
AcDbCircle
 10
1266.8449837674
 20
187.4404623167
 30
0.0
 40
4.589350085407971
100
AcDbArc
 50
298.2644546681
 51
17.7382019347
  0
LINE
  5
452
330
1F
100
AcDbEntity
  8
0
  6
Continuous
 62
     7
370
    25
100
AcDbLine
 10
2625.9561463529
 20
1002.2328303124
 30
0.0
 11
2625.9561463529
 21
1021.1829127593
 31
0.0
  0
LINE
  5
453
330
1F
100
AcDbEntity
  8
0
  6
Continuous
 62
     7
370
    25
100
AcDbLine
 10
1211.7425839798
 20
178.0899166465
 30
0.0
 11
1211.7425839798
 21
178.9064574584
 31
0.0
  0
LINE
  5
454
330
1F
100
AcDbEntity
  8
0
  6
Continuous
 62
     7
370
    25
100
AcDbLine
 10
1211.7425839798
 20
178.9064574584
 30
0.0
 11
1211.7425839798
 21
205.4440338447
 31
0.0
  0
LINE
  5
455
330
1F
100
AcDbEntity
  8
0
  6
Continuous
 62
     7
370
    25
100
AcDbLine
 10
1258.4116315381
 20
215.6464148912
 30
0.0
 11
1271.1395535995
 21
222.9940878976
 31
0.0
  0
LWPOLYLINE
  5
456
330
1F
100
AcDbEntity
  8
0
  6
Continuous
 62
     7
370
    25
100
AcDbPolyline
 90
       10
 70
   128
 43
0.0
 10
1271.1395535995
 20
222.9940878976
 10
1271.9860102688
 20
223.6550889589
 10
1272.7303717714
 20
224.5810675916
 10
1273.2828571244
 20
225.6603371066
 10
1273.5768284406
 20
226.762721672
 10
1273.5768284406
 20
227.7552574398
 10
1273.2828571244
 20
228.5182299482
 10
1272.7303717714
 20
228.9596134523
 10
1271.9860102688
 20
229.0261705874
 10
1271.1395535995
 20
228.7098735808
  0
LINE
  5
457
330
1F
100
AcDbEntity
  8
0
  6
Continuous
 62
     7
370
    25
100
AcDbLine
 10
1271.1395535995
 20
228.7098735808
 30
0.0
 11
1258.4116315381
 21
221.3622005744
 31
0.0
  0
LWPOLYLINE
  5
458
330
1F
100
AcDbEntity
  8
0
  6
Continuous
 62
     7
370
    25
100
AcDbPolyline
 90
       10
 70
   128
 43
0.0
 10
1258.4116315381
 20
221.3622005744
 10
1257.5651748689
 20
220.701199513
 10
1256.8208133663
 20
219.7752208803
 10
1256.2683280132
 20
218.6959513653
 10
1255.974356697
 20
217.5935667999
 10
1255.974356697
 20
216.6010310321
 10
1256.2683280132
 20
215.8380585237
 10
1256.8208133663
 20
215.3966750196
 10
1257.5651748689
 20
215.3301178845
 10
1258.4116315381
 20
215.6464148912
  0
LINE
  5
459
330
1F
100
AcDbEntity
  8
0
  6
Continuous
 62
     7
370
    25
100
AcDbLine
 10
1505.8990049534
 20
358.5178344601
 30
0.0
 11
1518.6269270148
 21
365.8655074665
 31
0.0
  0
LWPOLYLINE
  5
45A
330
1F
100
AcDbEntity
  8
0
  6
Continuous
 62
     7
370
    25
100
AcDbPolyline
 90
       10
 70
   128
 43
0.0
 10
1518.6269270148
 20
365.8655074665
 10
1519.4733836841
 20
366.5265085279
 10
1520.2177451866
 20
367.4524871606
 10
1520.7702305397
 20
368.5317566756
 10
1521.0642018559
 20
369.634141241
 10
1521.0642018559
 20
370.6266770088
 10
1520.7702305397
 20
371.3896495172
 10
1520.2177451866
 20
371.8310330213
 10
1519.4733836841
 20
371.8975901564
 10
1518.6269270148
 20
371.5812931497
  0
LINE
  5
45B
330
1F
100
AcDbEntity
  8
0
  6
Continuous
 62
     7
370
    25
100
AcDbLine
 10
1518.6269270148
 20
371.5812931497
 30
0.0
 11
1505.8990049534
 21
364.2336201433
 31
0.0
  0
LWPOLYLINE
  5
45C
330
1F
100
AcDbEntity
  8
0
  6
Continuous
 62
     7
370
    25
100
AcDbPolyline
 90
       10
 70
   128
 43
0.0
 10
1505.8990049534
 20
364.2336201433
 10
1505.0525482842
 20
363.572619082
 10
1504.3081867816
 20
362.6466404493
 10
1503.7557014285
 20
361.5673709343
 10
1503.4617301123
 20
360.4649863689
 10
1503.4617301123
 20
359.4724506011
 10
1503.7557014285
 20
358.7094780927
 10
1504.3081867816
 20
358.2680945886
 10
1505.0525482842
 20
358.2015374535
 10
1505.8990049534
 20
358.5178344601
  0
LINE
  5
45D
330
1F
100
AcDbEntity
  8
0
  6
Continuous
 62
     7
370
    25
100
AcDbLine
 10
1470.5436658941
 20
338.1076316646
 30
0.0
 11
1483.2715879555
 21
345.455304671
 31
0.0
  0
LWPOLYLINE
  5
45E
330
1F
100
AcDbEntity
  8
0
  6
Continuous
 62
     7
370
    25
100
AcDbPolyline
 90
       10
 70
   128
 43
0.0
 10
1483.2715879555
 20
345.455304671
 10
1484.1180446247
 20
346.1163057323
 10
1484.8624061273
 20
347.042284365
 10
1485.4148914804
 20
348.12155388
 10
1485.7088627966
 20
349.2239384454
 10
1485.7088627966
 20
350.2164742132
 10
1485.4148914804
 20
350.9794467216
 10
1484.8624061273
 20
351.4208302257
 10
1484.1180446247
 20
351.4873873608
 10
1483.2715879555
 20
351.1710903542
  0
LINE
  5
45F
330
1F
100
AcDbEntity
  8
0
  6
Continuous
 62
     7
370
    25
100
AcDbLine
 10
1483.2715879555
 20
351.1710903542
 30
0.0
 11
1470.5436658941
 21
343.8234173478
 31
0.0
  0
LWPOLYLINE
  5
460
330
1F
100
AcDbEntity
  8
0
  6
Continuous
 62
     7
370
    25
100
AcDbPolyline
 90
       10
 70
   128
 43
0.0
 10
1470.5436658941
 20
343.8234173478
 10
1469.6972092248
 20
343.1624162864
 10
1468.9528477223
 20
342.2364376537
 10
1468.4003623692
 20
341.1571681388
 10
1468.106391053
 20
340.0547835733
 10
1468.106391053
 20
339.0622478055
 10
1468.4003623692
 20
338.2992752972
 10
1468.9528477223
 20
337.8578917931
 10
1469.6972092248
 20
337.7913346579
 10
1470.5436658941
 20
338.1076316646
  0
LINE
  5
461
330
1F
100
AcDbEntity
  8
0
  6
Continuous
 62
     7
370
    25
100
AcDbLine
 10
1223.0562924788
 20
195.2362120956
 30
0.0
 11
1235.7842145402
 21
202.583885102
 31
0.0
  0
LWPOLYLINE
  5
462
330
1F
100
AcDbEntity
  8
0
  6
Continuous
 62
     7
370
    25
100
AcDbPolyline
 90
       10
 70
   128
 43
0.0
 10
1235.7842145402
 20
202.583885102
 10
1236.6306712094
 20
203.2448861633
 10
1237.375032712
 20
204.170864796
 10
1237.9275180651
 20
205.250134311
 10
1238.2214893813
 20
206.3525188764
 10
1238.2214893813
 20
207.3450546443
 10
1237.9275180651
 20
208.1080271526
 10
1237.375032712
 20
208.5494106567
 10
1236.6306712094
 20
208.6159677918
 10
1235.7842145402
 20
208.2996707852
  0
LINE
  5
463
330
1F
100
AcDbEntity
  8
0
  6
Continuous
 62
     7
370
    25
100
AcDbLine
 10
1235.7842145402
 20
208.2996707852
 30
0.0
 11
1223.0562924788
 21
200.9519977788
 31
0.0
  0
LWPOLYLINE
  5
464
330
1F
100
AcDbEntity
  8
0
  6
Continuous
 62
     7
370
    25
100
AcDbPolyline
 90
       10
 70
   128
 43
0.0
 10
1223.0562924788
 20
200.9519977788
 10
1222.2098358096
 20
200.2909967175
 10
1221.465474307
 20
199.3650180848
 10
1220.9129889539
 20
198.2857485698
 10
1220.6190176377
 20
197.1833640043
 10
1220.6190176377
 20
196.1908282365
 10
1220.9129889539
 20
195.4278557282
 10
1221.465474307
 20
194.9864722241
 10
1222.2098358096
 20
194.919915089
 10
1223.0562924788
 20
195.2362120956
  0
LINE
  5
465
330
1F
100
AcDbEntity
  8
0
  6
Continuous
 62
     7
370
    25
100
AcDbLine
 10
1435.1883268348
 20
317.697428869
 30
0.0
 11
1447.9162488961
 21
325.0451018754
 31
0.0
  0
LWPOLYLINE
  5
466
330
1F
100
AcDbEntity
  8
0
  6
Continuous
 62
     7
370
    25
100
AcDbPolyline
 90
       10
 70
   128
 43
0.0
 10
1447.9162488961
 20
325.0451018754
 10
1448.7627055654
 20
325.7061029367
 10
1449.507067068
 20
326.6320815694
 10
1450.0595524211
 20
327.7113510844
 10
1450.3535237373
 20
328.8137356498
 10
1450.3535237373
 20
329.8062714177
 10
1450.0595524211
 20
330.569243926
 10
1449.507067068
 20
331.0106274301
 10
1448.7627055654
 20
331.0771845652
 10
1447.9162488961
 20
330.7608875586
  0
LINE
  5
467
330
1F
100
AcDbEntity
  8
0
  6
Continuous
 62
     7
370
    25
100
AcDbLine
 10
1447.9162488961
 20
330.7608875586
 30
0.0
 11
1435.1883268348
 21
323.4132145522
 31
0.0
  0
LWPOLYLINE
  5
468
330
1F
100
AcDbEntity
  8
0
  6
Continuous
 62
     7
370
    25
100
AcDbPolyline
 90
       10
 70
   128
 43
0.0
 10
1435.1883268348
 20
323.4132145522
 10
1434.3418701655
 20
322.7522134909
 10
1433.5975086629
 20
321.8262348582
 10
1433.0450233098
 20
320.7469653432
 10
1432.7510519937
 20
319.6445807778
 10
1432.7510519937
 20
318.6520450099
 10
1433.0450233098
 20
317.8890725016
 10
1433.5975086629
 20
317.4476889975
 10
1434.3418701655
 20
317.3811318624
 10
1435.1883268348
 20
317.697428869
  0
LINE
  5
469
330
1F
100
AcDbEntity
  8
0
  6
Continuous
 62
     7
370
    25
100
AcDbLine
 10
1399.8329877755
 20
297.2872260734
 30
0.0
 11
1412.5609098368
 21
304.6348990798
 31
0.0
  0
LWPOLYLINE
  5
46A
330
1F
100
AcDbEntity
  8
0
  6
Continuous
 62
     7
370
    25
100
AcDbPolyline
 90
       10
 70
   128
 43
0.0
 10
1412.5609098368
 20
304.6348990798
 10
1413.4073665061
 20
305.2959001412
 10
1414.1517280087
 20
306.2218787739
 10
1414.7042133618
 20
307.3011482888
 10
1414.9981846779
 20
308.4035328543
 10
1414.9981846779
 20
309.3960686221
 10
1414.7042133618
 20
310.1590411305
 10
1414.1517280087
 20
310.6004246345
 10
1413.4073665061
 20
310.6669817697
 10
1412.5609098368
 20
310.350684763
  0
LINE
  5
46B
330
1F
100
AcDbEntity
  8
0
  6
Continuous
 62
     7
370
    25
100
AcDbLine
 10
1412.5609098368
 20
310.350684763
 30
0.0
 11
1399.8329877755
 21
303.0030117566
 31
0.0
  0
LWPOLYLINE
  5
46C
330
1F
100
AcDbEntity
  8
0
  6
Continuous
 62
     7
370
    25
100
AcDbPolyline
 90
       10
 70
   128
 43
0.0
 10
1399.8329877755
 20
303.0030117566
 10
1398.9865311062
 20
302.3420106953
 10
1398.2421696036
 20
301.4160320626
 10
1397.6896842505
 20
300.3367625476
 10
1397.3957129343
 20
299.2343779822
 10
1397.3957129343
 20
298.2418422144
 10
1397.6896842505
 20
297.478869706
 10
1398.2421696036
 20
297.0374862019
 10
1398.9865311062
 20
296.9709290668
 10
1399.8329877755
 20
297.2872260734
  0
LINE
  5
46D
330
1F
100
AcDbEntity
  8
0
  6
Continuous
 62
     7
370
    25
100
AcDbLine
 10
1364.4776487161
 20
276.8770232779
 30
0.0
 11
1377.2055707775
 21
284.2246962843
 31
0.0
  0
LWPOLYLINE
  5
46E
330
1F
100
AcDbEntity
  8
0
  6
Continuous
 62
     7
370
    25
100
AcDbPolyline
 90
       10
 70
   128
 43
0.0
 10
1377.2055707775
 20
284.2246962843
 10
1378.0520274468
 20
284.8856973456
 10
1378.7963889493
 20
285.8116759783
 10
1379.3488743024
 20
286.8909454933
 10
1379.6428456186
 20
287.9933300587
 10
1379.6428456186
 20
288.9858658265
 10
1379.3488743024
 20
289.7488383349
 10
1378.7963889493
 20
290.190221839
 10
1378.0520274468
 20
290.2567789741
 10
1377.2055707775
 20
289.9404819675
  0
LINE
  5
46F
330
1F
100
AcDbEntity
  8
0
  6
Continuous
 62
     7
370
    25
100
AcDbLine
 10
1377.2055707775
 20
289.9404819675
 30
0.0
 11
1364.4776487161
 21
282.5928089611
 31
0.0
  0
LWPOLYLINE
  5
470
330
1F
100
AcDbEntity
  8
0
  6
Continuous
 62
     7
370
    25
100
AcDbPolyline
 90
       10
 70
   128
 43
0.0
 10
1364.4776487161
 20
282.5928089611
 10
1363.6311920469
 20
281.9318078997
 10
1362.8868305443
 20
281.005829267
 10
1362.3343451912
 20
279.926559752
 10
1362.040373875
 20
278.8241751866
 10
1362.040373875
 20
277.8316394188
 10
1362.3343451912
 20
277.0686669104
 10
1362.8868305443
 20
276.6272834064
 10
1363.6311920469
 20
276.5607262712
 10
1364.4776487161
 20
276.8770232779
  0
LINE
  5
471
330
1F
100
AcDbEntity
  8
0
  6
Continuous
 62
     7
370
    25
100
AcDbLine
 10
1329.1223096568
 20
256.4668204823
 30
0.0
 11
1341.8502317182
 21
263.8144934887
 31
0.0
  0
LWPOLYLINE
  5
472
330
1F
100
AcDbEntity
  8
0
  6
Continuous
 62
     7
370
    25
100
AcDbPolyline
 90
       10
 70
   128
 43
0.0
 10
1341.8502317182
 20
263.8144934887
 10
1342.6966883874
 20
264.47549455
 10
1343.44104989
 20
265.4014731827
 10
1343.9935352431
 20
266.4807426977
 10
1344.2875065593
 20
267.5831272631
 10
1344.2875065593
 20
268.575663031
 10
1343.9935352431
 20
269.3386355393
 10
1343.44104989
 20
269.7800190434
 10
1342.6966883874
 20
269.8465761785
 10
1341.8502317182
 20
269.5302791719
  0
LINE
  5
473
330
1F
100
AcDbEntity
  8
0
  6
Continuous
 62
     7
370
    25
100
AcDbLine
 10
1341.8502317182
 20
269.5302791719
 30
0.0
 11
1329.1223096568
 21
262.1826061655
 31
0.0
  0
LWPOLYLINE
  5
474
330
1F
100
AcDbEntity
  8
0
  6
Continuous
 62
     7
370
    25
100
AcDbPolyline
 90
       10
 70
   128
 43
0.0
 10
1329.1223096568
 20
262.1826061655
 10
1328.2758529875
 20
261.5216051042
 10
1327.531491485
 20
260.5956264715
 10
1326.9790061319
 20
259.5163569565
 10
1326.6850348157
 20
258.4139723911
 10
1326.6850348157
 20
257.4214366232
 10
1326.9790061319
 20
256.6584641149
 10
1327.531491485
 20
256.2170806108
 10
1328.2758529875
 20
256.1505234757
 10
1329.1223096568
 20
256.4668204823
  0
LINE
  5
475
330
1F
100
AcDbEntity
  8
0
  6
Continuous
 62
     7
370
    25
100
AcDbLine
 10
1293.7669705975
 20
236.0566176867
 30
0.0
 11
1306.4948926588
 21
243.4042906931
 31
0.0
  0
LWPOLYLINE
  5
476
330
1F
100
AcDbEntity
  8
0
  6
Continuous
 62
     7
370
    25
100
AcDbPolyline
 90
       10
 70
   128
 43
0.0
 10
1306.4948926588
 20
243.4042906931
 10
1307.3413493281
 20
244.0652917545
 10
1308.0857108307
 20
244.9912703872
 10
1308.6381961838
 20
246.0705399021
 10
1308.9321675
 20
247.1729244676
 10
1308.9321675
 20
248.1654602354
 10
1308.6381961838
 20
248.9284327437
 10
1308.0857108307
 20
249.3698162478
 10
1307.3413493281
 20
249.436373383
 10
1306.4948926588
 20
249.1200763763
  0
LINE
  5
477
330
1F
100
AcDbEntity
  8
0
  6
Continuous
 62
     7
370
    25
100
AcDbLine
 10
1306.4948926588
 20
249.1200763763
 30
0.0
 11
1293.7669705975
 21
241.7724033699
 31
0.0
  0
LWPOLYLINE
  5
478
330
1F
100
AcDbEntity
  8
0
  6
Continuous
 62
     7
370
    25
100
AcDbPolyline
 90
       10
 70
   128
 43
0.0
 10
1293.7669705975
 20
241.7724033699
 10
1292.9205139282
 20
241.1114023086
 10
1292.1761524256
 20
240.1854236759
 10
1291.6236670725
 20
239.1061541609
 10
1291.3296957564
 20
238.0037695955
 10
1291.3296957564
 20
237.0112338277
 10
1291.6236670725
 20
236.2482613193
 10
1292.1761524256
 20
235.8068778152
 10
1292.9205139282
 20
235.7403206801
 10
1293.7669705975
 20
236.0566176867
  0
LINE
  5
479
330
1F
100
AcDbEntity
  8
0
  6
Continuous
 62
     7
370
    25
100
AcDbLine
 10
1541.2543440128
 20
378.9280372557
 30
0.0
 11
1553.9822660741
 21
386.2757102621
 31
0.0
  0
LWPOLYLINE
  5
47A
330
1F
100
AcDbEntity
  8
0
  6
Continuous
 62
     7
370
    25
100
AcDbPolyline
 90
       10
 70
   128
 43
0.0
 10
1553.9822660741
 20
386.2757102621
 10
1554.8287227434
 20
386.9367113234
 10
1555.573084246
 20
387.8626899561
 10
1556.1255695991
 20
388.9419594711
 10
1556.4195409152
 20
390.0443440365
 10
1556.4195409152
 20
391.0368798044
 10
1556.1255695991
 20
391.7998523127
 10
1555.573084246
 20
392.2412358168
 10
1554.8287227434
 20
392.3077929519
 10
1553.9822660741
 20
391.9914959453
  0
LINE
  5
47B
330
1F
100
AcDbEntity
  8
0
  6
Continuous
 62
     7
370
    25
100
AcDbLine
 10
1553.9822660741
 20
391.9914959453
 30
0.0
 11
1541.2543440128
 21
384.6438229389
 31
0.0
  0
LWPOLYLINE
  5
47C
330
1F
100
AcDbEntity
  8
0
  6
Continuous
 62
     7
370
    25
100
AcDbPolyline
 90
       10
 70
   128
 43
0.0
 10
1541.2543440128
 20
384.6438229389
 10
1540.4078873435
 20
383.9828218776
 10
1539.6635258409
 20
383.0568432449
 10
1539.1110404878
 20
381.9775737299
 10
1538.8170691716
 20
380.8751891645
 10
1538.8170691716
 20
379.8826533966
 10
1539.1110404878
 20
379.1196808883
 10
1539.6635258409
 20
378.6782973842
 10
1540.4078873435
 20
378.6117402491
 10
1541.2543440128
 20
378.9280372557
  0
LINE
  5
47D
330
1F
100
AcDbEntity
  8
0
  6
Continuous
 62
     7
370
    25
100
AcDbLine
 10
1576.6096830721
 20
399.3382400513
 30
0.0
 11
1589.3376051335
 21
406.6859130577
 31
0.0
  0
LWPOLYLINE
  5
47E
330
1F
100
AcDbEntity
  8
0
  6
Continuous
 62
     7
370
    25
100
AcDbPolyline
 90
       10
 70
   128
 43
0.0
 10
1589.3376051335
 20
406.6859130577
 10
1590.1840618027
 20
407.346914119
 10
1590.9284233053
 20
408.2728927517
 10
1591.4809086584
 20
409.3521622667
 10
1591.7748799746
 20
410.4545468321
 10
1591.7748799746
 20
411.4470825999
 10
1591.4809086584
 20
412.2100551083
 10
1590.9284233053
 20
412.6514386124
 10
1590.1840618027
 20
412.7179957475
 10
1589.3376051335
 20
412.4016987409
  0
LINE
  5
47F
330
1F
100
AcDbEntity
  8
0
  6
Continuous
 62
     7
370
    25
100
AcDbLine
 10
1589.3376051335
 20
412.4016987409
 30
0.0
 11
1576.6096830721
 21
405.0540257345
 31
0.0
  0
LWPOLYLINE
  5
480
330
1F
100
AcDbEntity
  8
0
  6
Continuous
 62
     7
370
    25
100
AcDbPolyline
 90
       10
 70
   128
 43
0.0
 10
1576.6096830721
 20
405.0540257345
 10
1575.7632264028
 20
404.3930246731
 10
1575.0188649002
 20
403.4670460404
 10
1574.4663795472
 20
402.3877765255
 10
1574.172408231
 20
401.28539196
 10
1574.172408231
 20
400.2928561922
 10
1574.4663795472
 20
399.5298836839
 10
1575.0188649002
 20
399.0885001798
 10
1575.7632264028
 20
399.0219430446
 10
1576.6096830721
 20
399.3382400513
  0
LINE
  5
481
330
1F
100
AcDbEntity
  8
0
  6
Continuous
 62
     7
370
    25
100
AcDbLine
 10
1611.9650221314
 20
419.7484428468
 30
0.0
 11
1624.6929441928
 21
427.0961158532
 31
0.0
  0
LWPOLYLINE
  5
482
330
1F
100
AcDbEntity
  8
0
  6
Continuous
 62
     7
370
    25
100
AcDbPolyline
 90
       10
 70
   128
 43
0.0
 10
1624.6929441928
 20
427.0961158532
 10
1625.539400862
 20
427.7571169146
 10
1626.2837623646
 20
428.6830955473
 10
1626.8362477177
 20
429.7623650623
 10
1627.1302190339
 20
430.8647496277
 10
1627.1302190339
 20
431.8572853955
 10
1626.8362477177
 20
432.6202579039
 10
1626.2837623646
 20
433.061641408
 10
1625.539400862
 20
433.1281985431
 10
1624.6929441928
 20
432.8119015364
  0
LINE
  5
483
330
1F
100
AcDbEntity
  8
0
  6
Continuous
 62
     7
370
    25
100
AcDbLine
 10
1624.6929441928
 20
432.8119015364
 30
0.0
 11
1611.9650221314
 21
425.46422853
 31
0.0
  0
LWPOLYLINE
  5
484
330
1F
100
AcDbEntity
  8
0
  6
Continuous
 62
     7
370
    25
100
AcDbPolyline
 90
       10
 70
   128
 43
0.0
 10
1611.9650221314
 20
425.46422853
 10
1611.1185654622
 20
424.8032274687
 10
1610.3742039596
 20
423.877248836
 10
1609.8217186065
 20
422.797979321
 10
1609.5277472903
 20
421.6955947556
 10
1609.5277472903
 20
420.7030589878
 10
1609.8217186065
 20
419.9400864794
 10
1610.3742039596
 20
419.4987029753
 10
1611.1185654622
 20
419.4321458402
 10
1611.9650221314
 20
419.7484428468
  0
LINE
  5
485
330
1F
100
AcDbEntity
  8
0
  6
Continuous
 62
     7
370
    25
100
AcDbLine
 10
1647.3203611907
 20
440.1586456424
 30
0.0
 11
1660.0482832521
 21
447.5063186488
 31
0.0
  0
LWPOLYLINE
  5
486
330
1F
100
AcDbEntity
  8
0
  6
Continuous
 62
     7
370
    25
100
AcDbPolyline
 90
       10
 70
   128
 43
0.0
 10
1660.0482832521
 20
447.5063186488
 10
1660.8947399214
 20
448.1673197101
 10
1661.639101424
 20
449.0932983428
 10
1662.191586777
 20
450.1725678578
 10
1662.4855580932
 20
451.2749524233
 10
1662.4855580932
 20
452.2674881911
 10
1662.191586777
 20
453.0304606994
 10
1661.639101424
 20
453.4718442035
 10
1660.8947399214
 20
453.5384013386
 10
1660.0482832521
 20
453.222104332
  0
LINE
  5
487
330
1F
100
AcDbEntity
  8
0
  6
Continuous
 62
     7
370
    25
100
AcDbLine
 10
1660.0482832521
 20
453.222104332
 30
0.0
 11
1647.3203611907
 21
445.8744313256
 31
0.0
  0
LWPOLYLINE
  5
488
330
1F
100
AcDbEntity
  8
0
  6
Continuous
 62
     7
370
    25
100
AcDbPolyline
 90
       10
 70
   128
 43
0.0
 10
1647.3203611907
 20
445.8744313256
 10
1646.4739045215
 20
445.2134302643
 10
1645.7295430189
 20
444.2874516316
 10
1645.1770576658
 20
443.2081821166
 10
1644.8830863496
 20
442.1057975512
 10
1644.8830863496
 20
441.1132617833
 10
1645.1770576658
 20
440.350289275
 10
1645.7295430189
 20
439.9089057709
 10
1646.4739045215
 20
439.8423486358
 10
1647.3203611907
 20
440.1586456424
  0
LINE
  5
489
330
1F
100
AcDbEntity
  8
0
  6
Continuous
 62
     7
370
    25
100
AcDbLine
 10
1682.6757002501
 20
460.568848438
 30
0.0
 11
1695.4036223114
 21
467.9165214444
 31
0.0
  0
LWPOLYLINE
  5
48A
330
1F
100
AcDbEntity
  8
0
  6
Continuous
 62
     7
370
    25
100
AcDbPolyline
 90
       10
 70
   128
 43
0.0
 10
1695.4036223114
 20
467.9165214444
 10
1696.2500789807
 20
468.5775225057
 10
1696.9944404833
 20
469.5035011384
 10
1697.5469258364
 20
470.5827706534
 10
1697.8408971526
 20
471.6851552188
 10
1697.8408971526
 20
472.6776909866
 10
1697.5469258364
 20
473.440663495
 10
1696.9944404833
 20
473.8820469991
 10
1696.2500789807
 20
473.9486041342
 10
1695.4036223114
 20
473.6323071276
  0
LINE
  5
48B
330
1F
100
AcDbEntity
  8
0
  6
Continuous
 62
     7
370
    25
100
AcDbLine
 10
1695.4036223114
 20
473.6323071276
 30
0.0
 11
1682.6757002501
 21
466.2846341212
 31
0.0
  0
LWPOLYLINE
  5
48C
330
1F
100
AcDbEntity
  8
0
  6
Continuous
 62
     7
370
    25
100
AcDbPolyline
 90
       10
 70
   128
 43
0.0
 10
1682.6757002501
 20
466.2846341212
 10
1681.8292435808
 20
465.6236330598
 10
1681.0848820782
 20
464.6976544271
 10
1680.5323967251
 20
463.6183849122
 10
1680.238425409
 20
462.5160003467
 10
1680.238425409
 20
461.5234645789
 10
1680.5323967251
 20
460.7604920706
 10
1681.0848820782
 20
460.3191085665
 10
1681.8292435808
 20
460.2525514313
 10
1682.6757002501
 20
460.568848438
  0
LINE
  5
48D
330
1F
100
AcDbEntity
  8
0
  6
Continuous
 62
     7
370
    25
100
AcDbLine
 10
1718.0310393094
 20
480.9790512335
 30
0.0
 11
1730.7589613708
 21
488.3267242399
 31
0.0
  0
LWPOLYLINE
  5
48E
330
1F
100
AcDbEntity
  8
0
  6
Continuous
 62
     7
370
    25
100
AcDbPolyline
 90
       10
 70
   128
 43
0.0
 10
1730.7589613708
 20
488.3267242399
 10
1731.60541804
 20
488.9877253013
 10
1732.3497795426
 20
489.913703934
 10
1732.9022648957
 20
490.992973449
 10
1733.1962362119
 20
492.0953580144
 10
1733.1962362119
 20
493.0878937822
 10
1732.9022648957
 20
493.8508662906
 10
1732.3497795426
 20
494.2922497947
 10
1731.60541804
 20
494.3588069298
 10
1730.7589613708
 20
494.0425099231
  0
LINE
  5
48F
330
1F
100
AcDbEntity
  8
0
  6
Continuous
 62
     7
370
    25
100
AcDbLine
 10
1730.7589613708
 20
494.0425099231
 30
0.0
 11
1718.0310393094
 21
486.6948369167
 31
0.0
  0
LWPOLYLINE
  5
490
330
1F
100
AcDbEntity
  8
0
  6
Continuous
 62
     7
370
    25
100
AcDbPolyline
 90
       10
 70
   128
 43
0.0
 10
1718.0310393094
 20
486.6948369167
 10
1717.1845826401
 20
486.0338358554
 10
1716.4402211376
 20
485.1078572227
 10
1715.8877357845
 20
484.0285877077
 10
1715.5937644683
 20
482.9262031423
 10
1715.5937644683
 20
481.9336673745
 10
1715.8877357845
 20
481.1706948661
 10
1716.4402211376
 20
480.729311362
 10
1717.1845826401
 20
480.6627542269
 10
1718.0310393094
 20
480.9790512335
  0
LINE
  5
491
330
1F
100
AcDbEntity
  8
0
  6
Continuous
 62
     7
370
    25
100
AcDbLine
 10
1753.3863783687
 20
501.3892540291
 30
0.0
 11
1766.1143004301
 21
508.7369270355
 31
0.0
  0
LWPOLYLINE
  5
492
330
1F
100
AcDbEntity
  8
0
  6
Continuous
 62
     7
370
    25
100
AcDbPolyline
 90
       10
 70
   128
 43
0.0
 10
1766.1143004301
 20
508.7369270355
 10
1766.9607570994
 20
509.3979280968
 10
1767.7051186019
 20
510.3239067295
 10
1768.257603955
 20
511.4031762445
 10
1768.5515752712
 20
512.50556081
 10
1768.5515752712
 20
513.4980965778
 10
1768.257603955
 20
514.2610690861
 10
1767.7051186019
 20
514.7024525902
 10
1766.9607570994
 20
514.7690097253
 10
1766.1143004301
 20
514.4527127187
  0
LINE
  5
493
330
1F
100
AcDbEntity
  8
0
  6
Continuous
 62
     7
370
    25
100
AcDbLine
 10
1766.1143004301
 20
514.4527127187
 30
0.0
 11
1753.3863783687
 21
507.1050397123
 31
0.0
  0
LWPOLYLINE
  5
494
330
1F
100
AcDbEntity
  8
0
  6
Continuous
 62
     7
370
    25
100
AcDbPolyline
 90
       10
 70
   128
 43
0.0
 10
1753.3863783687
 20
507.1050397123
 10
1752.5399216995
 20
506.444038651
 10
1751.7955601969
 20
505.5180600183
 10
1751.2430748438
 20
504.4387905033
 10
1750.9491035276
 20
503.3364059379
 10
1750.9491035276
 20
502.34387017
 10
1751.2430748438
 20
501.5808976617
 10
1751.7955601969
 20
501.1395141576
 10
1752.5399216995
 20
501.0729570225
 10
1753.3863783687
 20
501.3892540291
  0
LINE
  5
495
330
1F
100
AcDbEntity
  8
0
  6
Continuous
 62
     7
370
    25
100
AcDbLine
 10
1788.7417174281
 20
521.7994568247
 30
0.0
 11
1801.4696394894
 21
529.1471298311
 31
0.0
  0
LWPOLYLINE
  5
496
330
1F
100
AcDbEntity
  8
0
  6
Continuous
 62
     7
370
    25
100
AcDbPolyline
 90
       10
 70
   128
 43
0.0
 10
1801.4696394894
 20
529.1471298311
 10
1802.3160961587
 20
529.8081308924
 10
1803.0604576613
 20
530.7341095251
 10
1803.6129430144
 20
531.8133790401
 10
1803.9069143305
 20
532.9157636055
 10
1803.9069143305
 20
533.9082993733
 10
1803.6129430144
 20
534.6712718817
 10
1803.0604576613
 20
535.1126553858
 10
1802.3160961587
 20
535.1792125209
 10
1801.4696394894
 20
534.8629155143
  0
LINE
  5
497
330
1F
100
AcDbEntity
  8
0
  6
Continuous
 62
     7
370
    25
100
AcDbLine
 10
1801.4696394894
 20
534.8629155143
 30
0.0
 11
1788.7417174281
 21
527.5152425079
 31
0.0
  0
LWPOLYLINE
  5
498
330
1F
100
AcDbEntity
  8
0
  6
Continuous
 62
     7
370
    25
100
AcDbPolyline
 90
       10
 70
   128
 43
0.0
 10
1788.7417174281
 20
527.5152425079
 10
1787.8952607588
 20
526.8542414465
 10
1787.1508992562
 20
525.9282628138
 10
1786.5984139031
 20
524.8489932989
 10
1786.3044425869
 20
523.7466087334
 10
1786.3044425869
 20
522.7540729656
 10
1786.5984139031
 20
521.9911004573
 10
1787.1508992562
 20
521.5497169532
 10
1787.8952607588
 20
521.483159818
 10
1788.7417174281
 20
521.7994568247
  0
LINE
  5
499
330
1F
100
AcDbEntity
  8
0
  6
Continuous
 62
     7
370
    25
100
AcDbLine
 10
1824.0970564874
 20
542.2096596202
 30
0.0
 11
1836.8249785487
 21
549.5573326266
 31
0.0
  0
LWPOLYLINE
  5
49A
330
1F
100
AcDbEntity
  8
0
  6
Continuous
 62
     7
370
    25
100
AcDbPolyline
 90
       10
 70
   128
 43
0.0
 10
1836.8249785487
 20
549.5573326266
 10
1837.671435218
 20
550.218333688
 10
1838.4157967206
 20
551.1443123207
 10
1838.9682820737
 20
552.2235818357
 10
1839.2622533899
 20
553.3259664011
 10
1839.2622533899
 20
554.3185021689
 10
1838.9682820737
 20
555.0814746773
 10
1838.4157967206
 20
555.5228581814
 10
1837.671435218
 20
555.5894153165
 10
1836.8249785487
 20
555.2731183098
  0
LINE
  5
49B
330
1F
100
AcDbEntity
  8
0
  6
Continuous
 62
     7
370
    25
100
AcDbLine
 10
1836.8249785487
 20
555.2731183098
 30
0.0
 11
1824.0970564874
 21
547.9254453034
 31
0.0
  0
LWPOLYLINE
  5
49C
330
1F
100
AcDbEntity
  8
0
  6
Continuous
 62
     7
370
    25
100
AcDbPolyline
 90
       10
 70
   128
 43
0.0
 10
1824.0970564874
 20
547.9254453034
 10
1823.2505998181
 20
547.2644442421
 10
1822.5062383155
 20
546.3384656094
 10
1821.9537529625
 20
545.2591960944
 10
1821.6597816463
 20
544.156811529
 10
1821.6597816463
 20
543.1642757612
 10
1821.9537529625
 20
542.4013032528
 10
1822.5062383155
 20
541.9599197487
 10
1823.2505998181
 20
541.8933626136
 10
1824.0970564874
 20
542.2096596202
  0
LINE
  5
49D
330
1F
100
AcDbEntity
  8
0
  6
Continuous
 62
     7
370
    25
100
AcDbLine
 10
1859.4523955467
 20
562.6198624158
 30
0.0
 11
1872.1803176081
 21
569.9675354222
 31
0.0
  0
LWPOLYLINE
  5
49E
330
1F
100
AcDbEntity
  8
0
  6
Continuous
 62
     7
370
    25
100
AcDbPolyline
 90
       10
 70
   128
 43
0.0
 10
1872.1803176081
 20
569.9675354222
 10
1873.0267742773
 20
570.6285364835
 10
1873.7711357799
 20
571.5545151163
 10
1874.323621133
 20
572.6337846312
 10
1874.6175924492
 20
573.7361691967
 10
1874.6175924492
 20
574.7287049645
 10
1874.323621133
 20
575.4916774728
 10
1873.7711357799
 20
575.9330609769
 10
1873.0267742773
 20
575.9996181121
 10
1872.1803176081
 20
575.6833211054
  0
LINE
  5
49F
330
1F
100
AcDbEntity
  8
0
  6
Continuous
 62
     7
370
    25
100
AcDbLine
 10
1872.1803176081
 20
575.6833211054
 30
0.0
 11
1859.4523955467
 21
568.335648099
 31
0.0
  0
LWPOLYLINE
  5
4A0
330
1F
100
AcDbEntity
  8
0
  6
Continuous
 62
     7
370
    25
100
AcDbPolyline
 90
       10
 70
   128
 43
0.0
 10
1859.4523955467
 20
568.335648099
 10
1858.6059388774
 20
567.6746470377
 10
1857.8615773749
 20
566.748668405
 10
1857.3090920218
 20
565.66939889
 10
1857.0151207056
 20
564.5670143246
 10
1857.0151207056
 20
563.5744785567
 10
1857.3090920218
 20
562.8115060484
 10
1857.8615773749
 20
562.3701225443
 10
1858.6059388774
 20
562.3035654092
 10
1859.4523955467
 20
562.6198624158
  0
LINE
  5
4A1
330
1F
100
AcDbEntity
  8
0
  6
Continuous
 62
     7
370
    25
100
AcDbLine
 10
1894.807734606
 20
583.0300652114
 30
0.0
 11
1907.5356566674
 21
590.3777382178
 31
0.0
  0
LWPOLYLINE
  5
4A2
330
1F
100
AcDbEntity
  8
0
  6
Continuous
 62
     7
370
    25
100
AcDbPolyline
 90
       10
 70
   128
 43
0.0
 10
1907.5356566674
 20
590.3777382178
 10
1908.3821133367
 20
591.0387392791
 10
1909.1264748393
 20
591.9647179118
 10
1909.6789601923
 20
593.0439874268
 10
1909.9729315085
 20
594.1463719922
 10
1909.9729315085
 20
595.1389077601
 10
1909.6789601923
 20
595.9018802684
 10
1909.1264748393
 20
596.3432637725
 10
1908.3821133367
 20
596.4098209076
 10
1907.5356566674
 20
596.093523901
  0
LINE
  5
4A3
330
1F
100
AcDbEntity
  8
0
  6
Continuous
 62
     7
370
    25
100
AcDbLine
 10
1907.5356566674
 20
596.093523901
 30
0.0
 11
1894.807734606
 21
588.7458508946
 31
0.0
  0
LWPOLYLINE
  5
4A4
330
1F
100
AcDbEntity
  8
0
  6
Continuous
 62
     7
370
    25
100
AcDbPolyline
 90
       10
 70
   128
 43
0.0
 10
1894.807734606
 20
588.7458508946
 10
1893.9612779368
 20
588.0848498332
 10
1893.2169164342
 20
587.1588712005
 10
1892.6644310811
 20
586.0796016856
 10
1892.3704597649
 20
584.9772171201
 10
1892.3704597649
 20
583.9846813523
 10
1892.6644310811
 20
583.221708844
 10
1893.2169164342
 20
582.7803253399
 10
1893.9612779368
 20
582.7137682048
 10
1894.807734606
 20
583.0300652114
  0
LINE
  5
4A5
330
1F
100
AcDbEntity
  8
0
  6
Continuous
 62
     7
370
    25
100
AcDbLine
 10
1930.1630736654
 20
603.4402680069
 30
0.0
 11
1942.8909957267
 21
610.7879410133
 31
0.0
  0
LWPOLYLINE
  5
4A6
330
1F
100
AcDbEntity
  8
0
  6
Continuous
 62
     7
370
    25
100
AcDbPolyline
 90
       10
 70
   128
 43
0.0
 10
1942.8909957267
 20
610.7879410133
 10
1943.737452396
 20
611.4489420747
 10
1944.4818138986
 20
612.3749207074
 10
1945.0342992517
 20
613.4541902224
 10
1945.3282705679
 20
614.5565747878
 10
1945.3282705679
 20
615.5491105556
 10
1945.0342992517
 20
616.312083064
 10
1944.4818138986
 20
616.7534665681
 10
1943.737452396
 20
616.8200237032
 10
1942.8909957267
 20
616.5037266966
  0
LINE
  5
4A7
330
1F
100
AcDbEntity
  8
0
  6
Continuous
 62
     7
370
    25
100
AcDbLine
 10
1942.8909957267
 20
616.5037266966
 30
0.0
 11
1930.1630736654
 21
609.1560536902
 31
0.0
  0
LWPOLYLINE
  5
4A8
330
1F
100
AcDbEntity
  8
0
  6
Continuous
 62
     7
370
    25
100
AcDbPolyline
 90
       10
 70
   128
 43
0.0
 10
1930.1630736654
 20
609.1560536902
 10
1929.3166169961
 20
608.4950526288
 10
1928.5722554935
 20
607.5690739961
 10
1928.0197701404
 20
606.4898044811
 10
1927.7257988242
 20
605.3874199157
 10
1927.7257988242
 20
604.3948841479
 10
1928.0197701404
 20
603.6319116395
 10
1928.5722554935
 20
603.1905281354
 10
1929.3166169961
 20
603.1239710003
 10
1930.1630736654
 20
603.4402680069
  0
LINE
  5
4A9
330
1F
100
AcDbEntity
  8
0
  6
Continuous
 62
     7
370
    25
100
AcDbLine
 10
1965.5184127247
 20
623.8504708025
 30
0.0
 11
1978.2463347861
 21
631.1981438089
 31
0.0
  0
LWPOLYLINE
  5
4AA
330
1F
100
AcDbEntity
  8
0
  6
Continuous
 62
     7
370
    25
100
AcDbPolyline
 90
       10
 70
   128
 43
0.0
 10
1978.2463347861
 20
631.1981438089
 10
1979.0927914553
 20
631.8591448702
 10
1979.8371529579
 20
632.785123503
 10
1980.389638311
 20
633.8643930179
 10
1980.6836096272
 20
634.9667775834
 10
1980.6836096272
 20
635.9593133512
 10
1980.389638311
 20
636.7222858595
 10
1979.8371529579
 20
637.1636693636
 10
1979.0927914553
 20
637.2302264988
 10
1978.2463347861
 20
636.9139294921
  0
LINE
  5
4AB
330
1F
100
AcDbEntity
  8
0
  6
Continuous
 62
     7
370
    25
100
AcDbLine
 10
1978.2463347861
 20
636.9139294921
 30
0.0
 11
1965.5184127247
 21
629.5662564857
 31
0.0
  0
LWPOLYLINE
  5
4AC
330
1F
100
AcDbEntity
  8
0
  6
Continuous
 62
     7
370
    25
100
AcDbPolyline
 90
       10
 70
   128
 43
0.0
 10
1965.5184127247
 20
629.5662564857
 10
1964.6719560554
 20
628.9052554244
 10
1963.9275945528
 20
627.9792767917
 10
1963.3751091998
 20
626.9000072767
 10
1963.0811378836
 20
625.7976227113
 10
1963.0811378836
 20
624.8050869435
 10
1963.3751091998
 20
624.0421144351
 10
1963.9275945528
 20
623.600730931
 10
1964.6719560554
 20
623.5341737959
 10
1965.5184127247
 20
623.8504708025
  0
LINE
  5
4AD
330
1F
100
AcDbEntity
  8
0
  6
Continuous
 62
     7
370
    25
100
AcDbLine
 10
2000.873751784
 20
644.2606735981
 30
0.0
 11
2013.6016738454
 21
651.6083466045
 31
0.0
  0
LWPOLYLINE
  5
4AE
330
1F
100
AcDbEntity
  8
0
  6
Continuous
 62
     7
370
    25
100
AcDbPolyline
 90
       10
 70
   128
 43
0.0
 10
2013.6016738454
 20
651.6083466045
 10
2014.4481305147
 20
652.2693476658
 10
2015.1924920172
 20
653.1953262985
 10
2015.7449773703
 20
654.2745958135
 10
2016.0389486865
 20
655.3769803789
 10
2016.0389486865
 20
656.3695161468
 10
2015.7449773703
 20
657.1324886551
 10
2015.1924920172
 20
657.5738721592
 10
2014.4481305147
 20
657.6404292943
 10
2013.6016738454
 20
657.3241322877
  0
LINE
  5
4AF
330
1F
100
AcDbEntity
  8
0
  6
Continuous
 62
     7
370
    25
100
AcDbLine
 10
2013.6016738454
 20
657.3241322877
 30
0.0
 11
2000.873751784
 21
649.9764592813
 31
0.0
  0
LWPOLYLINE
  5
4B0
330
1F
100
AcDbEntity
  8
0
  6
Continuous
 62
     7
370
    25
100
AcDbPolyline
 90
       10
 70
   128
 43
0.0
 10
2000.873751784
 20
649.9764592813
 10
2000.0272951148
 20
649.31545822
 10
1999.2829336122
 20
648.3894795873
 10
1998.7304482591
 20
647.3102100723
 10
1998.4364769429
 20
646.2078255068
 10
1998.4364769429
 20
645.215289739
 10
1998.7304482591
 20
644.4523172307
 10
1999.2829336122
 20
644.0109337266
 10
2000.0272951148
 20
643.9443765915
 10
2000.873751784
 20
644.2606735981
  0
LINE
  5
4B1
330
1F
100
AcDbEntity
  8
0
  6
Continuous
 62
     7
370
    25
100
AcDbLine
 10
2036.2290908434
 20
664.6708763936
 30
0.0
 11
2048.9570129047
 21
672.0185494001
 31
0.0
  0
LWPOLYLINE
  5
4B2
330
1F
100
AcDbEntity
  8
0
  6
Continuous
 62
     7
370
    25
100
AcDbPolyline
 90
       10
 70
   128
 43
0.0
 10
2048.9570129047
 20
672.0185494001
 10
2049.803469574
 20
672.6795504614
 10
2050.5478310766
 20
673.6055290941
 10
2051.1003164296
 20
674.6847986091
 10
2051.3942877458
 20
675.7871831745
 10
2051.3942877458
 20
676.7797189423
 10
2051.1003164296
 20
677.5426914507
 10
2050.5478310766
 20
677.9840749548
 10
2049.803469574
 20
678.0506320899
 10
2048.9570129047
 20
677.7343350833
  0
LINE
  5
4B3
330
1F
100
AcDbEntity
  8
0
  6
Continuous
 62
     7
370
    25
100
AcDbLine
 10
2048.9570129047
 20
677.7343350833
 30
0.0
 11
2036.2290908434
 21
670.3866620769
 31
0.0
  0
LWPOLYLINE
  5
4B4
330
1F
100
AcDbEntity
  8
0
  6
Continuous
 62
     7
370
    25
100
AcDbPolyline
 90
       10
 70
   128
 43
0.0
 10
2036.2290908434
 20
670.3866620769
 10
2035.3826341741
 20
669.7256610155
 10
2034.6382726715
 20
668.7996823828
 10
2034.0857873184
 20
667.7204128678
 10
2033.7918160022
 20
666.6180283024
 10
2033.7918160022
 20
665.6254925346
 10
2034.0857873184
 20
664.8625200262
 10
2034.6382726715
 20
664.4211365221
 10
2035.3826341741
 20
664.354579387
 10
2036.2290908434
 20
664.6708763936
  0
LINE
  5
4B5
330
1F
100
AcDbEntity
  8
0
  6
Continuous
 62
     7
370
    25
100
AcDbLine
 10
2071.5844299027
 20
685.0810791892
 30
0.0
 11
2084.312351964
 21
692.4287521956
 31
0.0
  0
LWPOLYLINE
  5
4B6
330
1F
100
AcDbEntity
  8
0
  6
Continuous
 62
     7
370
    25
100
AcDbPolyline
 90
       10
 70
   128
 43
0.0
 10
2084.312351964
 20
692.4287521956
 10
2085.1588086333
 20
693.089753257
 10
2085.9031701359
 20
694.0157318897
 10
2086.455655489
 20
695.0950014046
 10
2086.7496268052
 20
696.1973859701
 10
2086.7496268052
 20
697.1899217379
 10
2086.455655489
 20
697.9528942462
 10
2085.9031701359
 20
698.3942777503
 10
2085.1588086333
 20
698.4608348855
 10
2084.312351964
 20
698.1445378788
  0
LINE
  5
4B7
330
1F
100
AcDbEntity
  8
0
  6
Continuous
 62
     7
370
    25
100
AcDbLine
 10
2084.312351964
 20
698.1445378788
 30
0.0
 11
2071.5844299027
 21
690.7968648724
 31
0.0
  0
LWPOLYLINE
  5
4B8
330
1F
100
AcDbEntity
  8
0
  6
Continuous
 62
     7
370
    25
100
AcDbPolyline
 90
       10
 70
   128
 43
0.0
 10
2071.5844299027
 20
690.7968648724
 10
2070.7379732334
 20
690.1358638111
 10
2069.9936117308
 20
689.2098851784
 10
2069.4411263777
 20
688.1306156634
 10
2069.1471550616
 20
687.028231098
 10
2069.1471550616
 20
686.0356953302
 10
2069.4411263777
 20
685.2727228218
 10
2069.9936117308
 20
684.8313393177
 10
2070.7379732334
 20
684.7647821826
 10
2071.5844299027
 20
685.0810791892
  0
LINE
  5
4B9
330
1F
100
AcDbEntity
  8
0
  6
Continuous
 62
     7
370
    25
100
AcDbLine
 10
2106.939768962
 20
705.4912819848
 30
0.0
 11
2119.6676910234
 21
712.8389549912
 31
0.0
  0
LWPOLYLINE
  5
4BA
330
1F
100
AcDbEntity
  8
0
  6
Continuous
 62
     7
370
    25
100
AcDbPolyline
 90
       10
 70
   128
 43
0.0
 10
2119.6676910234
 20
712.8389549912
 10
2120.5141476926
 20
713.4999560525
 10
2121.2585091952
 20
714.4259346852
 10
2121.8109945483
 20
715.5052042002
 10
2122.1049658645
 20
716.6075887656
 10
2122.1049658645
 20
717.6001245335
 10
2121.8109945483
 20
718.3630970418
 10
2121.2585091952
 20
718.8044805459
 10
2120.5141476926
 20
718.871037681
 10
2119.6676910234
 20
718.5547406744
  0
LINE
  5
4BB
330
1F
100
AcDbEntity
  8
0
  6
Continuous
 62
     7
370
    25
100
AcDbLine
 10
2119.6676910234
 20
718.5547406744
 30
0.0
 11
2106.939768962
 21
711.207067668
 31
0.0
  0
LWPOLYLINE
  5
4BC
330
1F
100
AcDbEntity
  8
0
  6
Continuous
 62
     7
370
    25
100
AcDbPolyline
 90
       10
 70
   128
 43
0.0
 10
2106.939768962
 20
711.207067668
 10
2106.0933122927
 20
710.5460666067
 10
2105.3489507902
 20
709.620087974
 10
2104.7964654371
 20
708.540818459
 10
2104.5024941209
 20
707.4384338935
 10
2104.5024941209
 20
706.4458981257
 10
2104.7964654371
 20
705.6829256174
 10
2105.3489507902
 20
705.2415421133
 10
2106.0933122927
 20
705.1749849782
 10
2106.939768962
 20
705.4912819848
  0
LINE
  5
4BD
330
1F
100
AcDbEntity
  8
0
  6
Continuous
 62
     7
370
    25
100
AcDbLine
 10
2142.2951080213
 20
725.9014847803
 30
0.0
 11
2155.0230300827
 21
733.2491577868
 31
0.0
  0
LWPOLYLINE
  5
4BE
330
1F
100
AcDbEntity
  8
0
  6
Continuous
 62
     7
370
    25
100
AcDbPolyline
 90
       10
 70
   128
 43
0.0
 10
2155.0230300827
 20
733.2491577868
 10
2155.869486752
 20
733.9101588481
 10
2156.6138482545
 20
734.8361374808
 10
2157.1663336076
 20
735.9154069958
 10
2157.4603049238
 20
737.0177915612
 10
2157.4603049238
 20
738.010327329
 10
2157.1663336076
 20
738.7732998374
 10
2156.6138482545
 20
739.2146833415
 10
2155.869486752
 20
739.2812404766
 10
2155.0230300827
 20
738.96494347
  0
LINE
  5
4BF
330
1F
100
AcDbEntity
  8
0
  6
Continuous
 62
     7
370
    25
100
AcDbLine
 10
2155.0230300827
 20
738.96494347
 30
0.0
 11
2142.2951080213
 21
731.6172704636
 31
0.0
  0
LWPOLYLINE
  5
4C0
330
1F
100
AcDbEntity
  8
0
  6
Continuous
 62
     7
370
    25
100
AcDbPolyline
 90
       10
 70
   128
 43
0.0
 10
2142.2951080213
 20
731.6172704636
 10
2141.4486513521
 20
730.9562694022
 10
2140.7042898495
 20
730.0302907695
 10
2140.1518044964
 20
728.9510212545
 10
2139.8578331802
 20
727.8486366891
 10
2139.8578331802
 20
726.8561009213
 10
2140.1518044964
 20
726.0931284129
 10
2140.7042898495
 20
725.6517449088
 10
2141.4486513521
 20
725.5851877737
 10
2142.2951080213
 20
725.9014847803
  0
LINE
  5
4C1
330
1F
100
AcDbEntity
  8
0
  6
Continuous
 62
     7
370
    25
100
AcDbLine
 10
2177.6504470807
 20
746.3116875759
 30
0.0
 11
2190.378369142
 21
753.6593605823
 31
0.0
  0
LWPOLYLINE
  5
4C2
330
1F
100
AcDbEntity
  8
0
  6
Continuous
 62
     7
370
    25
100
AcDbPolyline
 90
       10
 70
   128
 43
0.0
 10
2190.378369142
 20
753.6593605823
 10
2191.2248258113
 20
754.3203616437
 10
2191.9691873139
 20
755.2463402764
 10
2192.521672667
 20
756.3256097913
 10
2192.8156439831
 20
757.4279943568
 10
2192.8156439831
 20
758.4205301246
 10
2192.521672667
 20
759.183502633
 10
2191.9691873139
 20
759.624886137
 10
2191.2248258113
 20
759.6914432722
 10
2190.378369142
 20
759.3751462655
  0
LINE
  5
4C3
330
1F
100
AcDbEntity
  8
0
  6
Continuous
 62
     7
370
    25
100
AcDbLine
 10
2190.378369142
 20
759.3751462655
 30
0.0
 11
2177.6504470807
 21
752.0274732591
 31
0.0
  0
LWPOLYLINE
  5
4C4
330
1F
100
AcDbEntity
  8
0
  6
Continuous
 62
     7
370
    25
100
AcDbPolyline
 90
       10
 70
   128
 43
0.0
 10
2177.6504470807
 20
752.0274732591
 10
2176.8039904114
 20
751.3664721978
 10
2176.0596289088
 20
750.4404935651
 10
2175.5071435557
 20
749.3612240501
 10
2175.2131722395
 20
748.2588394847
 10
2175.2131722395
 20
747.2663037169
 10
2175.5071435557
 20
746.5033312085
 10
2176.0596289088
 20
746.0619477044
 10
2176.8039904114
 20
745.9953905693
 10
2177.6504470807
 20
746.3116875759
  0
LINE
  5
4C5
330
1F
100
AcDbEntity
  8
0
  6
Continuous
 62
     7
370
    25
100
AcDbLine
 10
2213.00578614
 20
766.7218903715
 30
0.0
 11
2225.7337082013
 21
774.0695633779
 31
0.0
  0
LWPOLYLINE
  5
4C6
330
1F
100
AcDbEntity
  8
0
  6
Continuous
 62
     7
370
    25
100
AcDbPolyline
 90
       10
 70
   128
 43
0.0
 10
2225.7337082013
 20
774.0695633779
 10
2226.5801648706
 20
774.7305644392
 10
2227.3245263732
 20
775.6565430719
 10
2227.8770117263
 20
776.7358125869
 10
2228.1709830425
 20
777.8381971523
 10
2228.1709830425
 20
778.8307329202
 10
2227.8770117263
 20
779.5937054285
 10
2227.3245263732
 20
780.0350889326
 10
2226.5801648706
 20
780.1016460677
 10
2225.7337082013
 20
779.7853490611
  0
LINE
  5
4C7
330
1F
100
AcDbEntity
  8
0
  6
Continuous
 62
     7
370
    25
100
AcDbLine
 10
2225.7337082013
 20
779.7853490611
 30
0.0
 11
2213.00578614
 21
772.4376760547
 31
0.0
  0
LWPOLYLINE
  5
4C8
330
1F
100
AcDbEntity
  8
0
  6
Continuous
 62
     7
370
    25
100
AcDbPolyline
 90
       10
 70
   128
 43
0.0
 10
2213.00578614
 20
772.4376760547
 10
2212.1593294707
 20
771.7766749934
 10
2211.4149679681
 20
770.8506963607
 10
2210.8624826151
 20
769.7714268457
 10
2210.5685112989
 20
768.6690422803
 10
2210.5685112989
 20
767.6765065124
 10
2210.8624826151
 20
766.9135340041
 10
2211.4149679681
 20
766.4721505
 10
2212.1593294707
 20
766.4055933649
 10
2213.00578614
 20
766.7218903715
  0
LINE
  5
4C9
330
1F
100
AcDbEntity
  8
0
  6
Continuous
 62
     7
370
    25
100
AcDbLine
 10
2248.3611251993
 20
787.132093167
 30
0.0
 11
2261.0890472607
 21
794.4797661735
 31
0.0
  0
LWPOLYLINE
  5
4CA
330
1F
100
AcDbEntity
  8
0
  6
Continuous
 62
     7
370
    25
100
AcDbPolyline
 90
       10
 70
   128
 43
0.0
 10
2261.0890472607
 20
794.4797661735
 10
2261.9355039299
 20
795.1407672348
 10
2262.6798654325
 20
796.0667458675
 10
2263.2323507856
 20
797.1460153825
 10
2263.5263221018
 20
798.2483999479
 10
2263.5263221018
 20
799.2409357157
 10
2263.2323507856
 20
800.0039082241
 10
2262.6798654325
 20
800.4452917282
 10
2261.9355039299
 20
800.5118488633
 10
2261.0890472607
 20
800.1955518567
  0
LINE
  5
4CB
330
1F
100
AcDbEntity
  8
0
  6
Continuous
 62
     7
370
    25
100
AcDbLine
 10
2261.0890472607
 20
800.1955518567
 30
0.0
 11
2248.3611251993
 21
792.8478788503
 31
0.0
  0
LWPOLYLINE
  5
4CC
330
1F
100
AcDbEntity
  8
0
  6
Continuous
 62
     7
370
    25
100
AcDbPolyline
 90
       10
 70
   128
 43
0.0
 10
2248.3611251993
 20
792.8478788503
 10
2247.51466853
 20
792.1868777889
 10
2246.7703070275
 20
791.2608991562
 10
2246.2178216744
 20
790.1816296412
 10
2245.9238503582
 20
789.0792450758
 10
2245.9238503582
 20
788.086709308
 10
2246.2178216744
 20
787.3237367996
 10
2246.7703070275
 20
786.8823532956
 10
2247.51466853
 20
786.8157961604
 10
2248.3611251993
 20
787.132093167
  0
LINE
  5
4CD
330
1F
100
AcDbEntity
  8
0
  6
Continuous
 62
     7
370
    25
100
AcDbLine
 10
2283.7164642586
 20
807.5422959626
 30
0.0
 11
2296.44438632
 21
814.889968969
 31
0.0
  0
LWPOLYLINE
  5
4CE
330
1F
100
AcDbEntity
  8
0
  6
Continuous
 62
     7
370
    25
100
AcDbPolyline
 90
       10
 70
   128
 43
0.0
 10
2296.44438632
 20
814.889968969
 10
2297.2908429893
 20
815.5509700304
 10
2298.0352044919
 20
816.4769486631
 10
2298.5876898449
 20
817.556218178
 10
2298.8816611611
 20
818.6586027435
 10
2298.8816611611
 20
819.6511385113
 10
2298.5876898449
 20
820.4141110197
 10
2298.0352044919
 20
820.8554945238
 10
2297.2908429893
 20
820.9220516589
 10
2296.44438632
 20
820.6057546522
  0
LINE
  5
4CF
330
1F
100
AcDbEntity
  8
0
  6
Continuous
 62
     7
370
    25
100
AcDbLine
 10
2296.44438632
 20
820.6057546522
 30
0.0
 11
2283.7164642586
 21
813.2580816458
 31
0.0
  0
LWPOLYLINE
  5
4D0
330
1F
100
AcDbEntity
  8
0
  6
Continuous
 62
     7
370
    25
100
AcDbPolyline
 90
       10
 70
   128
 43
0.0
 10
2283.7164642586
 20
813.2580816458
 10
2282.8700075894
 20
812.5970805845
 10
2282.1256460868
 20
811.6711019518
 10
2281.5731607337
 20
810.5918324368
 10
2281.2791894175
 20
809.4894478714
 10
2281.2791894175
 20
808.4969121036
 10
2281.5731607337
 20
807.7339395952
 10
2282.1256460868
 20
807.2925560911
 10
2282.8700075894
 20
807.225998956
 10
2283.7164642586
 20
807.5422959626
  0
LINE
  5
4D1
330
1F
100
AcDbEntity
  8
0
  6
Continuous
 62
     7
370
    25
100
AcDbLine
 10
2319.071803318
 20
827.9524987582
 30
0.0
 11
2331.7997253793
 21
835.3001717646
 31
0.0
  0
LWPOLYLINE
  5
4D2
330
1F
100
AcDbEntity
  8
0
  6
Continuous
 62
     7
370
    25
100
AcDbPolyline
 90
       10
 70
   128
 43
0.0
 10
2331.7997253793
 20
835.3001717646
 10
2332.6461820486
 20
835.9611728259
 10
2333.3905435512
 20
836.8871514586
 10
2333.9430289043
 20
837.9664209736
 10
2334.2370002205
 20
839.068805539
 10
2334.2370002205
 20
840.0613413069
 10
2333.9430289043
 20
840.8243138152
 10
2333.3905435512
 20
841.2656973193
 10
2332.6461820486
 20
841.3322544544
 10
2331.7997253793
 20
841.0159574478
  0
LINE
  5
4D3
330
1F
100
AcDbEntity
  8
0
  6
Continuous
 62
     7
370
    25
100
AcDbLine
 10
2331.7997253793
 20
841.0159574478
 30
0.0
 11
2319.071803318
 21
833.6682844414
 31
0.0
  0
LWPOLYLINE
  5
4D4
330
1F
100
AcDbEntity
  8
0
  6
Continuous
 62
     7
370
    25
100
AcDbPolyline
 90
       10
 70
   128
 43
0.0
 10
2319.071803318
 20
833.6682844414
 10
2318.2253466487
 20
833.0072833801
 10
2317.4809851461
 20
832.0813047474
 10
2316.928499793
 20
831.0020352324
 10
2316.6345284769
 20
829.899650667
 10
2316.6345284769
 20
828.9071148991
 10
2316.928499793
 20
828.1441423908
 10
2317.4809851461
 20
827.7027588867
 10
2318.2253466487
 20
827.6362017516
 10
2319.071803318
 20
827.9524987582
  0
LINE
  5
4D5
330
1F
100
AcDbEntity
  8
0
  6
Continuous
 62
     7
370
    25
100
AcDbLine
 10
2354.4271423773
 20
848.3627015537
 30
0.0
 11
2367.1550644387
 21
855.7103745602
 31
0.0
  0
LWPOLYLINE
  5
4D6
330
1F
100
AcDbEntity
  8
0
  6
Continuous
 62
     7
370
    25
100
AcDbPolyline
 90
       10
 70
   128
 43
0.0
 10
2367.1550644387
 20
855.7103745602
 10
2368.0015211079
 20
856.3713756215
 10
2368.7458826105
 20
857.2973542542
 10
2369.2983679636
 20
858.3766237692
 10
2369.5923392798
 20
859.4790083346
 10
2369.5923392798
 20
860.4715441024
 10
2369.2983679636
 20
861.2345166108
 10
2368.7458826105
 20
861.6759001149
 10
2368.0015211079
 20
861.74245725
 10
2367.1550644387
 20
861.4261602434
  0
LINE
  5
4D7
330
1F
100
AcDbEntity
  8
0
  6
Continuous
 62
     7
370
    25
100
AcDbLine
 10
2367.1550644387
 20
861.4261602434
 30
0.0
 11
2354.4271423773
 21
854.078487237
 31
0.0
  0
LWPOLYLINE
  5
4D8
330
1F
100
AcDbEntity
  8
0
  6
Continuous
 62
     7
370
    25
100
AcDbPolyline
 90
       10
 70
   128
 43
0.0
 10
2354.4271423773
 20
854.078487237
 10
2353.580685708
 20
853.4174861756
 10
2352.8363242054
 20
852.4915075429
 10
2352.2838388524
 20
851.412238028
 10
2351.9898675362
 20
850.3098534625
 10
2351.9898675362
 20
849.3173176947
 10
2352.2838388524
 20
848.5543451864
 10
2352.8363242054
 20
848.1129616823
 10
2353.580685708
 20
848.0464045471
 10
2354.4271423773
 20
848.3627015537
  0
LINE
  5
4D9
330
1F
100
AcDbEntity
  8
0
  6
Continuous
 62
     7
370
    25
100
AcDbLine
 10
2389.7824814366
 20
868.7729043493
 30
0.0
 11
2402.510403498
 21
876.1205773557
 31
0.0
  0
LWPOLYLINE
  5
4DA
330
1F
100
AcDbEntity
  8
0
  6
Continuous
 62
     7
370
    25
100
AcDbPolyline
 90
       10
 70
   128
 43
0.0
 10
2402.510403498
 20
876.1205773557
 10
2403.3568601673
 20
876.7815784171
 10
2404.1012216698
 20
877.7075570498
 10
2404.6537070229
 20
878.7868265648
 10
2404.9476783391
 20
879.8892111302
 10
2404.9476783391
 20
880.881746898
 10
2404.6537070229
 20
881.6447194064
 10
2404.1012216698
 20
882.0861029105
 10
2403.3568601673
 20
882.1526600456
 10
2402.510403498
 20
881.8363630389
  0
LINE
  5
4DB
330
1F
100
AcDbEntity
  8
0
  6
Continuous
 62
     7
370
    25
100
AcDbLine
 10
2402.510403498
 20
881.8363630389
 30
0.0
 11
2389.7824814366
 21
874.4886900325
 31
0.0
  0
LWPOLYLINE
  5
4DC
330
1F
100
AcDbEntity
  8
0
  6
Continuous
 62
     7
370
    25
100
AcDbPolyline
 90
       10
 70
   128
 43
0.0
 10
2389.7824814366
 20
874.4886900325
 10
2388.9360247674
 20
873.8276889712
 10
2388.1916632648
 20
872.9017103385
 10
2387.6391779117
 20
871.8224408235
 10
2387.3452065955
 20
870.7200562581
 10
2387.3452065955
 20
869.7275204903
 10
2387.6391779117
 20
868.9645479819
 10
2388.1916632648
 20
868.5231644778
 10
2388.9360247674
 20
868.4566073427
 10
2389.7824814366
 20
868.7729043493
  0
LINE
  5
4DD
330
1F
100
AcDbEntity
  8
0
  6
Continuous
 62
     7
370
    25
100
AcDbLine
 10
2425.137820496
 20
889.1831071449
 30
0.0
 11
2437.8657425573
 21
896.5307801513
 31
0.0
  0
LWPOLYLINE
  5
4DE
330
1F
100
AcDbEntity
  8
0
  6
Continuous
 62
     7
370
    25
100
AcDbPolyline
 90
       10
 70
   128
 43
0.0
 10
2437.8657425573
 20
896.5307801513
 10
2438.7121992266
 20
897.1917812126
 10
2439.4565607292
 20
898.1177598453
 10
2440.0090460823
 20
899.1970293603
 10
2440.3030173984
 20
900.2994139258
 10
2440.3030173984
 20
901.2919496936
 10
2440.0090460823
 20
902.0549222019
 10
2439.4565607292
 20
902.496305706
 10
2438.7121992266
 20
902.5628628411
 10
2437.8657425573
 20
902.2465658345
  0
LINE
  5
4DF
330
1F
100
AcDbEntity
  8
0
  6
Continuous
 62
     7
370
    25
100
AcDbLine
 10
2437.8657425573
 20
902.2465658345
 30
0.0
 11
2425.137820496
 21
894.8988928281
 31
0.0
  0
LWPOLYLINE
  5
4E0
330
1F
100
AcDbEntity
  8
0
  6
Continuous
 62
     7
370
    25
100
AcDbPolyline
 90
       10
 70
   128
 43
0.0
 10
2425.137820496
 20
894.8988928281
 10
2424.2913638267
 20
894.2378917668
 10
2423.5470023241
 20
893.3119131341
 10
2422.994516971
 20
892.2326436191
 10
2422.7005456548
 20
891.1302590537
 10
2422.7005456548
 20
890.1377232858
 10
2422.994516971
 20
889.3747507775
 10
2423.5470023241
 20
888.9333672734
 10
2424.2913638267
 20
888.8668101383
 10
2425.137820496
 20
889.1831071449
  0
LINE
  5
4E1
330
1F
100
AcDbEntity
  8
0
  6
Continuous
 62
     7
370
    25
100
AcDbLine
 10
2460.4931595553
 20
909.5933099404
 30
0.0
 11
2473.2210816166
 21
916.9409829469
 31
0.0
  0
LWPOLYLINE
  5
4E2
330
1F
100
AcDbEntity
  8
0
  6
Continuous
 62
     7
370
    25
100
AcDbPolyline
 90
       10
 70
   128
 43
0.0
 10
2473.2210816166
 20
916.9409829469
 10
2474.0675382859
 20
917.6019840082
 10
2474.8118997885
 20
918.5279626409
 10
2475.3643851416
 20
919.6072321559
 10
2475.6583564578
 20
920.7096167213
 10
2475.6583564578
 20
921.7021524891
 10
2475.3643851416
 20
922.4651249975
 10
2474.8118997885
 20
922.9065085016
 10
2474.0675382859
 20
922.9730656367
 10
2473.2210816166
 20
922.6567686301
  0
LINE
  5
4E3
330
1F
100
AcDbEntity
  8
0
  6
Continuous
 62
     7
370
    25
100
AcDbLine
 10
2473.2210816166
 20
922.6567686301
 30
0.0
 11
2460.4931595553
 21
915.3090956237
 31
0.0
  0
LWPOLYLINE
  5
4E4
330
1F
100
AcDbEntity
  8
0
  6
Continuous
 62
     7
370
    25
100
AcDbPolyline
 90
       10
 70
   128
 43
0.0
 10
2460.4931595553
 20
915.3090956237
 10
2459.646702886
 20
914.6480945623
 10
2458.9023413834
 20
913.7221159296
 10
2458.3498560303
 20
912.6428464147
 10
2458.0558847142
 20
911.5404618492
 10
2458.0558847142
 20
910.5479260814
 10
2458.3498560303
 20
909.7849535731
 10
2458.9023413834
 20
909.343570069
 10
2459.646702886
 20
909.2770129338
 10
2460.4931595553
 20
909.5933099404
  0
LINE
  5
4E5
330
1F
100
AcDbEntity
  8
0
  6
Continuous
 62
     7
370
    25
100
AcDbLine
 10
2495.8484986146
 20
930.003512736
 30
0.0
 11
2508.576420676
 21
937.3511857424
 31
0.0
  0
LWPOLYLINE
  5
4E6
330
1F
100
AcDbEntity
  8
0
  6
Continuous
 62
     7
370
    25
100
AcDbPolyline
 90
       10
 70
   128
 43
0.0
 10
2508.576420676
 20
937.3511857424
 10
2509.4228773452
 20
938.0121868038
 10
2510.1672388478
 20
938.9381654365
 10
2510.7197242009
 20
940.0174349515
 10
2511.0136955171
 20
941.1198195169
 10
2511.0136955171
 20
942.1123552847
 10
2510.7197242009
 20
942.8753277931
 10
2510.1672388478
 20
943.3167112972
 10
2509.4228773452
 20
943.3832684323
 10
2508.576420676
 20
943.0669714256
  0
LINE
  5
4E7
330
1F
100
AcDbEntity
  8
0
  6
Continuous
 62
     7
370
    25
100
AcDbLine
 10
2508.576420676
 20
943.0669714256
 30
0.0
 11
2495.8484986146
 21
935.7192984192
 31
0.0
  0
LWPOLYLINE
  5
4E8
330
1F
100
AcDbEntity
  8
0
  6
Continuous
 62
     7
370
    25
100
AcDbPolyline
 90
       10
 70
   128
 43
0.0
 10
2495.8484986146
 20
935.7192984192
 10
2495.0020419453
 20
935.0582973579
 10
2494.2576804428
 20
934.1323187252
 10
2493.7051950897
 20
933.0530492102
 10
2493.4112237735
 20
931.9506646448
 10
2493.4112237735
 20
930.958128877
 10
2493.7051950897
 20
930.1951563686
 10
2494.2576804428
 20
929.7537728645
 10
2495.0020419453
 20
929.6872157294
 10
2495.8484986146
 20
930.003512736
  0
LINE
  5
4E9
330
1F
100
AcDbEntity
  8
0
  6
Continuous
 62
     7
370
    25
100
AcDbLine
 10
2531.2038376739
 20
950.4137155316
 30
0.0
 11
2543.9317597353
 21
957.761388538
 31
0.0
  0
LWPOLYLINE
  5
4EA
330
1F
100
AcDbEntity
  8
0
  6
Continuous
 62
     7
370
    25
100
AcDbPolyline
 90
       10
 70
   128
 43
0.0
 10
2543.9317597353
 20
957.761388538
 10
2544.7782164046
 20
958.4223895993
 10
2545.5225779072
 20
959.348368232
 10
2546.0750632602
 20
960.427637747
 10
2546.3690345764
 20
961.5300223125
 10
2546.3690345764
 20
962.5225580803
 10
2546.0750632602
 20
963.2855305886
 10
2545.5225779072
 20
963.7269140927
 10
2544.7782164046
 20
963.7934712279
 10
2543.9317597353
 20
963.4771742212
  0
LINE
  5
4EB
330
1F
100
AcDbEntity
  8
0
  6
Continuous
 62
     7
370
    25
100
AcDbLine
 10
2543.9317597353
 20
963.4771742212
 30
0.0
 11
2531.2038376739
 21
956.1295012148
 31
0.0
  0
LWPOLYLINE
  5
4EC
330
1F
100
AcDbEntity
  8
0
  6
Continuous
 62
     7
370
    25
100
AcDbPolyline
 90
       10
 70
   128
 43
0.0
 10
2531.2038376739
 20
956.1295012148
 10
2530.3573810047
 20
955.4685001535
 10
2529.6130195021
 20
954.5425215208
 10
2529.060534149
 20
953.4632520058
 10
2528.7665628328
 20
952.3608674404
 10
2528.7665628328
 20
951.3683316725
 10
2529.060534149
 20
950.6053591642
 10
2529.6130195021
 20
950.1639756601
 10
2530.3573810047
 20
950.097418525
 10
2531.2038376739
 20
950.4137155316
  0
LINE
  5
4ED
330
1F
100
AcDbEntity
  8
0
  6
Continuous
 62
     7
370
    25
100
AcDbLine
 10
2566.5591767333
 20
970.8239183272
 30
0.0
 11
2579.2870987946
 21
978.1715913336
 31
0.0
  0
LWPOLYLINE
  5
4EE
330
1F
100
AcDbEntity
  8
0
  6
Continuous
 62
     7
370
    25
100
AcDbPolyline
 90
       10
 70
   128
 43
0.0
 10
2579.2870987946
 20
978.1715913336
 10
2580.1335554639
 20
978.8325923949
 10
2580.8779169665
 20
979.7585710276
 10
2581.4304023196
 20
980.8378405426
 10
2581.7243736357
 20
981.940225108
 10
2581.7243736357
 20
982.9327608758
 10
2581.4304023196
 20
983.6957333842
 10
2580.8779169665
 20
984.1371168883
 10
2580.1335554639
 20
984.2036740234
 10
2579.2870987946
 20
983.8873770168
  0
LINE
  5
4EF
330
1F
100
AcDbEntity
  8
0
  6
Continuous
 62
     7
370
    25
100
AcDbLine
 10
2579.2870987946
 20
983.8873770168
 30
0.0
 11
2566.5591767333
 21
976.5397040104
 31
0.0
  0
LWPOLYLINE
  5
4F0
330
1F
100
AcDbEntity
  8
0
  6
Continuous
 62
     7
370
    25
100
AcDbPolyline
 90
       10
 70
   128
 43
0.0
 10
2566.5591767333
 20
976.5397040104
 10
2565.712720064
 20
975.878702949
 10
2564.9683585614
 20
974.9527243163
 10
2564.4158732083
 20
973.8734548014
 10
2564.1219018921
 20
972.7710702359
 10
2564.1219018921
 20
971.7785344681
 10
2564.4158732083
 20
971.0155619598
 10
2564.9683585614
 20
970.5741784557
 10
2565.712720064
 20
970.5076213205
 10
2566.5591767333
 20
970.8239183272
  0
LINE
  5
4F1
330
1F
100
AcDbEntity
  8
0
  6
Continuous
 62
     7
370
    25
100
AcDbLine
 10
2601.9145157926
 20
991.2341211227
 30
0.0
 11
2614.6424378539
 21
998.5817941291
 31
0.0
  0
LWPOLYLINE
  5
4F2
330
1F
100
AcDbEntity
  8
0
  6
Continuous
 62
     7
370
    25
100
AcDbPolyline
 90
       10
 70
   128
 43
0.0
 10
2614.6424378539
 20
998.5817941291
 10
2615.4888945232
 20
999.2427951905
 10
2616.2332560258
 20
1000.1687738232
 10
2616.7857413789
 20
1001.2480433382
 10
2617.0797126951
 20
1002.3504279036
 10
2617.0797126951
 20
1003.3429636714
 10
2616.7857413789
 20
1004.1059361798
 10
2616.2332560258
 20
1004.5473196839
 10
2615.4888945232
 20
1004.613876819
 10
2614.6424378539
 20
1004.2975798123
  0
LINE
  5
4F3
330
1F
100
AcDbEntity
  8
0
  6
Continuous
 62
     7
370
    25
100
AcDbLine
 10
2614.6424378539
 20
1004.2975798123
 30
0.0
 11
2601.9145157926
 21
996.9499068059
 31
0.0
  0
LWPOLYLINE
  5
4F4
330
1F
100
AcDbEntity
  8
0
  6
Continuous
 62
     7
370
    25
100
AcDbPolyline
 90
       10
 70
   128
 43
0.0
 10
2601.9145157926
 20
996.9499068059
 10
2601.0680591233
 20
996.2889057446
 10
2600.3236976207
 20
995.3629271119
 10
2599.7712122677
 20
994.2836575969
 10
2599.4772409515
 20
993.1812730315
 10
2599.4772409515
 20
992.1887372637
 10
2599.7712122677
 20
991.4257647553
 10
2600.3236976207
 20
990.9843812512
 10
2601.0680591233
 20
990.9178241161
 10
2601.9145157926
 20
991.2341211227
  0
LINE
  5
4F5
330
1F
100
AcDbEntity
  8
0
  6
Continuous
 62
     7
370
    25
100
AcDbLine
 10
1210.6819238081
 20
179.5187635422
 30
0.0
 11
1210.6819238081
 21
206.0563399285
 31
0.0
  0
LWPOLYLINE
  5
4F6
330
1F
100
AcDbEntity
  8
0
  6
Continuous
 62
     7
370
    25
100
AcDbPolyline
 90
        3
 70
   128
 43
0.0
 10
1243.5623891332
 20
168.7010243104
 10
1242.8651856128
 20
168.1262132677
 10
1242.7019016797
 20
167.8847157237
  0
LINE
  5
4F7
330
1F
100
AcDbEntity
  8
0
  6
Continuous
 62
     7
370
    25
100
AcDbLine
 10
1244.9766026956
 20
169.5174324223
 30
0.0
 11
1243.5623891332
 21
168.7010243104
 31
0.0
  0
LWPOLYLINE
  5
4F8
330
1F
100
AcDbEntity
  8
0
  6
Continuous
 62
     7
370
    25
100
AcDbPolyline
 90
        3
 70
   128
 43
0.0
 10
1220.8583762137
 20
195.5116009989
 10
1221.1491756378
 20
195.5322211728
 10
1221.995632307
 20
195.8485181795
  0
LWPOLYLINE
  5
4F9
330
1F
100
AcDbEntity
  8
0
  6
Continuous
 62
     7
370
    25
100
AcDbPolyline
 90
        3
 70
   128
 43
0.0
 10
1291.6456502539
 20
196.4608242633
 10
1290.7991935846
 20
196.1445272567
 10
1290.5083941607
 20
196.1239070827
  0
LINE
  5
4FA
330
1F
100
AcDbEntity
  8
0
  6
Continuous
 62
     7
370
    25
100
AcDbLine
 10
1244.9766026956
 20
175.6404932609
 30
0.0
 11
1241.0875153991
 21
177.8856155684
 31
0.0
  0
LWPOLYLINE
  5
4FB
330
1F
100
AcDbEntity
  8
0
  6
Continuous
 62
     7
370
    25
100
AcDbPolyline
 90
        3
 70
   128
 43
0.0
 10
1225.8847196036
 20
178.9061257082
 10
1225.1875160831
 20
178.3313146655
 10
1225.02423215
 20
178.0898171214
  0
LINE
  5
4FC
330
1F
100
AcDbEntity
  8
0
  6
Continuous
 62
     7
370
    25
100
AcDbLine
 10
1239.6733018367
 20
177.8856155684
 30
0.0
 11
1236.4914937225
 21
176.0487968419
 31
0.0
  0
LINE
  5
4FD
330
1F
100
AcDbEntity
  8
0
  6
Continuous
 62
     7
370
    25
100
AcDbLine
 10
1210.6819238081
 20
177.4774115125
 30
0.0
 11
1210.6819238081
 21
179.5187635422
 31
0.0
  0
LINE
  5
4FE
330
1F
100
AcDbEntity
  8
0
  6
Continuous
 62
     7
370
    25
100
AcDbLine
 10
1212.449690761
 20
176.4569013728
 30
0.0
 11
1210.6819238081
 21
177.4774115125
 31
0.0
  0
ARC
  5
4FF
330
1F
100
AcDbEntity
  8
0
  6
Continuous
 62
     7
370
    25
100
AcDbCircle
 10
1240.3804086179
 20
176.5209044835
 30
0.0
 40
1.537021907911218
100
AcDbArc
 50
62.6096722366
 51
117.3903277634
  0
LINE
  5
500
330
1F
100
AcDbEntity
  8
0
  6
Continuous
 62
     7
370
    25
100
AcDbLine
 10
1221.995632307
 20
195.8485181795
 30
0.0
 11
1234.7235543684
 21
203.1961911859
 31
0.0
  0
LINE
  5
501
330
1F
100
AcDbEntity
  8
0
  6
Continuous
 62
     7
370
    25
100
AcDbLine
 10
1304.3735723153
 20
203.8084972697
 30
0.0
 11
1291.6456502539
 21
196.4608242633
 31
0.0
  0
LINE
  5
502
330
1F
100
AcDbEntity
  8
0
  6
Continuous
 62
     7
370
    25
100
AcDbLine
 10
1243.4280385687
 20
189.033668176
 30
0.0
 11
1225.8847196036
 21
178.9061257082
 31
0.0
  0
ARC
  5
503
330
1F
100
AcDbEntity
  8
0
  6
Continuous
 62
     7
370
    25
100
AcDbCircle
 10
1232.5503048798
 20
207.2383590284
 30
0.0
 40
4.589350085446477
100
AcDbArc
 50
298.2644546683
 51
17.7382019335
  0
ARC
  5
504
330
1F
100
AcDbEntity
  8
0
  6
Continuous
 62
     7
370
    25
100
AcDbCircle
 10
1302.2003228267
 20
207.8506651123
 30
0.0
 40
4.589350085461249
100
AcDbArc
 50
298.2644546684
 51
17.7382019331
  0
LWPOLYLINE
  5
505
330
1F
100
AcDbEntity
  8
0
  6
Continuous
 62
     7
370
    25
100
AcDbPolyline
 90
        3
 70
   128
 43
0.0
 10
1256.2137152732
 20
215.9218037944
 10
1256.5045146971
 20
215.9424239684
 10
1257.3509713664
 20
216.258720975
  0
LWPOLYLINE
  5
506
330
1F
100
AcDbEntity
  8
0
  6
Continuous
 62
     7
370
    25
100
AcDbPolyline
 90
        3
 70
   128
 43
0.0
 10
1327.0009893132
 20
216.8710270589
 10
1326.154532644
 20
216.5547300523
 10
1325.86373322
 20
216.5341098783
  0
LINE
  5
507
330
1F
100
AcDbEntity
  8
0
  6
Continuous
 62
     7
370
    25
100
AcDbLine
 10
1257.3509713664
 20
216.258720975
 30
0.0
 11
1270.0788934277
 21
223.6063939814
 31
0.0
  0
LINE
  5
508
330
1F
100
AcDbEntity
  8
0
  6
Continuous
 62
     7
370
    25
100
AcDbLine
 10
1339.7289113746
 20
224.2187000653
 30
0.0
 11
1327.0009893132
 21
216.8710270589
 31
0.0
  0
ARC
  5
509
330
1F
100
AcDbEntity
  8
0
  6
Continuous
 62
     7
370
    25
100
AcDbCircle
 10
1267.9056439391
 20
227.648561824
 30
0.0
 40
4.589350085468337
100
AcDbArc
 50
298.2644546684
 51
17.7382019328
  0
ARC
  5
50A
330
1F
100
AcDbEntity
  8
0
  6
Continuous
 62
     7
370
    25
100
AcDbCircle
 10
1337.555661886
 20
228.2608679078
 30
0.0
 40
4.589350085426585
100
AcDbArc
 50
298.2644546682
 51
17.7382019342
  0
LWPOLYLINE
  5
50B
330
1F
100
AcDbEntity
  8
0
  6
Continuous
 62
     7
370
    25
100
AcDbPolyline
 90
        3
 70
   128
 43
0.0
 10
1291.5690543324
 20
236.33200659
 10
1291.8598537564
 20
236.352626764
 10
1292.7063104257
 20
236.6689237706
  0
LWPOLYLINE
  5
50C
330
1F
100
AcDbEntity
  8
0
  6
Continuous
 62
     7
370
    25
100
AcDbPolyline
 90
        3
 70
   128
 43
0.0
 10
1362.3563283726
 20
237.2812298545
 10
1361.5098717033
 20
236.9649328478
 10
1361.2190722793
 20
236.9443126739
  0
LINE
  5
50D
330
1F
100
AcDbEntity
  8
0
  6
Continuous
 62
     7
370
    25
100
AcDbLine
 10
1292.7063104257
 20
236.6689237706
 30
0.0
 11
1305.4342324871
 21
244.016596777
 31
0.0
  0
LINE
  5
50E
330
1F
100
AcDbEntity
  8
0
  6
Continuous
 62
     7
370
    25
100
AcDbLine
 10
1375.0842504339
 20
244.6289028609
 30
0.0
 11
1362.3563283726
 21
237.2812298545
 31
0.0
  0
ARC
  5
50F
330
1F
100
AcDbEntity
  8
0
  6
Continuous
 62
     7
370
    25
100
AcDbCircle
 10
1303.2609829985
 20
248.0587646195
 30
0.0
 40
4.589350085442594
100
AcDbArc
 50
298.2644546683
 51
17.7382019336
  0
ARC
  5
510
330
1F
100
AcDbEntity
  8
0
  6
Continuous
 62
     7
370
    25
100
AcDbCircle
 10
1372.9110009454
 20
248.6710707034
 30
0.0
 40
4.589350085446709
100
AcDbArc
 50
298.2644546683
 51
17.7382019337
  0
LWPOLYLINE
  5
511
330
1F
100
AcDbEntity
  8
0
  6
Continuous
 62
     7
370
    25
100
AcDbPolyline
 90
        3
 70
   128
 43
0.0
 10
1326.9243933918
 20
256.7422093856
 10
1327.2151928158
 20
256.7628295595
 10
1328.061649485
 20
257.0791265662
  0
LWPOLYLINE
  5
512
330
1F
100
AcDbEntity
  8
0
  6
Continuous
 62
     7
370
    25
100
AcDbPolyline
 90
        3
 70
   128
 43
0.0
 10
1397.7116674319
 20
257.69143265
 10
1396.8652107626
 20
257.3751356434
 10
1396.5744113386
 20
257.3545154694
  0
LINE
  5
513
330
1F
100
AcDbEntity
  8
0
  6
Continuous
 62
     7
370
    25
100
AcDbLine
 10
1328.061649485
 20
257.0791265662
 30
0.0
 11
1340.7895715464
 21
264.4267995726
 31
0.0
  0
LINE
  5
514
330
1F
100
AcDbEntity
  8
0
  6
Continuous
 62
     7
370
    25
100
AcDbLine
 10
1410.4395894933
 20
265.0391056564
 30
0.0
 11
1397.7116674319
 21
257.69143265
 31
0.0
  0
ARC
  5
515
330
1F
100
AcDbEntity
  8
0
  6
Continuous
 62
     7
370
    25
100
AcDbCircle
 10
1338.6163220578
 20
268.4689674151
 30
0.0
 40
4.589350085429611
100
AcDbArc
 50
298.2644546682
 51
17.7382019341
  0
ARC
  5
516
330
1F
100
AcDbEntity
  8
0
  6
Continuous
 62
     7
370
    25
100
AcDbCircle
 10
1408.2663400047
 20
269.081273499
 30
0.0
 40
4.589350085444207
100
AcDbArc
 50
298.2644546683
 51
17.7382019338
  0
LWPOLYLINE
  5
517
330
1F
100
AcDbEntity
  8
0
  6
Continuous
 62
     7
370
    25
100
AcDbPolyline
 90
        3
 70
   128
 43
0.0
 10
1362.2797324511
 20
277.1524121811
 10
1362.5705318751
 20
277.1730323551
 10
1363.4169885444
 20
277.4893293617
  0
LWPOLYLINE
  5
518
330
1F
100
AcDbEntity
  8
0
  6
Continuous
 62
     7
370
    25
100
AcDbPolyline
 90
        3
 70
   128
 43
0.0
 10
1433.0670064912
 20
278.1016354456
 10
1432.220549822
 20
277.785338439
 10
1431.929750398
 20
277.764718265
  0
LINE
  5
519
330
1F
100
AcDbEntity
  8
0
  6
Continuous
 62
     7
370
    25
100
AcDbLine
 10
1363.4169885444
 20
277.4893293617
 30
0.0
 11
1376.1449106057
 21
284.8370023681
 31
0.0
  0
LINE
  5
51A
330
1F
100
AcDbEntity
  8
0
  6
Continuous
 62
     7
370
    25
100
AcDbLine
 10
1445.7949285526
 20
285.449308452
 30
0.0
 11
1433.0670064912
 21
278.1016354456
 31
0.0
  0
ARC
  5
51B
330
1F
100
AcDbEntity
  8
0
  6
Continuous
 62
     7
370
    25
100
AcDbCircle
 10
1373.9716611171
 20
288.8791702107
 30
0.0
 40
4.589350085467887
100
AcDbArc
 50
298.2644546684
 51
17.7382019329
  0
ARC
  5
51C
330
1F
100
AcDbEntity
  8
0
  6
Continuous
 62
     7
370
    25
100
AcDbCircle
 10
1443.621679064
 20
289.4914762945
 30
0.0
 40
4.589350085453153
100
AcDbArc
 50
298.2644546684
 51
17.7382019336
  0
LWPOLYLINE
  5
51D
330
1F
100
AcDbEntity
  8
0
  6
Continuous
 62
     7
370
    25
100
AcDbPolyline
 90
        3
 70
   128
 43
0.0
 10
1397.6350715104
 20
297.5626149767
 10
1397.9258709344
 20
297.5832351507
 10
1398.7723276037
 20
297.8995321573
  0
LWPOLYLINE
  5
51E
330
1F
100
AcDbEntity
  8
0
  6
Continuous
 62
     7
370
    25
100
AcDbPolyline
 90
        3
 70
   128
 43
0.0
 10
1468.4223455506
 20
298.5118382412
 10
1467.5758888813
 20
298.1955412345
 10
1467.2850894573
 20
298.1749210606
  0
LINE
  5
51F
330
1F
100
AcDbEntity
  8
0
  6
Continuous
 62
     7
370
    25
100
AcDbLine
 10
1398.7723276037
 20
297.8995321573
 30
0.0
 11
1411.500249665
 21
305.2472051637
 31
0.0
  0
LINE
  5
520
330
1F
100
AcDbEntity
  8
0
  6
Continuous
 62
     7
370
    25
100
AcDbLine
 10
1481.1502676119
 20
305.8595112476
 30
0.0
 11
1468.4223455506
 21
298.5118382412
 31
0.0
  0
ARC
  5
521
330
1F
100
AcDbEntity
  8
0
  6
Continuous
 62
     7
370
    25
100
AcDbCircle
 10
1409.3270001765
 20
309.2893730062
 30
0.0
 40
4.589350085443321
100
AcDbArc
 50
298.2644546683
 51
17.7382019336
  0
ARC
  5
522
330
1F
100
AcDbEntity
  8
0
  6
Continuous
 62
     7
370
    25
100
AcDbCircle
 10
1478.9770181233
 20
309.9016790901
 30
0.0
 40
4.589350085469709
100
AcDbArc
 50
298.2644546685
 51
17.7382019332
  0
LWPOLYLINE
  5
523
330
1F
100
AcDbEntity
  8
0
  6
Continuous
 62
     7
370
    25
100
AcDbPolyline
 90
        3
 70
   128
 43
0.0
 10
1432.9904105698
 20
317.9728177723
 10
1433.2812099937
 20
317.9934379462
 10
1434.127666663
 20
318.3097349529
  0
LWPOLYLINE
  5
524
330
1F
100
AcDbEntity
  8
0
  6
Continuous
 62
     7
370
    25
100
AcDbPolyline
 90
        3
 70
   128
 43
0.0
 10
1503.7776846099
 20
318.9220410367
 10
1502.9312279406
 20
318.6057440301
 10
1502.6404285167
 20
318.5851238561
  0
LINE
  5
525
330
1F
100
AcDbEntity
  8
0
  6
Continuous
 62
     7
370
    25
100
AcDbLine
 10
1434.127666663
 20
318.3097349529
 30
0.0
 11
1446.8555887244
 21
325.6574079593
 31
0.0
  0
LINE
  5
526
330
1F
100
AcDbEntity
  8
0
  6
Continuous
 62
     7
370
    25
100
AcDbLine
 10
1516.5056066712
 20
326.2697140431
 30
0.0
 11
1503.7776846099
 21
318.9220410367
 31
0.0
  0
ARC
  5
527
330
1F
100
AcDbEntity
  8
0
  6
Continuous
 62
     7
370
    25
100
AcDbCircle
 10
1444.6823392358
 20
329.6995758018
 30
0.0
 40
4.589350085436771
100
AcDbArc
 50
298.2644546682
 51
17.7382019338
  0
ARC
  5
528
330
1F
100
AcDbEntity
  8
0
  6
Continuous
 62
     7
370
    25
100
AcDbCircle
 10
1514.3323571827
 20
330.3118818857
 30
0.0
 40
4.589350085451367
100
AcDbArc
 50
298.2644546684
 51
17.7382019338
  0
LWPOLYLINE
  5
529
330
1F
100
AcDbEntity
  8
0
  6
Continuous
 62
     7
370
    25
100
AcDbPolyline
 90
        3
 70
   128
 43
0.0
 10
1468.3457496291
 20
338.3830205678
 10
1468.6365490531
 20
338.4036407418
 10
1469.4830057223
 20
338.7199377484
  0
LWPOLYLINE
  5
52A
330
1F
100
AcDbEntity
  8
0
  6
Continuous
 62
     7
370
    25
100
AcDbPolyline
 90
        3
 70
   128
 43
0.0
 10
1539.1330236692
 20
339.3322438323
 10
1538.2865669999
 20
339.0159468257
 10
1537.9957675759
 20
338.9953266517
  0
LINE
  5
52B
330
1F
100
AcDbEntity
  8
0
  6
Continuous
 62
     7
370
    25
100
AcDbLine
 10
1469.4830057223
 20
338.7199377484
 30
0.0
 11
1482.2109277837
 21
346.0676107548
 31
0.0
  0
LINE
  5
52C
330
1F
100
AcDbEntity
  8
0
  6
Continuous
 62
     7
370
    25
100
AcDbLine
 10
1551.8609457306
 20
346.6799168387
 30
0.0
 11
1539.1330236692
 21
339.3322438323
 31
0.0
  0
ARC
  5
52D
330
1F
100
AcDbEntity
  8
0
  6
Continuous
 62
     7
370
    25
100
AcDbCircle
 10
1480.0376782951
 20
350.1097785974
 30
0.0
 40
4.589350085433176
100
AcDbArc
 50
298.2644546682
 51
17.7382019339
  0
ARC
  5
52E
330
1F
100
AcDbEntity
  8
0
  6
Continuous
 62
     7
370
    25
100
AcDbCircle
 10
1549.687696242
 20
350.7220846812
 30
0.0
 40
4.589350085461629
100
AcDbArc
 50
298.2644546685
 51
17.7382019335
  0
LWPOLYLINE
  5
52F
330
1F
100
AcDbEntity
  8
0
  6
Continuous
 62
     7
370
    25
100
AcDbPolyline
 90
        3
 70
   128
 43
0.0
 10
1503.7010886884
 20
358.7932233634
 10
1503.9918881124
 20
358.8138435374
 10
1504.8383447817
 20
359.130140544
  0
LWPOLYLINE
  5
530
330
1F
100
AcDbEntity
  8
0
  6
Continuous
 62
     7
370
    25
100
AcDbPolyline
 90
        3
 70
   128
 43
0.0
 10
1574.4883627285
 20
359.7424466279
 10
1573.6419060593
 20
359.4261496212
 10
1573.3511066353
 20
359.4055294473
  0
LINE
  5
531
330
1F
100
AcDbEntity
  8
0
  6
Continuous
 62
     7
370
    25
100
AcDbLine
 10
1504.8383447817
 20
359.130140544
 30
0.0
 11
1517.566266843
 21
366.4778135504
 31
0.0
  0
LINE
  5
532
330
1F
100
AcDbEntity
  8
0
  6
Continuous
 62
     7
370
    25
100
AcDbLine
 10
1587.2162847899
 20
367.0901196343
 30
0.0
 11
1574.4883627285
 21
359.7424466279
 31
0.0
  0
ARC
  5
533
330
1F
100
AcDbEntity
  8
0
  6
Continuous
 62
     7
370
    25
100
AcDbCircle
 10
1515.3930173545
 20
370.5199813929
 30
0.0
 40
4.589350085437514
100
AcDbArc
 50
298.2644546682
 51
17.7382019338
  0
ARC
  5
534
330
1F
100
AcDbEntity
  8
0
  6
Continuous
 62
     7
370
    25
100
AcDbCircle
 10
1585.0430353013
 20
371.1322874768
 30
0.0
 40
4.589350085461668
100
AcDbArc
 50
298.2644546685
 51
17.7382019336
  0
LWPOLYLINE
  5
535
330
1F
100
AcDbEntity
  8
0
  6
Continuous
 62
     7
370
    25
100
AcDbPolyline
 90
        3
 70
   128
 43
0.0
 10
1539.0564277478
 20
379.203426159
 10
1539.3472271717
 20
379.2240463329
 10
1540.193683841
 20
379.5403433396
  0
LWPOLYLINE
  5
536
330
1F
100
AcDbEntity
  8
0
  6
Continuous
 62
     7
370
    25
100
AcDbPolyline
 90
        3
 70
   128
 43
0.0
 10
1609.8437017879
 20
380.1526494234
 10
1608.9972451186
 20
379.8363524168
 10
1608.7064456946
 20
379.8157322428
  0
LINE
  5
537
330
1F
100
AcDbEntity
  8
0
  6
Continuous
 62
     7
370
    25
100
AcDbLine
 10
1540.193683841
 20
379.5403433396
 30
0.0
 11
1552.9216059023
 21
386.888016346
 31
0.0
  0
LINE
  5
538
330
1F
100
AcDbEntity
  8
0
  6
Continuous
 62
     7
370
    25
100
AcDbLine
 10
1622.5716238492
 20
387.5003224298
 30
0.0
 11
1609.8437017879
 21
380.1526494234
 31
0.0
  0
ARC
  5
539
330
1F
100
AcDbEntity
  8
0
  6
Continuous
 62
     7
370
    25
100
AcDbCircle
 10
1550.7483564138
 20
390.9301841885
 30
0.0
 40
4.589350085439397
100
AcDbArc
 50
298.2644546682
 51
17.7382019338
  0
ARC
  5
53A
330
1F
100
AcDbEntity
  8
0
  6
Continuous
 62
     7
370
    25
100
AcDbCircle
 10
1620.3983743606
 20
391.5424902724
 30
0.0
 40
4.589350085467049
100
AcDbArc
 50
298.2644546685
 51
17.7382019335
  0
LWPOLYLINE
  5
53B
330
1F
100
AcDbEntity
  8
0
  6
Continuous
 62
     7
370
    25
100
AcDbPolyline
 90
        3
 70
   128
 43
0.0
 10
1574.4117668071
 20
399.6136289545
 10
1574.702566231
 20
399.6342491285
 10
1575.5490229003
 20
399.9505461351
  0
LWPOLYLINE
  5
53C
330
1F
100
AcDbEntity
  8
0
  6
Continuous
 62
     7
370
    25
100
AcDbPolyline
 90
        3
 70
   128
 43
0.0
 10
1645.1990408472
 20
400.562852219
 10
1644.3525841779
 20
400.2465552124
 10
1644.0617847539
 20
400.2259350384
  0
LINE
  5
53D
330
1F
100
AcDbEntity
  8
0
  6
Continuous
 62
     7
370
    25
100
AcDbLine
 10
1575.5490229003
 20
399.9505461351
 30
0.0
 11
1588.2769449617
 21
407.2982191415
 31
0.0
  0
LINE
  5
53E
330
1F
100
AcDbEntity
  8
0
  6
Continuous
 62
     7
370
    25
100
AcDbLine
 10
1657.9269629085
 20
407.9105252254
 30
0.0
 11
1645.1990408472
 21
400.562852219
 31
0.0
  0
ARC
  5
53F
330
1F
100
AcDbEntity
  8
0
  6
Continuous
 62
     7
370
    25
100
AcDbCircle
 10
1586.1036954731
 20
411.3403869841
 30
0.0
 40
4.589350085434647
100
AcDbArc
 50
298.2644546682
 51
17.7382019339
  0
ARC
  5
540
330
1F
100
AcDbEntity
  8
0
  6
Continuous
 62
     7
370
    25
100
AcDbCircle
 10
1655.7537134199
 20
411.952693068
 30
0.0
 40
4.589350085476987
100
AcDbArc
 50
298.2644546686
 51
17.7382019333
  0
LWPOLYLINE
  5
541
330
1F
100
AcDbEntity
  8
0
  6
Continuous
 62
     7
370
    25
100
AcDbPolyline
 90
        3
 70
   128
 43
0.0
 10
1609.7671058664
 20
420.0238317501
 10
1610.0579052904
 20
420.0444519241
 10
1610.9043619596
 20
420.3607489307
  0
LWPOLYLINE
  5
542
330
1F
100
AcDbEntity
  8
0
  6
Continuous
 62
     7
370
    25
100
AcDbPolyline
 90
        3
 70
   128
 43
0.0
 10
1680.5543799065
 20
420.9730550146
 10
1679.7079232372
 20
420.6567580079
 10
1679.4171238133
 20
420.636137834
  0
LINE
  5
543
330
1F
100
AcDbEntity
  8
0
  6
Continuous
 62
     7
370
    25
100
AcDbLine
 10
1610.9043619596
 20
420.3607489307
 30
0.0
 11
1623.632284021
 21
427.7084219371
 31
0.0
  0
LINE
  5
544
330
1F
100
AcDbEntity
  8
0
  6
Continuous
 62
     7
370
    25
100
AcDbLine
 10
1693.2823019679
 20
428.320728021
 30
0.0
 11
1680.5543799065
 21
420.9730550146
 31
0.0
  0
ARC
  5
545
330
1F
100
AcDbEntity
  8
0
  6
Continuous
 62
     7
370
    25
100
AcDbCircle
 10
1621.4590345324
 20
431.7505897796
 30
0.0
 40
4.589350085437519
100
AcDbArc
 50
298.2644546682
 51
17.7382019338
  0
ARC
  5
546
330
1F
100
AcDbEntity
  8
0
  6
Continuous
 62
     7
370
    25
100
AcDbCircle
 10
1691.1090524793
 20
432.3628958635
 30
0.0
 40
4.589350085475825
100
AcDbArc
 50
298.2644546686
 51
17.7382019333
  0
LWPOLYLINE
  5
547
330
1F
100
AcDbEntity
  8
0
  6
Continuous
 62
     7
370
    25
100
AcDbPolyline
 90
        3
 70
   128
 43
0.0
 10
1645.1224449257
 20
440.4340345457
 10
1645.4132443497
 20
440.4546547196
 10
1646.259701019
 20
440.7709517263
  0
LWPOLYLINE
  5
548
330
1F
100
AcDbEntity
  8
0
  6
Continuous
 62
     7
370
    25
100
AcDbPolyline
 90
        3
 70
   128
 43
0.0
 10
1715.9097189658
 20
441.3832578101
 10
1715.0632622966
 20
441.0669608035
 10
1714.7724628726
 20
441.0463406295
  0
LINE
  5
549
330
1F
100
AcDbEntity
  8
0
  6
Continuous
 62
     7
370
    25
100
AcDbLine
 10
1646.259701019
 20
440.7709517263
 30
0.0
 11
1658.9876230803
 21
448.1186247327
 31
0.0
  0
LINE
  5
54A
330
1F
100
AcDbEntity
  8
0
  6
Continuous
 62
     7
370
    25
100
AcDbLine
 10
1728.6376410272
 20
448.7309308165
 30
0.0
 11
1715.9097189658
 21
441.3832578101
 31
0.0
  0
ARC
  5
54B
330
1F
100
AcDbEntity
  8
0
  6
Continuous
 62
     7
370
    25
100
AcDbCircle
 10
1656.8143735918
 20
452.1607925752
 30
0.0
 40
4.589350085437347
100
AcDbArc
 50
298.2644546682
 51
17.7382019338
  0
ARC
  5
54C
330
1F
100
AcDbEntity
  8
0
  6
Continuous
 62
     7
370
    25
100
AcDbCircle
 10
1726.4643915386
 20
452.7730986591
 30
0.0
 40
4.589350085474222
100
AcDbArc
 50
298.2644546686
 51
17.7382019334
  0
LWPOLYLINE
  5
54D
330
1F
100
AcDbEntity
  8
0
  6
Continuous
 62
     7
370
    25
100
AcDbPolyline
 90
        3
 70
   128
 43
0.0
 10
1680.4777839851
 20
460.8442373412
 10
1680.768583409
 20
460.8648575152
 10
1681.6150400783
 20
461.1811545218
  0
LWPOLYLINE
  5
54E
330
1F
100
AcDbEntity
  8
0
  6
Continuous
 62
     7
370
    25
100
AcDbPolyline
 90
        3
 70
   128
 43
0.0
 10
1751.2650580252
 20
461.7934606057
 10
1750.4186013559
 20
461.4771635991
 10
1750.1278019319
 20
461.4565434251
  0
LINE
  5
54F
330
1F
100
AcDbEntity
  8
0
  6
Continuous
 62
     7
370
    25
100
AcDbLine
 10
1681.6150400783
 20
461.1811545218
 30
0.0
 11
1694.3429621397
 21
468.5288275282
 31
0.0
  0
LINE
  5
550
330
1F
100
AcDbEntity
  8
0
  6
Continuous
 62
     7
370
    25
100
AcDbLine
 10
1763.9929800865
 20
469.1411336121
 30
0.0
 11
1751.2650580252
 21
461.7934606057
 31
0.0
  0
ARC
  5
551
330
1F
100
AcDbEntity
  8
0
  6
Continuous
 62
     7
370
    25
100
AcDbCircle
 10
1692.1697126511
 20
472.5709953708
 30
0.0
 40
4.589350085437811
100
AcDbArc
 50
298.2644546682
 51
17.7382019338
  0
ARC
  5
552
330
1F
100
AcDbEntity
  8
0
  6
Continuous
 62
     7
370
    25
100
AcDbCircle
 10
1761.8197305979
 20
473.1833014547
 30
0.0
 40
4.589350085478718
100
AcDbArc
 50
298.2644546686
 51
17.7382019334
  0
LWPOLYLINE
  5
553
330
1F
100
AcDbEntity
  8
0
  6
Continuous
 62
     7
370
    25
100
AcDbPolyline
 90
        3
 70
   128
 43
0.0
 10
1715.8331230444
 20
481.2544401368
 10
1716.1239224684
 20
481.2750603108
 10
1716.9703791376
 20
481.5913573174
  0
LWPOLYLINE
  5
554
330
1F
100
AcDbEntity
  8
0
  6
Continuous
 62
     7
370
    25
100
AcDbPolyline
 90
        3
 70
   128
 43
0.0
 10
1786.6203970845
 20
482.2036634013
 10
1785.7739404152
 20
481.8873663946
 10
1785.4831409913
 20
481.8667462207
  0
LINE
  5
555
330
1F
100
AcDbEntity
  8
0
  6
Continuous
 62
     7
370
    25
100
AcDbLine
 10
1716.9703791376
 20
481.5913573174
 30
0.0
 11
1729.698301199
 21
488.9390303238
 31
0.0
  0
LINE
  5
556
330
1F
100
AcDbEntity
  8
0
  6
Continuous
 62
     7
370
    25
100
AcDbLine
 10
1799.3483191459
 20
489.5513364077
 30
0.0
 11
1786.6203970845
 21
482.2036634013
 31
0.0
  0
ARC
  5
557
330
1F
100
AcDbEntity
  8
0
  6
Continuous
 62
     7
370
    25
100
AcDbCircle
 10
1727.5250517104
 20
492.9811981663
 30
0.0
 40
4.58935008543911
100
AcDbArc
 50
298.2644546682
 51
17.7382019338
  0
ARC
  5
558
330
1F
100
AcDbEntity
  8
0
  6
Continuous
 62
     7
370
    25
100
AcDbCircle
 10
1797.1750696572
 20
493.5935042502
 30
0.0
 40
4.589350085480717
100
AcDbArc
 50
298.2644546686
 51
17.7382019334
  0
LWPOLYLINE
  5
559
330
1F
100
AcDbEntity
  8
0
  6
Continuous
 62
     7
370
    25
100
AcDbPolyline
 90
        3
 70
   128
 43
0.0
 10
1751.1884621037
 20
501.6646429324
 10
1751.4792615277
 20
501.6852631063
 10
1752.325718197
 20
502.001560113
  0
LWPOLYLINE
  5
55A
330
1F
100
AcDbEntity
  8
0
  6
Continuous
 62
     7
370
    25
100
AcDbPolyline
 90
        3
 70
   128
 43
0.0
 10
1821.9757361438
 20
502.6138661968
 10
1821.1292794746
 20
502.2975691902
 10
1820.8384800506
 20
502.2769490162
  0
LINE
  5
55B
330
1F
100
AcDbEntity
  8
0
  6
Continuous
 62
     7
370
    25
100
AcDbLine
 10
1752.325718197
 20
502.001560113
 30
0.0
 11
1765.0536402583
 21
509.3492331194
 31
0.0
  0
LINE
  5
55C
330
1F
100
AcDbEntity
  8
0
  6
Continuous
 62
     7
370
    25
100
AcDbLine
 10
1834.7036582052
 20
509.9615392032
 30
0.0
 11
1821.9757361438
 21
502.6138661968
 31
0.0
  0
ARC
  5
55D
330
1F
100
AcDbEntity
  8
0
  6
Continuous
 62
     7
370
    25
100
AcDbCircle
 10
1762.8803907697
 20
513.3914009619
 30
0.0
 40
4.589350085439882
100
AcDbArc
 50
298.2644546682
 51
17.7382019338
  0
ARC
  5
55E
330
1F
100
AcDbEntity
  8
0
  6
Continuous
 62
     7
370
    25
100
AcDbCircle
 10
1832.5304087166
 20
514.0037070458
 30
0.0
 40
4.58935008548208
100
AcDbArc
 50
298.2644546686
 51
17.7382019334
  0
LWPOLYLINE
  5
55F
330
1F
100
AcDbEntity
  8
0
  6
Continuous
 62
     7
370
    25
100
AcDbPolyline
 90
        3
 70
   128
 43
0.0
 10
1786.543801163
 20
522.0748457279
 10
1786.834600587
 20
522.0954659019
 10
1787.6810572563
 20
522.4117629085
  0
LWPOLYLINE
  5
560
330
1F
100
AcDbEntity
  8
0
  6
Continuous
 62
     7
370
    25
100
AcDbPolyline
 90
        3
 70
   128
 43
0.0
 10
1857.3310752032
 20
523.0240689924
 10
1856.4846185339
 20
522.7077719858
 10
1856.1938191099
 20
522.6871518118
  0
LINE
  5
561
330
1F
100
AcDbEntity
  8
0
  6
Continuous
 62
     7
370
    25
100
AcDbLine
 10
1787.6810572563
 20
522.4117629085
 30
0.0
 11
1800.4089793176
 21
529.7594359149
 31
0.0
  0
LINE
  5
562
330
1F
100
AcDbEntity
  8
0
  6
Continuous
 62
     7
370
    25
100
AcDbLine
 10
1870.0589972645
 20
530.3717419988
 30
0.0
 11
1857.3310752032
 21
523.0240689924
 31
0.0
  0
ARC
  5
563
330
1F
100
AcDbEntity
  8
0
  6
Continuous
 62
     7
370
    25
100
AcDbCircle
 10
1798.2357298291
 20
533.8016037575
 30
0.0
 40
4.589350085439033
100
AcDbArc
 50
298.2644546682
 51
17.7382019338
  0
ARC
  5
564
330
1F
100
AcDbEntity
  8
0
  6
Continuous
 62
     7
370
    25
100
AcDbCircle
 10
1867.8857477759
 20
534.4139098414
 30
0.0
 40
4.589350085485665
100
AcDbArc
 50
298.2644546687
 51
17.7382019334
  0
LWPOLYLINE
  5
565
330
1F
100
AcDbEntity
  8
0
  6
Continuous
 62
     7
370
    25
100
AcDbPolyline
 90
        3
 70
   128
 43
0.0
 10
1821.8991402224
 20
542.4850485235
 10
1822.1899396463
 20
542.5056686975
 10
1823.0363963156
 20
542.8219657041
  0
LWPOLYLINE
  5
566
330
1F
100
AcDbEntity
  8
0
  6
Continuous
 62
     7
370
    25
100
AcDbPolyline
 90
        3
 70
   128
 43
0.0
 10
1892.6864142625
 20
543.434271788
 10
1891.8399575932
 20
543.1179747813
 10
1891.5491581692
 20
543.0973546074
  0
LINE
  5
567
330
1F
100
AcDbEntity
  8
0
  6
Continuous
 62
     7
370
    25
100
AcDbLine
 10
1823.0363963156
 20
542.8219657041
 30
0.0
 11
1835.764318377
 21
550.1696387105
 31
0.0
  0
LINE
  5
568
330
1F
100
AcDbEntity
  8
0
  6
Continuous
 62
     7
370
    25
100
AcDbLine
 10
1905.4143363238
 20
550.7819447944
 30
0.0
 11
1892.6864142625
 21
543.434271788
 31
0.0
  0
ARC
  5
569
330
1F
100
AcDbEntity
  8
0
  6
Continuous
 62
     7
370
    25
100
AcDbCircle
 10
1833.5910688884
 20
554.211806553
 30
0.0
 40
4.589350085438556
100
AcDbArc
 50
298.2644546682
 51
17.7382019338
  0
ARC
  5
56A
330
1F
100
AcDbEntity
  8
0
  6
Continuous
 62
     7
370
    25
100
AcDbCircle
 10
1903.2410868352
 20
554.8241126369
 30
0.0
 40
4.589350085488048
100
AcDbArc
 50
298.2644546687
 51
17.7382019333
  0
LWPOLYLINE
  5
56B
330
1F
100
AcDbEntity
  8
0
  6
Continuous
 62
     7
370
    25
100
AcDbPolyline
 90
        3
 70
   128
 43
0.0
 10
1857.2544792817
 20
562.8952513191
 10
1857.5452787057
 20
562.9158714931
 10
1858.3917353749
 20
563.2321684997
  0
LWPOLYLINE
  5
56C
330
1F
100
AcDbEntity
  8
0
  6
Continuous
 62
     7
370
    25
100
AcDbPolyline
 90
        3
 70
   128
 43
0.0
 10
1928.0417533218
 20
563.8444745835
 10
1927.1952966525
 20
563.5281775769
 10
1926.9044972286
 20
563.507557403
  0
LINE
  5
56D
330
1F
100
AcDbEntity
  8
0
  6
Continuous
 62
     7
370
    25
100
AcDbLine
 10
1858.3917353749
 20
563.2321684997
 30
0.0
 11
1871.1196574363
 21
570.5798415061
 31
0.0
  0
LINE
  5
56E
330
1F
100
AcDbEntity
  8
0
  6
Continuous
 62
     7
370
    25
100
AcDbLine
 10
1940.7696753832
 20
571.1921475899
 30
0.0
 11
1928.0417533218
 21
563.8444745835
 31
0.0
  0
ARC
  5
56F
330
1F
100
AcDbEntity
  8
0
  6
Continuous
 62
     7
370
    25
100
AcDbCircle
 10
1868.9464079477
 20
574.6220093486
 30
0.0
 40
4.589350085437456
100
AcDbArc
 50
298.2644546681
 51
17.7382019339
  0
ARC
  5
570
330
1F
100
AcDbEntity
  8
0
  6
Continuous
 62
     7
370
    25
100
AcDbCircle
 10
1938.5964258945
 20
575.2343154325
 30
0.0
 40
4.589350085491608
100
AcDbArc
 50
298.2644546687
 51
17.7382019333
  0
LWPOLYLINE
  5
571
330
1F
100
AcDbEntity
  8
0
  6
Continuous
 62
     7
370
    25
100
AcDbPolyline
 90
        3
 70
   128
 43
0.0
 10
1892.609818341
 20
583.3054541147
 10
1892.900617765
 20
583.3260742886
 10
1893.7470744343
 20
583.6423712952
  0
LWPOLYLINE
  5
572
330
1F
100
AcDbEntity
  8
0
  6
Continuous
 62
     7
370
    25
100
AcDbPolyline
 90
        3
 70
   128
 43
0.0
 10
1963.3970923811
 20
584.2546773791
 10
1962.5506357119
 20
583.9383803725
 10
1962.2598362879
 20
583.9177601985
  0
LINE
  5
573
330
1F
100
AcDbEntity
  8
0
  6
Continuous
 62
     7
370
    25
100
AcDbLine
 10
1893.7470744343
 20
583.6423712952
 30
0.0
 11
1906.4749964956
 21
590.9900443016
 31
0.0
  0
LINE
  5
574
330
1F
100
AcDbEntity
  8
0
  6
Continuous
 62
     7
370
    25
100
AcDbLine
 10
1976.1250144425
 20
591.6023503855
 30
0.0
 11
1963.3970923811
 21
584.2546773791
 31
0.0
  0
ARC
  5
575
330
1F
100
AcDbEntity
  8
0
  6
Continuous
 62
     7
370
    25
100
AcDbCircle
 10
1904.3017470071
 20
595.0322121442
 30
0.0
 40
4.589350085438435
100
AcDbArc
 50
298.2644546681
 51
17.7382019339
  0
ARC
  5
576
330
1F
100
AcDbEntity
  8
0
  6
Continuous
 62
     7
370
    25
100
AcDbCircle
 10
1973.9517649539
 20
595.6445182281
 30
0.0
 40
4.589350085492943
100
AcDbArc
 50
298.2644546687
 51
17.7382019333
  0
LWPOLYLINE
  5
577
330
1F
100
AcDbEntity
  8
0
  6
Continuous
 62
     7
370
    25
100
AcDbPolyline
 90
        3
 70
   128
 43
0.0
 10
1927.9651574003
 20
603.7156569102
 10
1928.2559568243
 20
603.7362770842
 10
1929.1024134936
 20
604.0525740908
  0
LWPOLYLINE
  5
578
330
1F
100
AcDbEntity
  8
0
  6
Continuous
 62
     7
370
    25
100
AcDbPolyline
 90
        3
 70
   128
 43
0.0
 10
1998.7524314405
 20
604.6648801747
 10
1997.9059747712
 20
604.348583168
 10
1997.6151753472
 20
604.3279629941
  0
LINE
  5
579
330
1F
100
AcDbEntity
  8
0
  6
Continuous
 62
     7
370
    25
100
AcDbLine
 10
1929.1024134936
 20
604.0525740908
 30
0.0
 11
1941.8303355549
 21
611.4002470972
 31
0.0
  0
LINE
  5
57A
330
1F
100
AcDbEntity
  8
0
  6
Continuous
 62
     7
370
    25
100
AcDbLine
 10
2011.4803535018
 20
612.0125531811
 30
0.0
 11
1998.7524314405
 21
604.6648801747
 31
0.0
  0
ARC
  5
57B
330
1F
100
AcDbEntity
  8
0
  6
Continuous
 62
     7
370
    25
100
AcDbCircle
 10
1939.6570860664
 20
615.4424149397
 30
0.0
 40
4.589350085437664
100
AcDbArc
 50
298.2644546681
 51
17.7382019339
  0
ARC
  5
57C
330
1F
100
AcDbEntity
  8
0
  6
Continuous
 62
     7
370
    25
100
AcDbCircle
 10
2009.3071040132
 20
616.0547210236
 30
0.0
 40
4.589350085495099
100
AcDbArc
 50
298.2644546687
 51
17.7382019333
  0
LWPOLYLINE
  5
57D
330
1F
100
AcDbEntity
  8
0
  6
Continuous
 62
     7
370
    25
100
AcDbPolyline
 90
        3
 70
   128
 43
0.0
 10
1963.3204964597
 20
624.1258597058
 10
1963.6112958836
 20
624.1464798798
 10
1964.4577525529
 20
624.4627768864
  0
LWPOLYLINE
  5
57E
330
1F
100
AcDbEntity
  8
0
  6
Continuous
 62
     7
370
    25
100
AcDbPolyline
 90
        3
 70
   128
 43
0.0
 10
2034.1077704998
 20
625.0750829702
 10
2033.2613138305
 20
624.7587859636
 10
2032.9705144065
 20
624.7381657897
  0
LINE
  5
57F
330
1F
100
AcDbEntity
  8
0
  6
Continuous
 62
     7
370
    25
100
AcDbLine
 10
1964.4577525529
 20
624.4627768864
 30
0.0
 11
1977.1856746143
 21
631.8104498928
 31
0.0
  0
LINE
  5
580
330
1F
100
AcDbEntity
  8
0
  6
Continuous
 62
     7
370
    25
100
AcDbLine
 10
2046.8356925611
 20
632.4227559766
 30
0.0
 11
2034.1077704998
 21
625.0750829702
 31
0.0
  0
ARC
  5
581
330
1F
100
AcDbEntity
  8
0
  6
Continuous
 62
     7
370
    25
100
AcDbCircle
 10
1975.0124251257
 20
635.8526177353
 30
0.0
 40
4.589350085437871
100
AcDbArc
 50
298.2644546681
 51
17.7382019339
  0
ARC
  5
582
330
1F
100
AcDbEntity
  8
0
  6
Continuous
 62
     7
370
    25
100
AcDbCircle
 10
2044.6624430725
 20
636.4649238192
 30
0.0
 40
4.589350085496658
100
AcDbArc
 50
298.2644546687
 51
17.7382019333
  0
LWPOLYLINE
  5
583
330
1F
100
AcDbEntity
  8
0
  6
Continuous
 62
     7
370
    25
100
AcDbPolyline
 90
        3
 70
   128
 43
0.0
 10
1998.675835519
 20
644.5360625014
 10
1998.966634943
 20
644.5566826753
 10
1999.8130916122
 20
644.8729796819
  0
LWPOLYLINE
  5
584
330
1F
100
AcDbEntity
  8
0
  6
Continuous
 62
     7
370
    25
100
AcDbPolyline
 90
        3
 70
   128
 43
0.0
 10
2069.4631095591
 20
645.4852857658
 10
2068.6166528898
 20
645.1689887592
 10
2068.3258534659
 20
645.1483685852
  0
LINE
  5
585
330
1F
100
AcDbEntity
  8
0
  6
Continuous
 62
     7
370
    25
100
AcDbLine
 10
1999.8130916122
 20
644.8729796819
 30
0.0
 11
2012.5410136736
 21
652.2206526883
 31
0.0
  0
LINE
  5
586
330
1F
100
AcDbEntity
  8
0
  6
Continuous
 62
     7
370
    25
100
AcDbLine
 10
2082.1910316205
 20
652.8329587722
 30
0.0
 11
2069.4631095591
 21
645.4852857658
 31
0.0
  0
ARC
  5
587
330
1F
100
AcDbEntity
  8
0
  6
Continuous
 62
     7
370
    25
100
AcDbCircle
 10
2010.367764185
 20
656.2628205309
 30
0.0
 40
4.58935008543827
100
AcDbArc
 50
298.2644546681
 51
17.7382019339
  0
ARC
  5
588
330
1F
100
AcDbEntity
  8
0
  6
Continuous
 62
     7
370
    25
100
AcDbCircle
 10
2080.0177821318
 20
656.8751266148
 30
0.0
 40
4.589350085499916
100
AcDbArc
 50
298.2644546688
 51
17.7382019333
  0
LWPOLYLINE
  5
589
330
1F
100
AcDbEntity
  8
0
  6
Continuous
 62
     7
370
    25
100
AcDbPolyline
 90
        3
 70
   128
 43
0.0
 10
2034.0311745783
 20
664.9462652969
 10
2034.3219740023
 20
664.9668854709
 10
2035.1684306716
 20
665.2831824775
  0
LWPOLYLINE
  5
58A
330
1F
100
AcDbEntity
  8
0
  6
Continuous
 62
     7
370
    25
100
AcDbPolyline
 90
        3
 70
   128
 43
0.0
 10
2104.8184486184
 20
665.8954885614
 10
2103.9719919492
 20
665.5791915547
 10
2103.6811925252
 20
665.5585713808
  0
LINE
  5
58B
330
1F
100
AcDbEntity
  8
0
  6
Continuous
 62
     7
370
    25
100
AcDbLine
 10
2035.1684306716
 20
665.2831824775
 30
0.0
 11
2047.8963527329
 21
672.6308554839
 31
0.0
  0
LINE
  5
58C
330
1F
100
AcDbEntity
  8
0
  6
Continuous
 62
     7
370
    25
100
AcDbLine
 10
2117.5463706798
 20
673.2431615678
 30
0.0
 11
2104.8184486184
 21
665.8954885614
 31
0.0
  0
ARC
  5
58D
330
1F
100
AcDbEntity
  8
0
  6
Continuous
 62
     7
370
    25
100
AcDbCircle
 10
2045.7231032444
 20
676.6730233264
 30
0.0
 40
4.589350085437681
100
AcDbArc
 50
298.2644546681
 51
17.7382019339
  0
ARC
  5
58E
330
1F
100
AcDbEntity
  8
0
  6
Continuous
 62
     7
370
    25
100
AcDbCircle
 10
2115.3731211912
 20
677.2853294103
 30
0.0
 40
4.589350085503503
100
AcDbArc
 50
298.2644546688
 51
17.7382019332
  0
LWPOLYLINE
  5
58F
330
1F
100
AcDbEntity
  8
0
  6
Continuous
 62
     7
370
    25
100
AcDbPolyline
 90
        3
 70
   128
 43
0.0
 10
2069.3865136377
 20
685.3564680925
 10
2069.6773130616
 20
685.3770882665
 10
2070.5237697309
 20
685.6933852731
  0
LWPOLYLINE
  5
590
330
1F
100
AcDbEntity
  8
0
  6
Continuous
 62
     7
370
    25
100
AcDbPolyline
 90
        3
 70
   128
 43
0.0
 10
2140.1737876778
 20
686.3056913569
 10
2139.3273310085
 20
685.9893943503
 10
2139.0365315845
 20
685.9687741764
  0
LINE
  5
591
330
1F
100
AcDbEntity
  8
0
  6
Continuous
 62
     7
370
    25
100
AcDbLine
 10
2070.5237697309
 20
685.6933852731
 30
0.0
 11
2083.2516917923
 21
693.0410582795
 31
0.0
  0
LINE
  5
592
330
1F
100
AcDbEntity
  8
0
  6
Continuous
 62
     7
370
    25
100
AcDbLine
 10
2152.9017097391
 20
693.6533643633
 30
0.0
 11
2140.1737876778
 21
686.3056913569
 31
0.0
  0
ARC
  5
593
330
1F
100
AcDbEntity
  8
0
  6
Continuous
 62
     7
370
    25
100
AcDbCircle
 10
2081.0784423037
 20
697.083226122
 30
0.0
 40
4.589350085436735
100
AcDbArc
 50
298.2644546681
 51
17.7382019339
  0
ARC
  5
594
330
1F
100
AcDbEntity
  8
0
  6
Continuous
 62
     7
370
    25
100
AcDbCircle
 10
2150.7284602505
 20
697.6955322059
 30
0.0
 40
4.589350085504247
100
AcDbArc
 50
298.2644546688
 51
17.7382019333
  0
LWPOLYLINE
  5
595
330
1F
100
AcDbEntity
  8
0
  6
Continuous
 62
     7
370
    25
100
AcDbPolyline
 90
        3
 70
   128
 43
0.0
 10
2104.741852697
 20
705.7666708881
 10
2105.032652121
 20
705.787291062
 10
2105.8791087902
 20
706.1035880686
  0
LWPOLYLINE
  5
596
330
1F
100
AcDbEntity
  8
0
  6
Continuous
 62
     7
370
    25
100
AcDbPolyline
 90
        3
 70
   128
 43
0.0
 10
2175.5291267371
 20
706.7158941525
 10
2174.6826700678
 20
706.3995971459
 10
2174.3918706439
 20
706.3789769719
  0
LINE
  5
597
330
1F
100
AcDbEntity
  8
0
  6
Continuous
 62
     7
370
    25
100
AcDbLine
 10
2105.8791087902
 20
706.1035880686
 30
0.0
 11
2118.6070308516
 21
713.451261075
 31
0.0
  0
LINE
  5
598
330
1F
100
AcDbEntity
  8
0
  6
Continuous
 62
     7
370
    25
100
AcDbLine
 10
2188.2570487985
 20
714.0635671589
 30
0.0
 11
2175.5291267371
 21
706.7158941525
 31
0.0
  0
ARC
  5
599
330
1F
100
AcDbEntity
  8
0
  6
Continuous
 62
     7
370
    25
100
AcDbCircle
 10
2116.433781363
 20
717.4934289176
 30
0.0
 40
4.589350085438236
100
AcDbArc
 50
298.2644546681
 51
17.7382019339
  0
ARC
  5
59A
330
1F
100
AcDbEntity
  8
0
  6
Continuous
 62
     7
370
    25
100
AcDbCircle
 10
2186.0837993098
 20
718.1057350015
 30
0.0
 40
4.589350085503571
100
AcDbArc
 50
298.2644546688
 51
17.7382019333
  0
LWPOLYLINE
  5
59B
330
1F
100
AcDbEntity
  8
0
  6
Continuous
 62
     7
370
    25
100
AcDbPolyline
 90
        3
 70
   128
 43
0.0
 10
2140.0971917563
 20
726.1768736836
 10
2140.3879911803
 20
726.1974938576
 10
2141.2344478496
 20
726.5137908642
  0
LWPOLYLINE
  5
59C
330
1F
100
AcDbEntity
  8
0
  6
Continuous
 62
     7
370
    25
100
AcDbPolyline
 90
        3
 70
   128
 43
0.0
 10
2210.8844657964
 20
727.1260969481
 10
2210.0380091272
 20
726.8097999414
 10
2209.7472097032
 20
726.7891797675
  0
LINE
  5
59D
330
1F
100
AcDbEntity
  8
0
  6
Continuous
 62
     7
370
    25
100
AcDbLine
 10
2141.2344478496
 20
726.5137908642
 30
0.0
 11
2153.9623699109
 21
733.8614638706
 31
0.0
  0
LINE
  5
59E
330
1F
100
AcDbEntity
  8
0
  6
Continuous
 62
     7
370
    25
100
AcDbLine
 10
2223.6123878578
 20
734.4737699545
 30
0.0
 11
2210.8844657964
 21
727.1260969481
 31
0.0
  0
ARC
  5
59F
330
1F
100
AcDbEntity
  8
0
  6
Continuous
 62
     7
370
    25
100
AcDbCircle
 10
2151.7891204224
 20
737.9036317131
 30
0.0
 40
4.589350085439198
100
AcDbArc
 50
298.2644546681
 51
17.7382019339
  0
ARC
  5
5A0
330
1F
100
AcDbEntity
  8
0
  6
Continuous
 62
     7
370
    25
100
AcDbCircle
 10
2221.4391383691
 20
738.515937797
 30
0.0
 40
4.589350085504939
100
AcDbArc
 50
298.2644546688
 51
17.7382019334
  0
LWPOLYLINE
  5
5A1
330
1F
100
AcDbEntity
  8
0
  6
Continuous
 62
     7
370
    25
100
AcDbPolyline
 90
        3
 70
   128
 43
0.0
 10
2175.4525308156
 20
746.5870764792
 10
2175.7433302396
 20
746.6076966532
 10
2176.5897869089
 20
746.9239936598
  0
LWPOLYLINE
  5
5A2
330
1F
100
AcDbEntity
  8
0
  6
Continuous
 62
     7
370
    25
100
AcDbPolyline
 90
        3
 70
   128
 43
0.0
 10
2246.2398048558
 20
747.5362997436
 10
2245.3933481865
 20
747.220002737
 10
2245.1025487625
 20
747.1993825631
  0
LINE
  5
5A3
330
1F
100
AcDbEntity
  8
0
  6
Continuous
 62
     7
370
    25
100
AcDbLine
 10
2176.5897869089
 20
746.9239936598
 30
0.0
 11
2189.3177089702
 21
754.2716666662
 31
0.0
  0
LINE
  5
5A4
330
1F
100
AcDbEntity
  8
0
  6
Continuous
 62
     7
370
    25
100
AcDbLine
 10
2258.9677269171
 20
754.88397275
 30
0.0
 11
2246.2398048558
 21
747.5362997436
 31
0.0
  0
ARC
  5
5A5
330
1F
100
AcDbEntity
  8
0
  6
Continuous
 62
     7
370
    25
100
AcDbCircle
 10
2187.1444594817
 20
758.3138345087
 30
0.0
 40
4.589350085442342
100
AcDbArc
 50
298.2644546681
 51
17.7382019338
  0
ARC
  5
5A6
330
1F
100
AcDbEntity
  8
0
  6
Continuous
 62
     7
370
    25
100
AcDbCircle
 10
2256.7944774285
 20
758.9261405926
 30
0.0
 40
4.589350085512016
100
AcDbArc
 50
298.2644546689
 51
17.7382019332
  0
LWPOLYLINE
  5
5A7
330
1F
100
AcDbEntity
  8
0
  6
Continuous
 62
     7
370
    25
100
AcDbPolyline
 90
        3
 70
   128
 43
0.0
 10
2210.807869875
 20
766.9972792748
 10
2211.0986692989
 20
767.0178994487
 10
2211.9451259682
 20
767.3341964553
  0
LWPOLYLINE
  5
5A8
330
1F
100
AcDbEntity
  8
0
  6
Continuous
 62
     7
370
    25
100
AcDbPolyline
 90
        3
 70
   128
 43
0.0
 10
2281.5951439151
 20
767.9465025392
 10
2280.7486872458
 20
767.6302055326
 10
2280.4578878218
 20
767.6095853586
  0
LINE
  5
5A9
330
1F
100
AcDbEntity
  8
0
  6
Continuous
 62
     7
370
    25
100
AcDbLine
 10
2211.9451259682
 20
767.3341964553
 30
0.0
 11
2224.6730480296
 21
774.6818694617
 31
0.0
  0
LINE
  5
5AA
330
1F
100
AcDbEntity
  8
0
  6
Continuous
 62
     7
370
    25
100
AcDbLine
 10
2294.3230659764
 20
775.2941755456
 30
0.0
 11
2281.5951439151
 21
767.9465025392
 31
0.0
  0
ARC
  5
5AB
330
1F
100
AcDbEntity
  8
0
  6
Continuous
 62
     7
370
    25
100
AcDbCircle
 10
2222.499798541
 20
778.7240373043
 30
0.0
 40
4.589350085443079
100
AcDbArc
 50
298.2644546681
 51
17.7382019338
  0
ARC
  5
5AC
330
1F
100
AcDbEntity
  8
0
  6
Continuous
 62
     7
370
    25
100
AcDbCircle
 10
2292.1498164878
 20
779.3363433882
 30
0.0
 40
4.589350085517604
100
AcDbArc
 50
298.2644546689
 51
17.7382019331
  0
LWPOLYLINE
  5
5AD
330
1F
100
AcDbEntity
  8
0
  6
Continuous
 62
     7
370
    25
100
AcDbPolyline
 90
        3
 70
   128
 43
0.0
 10
2246.1632089343
 20
787.4074820703
 10
2246.4540083583
 20
787.4281022443
 10
2247.3004650275
 20
787.7443992509
  0
LWPOLYLINE
  5
5AE
330
1F
100
AcDbEntity
  8
0
  6
Continuous
 62
     7
370
    25
100
AcDbPolyline
 90
        3
 70
   128
 43
0.0
 10
2316.9504829744
 20
788.3567053348
 10
2316.1040263051
 20
788.0404083281
 10
2315.8132268812
 20
788.0197881542
  0
LINE
  5
5AF
330
1F
100
AcDbEntity
  8
0
  6
Continuous
 62
     7
370
    25
100
AcDbLine
 10
2247.3004650275
 20
787.7443992509
 30
0.0
 11
2260.0283870889
 21
795.0920722573
 31
0.0
  0
LINE
  5
5B0
330
1F
100
AcDbEntity
  8
0
  6
Continuous
 62
     7
370
    25
100
AcDbLine
 10
2329.6784050358
 20
795.7043783412
 30
0.0
 11
2316.9504829744
 21
788.3567053348
 31
0.0
  0
ARC
  5
5B1
330
1F
100
AcDbEntity
  8
0
  6
Continuous
 62
     7
370
    25
100
AcDbCircle
 10
2257.8551376003
 20
799.1342400999
 30
0.0
 40
4.589350085440955
100
AcDbArc
 50
298.2644546681
 51
17.7382019338
  0
ARC
  5
5B2
330
1F
100
AcDbEntity
  8
0
  6
Continuous
 62
     7
370
    25
100
AcDbCircle
 10
2327.5051555471
 20
799.7465461838
 30
0.0
 40
4.589350085523046
100
AcDbArc
 50
298.264454669
 51
17.738201933
  0
LWPOLYLINE
  5
5B3
330
1F
100
AcDbEntity
  8
0
  6
Continuous
 62
     7
370
    25
100
AcDbPolyline
 90
        3
 70
   128
 43
0.0
 10
2281.5185479936
 20
807.8176848659
 10
2281.8093474176
 20
807.8383050399
 10
2282.6558040869
 20
808.1546020465
  0
LWPOLYLINE
  5
5B4
330
1F
100
AcDbEntity
  8
0
  6
Continuous
 62
     7
370
    25
100
AcDbPolyline
 90
        3
 70
   128
 43
0.0
 10
2352.3058220337
 20
808.7669081303
 10
2351.4593653645
 20
808.4506111237
 10
2351.1685659405
 20
808.4299909498
  0
LINE
  5
5B5
330
1F
100
AcDbEntity
  8
0
  6
Continuous
 62
     7
370
    25
100
AcDbLine
 10
2282.6558040869
 20
808.1546020465
 30
0.0
 11
2295.3837261482
 21
815.5022750529
 31
0.0
  0
LINE
  5
5B6
330
1F
100
AcDbEntity
  8
0
  6
Continuous
 62
     7
370
    25
100
AcDbLine
 10
2365.0337440951
 20
816.1145811367
 30
0.0
 11
2352.3058220337
 21
808.7669081303
 31
0.0
  0
ARC
  5
5B7
330
1F
100
AcDbEntity
  8
0
  6
Continuous
 62
     7
370
    25
100
AcDbCircle
 10
2293.2104766597
 20
819.5444428954
 30
0.0
 40
4.589350085441857
100
AcDbArc
 50
298.2644546681
 51
17.7382019338
  0
ARC
  5
5B8
330
1F
100
AcDbEntity
  8
0
  6
Continuous
 62
     7
370
    25
100
AcDbCircle
 10
2362.8604946065
 20
820.1567489793
 30
0.0
 40
4.589350085510413
100
AcDbArc
 50
298.2644546689
 51
17.7382019335
  0
LWPOLYLINE
  5
5B9
330
1F
100
AcDbEntity
  8
0
  6
Continuous
 62
     7
370
    25
100
AcDbPolyline
 90
        3
 70
   128
 43
0.0
 10
2316.8738870529
 20
828.2278876615
 10
2317.1646864769
 20
828.2485078354
 10
2318.0111431462
 20
828.564804842
  0
LWPOLYLINE
  5
5BA
330
1F
100
AcDbEntity
  8
0
  6
Continuous
 62
     7
370
    25
100
AcDbPolyline
 90
        3
 70
   128
 43
0.0
 10
2387.6611610931
 20
829.1771109259
 10
2386.8147044238
 20
828.8608139193
 10
2386.5239049998
 20
828.8401937453
  0
LINE
  5
5BB
330
1F
100
AcDbEntity
  8
0
  6
Continuous
 62
     7
370
    25
100
AcDbLine
 10
2318.0111431462
 20
828.564804842
 30
0.0
 11
2330.7390652075
 21
835.9124778485
 31
0.0
  0
LINE
  5
5BC
330
1F
100
AcDbEntity
  8
0
  6
Continuous
 62
     7
370
    25
100
AcDbLine
 10
2400.3890831544
 20
836.5247839323
 30
0.0
 11
2387.6611610931
 21
829.1771109259
 31
0.0
  0
ARC
  5
5BD
330
1F
100
AcDbEntity
  8
0
  6
Continuous
 62
     7
370
    25
100
AcDbCircle
 10
2328.565815719
 20
839.954645691
 30
0.0
 40
4.589350085430671
100
AcDbArc
 50
298.264454668
 51
17.7382019342
  0
ARC
  5
5BE
330
1F
100
AcDbEntity
  8
0
  6
Continuous
 62
     7
370
    25
100
AcDbCircle
 10
2398.2158336658
 20
840.5669517749
 30
0.0
 40
4.589350085535084
100
AcDbArc
 50
298.264454669
 51
17.7382019328
  0
LWPOLYLINE
  5
5BF
330
1F
100
AcDbEntity
  8
0
  6
Continuous
 62
     7
370
    25
100
AcDbPolyline
 90
        3
 70
   128
 43
0.0
 10
2352.2292261123
 20
848.638090457
 10
2352.5200255363
 20
848.658710631
 10
2353.3664822055
 20
848.9750076376
  0
LWPOLYLINE
  5
5C0
330
1F
100
AcDbEntity
  8
0
  6
Continuous
 62
     7
370
    25
100
AcDbPolyline
 90
        3
 70
   128
 43
0.0
 10
2423.0165001524
 20
849.5873137215
 10
2422.1700434831
 20
849.2710167148
 10
2421.8792440591
 20
849.2503965409
  0
LINE
  5
5C1
330
1F
100
AcDbEntity
  8
0
  6
Continuous
 62
     7
370
    25
100
AcDbLine
 10
2353.3664822055
 20
848.9750076376
 30
0.0
 11
2366.0944042669
 21
856.322680644
 31
0.0
  0
LINE
  5
5C2
330
1F
100
AcDbEntity
  8
0
  6
Continuous
 62
     7
370
    25
100
AcDbLine
 10
2435.7444222138
 20
856.9349867279
 30
0.0
 11
2423.0165001524
 21
849.5873137215
 31
0.0
  0
ARC
  5
5C3
330
1F
100
AcDbEntity
  8
0
  6
Continuous
 62
     7
370
    25
100
AcDbCircle
 10
2363.9211547783
 20
860.3648484866
 30
0.0
 40
4.58935008545111
100
AcDbArc
 50
298.2644546681
 51
17.7382019335
  0
ARC
  5
5C4
330
1F
100
AcDbEntity
  8
0
  6
Continuous
 62
     7
370
    25
100
AcDbCircle
 10
2433.5711727251
 20
860.9771545705
 30
0.0
 40
4.589350085538606
100
AcDbArc
 50
298.2644546691
 51
17.7382019327
  0
LWPOLYLINE
  5
5C5
330
1F
100
AcDbEntity
  8
0
  6
Continuous
 62
     7
370
    25
100
AcDbPolyline
 90
        3
 70
   128
 43
0.0
 10
2387.5845651716
 20
869.0482932526
 10
2387.8753645956
 20
869.0689134266
 10
2388.7218212648
 20
869.3852104332
  0
LWPOLYLINE
  5
5C6
330
1F
100
AcDbEntity
  8
0
  6
Continuous
 62
     7
370
    25
100
AcDbPolyline
 90
        3
 70
   128
 43
0.0
 10
2458.3718392117
 20
869.997516517
 10
2457.5253825424
 20
869.6812195104
 10
2457.2345831184
 20
869.6605993365
  0
LINE
  5
5C7
330
1F
100
AcDbEntity
  8
0
  6
Continuous
 62
     7
370
    25
100
AcDbLine
 10
2388.7218212648
 20
869.3852104332
 30
0.0
 11
2401.4497433262
 21
876.7328834396
 31
0.0
  0
LINE
  5
5C8
330
1F
100
AcDbEntity
  8
0
  6
Continuous
 62
     7
370
    25
100
AcDbLine
 10
2471.0997612731
 20
877.3451895235
 30
0.0
 11
2458.3718392117
 21
869.997516517
 31
0.0
  0
ARC
  5
5C9
330
1F
100
AcDbEntity
  8
0
  6
Continuous
 62
     7
370
    25
100
AcDbCircle
 10
2399.2764938377
 20
880.7750512821
 30
0.0
 40
4.589350085432073
100
AcDbArc
 50
298.264454668
 51
17.7382019341
  0
ARC
  5
5CA
330
1F
100
AcDbEntity
  8
0
  6
Continuous
 62
     7
370
    25
100
AcDbCircle
 10
2468.9265117844
 20
881.387357366
 30
0.0
 40
4.589350085536613
100
AcDbArc
 50
298.2644546691
 51
17.7382019329
  0
LWPOLYLINE
  5
5CB
330
1F
100
AcDbEntity
  8
0
  6
Continuous
 62
     7
370
    25
100
AcDbPolyline
 90
        3
 70
   128
 43
0.0
 10
2422.9399042309
 20
889.4584960482
 10
2423.2307036549
 20
889.4791162221
 10
2424.0771603242
 20
889.7954132287
  0
LWPOLYLINE
  5
5CC
330
1F
100
AcDbEntity
  8
0
  6
Continuous
 62
     7
370
    25
100
AcDbPolyline
 90
        3
 70
   128
 43
0.0
 10
2493.727178271
 20
890.4077193126
 10
2492.8807216018
 20
890.091422306
 10
2492.5899221778
 20
890.070802132
  0
LINE
  5
5CD
330
1F
100
AcDbEntity
  8
0
  6
Continuous
 62
     7
370
    25
100
AcDbLine
 10
2424.0771603242
 20
889.7954132287
 30
0.0
 11
2436.8050823855
 21
897.1430862352
 31
0.0
  0
LINE
  5
5CE
330
1F
100
AcDbEntity
  8
0
  6
Continuous
 62
     7
370
    25
100
AcDbLine
 10
2506.4551003324
 20
897.755392319
 30
0.0
 11
2493.727178271
 21
890.4077193126
 31
0.0
  0
ARC
  5
5CF
330
1F
100
AcDbEntity
  8
0
  6
Continuous
 62
     7
370
    25
100
AcDbCircle
 10
2434.631832897
 20
901.1852540777
 30
0.0
 40
4.589350085413818
100
AcDbArc
 50
298.2644546679
 51
17.7382019347
  0
ARC
  5
5D0
330
1F
100
AcDbEntity
  8
0
  6
Continuous
 62
     7
370
    25
100
AcDbCircle
 10
2504.2818508437
 20
901.7975601616
 30
0.0
 40
4.589350085532505
100
AcDbArc
 50
298.264454669
 51
17.738201933
  0
LWPOLYLINE
  5
5D1
330
1F
100
AcDbEntity
  8
0
  6
Continuous
 62
     7
370
    25
100
AcDbPolyline
 90
        3
 70
   128
 43
0.0
 10
2458.2952432902
 20
909.8686988437
 10
2458.5860427142
 20
909.8893190177
 10
2459.4324993835
 20
910.2056160243
  0
LWPOLYLINE
  5
5D2
330
1F
100
AcDbEntity
  8
0
  6
Continuous
 62
     7
370
    25
100
AcDbPolyline
 90
        3
 70
   128
 43
0.0
 10
2529.0825173304
 20
910.8179221082
 10
2528.2360606611
 20
910.5016251016
 10
2527.9452612371
 20
910.4810049276
  0
LINE
  5
5D3
330
1F
100
AcDbEntity
  8
0
  6
Continuous
 62
     7
370
    25
100
AcDbLine
 10
2459.4324993835
 20
910.2056160243
 30
0.0
 11
2472.1604214449
 21
917.5532890307
 31
0.0
  0
LINE
  5
5D4
330
1F
100
AcDbEntity
  8
0
  6
Continuous
 62
     7
370
    25
100
AcDbLine
 10
2541.8104393917
 20
918.1655951146
 30
0.0
 11
2529.0825173304
 21
910.8179221082
 31
0.0
  0
ARC
  5
5D5
330
1F
100
AcDbEntity
  8
0
  6
Continuous
 62
     7
370
    25
100
AcDbCircle
 10
2469.9871719563
 20
921.5954568733
 30
0.0
 40
4.589350085440009
100
AcDbArc
 50
298.2644546681
 51
17.7382019339
  0
ARC
  5
5D6
330
1F
100
AcDbEntity
  8
0
  6
Continuous
 62
     7
370
    25
100
AcDbCircle
 10
2539.6371899031
 20
922.2077629571
 30
0.0
 40
4.589350085505592
100
AcDbArc
 50
298.2644546689
 51
17.7382019339
  0
LWPOLYLINE
  5
5D7
330
1F
100
AcDbEntity
  8
0
  6
Continuous
 62
     7
370
    25
100
AcDbPolyline
 90
        3
 70
   128
 43
0.0
 10
2493.6505823496
 20
930.2789016393
 10
2493.9413817736
 20
930.2995218133
 10
2494.7878384428
 20
930.6158188199
  0
LWPOLYLINE
  5
5D8
330
1F
100
AcDbEntity
  8
0
  6
Continuous
 62
     7
370
    25
100
AcDbPolyline
 90
        3
 70
   128
 43
0.0
 10
2564.4378563897
 20
931.2281249038
 10
2563.5913997204
 20
930.9118278971
 10
2563.3006002965
 20
930.8912077232
  0
LINE
  5
5D9
330
1F
100
AcDbEntity
  8
0
  6
Continuous
 62
     7
370
    25
100
AcDbLine
 10
2494.7878384428
 20
930.6158188199
 30
0.0
 11
2507.5157605042
 21
937.9634918263
 31
0.0
  0
LINE
  5
5DA
330
1F
100
AcDbEntity
  8
0
  6
Continuous
 62
     7
370
    25
100
AcDbLine
 10
2577.1657784511
 20
938.5757979102
 30
0.0
 11
2564.4378563897
 21
931.2281249038
 31
0.0
  0
ARC
  5
5DB
330
1F
100
AcDbEntity
  8
0
  6
Continuous
 62
     7
370
    25
100
AcDbCircle
 10
2505.3425110156
 20
942.0056596688
 30
0.0
 40
4.589350085446188
100
AcDbArc
 50
298.2644546681
 51
17.7382019337
  0
ARC
  5
5DC
330
1F
100
AcDbEntity
  8
0
  6
Continuous
 62
     7
370
    25
100
AcDbCircle
 10
2574.9925289624
 20
942.6179657527
 30
0.0
 40
4.589350085514794
100
AcDbArc
 50
298.2644546689
 51
17.7382019337
  0
LWPOLYLINE
  5
5DD
330
1F
100
AcDbEntity
  8
0
  6
Continuous
 62
     7
370
    25
100
AcDbPolyline
 90
        3
 70
   128
 43
0.0
 10
2529.0059214089
 20
950.6891044349
 10
2529.2967208329
 20
950.7097246088
 10
2530.1431775022
 20
951.0260216155
  0
LWPOLYLINE
  5
5DE
330
1F
100
AcDbEntity
  8
0
  6
Continuous
 62
     7
370
    25
100
AcDbPolyline
 90
        3
 70
   128
 43
0.0
 10
2599.793195449
 20
951.6383276993
 10
2598.9467387798
 20
951.3220306927
 10
2598.6559393558
 20
951.3014105187
  0
LINE
  5
5DF
330
1F
100
AcDbEntity
  8
0
  6
Continuous
 62
     7
370
    25
100
AcDbLine
 10
2530.1431775022
 20
951.0260216155
 30
0.0
 11
2542.8710995635
 21
958.3736946219
 31
0.0
  0
LINE
  5
5E0
330
1F
100
AcDbEntity
  8
0
  6
Continuous
 62
     7
370
    25
100
AcDbLine
 10
2612.5211175104
 20
958.9860007057
 30
0.0
 11
2599.793195449
 21
951.6383276993
 31
0.0
  0
ARC
  5
5E1
330
1F
100
AcDbEntity
  8
0
  6
Continuous
 62
     7
370
    25
100
AcDbCircle
 10
2540.697850075
 20
962.4158624644
 30
0.0
 40
4.589350085437506
100
AcDbArc
 50
298.264454668
 51
17.738201934
  0
ARC
  5
5E2
330
1F
100
AcDbEntity
  8
0
  6
Continuous
 62
     7
370
    25
100
AcDbCircle
 10
2610.3478680217
 20
963.0281685483
 30
0.0
 40
4.589350085563525
100
AcDbArc
 50
298.2644546692
 51
17.7382019323
  0
LWPOLYLINE
  5
5E3
330
1F
100
AcDbEntity
  8
0
  6
Continuous
 62
     7
370
    25
100
AcDbPolyline
 90
        3
 70
   128
 43
0.0
 10
2564.3612604682
 20
971.0993072304
 10
2564.6520598922
 20
971.1199274044
 10
2565.4985165615
 20
971.436224411
  0
LWPOLYLINE
  5
5E4
330
1F
100
AcDbEntity
  8
0
  6
Continuous
 62
     7
370
    25
100
AcDbPolyline
 90
        3
 70
   128
 43
0.0
 10
2635.1485345084
 20
972.0485304949
 10
2634.3020778391
 20
971.7322334883
 10
2634.0112784151
 20
971.7116133143
  0
LINE
  5
5E5
330
1F
100
AcDbEntity
  8
0
  6
Continuous
 62
     7
370
    25
100
AcDbLine
 10
2565.4985165615
 20
971.436224411
 30
0.0
 11
2578.2264386228
 21
978.7838974174
 31
0.0
  0
LINE
  5
5E6
330
1F
100
AcDbEntity
  8
0
  6
Continuous
 62
     7
370
    25
100
AcDbLine
 10
2647.8764565697
 20
979.3962035013
 30
0.0
 11
2635.1485345084
 21
972.0485304949
 31
0.0
  0
ARC
  5
5E7
330
1F
100
AcDbEntity
  8
0
  6
Continuous
 62
     7
370
    25
100
AcDbCircle
 10
2576.0531891343
 20
982.82606526
 30
0.0
 40
4.589350085449169
100
AcDbArc
 50
298.2644546681
 51
17.7382019337
  0
ARC
  5
5E8
330
1F
100
AcDbEntity
  8
0
  6
Continuous
 62
     7
370
    25
100
AcDbCircle
 10
2645.7032070811
 20
983.4383713439
 30
0.0
 40
4.589350085520133
100
AcDbArc
 50
298.264454669
 51
17.7382019336
  0
LWPOLYLINE
  5
5E9
330
1F
100
AcDbEntity
  8
0
  6
Continuous
 62
     7
370
    25
100
AcDbPolyline
 90
        3
 70
   128
 43
0.0
 10
2599.7165995275
 20
991.509510026
 10
2600.0073989515
 20
991.5301302
 10
2600.8538556208
 20
991.8464272066
  0
LINE
  5
5EA
330
1F
100
AcDbEntity
  8
0
  6
Continuous
 62
     7
370
    25
100
AcDbLine
 10
2600.8538556208
 20
991.8464272066
 30
0.0
 11
2613.5817776822
 21
999.194100213
 31
0.0
  0
ARC
  5
5EB
330
1F
100
AcDbEntity
  8
0
  6
Continuous
 62
     7
370
    25
100
AcDbCircle
 10
2611.4085281936
 20
1003.2362680555
 30
0.0
 40
4.589350085434647
100
AcDbArc
 50
298.264454668
 51
17.7382019341
  0
ENDSEC
  0
SECTION
  2
OBJECTS
  0
DICTIONARY
  5
C
330
0
100
AcDbDictionary
281
     1
  3
ACAD_GROUP
350
D
  3
ACAD_LAYOUT
350
1A
  3
ACAD_MLINESTYLE
350
17
  3
ACAD_PLOTSETTINGS
350
19
  3
ACAD_PLOTSTYLENAME
350
E
  3
ACAD_SCALELIST
350
47
  0
DICTIONARY
  5
D
102
{ACAD_REACTORS
330
C
102
}
330
C
100
AcDbDictionary
281
     1
  0
DICTIONARY
  5
1A
102
{ACAD_REACTORS
330
C
102
}
330
C
100
AcDbDictionary
281
     1
  3
Layout1
350
1E
  3
Layout2
350
26
  3
Model
350
22
  0
DICTIONARY
  5
17
102
{ACAD_REACTORS
330
C
102
}
330
C
100
AcDbDictionary
281
     1
  3
Standard
350
18
  0
DICTIONARY
  5
19
102
{ACAD_REACTORS
330
C
102
}
330
C
100
AcDbDictionary
281
     1
  0
ACDBDICTIONARYWDFLT
  5
E
102
{ACAD_REACTORS
330
C
102
}
330
C
100
AcDbDictionary
281
     1
  3
Normal
350
F
100
AcDbDictionaryWithDefault
340
F
  0
DICTIONARY
  5
47
102
{ACAD_REACTORS
330
C
102
}
330
C
100
AcDbDictionary
281
     1
  3
A0
350
48
  3
A1
350
49
  3
A2
350
4A
  3
A3
350
4B
  3
A4
350
4C
  3
A5
350
4D
  3
A6
350
4E
  3
A7
350
4F
  3
A8
350
50
  3
A9
350
51
  3
B0
350
52
  3
B1
350
53
  3
B2
350
54
  3
B3
350
55
  3
B4
350
56
  3
B5
350
57
  3
B6
350
58
  3
B7
350
59
  3
B8
350
5A
  3
B9
350
5B
  3
C0
350
5C
  3
C1
350
5D
  3
C2
350
5E
  3
C3
350
5F
  3
C4
350
60
  3
C5
350
61
  3
C6
350
62
  3
C7
350
63
  3
C8
350
64
  3
C9
350
65
  3
D0
350
66
  3
D1
350
67
  3
D2
350
68
  0
LAYOUT
  5
1E
102
{ACAD_REACTORS
330
1A
102
}
330
1A
100
AcDbPlotSettings
  1

  2
none_device
  4

  6

 40
0.0
 41
0.0
 42
0.0
 43
0.0
 44
0.0
 45
0.0
 46
0.0
 47
0.0
 48
0.0
 49
0.0
140
0.0
141
0.0
142
1.0
143
1.0
 70
   688
 72
     1
 73
     0
 74
     5
  7

 75
    16
147
1.0
148
0.0
149
0.0
100
AcDbLayout
  1
Layout1
 70
     1
 71
     1
 10
0.0
 20
0.0
 11
420.0
 21
297.0
 12
0.0
 22
0.0
 32
0.0
 14
1.0000000000E+20
 24
1.0000000000E+20
 34
1.0000000000E+20
 15
-1.0000000000E+20
 25
-1.0000000000E+20
 35
-1.0000000000E+20
146
0.0
 13
0.0
 23
0.0
 33
0.0
 16
1.0
 26
0.0
 36
0.0
 17
0.0
 27
1.0
 37
0.0
 76
     0
330
1B
  0
LAYOUT
  5
26
102
{ACAD_REACTORS
330
1A
102
}
330
1A
100
AcDbPlotSettings
  1

  2
none_device
  4

  6

 40
0.0
 41
0.0
 42
0.0
 43
0.0
 44
0.0
 45
0.0
 46
0.0
 47
0.0
 48
0.0
 49
0.0
140
0.0
141
0.0
142
1.0
143
1.0
 70
   688
 72
     1
 73
     0
 74
     5
  7

 75
    16
147
1.0
148
0.0
149
0.0
100
AcDbLayout
  1
Layout2
 70
     1
 71
     2
 10
0.0
 20
0.0
 11
0.0
 21
0.0
 12
0.0
 22
0.0
 32
0.0
 14
0.0
 24
0.0
 34
0.0
 15
0.0
 25
0.0
 35
0.0
146
0.0
 13
0.0
 23
0.0
 33
0.0
 16
1.0
 26
0.0
 36
0.0
 17
0.0
 27
1.0
 37
0.0
 76
     0
330
23
  0
LAYOUT
  5
22
102
{ACAD_REACTORS
330
1A
102
}
330
1A
100
AcDbPlotSettings
  1

  2
none_device
  4
Letter_(8.50_x_11.00_Inches)
  6

 40
6.35
 41
6.35
 42
6.35000508
 43
6.35000508
 44
215.9
 45
279.4
 46
0.0
 47
0.0
 48
0.0
 49
0.0
140
0.0
141
0.0
142
1.0
143
1.0
 70
  1712
 72
     1
 73
     0
 74
     0
  7

 75
     0
147
1.0
148
0.0
149
0.0
100
AcDbLayout
  1
Model
 70
     1
 71
     0
 10
0.0
 20
0.0
 11
3000.0
 21
2500.0
 12
0.0
 22
0.0
 32
0.0
 14
0.0
 24
0.0
 34
0.0
 15
3000.0
 25
2500.0
 35
0.0
146
0.0
 13
0.0
 23
0.0
 33
0.0
 16
1.0
 26
0.0
 36
0.0
 17
0.0
 27
1.0
 37
0.0
 76
     0
330
1F
331
29
  0
MLINESTYLE
  5
18
102
{ACAD_REACTORS
330
17
102
}
330
17
100
AcDbMlineStyle
  2
Standard
 70
     0
  3

 62
   256
 51
90.0
 52
90.0
 71
     2
 49
0.5
 62
   256
  6
BYLAYER
 49
-0.5
 62
   256
  6
BYLAYER
  0
ACDBPLACEHOLDER
  5
F
102
{ACAD_REACTORS
330
E
102
}
330
E
  0
SCALE
  5
48
102
{ACAD_REACTORS
330
47
102
}
330
47
100
AcDbScale
 70
     0
300
1:1
140
1.0
141
1.0
290
     1
  0
SCALE
  5
49
102
{ACAD_REACTORS
330
47
102
}
330
47
100
AcDbScale
 70
     0
300
1:2
140
1.0
141
2.0
290
     0
  0
SCALE
  5
4A
102
{ACAD_REACTORS
330
47
102
}
330
47
100
AcDbScale
 70
     0
300
1:4
140
1.0
141
4.0
290
     0
  0
SCALE
  5
4B
102
{ACAD_REACTORS
330
47
102
}
330
47
100
AcDbScale
 70
     0
300
1:5
140
1.0
141
5.0
290
     0
  0
SCALE
  5
4C
102
{ACAD_REACTORS
330
47
102
}
330
47
100
AcDbScale
 70
     0
300
1:8
140
1.0
141
8.0
290
     0
  0
SCALE
  5
4D
102
{ACAD_REACTORS
330
47
102
}
330
47
100
AcDbScale
 70
     0
300
1:10
140
1.0
141
10.0
290
     0
  0
SCALE
  5
4E
102
{ACAD_REACTORS
330
47
102
}
330
47
100
AcDbScale
 70
     0
300
1:16
140
1.0
141
16.0
290
     0
  0
SCALE
  5
4F
102
{ACAD_REACTORS
330
47
102
}
330
47
100
AcDbScale
 70
     0
300
1:20
140
1.0
141
20.0
290
     0
  0
SCALE
  5
50
102
{ACAD_REACTORS
330
47
102
}
330
47
100
AcDbScale
 70
     0
300
1:30
140
1.0
141
30.0
290
     0
  0
SCALE
  5
51
102
{ACAD_REACTORS
330
47
102
}
330
47
100
AcDbScale
 70
     0
300
1:40
140
1.0
141
40.0
290
     0
  0
SCALE
  5
52
102
{ACAD_REACTORS
330
47
102
}
330
47
100
AcDbScale
 70
     0
300
1:50
140
1.0
141
50.0
290
     0
  0
SCALE
  5
53
102
{ACAD_REACTORS
330
47
102
}
330
47
100
AcDbScale
 70
     0
300
1:100
140
1.0
141
100.0
290
     0
  0
SCALE
  5
54
102
{ACAD_REACTORS
330
47
102
}
330
47
100
AcDbScale
 70
     0
300
2:1
140
2.0
141
1.0
290
     0
  0
SCALE
  5
55
102
{ACAD_REACTORS
330
47
102
}
330
47
100
AcDbScale
 70
     0
300
4:1
140
4.0
141
1.0
290
     0
  0
SCALE
  5
56
102
{ACAD_REACTORS
330
47
102
}
330
47
100
AcDbScale
 70
     0
300
8:1
140
8.0
141
1.0
290
     0
  0
SCALE
  5
57
102
{ACAD_REACTORS
330
47
102
}
330
47
100
AcDbScale
 70
     0
300
10:1
140
10.0
141
1.0
290
     0
  0
SCALE
  5
58
102
{ACAD_REACTORS
330
47
102
}
330
47
100
AcDbScale
 70
     0
300
100:1
140
100.0
141
1.0
290
     0
  0
SCALE
  5
59
102
{ACAD_REACTORS
330
47
102
}
330
47
100
AcDbScale
 70
     0
300
1/128" = 1'-0"
140
0.0078125
141
12.0
290
     0
  0
SCALE
  5
5A
102
{ACAD_REACTORS
330
47
102
}
330
47
100
AcDbScale
 70
     0
300
1/64" = 1'-0"
140
0.015625
141
12.0
290
     0
  0
SCALE
  5
5B
102
{ACAD_REACTORS
330
47
102
}
330
47
100
AcDbScale
 70
     0
300
1/32" = 1'-0"
140
0.03125
141
12.0
290
     0
  0
SCALE
  5
5C
102
{ACAD_REACTORS
330
47
102
}
330
47
100
AcDbScale
 70
     0
300
1/16" = 1'-0"
140
0.0625
141
12.0
290
     0
  0
SCALE
  5
5D
102
{ACAD_REACTORS
330
47
102
}
330
47
100
AcDbScale
 70
     0
300
3/32" = 1'-0"
140
0.09375
141
12.0
290
     0
  0
SCALE
  5
5E
102
{ACAD_REACTORS
330
47
102
}
330
47
100
AcDbScale
 70
     0
300
1/8" = 1'-0"
140
0.125
141
12.0
290
     0
  0
SCALE
  5
5F
102
{ACAD_REACTORS
330
47
102
}
330
47
100
AcDbScale
 70
     0
300
3/16" = 1'-0"
140
0.1875
141
12.0
290
     0
  0
SCALE
  5
60
102
{ACAD_REACTORS
330
47
102
}
330
47
100
AcDbScale
 70
     0
300
1/4" = 1'-0"
140
0.25
141
12.0
290
     0
  0
SCALE
  5
61
102
{ACAD_REACTORS
330
47
102
}
330
47
100
AcDbScale
 70
     0
300
3/8" = 1'-0"
140
0.375
141
12.0
290
     0
  0
SCALE
  5
62
102
{ACAD_REACTORS
330
47
102
}
330
47
100
AcDbScale
 70
     0
300
1/2" = 1'-0"
140
0.5
141
12.0
290
     0
  0
SCALE
  5
63
102
{ACAD_REACTORS
330
47
102
}
330
47
100
AcDbScale
 70
     0
300
3/4" = 1'-0"
140
0.75
141
12.0
290
     0
  0
SCALE
  5
64
102
{ACAD_REACTORS
330
47
102
}
330
47
100
AcDbScale
 70
     0
300
1" = 1'-0"
140
1.0
141
12.0
290
     0
  0
SCALE
  5
65
102
{ACAD_REACTORS
330
47
102
}
330
47
100
AcDbScale
 70
     0
300
1-1/2" = 1'-0"
140
1.5
141
12.0
290
     0
  0
SCALE
  5
66
102
{ACAD_REACTORS
330
47
102
}
330
47
100
AcDbScale
 70
     0
300
3" = 1'-0"
140
3.0
141
12.0
290
     0
  0
SCALE
  5
67
102
{ACAD_REACTORS
330
47
102
}
330
47
100
AcDbScale
 70
     0
300
6" = 1'-0"
140
6.0
141
12.0
290
     0
  0
SCALE
  5
68
102
{ACAD_REACTORS
330
47
102
}
330
47
100
AcDbScale
 70
     0
300
1'-0" = 1'-0"
140
12.0
141
12.0
290
     0
  0
ENDSEC
  0
EOF
