  0
SECTION
  2
HEADER
  9
$ACADVER
  1
AC1015
  9
$ACADMAINTVER
 70
     6
  9
$DWGCODEPAGE
  3
ANSI_1251
  9
$INSBASE
 10
0.0
 20
0.0
 30
0.0
  9
$EXTMIN
 10
0.0
 20
0.0
 30
0.0
  9
$EXTMAX
 10
841.0
 20
594.0
 30
0.0
  9
$LIMMIN
 10
0.0
 20
0.0
  9
$LIMMAX
 10
841.0
 20
594.0
  9
$ORTHOMODE
 70
     0
  9
$REGENMODE
 70
     1
  9
$FILLMODE
 70
     1
  9
$QTEXTMODE
 70
     0
  9
$MIRRTEXT
 70
     1
  9
$LTSCALE
 40
1.0
  9
$ATTMODE
 70
     1
  9
$TEXTSIZE
 40
3.5
  9
$TRACEWID
 40
1.0
  9
$TEXTSTYLE
  7
Standard
  9
$CLAYER
  8
0
  9
$CELTYPE
  6
ByLayer
  9
$CECOLOR
 62
   256
  9
$CELTSCALE
 40
1.0
  9
$DISPSILH
 70
     0
  9
$DIMSCALE
 40
1.0
  9
$DIMASZ
 40
3.5
  9
$DIMEXO
 40
0.01
  9
$DIMDLI
 40
3.75
  9
$DIMRND
 40
0.0
  9
$DIMDLE
 40
0.0
  9
$DIMEXE
 40
1.0
  9
$DIMTP
 40
0.0
  9
$DIMTM
 40
0.0
  9
$DIMTXT
 40
3.5
  9
$DIMCEN
 40
2.5
  9
$DIMTSZ
 40
0.0
  9
$DIMTOL
 70
     0
  9
$DIMLIM
 70
     0
  9
$DIMTIH
 70
     1
  9
$DIMTOH
 70
     1
  9
$DIMSE1
 70
     0
  9
$DIMSE2
 70
     0
  9
$DIMTAD
 70
     1
  9
$DIMZIN
 70
     0
  9
$DIMBLK
  1

  9
$DIMASO
 70
     1
  9
$DIMSHO
 70
     1
  9
$DIMPOST
  1

  9
$DIMAPOST
  1

  9
$DIMALT
 70
     0
  9
$DIMALTD
 70
     3
  9
$DIMALTF
 40
0.0393700787
  9
$DIMLFAC
 40
1.0
  9
$DIMTOFL
 70
     1
  9
$DIMTVP
 40
0.0
  9
$DIMTIX
 70
     0
  9
$DIMSOXD
 70
     0
  9
$DIMSAH
 70
     0
  9
$DIMBLK1
  1

  9
$DIMBLK2
  1

  9
$DIMSTYLE
  2
ISO-25
  9
$DIMCLRD
 70
     0
  9
$DIMCLRE
 70
     0
  9
$DIMCLRT
 70
     0
  9
$DIMTFAC
 40
1.0
  9
$DIMGAP
 40
3.0
  9
$DIMJUST
 70
     0
  9
$DIMSD1
 70
     0
  9
$DIMSD2
 70
     0
  9
$DIMTOLJ
 70
     0
  9
$DIMTZIN
 70
     0
  9
$DIMALTZ
 70
     0
  9
$DIMALTTZ
 70
     0
  9
$DIMUPT
 70
     0
  9
$DIMDEC
 70
     2
  9
$DIMTDEC
 70
     3
  9
$DIMALTU
 70
     2
  9
$DIMALTTD
 70
     3
  9
$DIMTXSTY
  7
Standard
  9
$DIMAUNIT
 70
     0
  9
$DIMADEC
 70
     2
  9
$DIMALTRND
 40
0.0
  9
$DIMAZIN
 70
     0
  9
$DIMDSEP
 70
    44
  9
$DIMATFIT
 70
     3
  9
$DIMFRAC
 70
     0
  9
$DIMLDRBLK
  1

  9
$DIMLUNIT
 70
     2
  9
$DIMLWD
 70
    -2
  9
$DIMLWE
 70
    -2
  9
$DIMTMOVE
 70
     0
  9
$LUNITS
 70
     2
  9
$LUPREC
 70
     2
  9
$SKETCHINC
 40
1.0
  9
$FILLETRAD
 40
10.0
  9
$AUNITS
 70
     0
  9
$AUPREC
 70
     2
  9
$MENU
  1
.
  9
$ELEVATION
 40
0.0
  9
$PELEVATION
 40
0.0
  9
$THICKNESS
 40
0.0
  9
$LIMCHECK
 70
     0
  9
$CHAMFERA
 40
0.0
  9
$CHAMFERB
 40
0.0
  9
$CHAMFERC
 40
0.0
  9
$CHAMFERD
 40
0.0
  9
$SKPOLY
 70
     0
  9
$TDCREATE
 40
2459732.615525521
  9
$TDUCREATE
 40
2459732.490525521
  9
$TDUPDATE
 40
2459732.615526632
  9
$TDUUPDATE
 40
2459732.490526632
  9
$TDINDWG
 40
0.0000000116
  9
$TDUSRTIMER
 40
0.0000000116
  9
$USRTIMER
 70
     1
  9
$ANGBASE
 50
0.0
  9
$ANGDIR
 70
     0
  9
$PDMODE
 70
     0
  9
$PDSIZE
 40
-1.0
  9
$PLINEWID
 40
0.0
  9
$SPLFRAME
 70
     0
  9
$SPLINETYPE
 70
     6
  9
$SPLINESEGS
 70
     8
  9
$HANDSEED
  5
517
  9
$SURFTAB1
 70
     6
  9
$SURFTAB2
 70
     6
  9
$SURFTYPE
 70
     6
  9
$SURFU
 70
     6
  9
$SURFV
 70
     6
  9
$UCSBASE
  2

  9
$UCSNAME
  2

  9
$UCSORG
 10
0.0
 20
0.0
 30
0.0
  9
$UCSXDIR
 10
1.0
 20
0.0
 30
0.0
  9
$UCSYDIR
 10
0.0
 20
1.0
 30
0.0
  9
$UCSORTHOREF
  2

  9
$UCSORTHOVIEW
 70
     0
  9
$UCSORGTOP
 10
0.0
 20
0.0
 30
0.0
  9
$UCSORGBOTTOM
 10
0.0
 20
0.0
 30
0.0
  9
$UCSORGLEFT
 10
0.0
 20
0.0
 30
0.0
  9
$UCSORGRIGHT
 10
0.0
 20
0.0
 30
0.0
  9
$UCSORGFRONT
 10
0.0
 20
0.0
 30
0.0
  9
$UCSORGBACK
 10
0.0
 20
0.0
 30
0.0
  9
$PUCSBASE
  2

  9
$PUCSNAME
  2

  9
$PUCSORG
 10
0.0
 20
0.0
 30
0.0
  9
$PUCSXDIR
 10
1.0
 20
0.0
 30
0.0
  9
$PUCSYDIR
 10
0.0
 20
1.0
 30
0.0
  9
$PUCSORTHOREF
  2

  9
$PUCSORTHOVIEW
 70
     0
  9
$PUCSORGTOP
 10
0.0
 20
0.0
 30
0.0
  9
$PUCSORGBOTTOM
 10
0.0
 20
0.0
 30
0.0
  9
$PUCSORGLEFT
 10
0.0
 20
0.0
 30
0.0
  9
$PUCSORGRIGHT
 10
0.0
 20
0.0
 30
0.0
  9
$PUCSORGFRONT
 10
0.0
 20
0.0
 30
0.0
  9
$PUCSORGBACK
 10
0.0
 20
0.0
 30
0.0
  9
$USERI1
 70
     0
  9
$USERI2
 70
     0
  9
$USERI3
 70
     0
  9
$USERI4
 70
     0
  9
$USERI5
 70
     0
  9
$USERR1
 40
0.0
  9
$USERR2
 40
0.0
  9
$USERR3
 40
0.0
  9
$USERR4
 40
0.0
  9
$USERR5
 40
0.0
  9
$WORLDVIEW
 70
     1
  9
$SHADEDGE
 70
     3
  9
$SHADEDIF
 70
    70
  9
$TILEMODE
 70
     1
  9
$MAXACTVP
 70
    64
  9
$PINSBASE
 10
0.0
 20
0.0
 30
0.0
  9
$PLIMCHECK
 70
     0
  9
$PEXTMIN
 10
1.0000000000E+20
 20
1.0000000000E+20
 30
1.0000000000E+20
  9
$PEXTMAX
 10
-1.0000000000E+20
 20
-1.0000000000E+20
 30
-1.0000000000E+20
  9
$PLIMMIN
 10
0.0
 20
0.0
  9
$PLIMMAX
 10
420.0
 20
297.0
  9
$UNITMODE
 70
     0
  9
$VISRETAIN
 70
     1
  9
$PLINEGEN
 70
     0
  9
$PSLTSCALE
 70
     1
  9
$TREEDEPTH
 70
  3020
  9
$CMLSTYLE
  2
Standard
  9
$CMLJUST
 70
     0
  9
$CMLSCALE
 40
20.0
  9
$PROXYGRAPHICS
 70
     1
  9
$MEASUREMENT
 70
     1
  9
$CELWEIGHT
370
    -1
  9
$ENDCAPS
280
     0
  9
$JOINSTYLE
280
     0
  9
$LWDISPLAY
290
     1
  9
$INSUNITS
 70
     4
  9
$HYPERLINKBASE
  1

  9
$STYLESHEET
  1

  9
$XEDIT
290
     1
  9
$CEPSNTYPE
380
     0
  9
$PSTYLEMODE
290
     1
  9
$FINGERPRINTGUID
  2
{E11B1140-5142-4A3E-8EBD-7C5B21502E49}
  9
$VERSIONGUID
  2
{FAEB1C32-E019-11D5-929B-00C0DF256EC4}
  9
$EXTNAMES
290
     1
  9
$PSVPSCALE
 40
0.0
  9
$OLESTARTUP
290
     0
  0
ENDSEC
  0
SECTION
  2
CLASSES
  0
CLASS
  1
ACDBDICTIONARYWDFLT
  2
AcDbDictionaryWithDefault
  3
ObjectDBX Classes
 90
        0
280
     0
281
     0
  0
CLASS
  1
VISUALSTYLE
  2
AcDbVisualStyle
  3
ObjectDBX Classes
 90
     4095
280
     0
281
     0
  0
CLASS
  1
MATERIAL
  2
AcDbMaterial
  3
ObjectDBX Classes
 90
     1153
280
     0
281
     0
  0
CLASS
  1
SCALE
  2
AcDbScale
  3
ObjectDBX Classes
 90
     1153
280
     0
281
     0
  0
CLASS
  1
TABLESTYLE
  2
AcDbTableStyle
  3
ObjectDBX Classes
 90
     4095
280
     0
281
     0
  0
CLASS
  1
MLEADERSTYLE
  2
AcDbMLeaderStyle
  3
ACDB_MLEADERSTYLE_CLASS
 90
     4095
280
     0
281
     0
  0
CLASS
  1
SUN
  2
AcDbSun
  3
SCENEOE
 90
     1153
280
     0
281
     0
  0
CLASS
  1
ACDBPLACEHOLDER
  2
AcDbPlaceHolder
  3
ObjectDBX Classes
 90
        0
280
     0
281
     0
  0
CLASS
  1
LAYOUT
  2
AcDbLayout
  3
ObjectDBX Classes
 90
        0
280
     0
281
     0
  0
ENDSEC
  0
SECTION
  2
TABLES
  0
TABLE
  2
VPORT
  5
8
330
0
100
AcDbSymbolTable
 70
     1
  0
VPORT
  5
29
330
8
100
AcDbSymbolTableRecord
100
AcDbViewportTableRecord
  2
*Active
 70
     0
 10
0.0
 20
0.0
 11
1.0
 21
1.0
 12
420.5
 22
297.0
 13
0.0
 23
0.0
 14
10.0
 24
10.0
 15
10.0
 25
10.0
 16
0.0
 26
0.0
 36
1.0
 17
0.0
 27
0.0
 37
0.0
 40
594.0
 41
1.4158249158
 42
50.0
 43
0.0
 44
0.0
 50
0.0
 51
0.0
 71
     0
 72
  2000
 73
     1
 74
     3
 75
     0
 76
     0
 77
     0
 78
     0
281
     0
 65
     1
110
0.0
120
0.0
130
0.0
111
1.0
121
0.0
131
0.0
112
0.0
122
1.0
132
0.0
 79
     0
146
0.0
  0
ENDTAB
  0
TABLE
  2
LTYPE
  5
5
330
0
100
AcDbSymbolTable
 70
     6
  0
LTYPE
  5
14
330
5
100
AcDbSymbolTableRecord
100
AcDbLinetypeTableRecord
  2
ByBlock
 70
     0
  3

 72
    65
 73
     0
 40
0.0
  0
LTYPE
  5
15
330
5
100
AcDbSymbolTableRecord
100
AcDbLinetypeTableRecord
  2
ByLayer
 70
     0
  3

 72
    65
 73
     0
 40
0.0
  0
LTYPE
  5
16
330
5
100
AcDbSymbolTableRecord
100
AcDbLinetypeTableRecord
  2
Continuous
 70
     0
  3
Solid line
 72
    65
 73
     0
 40
0.0
  0
LTYPE
  5
6E
330
5
100
AcDbSymbolTableRecord
100
AcDbLinetypeTableRecord
  2
HIDDEN
 70
     0
  3
Hidden __ __ __ __ __ __ __ __ __ __ __ __ __ __
 72
    65
 73
     2
 40
1.905
 49
1.27
 74
     0
 49
-0.635
 74
     0
  0
LTYPE
  5
6F
330
5
100
AcDbSymbolTableRecord
100
AcDbLinetypeTableRecord
  2
PHANTOM
 70
     0
  3
Phantom ______  __  __  ______  __  __  ______
 72
    65
 73
     6
 40
12.7
 49
6.35
 74
     0
 49
-1.27
 74
     0
 49
1.27
 74
     0
 49
-1.27
 74
     0
 49
1.27
 74
     0
 49
-1.27
 74
     0
  0
LTYPE
  5
70
330
5
100
AcDbSymbolTableRecord
100
AcDbLinetypeTableRecord
  2
CENTER
 70
     0
  3
Center ____ _ ____ _ ____ _ ____ _ ____ _ ____
 72
    65
 73
     4
 40
10.16
 49
6.35
 74
     0
 49
-1.27
 74
     0
 49
1.27
 74
     0
 49
-1.27
 74
     0
  0
LTYPE
  5
71
330
5
100
AcDbSymbolTableRecord
100
AcDbLinetypeTableRecord
  2
CENTERX2
 70
     0
  3
Center (2x) ________  __  ________  __  _____
 72
    65
 73
     4
 40
20.32
 49
12.7
 74
     0
 49
-2.54
 74
     0
 49
2.54
 74
     0
 49
-2.54
 74
     0
  0
LTYPE
  5
72
330
5
100
AcDbSymbolTableRecord
100
AcDbLinetypeTableRecord
  2
DOT2
 70
     0
  3
Dot (.5x) ........................................
 72
    65
 73
     2
 40
0.635
 49
0.0
 74
     0
 49
-0.635
 74
     0
  0
ENDTAB
  0
TABLE
  2
LAYER
  5
2
330
0
100
AcDbSymbolTable
 70
     1
  0
LAYER
  5
10
330
2
100
AcDbSymbolTableRecord
100
AcDbLayerTableRecord
  2
0
 70
     0
 62
     7
  6
Continuous
370
    -3
390
F
  0
ENDTAB
  0
TABLE
  2
STYLE
  5
3
330
0
100
AcDbSymbolTable
 70
     1
  0
STYLE
  5
11
330
3
100
AcDbSymbolTableRecord
100
AcDbTextStyleTableRecord
  2
Standard
 70
     0
 40
0.0
 41
1.0
 50
0.0
 71
     0
 42
3.5
  3
txt
  4

  0
ENDTAB
  0
TABLE
  2
VIEW
  5
6
330
0
100
AcDbSymbolTable
 70
     0
  0
ENDTAB
  0
TABLE
  2
UCS
  5
7
330
0
100
AcDbSymbolTable
 70
     0
  0
ENDTAB
  0
TABLE
  2
APPID
  5
9
330
0
100
AcDbSymbolTable
 70
     1
  0
APPID
  5
12
330
9
100
AcDbSymbolTableRecord
100
AcDbRegAppTableRecord
  2
ACAD
 70
     0
  0
ENDTAB
  0
TABLE
  2
DIMSTYLE
  5
A
330
0
100
AcDbSymbolTable
 70
     1
100
AcDbDimStyleTable
  0
DIMSTYLE
105
27
330
A
100
AcDbSymbolTableRecord
100
AcDbDimStyleTableRecord
  2
ISO-25
 70
     0
 41
2.5
 42
0.625
 43
3.75
 44
1.25
 73
     0
 74
     0
 77
     1
 78
     8
140
2.5
141
2.5
143
0.0393700787
147
0.625
171
     3
172
     1
178
     0
271
     2
272
     2
274
     3
278
    44
283
     0
284
     8
340
11
  0
ENDTAB
  0
TABLE
  2
BLOCK_RECORD
  5
1
330
0
100
AcDbSymbolTable
 70
     1
  0
BLOCK_RECORD
  5
1F
330
1
100
AcDbSymbolTableRecord
100
AcDbBlockTableRecord
  2
*Model_Space
340
22
  0
BLOCK_RECORD
  5
1B
330
1
100
AcDbSymbolTableRecord
100
AcDbBlockTableRecord
  2
*Paper_Space
340
1E
  0
BLOCK_RECORD
  5
23
330
1
100
AcDbSymbolTableRecord
100
AcDbBlockTableRecord
  2
*Paper_Space0
340
26
  0
ENDTAB
  0
ENDSEC
  0
SECTION
  2
BLOCKS
  0
BLOCK
  5
20
330
1F
100
AcDbEntity
  8
0
100
AcDbBlockBegin
  2
*Model_Space
 70
     0
 10
0.0
 20
0.0
 30
0.0
  3
*Model_Space
  1

  0
ENDBLK
  5
21
330
1F
100
AcDbEntity
  8
0
100
AcDbBlockEnd
  0
BLOCK
  5
1C
330
1B
100
AcDbEntity
 67
     1
  8
0
100
AcDbBlockBegin
  2
*Paper_Space
 70
     0
 10
0.0
 20
0.0
 30
0.0
  3
*Paper_Space
  1

  0
ENDBLK
  5
1D
330
1B
100
AcDbEntity
 67
     1
  8
0
100
AcDbBlockEnd
  0
BLOCK
  5
24
330
23
100
AcDbEntity
  8
0
100
AcDbBlockBegin
  2
*Paper_Space0
 70
     0
 10
0.0
 20
0.0
 30
0.0
  3
*Paper_Space0
  1

  0
ENDBLK
  5
25
330
23
100
AcDbEntity
  8
0
100
AcDbBlockEnd
  0
ENDSEC
  0
SECTION
  2
ENTITIES
  0
ARC
  5
73
330
1F
100
AcDbEntity
  8
0
  6
Continuous
 62
     7
370
    25
100
AcDbCircle
 10
863.2128208011
 20
711.9578644957
 30
0.0
 40
0.5000000000001137
100
AcDbArc
 50
180.0
 51
360.0
  0
ARC
  5
74
330
1F
100
AcDbEntity
  8
0
  6
Continuous
 62
     7
370
    25
100
AcDbCircle
 10
863.2128208011
 20
723.5578644959
 30
0.0
 40
0.5
100
AcDbArc
 50
0.0
 51
180.0
  0
LINE
  5
75
330
1F
100
AcDbEntity
  8
0
  6
Continuous
 62
     7
370
    25
100
AcDbLine
 10
858.7128208011
 20
712.7578644958
 30
0.0
 11
858.923399856
 21
712.3931308735
 31
0.0
  0
LINE
  5
76
330
1F
100
AcDbEntity
  8
0
  6
Continuous
 62
     7
370
    25
100
AcDbLine
 10
873.1715708011
 20
720.7578644958
 30
0.0
 11
864.5128208011
 21
720.7578644958
 31
0.0
  0
LINE
  5
77
330
1F
100
AcDbEntity
  8
0
  6
Continuous
 62
     7
370
    25
100
AcDbLine
 10
864.5128208011
 20
714.7578644958
 30
0.0
 11
873.1715708011
 21
714.7578644958
 31
0.0
  0
LINE
  5
78
330
1F
100
AcDbEntity
  8
0
  6
Continuous
 62
     7
370
    25
100
AcDbLine
 10
873.1715708011
 20
714.7578644958
 30
0.0
 11
873.7128208011
 21
715.2991144957
 31
0.0
  0
LINE
  5
79
330
1F
100
AcDbEntity
  8
0
  6
Continuous
 62
     7
370
    25
100
AcDbLine
 10
873.7128208011
 20
720.2166144958
 30
0.0
 11
873.1715708011
 21
720.7578644958
 31
0.0
  0
LINE
  5
7A
330
1F
100
AcDbEntity
  8
0
  6
Continuous
 62
     7
370
    25
100
AcDbLine
 10
858.923399856
 20
723.122598118
 30
0.0
 11
858.7128208011
 21
722.7578644958
 31
0.0
  0
ARC
  5
7B
330
1F
100
AcDbEntity
  8
0
  6
Continuous
 62
     7
370
    25
100
AcDbCircle
 10
863.2128208011
 20
698.5578644959
 30
0.0
 40
0.5000000000001137
100
AcDbArc
 50
0.0
 51
113.578178478
  0
LINE
  5
7C
330
1F
100
AcDbEntity
  8
0
  6
Continuous
 62
     7
370
    25
100
AcDbLine
 10
873.1715708011
 20
695.7578644958
 30
0.0
 11
864.5128208011
 21
695.7578644958
 31
0.0
  0
LINE
  5
7D
330
1F
100
AcDbEntity
  8
0
  6
Continuous
 62
     7
370
    25
100
AcDbLine
 10
873.1715708011
 20
689.7578644958
 30
0.0
 11
873.7128208011
 21
690.2991144957
 31
0.0
  0
LINE
  5
7E
330
1F
100
AcDbEntity
  8
0
  6
Continuous
 62
     7
370
    25
100
AcDbLine
 10
873.7128208011
 20
695.2166144958
 30
0.0
 11
873.1715708011
 21
695.7578644958
 31
0.0
  0
ARC
  5
7F
330
1F
100
AcDbEntity
  8
0
  6
Continuous
 62
     7
370
    25
100
AcDbCircle
 10
-40.1871791989
 20
698.5578644959
 30
0.0
 40
0.5000000000000111
100
AcDbArc
 50
66.4218215219
 51
180.0
  0
LINE
  5
80
330
1F
100
AcDbEntity
  8
0
  6
Continuous
 62
     7
370
    25
100
AcDbLine
 10
-50.1459291989
 20
695.7578644958
 30
0.0
 11
-50.6871791989
 21
695.2166144958
 31
0.0
  0
LINE
  5
81
330
1F
100
AcDbEntity
  8
0
  6
Continuous
 62
     7
370
    25
100
AcDbLine
 10
-50.6871791989
 20
690.2991144957
 30
0.0
 11
-50.1459291989
 21
689.7578644958
 31
0.0
  0
LINE
  5
82
330
1F
100
AcDbEntity
  8
0
  6
Continuous
 62
     7
370
    25
100
AcDbLine
 10
-41.4871791989
 20
695.7578644958
 30
0.0
 11
-50.1459291989
 21
695.7578644958
 31
0.0
  0
ARC
  5
83
330
1F
100
AcDbEntity
  8
0
  6
Continuous
 62
     7
370
    25
100
AcDbCircle
 10
-40.1871791989
 20
723.5578644959
 30
0.0
 40
0.5
100
AcDbArc
 50
0.0
 51
180.0
  0
ARC
  5
84
330
1F
100
AcDbEntity
  8
0
  6
Continuous
 62
     7
370
    25
100
AcDbCircle
 10
-40.1871791989
 20
711.9578644957
 30
0.0
 40
0.5
100
AcDbArc
 50
180.0
 51
360.0
  0
LINE
  5
85
330
1F
100
AcDbEntity
  8
0
  6
Continuous
 62
     7
370
    25
100
AcDbLine
 10
-50.1459291989
 20
714.7578644958
 30
0.0
 11
-41.4871791989
 21
714.7578644958
 31
0.0
  0
LINE
  5
86
330
1F
100
AcDbEntity
  8
0
  6
Continuous
 62
     7
370
    25
100
AcDbLine
 10
-41.4871791989
 20
720.7578644958
 30
0.0
 11
-50.1459291989
 21
720.7578644958
 31
0.0
  0
LINE
  5
87
330
1F
100
AcDbEntity
  8
0
  6
Continuous
 62
     7
370
    25
100
AcDbLine
 10
-50.1459291989
 20
720.7578644958
 30
0.0
 11
-50.6871791989
 21
720.2166144958
 31
0.0
  0
LINE
  5
88
330
1F
100
AcDbEntity
  8
0
  6
Continuous
 62
     7
370
    25
100
AcDbLine
 10
-50.6871791989
 20
715.2991144957
 30
0.0
 11
-50.1459291989
 21
714.7578644958
 31
0.0
  0
SPLINE
  5
89
330
1F
100
AcDbEntity
  8
0
  6
Continuous
 62
     7
370
    25
100
AcDbSpline
210
0.0
220
0.0
230
1.0
 70
    24
 71
     3
 72
    16
 73
    12
 74
     0
 42
0.000000001
 43
0.00000001
 40
0.0
 40
0.0
 40
0.0
 40
0.0
 40
0.1658292928977469
 40
0.2550981074401226
 40
0.3462613343064168
 40
0.4374245611727116
 40
0.5266933757150815
 40
0.6925226686128337
 40
0.8583519615105841
 40
0.9476207760529565
 40
0.9999999999999999
 40
0.9999999999999999
 40
0.9999999999999999
 40
0.9999999999999999
 10
862.7128208010599
 20
721.4835541203952
 30
0.0
 10
862.7128208010599
 20
720.8746463227203
 30
0.0
 10
862.7128208010599
 20
719.9379527863847
 30
0.0
 10
862.71282080106
 20
718.4381540951487
 30
0.0
 10
862.71282080106
 20
717.2461970153336
 30
0.0
 10
862.7128208010599
 20
716.0717687411274
 30
0.0
 10
862.7128208010602
 20
714.66815544784
 30
0.0
 10
862.7128208010598
 20
713.2008123670577
 30
0.0
 10
862.7128208010599
 20
712.301625016237
 30
0.0
 10
862.7128208010599
 20
711.9737936891227
 30
0.0
 10
862.7128208010599
 20
711.9841841045632
 30
0.0
 10
862.7128208010599
 20
711.9880263172973
 30
0.0
  0
SPLINE
  5
8A
330
1F
100
AcDbEntity
  8
0
  6
Continuous
 62
     7
370
    25
100
AcDbSpline
210
0.0
220
0.0
230
1.0
 70
     8
 71
     3
 72
     8
 73
     4
 74
     0
 42
0.000000001
 43
0.00000001
 40
0.0
 40
0.0
 40
0.0
 40
0.0
 40
1.0
 40
1.0
 40
1.0
 40
1.0
 10
858.712820801067
 20
718.6233590663785
 30
0.0
 10
858.712820801067
 20
717.6529531304883
 30
0.0
 10
858.8871361014465
 20
716.7091067885572
 30
0.0
 10
859.1594027884584
 20
715.7801848339305
 30
0.0
  0
SPLINE
  5
8B
330
1F
100
AcDbEntity
  8
0
  6
Continuous
 62
     7
370
    25
100
AcDbSpline
210
0.0
220
0.0
230
1.0
 70
     8
 71
     3
 72
     8
 73
     4
 74
     0
 42
0.000000001
 43
0.00000001
 40
0.0
 40
0.0
 40
0.0
 40
0.0
 40
1.0
 40
1.0
 40
1.0
 40
1.0
 10
859.1594027884584
 20
721.4665332988266
 30
0.0
 10
858.8871361014469
 20
720.5376113442014
 30
0.0
 10
858.712820801067
 20
719.593765002267
 30
0.0
 10
858.712820801067
 20
718.6233590663785
 30
0.0
  0
LINE
  5
8C
330
1F
100
AcDbEntity
  8
0
  6
Continuous
 62
     7
370
    25
100
AcDbLine
 10
862.7128208011
 20
721.4665332988
 30
0.0
 11
859.1594027885
 21
721.4665332988
 31
0.0
  0
LINE
  5
8D
330
1F
100
AcDbEntity
  8
0
  6
Continuous
 62
     7
370
    25
100
AcDbLine
 10
862.7128208011
 20
715.7801848339
 30
0.0
 11
859.1594027885
 21
715.7801848339
 31
0.0
  0
LINE
  5
8E
330
1F
100
AcDbEntity
  8
0
  6
Continuous
 62
     7
370
    25
100
AcDbLine
 10
858.7128208011
 20
718.6233590664
 30
0.0
 11
858.7128208011
 21
713.9258504324
 31
0.0
  0
SPLINE
  5
8F
330
1F
100
AcDbEntity
  8
0
  6
Continuous
 62
     7
370
    25
100
AcDbSpline
210
0.0
220
0.0
230
1.0
 70
     8
 71
     3
 72
     8
 73
     4
 74
     0
 42
0.000000001
 43
0.00000001
 40
0.0
 40
0.0
 40
0.0
 40
0.0
 40
1.0
 40
1.0
 40
1.0
 40
1.0
 10
859.1594027884584
 20
715.7801848339243
 30
0.0
 10
858.8871361014469
 20
715.1743366529931
 30
0.0
 10
858.7128208010671
 20
714.5587547017942
 30
0.0
 10
858.7128208010671
 20
713.9258504323928
 30
0.0
  0
SPLINE
  5
90
330
1F
100
AcDbEntity
  8
0
  6
Continuous
 62
     7
370
    25
100
AcDbSpline
210
0.0
220
0.0
230
1.0
 70
     8
 71
     3
 72
     8
 73
     4
 74
     0
 42
0.000000001
 43
0.00000001
 40
0.0
 40
0.0
 40
0.0
 40
0.0
 40
1.0
 40
1.0
 40
1.0
 40
1.0
 10
858.7128208010671
 20
713.9258504323928
 30
0.0
 10
858.7128208010671
 20
713.2929461629905
 30
0.0
 10
858.8871361014465
 20
712.6773642117936
 30
0.0
 10
859.1594027884584
 20
712.0715160308615
 30
0.0
  0
LINE
  5
91
330
1F
100
AcDbEntity
  8
0
  6
Continuous
 62
     7
370
    25
100
AcDbLine
 10
862.7128208011
 20
712.0715160309
 30
0.0
 11
859.1594027885
 21
712.0715160309
 31
0.0
  0
LINE
  5
92
330
1F
100
AcDbEntity
  8
0
  6
Continuous
 62
     7
370
    25
100
AcDbLine
 10
858.7128208011
 20
722.4553731297
 30
0.0
 11
858.7128208011
 21
718.6233590664
 31
0.0
  0
SPLINE
  5
93
330
1F
100
AcDbEntity
  8
0
  6
Continuous
 62
     7
370
    25
100
AcDbSpline
210
0.0
220
0.0
230
1.0
 70
     8
 71
     3
 72
     8
 73
     4
 74
     0
 42
0.000000001
 43
0.00000001
 40
0.0
 40
0.0
 40
0.0
 40
0.0
 40
1.0
 40
1.0
 40
1.0
 40
1.0
 10
858.7128208010669
 20
722.4553731297481
 30
0.0
 10
858.7128208010669
 20
722.1178714632604
 30
0.0
 10
858.8871361014463
 20
721.789607072526
 30
0.0
 10
859.1594027884584
 20
721.4665332988316
 30
0.0
  0
SPLINE
  5
94
330
1F
100
AcDbEntity
  8
0
  6
Continuous
 62
     7
370
    25
100
AcDbSpline
210
0.0
220
0.0
230
1.0
 70
     8
 71
     3
 72
     8
 73
     4
 74
     0
 42
0.000000001
 43
0.00000001
 40
0.0
 40
0.0
 40
0.0
 40
0.0
 40
1.0
 40
1.0
 40
1.0
 40
1.0
 10
859.1594027884582
 20
723.4442129606645
 30
0.0
 10
858.8871361014468
 20
723.1211391869706
 30
0.0
 10
858.7128208010669
 20
722.7928747962351
 30
0.0
 10
858.7128208010669
 20
722.4553731297481
 30
0.0
  0
LINE
  5
95
330
1F
100
AcDbEntity
  8
0
  6
Continuous
 62
     7
370
    25
100
AcDbLine
 10
862.7128208011
 20
723.4442129607
 30
0.0
 11
859.1594027885
 21
723.4442129607
 31
0.0
  0
LINE
  5
96
330
1F
100
AcDbEntity
  8
0
  6
Continuous
 62
     7
370
    25
100
AcDbLine
 10
859.1594027885
 20
712.0715160309
 30
0.0
 11
858.9953847532
 21
712.4346913733
 31
0.0
  0
LINE
  5
97
330
1F
100
AcDbEntity
  8
0
  6
Continuous
 62
     7
370
    25
100
AcDbLine
 10
858.7128208011
 20
713.9258504324
 30
0.0
 11
858.7128208011
 21
712.7578644958
 31
0.0
  0
LINE
  5
98
330
1F
100
AcDbEntity
  8
0
  6
Continuous
 62
     7
370
    25
100
AcDbLine
 10
873.1715708011
 20
714.7578644958
 30
0.0
 11
873.1715708011
 21
720.7578644958
 31
0.0
  0
LINE
  5
99
330
1F
100
AcDbEntity
  8
0
  6
Continuous
 62
     7
370
    25
100
AcDbLine
 10
873.7128208011
 20
715.8734715801
 30
0.0
 11
873.7128208011
 21
720.2166144958
 31
0.0
  0
LINE
  5
9A
330
1F
100
AcDbEntity
  8
0
  6
Continuous
 62
     7
370
    25
100
AcDbLine
 10
873.7128208011
 20
715.2991144957
 30
0.0
 11
873.7128208011
 21
715.8734715801
 31
0.0
  0
LINE
  5
9B
330
1F
100
AcDbEntity
  8
0
  6
Continuous
 62
     7
370
    25
100
AcDbLine
 10
858.7128208011
 20
722.7578644958
 30
0.0
 11
858.7128208011
 21
722.4553731297
 31
0.0
  0
CIRCLE
  5
9C
330
1F
100
AcDbEntity
  8
0
  6
Continuous
 62
     7
370
    25
100
AcDbCircle
 10
14.0128208011
 20
664.7578644958
 30
0.0
 40
0.5000000000000018
  0
SPLINE
  5
9D
330
1F
100
AcDbEntity
  8
0
  6
Continuous
 62
     7
370
    25
100
AcDbSpline
210
0.0
220
0.0
230
1.0
 70
     8
 71
     3
 72
    20
 73
    16
 74
     0
 42
0.000000001
 43
0.00000001
 40
0.0
 40
0.0
 40
0.0
 40
0.0
 40
0.1250000000000007
 40
0.1250000000000007
 40
0.2500000000000014
 40
0.2500000000000014
 40
0.3750000000000021
 40
0.3750000000000021
 40
0.5000000000000028
 40
0.5000000000000028
 40
0.7500000000000042
 40
0.7500000000000042
 40
0.8750000000000021
 40
0.8750000000000021
 40
1.0
 40
1.0
 40
1.0
 40
1.0
 10
906.6128208010614
 20
687.357864495757
 30
0.0
 10
906.7711999887122
 20
687.3969052266116
 30
0.0
 10
906.9274457134038
 20
687.4354239308113
 30
0.0
 10
907.2354375628203
 20
687.5128306821192
 30
0.0
 10
907.3880816702915
 20
687.5519751001058
 30
0.0
 10
907.6771659594789
 20
687.6291258540213
 30
0.0
 10
907.8149704976628
 20
687.6674534357624
 30
0.0
 10
908.0765891733016
 20
687.7449997562386
 30
0.0
 10
908.1993354799844
 20
687.7839759639073
 30
0.0
 10
908.5306598569321
 20
687.8994708203523
 30
0.0
 10
908.7096709809601
 20
687.9773832640226
 30
0.0
 10
908.889286080341
 20
688.0928631894233
 30
0.0
 10
908.9355304292088
 20
688.1317289852883
 30
0.0
 10
908.9972837352201
 20
688.2095033189569
 30
0.0
 10
909.0128208010615
 20
688.2481130859118
 30
0.0
 10
909.0128208010615
 20
688.2871538176382
 30
0.0
  0
SPLINE
  5
9E
330
1F
100
AcDbEntity
  8
0
  6
Continuous
 62
     7
370
    25
100
AcDbSpline
210
0.0
220
0.0
230
1.0
 70
     8
 71
     3
 72
    14
 73
    10
 74
     0
 42
0.000000001
 43
0.00000001
 40
0.0
 40
0.0
 40
0.0
 40
0.0
 40
0.2499999999999999
 40
0.2499999999999999
 40
0.4999999999999999
 40
0.4999999999999999
 40
0.7499999999999998
 40
0.7499999999999998
 40
1.0
 40
1.0
 40
1.0
 40
1.0
 10
906.6128208010614
 20
687.357864495757
 30
0.0
 10
906.7450062169205
 20
687.4360659107787
 30
0.0
 10
906.8729882354538
 20
687.5117758580756
 30
0.0
 10
907.1156122604011
 20
687.6670562697226
 30
0.0
 10
907.2260545248112
 20
687.7440661193054
 30
0.0
 10
907.4120514220045
 20
687.899489605333
 30
0.0
 10
907.4858524008428
 20
687.9764393222513
 30
0.0
 10
907.5866709852378
 20
688.1318693015007
 30
0.0
 10
907.6128208010612
 20
688.2089524100732
 30
0.0
 10
907.6128208010614
 20
688.2871538176382
 30
0.0
  0
LINE
  5
9F
330
1F
100
AcDbEntity
  8
0
  6
Continuous
 62
     7
370
    25
100
AcDbLine
 10
909.0128208011
 20
688.2871538176
 30
0.0
 11
907.6128208011
 21
688.2871538176
 31
0.0
  0
LINE
  5
A0
330
1F
100
AcDbEntity
  8
0
  6
Continuous
 62
     7
370
    25
100
AcDbLine
 10
909.0128208011
 20
-104.7714248261
 30
0.0
 11
909.0128208011
 21
688.2871538176
 31
0.0
  0
SPLINE
  5
A1
330
1F
100
AcDbEntity
  8
0
  6
Continuous
 62
     7
370
    25
100
AcDbSpline
210
0.0
220
0.0
230
1.0
 70
     8
 71
     3
 72
    20
 73
    16
 74
     0
 42
0.000000001
 43
0.00000001
 40
0.0
 40
0.0
 40
0.0
 40
0.0
 40
0.1250000000000111
 40
0.1250000000000111
 40
0.2500000000000223
 40
0.2500000000000223
 40
0.3750000000000336
 40
0.3750000000000336
 40
0.5000000000000449
 40
0.5000000000000449
 40
0.7500000000000275
 40
0.7500000000000275
 40
0.8750000000000138
 40
0.8750000000000138
 40
1.0
 40
1.0
 40
1.0
 40
1.0
 10
909.0128208010615
 20
-104.7714248261245
 30
0.0
 10
909.0128208010615
 20
-104.73238409527
 30
0.0
 10
908.9972842405866
 20
-104.69386539107
 30
0.0
 10
908.935965888626
 20
-104.6164586397623
 30
0.0
 10
908.8895421430394
 20
-104.5773142217756
 30
0.0
 10
908.7695912728852
 20
-104.5001634678604
 30
0.0
 10
908.6959866286018
 20
-104.4618358861195
 30
0.0
 10
908.521256262506
 20
-104.3842895656428
 30
0.0
 10
908.4204056336044
 20
-104.3453133579741
 30
0.0
 10
908.0891203536205
 20
-104.2298185015292
 30
0.0
 10
907.8214401922367
 20
-104.151906057859
 30
0.0
 10
907.3887661661812
 20
-104.0364261324581
 30
0.0
 10
907.23724807933
 20
-103.997560336593
 30
0.0
 10
906.927822321944
 20
-103.9197860029246
 30
0.0
 10
906.7711999922503
 20
-103.8811762359698
 30
0.0
 10
906.6128208010614
 20
-103.8421355042431
 30
0.0
  0
SPLINE
  5
A2
330
1F
100
AcDbEntity
  8
0
  6
Continuous
 62
     7
370
    25
100
AcDbSpline
210
0.0
220
0.0
230
1.0
 70
     8
 71
     3
 72
    20
 73
    16
 74
     0
 42
0.000000001
 43
0.00000001
 40
0.0
 40
0.0
 40
0.0
 40
0.0
 40
0.125000000000002
 40
0.125000000000002
 40
0.250000000000004
 40
0.250000000000004
 40
0.375000000000006
 40
0.375000000000006
 40
0.500000000000008
 40
0.500000000000008
 40
0.750000000000012
 40
0.750000000000012
 40
0.875000000000006
 40
0.875000000000006
 40
1.0
 40
1.0
 40
1.0
 40
1.0
 10
906.6128208010614
 20
-103.842135504243
 30
0.0
 10
906.6518615319159
 20
-104.0005146918937
 30
0.0
 10
906.6903802361157
 20
-104.1567604165856
 30
0.0
 10
906.7677869874235
 20
-104.4647522660022
 30
0.0
 10
906.8069314054104
 20
-104.6173963734733
 30
0.0
 10
906.8840821593255
 20
-104.9064806626604
 30
0.0
 10
906.9224097410666
 20
-105.0442852008444
 30
0.0
 10
906.9999560615431
 20
-105.3059038764832
 30
0.0
 10
907.0389322692117
 20
-105.428650183166
 30
0.0
 10
907.1544271256564
 20
-105.7599745601137
 30
0.0
 10
907.2323395693269
 20
-105.9389856841418
 30
0.0
 10
907.3478194947279
 20
-106.1186007835228
 30
0.0
 10
907.3866852905927
 20
-106.1648451323904
 30
0.0
 10
907.4644596242612
 20
-106.2265984384017
 30
0.0
 10
907.5030693912161
 20
-106.2421355042433
 30
0.0
 10
907.5421101229427
 20
-106.2421355042431
 30
0.0
  0
SPLINE
  5
A3
330
1F
100
AcDbEntity
  8
0
  6
Continuous
 62
     7
370
    25
100
AcDbSpline
210
0.0
220
0.0
230
1.0
 70
     8
 71
     3
 72
    14
 73
    10
 74
     0
 42
0.000000001
 43
0.00000001
 40
0.0
 40
0.0
 40
0.0
 40
0.0
 40
0.25
 40
0.25
 40
0.5
 40
0.5
 40
0.75
 40
0.75
 40
1.0
 40
1.0
 40
1.0
 40
1.0
 10
906.6128208010614
 20
-103.8421355042431
 30
0.0
 10
906.6910222160831
 20
-103.9743209201019
 30
0.0
 10
906.7667321633801
 20
-104.1023029386356
 30
0.0
 10
906.9220125750269
 20
-104.3449269635828
 30
0.0
 10
906.9990224246101
 20
-104.4553692279929
 30
0.0
 10
907.1544459106373
 20
-104.6413661251863
 30
0.0
 10
907.2313956275559
 20
-104.7151671040247
 30
0.0
 10
907.3868256068051
 20
-104.8159856884198
 30
0.0
 10
907.4639087153778
 20
-104.8421355042431
 30
0.0
 10
907.5421101229427
 20
-104.8421355042431
 30
0.0
  0
LINE
  5
A4
330
1F
100
AcDbEntity
  8
0
  6
Continuous
 62
     7
370
    25
100
AcDbLine
 10
907.5421101229
 20
-106.2421355042
 30
0.0
 11
907.5421101229
 21
-104.8421355042
 31
0.0
  0
LINE
  5
A5
330
1F
100
AcDbEntity
  8
0
  6
Continuous
 62
     7
370
    25
100
AcDbLine
 10
909.0128208011
 20
-104.7714248261
 30
0.0
 11
907.6128208011
 21
-104.7714248261
 31
0.0
  0
SPLINE
  5
A6
330
1F
100
AcDbEntity
  8
0
  6
Continuous
 62
     7
370
    25
100
AcDbSpline
210
0.0
220
0.0
230
1.0
 70
     8
 71
     3
 72
    14
 73
    10
 74
     0
 42
0.000000001
 43
0.00000001
 40
0.0
 40
0.0
 40
0.0
 40
0.0
 40
0.2499999999999998
 40
0.2499999999999998
 40
0.4999999999999999
 40
0.4999999999999999
 40
0.7499999999999999
 40
0.7499999999999999
 40
1.0
 40
1.0
 40
1.0
 40
1.0
 10
907.6128208010614
 20
-104.7714248261245
 30
0.0
 10
907.6128208010614
 20
-104.6932234111029
 30
0.0
 10
907.5872621363814
 20
-104.6175134638059
 30
0.0
 10
907.4871341077843
 20
-104.4622330521587
 30
0.0
 10
907.4135699284799
 20
-104.3852232025758
 30
0.0
 10
907.2280322927882
 20
-104.2297997165484
 30
0.0
 10
907.117867371829
 20
-104.1528499996301
 30
0.0
 10
906.8752556151394
 20
-103.9974200203807
 30
0.0
 10
906.7450062043164
 20
-103.9203369118083
 30
0.0
 10
906.6128208010614
 20
-103.8421355042431
 30
0.0
  0
LINE
  5
A7
330
1F
100
AcDbEntity
  8
0
  6
Continuous
 62
     7
370
    25
100
AcDbLine
 10
-84.5164685208
 20
-106.2421355042
 30
0.0
 11
907.5421101229
 21
-106.2421355042
 31
0.0
  0
SPLINE
  5
A8
330
1F
100
AcDbEntity
  8
0
  6
Continuous
 62
     7
370
    25
100
AcDbSpline
210
0.0
220
0.0
230
1.0
 70
     8
 71
     3
 72
    20
 73
    16
 74
     0
 42
0.000000001
 43
0.00000001
 40
0.0
 40
0.0
 40
0.0
 40
0.0
 40
0.125
 40
0.125
 40
0.2499999999999999
 40
0.2499999999999999
 40
0.3749999999999999
 40
0.3749999999999999
 40
0.5
 40
0.5
 40
0.75
 40
0.75
 40
0.875
 40
0.875
 40
1.0
 40
1.0
 40
1.0
 40
1.0
 10
-84.51646852081984
 20
-106.2421355042431
 30
0.0
 10
-84.4774277899653
 20
-106.2421355042431
 30
0.0
 10
-84.43890908576552
 20
-106.2265989437683
 30
0.0
 10
-84.36150233445755
 20
-106.1652805918077
 30
0.0
 10
-84.32235791647096
 20
-106.1188568462209
 30
0.0
 10
-84.24520716255584
 20
-105.9989059760667
 30
0.0
 10
-84.20687958081457
 20
-105.9253013317832
 30
0.0
 10
-84.12933326033806
 20
-105.7505709656876
 30
0.0
 10
-84.09035705266949
 20
-105.6497203367861
 30
0.0
 10
-83.97486219622475
 20
-105.3184350568021
 30
0.0
 10
-83.89694975255446
 20
-105.0507548954183
 30
0.0
 10
-83.78146982715361
 20
-104.6180808693631
 30
0.0
 10
-83.74260403128858
 20
-104.4665627825118
 30
0.0
 10
-83.66482969761996
 20
-104.1571370251257
 30
0.0
 10
-83.62621993066527
 20
-104.000514695432
 30
0.0
 10
-83.5871791989386
 20
-103.8421355042433
 30
0.0
  0
SPLINE
  5
A9
330
1F
100
AcDbEntity
  8
0
  6
Continuous
 62
     7
370
    25
100
AcDbSpline
210
0.0
220
0.0
230
1.0
 70
     8
 71
     3
 72
    20
 73
    16
 74
     0
 42
0.000000001
 43
0.00000001
 40
0.0
 40
0.0
 40
0.0
 40
0.0
 40
0.1250000000000067
 40
0.1250000000000067
 40
0.2500000000000134
 40
0.2500000000000134
 40
0.3750000000000201
 40
0.3750000000000201
 40
0.5000000000000268
 40
0.5000000000000268
 40
0.7500000000000001
 40
0.7500000000000001
 40
0.8750000000000001
 40
0.8750000000000001
 40
1.0
 40
1.0
 40
1.0
 40
1.0
 10
-83.58717919893854
 20
687.3578644957568
 30
0.0
 10
-83.62621992979314
 20
687.5162436834074
 30
0.0
 10
-83.66473863399293
 20
687.6724894080992
 30
0.0
 10
-83.74214538530073
 20
687.9804812575156
 30
0.0
 10
-83.78128980328736
 20
688.133125364987
 30
0.0
 10
-83.85844055720281
 20
688.4222096541741
 30
0.0
 10
-83.89676813894364
 20
688.560014192358
 30
0.0
 10
-83.97431445942021
 20
688.8216328679968
 30
0.0
 10
-84.01329066708901
 20
688.9443791746796
 30
0.0
 10
-84.12878552353436
 20
689.2757035516274
 30
0.0
 10
-84.20669796720404
 20
689.4547146756553
 30
0.0
 10
-84.32217789260504
 20
689.6343297750363
 30
0.0
 10
-84.36104368847013
 20
689.6805741239041
 30
0.0
 10
-84.43881802213859
 20
689.7423274299153
 30
0.0
 10
-84.47742778909328
 20
689.757864495757
 30
0.0
 10
-84.51646852081996
 20
689.7578644957568
 30
0.0
  0
SPLINE
  5
AA
330
1F
100
AcDbEntity
  8
0
  6
Continuous
 62
     7
370
    25
100
AcDbSpline
210
0.0
220
0.0
230
1.0
 70
     8
 71
     3
 72
    14
 73
    10
 74
     0
 42
0.000000001
 43
0.00000001
 40
0.0
 40
0.0
 40
0.0
 40
0.0
 40
0.2500000000000001
 40
0.2500000000000001
 40
0.5000000000000002
 40
0.5000000000000002
 40
0.7500000000000003
 40
0.7500000000000003
 40
1.0
 40
1.0
 40
1.0
 40
1.0
 10
-83.58717919893854
 20
687.3578644957568
 30
0.0
 10
-83.66538061396022
 20
687.4900499116156
 30
0.0
 10
-83.74109056125722
 20
687.6180319301495
 30
0.0
 10
-83.8963709729042
 20
687.8606559550966
 30
0.0
 10
-83.97338082248706
 20
687.9710982195066
 30
0.0
 10
-84.12880430851494
 20
688.1570951167
 30
0.0
 10
-84.20575402543312
 20
688.2308960955386
 30
0.0
 10
-84.36118400468234
 20
688.3317146799336
 30
0.0
 10
-84.43826711325497
 20
688.3578644957569
 30
0.0
 10
-84.51646852081996
 20
688.3578644957569
 30
0.0
  0
LINE
  5
AB
330
1F
100
AcDbEntity
  8
0
  6
Continuous
 62
     7
370
    25
100
AcDbLine
 10
-84.5164685208
 20
689.7578644958
 30
0.0
 11
-84.5164685208
 21
688.3578644958
 31
0.0
  0
LINE
  5
AC
330
1F
100
AcDbEntity
  8
0
  6
Continuous
 62
     7
370
    25
100
AcDbLine
 10
907.5421101229
 20
689.7578644958
 30
0.0
 11
-84.5164685208
 21
689.7578644958
 31
0.0
  0
SPLINE
  5
AD
330
1F
100
AcDbEntity
  8
0
  6
Continuous
 62
     7
370
    25
100
AcDbSpline
210
0.0
220
0.0
230
1.0
 70
     8
 71
     3
 72
    20
 73
    16
 74
     0
 42
0.000000001
 43
0.00000001
 40
0.0
 40
0.0
 40
0.0
 40
0.0
 40
0.1250000000000013
 40
0.1250000000000013
 40
0.2500000000000026
 40
0.2500000000000026
 40
0.3750000000000038
 40
0.3750000000000038
 40
0.5000000000000052
 40
0.5000000000000052
 40
0.7499999999999976
 40
0.7499999999999976
 40
0.8749999999999988
 40
0.8749999999999988
 40
1.0
 40
1.0
 40
1.0
 40
1.0
 10
907.5421101229429
 20
689.7578644957568
 30
0.0
 10
907.5030693920885
 20
689.7578644957568
 30
0.0
 10
907.4645506878885
 20
689.742327935282
 30
0.0
 10
907.3871439365806
 20
689.6810095833213
 30
0.0
 10
907.3479995185936
 20
689.6345858377347
 30
0.0
 10
907.2708487646786
 20
689.5146349675805
 30
0.0
 10
907.2325211829377
 20
689.4410303232969
 30
0.0
 10
907.1549748624612
 20
689.2662999572012
 30
0.0
 10
907.1159986547925
 20
689.1654493282999
 30
0.0
 10
907.0005037983475
 20
688.834164048316
 30
0.0
 10
906.9225913546773
 20
688.5664838869319
 30
0.0
 10
906.8071114292765
 20
688.1338098608767
 30
0.0
 10
906.7682456334113
 20
687.9822917740257
 30
0.0
 10
906.690471299743
 20
687.6728660166395
 30
0.0
 10
906.6518615327881
 20
687.5162436869457
 30
0.0
 10
906.6128208010614
 20
687.357864495757
 30
0.0
  0
LINE
  5
AE
330
1F
100
AcDbEntity
  8
0
  6
Continuous
 62
     7
370
    25
100
AcDbLine
 10
907.5421101229
 20
689.7578644958
 30
0.0
 11
907.5421101229
 21
688.3578644958
 31
0.0
  0
SPLINE
  5
AF
330
1F
100
AcDbEntity
  8
0
  6
Continuous
 62
     7
370
    25
100
AcDbSpline
210
0.0
220
0.0
230
1.0
 70
     8
 71
     3
 72
    14
 73
    10
 74
     0
 42
0.000000001
 43
0.00000001
 40
0.0
 40
0.0
 40
0.0
 40
0.0
 40
0.2499999999999998
 40
0.2499999999999998
 40
0.4999999999999999
 40
0.4999999999999999
 40
0.7499999999999999
 40
0.7499999999999999
 40
1.0
 40
1.0
 40
1.0
 40
1.0
 10
907.5421101229429
 20
688.3578644957569
 30
0.0
 10
907.4639087079213
 20
688.3578644957569
 30
0.0
 10
907.3881987606243
 20
688.3323058310766
 30
0.0
 10
907.2329183489771
 20
688.2321778024798
 30
0.0
 10
907.1559084993941
 20
688.1586136231755
 30
0.0
 10
907.0004850133668
 20
687.9730759874836
 30
0.0
 10
906.9235352964483
 20
687.8629110665242
 30
0.0
 10
906.7681053171992
 20
687.6202993098348
 30
0.0
 10
906.6910222086266
 20
687.490049899012
 30
0.0
 10
906.6128208010614
 20
687.357864495757
 30
0.0
  0
SPLINE
  5
B0
330
1F
100
AcDbEntity
  8
0
  6
Continuous
 62
     7
370
    25
100
AcDbSpline
210
0.0
220
0.0
230
1.0
 70
     8
 71
     3
 72
    20
 73
    16
 74
     0
 42
0.000000001
 43
0.00000001
 40
0.0
 40
0.0
 40
0.0
 40
0.0
 40
0.1249999999999974
 40
0.1249999999999974
 40
0.2499999999999948
 40
0.2499999999999948
 40
0.3749999999999922
 40
0.3749999999999922
 40
0.4999999999999896
 40
0.4999999999999896
 40
0.7499999999999948
 40
0.7499999999999948
 40
0.8749999999999973
 40
0.8749999999999973
 40
1.0
 40
1.0
 40
1.0
 40
1.0
 10
-85.98717919893856
 20
688.2871538176382
 30
0.0
 10
-85.9871791989385
 20
688.2481130867836
 30
0.0
 10
-85.97164263846379
 20
688.2095943825839
 30
0.0
 10
-85.91032428650308
 20
688.1321876312758
 30
0.0
 10
-85.8639005409163
 20
688.0930432132894
 30
0.0
 10
-85.7439496707622
 20
688.0158924593742
 30
0.0
 10
-85.67034502647869
 20
687.9775648776331
 30
0.0
 10
-85.49561466038324
 20
687.9000185571566
 30
0.0
 10
-85.3947640314816
 20
687.8610423494879
 30
0.0
 10
-85.06347875149773
 20
687.7455474930425
 30
0.0
 10
-84.79579859011378
 20
687.6676350493726
 30
0.0
 10
-84.36312456405842
 20
687.5521551239718
 30
0.0
 10
-84.21160647720738
 20
687.5132893281068
 30
0.0
 10
-83.90218071982125
 20
687.4355149944383
 30
0.0
 10
-83.74555839012731
 20
687.3969052274836
 30
0.0
 10
-83.58717919893854
 20
687.3578644957568
 30
0.0
  0
LINE
  5
B1
330
1F
100
AcDbEntity
  8
0
  6
Continuous
 62
     7
370
    25
100
AcDbLine
 10
-85.9871791989
 20
688.2871538176
 30
0.0
 11
-84.5871791989
 21
688.2871538176
 31
0.0
  0
SPLINE
  5
B2
330
1F
100
AcDbEntity
  8
0
  6
Continuous
 62
     7
370
    25
100
AcDbSpline
210
0.0
220
0.0
230
1.0
 70
     8
 71
     3
 72
    14
 73
    10
 74
     0
 42
0.000000001
 43
0.00000001
 40
0.0
 40
0.0
 40
0.0
 40
0.0
 40
0.2499999999999998
 40
0.2499999999999998
 40
0.4999999999999999
 40
0.4999999999999999
 40
0.7499999999999999
 40
0.7499999999999999
 40
1.0
 40
1.0
 40
1.0
 40
1.0
 10
-84.58717919893854
 20
688.2871538176382
 30
0.0
 10
-84.58717919893849
 20
688.2089524026164
 30
0.0
 10
-84.56162053425814
 20
688.1332424553195
 30
0.0
 10
-84.46149250566116
 20
687.9779620436726
 30
0.0
 10
-84.387928326357
 20
687.9009521940895
 30
0.0
 10
-84.20239069066542
 20
687.745528708062
 30
0.0
 10
-84.09222576970609
 20
687.6685789911438
 30
0.0
 10
-83.8496140130166
 20
687.5131490118945
 30
0.0
 10
-83.71936460219354
 20
687.4360659033221
 30
0.0
 10
-83.58717919893854
 20
687.3578644957568
 30
0.0
  0
SPLINE
  5
B3
330
1F
100
AcDbEntity
  8
0
  6
Continuous
 62
     7
370
    25
100
AcDbSpline
210
0.0
220
0.0
230
1.0
 70
     8
 71
     3
 72
    20
 73
    16
 74
     0
 42
0.000000001
 43
0.00000001
 40
0.0
 40
0.0
 40
0.0
 40
0.0
 40
0.1250000000000046
 40
0.1250000000000046
 40
0.2500000000000092
 40
0.2500000000000092
 40
0.3750000000000138
 40
0.3750000000000138
 40
0.5000000000000183
 40
0.5000000000000183
 40
0.750000000000017
 40
0.750000000000017
 40
0.8750000000000084
 40
0.8750000000000084
 40
1.0
 40
1.0
 40
1.0
 40
1.0
 10
-83.58717919893854
 20
-103.8421355042432
 30
0.0
 10
-83.74555838658925
 20
-103.8811762350977
 30
0.0
 10
-83.9018041112809
 20
-103.9196949392975
 30
0.0
 10
-84.20979596069766
 20
-103.9971016906054
 30
0.0
 10
-84.36244006816878
 20
-104.0362461085922
 30
0.0
 10
-84.65152435735584
 20
-104.1133968625073
 30
0.0
 10
-84.7893288955397
 20
-104.1517244442484
 30
0.0
 10
-85.05094757117887
 20
-104.2292707647251
 30
0.0
 10
-85.17369387786155
 20
-104.2682469723936
 30
0.0
 10
-85.50501825480916
 20
-104.3837418288383
 30
0.0
 10
-85.6840293788373
 20
-104.4616542725086
 30
0.0
 10
-85.86364447821798
 20
-104.5771341979095
 30
0.0
 10
-85.90988882708595
 20
-104.6159999937746
 30
0.0
 10
-85.97164213309732
 20
-104.6937743274433
 30
0.0
 10
-85.9871791989386
 20
-104.7323840943979
 30
0.0
 10
-85.98717919893856
 20
-104.7714248261245
 30
0.0
  0
LINE
  5
B4
330
1F
100
AcDbEntity
  8
0
  6
Continuous
 62
     7
370
    25
100
AcDbLine
 10
-85.9871791989
 20
688.2871538176
 30
0.0
 11
-85.9871791989
 21
-104.7714248261
 31
0.0
  0
SPLINE
  5
B5
330
1F
100
AcDbEntity
  8
0
  6
Continuous
 62
     7
370
    25
100
AcDbSpline
210
0.0
220
0.0
230
1.0
 70
     8
 71
     3
 72
    14
 73
    10
 74
     0
 42
0.000000001
 43
0.00000001
 40
0.0
 40
0.0
 40
0.0
 40
0.0
 40
0.2500000000000001
 40
0.2500000000000001
 40
0.5000000000000002
 40
0.5000000000000002
 40
0.7500000000000003
 40
0.7500000000000003
 40
1.0
 40
1.0
 40
1.0
 40
1.0
 10
-83.58717919893854
 20
-103.8421355042432
 30
0.0
 10
-83.71936461479746
 20
-103.9203369192648
 30
0.0
 10
-83.8473466333311
 20
-103.9960468665618
 30
0.0
 10
-84.08997065827833
 20
-104.1513272782088
 30
0.0
 10
-84.20041292268832
 20
-104.2283371277918
 30
0.0
 10
-84.38640981988182
 20
-104.3837606138194
 30
0.0
 10
-84.46021079872013
 20
-104.4607103307377
 30
0.0
 10
-84.56102938311521
 20
-104.616140309987
 30
0.0
 10
-84.58717919893854
 20
-104.6932234185595
 30
0.0
 10
-84.58717919893854
 20
-104.7714248261245
 30
0.0
  0
LINE
  5
B6
330
1F
100
AcDbEntity
  8
0
  6
Continuous
 62
     7
370
    25
100
AcDbLine
 10
-85.9871791989
 20
-104.7714248261
 30
0.0
 11
-84.5871791989
 21
-104.7714248261
 31
0.0
  0
LINE
  5
B7
330
1F
100
AcDbEntity
  8
0
  6
Continuous
 62
     7
370
    25
100
AcDbLine
 10
-84.5164685208
 20
-106.2421355042
 30
0.0
 11
-84.5164685208
 21
-104.8421355042
 31
0.0
  0
SPLINE
  5
B8
330
1F
100
AcDbEntity
  8
0
  6
Continuous
 62
     7
370
    25
100
AcDbSpline
210
0.0
220
0.0
230
1.0
 70
     8
 71
     3
 72
    14
 73
    10
 74
     0
 42
0.000000001
 43
0.00000001
 40
0.0
 40
0.0
 40
0.0
 40
0.0
 40
0.2500000000000003
 40
0.2500000000000003
 40
0.5000000000000002
 40
0.5000000000000002
 40
0.7500000000000001
 40
0.7500000000000001
 40
1.0
 40
1.0
 40
1.0
 40
1.0
 10
-84.51646852081984
 20
-104.8421355042431
 30
0.0
 10
-84.43826710579827
 20
-104.8421355042432
 30
0.0
 10
-84.36255715850128
 20
-104.8165768395627
 30
0.0
 10
-84.2072767468544
 20
-104.716448810966
 30
0.0
 10
-84.13026689727144
 20
-104.6428846316619
 30
0.0
 10
-83.97484341124378
 20
-104.4573469959699
 30
0.0
 10
-83.89789369432538
 20
-104.3471820750104
 30
0.0
 10
-83.74246371507627
 20
-104.104570318321
 30
0.0
 10
-83.66538060650358
 20
-103.974320907498
 30
0.0
 10
-83.5871791989386
 20
-103.8421355042432
 30
0.0
  0
ARC
  5
B9
330
1F
100
AcDbEntity
  8
0
  6
Continuous
 62
     7
370
    25
100
AcDbCircle
 10
-27.8071692973
 20
642.8148006106
 30
0.0
 40
0.5050994627335402
100
AcDbArc
 50
298.8005827702
 51
112.9304972368
  0
ARC
  5
BA
330
1F
100
AcDbEntity
  8
0
  6
Continuous
 62
     7
370
    25
100
AcDbCircle
 10
-29.9871791989
 20
641.7578644958
 30
0.0
 40
2.500000000000056
100
AcDbArc
 50
37.506301084
 51
74.2247789229
  0
ARC
  5
BB
330
1F
100
AcDbEntity
  8
0
  6
Continuous
 62
     7
370
    25
100
AcDbCircle
 10
-29.8125077738
 20
644.1742765084
 30
0.0
 40
0.505099462734959
100
AcDbArc
 50
358.800582771
 51
172.930497236
  0
ARC
  5
BC
330
1F
100
AcDbEntity
  8
0
  6
Continuous
 62
     7
370
    25
100
AcDbCircle
 10
-29.9871791989
 20
641.7578644958
 30
0.0
 40
2.500000000000017
100
AcDbArc
 50
97.5063010841
 51
134.2247789229
  0
ARC
  5
BD
330
1F
100
AcDbEntity
  8
0
  6
Continuous
 62
     7
370
    25
100
AcDbCircle
 10
-31.9925176753
 20
643.1173403936
 30
0.0
 40
0.5050994627352391
100
AcDbArc
 50
58.8005827697
 51
232.9304972372
  0
ARC
  5
BE
330
1F
100
AcDbEntity
  8
0
  6
Continuous
 62
     7
370
    25
100
AcDbCircle
 10
-29.9871791989
 20
641.7578644958
 30
0.0
 40
2.499999999999952
100
AcDbArc
 50
157.5063010841
 51
194.2247789229
  0
ARC
  5
BF
330
1F
100
AcDbEntity
  8
0
  6
Continuous
 62
     7
370
    25
100
AcDbCircle
 10
-32.1671891005
 20
640.7009283809
 30
0.0
 40
0.5050994627333348
100
AcDbArc
 50
118.8005827707
 51
292.9304972361
  0
ARC
  5
C0
330
1F
100
AcDbEntity
  8
0
  6
Continuous
 62
     7
370
    25
100
AcDbCircle
 10
-29.9871791989
 20
641.7578644958
 30
0.0
 40
2.500000000000011
100
AcDbArc
 50
217.506301084
 51
254.2247789229
  0
ARC
  5
C1
330
1F
100
AcDbEntity
  8
0
  6
Continuous
 62
     7
370
    25
100
AcDbCircle
 10
-30.1618506241
 20
639.3414524831
 30
0.0
 40
0.5050994627366123
100
AcDbArc
 50
178.8005827716
 51
352.9304972354
  0
ARC
  5
C2
330
1F
100
AcDbEntity
  8
0
  6
Continuous
 62
     7
370
    25
100
AcDbCircle
 10
-29.9871791989
 20
641.7578644958
 30
0.0
 40
2.499999999999943
100
AcDbArc
 50
277.5063010841
 51
314.2247789229
  0
ARC
  5
C3
330
1F
100
AcDbEntity
  8
0
  6
Continuous
 62
     7
370
    25
100
AcDbCircle
 10
-27.9818407225
 20
640.3983885979
 30
0.0
 40
0.505099462735563
100
AcDbArc
 50
238.8005827701
 51
52.9304972368
  0
ARC
  5
C4
330
1F
100
AcDbEntity
  8
0
  6
Continuous
 62
     7
370
    25
100
AcDbCircle
 10
-29.9871791989
 20
641.7578644958
 30
0.0
 40
2.499999999999949
100
AcDbArc
 50
337.5063010841
 51
14.2247789229
  0
CIRCLE
  5
C5
330
1F
100
AcDbEntity
  8
0
  6
Continuous
 62
     7
370
    25
100
AcDbCircle
 10
-29.9871791989
 20
641.7578644958
 30
0.0
 40
5.50000000000006
  0
CIRCLE
  5
C6
330
1F
100
AcDbEntity
  8
0
  6
Continuous
 62
     7
370
    25
100
AcDbCircle
 10
853.0128208011
 20
641.7578644958
 30
0.0
 40
5.500000000000082
  0
ARC
  5
C7
330
1F
100
AcDbEntity
  8
0
  6
Continuous
 62
     7
370
    25
100
AcDbCircle
 10
850.8985437366
 20
640.5749065014
 30
0.0
 40
0.5050994627351878
100
AcDbArc
 50
122.1624680624
 51
296.2923825299
  0
ARC
  5
C8
330
1F
100
AcDbEntity
  8
0
  6
Continuous
 62
     7
370
    25
100
AcDbCircle
 10
853.0128208011
 20
641.7578644958
 30
0.0
 40
2.499999999999917
100
AcDbArc
 50
220.8681863768
 51
257.5866642156
  0
ARC
  5
C9
330
1F
100
AcDbEntity
  8
0
  6
Continuous
 62
     7
370
    25
100
AcDbCircle
 10
852.9801539436
 20
639.3353678501
 30
0.0
 40
0.5050994627333862
100
AcDbArc
 50
182.1624680634
 51
356.2923825288
  0
ARC
  5
CA
330
1F
100
AcDbEntity
  8
0
  6
Continuous
 62
     7
370
    25
100
AcDbCircle
 10
853.0128208011
 20
641.7578644958
 30
0.0
 40
2.500000000000006
100
AcDbArc
 50
280.8681863767
 51
317.5866642156
  0
ARC
  5
CB
330
1F
100
AcDbEntity
  8
0
  6
Continuous
 62
     7
370
    25
100
AcDbCircle
 10
855.094431008
 20
640.5183258445
 30
0.0
 40
0.5050994627366864
100
AcDbArc
 50
242.1624680643
 51
56.2923825281
  0
ARC
  5
CC
330
1F
100
AcDbEntity
  8
0
  6
Continuous
 62
     7
370
    25
100
AcDbCircle
 10
853.0128208011
 20
641.7578644958
 30
0.0
 40
2.499999999999961
100
AcDbArc
 50
340.8681863768
 51
17.5866642156
  0
ARC
  5
CD
330
1F
100
AcDbEntity
  8
0
  6
Continuous
 62
     7
370
    25
100
AcDbCircle
 10
853.0128208011
 20
641.7578644958
 30
0.0
 40
2.500000000000098
100
AcDbArc
 50
40.8681863768
 51
77.5866642156
  0
ARC
  5
CE
330
1F
100
AcDbEntity
  8
0
  6
Continuous
 62
     7
370
    25
100
AcDbCircle
 10
855.1270978655
 20
642.9408224901
 30
0.0
 40
0.5050994627355104
100
AcDbArc
 50
302.1624680628
 51
116.2923825295
  0
ARC
  5
CF
330
1F
100
AcDbEntity
  8
0
  6
Continuous
 62
     7
370
    25
100
AcDbCircle
 10
853.0128208011
 20
641.7578644958
 30
0.0
 40
2.49999999999999
100
AcDbArc
 50
100.8681863767
 51
137.5866642156
  0
ARC
  5
D0
330
1F
100
AcDbEntity
  8
0
  6
Continuous
 62
     7
370
    25
100
AcDbCircle
 10
850.9312105941
 20
642.997403147
 30
0.0
 40
0.5050994627349373
100
AcDbArc
 50
62.1624680637
 51
236.2923825287
  0
ARC
  5
D1
330
1F
100
AcDbEntity
  8
0
  6
Continuous
 62
     7
370
    25
100
AcDbCircle
 10
853.0128208011
 20
641.7578644958
 30
0.0
 40
2.499999999999942
100
AcDbArc
 50
160.8681863768
 51
197.5866642156
  0
ARC
  5
D2
330
1F
100
AcDbEntity
  8
0
  6
Continuous
 62
     7
370
    25
100
AcDbCircle
 10
853.0454876586
 20
644.1803611414
 30
0.0
 40
0.5050994627334778
100
AcDbArc
 50
2.1624680628
 51
176.2923825295
  0
CIRCLE
  5
D3
330
1F
100
AcDbEntity
  8
0
  6
Continuous
 62
     7
370
    25
100
AcDbCircle
 10
853.0128208011
 20
291.7578644958
 30
0.0
 40
5.500000000000069
  0
ARC
  5
D4
330
1F
100
AcDbEntity
  8
0
  6
Continuous
 62
     7
370
    25
100
AcDbCircle
 10
854.9540513956
 20
290.308319429
 30
0.0
 40
0.5050994627352124
100
AcDbArc
 50
236.1858115763
 51
50.3157260438
  0
ARC
  5
D5
330
1F
100
AcDbEntity
  8
0
  6
Continuous
 62
     7
370
    25
100
AcDbCircle
 10
853.0128208011
 20
291.7578644958
 30
0.0
 40
2.499999999999936
100
AcDbArc
 50
334.8915298906
 51
11.6100077295
  0
ARC
  5
D6
330
1F
100
AcDbEntity
  8
0
  6
Continuous
 62
     7
370
    25
100
AcDbCircle
 10
855.2387789501
 20
292.7142469718
 30
0.0
 40
0.505099462733322
100
AcDbArc
 50
296.1858115773
 51
110.3157260427
  0
ARC
  5
D7
330
1F
100
AcDbEntity
  8
0
  6
Continuous
 62
     7
370
    25
100
AcDbCircle
 10
853.0128208011
 20
291.7578644958
 30
0.0
 40
2.499999999999994
100
AcDbArc
 50
274.8915298907
 51
311.6100077294
  0
ARC
  5
D8
330
1F
100
AcDbEntity
  8
0
  6
Continuous
 62
     7
370
    25
100
AcDbCircle
 10
853.2975483556
 20
294.1637920386
 30
0.0
 40
0.5050994627366021
100
AcDbArc
 50
356.1858115782
 51
170.315726042
  0
ARC
  5
D9
330
1F
100
AcDbEntity
  8
0
  6
Continuous
 62
     7
370
    25
100
AcDbCircle
 10
850.786862652
 20
290.8014820197
 30
0.0
 40
0.5050994627335588
100
AcDbArc
 50
116.1858115768
 51
290.3157260434
  0
ARC
  5
DA
330
1F
100
AcDbEntity
  8
0
  6
Continuous
 62
     7
370
    25
100
AcDbCircle
 10
851.0715902065
 20
293.2074095626
 30
0.0
 40
0.5050994627354803
100
AcDbArc
 50
56.1858115767
 51
230.3157260434
  0
ARC
  5
DB
330
1F
100
AcDbEntity
  8
0
  6
Continuous
 62
     7
370
    25
100
AcDbCircle
 10
853.0128208011
 20
291.7578644958
 30
0.0
 40
2.500000000000062
100
AcDbArc
 50
154.8915298906
 51
191.6100077295
  0
ARC
  5
DC
330
1F
100
AcDbEntity
  8
0
  6
Continuous
 62
     7
370
    25
100
AcDbCircle
 10
853.0128208011
 20
291.7578644958
 30
0.0
 40
2.499999999999927
100
AcDbArc
 50
34.8915298906
 51
71.6100077295
  0
ARC
  5
DD
330
1F
100
AcDbEntity
  8
0
  6
Continuous
 62
     7
370
    25
100
AcDbCircle
 10
853.0128208011
 20
291.7578644958
 30
0.0
 40
2.499999999999944
100
AcDbArc
 50
214.8915298906
 51
251.6100077295
  0
ARC
  5
DE
330
1F
100
AcDbEntity
  8
0
  6
Continuous
 62
     7
370
    25
100
AcDbCircle
 10
852.7280932466
 20
289.3519369529
 30
0.0
 40
0.5050994627349271
100
AcDbArc
 50
176.1858115776
 51
350.3157260426
  0
ARC
  5
DF
330
1F
100
AcDbEntity
  8
0
  6
Continuous
 62
     7
370
    25
100
AcDbCircle
 10
853.0128208011
 20
291.7578644958
 30
0.0
 40
2.500000000000036
100
AcDbArc
 50
94.8915298907
 51
131.6100077294
  0
CIRCLE
  5
E0
330
1F
100
AcDbEntity
  8
0
  6
Continuous
 62
     7
370
    25
100
AcDbCircle
 10
-29.9871791989
 20
291.7578644958
 30
0.0
 40
5.50000000000006
  0
ARC
  5
E1
330
1F
100
AcDbEntity
  8
0
  6
Continuous
 62
     7
370
    25
100
AcDbCircle
 10
-27.8071692973
 20
292.8148006106
 30
0.0
 40
0.5050994627335346
100
AcDbArc
 50
298.8005827702
 51
112.9304972368
  0
ARC
  5
E2
330
1F
100
AcDbEntity
  8
0
  6
Continuous
 62
     7
370
    25
100
AcDbCircle
 10
-29.9871791989
 20
291.7578644958
 30
0.0
 40
2.499999999999948
100
AcDbArc
 50
37.506301084
 51
74.2247789229
  0
ARC
  5
E3
330
1F
100
AcDbEntity
  8
0
  6
Continuous
 62
     7
370
    25
100
AcDbCircle
 10
-29.8125077738
 20
294.1742765084
 30
0.0
 40
0.5050994627349601
100
AcDbArc
 50
358.800582771
 51
172.930497236
  0
ARC
  5
E4
330
1F
100
AcDbEntity
  8
0
  6
Continuous
 62
     7
370
    25
100
AcDbCircle
 10
-29.9871791989
 20
291.7578644958
 30
0.0
 40
2.499999999999945
100
AcDbArc
 50
97.5063010841
 51
134.2247789229
  0
ARC
  5
E5
330
1F
100
AcDbEntity
  8
0
  6
Continuous
 62
     7
370
    25
100
AcDbCircle
 10
-31.9925176753
 20
293.1173403936
 30
0.0
 40
0.5050994627351938
100
AcDbArc
 50
58.8005827697
 51
232.9304972372
  0
ARC
  5
E6
330
1F
100
AcDbEntity
  8
0
  6
Continuous
 62
     7
370
    25
100
AcDbCircle
 10
-29.9871791989
 20
291.7578644958
 30
0.0
 40
2.499999999999952
100
AcDbArc
 50
157.5063010841
 51
194.2247789229
  0
ARC
  5
E7
330
1F
100
AcDbEntity
  8
0
  6
Continuous
 62
     7
370
    25
100
AcDbCircle
 10
-32.1671891005
 20
290.7009283809
 30
0.0
 40
0.5050994627332838
100
AcDbArc
 50
118.8005827707
 51
292.9304972361
  0
ARC
  5
E8
330
1F
100
AcDbEntity
  8
0
  6
Continuous
 62
     7
370
    25
100
AcDbCircle
 10
-29.9871791989
 20
291.7578644958
 30
0.0
 40
2.499999999999976
100
AcDbArc
 50
217.506301084
 51
254.2247789229
  0
ARC
  5
E9
330
1F
100
AcDbEntity
  8
0
  6
Continuous
 62
     7
370
    25
100
AcDbCircle
 10
-30.1618506241
 20
289.3414524831
 30
0.0
 40
0.5050994627366148
100
AcDbArc
 50
178.8005827716
 51
352.9304972354
  0
ARC
  5
EA
330
1F
100
AcDbEntity
  8
0
  6
Continuous
 62
     7
370
    25
100
AcDbCircle
 10
-29.9871791989
 20
291.7578644958
 30
0.0
 40
2.499999999999984
100
AcDbArc
 50
277.5063010841
 51
314.2247789229
  0
ARC
  5
EB
330
1F
100
AcDbEntity
  8
0
  6
Continuous
 62
     7
370
    25
100
AcDbCircle
 10
-27.9818407225
 20
290.3983885979
 30
0.0
 40
0.5050994627355224
100
AcDbArc
 50
238.8005827701
 51
52.9304972368
  0
ARC
  5
EC
330
1F
100
AcDbEntity
  8
0
  6
Continuous
 62
     7
370
    25
100
AcDbCircle
 10
-29.9871791989
 20
291.7578644958
 30
0.0
 40
2.499999999999964
100
AcDbArc
 50
337.5063010841
 51
14.2247789229
  0
CIRCLE
  5
ED
330
1F
100
AcDbEntity
  8
0
  6
Continuous
 62
     7
370
    25
100
AcDbCircle
 10
-29.9871791989
 20
-58.2421355042
 30
0.0
 40
5.500000000000089
  0
ARC
  5
EE
330
1F
100
AcDbEntity
  8
0
  6
Continuous
 62
     7
370
    25
100
AcDbCircle
 10
-32.322492694
 20
-58.8870137886
 30
0.0
 40
0.5050994627334987
100
AcDbArc
 50
108.3721109518
 51
282.5020254184
  0
ARC
  5
EF
330
1F
100
AcDbEntity
  8
0
  6
Continuous
 62
     7
370
    25
100
AcDbCircle
 10
-29.9871791989
 20
-58.2421355042
 30
0.0
 40
2.499999999999964
100
AcDbArc
 50
207.0778292656
 51
243.7963071045
  0
ARC
  5
F0
330
1F
100
AcDbEntity
  8
0
  6
Continuous
 62
     7
370
    25
100
AcDbCircle
 10
-30.5963549699
 20
-60.5870154589
 30
0.0
 40
0.5050994627349661
100
AcDbArc
 50
168.3721109526
 51
342.5020254176
  0
ARC
  5
F1
330
1F
100
AcDbEntity
  8
0
  6
Continuous
 62
     7
370
    25
100
AcDbCircle
 10
-29.9871791989
 20
-58.2421355042
 30
0.0
 40
2.499999999999945
100
AcDbArc
 50
267.0778292657
 51
303.7963071045
  0
ARC
  5
F2
330
1F
100
AcDbEntity
  8
0
  6
Continuous
 62
     7
370
    25
100
AcDbCircle
 10
-28.2610414748
 20
-59.9421371746
 30
0.0
 40
0.5050994627351727
100
AcDbArc
 50
228.3721109513
 51
42.5020254188
  0
ARC
  5
F3
330
1F
100
AcDbEntity
  8
0
  6
Continuous
 62
     7
370
    25
100
AcDbCircle
 10
-29.9871791989
 20
-58.2421355042
 30
0.0
 40
2.499999999999911
100
AcDbArc
 50
327.0778292657
 51
3.7963071045
  0
ARC
  5
F4
330
1F
100
AcDbEntity
  8
0
  6
Continuous
 62
     7
370
    25
100
AcDbCircle
 10
-27.6518657039
 20
-57.5972572199
 30
0.0
 40
0.5050994627332778
100
AcDbArc
 50
288.3721109524
 51
102.5020254178
  0
ARC
  5
F5
330
1F
100
AcDbEntity
  8
0
  6
Continuous
 62
     7
370
    25
100
AcDbCircle
 10
-29.9871791989
 20
-58.2421355042
 30
0.0
 40
2.499999999999948
100
AcDbArc
 50
27.0778292656
 51
63.7963071045
  0
ARC
  5
F6
330
1F
100
AcDbEntity
  8
0
  6
Continuous
 62
     7
370
    25
100
AcDbCircle
 10
-29.378003428
 20
-55.8972555496
 30
0.0
 40
0.5050994627365849
100
AcDbArc
 50
348.3721109532
 51
162.5020254171
  0
ARC
  5
F7
330
1F
100
AcDbEntity
  8
0
  6
Continuous
 62
     7
370
    25
100
AcDbCircle
 10
-29.9871791989
 20
-58.2421355042
 30
0.0
 40
2.499999999999992
100
AcDbArc
 50
87.0778292658
 51
123.7963071045
  0
ARC
  5
F8
330
1F
100
AcDbEntity
  8
0
  6
Continuous
 62
     7
370
    25
100
AcDbCircle
 10
-31.7133169231
 20
-56.5421338339
 30
0.0
 40
0.5050994627355313
100
AcDbArc
 50
48.3721109517
 51
222.5020254184
  0
ARC
  5
F9
330
1F
100
AcDbEntity
  8
0
  6
Continuous
 62
     7
370
    25
100
AcDbCircle
 10
-29.9871791989
 20
-58.2421355042
 30
0.0
 40
2.499999999999988
100
AcDbArc
 50
147.0778292657
 51
183.7963071045
  0
CIRCLE
  5
FA
330
1F
100
AcDbEntity
  8
0
  6
Continuous
 62
     7
370
    25
100
AcDbCircle
 10
853.0128208011
 20
-58.2421355042
 30
0.0
 40
5.500000000000116
  0
ARC
  5
FB
330
1F
100
AcDbEntity
  8
0
  6
Continuous
 62
     7
370
    25
100
AcDbCircle
 10
853.576478183
 20
-60.5983713748
 30
0.0
 40
0.5050994627335629
100
AcDbArc
 50
196.3884805024
 51
10.518394969
  0
ARC
  5
FC
330
1F
100
AcDbEntity
  8
0
  6
Continuous
 62
     7
370
    25
100
AcDbCircle
 10
853.0128208011
 20
-58.2421355042
 30
0.0
 40
2.50000000000004
100
AcDbArc
 50
295.0941988163
 51
331.8126766552
  0
ARC
  5
FD
330
1F
100
AcDbEntity
  8
0
  6
Continuous
 62
     7
370
    25
100
AcDbCircle
 10
854.7715522313
 20
-56.5758759572
 30
0.0
 40
0.5050994627351684
100
AcDbArc
 50
316.3884805019
 51
130.5183949694
  0
ARC
  5
FE
330
1F
100
AcDbEntity
  8
0
  6
Continuous
 62
     7
370
    25
100
AcDbCircle
 10
853.0128208011
 20
-58.2421355042
 30
0.0
 40
2.49999999999998
100
AcDbArc
 50
55.0941988163
 51
91.8126766551
  0
ARC
  5
FF
330
1F
100
AcDbEntity
  8
0
  6
Continuous
 62
     7
370
    25
100
AcDbCircle
 10
852.4491634192
 20
-55.8858996337
 30
0.0
 40
0.5050994627332721
100
AcDbArc
 50
16.388480503
 51
190.5183949684
  0
ARC
  5
100
330
1F
100
AcDbEntity
  8
0
  6
Continuous
 62
     7
370
    25
100
AcDbCircle
 10
853.0128208011
 20
-58.2421355042
 30
0.0
 40
2.500000000000004
100
AcDbArc
 50
175.0941988164
 51
211.8126766551
  0
ARC
  5
101
330
1F
100
AcDbEntity
  8
0
  6
Continuous
 62
     7
370
    25
100
AcDbCircle
 10
853.0128208011
 20
-58.2421355042
 30
0.0
 40
2.499999999999944
100
AcDbArc
 50
115.0941988162
 51
151.8126766551
  0
ARC
  5
102
330
1F
100
AcDbEntity
  8
0
  6
Continuous
 62
     7
370
    25
100
AcDbCircle
 10
850.6904319889
 20
-57.5521591807
 30
0.0
 40
0.5050994627366202
100
AcDbArc
 50
76.3884805039
 51
250.5183949677
  0
ARC
  5
103
330
1F
100
AcDbEntity
  8
0
  6
Continuous
 62
     7
370
    25
100
AcDbCircle
 10
855.3352096132
 20
-58.9321118278
 30
0.0
 40
0.5050994627349367
100
AcDbArc
 50
256.3884805032
 51
70.5183949683
  0
ARC
  5
104
330
1F
100
AcDbEntity
  8
0
  6
Continuous
 62
     7
370
    25
100
AcDbCircle
 10
851.2540893708
 20
-59.9083950513
 30
0.0
 40
0.5050994627355417
100
AcDbArc
 50
136.3884805023
 51
310.5183949691
  0
ARC
  5
105
330
1F
100
AcDbEntity
  8
0
  6
Continuous
 62
     7
370
    25
100
AcDbCircle
 10
853.0128208011
 20
-58.2421355042
 30
0.0
 40
2.499999999999897
100
AcDbArc
 50
355.0941988163
 51
31.8126766551
  0
ARC
  5
106
330
1F
100
AcDbEntity
  8
0
  6
Continuous
 62
     7
370
    25
100
AcDbCircle
 10
853.0128208011
 20
-58.2421355042
 30
0.0
 40
2.499999999999961
100
AcDbArc
 50
235.0941988163
 51
271.8126766551
  0
LINE
  5
107
330
1F
100
AcDbEntity
  8
0
  6
Continuous
 62
     7
370
    25
100
AcDbLine
 10
-41.4871791989
 20
724.2578644958
 30
0.0
 11
-40.6871791989
 21
724.2578644958
 31
0.0
  0
LINE
  5
108
330
1F
100
AcDbEntity
  8
0
  6
Continuous
 62
     7
370
    25
100
AcDbLine
 10
-40.6871791989
 20
724.2578644958
 30
0.0
 11
-40.6871791989
 21
721.2578644958
 31
0.0
  0
LINE
  5
109
330
1F
100
AcDbEntity
  8
0
  6
Continuous
 62
     7
370
    25
100
AcDbLine
 10
-41.4871791989
 20
721.2578644958
 30
0.0
 11
-41.4871791989
 21
724.2578644958
 31
0.0
  0
LINE
  5
10A
330
1F
100
AcDbEntity
  8
0
  6
Continuous
 62
     7
370
    25
100
AcDbLine
 10
-41.4871791989
 20
704.2578644958
 30
0.0
 11
-40.6871791989
 21
704.2578644958
 31
0.0
  0
LINE
  5
10B
330
1F
100
AcDbEntity
  8
0
  6
Continuous
 62
     7
370
    25
100
AcDbLine
 10
-41.4871791989
 20
704.2578644958
 30
0.0
 11
-41.4871791989
 21
721.2578644958
 31
0.0
  0
LINE
  5
10C
330
1F
100
AcDbEntity
  8
0
  6
Continuous
 62
     7
370
    25
100
AcDbLine
 10
-40.6871791989
 20
704.2578644958
 30
0.0
 11
-40.6871791989
 21
721.2578644958
 31
0.0
  0
LINE
  5
10D
330
1F
100
AcDbEntity
  8
0
  6
Continuous
 62
     7
370
    25
100
AcDbLine
 10
863.7128208011
 20
721.2578644958
 30
0.0
 11
863.7128208011
 21
724.2578644958
 31
0.0
  0
LINE
  5
10E
330
1F
100
AcDbEntity
  8
0
  6
Continuous
 62
     7
370
    25
100
AcDbLine
 10
863.7128208011
 20
724.2578644958
 30
0.0
 11
864.5128208011
 21
724.2578644958
 31
0.0
  0
LINE
  5
10F
330
1F
100
AcDbEntity
  8
0
  6
Continuous
 62
     7
370
    25
100
AcDbLine
 10
864.5128208011
 20
724.2578644958
 30
0.0
 11
864.5128208011
 21
721.2578644958
 31
0.0
  0
LINE
  5
110
330
1F
100
AcDbEntity
  8
0
  6
Continuous
 62
     7
370
    25
100
AcDbLine
 10
864.5128208011
 20
704.2578644958
 30
0.0
 11
863.7128208011
 21
704.2578644958
 31
0.0
  0
LINE
  5
111
330
1F
100
AcDbEntity
  8
0
  6
Continuous
 62
     7
370
    25
100
AcDbLine
 10
863.7128208011
 20
721.2578644958
 30
0.0
 11
863.7128208011
 21
704.2578644958
 31
0.0
  0
LINE
  5
112
330
1F
100
AcDbEntity
  8
0
  6
Continuous
 62
     7
370
    25
100
AcDbLine
 10
864.5128208011
 20
721.2578644958
 30
0.0
 11
864.5128208011
 21
704.2578644958
 31
0.0
  0
LINE
  5
113
330
1F
100
AcDbEntity
  8
0
  6
Continuous
 62
     7
370
    25
100
AcDbLine
 10
-41.4871791989
 20
689.7578644958
 30
0.0
 11
-41.4871791989
 21
704.2578644958
 31
0.0
  0
LINE
  5
114
330
1F
100
AcDbEntity
  8
0
  6
Continuous
 62
     7
370
    25
100
AcDbLine
 10
-40.6871791989
 20
689.7578644958
 30
0.0
 11
-40.6871791989
 21
701.0578644958
 31
0.0
  0
LINE
  5
115
330
1F
100
AcDbEntity
  8
0
  6
Continuous
 62
     7
370
    25
100
AcDbLine
 10
-40.6871791989
 20
702.7578644958
 30
0.0
 11
-40.6871791989
 21
704.2578644958
 31
0.0
  0
LINE
  5
116
330
1F
100
AcDbEntity
  8
0
  6
Continuous
 62
     7
370
    25
100
AcDbLine
 10
863.7128208011
 20
704.2578644958
 30
0.0
 11
863.7128208011
 21
702.7578644958
 31
0.0
  0
LINE
  5
117
330
1F
100
AcDbEntity
  8
0
  6
Continuous
 62
     7
370
    25
100
AcDbLine
 10
863.7128208011
 20
701.0578644958
 30
0.0
 11
863.7128208011
 21
689.7578644958
 31
0.0
  0
LINE
  5
118
330
1F
100
AcDbEntity
  8
0
  6
Continuous
 62
     7
370
    25
100
AcDbLine
 10
864.5128208011
 20
704.2578644958
 30
0.0
 11
864.5128208011
 21
689.7578644958
 31
0.0
  0
LINE
  5
119
330
1F
100
AcDbEntity
  8
0
  6
Continuous
 62
     7
370
    25
100
AcDbLine
 10
873.1715708011
 20
689.7578644958
 30
0.0
 11
873.1715708011
 21
695.7578644958
 31
0.0
  0
LINE
  5
11A
330
1F
100
AcDbEntity
  8
0
  6
Continuous
 62
     7
370
    25
100
AcDbLine
 10
873.7128208011
 20
690.8734715801
 30
0.0
 11
873.7128208011
 21
695.2166144958
 31
0.0
  0
LINE
  5
11B
330
1F
100
AcDbEntity
  8
0
  6
Continuous
 62
     7
370
    25
100
AcDbLine
 10
873.7128208011
 20
690.2991144957
 30
0.0
 11
873.7128208011
 21
690.8734715801
 31
0.0
  0
LINE
  5
11C
330
1F
100
AcDbEntity
  8
0
  6
Continuous
 62
     7
370
    25
100
AcDbLine
 10
-40.9081094315
 20
702.7578644958
 30
0.0
 11
863.9337510336
 21
702.7578644958
 31
0.0
  0
LINE
  5
11D
330
1F
100
AcDbEntity
  8
0
  6
Continuous
 62
     7
370
    25
100
AcDbLine
 10
-40.9081094315
 20
701.0578644958
 30
0.0
 11
863.9337510336
 21
701.0578644958
 31
0.0
  0
ELLIPSE
  5
11E
330
1F
100
AcDbEntity
  8
0
  6
Continuous
 62
     7
370
    25
100
AcDbEllipse
 10
863.9337510336
 20
701.9078644958
 30
0.0
 11
0.0
 21
0.8500000000000227
 31
0.0
210
0.0
220
0.0
230
1.0
 40
0.0930232558
 41
3.141592653589792
 42
6.283185307179586
  0
ELLIPSE
  5
11F
330
1F
100
AcDbEntity
  8
0
  6
Continuous
 62
     7
370
    25
100
AcDbEllipse
 10
-40.9081094315
 20
701.9078644958
 30
0.0
 11
0.0
 21
0.8500000000000227
 31
0.0
210
0.0
220
0.0
230
1.0
 40
0.0930232558
 41
0.0
 42
3.14159265359066
  0
LINE
  5
120
330
1F
100
AcDbEntity
  8
0
  6
Continuous
 62
     7
370
    25
100
AcDbLine
 10
-39.9871791989
 20
701.0578644958
 30
0.0
 11
-39.9871791989
 21
700.9578644958
 31
0.0
  0
LINE
  5
121
330
1F
100
AcDbEntity
  8
0
  6
Continuous
 62
     7
370
    25
100
AcDbLine
 10
863.0128208011
 20
700.9578644958
 30
0.0
 11
863.0128208011
 21
701.0578644958
 31
0.0
  0
LINE
  5
122
330
1F
100
AcDbEntity
  8
0
  6
Continuous
 62
     7
370
    25
100
AcDbLine
 10
-39.9871791989
 20
700.9578644958
 30
0.0
 11
-39.9871791989
 21
689.7578644958
 31
0.0
  0
LINE
  5
123
330
1F
100
AcDbEntity
  8
0
  6
Continuous
 62
     7
370
    25
100
AcDbLine
 10
863.0128208011
 20
689.7578644958
 30
0.0
 11
863.0128208011
 21
700.9578644958
 31
0.0
  0
LINE
  5
124
330
1F
100
AcDbEntity
  8
0
  6
Continuous
 62
     7
370
    25
100
AcDbLine
 10
-50.6871791989
 20
695.2166144958
 30
0.0
 11
-50.6871791989
 21
690.2991144957
 31
0.0
  0
LINE
  5
125
330
1F
100
AcDbEntity
  8
0
  6
Continuous
 62
     7
370
    25
100
AcDbLine
 10
-50.1459291989
 20
694.054230342
 30
0.0
 11
-50.1459291989
 21
689.7578644958
 31
0.0
  0
LINE
  5
126
330
1F
100
AcDbEntity
  8
0
  6
Continuous
 62
     7
370
    25
100
AcDbLine
 10
-50.1459291989
 20
695.7578644958
 30
0.0
 11
-50.1459291989
 21
694.054230342
 31
0.0
  0
ARC
  5
127
330
1F
100
AcDbEntity
  8
0
  6
Continuous
 62
     7
370
    25
100
AcDbCircle
 10
852.838287116
 20
694.3340785064
 30
0.0
 40
12.03669752925417
100
AcDbArc
 50
186.2565722693
 51
191.9710500657
  0
LINE
  5
128
330
1F
100
AcDbEntity
  8
0
  6
Continuous
 62
     7
370
    25
100
AcDbLine
 10
841.0633573322
 20
691.8374575907
 30
0.0
 11
842.5154330561
 21
692.0704014559
 31
0.0
  0
LINE
  5
129
330
1F
100
AcDbEntity
  8
0
  6
Continuous
 62
     7
370
    25
100
AcDbLine
 10
842.5154330561
 20
692.0704014559
 30
0.0
 11
842.7483769213
 21
690.618325732
 31
0.0
  0
ARC
  5
12A
330
1F
100
AcDbEntity
  8
0
  6
Continuous
 62
     7
370
    25
100
AcDbCircle
 10
841.4366067904
 20
702.5833308108
 30
0.0
 40
12.03669752932893
100
AcDbArc
 50
276.2565722693
 51
281.9710500657
  0
LINE
  5
12B
330
1F
100
AcDbEntity
  8
0
  6
Continuous
 62
     7
370
    25
100
AcDbLine
 10
843.7002838409
 20
692.2604767508
 30
0.0
 11
843.9332277061
 21
690.8084010269
 31
0.0
  0
ARC
  5
12C
330
1F
100
AcDbEntity
  8
0
  6
Continuous
 62
     7
370
    25
100
AcDbCircle
 10
833.187354486
 20
691.1816504851
 30
0.0
 40
12.03669752940598
100
AcDbArc
 50
6.2565722694
 51
11.9710500657
  0
LINE
  5
12D
330
1F
100
AcDbEntity
  8
0
  6
Continuous
 62
     7
370
    25
100
AcDbLine
 10
843.510208546
 20
693.4453275356
 30
0.0
 11
844.9622842699
 21
693.6782714008
 31
0.0
  0
ARC
  5
12E
330
1F
100
AcDbEntity
  8
0
  6
Continuous
 62
     7
370
    25
100
AcDbCircle
 10
844.5890348117
 20
682.9323981807
 30
0.0
 40
12.03669752937479
100
AcDbArc
 50
96.2565722694
 51
101.9710500657
  0
ARC
  5
12F
330
1F
100
AcDbEntity
  8
0
  6
Continuous
 62
     7
370
    25
100
AcDbCircle
 10
843.0128208011
 20
692.7578644958
 30
0.0
 40
4.000000000000072
100
AcDbArc
 50
311.4096221093
 51
99.1138111675
  0
ARC
  5
130
330
1F
100
AcDbEntity
  8
0
  6
Continuous
 62
     7
370
    25
100
AcDbCircle
 10
843.0128208011
 20
692.7578644958
 30
0.0
 40
4.000000000000082
100
AcDbArc
 50
99.1138111675
 51
228.5903778907
  0
LINE
  5
131
330
1F
100
AcDbEntity
  8
0
  6
Continuous
 62
     7
370
    25
100
AcDbLine
 10
840.8732820373
 20
693.0223083755
 30
0.0
 11
842.3253577612
 21
693.2552522407
 31
0.0
  0
LINE
  5
132
330
1F
100
AcDbEntity
  8
0
  6
Continuous
 62
     7
370
    25
100
AcDbLine
 10
843.7002838409
 20
692.2604767508
 30
0.0
 11
845.1523595649
 21
692.493420616
 31
0.0
  0
LINE
  5
133
330
1F
100
AcDbEntity
  8
0
  6
Continuous
 62
     7
370
    25
100
AcDbLine
 10
843.2772646808
 20
694.8974032596
 30
0.0
 11
843.510208546
 21
693.4453275356
 31
0.0
  0
LINE
  5
134
330
1F
100
AcDbEntity
  8
0
  6
Continuous
 62
     7
370
    25
100
AcDbLine
 10
842.092413896
 20
694.7073279646
 30
0.0
 11
842.3253577612
 21
693.2552522407
 31
0.0
  0
LINE
  5
135
330
1F
100
AcDbEntity
  8
0
  6
Continuous
 62
     7
370
    25
100
AcDbLine
 10
843.6583148941
 20
693.4690869475
 30
0.0
 11
843.848390189
 21
692.2842361627
 31
0.0
  0
LINE
  5
136
330
1F
100
AcDbEntity
  8
0
  6
Continuous
 62
     7
370
    25
100
AcDbLine
 10
843.4864491341
 20
693.5934338837
 30
0.0
 11
842.3015983493
 21
693.4033585888
 31
0.0
  0
LINE
  5
137
330
1F
100
AcDbEntity
  8
0
  6
Continuous
 62
     7
370
    25
100
AcDbLine
 10
843.7240432528
 20
692.1123704027
 30
0.0
 11
842.539192468
 21
691.9222951078
 31
0.0
  0
LINE
  5
138
330
1F
100
AcDbEntity
  8
0
  6
Continuous
 62
     7
370
    25
100
AcDbLine
 10
842.1772514131
 20
693.2314928288
 30
0.0
 11
842.367326708
 21
692.046642044
 31
0.0
  0
LINE
  5
139
330
1F
100
AcDbEntity
  8
0
  6
Continuous
 62
     7
370
    25
100
AcDbLine
 10
259.092413896
 20
694.7073279646
 30
0.0
 11
259.3253577612
 21
693.2552522407
 31
0.0
  0
LINE
  5
13A
330
1F
100
AcDbEntity
  8
0
  6
Continuous
 62
     7
370
    25
100
AcDbLine
 10
257.8732820373
 20
693.0223083755
 30
0.0
 11
259.3253577612
 21
693.2552522407
 31
0.0
  0
ARC
  5
13B
330
1F
100
AcDbEntity
  8
0
  6
Continuous
 62
     7
370
    25
100
AcDbCircle
 10
269.8382871161
 20
694.3340785064
 30
0.0
 40
12.03669752934492
100
AcDbArc
 50
186.2565722694
 51
191.9710500657
  0
LINE
  5
13C
330
1F
100
AcDbEntity
  8
0
  6
Continuous
 62
     7
370
    25
100
AcDbLine
 10
259.5154330561
 20
692.0704014559
 30
0.0
 11
259.7483769213
 21
690.618325732
 31
0.0
  0
ARC
  5
13D
330
1F
100
AcDbEntity
  8
0
  6
Continuous
 62
     7
370
    25
100
AcDbCircle
 10
258.4366067904
 20
702.5833308108
 30
0.0
 40
12.03669752932513
100
AcDbArc
 50
276.2565722693
 51
281.9710500657
  0
LINE
  5
13E
330
1F
100
AcDbEntity
  8
0
  6
Continuous
 62
     7
370
    25
100
AcDbLine
 10
260.7002838409
 20
692.2604767508
 30
0.0
 11
260.9332277061
 21
690.8084010269
 31
0.0
  0
LINE
  5
13F
330
1F
100
AcDbEntity
  8
0
  6
Continuous
 62
     7
370
    25
100
AcDbLine
 10
260.7002838409
 20
692.2604767508
 30
0.0
 11
262.1523595649
 21
692.493420616
 31
0.0
  0
ARC
  5
140
330
1F
100
AcDbEntity
  8
0
  6
Continuous
 62
     7
370
    25
100
AcDbCircle
 10
250.187354486
 20
691.1816504851
 30
0.0
 40
12.03669752936355
100
AcDbArc
 50
6.2565722694
 51
11.9710500657
  0
LINE
  5
141
330
1F
100
AcDbEntity
  8
0
  6
Continuous
 62
     7
370
    25
100
AcDbLine
 10
260.510208546
 20
693.4453275356
 30
0.0
 11
261.9622842699
 21
693.6782714008
 31
0.0
  0
LINE
  5
142
330
1F
100
AcDbEntity
  8
0
  6
Continuous
 62
     7
370
    25
100
AcDbLine
 10
260.2772646808
 20
694.8974032596
 30
0.0
 11
260.510208546
 21
693.4453275356
 31
0.0
  0
ARC
  5
143
330
1F
100
AcDbEntity
  8
0
  6
Continuous
 62
     7
370
    25
100
AcDbCircle
 10
261.5890348117
 20
682.9323981807
 30
0.0
 40
12.03669752938172
100
AcDbArc
 50
96.2565722694
 51
101.9710500657
  0
ARC
  5
144
330
1F
100
AcDbEntity
  8
0
  6
Continuous
 62
     7
370
    25
100
AcDbCircle
 10
260.0128208011
 20
692.7578644958
 30
0.0
 40
4.000000000000063
100
AcDbArc
 50
311.4096221093
 51
99.1138111675
  0
ARC
  5
145
330
1F
100
AcDbEntity
  8
0
  6
Continuous
 62
     7
370
    25
100
AcDbCircle
 10
260.0128208011
 20
692.7578644958
 30
0.0
 40
4.000000000000063
100
AcDbArc
 50
99.1138111675
 51
228.5903778907
  0
LINE
  5
146
330
1F
100
AcDbEntity
  8
0
  6
Continuous
 62
     7
370
    25
100
AcDbLine
 10
258.0633573322
 20
691.8374575907
 30
0.0
 11
259.5154330561
 21
692.0704014559
 31
0.0
  0
LINE
  5
147
330
1F
100
AcDbEntity
  8
0
  6
Continuous
 62
     7
370
    25
100
AcDbLine
 10
260.6583148941
 20
693.4690869475
 30
0.0
 11
260.848390189
 21
692.2842361627
 31
0.0
  0
LINE
  5
148
330
1F
100
AcDbEntity
  8
0
  6
Continuous
 62
     7
370
    25
100
AcDbLine
 10
260.4864491341
 20
693.5934338837
 30
0.0
 11
259.3015983493
 21
693.4033585888
 31
0.0
  0
LINE
  5
149
330
1F
100
AcDbEntity
  8
0
  6
Continuous
 62
     7
370
    25
100
AcDbLine
 10
260.7240432528
 20
692.1123704027
 30
0.0
 11
259.539192468
 21
691.9222951078
 31
0.0
  0
LINE
  5
14A
330
1F
100
AcDbEntity
  8
0
  6
Continuous
 62
     7
370
    25
100
AcDbLine
 10
259.1772514131
 20
693.2314928288
 30
0.0
 11
259.367326708
 21
692.046642044
 31
0.0
  0
LINE
  5
14B
330
1F
100
AcDbEntity
  8
0
  6
Continuous
 62
     7
370
    25
100
AcDbLine
 10
560.8732820373
 20
693.0223083755
 30
0.0
 11
562.3253577612
 21
693.2552522407
 31
0.0
  0
ARC
  5
14C
330
1F
100
AcDbEntity
  8
0
  6
Continuous
 62
     7
370
    25
100
AcDbCircle
 10
572.8382871161
 20
694.3340785064
 30
0.0
 40
12.03669752932454
100
AcDbArc
 50
186.2565722693
 51
191.9710500657
  0
LINE
  5
14D
330
1F
100
AcDbEntity
  8
0
  6
Continuous
 62
     7
370
    25
100
AcDbLine
 10
561.0633573322
 20
691.8374575907
 30
0.0
 11
562.5154330561
 21
692.0704014559
 31
0.0
  0
LINE
  5
14E
330
1F
100
AcDbEntity
  8
0
  6
Continuous
 62
     7
370
    25
100
AcDbLine
 10
562.5154330561
 20
692.0704014559
 30
0.0
 11
562.7483769213
 21
690.618325732
 31
0.0
  0
ARC
  5
14F
330
1F
100
AcDbEntity
  8
0
  6
Continuous
 62
     7
370
    25
100
AcDbCircle
 10
561.4366067904
 20
702.5833308108
 30
0.0
 40
12.03669752931318
100
AcDbArc
 50
276.2565722693
 51
281.9710500657
  0
LINE
  5
150
330
1F
100
AcDbEntity
  8
0
  6
Continuous
 62
     7
370
    25
100
AcDbLine
 10
563.7002838409
 20
692.2604767508
 30
0.0
 11
563.9332277061
 21
690.8084010269
 31
0.0
  0
LINE
  5
151
330
1F
100
AcDbEntity
  8
0
  6
Continuous
 62
     7
370
    25
100
AcDbLine
 10
563.7002838409
 20
692.2604767508
 30
0.0
 11
565.1523595649
 21
692.493420616
 31
0.0
  0
ARC
  5
152
330
1F
100
AcDbEntity
  8
0
  6
Continuous
 62
     7
370
    25
100
AcDbCircle
 10
553.1873544861
 20
691.1816504851
 30
0.0
 40
12.03669752929547
100
AcDbArc
 50
6.2565722693
 51
11.9710500657
  0
LINE
  5
153
330
1F
100
AcDbEntity
  8
0
  6
Continuous
 62
     7
370
    25
100
AcDbLine
 10
563.510208546
 20
693.4453275356
 30
0.0
 11
564.9622842699
 21
693.6782714008
 31
0.0
  0
LINE
  5
154
330
1F
100
AcDbEntity
  8
0
  6
Continuous
 62
     7
370
    25
100
AcDbLine
 10
563.2772646808
 20
694.8974032596
 30
0.0
 11
563.510208546
 21
693.4453275356
 31
0.0
  0
ARC
  5
155
330
1F
100
AcDbEntity
  8
0
  6
Continuous
 62
     7
370
    25
100
AcDbCircle
 10
564.5890348117
 20
682.9323981807
 30
0.0
 40
12.03669752938432
100
AcDbArc
 50
96.2565722694
 51
101.9710500657
  0
ARC
  5
156
330
1F
100
AcDbEntity
  8
0
  6
Continuous
 62
     7
370
    25
100
AcDbCircle
 10
563.0128208011
 20
692.7578644958
 30
0.0
 40
4.000000000000036
100
AcDbArc
 50
311.4096221093
 51
99.1138111675
  0
ARC
  5
157
330
1F
100
AcDbEntity
  8
0
  6
Continuous
 62
     7
370
    25
100
AcDbCircle
 10
563.0128208011
 20
692.7578644958
 30
0.0
 40
4.000000000000036
100
AcDbArc
 50
99.1138111675
 51
228.5903778907
  0
LINE
  5
158
330
1F
100
AcDbEntity
  8
0
  6
Continuous
 62
     7
370
    25
100
AcDbLine
 10
562.092413896
 20
694.7073279646
 30
0.0
 11
562.3253577612
 21
693.2552522407
 31
0.0
  0
LINE
  5
159
330
1F
100
AcDbEntity
  8
0
  6
Continuous
 62
     7
370
    25
100
AcDbLine
 10
563.6583148941
 20
693.4690869475
 30
0.0
 11
563.848390189
 21
692.2842361627
 31
0.0
  0
LINE
  5
15A
330
1F
100
AcDbEntity
  8
0
  6
Continuous
 62
     7
370
    25
100
AcDbLine
 10
563.7240432528
 20
692.1123704027
 30
0.0
 11
562.539192468
 21
691.9222951078
 31
0.0
  0
LINE
  5
15B
330
1F
100
AcDbEntity
  8
0
  6
Continuous
 62
     7
370
    25
100
AcDbLine
 10
563.4864491341
 20
693.5934338837
 30
0.0
 11
562.3015983493
 21
693.4033585888
 31
0.0
  0
LINE
  5
15C
330
1F
100
AcDbEntity
  8
0
  6
Continuous
 62
     7
370
    25
100
AcDbLine
 10
562.1772514131
 20
693.2314928288
 30
0.0
 11
562.367326708
 21
692.046642044
 31
0.0
  0
LINE
  5
15D
330
1F
100
AcDbEntity
  8
0
  6
Continuous
 62
     7
370
    25
100
AcDbLine
 10
-20.907586104
 20
694.7073279646
 30
0.0
 11
-20.6746422388
 21
693.2552522407
 31
0.0
  0
LINE
  5
15E
330
1F
100
AcDbEntity
  8
0
  6
Continuous
 62
     7
370
    25
100
AcDbLine
 10
-22.1267179627
 20
693.0223083755
 30
0.0
 11
-20.6746422388
 21
693.2552522407
 31
0.0
  0
ARC
  5
15F
330
1F
100
AcDbEntity
  8
0
  6
Continuous
 62
     7
370
    25
100
AcDbCircle
 10
-10.1617128839
 20
694.3340785064
 30
0.0
 40
12.03669752933572
100
AcDbArc
 50
186.2565722693
 51
191.9710500657
  0
LINE
  5
160
330
1F
100
AcDbEntity
  8
0
  6
Continuous
 62
     7
370
    25
100
AcDbLine
 10
-21.9366426678
 20
691.8374575907
 30
0.0
 11
-20.4845669439
 21
692.0704014559
 31
0.0
  0
LINE
  5
161
330
1F
100
AcDbEntity
  8
0
  6
Continuous
 62
     7
370
    25
100
AcDbLine
 10
-20.4845669439
 20
692.0704014559
 30
0.0
 11
-20.2516230787
 21
690.618325732
 31
0.0
  0
ARC
  5
162
330
1F
100
AcDbEntity
  8
0
  6
Continuous
 62
     7
370
    25
100
AcDbCircle
 10
-21.5633932096
 20
702.5833308108
 30
0.0
 40
12.03669752932662
100
AcDbArc
 50
276.2565722693
 51
281.9710500657
  0
LINE
  5
163
330
1F
100
AcDbEntity
  8
0
  6
Continuous
 62
     7
370
    25
100
AcDbLine
 10
-19.2997161591
 20
692.2604767508
 30
0.0
 11
-19.0667722939
 21
690.8084010269
 31
0.0
  0
LINE
  5
164
330
1F
100
AcDbEntity
  8
0
  6
Continuous
 62
     7
370
    25
100
AcDbLine
 10
-19.2997161591
 20
692.2604767508
 30
0.0
 11
-17.8476404351
 21
692.493420616
 31
0.0
  0
ARC
  5
165
330
1F
100
AcDbEntity
  8
0
  6
Continuous
 62
     7
370
    25
100
AcDbCircle
 10
-29.812645514
 20
691.1816504851
 30
0.0
 40
12.03669752934663
100
AcDbArc
 50
6.2565722694
 51
11.9710500657
  0
LINE
  5
166
330
1F
100
AcDbEntity
  8
0
  6
Continuous
 62
     7
370
    25
100
AcDbLine
 10
-19.489791454
 20
693.4453275356
 30
0.0
 11
-18.0377157301
 21
693.6782714008
 31
0.0
  0
LINE
  5
167
330
1F
100
AcDbEntity
  8
0
  6
Continuous
 62
     7
370
    25
100
AcDbLine
 10
-19.7227353192
 20
694.8974032596
 30
0.0
 11
-19.489791454
 21
693.4453275356
 31
0.0
  0
ARC
  5
168
330
1F
100
AcDbEntity
  8
0
  6
Continuous
 62
     7
370
    25
100
AcDbCircle
 10
-18.4109651883
 20
682.9323981807
 30
0.0
 40
12.03669752938252
100
AcDbArc
 50
96.2565722694
 51
101.9710500657
  0
ARC
  5
169
330
1F
100
AcDbEntity
  8
0
  6
Continuous
 62
     7
370
    25
100
AcDbCircle
 10
-19.9871791989
 20
692.7578644958
 30
0.0
 40
4.000000000000054
100
AcDbArc
 50
311.4096221093
 51
99.1138111675
  0
ARC
  5
16A
330
1F
100
AcDbEntity
  8
0
  6
Continuous
 62
     7
370
    25
100
AcDbCircle
 10
-19.9871791989
 20
692.7578644958
 30
0.0
 40
4.000000000000054
100
AcDbArc
 50
99.1138111675
 51
228.5903778907
  0
LINE
  5
16B
330
1F
100
AcDbEntity
  8
0
  6
Continuous
 62
     7
370
    25
100
AcDbLine
 10
-19.3416851059
 20
693.4690869475
 30
0.0
 11
-19.151609811
 21
692.2842361627
 31
0.0
  0
LINE
  5
16C
330
1F
100
AcDbEntity
  8
0
  6
Continuous
 62
     7
370
    25
100
AcDbLine
 10
-19.5135508659
 20
693.5934338837
 30
0.0
 11
-20.6984016507
 21
693.4033585888
 31
0.0
  0
LINE
  5
16D
330
1F
100
AcDbEntity
  8
0
  6
Continuous
 62
     7
370
    25
100
AcDbLine
 10
-19.2759567472
 20
692.1123704027
 30
0.0
 11
-20.460807532
 21
691.9222951078
 31
0.0
  0
LINE
  5
16E
330
1F
100
AcDbEntity
  8
0
  6
Continuous
 62
     7
370
    25
100
AcDbLine
 10
-20.8227485869
 20
693.2314928288
 30
0.0
 11
-20.632673292
 21
692.046642044
 31
0.0
  0
SPLINE
  5
16F
330
1F
100
AcDbEntity
  8
0
  6
Continuous
 62
     7
370
    25
100
AcDbSpline
210
0.0
220
0.0
230
1.0
 70
    24
 71
     3
 72
    18
 73
    14
 74
     0
 42
0.000000001
 43
0.00000001
 40
0.0
 40
0.0
 40
0.0
 40
0.0
 40
0.1395442450004743
 40
0.2146633576115594
 40
0.2913766055701579
 40
0.3680898535287545
 40
0.4432089661398435
 40
0.5827532111403162
 40
0.7222974561407927
 40
0.7974165687518787
 40
0.8741298167104771
 40
0.9508430646690749
 40
1.0
 40
1.0
 40
1.0
 40
1.0
 10
-39.68717919893816
 20
712.5273364389911
 30
0.0
 10
-39.68717919893816
 20
712.9124673309167
 30
0.0
 10
-39.68717919893822
 20
713.5049209314247
 30
0.0
 10
-39.68717919893816
 20
714.7408351128097
 30
0.0
 10
-39.68717919893816
 20
715.8168647251646
 30
0.0
 10
-39.68717919893827
 20
716.9803928457135
 30
0.0
 10
-39.68717919893805
 20
718.5008400367316
 30
0.0
 10
-39.68717919893816
 20
720.3250300347382
 30
0.0
 10
-39.68717919893805
 20
721.8402649893308
 30
0.0
 10
-39.68717919893838
 20
722.7580122877608
 30
0.0
 10
-39.68717919893805
 20
723.2616291061142
 30
0.0
 10
-39.68717919893832
 20
723.5337662308544
 30
0.0
 10
-39.68717919893816
 20
723.5318583879684
 30
0.0
 10
-39.68717919893816
 20
723.5311133051623
 30
0.0
  0
SPLINE
  5
170
330
1F
100
AcDbEntity
  8
0
  6
Continuous
 62
     7
370
    25
100
AcDbSpline
210
0.0
220
0.0
230
1.0
 70
     8
 71
     3
 72
     8
 73
     4
 74
     0
 42
0.000000001
 43
0.00000001
 40
0.0
 40
0.0
 40
0.0
 40
0.0
 40
1.0
 40
1.0
 40
1.0
 40
1.0
 10
-35.68717919894526
 20
714.9331950846251
 30
0.0
 10
-35.68717919894526
 20
715.7461846563303
 30
0.0
 10
-35.86149449932452
 20
716.5369230523982
 30
0.0
 10
-36.1337611863366
 20
717.315158050875
 30
0.0
  0
SPLINE
  5
171
330
1F
100
AcDbEntity
  8
0
  6
Continuous
 62
     7
370
    25
100
AcDbSpline
210
0.0
220
0.0
230
1.0
 70
     8
 71
     3
 72
     8
 73
     4
 74
     0
 42
0.000000001
 43
0.00000001
 40
0.0
 40
0.0
 40
0.0
 40
0.0
 40
1.0
 40
1.0
 40
1.0
 40
1.0
 10
-36.1337611863366
 20
712.5512321183754
 30
0.0
 10
-35.86149449932519
 20
713.3294671168503
 30
0.0
 10
-35.68717919894526
 20
714.1202055129221
 30
0.0
 10
-35.68717919894526
 20
714.9331950846251
 30
0.0
  0
LINE
  5
172
330
1F
100
AcDbEntity
  8
0
  6
Continuous
 62
     7
370
    25
100
AcDbLine
 10
-39.6871791989
 20
712.5512321184
 30
0.0
 11
-36.1337611863
 21
712.5512321184
 31
0.0
  0
LINE
  5
173
330
1F
100
AcDbEntity
  8
0
  6
Continuous
 62
     7
370
    25
100
AcDbLine
 10
-36.1337611863
 20
717.3151580509
 30
0.0
 11
-39.6871791989
 21
717.3151580509
 31
0.0
  0
SPLINE
  5
174
330
1F
100
AcDbEntity
  8
0
  6
Continuous
 62
     7
370
    25
100
AcDbSpline
210
0.0
220
0.0
230
1.0
 70
     8
 71
     3
 72
     8
 73
     4
 74
     0
 42
0.000000001
 43
0.00000001
 40
0.0
 40
0.0
 40
0.0
 40
0.0
 40
1.0
 40
1.0
 40
1.0
 40
1.0
 10
-35.68717919894532
 20
719.9184742395717
 30
0.0
 10
-35.68717919894532
 20
720.8070140461275
 30
0.0
 10
-35.86149449932474
 20
721.6712348995466
 30
0.0
 10
-36.1337611863366
 20
722.5217904282617
 30
0.0
  0
SPLINE
  5
175
330
1F
100
AcDbEntity
  8
0
  6
Continuous
 62
     7
370
    25
100
AcDbSpline
210
0.0
220
0.0
230
1.0
 70
     8
 71
     3
 72
     8
 73
     4
 74
     0
 42
0.000000001
 43
0.00000001
 40
0.0
 40
0.0
 40
0.0
 40
0.0
 40
1.0
 40
1.0
 40
1.0
 40
1.0
 10
-36.1337611863366
 20
717.3151580508817
 30
0.0
 10
-35.86149449932513
 20
718.1657135795956
 30
0.0
 10
-35.68717919894532
 20
719.0299344330172
 30
0.0
 10
-35.68717919894532
 20
719.9184742395717
 30
0.0
  0
LINE
  5
176
330
1F
100
AcDbEntity
  8
0
  6
Continuous
 62
     7
370
    25
100
AcDbLine
 10
-39.6871791989
 20
722.5217904283
 30
0.0
 11
-36.1337611863
 21
722.5217904283
 31
0.0
  0
LINE
  5
177
330
1F
100
AcDbEntity
  8
0
  6
Continuous
 62
     7
370
    25
100
AcDbLine
 10
-35.6871791989
 20
714.9331950846
 30
0.0
 11
-35.6871791989
 21
719.9184742396
 31
0.0
  0
SPLINE
  5
178
330
1F
100
AcDbEntity
  8
0
  6
Continuous
 62
     7
370
    25
100
AcDbSpline
210
0.0
220
0.0
230
1.0
 70
     8
 71
     3
 72
     8
 73
     4
 74
     0
 42
0.000000001
 43
0.00000001
 40
0.0
 40
0.0
 40
0.0
 40
0.0
 40
1.0
 40
1.0
 40
1.0
 40
1.0
 10
-36.13376118633649
 20
722.5217904282653
 30
0.0
 10
-35.86149449932508
 20
722.5941109585041
 30
0.0
 10
-35.68717919894515
 20
722.6675934158546
 30
0.0
 10
-35.68717919894515
 20
722.7431436507057
 30
0.0
  0
LINE
  5
179
330
1F
100
AcDbEntity
  8
0
  6
Continuous
 62
     7
370
    25
100
AcDbLine
 10
-35.6871791989
 20
719.9184742396
 30
0.0
 11
-35.6871791989
 21
722.7431436507
 31
0.0
  0
SPLINE
  5
17A
330
1F
100
AcDbEntity
  8
0
  6
Continuous
 62
     7
370
    25
100
AcDbSpline
210
0.0
220
0.0
230
1.0
 70
     8
 71
     3
 72
     8
 73
     4
 74
     0
 42
0.000000001
 43
0.00000001
 40
0.0
 40
0.0
 40
0.0
 40
0.0
 40
1.0
 40
1.0
 40
1.0
 40
1.0
 10
-35.68717919894515
 20
712.7725853408131
 30
0.0
 10
-35.68717919894515
 20
712.6970351059618
 30
0.0
 10
-35.86149449932458
 20
712.6235526486115
 30
0.0
 10
-36.13376118633654
 20
712.5512321183727
 30
0.0
  0
LINE
  5
17B
330
1F
100
AcDbEntity
  8
0
  6
Continuous
 62
     7
370
    25
100
AcDbLine
 10
-35.6871791989
 20
714.9331950846
 30
0.0
 11
-35.6871791989
 21
712.765192002
 31
0.0
  0
SPLINE
  5
17C
330
1F
100
AcDbEntity
  8
0
  6
Continuous
 62
     7
370
    25
100
AcDbSpline
210
0.0
220
0.0
230
1.0
 70
     8
 71
     3
 72
     8
 73
     4
 74
     0
 42
0.000000001
 43
0.00000001
 40
0.0
 40
0.0
 40
0.0
 40
0.0
 40
1.0
 40
1.0
 40
1.0
 40
1.0
 10
-35.68717919894515
 20
722.7431436507057
 30
0.0
 10
-35.68717919894515
 20
722.8186938855572
 30
0.0
 10
-35.86149449932458
 20
722.8921763429074
 30
0.0
 10
-36.13376118633654
 20
722.9644968731463
 30
0.0
  0
LINE
  5
17D
330
1F
100
AcDbEntity
  8
0
  6
Continuous
 62
     7
370
    25
100
AcDbLine
 10
-39.6871791989
 20
722.9644968731
 30
0.0
 11
-36.1337611863
 21
722.9644968731
 31
0.0
  0
LINE
  5
17E
330
1F
100
AcDbEntity
  8
0
  6
Continuous
 62
     7
370
    25
100
AcDbLine
 10
-50.1459291989
 20
719.054230342
 30
0.0
 11
-50.1459291989
 21
714.7578644958
 31
0.0
  0
LINE
  5
17F
330
1F
100
AcDbEntity
  8
0
  6
Continuous
 62
     7
370
    25
100
AcDbLine
 10
-50.1459291989
 20
720.7578644958
 30
0.0
 11
-50.1459291989
 21
719.054230342
 31
0.0
  0
LINE
  5
180
330
1F
100
AcDbEntity
  8
0
  6
Continuous
 62
     7
370
    25
100
AcDbLine
 10
-50.6871791989
 20
720.2166144958
 30
0.0
 11
-50.6871791989
 21
715.2991144957
 31
0.0
  0
LINE
  5
181
330
1F
100
AcDbEntity
  8
0
  6
Continuous
 62
     7
370
    25
100
AcDbLine
 10
1003.8657276262
 20
688.9792378237
 30
0.0
 11
1004.2286654045
 21
689.6078644958
 31
0.0
  0
LINE
  5
182
330
1F
100
AcDbEntity
  8
0
  6
Continuous
 62
     7
370
    25
100
AcDbLine
 10
1004.2286654045
 20
695.9078644958
 30
0.0
 11
1003.8657276262
 21
696.5364911679
 31
0.0
  0
ARC
  5
183
330
1F
100
AcDbEntity
  8
0
  6
Continuous
 62
     7
370
    25
100
AcDbCircle
 10
1001.0004621742
 20
692.7578644958
 30
0.0
 40
8.00000000000006
100
AcDbArc
 50
330.0
 51
344.7252520003
  0
ARC
  5
184
330
1F
100
AcDbEntity
  8
0
  6
Continuous
 62
     7
370
    25
100
AcDbCircle
 10
1001.0004621742
 20
692.7578644958
 30
0.0
 40
8.00000000000003
100
AcDbArc
 50
15.2747479997
 51
30.0
  0
LINE
  5
185
330
1F
100
AcDbEntity
  8
0
  6
Continuous
 62
     7
370
    25
100
AcDbLine
 10
1005.9286654045
 20
688.7578644958
 30
0.0
 11
1007.9286654045
 21
688.7578644958
 31
0.0
  0
LINE
  5
186
330
1F
100
AcDbEntity
  8
0
  6
Continuous
 62
     7
370
    25
100
AcDbLine
 10
1007.9286654045
 20
696.7578644958
 30
0.0
 11
1005.9286654045
 21
696.7578644958
 31
0.0
  0
LINE
  5
187
330
1F
100
AcDbEntity
  8
0
  6
Continuous
 62
     7
370
    25
100
AcDbLine
 10
1004.2286654045
 20
690.7578644958
 30
0.0
 11
1004.3286654045
 21
690.7578644958
 31
0.0
  0
LINE
  5
188
330
1F
100
AcDbEntity
  8
0
  6
Continuous
 62
     7
370
    25
100
AcDbLine
 10
1004.3286654045
 20
694.7578644958
 30
0.0
 11
1004.2286654045
 21
694.7578644958
 31
0.0
  0
LINE
  5
189
330
1F
100
AcDbEntity
  8
0
  6
Continuous
 62
     7
370
    25
100
AcDbLine
 10
1011.2286654045
 20
688.2871538176
 30
0.0
 11
1011.2286654045
 21
-104.7714248261
 31
0.0
  0
LINE
  5
18A
330
1F
100
AcDbEntity
  8
0
  6
Continuous
 62
     7
370
    25
100
AcDbLine
 10
1020.8286654045
 20
688.2871538176
 30
0.0
 11
1011.2286654045
 21
688.2871538176
 31
0.0
  0
LINE
  5
18B
330
1F
100
AcDbEntity
  8
0
  6
Continuous
 62
     7
370
    25
100
AcDbLine
 10
1020.8286654045
 20
-104.7714248261
 30
0.0
 11
1011.2286654045
 21
-104.7714248261
 31
0.0
  0
SPLINE
  5
18C
330
1F
100
AcDbEntity
  8
0
  6
Continuous
 62
     7
370
    25
100
AcDbSpline
210
0.0
220
0.0
230
1.0
 70
     8
 71
     3
 72
    20
 73
    16
 74
     0
 42
0.000000001
 43
0.00000001
 40
0.0
 40
0.0
 40
0.0
 40
0.0
 40
0.1250000000000046
 40
0.1250000000000046
 40
0.2500000000000092
 40
0.2500000000000092
 40
0.3750000000000138
 40
0.3750000000000138
 40
0.5000000000000183
 40
0.5000000000000183
 40
0.750000000000017
 40
0.750000000000017
 40
0.8750000000000084
 40
0.8750000000000084
 40
1.0
 40
1.0
 40
1.0
 40
1.0
 10
1023.228665404515
 20
-103.8421355042432
 30
0.0
 10
1023.228665404515
 20
-103.8811762350977
 30
0.0
 10
1023.21312884404
 20
-103.9196949392975
 30
0.0
 10
1023.15181049208
 20
-103.9971016906054
 30
0.0
 10
1023.105386746493
 20
-104.0362461085922
 30
0.0
 10
1022.985435876339
 20
-104.1133968625073
 30
0.0
 10
1022.911831232055
 20
-104.1517244442484
 30
0.0
 10
1022.73710086596
 20
-104.2292707647251
 30
0.0
 10
1022.636250237058
 20
-104.2682469723936
 30
0.0
 10
1022.304964957074
 20
-104.3837418288383
 30
0.0
 10
1022.03728479569
 20
-104.4616542725086
 30
0.0
 10
1021.604610769635
 20
-104.5771341979095
 30
0.0
 10
1021.453092682784
 20
-104.6159999937746
 30
0.0
 10
1021.143666925397
 20
-104.6937743274433
 30
0.0
 10
1020.987044595704
 20
-104.7323840943979
 30
0.0
 10
1020.828665404515
 20
-104.7714248261245
 30
0.0
  0
SPLINE
  5
18D
330
1F
100
AcDbEntity
  8
0
  6
Continuous
 62
     7
370
    25
100
AcDbSpline
210
0.0
220
0.0
230
1.0
 70
     8
 71
     3
 72
    20
 73
    16
 74
     0
 42
0.000000001
 43
0.00000001
 40
0.0
 40
0.0
 40
0.0
 40
0.0
 40
0.1249999999999974
 40
0.1249999999999974
 40
0.2499999999999948
 40
0.2499999999999948
 40
0.3749999999999922
 40
0.3749999999999922
 40
0.4999999999999896
 40
0.4999999999999896
 40
0.7499999999999948
 40
0.7499999999999948
 40
0.8749999999999973
 40
0.8749999999999973
 40
1.0
 40
1.0
 40
1.0
 40
1.0
 10
1020.828665404515
 20
688.2871538176382
 30
0.0
 10
1020.987044592166
 20
688.2481130867836
 30
0.0
 10
1021.143290316857
 20
688.2095943825839
 30
0.0
 10
1021.451282166274
 20
688.1321876312758
 30
0.0
 10
1021.603926273745
 20
688.0930432132894
 30
0.0
 10
1021.893010562932
 20
688.0158924593742
 30
0.0
 10
1022.030815101116
 20
687.9775648776331
 30
0.0
 10
1022.292433776755
 20
687.9000185571566
 30
0.0
 10
1022.415180083438
 20
687.8610423494879
 30
0.0
 10
1022.746504460385
 20
687.7455474930425
 30
0.0
 10
1022.925515584414
 20
687.6676350493726
 30
0.0
 10
1023.105130683795
 20
687.5521551239718
 30
0.0
 10
1023.151375032662
 20
687.5132893281068
 30
0.0
 10
1023.213128338674
 20
687.4355149944383
 30
0.0
 10
1023.228665404515
 20
687.3969052274836
 30
0.0
 10
1023.228665404515
 20
687.3578644957568
 30
0.0
  0
LINE
  5
18E
330
1F
100
AcDbEntity
  8
0
  6
Continuous
 62
     7
370
    25
100
AcDbLine
 10
1023.2286654045
 20
687.3578644958
 30
0.0
 11
1023.2286654045
 21
-103.8421355042
 31
0.0
  0
SPLINE
  5
18F
330
1F
100
AcDbEntity
  8
0
  6
Continuous
 62
     7
370
    25
100
AcDbSpline
210
0.0
220
0.0
230
1.0
 70
     8
 71
     3
 72
    20
 73
    16
 74
     0
 42
0.000000001
 43
0.00000001
 40
0.0
 40
0.0
 40
0.0
 40
0.0
 40
0.1250000000000067
 40
0.1250000000000067
 40
0.2500000000000134
 40
0.2500000000000134
 40
0.3750000000000201
 40
0.3750000000000201
 40
0.5000000000000268
 40
0.5000000000000268
 40
0.7500000000000001
 40
0.7500000000000001
 40
0.8750000000000001
 40
0.8750000000000001
 40
1.0
 40
1.0
 40
1.0
 40
1.0
 10
1023.228665404515
 20
687.3578644957568
 30
0.0
 10
1023.228665404515
 20
687.5162436834074
 30
0.0
 10
1023.21312884404
 20
687.6724894080992
 30
0.0
 10
1023.15181049208
 20
687.9804812575156
 30
0.0
 10
1023.105386746493
 20
688.133125364987
 30
0.0
 10
1022.985435876339
 20
688.4222096541741
 30
0.0
 10
1022.911831232055
 20
688.560014192358
 30
0.0
 10
1022.73710086596
 20
688.8216328679968
 30
0.0
 10
1022.636250237058
 20
688.9443791746796
 30
0.0
 10
1022.304964957074
 20
689.2757035516274
 30
0.0
 10
1022.03728479569
 20
689.4547146756553
 30
0.0
 10
1021.604610769635
 20
689.6343297750363
 30
0.0
 10
1021.453092682784
 20
689.6805741239041
 30
0.0
 10
1021.143666925397
 20
689.7423274299153
 30
0.0
 10
1020.987044595704
 20
689.757864495757
 30
0.0
 10
1020.828665404515
 20
689.7578644957568
 30
0.0
  0
SPLINE
  5
190
330
1F
100
AcDbEntity
  8
0
  6
Continuous
 62
     7
370
    25
100
AcDbSpline
210
0.0
220
0.0
230
1.0
 70
     8
 71
     3
 72
     9
 73
     5
 74
     0
 42
0.000000001
 43
0.00000001
 40
0.0
 40
0.0
 40
0.0
 40
0.0
 40
0.4825784287291934
 40
1.0
 40
1.0
 40
1.0
 40
1.0
 10
1021.441205143693
 20
688.1340347277032
 30
0.0
 10
1021.353070802377
 20
688.1978429207647
 30
0.0
 10
1021.170438641324
 20
688.3300663880037
 30
0.0
 10
1020.945205757279
 20
688.3483856924604
 30
0.0
 10
1020.828665404515
 20
688.3578644957569
 30
0.0
  0
LINE
  5
191
330
1F
100
AcDbEntity
  8
0
  6
Continuous
 62
     7
370
    25
100
AcDbLine
 10
1020.8286654045
 20
689.7578644958
 30
0.0
 11
1020.8286654045
 21
688.3578644958
 31
0.0
  0
LINE
  5
192
330
1F
100
AcDbEntity
  8
0
  6
Continuous
 62
     7
370
    25
100
AcDbLine
 10
1020.8286654045
 20
-106.2421355042
 30
0.0
 11
1020.8286654045
 21
-104.8421355042
 31
0.0
  0
SPLINE
  5
193
330
1F
100
AcDbEntity
  8
0
  6
Continuous
 62
     7
370
    25
100
AcDbSpline
210
0.0
220
0.0
230
1.0
 70
     8
 71
     3
 72
     9
 73
     5
 74
     0
 42
0.000000001
 43
0.00000001
 40
0.0
 40
0.0
 40
0.0
 40
0.0
 40
0.7329379507274486
 40
0.9999999999999999
 40
0.9999999999999999
 40
0.9999999999999999
 40
0.9999999999999999
 10
1020.828665404515
 20
-104.8421355042431
 30
0.0
 10
1020.980054046171
 20
-104.8303808547253
 30
0.0
 10
1021.186604466306
 20
-104.8143431403376
 30
0.0
 10
1021.341964808425
 20
-104.6860058338438
 30
0.0
 10
1021.383455659766
 20
-104.6517318097735
 30
0.0
  0
SPLINE
  5
194
330
1F
100
AcDbEntity
  8
0
  6
Continuous
 62
     7
370
    25
100
AcDbSpline
210
0.0
220
0.0
230
1.0
 70
     8
 71
     3
 72
    20
 73
    16
 74
     0
 42
0.000000001
 43
0.00000001
 40
0.0
 40
0.0
 40
0.0
 40
0.0
 40
0.125
 40
0.125
 40
0.2499999999999999
 40
0.2499999999999999
 40
0.3749999999999999
 40
0.3749999999999999
 40
0.5
 40
0.5
 40
0.75
 40
0.75
 40
0.875
 40
0.875
 40
1.0
 40
1.0
 40
1.0
 40
1.0
 10
1020.828665404515
 20
-106.2421355042431
 30
0.0
 10
1020.987044592166
 20
-106.2421355042431
 30
0.0
 10
1021.143290316858
 20
-106.2265989437683
 30
0.0
 10
1021.451282166274
 20
-106.1652805918077
 30
0.0
 10
1021.603926273745
 20
-106.1188568462209
 30
0.0
 10
1021.893010562932
 20
-105.9989059760667
 30
0.0
 10
1022.030815101116
 20
-105.9253013317832
 30
0.0
 10
1022.292433776755
 20
-105.7505709656876
 30
0.0
 10
1022.415180083438
 20
-105.6497203367861
 30
0.0
 10
1022.746504460386
 20
-105.3184350568021
 30
0.0
 10
1022.925515584414
 20
-105.0507548954183
 30
0.0
 10
1023.105130683795
 20
-104.6180808693631
 30
0.0
 10
1023.151375032662
 20
-104.4665627825118
 30
0.0
 10
1023.213128338674
 20
-104.1571370251257
 30
0.0
 10
1023.228665404515
 20
-104.000514695432
 30
0.0
 10
1023.228665404515
 20
-103.8421355042433
 30
0.0
  0
LINE
  5
195
330
1F
100
AcDbEntity
  8
0
  6
Continuous
 62
     7
370
    25
100
AcDbLine
 10
1020.8286654045
 20
688.3578644958
 30
0.0
 11
1011.2286654045
 21
688.3578644958
 31
0.0
  0
LINE
  5
196
330
1F
100
AcDbEntity
  8
0
  6
Continuous
 62
     7
370
    25
100
AcDbLine
 10
1011.2286654045
 20
689.7578644958
 30
0.0
 11
1011.2286654045
 21
688.3578644958
 31
0.0
  0
LINE
  5
197
330
1F
100
AcDbEntity
  8
0
  6
Continuous
 62
     7
370
    25
100
AcDbLine
 10
1020.8286654045
 20
689.7578644958
 30
0.0
 11
1011.2286654045
 21
689.7578644958
 31
0.0
  0
LINE
  5
198
330
1F
100
AcDbEntity
  8
0
  6
Continuous
 62
     7
370
    25
100
AcDbLine
 10
1020.8286654045
 20
-106.2421355042
 30
0.0
 11
1011.2286654045
 21
-106.2421355042
 31
0.0
  0
LINE
  5
199
330
1F
100
AcDbEntity
  8
0
  6
Continuous
 62
     7
370
    25
100
AcDbLine
 10
1020.8286654045
 20
-104.8421355042
 30
0.0
 11
1011.2286654045
 21
-104.8421355042
 31
0.0
  0
LINE
  5
19A
330
1F
100
AcDbEntity
  8
0
  6
Continuous
 62
     7
370
    25
100
AcDbLine
 10
1011.2286654045
 20
-106.2421355042
 30
0.0
 11
1011.2286654045
 21
-104.8421355042
 31
0.0
  0
LINE
  5
19B
330
1F
100
AcDbEntity
  8
0
  6
Continuous
 62
     7
370
    25
100
AcDbLine
 10
1003.1286654045
 20
704.2578644958
 30
0.0
 11
1007.1286654045
 21
704.2578644958
 31
0.0
  0
LINE
  5
19C
330
1F
100
AcDbEntity
  8
0
  6
Continuous
 62
     7
370
    25
100
AcDbLine
 10
1003.1286654045
 20
687.0578644958
 30
0.0
 11
1003.1286654045
 21
704.2578644958
 31
0.0
  0
LINE
  5
19D
330
1F
100
AcDbEntity
  8
0
  6
Continuous
 62
     7
370
    25
100
AcDbLine
 10
984.1286654045
 20
721.2578644958
 30
0.0
 11
984.1286654045
 21
687.0578644958
 31
0.0
  0
ARC
  5
19E
330
1F
100
AcDbEntity
  8
0
  6
Continuous
 62
     7
370
    25
100
AcDbCircle
 10
987.1286654045
 20
721.2578644958
 30
0.0
 40
3.0
100
AcDbArc
 50
90.0
 51
180.0
  0
LINE
  5
19F
330
1F
100
AcDbEntity
  8
0
  6
Continuous
 62
     7
370
    25
100
AcDbLine
 10
1004.1286654045
 20
724.2578644958
 30
0.0
 11
987.1286654045
 21
724.2578644958
 31
0.0
  0
ARC
  5
1A0
330
1F
100
AcDbEntity
  8
0
  6
Continuous
 62
     7
370
    25
100
AcDbCircle
 10
1004.1286654045
 20
721.2578644958
 30
0.0
 40
3.000000000000114
100
AcDbArc
 50
0.0
 51
90.0
  0
LINE
  5
1A1
330
1F
100
AcDbEntity
  8
0
  6
Continuous
 62
     7
370
    25
100
AcDbLine
 10
1007.1286654045
 20
704.2578644958
 30
0.0
 11
1007.1286654045
 21
721.2578644958
 31
0.0
  0
CIRCLE
  5
1A2
330
1F
100
AcDbEntity
  8
0
  6
Continuous
 62
     7
370
    25
100
AcDbCircle
 10
992.6286654045
 20
717.7578644958
 30
0.0
 40
3.249999999999773
  0
CIRCLE
  5
1A3
330
1F
100
AcDbEntity
  8
0
  6
Continuous
 62
     7
370
    25
100
AcDbCircle
 10
992.6286654045
 20
692.7578644958
 30
0.0
 40
3.249999999999886
  0
LINE
  5
1A4
330
1F
100
AcDbEntity
  8
0
  6
Continuous
 62
     7
370
    25
100
AcDbLine
 10
984.1286654045
 20
685.2578644958
 30
0.0
 11
984.1286654045
 21
687.0578644958
 31
0.0
  0
LINE
  5
1A5
330
1F
100
AcDbEntity
  8
0
  6
Continuous
 62
     7
370
    25
100
AcDbLine
 10
1003.1286654045
 20
687.0578644958
 30
0.0
 11
1003.1286654045
 21
685.2578644958
 31
0.0
  0
LINE
  5
1A6
330
1F
100
AcDbEntity
  8
0
  6
Continuous
 62
     7
370
    25
100
AcDbLine
 10
1003.1286654045
 20
685.2578644958
 30
0.0
 11
984.1286654045
 21
685.2578644958
 31
0.0
  0
LINE
  5
1A7
330
1F
100
AcDbEntity
  8
0
  6
Continuous
 62
     7
370
    25
100
AcDbLine
 10
1004.3286654045
 20
697.2578644958
 30
0.0
 11
1004.3286654045
 21
687.0578644958
 31
0.0
  0
LINE
  5
1A8
330
1F
100
AcDbEntity
  8
0
  6
Continuous
 62
     7
370
    25
100
AcDbLine
 10
1005.1286654045
 20
697.2578644958
 30
0.0
 11
1004.3286654045
 21
697.2578644958
 31
0.0
  0
LINE
  5
1A9
330
1F
100
AcDbEntity
  8
0
  6
Continuous
 62
     7
370
    25
100
AcDbLine
 10
1003.1286654045
 20
685.2578644958
 30
0.0
 11
1003.3286654045
 21
685.2578644958
 31
0.0
  0
LINE
  5
1AA
330
1F
100
AcDbEntity
  8
0
  6
Continuous
 62
     7
370
    25
100
AcDbLine
 10
1003.1286654045
 20
686.0578644958
 30
0.0
 11
1003.3286654045
 21
686.0578644958
 31
0.0
  0
ARC
  5
1AB
330
1F
100
AcDbEntity
  8
0
  6
Continuous
 62
     7
370
    25
100
AcDbCircle
 10
1003.3286654045
 20
687.0578644958
 30
0.0
 40
1.800000000000068
100
AcDbArc
 50
270.0
 51
0.0
  0
ARC
  5
1AC
330
1F
100
AcDbEntity
  8
0
  6
Continuous
 62
     7
370
    25
100
AcDbCircle
 10
1003.3286654045
 20
687.0578644958
 30
0.0
 40
1.000000000000114
100
AcDbArc
 50
270.0
 51
0.0
  0
LINE
  5
1AD
330
1F
100
AcDbEntity
  8
0
  6
Continuous
 62
     7
370
    25
100
AcDbLine
 10
963.1286654045
 20
685.2578644958
 30
0.0
 11
984.1286654045
 21
685.2578644958
 31
0.0
  0
LINE
  5
1AE
330
1F
100
AcDbEntity
  8
0
  6
Continuous
 62
     7
370
    25
100
AcDbLine
 10
963.1286654045
 20
686.0578644958
 30
0.0
 11
984.1286654045
 21
686.0578644958
 31
0.0
  0
LINE
  5
1AF
330
1F
100
AcDbEntity
  8
0
  6
Continuous
 62
     7
370
    25
100
AcDbLine
 10
960.1286654045
 20
685.2578644958
 30
0.0
 11
960.1286654045
 21
686.0578644958
 31
0.0
  0
LINE
  5
1B0
330
1F
100
AcDbEntity
  8
0
  6
Continuous
 62
     7
370
    25
100
AcDbLine
 10
963.1286654045
 20
685.2578644958
 30
0.0
 11
960.1286654045
 21
685.2578644958
 31
0.0
  0
LINE
  5
1B1
330
1F
100
AcDbEntity
  8
0
  6
Continuous
 62
     7
370
    25
100
AcDbLine
 10
960.1286654045
 20
686.0578644958
 30
0.0
 11
963.1286654045
 21
686.0578644958
 31
0.0
  0
ARC
  5
1B2
330
1F
100
AcDbEntity
  8
0
  6
Continuous
 62
     7
370
    25
100
AcDbCircle
 10
978.7666145969
 20
687.0578644958
 30
0.0
 40
1.0
100
AcDbArc
 50
240.0
 51
270.0
  0
ARC
  5
1B3
330
1F
100
AcDbEntity
  8
0
  6
Continuous
 62
     7
370
    25
100
AcDbCircle
 10
970.7417434663
 20
688.4578644958
 30
0.0
 40
1.799999999999955
100
AcDbArc
 50
60.0
 51
90.0
  0
ARC
  5
1B4
330
1F
100
AcDbEntity
  8
0
  6
Continuous
 62
     7
370
    25
100
AcDbCircle
 10
970.7417434663
 20
688.4578644958
 30
0.0
 40
0.9999999999999267
100
AcDbArc
 50
60.0
 51
90.0
  0
LINE
  5
1B5
330
1F
100
AcDbEntity
  8
0
  6
Continuous
 62
     7
370
    25
100
AcDbLine
 10
978.2666145969
 20
686.191839092
 30
0.0
 11
971.6417434663
 21
690.0167102226
 31
0.0
  0
LINE
  5
1B6
330
1F
100
AcDbEntity
  8
0
  6
Continuous
 62
     7
370
    25
100
AcDbLine
 10
976.8986654045
 20
686.0578644958
 30
0.0
 11
971.2417434663
 21
689.3238898995
 31
0.0
  0
LINE
  5
1B7
330
1F
100
AcDbEntity
  8
0
  6
Continuous
 62
     7
370
    25
100
AcDbLine
 10
964.2240520127
 20
689.4578644958
 30
0.0
 11
970.7417434663
 21
689.4578644958
 31
0.0
  0
LINE
  5
1B8
330
1F
100
AcDbEntity
  8
0
  6
Continuous
 62
     7
370
    25
100
AcDbLine
 10
964.2240520127
 20
690.2578644958
 30
0.0
 11
970.7417434663
 21
690.2578644958
 31
0.0
  0
LINE
  5
1B9
330
1F
100
AcDbEntity
  8
0
  6
Continuous
 62
     7
370
    25
100
AcDbLine
 10
964.2240520127
 20
689.4578644958
 30
0.0
 11
961.2240520127
 21
689.4578644958
 31
0.0
  0
LINE
  5
1BA
330
1F
100
AcDbEntity
  8
0
  6
Continuous
 62
     7
370
    25
100
AcDbLine
 10
961.2240520127
 20
689.4578644958
 30
0.0
 11
961.2240520127
 21
690.2578644958
 31
0.0
  0
LINE
  5
1BB
330
1F
100
AcDbEntity
  8
0
  6
Continuous
 62
     7
370
    25
100
AcDbLine
 10
961.2240520127
 20
690.2578644958
 30
0.0
 11
964.2240520127
 21
690.2578644958
 31
0.0
  0
SPLINE
  5
1BC
330
1F
100
AcDbEntity
  8
0
  6
Continuous
 62
     7
370
    25
100
AcDbSpline
210
0.0
220
0.0
230
1.0
 70
     8
 71
     3
 72
    12
 73
     8
 74
     0
 42
0.000000001
 43
0.00000001
 40
0.0
 40
0.0
 40
0.0
 40
0.0
 40
0.4999999999999811
 40
0.4999999999999811
 40
0.7499999999999906
 40
0.7499999999999906
 40
1.0
 40
1.0
 40
1.0
 40
1.0
 10
1003.71398541913
 20
688.76743329833
 30
0.0
 10
1003.904479708553
 20
689.0026930907732
 30
0.0
 10
1004.026154121616
 20
689.2414777836235
 30
0.0
 10
1004.026810312147
 20
689.6089693161806
 30
0.0
 10
1003.996976310353
 20
689.73134151083
 30
0.0
 10
1003.888046440245
 20
689.9717251959894
 30
0.0
 10
1003.809351253182
 20
690.0904861430513
 30
0.0
 10
1003.713985419129
 20
690.2082626202007
 30
0.0
  0
SPLINE
  5
1BD
330
1F
100
AcDbEntity
  8
0
  6
Continuous
 62
     7
370
    25
100
AcDbSpline
210
0.0
220
0.0
230
1.0
 70
     8
 71
     3
 72
    14
 73
    10
 74
     0
 42
0.000000001
 43
0.00000001
 40
0.0
 40
0.0
 40
0.0
 40
0.0
 40
0.25
 40
0.25
 40
0.5
 40
0.5
 40
0.75
 40
0.75
 40
1.0
 40
1.0
 40
1.0
 40
1.0
 10
1003.713985419129
 20
694.1986938176275
 30
0.0
 10
1003.80886002844
 20
693.8741875883387
 30
0.0
 10
1003.888464953315
 20
693.5417283659444
 30
0.0
 10
1003.99730156821
 20
692.8751584510362
 30
0.0
 10
1004.0266251739
 20
692.540082193761
 30
0.0
 10
1004.026560392154
 20
691.8657387235332
 30
0.0
 10
1003.996404198828
 20
691.5239593028543
 30
0.0
 10
1003.886818997462
 20
690.8575453832498
 30
0.0
 10
1003.80827602366
 20
690.530771337297
 30
0.0
 10
1003.713985419129
 20
690.2082626202007
 30
0.0
  0
SPLINE
  5
1BE
330
1F
100
AcDbEntity
  8
0
  6
Continuous
 62
     7
370
    25
100
AcDbSpline
210
0.0
220
0.0
230
1.0
 70
     8
 71
     3
 72
    12
 73
     8
 74
     0
 42
0.000000001
 43
0.00000001
 40
0.0
 40
0.0
 40
0.0
 40
0.0
 40
0.5
 40
0.5
 40
0.75
 40
0.75
 40
1.0
 40
1.0
 40
1.0
 40
1.0
 10
1003.71398541913
 20
694.1986938176274
 30
0.0
 10
1003.904479708553
 20
694.6149949012819
 30
0.0
 10
1004.026154121616
 20
695.0375334292702
 30
0.0
 10
1004.026810312147
 20
695.6878235687311
 30
0.0
 10
1003.996976310353
 20
695.9043657866456
 30
0.0
 10
1003.888046440245
 20
696.3297337918859
 30
0.0
 10
1003.809351253182
 20
696.5398857708711
 30
0.0
 10
1003.713985419129
 20
696.7482956931839
 30
0.0
  0
LINE
  5
1BF
330
1F
100
AcDbEntity
  8
0
  6
Continuous
 62
     7
370
    25
100
AcDbLine
 10
1003.7139854191
 20
696.7482956932
 30
0.0
 11
1003.8118604564
 21
696.5053909429
 31
0.0
  0
LINE
  5
1C0
330
1F
100
AcDbEntity
  8
0
  6
Continuous
 62
     7
370
    25
100
AcDbLine
 10
1004.2286654045
 20
692.2589168466
 30
0.0
 11
1004.2286654045
 21
689.6078644958
 31
0.0
  0
LINE
  5
1C1
330
1F
100
AcDbEntity
  8
0
  6
Continuous
 62
     7
370
    25
100
AcDbLine
 10
1004.2286654045
 20
695.9078644958
 30
0.0
 11
1004.2286654045
 21
692.2589168466
 31
0.0
  0
LINE
  5
1C2
330
1F
100
AcDbEntity
  8
0
  6
Continuous
 62
     7
370
    25
100
AcDbLine
 10
1003.1286654045
 20
694.1986938176
 30
0.0
 11
1003.7139854191
 21
694.1986938176
 31
0.0
  0
LINE
  5
1C3
330
1F
100
AcDbEntity
  8
0
  6
Continuous
 62
     7
370
    25
100
AcDbLine
 10
1003.1286654045
 20
690.2082626202
 30
0.0
 11
1003.7139854191
 21
690.2082626202
 31
0.0
  0
LINE
  5
1C4
330
1F
100
AcDbEntity
  8
0
  6
Continuous
 62
     7
370
    25
100
AcDbLine
 10
1003.1286654045
 20
696.7482956932
 30
0.0
 11
1003.7139854191
 21
696.7482956932
 31
0.0
  0
LINE
  5
1C5
330
1F
100
AcDbEntity
  8
0
  6
Continuous
 62
     7
370
    25
100
AcDbLine
 10
1003.1286654045
 20
688.7674332983
 30
0.0
 11
1003.7139854191
 21
688.7674332983
 31
0.0
  0
LINE
  5
1C6
330
1F
100
AcDbEntity
  8
0
  6
Continuous
 62
     7
370
    25
100
AcDbLine
 10
1006.9286654045
 20
682.7578644958
 30
0.0
 11
1006.9286654045
 21
683.5578644958
 31
0.0
  0
LINE
  5
1C7
330
1F
100
AcDbEntity
  8
0
  6
Continuous
 62
     7
370
    25
100
AcDbLine
 10
1011.2286654045
 20
683.5578644958
 30
0.0
 11
1006.9286654045
 21
683.5578644958
 31
0.0
  0
LINE
  5
1C8
330
1F
100
AcDbEntity
  8
0
  6
Continuous
 62
     7
370
    25
100
AcDbLine
 10
1011.2286654045
 20
682.7578644958
 30
0.0
 11
1006.9286654045
 21
682.7578644958
 31
0.0
  0
LINE
  5
1C9
330
1F
100
AcDbEntity
  8
0
  6
Continuous
 62
     7
370
    25
100
AcDbLine
 10
1011.6786654045
 20
701.0578644958
 30
0.0
 11
1016.8286654045
 21
701.0578644958
 31
0.0
  0
LINE
  5
1CA
330
1F
100
AcDbEntity
  8
0
  6
Continuous
 62
     7
370
    25
100
AcDbLine
 10
1011.6786654045
 20
701.8578644958
 30
0.0
 11
1011.6786654045
 21
701.0578644958
 31
0.0
  0
LINE
  5
1CB
330
1F
100
AcDbEntity
  8
0
  6
Continuous
 62
     7
370
    25
100
AcDbLine
 10
1011.6786654045
 20
701.8578644958
 30
0.0
 11
1016.8286654045
 21
701.8578644958
 31
0.0
  0
LINE
  5
1CC
330
1F
100
AcDbEntity
  8
0
  6
Continuous
 62
     7
370
    25
100
AcDbLine
 10
1016.8286654045
 20
701.8578644958
 30
0.0
 11
1016.8286654045
 21
701.9578644958
 31
0.0
  0
LINE
  5
1CD
330
1F
100
AcDbEntity
  8
0
  6
Continuous
 62
     7
370
    25
100
AcDbLine
 10
1006.9286654045
 20
701.9578644958
 30
0.0
 11
1016.8286654045
 21
701.9578644958
 31
0.0
  0
LINE
  5
1CE
330
1F
100
AcDbEntity
  8
0
  6
Continuous
 62
     7
370
    25
100
AcDbLine
 10
1006.9286654045
 20
701.9578644958
 30
0.0
 11
1006.9286654045
 21
702.7578644958
 31
0.0
  0
LINE
  5
1CF
330
1F
100
AcDbEntity
  8
0
  6
Continuous
 62
     7
370
    25
100
AcDbLine
 10
1016.8286654045
 20
702.7578644958
 30
0.0
 11
1006.9286654045
 21
702.7578644958
 31
0.0
  0
ARC
  5
1D0
330
1F
100
AcDbEntity
  8
0
  6
Continuous
 62
     7
370
    25
100
AcDbCircle
 10
1016.8286654045
 20
701.9078644958
 30
0.0
 40
0.8500000000000227
100
AcDbArc
 50
270.0
 51
90.0
  0
LINE
  5
1D1
330
1F
100
AcDbEntity
  8
0
  6
Continuous
 62
     7
370
    25
100
AcDbLine
 10
1005.1286654045
 20
684.5578644958
 30
0.0
 11
1005.1286654045
 21
700.9578644958
 31
0.0
  0
ARC
  5
1D2
330
1F
100
AcDbEntity
  8
0
  6
Continuous
 62
     7
370
    25
100
AcDbCircle
 10
1006.9286654045
 20
700.9578644958
 30
0.0
 40
1.000000000000114
100
AcDbArc
 50
90.0
 51
180.0
  0
LINE
  5
1D3
330
1F
100
AcDbEntity
  8
0
  6
Continuous
 62
     7
370
    25
100
AcDbLine
 10
1005.9286654045
 20
700.9578644958
 30
0.0
 11
1005.9286654045
 21
684.5578644958
 31
0.0
  0
ARC
  5
1D4
330
1F
100
AcDbEntity
  8
0
  6
Continuous
 62
     7
370
    25
100
AcDbCircle
 10
1006.9286654045
 20
700.9578644958
 30
0.0
 40
1.799999999999955
100
AcDbArc
 50
90.0
 51
180.0
  0
ARC
  5
1D5
330
1F
100
AcDbEntity
  8
0
  6
Continuous
 62
     7
370
    25
100
AcDbCircle
 10
1006.9286654045
 20
684.5578644958
 30
0.0
 40
1.800000000000182
100
AcDbArc
 50
180.0
 51
270.0
  0
ARC
  5
1D6
330
1F
100
AcDbEntity
  8
0
  6
Continuous
 62
     7
370
    25
100
AcDbCircle
 10
1006.9286654045
 20
684.5578644958
 30
0.0
 40
1.000000000000114
100
AcDbArc
 50
180.0
 51
270.0
  0
CIRCLE
  5
1D7
330
1F
100
AcDbEntity
  8
0
  6
Continuous
 62
     7
370
    25
100
AcDbCircle
 10
992.6286654045
 20
692.7578644958
 30
0.0
 40
2.458750000016599
  0
CIRCLE
  5
1D8
330
1F
100
AcDbEntity
  8
0
  6
Continuous
 62
     7
370
    25
100
AcDbCircle
 10
992.6286654045
 20
692.7578644958
 30
0.0
 40
2.999999999999965
  0
ARC
  5
1D9
330
1F
100
AcDbEntity
  8
0
  6
Continuous
 62
     7
370
    25
100
AcDbCircle
 10
1001.1916855068
 20
692.6619264759
 30
0.0
 40
7.786288415077813
100
AcDbArc
 50
4.3702527064
 51
15.2299003795
  0
ARC
  5
1DA
330
1F
100
AcDbEntity
  8
0
  6
Continuous
 62
     7
370
    25
100
AcDbCircle
 10
1008.4309419703
 20
693.5683800782
 30
0.0
 40
0.6107675350068427
100
AcDbArc
 50
296.6101963366
 51
329.1575418587
  0
ARC
  5
1DB
330
1F
100
AcDbEntity
  8
0
  6
Continuous
 62
     7
370
    25
100
AcDbCircle
 10
999.624879829
 20
692.4298829831
 30
0.0
 40
9.098942710118346
100
AcDbArc
 50
356.2668736477
 51
3.7331263523
  0
ARC
  5
1DC
330
1F
100
AcDbEntity
  8
0
  6
Continuous
 62
     7
370
    25
100
AcDbCircle
 10
1008.4309419703
 20
692.3835292934
 30
0.0
 40
0.6107675350070462
100
AcDbArc
 50
296.6101963366
 51
329.1575418587
  0
ARC
  5
1DD
330
1F
100
AcDbEntity
  8
0
  6
Continuous
 62
     7
370
    25
100
AcDbCircle
 10
1001.1916855068
 20
692.6637272207
 30
0.0
 40
7.78628841508205
100
AcDbArc
 50
344.7700996206
 51
355.6297472936
  0
ARC
  5
1DE
330
1F
100
AcDbEntity
  8
0
  6
Continuous
 62
     7
370
    25
100
AcDbCircle
 10
1008.5714316259
 20
690.6922621189
 30
0.0
 40
0.1522432420593313
100
AcDbArc
 50
330.9451665851
 51
359.1449116591
  0
LWPOLYLINE
  5
1DF
330
1F
100
AcDbEntity
  8
0
  6
Continuous
 62
     7
370
    25
100
AcDbPolyline
 90
        3
 70
   128
 43
0.0
 10
1008.9553348948
 20
692.2604767508
 10
1008.9391100461
 20
692.076778422
 10
1008.9384679031
 20
692.0704014559
  0
ARC
  5
1E0
330
1F
100
AcDbEntity
  8
0
  6
Continuous
 62
     7
370
    25
100
AcDbCircle
 10
1008.4309419703
 20
691.9473489133
 30
0.0
 40
0.6107675350090803
100
AcDbArc
 50
30.8424581414
 51
63.3898036633
  0
ARC
  5
1E1
330
1F
100
AcDbEntity
  8
0
  6
Continuous
 62
     7
370
    25
100
AcDbCircle
 10
999.5480080506
 20
693.0888618646
 30
0.0
 40
9.175815042021414
100
AcDbArc
 50
357.9327321278
 51
359.6562101173
  0
ARC
  5
1E2
330
1F
100
AcDbEntity
  8
0
  6
Continuous
 62
     7
370
    25
100
AcDbCircle
 10
1001.1916855068
 20
692.8520017708
 30
0.0
 40
7.786288415081417
100
AcDbArc
 50
4.3702527064
 51
15.2299003794
  0
ARC
  5
1E3
330
1F
100
AcDbEntity
  8
0
  6
Continuous
 62
     7
370
    25
100
AcDbCircle
 10
1008.4833938395
 20
694.8023656121
 30
0.0
 40
0.2406805056705975
100
AcDbArc
 50
336.7420981703
 51
23.2579018297
  0
LINE
  5
1E4
330
1F
100
AcDbEntity
  8
0
  6
Continuous
 62
     7
370
    25
100
AcDbLine
 10
1007.9286654045
 20
696.7073671118
 30
0.0
 11
1007.9286654045
 21
696.7578644958
 31
0.0
  0
LINE
  5
1E5
330
1F
100
AcDbEntity
  8
0
  6
Continuous
 62
     7
370
    25
100
AcDbLine
 10
1007.9286654045
 20
688.7578644958
 30
0.0
 11
1007.9286654045
 21
696.7073671118
 31
0.0
  0
LINE
  5
1E6
330
1F
100
AcDbEntity
  8
0
  6
Continuous
 62
     7
370
    25
100
AcDbLine
 10
1008.9553348948
 20
692.0704014559
 30
0.0
 11
1008.7167792369
 21
692.0704014559
 31
0.0
  0
LINE
  5
1E7
330
1F
100
AcDbEntity
  8
0
  6
Continuous
 62
     7
370
    25
100
AcDbLine
 10
1008.9553348948
 20
693.4453275356
 30
0.0
 11
1008.9384679031
 21
693.4453275356
 31
0.0
  0
LINE
  5
1E8
330
1F
100
AcDbEntity
  8
0
  6
Continuous
 62
     7
370
    25
100
AcDbLine
 10
1008.9553348948
 20
692.2604767508
 30
0.0
 11
1008.7222845784
 21
692.2604767508
 31
0.0
  0
LINE
  5
1E9
330
1F
100
AcDbEntity
  8
0
  6
Continuous
 62
     7
370
    25
100
AcDbLine
 10
998.7286654045
 20
627.0717098547
 30
0.0
 11
986.7286654045
 21
627.0717098547
 31
0.0
  0
LINE
  5
1EA
330
1F
100
AcDbEntity
  8
0
  6
Continuous
 62
     7
370
    25
100
AcDbLine
 10
998.7286654045
 20
626.3876695681
 30
0.0
 11
986.7286654045
 21
626.3876695681
 31
0.0
  0
ARC
  5
1EB
330
1F
100
AcDbEntity
  8
0
  6
Continuous
 62
     7
370
    25
100
AcDbCircle
 10
986.6701765153
 20
629.0133376721
 30
0.0
 40
1.942508566654916
100
AcDbArc
 50
181.8362067976
 51
271.7254354149
  0
LINE
  5
1EC
330
1F
100
AcDbEntity
  8
0
  6
Continuous
 62
     7
370
    25
100
AcDbLine
 10
984.7286654045
 20
628.9510950963
 30
0.0
 11
984.7286654045
 21
634.0921713331
 31
0.0
  0
LINE
  5
1ED
330
1F
100
AcDbEntity
  8
0
  6
Continuous
 62
     7
370
    25
100
AcDbLine
 10
1000.7286654045
 20
634.0921713331
 30
0.0
 11
1000.7286654045
 21
628.9510950963
 31
0.0
  0
ARC
  5
1EE
330
1F
100
AcDbEntity
  8
0
  6
Continuous
 62
     7
370
    25
100
AcDbCircle
 10
998.7871542937
 20
629.0133376721
 30
0.0
 40
1.942508566655133
100
AcDbArc
 50
268.2745645851
 51
358.1637932024
  0
LINE
  5
1EF
330
1F
100
AcDbEntity
  8
0
  6
Continuous
 62
     7
370
    25
100
AcDbLine
 10
984.7286654045
 20
628.2670548096
 30
0.0
 11
984.7286654045
 21
628.9510950963
 31
0.0
  0
ARC
  5
1F0
330
1F
100
AcDbEntity
  8
0
  6
Continuous
 62
     7
370
    25
100
AcDbCircle
 10
986.6701765153
 20
628.3292973855
 30
0.0
 40
1.942508566655136
100
AcDbArc
 50
181.8362067977
 51
271.7254354149
  0
LINE
  5
1F1
330
1F
100
AcDbEntity
  8
0
  6
Continuous
 62
     7
370
    25
100
AcDbLine
 10
1000.7286654045
 20
628.9510950963
 30
0.0
 11
1000.7286654045
 21
628.2670548096
 31
0.0
  0
ARC
  5
1F2
330
1F
100
AcDbEntity
  8
0
  6
Continuous
 62
     7
370
    25
100
AcDbCircle
 10
998.7871542937
 20
628.3292973855
 30
0.0
 40
1.942508566655463
100
AcDbArc
 50
268.2745645851
 51
358.1637932023
  0
LINE
  5
1F3
330
1F
100
AcDbEntity
  8
0
  6
Continuous
 62
     7
370
    25
100
AcDbLine
 10
1000.7286654045
 20
634.0921713331
 30
0.0
 11
1000.7286654045
 21
634.4341914765
 31
0.0
  0
LINE
  5
1F4
330
1F
100
AcDbEntity
  8
0
  6
Continuous
 62
     7
370
    25
100
AcDbLine
 10
984.7286654045
 20
634.4341914765
 30
0.0
 11
984.7286654045
 21
634.0921713331
 31
0.0
  0
LINE
  5
1F5
330
1F
100
AcDbEntity
  8
0
  6
Continuous
 62
     7
370
    25
100
AcDbLine
 10
1000.7286654045
 20
634.2578644958
 30
0.0
 11
1011.2286654045
 21
634.2578644958
 31
0.0
  0
LINE
  5
1F6
330
1F
100
AcDbEntity
  8
0
  6
Continuous
 62
     7
370
    25
100
AcDbLine
 10
984.7286654045
 20
647.2578644958
 30
0.0
 11
984.7286654045
 21
634.4341914765
 31
0.0
  0
ARC
  5
1F7
330
1F
100
AcDbEntity
  8
0
  6
Continuous
 62
     7
370
    25
100
AcDbCircle
 10
986.7286654045
 20
647.2578644958
 30
0.0
 40
2.0
100
AcDbArc
 50
90.0
 51
180.0
  0
LINE
  5
1F8
330
1F
100
AcDbEntity
  8
0
  6
Continuous
 62
     7
370
    25
100
AcDbLine
 10
1011.2286654045
 20
649.2578644958
 30
0.0
 11
986.7286654045
 21
649.2578644958
 31
0.0
  0
CIRCLE
  5
1F9
330
1F
100
AcDbEntity
  8
0
  6
Continuous
 62
     7
370
    25
100
AcDbCircle
 10
992.6286654045
 20
641.7578644958
 30
0.0
 40
3.500000000000114
  0
CIRCLE
  5
1FA
330
1F
100
AcDbEntity
  8
0
  6
Continuous
 62
     7
370
    25
100
AcDbCircle
 10
992.6286654045
 20
291.7578644958
 30
0.0
 40
2.458750000016599
  0
CIRCLE
  5
1FB
330
1F
100
AcDbEntity
  8
0
  6
Continuous
 62
     7
370
    25
100
AcDbCircle
 10
992.6286654045
 20
291.7578644958
 30
0.0
 40
3.000000000000039
  0
ARC
  5
1FC
330
1F
100
AcDbEntity
  8
0
  6
Continuous
 62
     7
370
    25
100
AcDbCircle
 10
986.6701765153
 20
279.0133376721
 30
0.0
 40
1.942508566655079
100
AcDbArc
 50
181.8362067976
 51
271.7254354149
  0
LINE
  5
1FD
330
1F
100
AcDbEntity
  8
0
  6
Continuous
 62
     7
370
    25
100
AcDbLine
 10
984.7286654045
 20
278.9510950963
 30
0.0
 11
984.7286654045
 21
284.0921713331
 31
0.0
  0
LINE
  5
1FE
330
1F
100
AcDbEntity
  8
0
  6
Continuous
 62
     7
370
    25
100
AcDbLine
 10
1000.7286654045
 20
284.0921713331
 30
0.0
 11
1000.7286654045
 21
278.9510950963
 31
0.0
  0
ARC
  5
1FF
330
1F
100
AcDbEntity
  8
0
  6
Continuous
 62
     7
370
    25
100
AcDbCircle
 10
998.7871542937
 20
279.0133376721
 30
0.0
 40
1.942508566655241
100
AcDbArc
 50
268.2745645851
 51
358.1637932023
  0
LINE
  5
200
330
1F
100
AcDbEntity
  8
0
  6
Continuous
 62
     7
370
    25
100
AcDbLine
 10
998.7286654045
 20
277.0717098547
 30
0.0
 11
986.7286654045
 21
277.0717098547
 31
0.0
  0
LINE
  5
201
330
1F
100
AcDbEntity
  8
0
  6
Continuous
 62
     7
370
    25
100
AcDbLine
 10
984.7286654045
 20
278.2670548096
 30
0.0
 11
984.7286654045
 21
278.9510950963
 31
0.0
  0
ARC
  5
202
330
1F
100
AcDbEntity
  8
0
  6
Continuous
 62
     7
370
    25
100
AcDbCircle
 10
986.6701765153
 20
278.3292973855
 30
0.0
 40
1.94250856665519
100
AcDbArc
 50
181.8362067977
 51
271.7254354149
  0
LINE
  5
203
330
1F
100
AcDbEntity
  8
0
  6
Continuous
 62
     7
370
    25
100
AcDbLine
 10
998.7286654045
 20
276.3876695681
 30
0.0
 11
986.7286654045
 21
276.3876695681
 31
0.0
  0
LINE
  5
204
330
1F
100
AcDbEntity
  8
0
  6
Continuous
 62
     7
370
    25
100
AcDbLine
 10
1000.7286654045
 20
278.9510950963
 30
0.0
 11
1000.7286654045
 21
278.2670548096
 31
0.0
  0
ARC
  5
205
330
1F
100
AcDbEntity
  8
0
  6
Continuous
 62
     7
370
    25
100
AcDbCircle
 10
998.7871542937
 20
278.3292973855
 30
0.0
 40
1.942508566655296
100
AcDbArc
 50
268.2745645851
 51
358.1637932023
  0
LINE
  5
206
330
1F
100
AcDbEntity
  8
0
  6
Continuous
 62
     7
370
    25
100
AcDbLine
 10
1000.7286654045
 20
284.0921713331
 30
0.0
 11
1000.7286654045
 21
284.4341914765
 31
0.0
  0
LINE
  5
207
330
1F
100
AcDbEntity
  8
0
  6
Continuous
 62
     7
370
    25
100
AcDbLine
 10
984.7286654045
 20
284.4341914765
 30
0.0
 11
984.7286654045
 21
284.0921713331
 31
0.0
  0
LINE
  5
208
330
1F
100
AcDbEntity
  8
0
  6
Continuous
 62
     7
370
    25
100
AcDbLine
 10
1000.7286654045
 20
284.2578644958
 30
0.0
 11
1011.2286654045
 21
284.2578644958
 31
0.0
  0
CIRCLE
  5
209
330
1F
100
AcDbEntity
  8
0
  6
Continuous
 62
     7
370
    25
100
AcDbCircle
 10
992.6286654045
 20
291.7578644958
 30
0.0
 40
3.500000000000114
  0
LINE
  5
20A
330
1F
100
AcDbEntity
  8
0
  6
Continuous
 62
     7
370
    25
100
AcDbLine
 10
1011.2286654045
 20
299.2578644958
 30
0.0
 11
986.7286654045
 21
299.2578644958
 31
0.0
  0
ARC
  5
20B
330
1F
100
AcDbEntity
  8
0
  6
Continuous
 62
     7
370
    25
100
AcDbCircle
 10
986.7286654045
 20
297.2578644958
 30
0.0
 40
2.0
100
AcDbArc
 50
90.0
 51
180.0
  0
LINE
  5
20C
330
1F
100
AcDbEntity
  8
0
  6
Continuous
 62
     7
370
    25
100
AcDbLine
 10
984.7286654045
 20
297.2578644958
 30
0.0
 11
984.7286654045
 21
284.4341914765
 31
0.0
  0
LINE
  5
20D
330
1F
100
AcDbEntity
  8
0
  6
Continuous
 62
     7
370
    25
100
AcDbLine
 10
984.7286654045
 20
-50.5764423416
 30
0.0
 11
984.7286654045
 21
-45.4353661048
 31
0.0
  0
ARC
  5
20E
330
1F
100
AcDbEntity
  8
0
  6
Continuous
 62
     7
370
    25
100
AcDbCircle
 10
986.6701765153
 20
-45.4976086806
 30
0.0
 40
1.942508566655161
100
AcDbArc
 50
88.2745645851
 51
178.1637932023
  0
LINE
  5
20F
330
1F
100
AcDbEntity
  8
0
  6
Continuous
 62
     7
370
    25
100
AcDbLine
 10
986.7286654045
 20
-43.5559808632
 30
0.0
 11
998.7286654045
 21
-43.5559808632
 31
0.0
  0
ARC
  5
210
330
1F
100
AcDbEntity
  8
0
  6
Continuous
 62
     7
370
    25
100
AcDbCircle
 10
998.7871542937
 20
-45.4976086806
 30
0.0
 40
1.942508566655047
100
AcDbArc
 50
1.8362067976
 51
91.7254354149
  0
LINE
  5
211
330
1F
100
AcDbEntity
  8
0
  6
Continuous
 62
     7
370
    25
100
AcDbLine
 10
1000.7286654045
 20
-45.4353661048
 30
0.0
 11
1000.7286654045
 21
-50.5764423416
 31
0.0
  0
LINE
  5
212
330
1F
100
AcDbEntity
  8
0
  6
Continuous
 62
     7
370
    25
100
AcDbLine
 10
984.7286654045
 20
-45.4353661048
 30
0.0
 11
984.7286654045
 21
-44.7513258181
 31
0.0
  0
ARC
  5
213
330
1F
100
AcDbEntity
  8
0
  6
Continuous
 62
     7
370
    25
100
AcDbCircle
 10
986.6701765153
 20
-44.813568394
 30
0.0
 40
1.942508566655101
100
AcDbArc
 50
88.2745645851
 51
178.1637932023
  0
LINE
  5
214
330
1F
100
AcDbEntity
  8
0
  6
Continuous
 62
     7
370
    25
100
AcDbLine
 10
986.7286654045
 20
-42.8719405765
 30
0.0
 11
998.7286654045
 21
-42.8719405765
 31
0.0
  0
LINE
  5
215
330
1F
100
AcDbEntity
  8
0
  6
Continuous
 62
     7
370
    25
100
AcDbLine
 10
1000.7286654045
 20
-44.7513258181
 30
0.0
 11
1000.7286654045
 21
-45.4353661048
 31
0.0
  0
ARC
  5
216
330
1F
100
AcDbEntity
  8
0
  6
Continuous
 62
     7
370
    25
100
AcDbCircle
 10
998.7871542937
 20
-44.813568394
 30
0.0
 40
1.942508566655062
100
AcDbArc
 50
1.8362067976
 51
91.7254354149
  0
LINE
  5
217
330
1F
100
AcDbEntity
  8
0
  6
Continuous
 62
     7
370
    25
100
AcDbLine
 10
984.7286654045
 20
-50.5764423416
 30
0.0
 11
984.7286654045
 21
-50.918462485
 31
0.0
  0
LINE
  5
218
330
1F
100
AcDbEntity
  8
0
  6
Continuous
 62
     7
370
    25
100
AcDbLine
 10
1000.7286654045
 20
-50.918462485
 30
0.0
 11
1000.7286654045
 21
-50.5764423416
 31
0.0
  0
LINE
  5
219
330
1F
100
AcDbEntity
  8
0
  6
Continuous
 62
     7
370
    25
100
AcDbLine
 10
1011.2286654045
 20
-50.7421355042
 30
0.0
 11
1000.7286654045
 21
-50.7421355042
 31
0.0
  0
LINE
  5
21A
330
1F
100
AcDbEntity
  8
0
  6
Continuous
 62
     7
370
    25
100
AcDbLine
 10
984.7286654045
 20
-50.918462485
 30
0.0
 11
984.7286654045
 21
-63.7421355042
 31
0.0
  0
CIRCLE
  5
21B
330
1F
100
AcDbEntity
  8
0
  6
Continuous
 62
     7
370
    25
100
AcDbCircle
 10
992.6286654045
 20
-58.2421355042
 30
0.0
 40
3.5
  0
ARC
  5
21C
330
1F
100
AcDbEntity
  8
0
  6
Continuous
 62
     7
370
    25
100
AcDbCircle
 10
986.7286654045
 20
-63.7421355042
 30
0.0
 40
2.000000000000007
100
AcDbArc
 50
180.0
 51
270.0
  0
LINE
  5
21D
330
1F
100
AcDbEntity
  8
0
  6
Continuous
 62
     7
370
    25
100
AcDbLine
 10
986.7286654045
 20
-65.7421355042
 30
0.0
 11
1011.2286654045
 21
-65.7421355042
 31
0.0
  0
CIRCLE
  5
21E
330
1F
100
AcDbEntity
  8
0
  6
Continuous
 62
     7
370
    25
100
AcDbCircle
 10
992.6286654045
 20
717.7578644958
 30
0.0
 40
2.458750000016497
  0
CIRCLE
  5
21F
330
1F
100
AcDbEntity
  8
0
  6
Continuous
 62
     7
370
    25
100
AcDbCircle
 10
992.6286654045
 20
717.7578644958
 30
0.0
 40
3.000000000000064
  0
CIRCLE
  5
220
330
1F
100
AcDbEntity
  8
0
  6
Continuous
 62
     7
370
    25
100
AcDbCircle
 10
992.6286654045
 20
-58.2421355042
 30
0.0
 40
2.458750000016594
  0
CIRCLE
  5
221
330
1F
100
AcDbEntity
  8
0
  6
Continuous
 62
     7
370
    25
100
AcDbCircle
 10
992.6286654045
 20
-58.2421355042
 30
0.0
 40
3.000000000000017
  0
CIRCLE
  5
222
330
1F
100
AcDbEntity
  8
0
  6
Continuous
 62
     7
370
    25
100
AcDbCircle
 10
992.6286654045
 20
641.7578644958
 30
0.0
 40
2.458750000016702
  0
CIRCLE
  5
223
330
1F
100
AcDbEntity
  8
0
  6
Continuous
 62
     7
370
    25
100
AcDbCircle
 10
992.6286654045
 20
641.7578644958
 30
0.0
 40
2.999999999999965
  0
LINE
  5
224
330
1F
100
AcDbEntity
  8
0
  6
Continuous
 62
     7
370
    25
100
AcDbLine
 10
850.1443680867
 20
811.2834202127
 30
0.0
 11
850.1443680867
 21
807.2834202127
 31
0.0
  0
LINE
  5
225
330
1F
100
AcDbEntity
  8
0
  6
Continuous
 62
     7
370
    25
100
AcDbLine
 10
850.1443680867
 20
807.2834202127
 30
0.0
 11
850.6443680867
 21
806.7834202127
 31
0.0
  0
LINE
  5
226
330
1F
100
AcDbEntity
  8
0
  6
Continuous
 62
     7
370
    25
100
AcDbLine
 10
850.2007100485
 20
807.2834202127
 30
0.0
 11
850.7007100485
 21
806.7834202127
 31
0.0
  0
LINE
  5
227
330
1F
100
AcDbEntity
  8
0
  6
Continuous
 62
     7
370
    25
100
AcDbLine
 10
850.2007100485
 20
811.2834202127
 30
0.0
 11
850.2007100485
 21
807.2834202127
 31
0.0
  0
LINE
  5
228
330
1F
100
AcDbEntity
  8
0
  6
Continuous
 62
     7
370
    25
100
AcDbLine
 10
-32.8788389374
 20
807.2834202127
 30
0.0
 11
-32.3788389374
 21
806.7834202127
 31
0.0
  0
LINE
  5
229
330
1F
100
AcDbEntity
  8
0
  6
Continuous
 62
     7
370
    25
100
AcDbLine
 10
-32.8788389374
 20
811.2834202127
 30
0.0
 11
-32.8788389374
 21
807.2834202127
 31
0.0
  0
LINE
  5
22A
330
1F
100
AcDbEntity
  8
0
  6
Continuous
 62
     7
370
    25
100
AcDbLine
 10
-27.0283048192
 20
807.2834202127
 30
0.0
 11
-27.0283048192
 21
811.2834202127
 31
0.0
  0
LINE
  5
22B
330
1F
100
AcDbEntity
  8
0
  6
Continuous
 62
     7
370
    25
100
AcDbLine
 10
-27.5283048192
 20
806.7834202127
 30
0.0
 11
-27.0283048192
 21
807.2834202127
 31
0.0
  0
LINE
  5
22C
330
1F
100
AcDbEntity
  8
0
  6
Continuous
 62
     7
370
    25
100
AcDbLine
 10
-32.7124210733
 20
811.2834202127
 30
0.0
 11
-32.7124210733
 21
807.2834202127
 31
0.0
  0
LINE
  5
22D
330
1F
100
AcDbEntity
  8
0
  6
Continuous
 62
     7
370
    25
100
AcDbLine
 10
-32.7124210733
 20
807.2834202127
 30
0.0
 11
-32.2124210733
 21
806.7834202127
 31
0.0
  0
LINE
  5
22E
330
1F
100
AcDbEntity
  8
0
  6
Continuous
 62
     7
370
    25
100
AcDbLine
 10
850.2996357071
 20
807.2834202127
 30
0.0
 11
850.7996357071
 21
806.7834202127
 31
0.0
  0
LINE
  5
22F
330
1F
100
AcDbEntity
  8
0
  6
Continuous
 62
     7
370
    25
100
AcDbLine
 10
850.2996357071
 20
811.2834202127
 30
0.0
 11
850.2996357071
 21
807.2834202127
 31
0.0
  0
LINE
  5
230
330
1F
100
AcDbEntity
  8
0
  6
Continuous
 62
     7
370
    25
100
AcDbLine
 10
855.9764761671
 20
807.2834202127
 30
0.0
 11
855.9764761671
 21
811.2834202127
 31
0.0
  0
LINE
  5
231
330
1F
100
AcDbEntity
  8
0
  6
Continuous
 62
     7
370
    25
100
AcDbLine
 10
855.4764761671
 20
806.7834202127
 30
0.0
 11
855.9764761671
 21
807.2834202127
 31
0.0
  0
ARC
  5
232
330
1F
100
AcDbEntity
  8
0
  6
Continuous
 62
     7
370
    25
100
AcDbCircle
 10
863.0128208011
 20
787.3834202126
 30
0.0
 40
0.5000000000001137
100
AcDbArc
 50
180.0
 51
0.0
  0
ARC
  5
233
330
1F
100
AcDbEntity
  8
0
  6
Continuous
 62
     7
370
    25
100
AcDbCircle
 10
863.0128208011
 20
798.9834202128
 30
0.0
 40
0.5
100
AcDbArc
 50
0.0
 51
180.0
  0
LINE
  5
234
330
1F
100
AcDbEntity
  8
0
  6
Continuous
 62
     7
370
    25
100
AcDbLine
 10
858.7404022383
 20
798.5776028248
 30
0.0
 11
858.5128208011
 21
798.1834202127
 31
0.0
  0
LINE
  5
235
330
1F
100
AcDbEntity
  8
0
  6
Continuous
 62
     7
370
    25
100
AcDbLine
 10
872.9715708011
 20
790.1834202127
 30
0.0
 11
873.5128208011
 21
790.7246702127
 31
0.0
  0
LINE
  5
236
330
1F
100
AcDbEntity
  8
0
  6
Continuous
 62
     7
370
    25
100
AcDbLine
 10
873.5128208011
 20
795.6421702127
 30
0.0
 11
872.9715708011
 21
796.1834202127
 31
0.0
  0
LINE
  5
237
330
1F
100
AcDbEntity
  8
0
  6
Continuous
 62
     7
370
    25
100
AcDbLine
 10
872.9715708011
 20
796.1834202127
 30
0.0
 11
865.5128208011
 21
796.1834202127
 31
0.0
  0
LINE
  5
238
330
1F
100
AcDbEntity
  8
0
  6
Continuous
 62
     7
370
    25
100
AcDbLine
 10
865.5128208011
 20
790.1834202127
 30
0.0
 11
872.9715708011
 21
790.1834202127
 31
0.0
  0
LINE
  5
239
330
1F
100
AcDbEntity
  8
0
  6
Continuous
 62
     7
370
    25
100
AcDbLine
 10
858.5128208011
 20
788.1834202127
 30
0.0
 11
858.7404022383
 21
787.7892376006
 31
0.0
  0
LINE
  5
23A
330
1F
100
AcDbEntity
  8
0
  6
Continuous
 62
     7
370
    25
100
AcDbLine
 10
873.1715708011
 20
796.1834202127
 30
0.0
 11
872.9715708011
 21
796.1834202127
 31
0.0
  0
LINE
  5
23B
330
1F
100
AcDbEntity
  8
0
  6
Continuous
 62
     7
370
    25
100
AcDbLine
 10
872.9715708011
 20
790.1834202127
 30
0.0
 11
873.1715708011
 21
790.1834202127
 31
0.0
  0
LINE
  5
23C
330
1F
100
AcDbEntity
  8
0
  6
Continuous
 62
     7
370
    25
100
AcDbLine
 10
873.1715708011
 20
790.1834202127
 30
0.0
 11
873.7128208011
 21
790.7246702127
 31
0.0
  0
LINE
  5
23D
330
1F
100
AcDbEntity
  8
0
  6
Continuous
 62
     7
370
    25
100
AcDbLine
 10
873.7128208011
 20
795.6421702127
 30
0.0
 11
873.1715708011
 21
796.1834202127
 31
0.0
  0
LINE
  5
23E
330
1F
100
AcDbEntity
  8
0
  6
Continuous
 62
     7
370
    25
100
AcDbLine
 10
-50.1459291989
 20
796.1834202127
 30
0.0
 11
-50.6871791989
 21
795.6421702127
 31
0.0
  0
LINE
  5
23F
330
1F
100
AcDbEntity
  8
0
  6
Continuous
 62
     7
370
    25
100
AcDbLine
 10
-50.6871791989
 20
790.7246702127
 30
0.0
 11
-50.1459291989
 21
790.1834202127
 31
0.0
  0
LINE
  5
240
330
1F
100
AcDbEntity
  8
0
  6
Continuous
 62
     7
370
    25
100
AcDbLine
 10
-50.1459291989
 20
790.1834202127
 30
0.0
 11
-49.9459291989
 21
790.1834202127
 31
0.0
  0
LINE
  5
241
330
1F
100
AcDbEntity
  8
0
  6
Continuous
 62
     7
370
    25
100
AcDbLine
 10
-49.9459291989
 20
796.1834202127
 30
0.0
 11
-50.1459291989
 21
796.1834202127
 31
0.0
  0
LINE
  5
242
330
1F
100
AcDbEntity
  8
0
  6
Continuous
 62
     7
370
    25
100
AcDbLine
 10
-35.8166622947
 20
787.6127387506
 30
0.0
 11
-35.4871791989
 21
788.1834202127
 31
0.0
  0
LINE
  5
243
330
1F
100
AcDbEntity
  8
0
  6
Continuous
 62
     7
370
    25
100
AcDbLine
 10
-48.9871791989
 20
816.3834202127
 30
0.0
 11
-42.9871791989
 21
816.3834202127
 31
0.0
  0
LINE
  5
244
330
1F
100
AcDbEntity
  8
0
  6
Continuous
 62
     7
370
    25
100
AcDbLine
 10
-42.9871791989
 20
816.3834202127
 30
0.0
 11
-40.0477915076
 21
816.3834202127
 31
0.0
  0
LINE
  5
245
330
1F
100
AcDbEntity
  8
0
  6
Continuous
 62
     7
370
    25
100
AcDbLine
 10
863.0734331097
 20
816.3834202127
 30
0.0
 11
866.0128208011
 21
816.3834202127
 31
0.0
  0
LINE
  5
246
330
1F
100
AcDbEntity
  8
0
  6
Continuous
 62
     7
370
    25
100
AcDbLine
 10
866.0128208011
 20
816.3834202127
 30
0.0
 11
872.0128208011
 21
816.3834202127
 31
0.0
  0
ARC
  5
247
330
1F
100
AcDbEntity
  8
0
  6
Continuous
 62
     7
370
    25
100
AcDbCircle
 10
-39.9871791989
 20
798.9834202128
 30
0.0
 40
0.5
100
AcDbArc
 50
0.0
 51
180.0
  0
ARC
  5
248
330
1F
100
AcDbEntity
  8
0
  6
Continuous
 62
     7
370
    25
100
AcDbCircle
 10
-39.9871791989
 20
787.3834202126
 30
0.0
 40
0.5
100
AcDbArc
 50
180.0
 51
0.0
  0
LINE
  5
249
330
1F
100
AcDbEntity
  8
0
  6
Continuous
 62
     7
370
    25
100
AcDbLine
 10
-49.9459291989
 20
796.1834202127
 30
0.0
 11
-50.4871791989
 21
795.6421702127
 31
0.0
  0
LINE
  5
24A
330
1F
100
AcDbEntity
  8
0
  6
Continuous
 62
     7
370
    25
100
AcDbLine
 10
-50.4871791989
 20
790.7246702127
 30
0.0
 11
-49.9459291989
 21
790.1834202127
 31
0.0
  0
LINE
  5
24B
330
1F
100
AcDbEntity
  8
0
  6
Continuous
 62
     7
370
    25
100
AcDbLine
 10
-49.9459291989
 20
790.1834202127
 30
0.0
 11
-42.4871791989
 21
790.1834202127
 31
0.0
  0
LINE
  5
24C
330
1F
100
AcDbEntity
  8
0
  6
Continuous
 62
     7
370
    25
100
AcDbLine
 10
-42.4871791989
 20
796.1834202127
 30
0.0
 11
-49.9459291989
 21
796.1834202127
 31
0.0
  0
LINE
  5
24D
330
1F
100
AcDbEntity
  8
0
  6
Continuous
 62
     7
370
    25
100
AcDbLine
 10
-54.9871791989
 20
818.7834202127
 30
0.0
 11
-42.9871791989
 21
818.7834202127
 31
0.0
  0
LINE
  5
24E
330
1F
100
AcDbEntity
  8
0
  6
Continuous
 62
     7
370
    25
100
AcDbLine
 10
-84.5164685208
 20
811.7834202127
 30
0.0
 11
-60.9871791989
 21
811.7834202127
 31
0.0
  0
LINE
  5
24F
330
1F
100
AcDbEntity
  8
0
  6
Continuous
 62
     7
370
    25
100
AcDbLine
 10
-84.5164685208
 20
821.3834202127
 30
0.0
 11
-84.5164685208
 21
811.7834202127
 31
0.0
  0
LINE
  5
250
330
1F
100
AcDbEntity
  8
0
  6
Continuous
 62
     7
370
    25
100
AcDbLine
 10
907.5421101229
 20
821.3834202127
 30
0.0
 11
907.5421101229
 21
811.7834202127
 31
0.0
  0
LINE
  5
251
330
1F
100
AcDbEntity
  8
0
  6
Continuous
 62
     7
370
    25
100
AcDbLine
 10
884.0128208011
 20
811.7834202127
 30
0.0
 11
907.5421101229
 21
811.7834202127
 31
0.0
  0
ARC
  5
252
330
1F
100
AcDbEntity
  8
0
  6
Continuous
 62
     7
370
    25
100
AcDbCircle
 10
884.0128208011
 20
814.7834202127
 30
0.0
 40
3.0
100
AcDbArc
 50
180.0
 51
270.0
  0
LINE
  5
253
330
1F
100
AcDbEntity
  8
0
  6
Continuous
 62
     7
370
    25
100
AcDbLine
 10
881.0128208011
 20
814.7834202127
 30
0.0
 11
881.0128208011
 21
815.7834202127
 31
0.0
  0
ARC
  5
254
330
1F
100
AcDbEntity
  8
0
  6
Continuous
 62
     7
370
    25
100
AcDbCircle
 10
878.0128208011
 20
815.7834202127
 30
0.0
 40
3.0
100
AcDbArc
 50
0.0
 51
90.0
  0
LINE
  5
255
330
1F
100
AcDbEntity
  8
0
  6
Continuous
 62
     7
370
    25
100
AcDbLine
 10
878.0128208011
 20
818.7834202127
 30
0.0
 11
866.0128208011
 21
818.7834202127
 31
0.0
  0
ARC
  5
256
330
1F
100
AcDbEntity
  8
0
  6
Continuous
 62
     7
370
    25
100
AcDbCircle
 10
866.0128208011
 20
815.7834202127
 30
0.0
 40
3.0
100
AcDbArc
 50
90.0
 51
180.0
  0
LINE
  5
257
330
1F
100
AcDbEntity
  8
0
  6
Continuous
 62
     7
370
    25
100
AcDbLine
 10
863.0128208011
 20
814.7834202127
 30
0.0
 11
863.0128208011
 21
815.7834202127
 31
0.0
  0
ARC
  5
258
330
1F
100
AcDbEntity
  8
0
  6
Continuous
 62
     7
370
    25
100
AcDbCircle
 10
860.0128208011
 20
814.7834202127
 30
0.0
 40
3.0
100
AcDbArc
 50
270.0
 51
0.0
  0
LINE
  5
259
330
1F
100
AcDbEntity
  8
0
  6
Continuous
 62
     7
370
    25
100
AcDbLine
 10
-36.9871791989
 20
811.7834202127
 30
0.0
 11
860.0128208011
 21
811.7834202127
 31
0.0
  0
LINE
  5
25A
330
1F
100
AcDbEntity
  8
0
  6
Continuous
 62
     7
370
    25
100
AcDbLine
 10
-57.9871791989
 20
814.7834202127
 30
0.0
 11
-57.9871791989
 21
815.7834202127
 31
0.0
  0
ARC
  5
25B
330
1F
100
AcDbEntity
  8
0
  6
Continuous
 62
     7
370
    25
100
AcDbCircle
 10
-54.9871791989
 20
815.7834202127
 30
0.0
 40
3.0
100
AcDbArc
 50
90.0
 51
180.0
  0
LINE
  5
25C
330
1F
100
AcDbEntity
  8
0
  6
Continuous
 62
     7
370
    25
100
AcDbLine
 10
-39.9871791989
 20
814.7834202127
 30
0.0
 11
-39.9871791989
 21
815.7834202127
 31
0.0
  0
ARC
  5
25D
330
1F
100
AcDbEntity
  8
0
  6
Continuous
 62
     7
370
    25
100
AcDbCircle
 10
-42.9871791989
 20
815.7834202127
 30
0.0
 40
3.0
100
AcDbArc
 50
0.0
 51
90.0
  0
ARC
  5
25E
330
1F
100
AcDbEntity
  8
0
  6
Continuous
 62
     7
370
    25
100
AcDbCircle
 10
-60.9871791989
 20
814.7834202127
 30
0.0
 40
3.0
100
AcDbArc
 50
270.0
 51
0.0
  0
ARC
  5
25F
330
1F
100
AcDbEntity
  8
0
  6
Continuous
 62
     7
370
    25
100
AcDbCircle
 10
-36.9871791989
 20
814.7834202127
 30
0.0
 40
3.0
100
AcDbArc
 50
180.0
 51
270.0
  0
SPLINE
  5
260
330
1F
100
AcDbEntity
  8
0
  6
Continuous
 62
     7
370
    25
100
AcDbSpline
210
0.0
220
0.0
230
1.0
 70
     8
 71
     3
 72
    20
 73
    16
 74
     0
 42
0.000000001
 43
0.00000001
 40
0.0
 40
0.0
 40
0.0
 40
0.0
 40
0.125000000000002
 40
0.125000000000002
 40
0.250000000000004
 40
0.250000000000004
 40
0.375000000000006
 40
0.375000000000006
 40
0.500000000000008
 40
0.500000000000008
 40
0.750000000000012
 40
0.750000000000012
 40
0.875000000000006
 40
0.875000000000006
 40
1.0
 40
1.0
 40
1.0
 40
1.0
 10
906.6128208010614
 20
823.7834202127011
 30
0.0
 10
906.6518615319159
 20
823.7834202127011
 30
0.0
 10
906.6903802361157
 20
823.7678836522263
 30
0.0
 10
906.7677869874235
 20
823.7065653002657
 30
0.0
 10
906.8069314054104
 20
823.660141554679
 30
0.0
 10
906.8840821593255
 20
823.5401906845248
 30
0.0
 10
906.9224097410666
 20
823.4665860402413
 30
0.0
 10
906.9999560615431
 20
823.2918556741456
 30
0.0
 10
907.0389322692117
 20
823.1910050452442
 30
0.0
 10
907.1544271256564
 20
822.8597197652601
 30
0.0
 10
907.2323395693269
 20
822.5920396038764
 30
0.0
 10
907.3478194947279
 20
822.1593655778208
 30
0.0
 10
907.3866852905927
 20
822.0078474909698
 30
0.0
 10
907.4644596242612
 20
821.6984217335837
 30
0.0
 10
907.5030693912161
 20
821.5417994038899
 30
0.0
 10
907.5421101229427
 20
821.383420212701
 30
0.0
  0
LINE
  5
261
330
1F
100
AcDbEntity
  8
0
  6
Continuous
 62
     7
370
    25
100
AcDbLine
 10
-83.5871791989
 20
823.7834202127
 30
0.0
 11
906.6128208011
 21
823.7834202127
 31
0.0
  0
SPLINE
  5
262
330
1F
100
AcDbEntity
  8
0
  6
Continuous
 62
     7
370
    25
100
AcDbSpline
210
0.0
220
0.0
230
1.0
 70
     8
 71
     3
 72
    20
 73
    16
 74
     0
 42
0.000000001
 43
0.00000001
 40
0.0
 40
0.0
 40
0.0
 40
0.0
 40
0.125
 40
0.125
 40
0.2499999999999999
 40
0.2499999999999999
 40
0.3749999999999999
 40
0.3749999999999999
 40
0.5
 40
0.5
 40
0.75
 40
0.75
 40
0.875
 40
0.875
 40
1.0
 40
1.0
 40
1.0
 40
1.0
 10
-84.51646852081984
 20
821.3834202127013
 30
0.0
 10
-84.4774277899653
 20
821.5417994003519
 30
0.0
 10
-84.43890908576552
 20
821.6980451250437
 30
0.0
 10
-84.36150233445755
 20
822.0060369744601
 30
0.0
 10
-84.32235791647096
 20
822.1586810819314
 30
0.0
 10
-84.24520716255584
 20
822.4477653711184
 30
0.0
 10
-84.20687958081457
 20
822.5855699093024
 30
0.0
 10
-84.12933326033806
 20
822.8471885849414
 30
0.0
 10
-84.09035705266949
 20
822.969934891624
 30
0.0
 10
-83.97486219622475
 20
823.3012592685717
 30
0.0
 10
-83.89694975255446
 20
823.4802703925999
 30
0.0
 10
-83.78146982715361
 20
823.6598854919806
 30
0.0
 10
-83.74260403128858
 20
823.7061298408485
 30
0.0
 10
-83.66482969761996
 20
823.7678831468596
 30
0.0
 10
-83.62621993066527
 20
823.7834202127011
 30
0.0
 10
-83.5871791989386
 20
823.7834202127011
 30
0.0
  0
LINE
  5
263
330
1F
100
AcDbEntity
  8
0
  6
Continuous
 62
     7
370
    25
100
AcDbLine
 10
909.0128208011
 20
821.3834202127
 30
0.0
 11
907.6128208011
 21
821.3834202127
 31
0.0
  0
SPLINE
  5
264
330
1F
100
AcDbEntity
  8
0
  6
Continuous
 62
     7
370
    25
100
AcDbSpline
210
0.0
220
0.0
230
1.0
 70
     8
 71
     3
 72
     9
 73
     5
 74
     0
 42
0.000000001
 43
0.00000001
 40
0.0
 40
0.0
 40
0.0
 40
0.0
 40
0.678450800572273
 40
1.0
 40
1.0
 40
1.0
 40
1.0
 10
907.6128208010614
 20
821.3834202127011
 30
0.0
 10
907.5995712305971
 20
821.5341274171544
 30
0.0
 10
907.5800420761568
 20
821.7562617330491
 30
0.0
 10
907.4391944225177
 20
821.9230948379384
 30
0.0
 10
907.3939049722488
 20
821.9767398892536
 30
0.0
  0
SPLINE
  5
265
330
1F
100
AcDbEntity
  8
0
  6
Continuous
 62
     7
370
    25
100
AcDbSpline
210
0.0
220
0.0
230
1.0
 70
     8
 71
     3
 72
    20
 73
    16
 74
     0
 42
0.000000001
 43
0.00000001
 40
0.0
 40
0.0
 40
0.0
 40
0.0
 40
0.1250000000000111
 40
0.1250000000000111
 40
0.2500000000000223
 40
0.2500000000000223
 40
0.3750000000000336
 40
0.3750000000000336
 40
0.5000000000000449
 40
0.5000000000000449
 40
0.7500000000000275
 40
0.7500000000000275
 40
0.8750000000000138
 40
0.8750000000000138
 40
1.0
 40
1.0
 40
1.0
 40
1.0
 10
909.0128208010615
 20
821.3834202127011
 30
0.0
 10
909.0128208010615
 20
821.5417994003519
 30
0.0
 10
908.9972842405866
 20
821.6980451250436
 30
0.0
 10
908.935965888626
 20
822.0060369744601
 30
0.0
 10
908.8895421430394
 20
822.1586810819313
 30
0.0
 10
908.7695912728852
 20
822.4477653711184
 30
0.0
 10
908.6959866286018
 20
822.5855699093024
 30
0.0
 10
908.521256262506
 20
822.8471885849414
 30
0.0
 10
908.4204056336044
 20
822.969934891624
 30
0.0
 10
908.0891203536205
 20
823.3012592685717
 30
0.0
 10
907.8214401922367
 20
823.4802703925999
 30
0.0
 10
907.3887661661812
 20
823.6598854919807
 30
0.0
 10
907.23724807933
 20
823.7061298408485
 30
0.0
 10
906.927822321944
 20
823.7678831468596
 30
0.0
 10
906.7711999922503
 20
823.7834202127011
 30
0.0
 10
906.6128208010614
 20
823.7834202127011
 30
0.0
  0
SPLINE
  5
266
330
1F
100
AcDbEntity
  8
0
  6
Continuous
 62
     7
370
    25
100
AcDbSpline
210
0.0
220
0.0
230
1.0
 70
     8
 71
     3
 72
    20
 73
    16
 74
     0
 42
0.000000001
 43
0.00000001
 40
0.0
 40
0.0
 40
0.0
 40
0.0
 40
0.1250000000000046
 40
0.1250000000000046
 40
0.2500000000000092
 40
0.2500000000000092
 40
0.3750000000000138
 40
0.3750000000000138
 40
0.5000000000000183
 40
0.5000000000000183
 40
0.750000000000017
 40
0.750000000000017
 40
0.8750000000000084
 40
0.8750000000000084
 40
1.0
 40
1.0
 40
1.0
 40
1.0
 10
-83.58717919893854
 20
823.7834202127011
 30
0.0
 10
-83.74555838658925
 20
823.7834202127011
 30
0.0
 10
-83.9018041112809
 20
823.7678836522263
 30
0.0
 10
-84.20979596069766
 20
823.7065653002657
 30
0.0
 10
-84.36244006816878
 20
823.6601415546788
 30
0.0
 10
-84.65152435735584
 20
823.5401906845248
 30
0.0
 10
-84.7893288955397
 20
823.4665860402413
 30
0.0
 10
-85.05094757117887
 20
823.2918556741456
 30
0.0
 10
-85.17369387786155
 20
823.1910050452441
 30
0.0
 10
-85.50501825480916
 20
822.8597197652601
 30
0.0
 10
-85.6840293788373
 20
822.5920396038763
 30
0.0
 10
-85.86364447821798
 20
822.1593655778208
 30
0.0
 10
-85.90988882708595
 20
822.0078474909698
 30
0.0
 10
-85.97164213309732
 20
821.6984217335837
 30
0.0
 10
-85.9871791989386
 20
821.5417994038899
 30
0.0
 10
-85.98717919893856
 20
821.3834202127011
 30
0.0
  0
SPLINE
  5
267
330
1F
100
AcDbEntity
  8
0
  6
Continuous
 62
     7
370
    25
100
AcDbSpline
210
0.0
220
0.0
230
1.0
 70
     8
 71
     3
 72
     9
 73
     5
 74
     0
 42
0.000000001
 43
0.00000001
 40
0.0
 40
0.0
 40
0.0
 40
0.0
 40
0.4825784287294124
 40
1.0
 40
1.0
 40
1.0
 40
1.0
 10
-84.36334943088475
 20
821.9959599518794
 30
0.0
 10
-84.42715762394626
 20
821.907825610563
 30
0.0
 10
-84.55938109118566
 20
821.7251934495099
 30
0.0
 10
-84.57770039564211
 20
821.4999605654652
 30
0.0
 10
-84.58717919893854
 20
821.3834202127011
 30
0.0
  0
LINE
  5
268
330
1F
100
AcDbEntity
  8
0
  6
Continuous
 62
     7
370
    25
100
AcDbLine
 10
-85.9871791989
 20
821.3834202127
 30
0.0
 11
-84.5871791989
 21
821.3834202127
 31
0.0
  0
LINE
  5
269
330
1F
100
AcDbEntity
  8
0
  6
Continuous
 62
     7
370
    25
100
AcDbLine
 10
909.0128208011
 20
821.3834202127
 30
0.0
 11
909.0128208011
 21
811.7834202127
 31
0.0
  0
LINE
  5
26A
330
1F
100
AcDbEntity
  8
0
  6
Continuous
 62
     7
370
    25
100
AcDbLine
 10
909.0128208011
 20
811.7834202127
 30
0.0
 11
907.6128208011
 21
811.7834202127
 31
0.0
  0
LINE
  5
26B
330
1F
100
AcDbEntity
  8
0
  6
Continuous
 62
     7
370
    25
100
AcDbLine
 10
907.6128208011
 20
821.3834202127
 30
0.0
 11
907.6128208011
 21
811.7834202127
 31
0.0
  0
LINE
  5
26C
330
1F
100
AcDbEntity
  8
0
  6
Continuous
 62
     7
370
    25
100
AcDbLine
 10
-84.5871791989
 20
821.3834202127
 30
0.0
 11
-84.5871791989
 21
811.7834202127
 31
0.0
  0
LINE
  5
26D
330
1F
100
AcDbEntity
  8
0
  6
Continuous
 62
     7
370
    25
100
AcDbLine
 10
-85.9871791989
 20
811.7834202127
 30
0.0
 11
-84.5871791989
 21
811.7834202127
 31
0.0
  0
LINE
  5
26E
330
1F
100
AcDbEntity
  8
0
  6
Continuous
 62
     7
370
    25
100
AcDbLine
 10
-85.9871791989
 20
821.3834202127
 30
0.0
 11
-85.9871791989
 21
811.7834202127
 31
0.0
  0
LINE
  5
26F
330
1F
100
AcDbEntity
  8
0
  6
Continuous
 62
     7
370
    25
100
AcDbLine
 10
850.1443680867
 20
807.2834202127
 30
0.0
 11
850.2007100485
 21
807.2834202127
 31
0.0
  0
LINE
  5
270
330
1F
100
AcDbEntity
  8
0
  6
Continuous
 62
     7
370
    25
100
AcDbLine
 10
850.7007100485
 20
806.7834202127
 30
0.0
 11
850.6443680867
 21
806.7834202127
 31
0.0
  0
LINE
  5
271
330
1F
100
AcDbEntity
  8
0
  6
Continuous
 62
     7
370
    25
100
AcDbLine
 10
850.2007100485
 20
807.2834202127
 30
0.0
 11
850.2996357071
 21
807.2834202127
 31
0.0
  0
LINE
  5
272
330
1F
100
AcDbEntity
  8
0
  6
Continuous
 62
     7
370
    25
100
AcDbLine
 10
850.7996357071
 20
806.7834202127
 30
0.0
 11
850.7007100485
 21
806.7834202127
 31
0.0
  0
LINE
  5
273
330
1F
100
AcDbEntity
  8
0
  6
Continuous
 62
     7
370
    25
100
AcDbLine
 10
-32.2124210733
 20
806.7834202127
 30
0.0
 11
-32.3788389374
 21
806.7834202127
 31
0.0
  0
LINE
  5
274
330
1F
100
AcDbEntity
  8
0
  6
Continuous
 62
     7
370
    25
100
AcDbLine
 10
-32.8788389374
 20
807.2834202127
 30
0.0
 11
-32.7124210733
 21
807.2834202127
 31
0.0
  0
LINE
  5
275
330
1F
100
AcDbEntity
  8
0
  6
Continuous
 62
     7
370
    25
100
AcDbLine
 10
-32.1385604637
 20
807.2834202127
 30
0.0
 11
-28.7703279555
 21
807.2834202127
 31
0.0
  0
LINE
  5
276
330
1F
100
AcDbEntity
  8
0
  6
Continuous
 62
     7
370
    25
100
AcDbLine
 10
-29.1329488927
 20
806.7834202127
 30
0.0
 11
-31.6591232738
 21
806.7834202127
 31
0.0
  0
LINE
  5
277
330
1F
100
AcDbEntity
  8
0
  6
Continuous
 62
     7
370
    25
100
AcDbLine
 10
-28.7703279555
 20
807.2834202127
 30
0.0
 11
-27.5778210704
 21
807.2834202127
 31
0.0
  0
LINE
  5
278
330
1F
100
AcDbEntity
  8
0
  6
Continuous
 62
     7
370
    25
100
AcDbLine
 10
-27.9404420076
 20
806.7834202127
 30
0.0
 11
-29.1329488927
 21
806.7834202127
 31
0.0
  0
LINE
  5
279
330
1F
100
AcDbEntity
  8
0
  6
Continuous
 62
     7
370
    25
100
AcDbLine
 10
-32.6301698328
 20
807.2834202127
 30
0.0
 11
-32.1385604637
 21
807.2834202127
 31
0.0
  0
LINE
  5
27A
330
1F
100
AcDbEntity
  8
0
  6
Continuous
 62
     7
370
    25
100
AcDbLine
 10
-31.6591232738
 20
806.7834202127
 30
0.0
 11
-32.1507326429
 21
806.7834202127
 31
0.0
  0
LINE
  5
27B
330
1F
100
AcDbEntity
  8
0
  6
Continuous
 62
     7
370
    25
100
AcDbLine
 10
-27.5778210704
 20
807.2834202127
 30
0.0
 11
-27.0283048192
 21
807.2834202127
 31
0.0
  0
LINE
  5
27C
330
1F
100
AcDbEntity
  8
0
  6
Continuous
 62
     7
370
    25
100
AcDbLine
 10
-27.5283048192
 20
806.7834202127
 30
0.0
 11
-27.9404420076
 21
806.7834202127
 31
0.0
  0
LINE
  5
27D
330
1F
100
AcDbEntity
  8
0
  6
Continuous
 62
     7
370
    25
100
AcDbLine
 10
-32.7124210733
 20
807.2834202127
 30
0.0
 11
-32.6301698328
 21
807.2834202127
 31
0.0
  0
LINE
  5
27E
330
1F
100
AcDbEntity
  8
0
  6
Continuous
 62
     7
370
    25
100
AcDbLine
 10
-32.1507326429
 20
806.7834202127
 30
0.0
 11
-32.2124210733
 21
806.7834202127
 31
0.0
  0
LINE
  5
27F
330
1F
100
AcDbEntity
  8
0
  6
Continuous
 62
     7
370
    25
100
AcDbLine
 10
852.6753411152
 20
806.7834202127
 30
0.0
 11
850.7996357071
 21
806.7834202127
 31
0.0
  0
LINE
  5
280
330
1F
100
AcDbEntity
  8
0
  6
Continuous
 62
     7
370
    25
100
AcDbLine
 10
850.2996357071
 20
807.2834202127
 30
0.0
 11
852.8005762512
 21
807.2834202127
 31
0.0
  0
LINE
  5
281
330
1F
100
AcDbEntity
  8
0
  6
Continuous
 62
     7
370
    25
100
AcDbLine
 10
852.8005762512
 20
807.2834202127
 30
0.0
 11
854.4774167112
 21
807.2834202127
 31
0.0
  0
LINE
  5
282
330
1F
100
AcDbEntity
  8
0
  6
Continuous
 62
     7
370
    25
100
AcDbLine
 10
854.3521815752
 20
806.7834202127
 30
0.0
 11
852.6753411152
 21
806.7834202127
 31
0.0
  0
LINE
  5
283
330
1F
100
AcDbEntity
  8
0
  6
Continuous
 62
     7
370
    25
100
AcDbLine
 10
854.4774167112
 20
807.2834202127
 30
0.0
 11
855.9764761671
 21
807.2834202127
 31
0.0
  0
LINE
  5
284
330
1F
100
AcDbEntity
  8
0
  6
Continuous
 62
     7
370
    25
100
AcDbLine
 10
855.4764761671
 20
806.7834202127
 30
0.0
 11
854.3521815752
 21
806.7834202127
 31
0.0
  0
LINE
  5
285
330
1F
100
AcDbEntity
  8
0
  6
Continuous
 62
     7
370
    25
100
AcDbLine
 10
861.5128208011
 20
803.6834202127
 30
0.0
 11
862.7128208011
 21
803.6834202127
 31
0.0
  0
LINE
  5
286
330
1F
100
AcDbEntity
  8
0
  6
Continuous
 62
     7
370
    25
100
AcDbLine
 10
862.7128208011
 20
784.6834202127
 30
0.0
 11
859.5128208011
 21
784.6834202127
 31
0.0
  0
LINE
  5
287
330
1F
100
AcDbEntity
  8
0
  6
Continuous
 62
     7
370
    25
100
AcDbLine
 10
859.5128208011
 20
784.6834202127
 30
0.0
 11
859.5128208011
 21
763.6834202127
 31
0.0
  0
ARC
  5
288
330
1F
100
AcDbEntity
  8
0
  6
Continuous
 62
     7
370
    25
100
AcDbCircle
 10
812.5128208011
 20
763.6834202127
 30
0.0
 40
3.0
100
AcDbArc
 50
180.0
 51
270.0
  0
LINE
  5
289
330
1F
100
AcDbEntity
  8
0
  6
Continuous
 62
     7
370
    25
100
AcDbLine
 10
809.5128208011
 20
779.8134202127
 30
0.0
 11
807.0128208011
 21
779.8134202127
 31
0.0
  0
LINE
  5
28A
330
1F
100
AcDbEntity
  8
0
  6
Continuous
 62
     7
370
    25
100
AcDbLine
 10
807.0128208011
 20
779.3213694051
 30
0.0
 11
807.0128208011
 21
779.8134202127
 31
0.0
  0
LINE
  5
28B
330
1F
100
AcDbEntity
  8
0
  6
Continuous
 62
     7
370
    25
100
AcDbLine
 10
607.0128208011
 20
779.3213694051
 30
0.0
 11
607.0128208011
 21
779.8134202127
 31
0.0
  0
LINE
  5
28C
330
1F
100
AcDbEntity
  8
0
  6
Continuous
 62
     7
370
    25
100
AcDbLine
 10
607.0128208011
 20
779.8134202127
 30
0.0
 11
604.5128208011
 21
779.8134202127
 31
0.0
  0
LINE
  5
28D
330
1F
100
AcDbEntity
  8
0
  6
Continuous
 62
     7
370
    25
100
AcDbLine
 10
514.0128208011
 20
779.8134202127
 30
0.0
 11
511.5128208011
 21
779.8134202127
 31
0.0
  0
LINE
  5
28E
330
1F
100
AcDbEntity
  8
0
  6
Continuous
 62
     7
370
    25
100
AcDbLine
 10
511.5128208011
 20
779.3213694051
 30
0.0
 11
511.5128208011
 21
779.8134202127
 31
0.0
  0
LINE
  5
28F
330
1F
100
AcDbEntity
  8
0
  6
Continuous
 62
     7
370
    25
100
AcDbLine
 10
311.5128208011
 20
779.3213694051
 30
0.0
 11
311.5128208011
 21
779.8134202127
 31
0.0
  0
LINE
  5
290
330
1F
100
AcDbEntity
  8
0
  6
Continuous
 62
     7
370
    25
100
AcDbLine
 10
311.5128208011
 20
779.8134202127
 30
0.0
 11
309.0128208011
 21
779.8134202127
 31
0.0
  0
ARC
  5
291
330
1F
100
AcDbEntity
  8
0
  6
Continuous
 62
     7
370
    25
100
AcDbCircle
 10
306.0128208011
 20
763.6834202127
 30
0.0
 40
3.0
100
AcDbArc
 50
270.0
 51
0.0
  0
ARC
  5
292
330
1F
100
AcDbEntity
  8
0
  6
Continuous
 62
     7
370
    25
100
AcDbCircle
 10
221.5128208011
 20
763.6834202127
 30
0.0
 40
3.000000000000028
100
AcDbArc
 50
180.0
 51
270.0
  0
LINE
  5
293
330
1F
100
AcDbEntity
  8
0
  6
Continuous
 62
     7
370
    25
100
AcDbLine
 10
218.5128208011
 20
779.8134202127
 30
0.0
 11
216.0128208011
 21
779.8134202127
 31
0.0
  0
LINE
  5
294
330
1F
100
AcDbEntity
  8
0
  6
Continuous
 62
     7
370
    25
100
AcDbLine
 10
216.0128208011
 20
779.3213694051
 30
0.0
 11
216.0128208011
 21
779.8134202127
 31
0.0
  0
LINE
  5
295
330
1F
100
AcDbEntity
  8
0
  6
Continuous
 62
     7
370
    25
100
AcDbLine
 10
16.0128208011
 20
779.3213694051
 30
0.0
 11
16.0128208011
 21
779.8134202127
 31
0.0
  0
LINE
  5
296
330
1F
100
AcDbEntity
  8
0
  6
Continuous
 62
     7
370
    25
100
AcDbLine
 10
16.0128208011
 20
779.8134202127
 30
0.0
 11
13.5128208011
 21
779.8134202127
 31
0.0
  0
LINE
  5
297
330
1F
100
AcDbEntity
  8
0
  6
Continuous
 62
     7
370
    25
100
AcDbLine
 10
13.5128208011
 20
779.8134202127
 30
0.0
 11
13.5128208011
 21
763.6834202127
 31
0.0
  0
LINE
  5
298
330
1F
100
AcDbEntity
  8
0
  6
Continuous
 62
     7
370
    25
100
AcDbLine
 10
10.5128208011
 20
760.6834202127
 30
0.0
 11
-33.4871791989
 21
760.6834202127
 31
0.0
  0
LINE
  5
299
330
1F
100
AcDbEntity
  8
0
  6
Continuous
 62
     7
370
    25
100
AcDbLine
 10
-36.4871791989
 20
784.6834202127
 30
0.0
 11
-39.6871791989
 21
784.6834202127
 31
0.0
  0
LINE
  5
29A
330
1F
100
AcDbEntity
  8
0
  6
Continuous
 62
     7
370
    25
100
AcDbLine
 10
-39.6871791989
 20
803.6834202127
 30
0.0
 11
-38.4871791989
 21
803.6834202127
 31
0.0
  0
LINE
  5
29B
330
1F
100
AcDbEntity
  8
0
  6
Continuous
 62
     7
370
    25
100
AcDbLine
 10
-38.4871791989
 20
803.6834202127
 30
0.0
 11
-38.4871791989
 21
803.8834202127
 31
0.0
  0
LINE
  5
29C
330
1F
100
AcDbEntity
  8
0
  6
Continuous
 62
     7
370
    25
100
AcDbLine
 10
861.5128208011
 20
803.8834202127
 30
0.0
 11
861.5128208011
 21
803.6834202127
 31
0.0
  0
ARC
  5
29D
330
1F
100
AcDbEntity
  8
0
  6
Continuous
 62
     7
370
    25
100
AcDbCircle
 10
-33.4871791989
 20
763.6834202127
 30
0.0
 40
3.000000000000007
100
AcDbArc
 50
180.0
 51
270.0
  0
ARC
  5
29E
330
1F
100
AcDbEntity
  8
0
  6
Continuous
 62
     7
370
    25
100
AcDbCircle
 10
10.5128208011
 20
763.6834202127
 30
0.0
 40
3.000000000000002
100
AcDbArc
 50
270.0
 51
0.0
  0
LINE
  5
29F
330
1F
100
AcDbEntity
  8
0
  6
Continuous
 62
     7
370
    25
100
AcDbLine
 10
514.0128208011
 20
763.6834202127
 30
0.0
 11
514.0128208011
 21
779.8134202127
 31
0.0
  0
LINE
  5
2A0
330
1F
100
AcDbEntity
  8
0
  6
Continuous
 62
     7
370
    25
100
AcDbLine
 10
856.5128208011
 20
760.6834202127
 30
0.0
 11
812.5128208011
 21
760.6834202127
 31
0.0
  0
LINE
  5
2A1
330
1F
100
AcDbEntity
  8
0
  6
Continuous
 62
     7
370
    25
100
AcDbLine
 10
-36.4871791989
 20
763.6834202127
 30
0.0
 11
-36.4871791989
 21
784.6834202127
 31
0.0
  0
LINE
  5
2A2
330
1F
100
AcDbEntity
  8
0
  6
Continuous
 62
     7
370
    25
100
AcDbLine
 10
809.5128208011
 20
763.6834202127
 30
0.0
 11
809.5128208011
 21
779.8134202127
 31
0.0
  0
ARC
  5
2A3
330
1F
100
AcDbEntity
  8
0
  6
Continuous
 62
     7
370
    25
100
AcDbCircle
 10
601.5128208011
 20
763.6834202127
 30
0.0
 40
3.0
100
AcDbArc
 50
270.0
 51
0.0
  0
ARC
  5
2A4
330
1F
100
AcDbEntity
  8
0
  6
Continuous
 62
     7
370
    25
100
AcDbCircle
 10
517.0128208011
 20
763.6834202127
 30
0.0
 40
3.0
100
AcDbArc
 50
180.0
 51
270.0
  0
ARC
  5
2A5
330
1F
100
AcDbEntity
  8
0
  6
Continuous
 62
     7
370
    25
100
AcDbCircle
 10
856.5128208011
 20
763.6834202127
 30
0.0
 40
3.000000000000114
100
AcDbArc
 50
270.0
 51
0.0
  0
LINE
  5
2A6
330
1F
100
AcDbEntity
  8
0
  6
Continuous
 62
     7
370
    25
100
AcDbLine
 10
218.5128208011
 20
763.6834202127
 30
0.0
 11
218.5128208011
 21
779.8134202127
 31
0.0
  0
LINE
  5
2A7
330
1F
100
AcDbEntity
  8
0
  6
Continuous
 62
     7
370
    25
100
AcDbLine
 10
309.0128208011
 20
779.8134202127
 30
0.0
 11
309.0128208011
 21
763.6834202127
 31
0.0
  0
LINE
  5
2A8
330
1F
100
AcDbEntity
  8
0
  6
Continuous
 62
     7
370
    25
100
AcDbLine
 10
306.0128208011
 20
760.6834202127
 30
0.0
 11
221.5128208011
 21
760.6834202127
 31
0.0
  0
LINE
  5
2A9
330
1F
100
AcDbEntity
  8
0
  6
Continuous
 62
     7
370
    25
100
AcDbLine
 10
604.5128208011
 20
779.8134202127
 30
0.0
 11
604.5128208011
 21
763.6834202127
 31
0.0
  0
LINE
  5
2AA
330
1F
100
AcDbEntity
  8
0
  6
Continuous
 62
     7
370
    25
100
AcDbLine
 10
601.5128208011
 20
760.6834202127
 30
0.0
 11
517.0128208011
 21
760.6834202127
 31
0.0
  0
LINE
  5
2AB
330
1F
100
AcDbEntity
  8
0
  6
Continuous
 62
     7
370
    25
100
AcDbLine
 10
807.0128208011
 20
779.3213694051
 30
0.0
 11
807.0128208011
 21
778.4213694051
 31
0.0
  0
LINE
  5
2AC
330
1F
100
AcDbEntity
  8
0
  6
Continuous
 62
     7
370
    25
100
AcDbLine
 10
607.0128208011
 20
778.4213694051
 30
0.0
 11
607.0128208011
 21
779.3213694051
 31
0.0
  0
LINE
  5
2AD
330
1F
100
AcDbEntity
  8
0
  6
Continuous
 62
     7
370
    25
100
AcDbLine
 10
16.0128208011
 20
778.4213694051
 30
0.0
 11
16.0128208011
 21
779.3213694051
 31
0.0
  0
LINE
  5
2AE
330
1F
100
AcDbEntity
  8
0
  6
Continuous
 62
     7
370
    25
100
AcDbLine
 10
216.0128208011
 20
779.3213694051
 30
0.0
 11
216.0128208011
 21
778.4213694051
 31
0.0
  0
LINE
  5
2AF
330
1F
100
AcDbEntity
  8
0
  6
Continuous
 62
     7
370
    25
100
AcDbLine
 10
311.5128208011
 20
778.4213694051
 30
0.0
 11
311.5128208011
 21
779.3213694051
 31
0.0
  0
LINE
  5
2B0
330
1F
100
AcDbEntity
  8
0
  6
Continuous
 62
     7
370
    25
100
AcDbLine
 10
511.5128208011
 20
779.3213694051
 30
0.0
 11
511.5128208011
 21
778.4213694051
 31
0.0
  0
LINE
  5
2B1
330
1F
100
AcDbEntity
  8
0
  6
Continuous
 62
     7
370
    25
100
AcDbLine
 10
-39.6871791989
 20
784.6834202127
 30
0.0
 11
-41.4871791989
 21
784.6834202127
 31
0.0
  0
LINE
  5
2B2
330
1F
100
AcDbEntity
  8
0
  6
Continuous
 62
     7
370
    25
100
AcDbLine
 10
-41.4871791989
 20
784.6834202127
 30
0.0
 11
-41.4871791989
 21
785.2834202127
 31
0.0
  0
LINE
  5
2B3
330
1F
100
AcDbEntity
  8
0
  6
Continuous
 62
     7
370
    25
100
AcDbLine
 10
-40.4871791989
 20
803.6834202127
 30
0.0
 11
-39.6871791989
 21
803.6834202127
 31
0.0
  0
LINE
  5
2B4
330
1F
100
AcDbEntity
  8
0
  6
Continuous
 62
     7
370
    25
100
AcDbLine
 10
862.7128208011
 20
803.6834202127
 30
0.0
 11
863.5128208011
 21
803.6834202127
 31
0.0
  0
LINE
  5
2B5
330
1F
100
AcDbEntity
  8
0
  6
Continuous
 62
     7
370
    25
100
AcDbLine
 10
864.5128208011
 20
784.6834202127
 30
0.0
 11
864.5128208011
 21
785.2834202127
 31
0.0
  0
LINE
  5
2B6
330
1F
100
AcDbEntity
  8
0
  6
Continuous
 62
     7
370
    25
100
AcDbLine
 10
864.5128208011
 20
784.6834202127
 30
0.0
 11
862.7128208011
 21
784.6834202127
 31
0.0
  0
LINE
  5
2B7
330
1F
100
AcDbEntity
  8
0
  6
Continuous
 62
     7
370
    25
100
AcDbLine
 10
861.5128208011
 20
805.6834202127
 30
0.0
 11
861.5128208011
 21
803.8834202127
 31
0.0
  0
LINE
  5
2B8
330
1F
100
AcDbEntity
  8
0
  6
Continuous
 62
     7
370
    25
100
AcDbLine
 10
-38.4871791989
 20
803.8834202127
 30
0.0
 11
-38.4871791989
 21
805.6834202127
 31
0.0
  0
LINE
  5
2B9
330
1F
100
AcDbEntity
  8
0
  6
Continuous
 62
     7
370
    25
100
AcDbLine
 10
311.5128208011
 20
778.4213694051
 30
0.0
 11
311.5128208011
 21
771.7964982745
 31
0.0
  0
LINE
  5
2BA
330
1F
100
AcDbEntity
  8
0
  6
Continuous
 62
     7
370
    25
100
AcDbLine
 10
511.5128208011
 20
771.7964982745
 30
0.0
 11
511.5128208011
 21
778.4213694051
 31
0.0
  0
LINE
  5
2BB
330
1F
100
AcDbEntity
  8
0
  6
Continuous
 62
     7
370
    25
100
AcDbLine
 10
16.0128208011
 20
778.4213694051
 30
0.0
 11
16.0128208011
 21
771.7964982745
 31
0.0
  0
LINE
  5
2BC
330
1F
100
AcDbEntity
  8
0
  6
Continuous
 62
     7
370
    25
100
AcDbLine
 10
216.0128208011
 20
771.7964982745
 30
0.0
 11
216.0128208011
 21
778.4213694051
 31
0.0
  0
LINE
  5
2BD
330
1F
100
AcDbEntity
  8
0
  6
Continuous
 62
     7
370
    25
100
AcDbLine
 10
607.0128208011
 20
778.4213694051
 30
0.0
 11
607.0128208011
 21
771.7964982745
 31
0.0
  0
LINE
  5
2BE
330
1F
100
AcDbEntity
  8
0
  6
Continuous
 62
     7
370
    25
100
AcDbLine
 10
807.0128208011
 20
771.7964982745
 30
0.0
 11
807.0128208011
 21
778.4213694051
 31
0.0
  0
LINE
  5
2BF
330
1F
100
AcDbEntity
  8
0
  6
Continuous
 62
     7
370
    25
100
AcDbLine
 10
807.0128208011
 20
771.2964982745
 30
0.0
 11
807.0128208011
 21
771.7964982745
 31
0.0
  0
LINE
  5
2C0
330
1F
100
AcDbEntity
  8
0
  6
Continuous
 62
     7
370
    25
100
AcDbLine
 10
607.0128208011
 20
771.7964982745
 30
0.0
 11
607.0128208011
 21
771.2964982745
 31
0.0
  0
LINE
  5
2C1
330
1F
100
AcDbEntity
  8
0
  6
Continuous
 62
     7
370
    25
100
AcDbLine
 10
311.5128208011
 20
771.7964982745
 30
0.0
 11
311.5128208011
 21
771.2964982745
 31
0.0
  0
LINE
  5
2C2
330
1F
100
AcDbEntity
  8
0
  6
Continuous
 62
     7
370
    25
100
AcDbLine
 10
511.5128208011
 20
771.2964982745
 30
0.0
 11
511.5128208011
 21
771.7964982745
 31
0.0
  0
LINE
  5
2C3
330
1F
100
AcDbEntity
  8
0
  6
Continuous
 62
     7
370
    25
100
AcDbLine
 10
216.0128208011
 20
771.2964982745
 30
0.0
 11
216.0128208011
 21
771.7964982745
 31
0.0
  0
LINE
  5
2C4
330
1F
100
AcDbEntity
  8
0
  6
Continuous
 62
     7
370
    25
100
AcDbLine
 10
16.0128208011
 20
771.7964982745
 30
0.0
 11
16.0128208011
 21
771.2964982745
 31
0.0
  0
ARC
  5
2C5
330
1F
100
AcDbEntity
  8
0
  6
Continuous
 62
     7
370
    25
100
AcDbCircle
 10
314.5128208011
 20
764.7788068209
 30
0.0
 40
3.0
100
AcDbArc
 50
180.0
 51
270.0
  0
LINE
  5
2C6
330
1F
100
AcDbEntity
  8
0
  6
Continuous
 62
     7
370
    25
100
AcDbLine
 10
311.5128208011
 20
764.7788068209
 30
0.0
 11
311.5128208011
 21
771.2964982745
 31
0.0
  0
ARC
  5
2C7
330
1F
100
AcDbEntity
  8
0
  6
Continuous
 62
     7
370
    25
100
AcDbCircle
 10
508.5128208011
 20
764.7788068209
 30
0.0
 40
3.0
100
AcDbArc
 50
270.0
 51
0.0
  0
LINE
  5
2C8
330
1F
100
AcDbEntity
  8
0
  6
Continuous
 62
     7
370
    25
100
AcDbLine
 10
508.5128208011
 20
761.7788068209
 30
0.0
 11
314.5128208011
 21
761.7788068209
 31
0.0
  0
LINE
  5
2C9
330
1F
100
AcDbEntity
  8
0
  6
Continuous
 62
     7
370
    25
100
AcDbLine
 10
511.5128208011
 20
771.2964982745
 30
0.0
 11
511.5128208011
 21
764.7788068209
 31
0.0
  0
ARC
  5
2CA
330
1F
100
AcDbEntity
  8
0
  6
Continuous
 62
     7
370
    25
100
AcDbCircle
 10
610.0128208011
 20
764.7788068209
 30
0.0
 40
3.0
100
AcDbArc
 50
180.0
 51
270.0
  0
LINE
  5
2CB
330
1F
100
AcDbEntity
  8
0
  6
Continuous
 62
     7
370
    25
100
AcDbLine
 10
607.0128208011
 20
764.7788068209
 30
0.0
 11
607.0128208011
 21
771.2964982745
 31
0.0
  0
ARC
  5
2CC
330
1F
100
AcDbEntity
  8
0
  6
Continuous
 62
     7
370
    25
100
AcDbCircle
 10
804.0128208011
 20
764.7788068209
 30
0.0
 40
3.0
100
AcDbArc
 50
270.0
 51
0.0
  0
LINE
  5
2CD
330
1F
100
AcDbEntity
  8
0
  6
Continuous
 62
     7
370
    25
100
AcDbLine
 10
804.0128208011
 20
761.7788068209
 30
0.0
 11
610.0128208011
 21
761.7788068209
 31
0.0
  0
LINE
  5
2CE
330
1F
100
AcDbEntity
  8
0
  6
Continuous
 62
     7
370
    25
100
AcDbLine
 10
807.0128208011
 20
771.2964982745
 30
0.0
 11
807.0128208011
 21
764.7788068209
 31
0.0
  0
ARC
  5
2CF
330
1F
100
AcDbEntity
  8
0
  6
Continuous
 62
     7
370
    25
100
AcDbCircle
 10
213.0128208011
 20
764.7788068209
 30
0.0
 40
3.0
100
AcDbArc
 50
270.0
 51
0.0
  0
LINE
  5
2D0
330
1F
100
AcDbEntity
  8
0
  6
Continuous
 62
     7
370
    25
100
AcDbLine
 10
213.0128208011
 20
761.7788068209
 30
0.0
 11
19.0128208011
 21
761.7788068209
 31
0.0
  0
ARC
  5
2D1
330
1F
100
AcDbEntity
  8
0
  6
Continuous
 62
     7
370
    25
100
AcDbCircle
 10
19.0128208011
 20
764.7788068209
 30
0.0
 40
3.0
100
AcDbArc
 50
180.0
 51
270.0
  0
LINE
  5
2D2
330
1F
100
AcDbEntity
  8
0
  6
Continuous
 62
     7
370
    25
100
AcDbLine
 10
16.0128208011
 20
764.7788068209
 30
0.0
 11
16.0128208011
 21
771.2964982745
 31
0.0
  0
LINE
  5
2D3
330
1F
100
AcDbEntity
  8
0
  6
Continuous
 62
     7
370
    25
100
AcDbLine
 10
216.0128208011
 20
771.2964982745
 30
0.0
 11
216.0128208011
 21
764.7788068209
 31
0.0
  0
SPLINE
  5
2D4
330
1F
100
AcDbEntity
  8
0
  6
Continuous
 62
     7
370
    25
100
AcDbSpline
210
0.0
220
0.0
230
1.0
 70
    24
 71
     3
 72
    19
 73
    15
 74
     0
 42
0.000000001
 43
0.00000001
 40
0.0
 40
0.0
 40
0.0
 40
0.0
 40
0.1260638187928841
 40
0.1939261817305621
 40
0.2632286813759849
 40
0.3325311810214077
 40
0.4003935439590846
 40
0.5264573627519692
 40
0.6525211815448551
 40
0.7203835444825295
 40
0.7896860441279534
 40
0.8589885437733787
 40
0.9268509067110525
 40
1.0
 40
1.0
 40
1.0
 40
1.0
 10
862.5128208010619
 20
798.9108085680805
 30
0.0
 10
862.5128208010619
 20
798.7192206571442
 30
0.0
 10
862.5128208010619
 20
798.4244976161528
 30
0.0
 10
862.5128208010619
 20
797.4972430933124
 30
0.0
 10
862.5128208010619
 20
796.6116870527799
 30
0.0
 10
862.5128208010619
 20
795.5752858432445
 30
0.0
 10
862.5128208010619
 20
794.1313324705952
 30
0.0
 10
862.5128208010619
 20
792.2465048878865
 30
0.0
 10
862.5128208010619
 20
790.47349468606
 30
0.0
 10
862.5128208010619
 20
789.2511910643198
 30
0.0
 10
862.512820801062
 20
788.4505043491016
 30
0.0
 10
862.5128208010619
 20
787.8650137663285
 30
0.0
 10
862.5128208010619
 20
787.4371276277757
 30
0.0
 10
862.5128208010619
 20
787.4676398796782
 30
0.0
 10
862.5128208010619
 20
787.4834679806044
 30
0.0
  0
LINE
  5
2D5
330
1F
100
AcDbEntity
  8
0
  6
Continuous
 62
     7
370
    25
100
AcDbLine
 10
858.5128208011
 20
797.0649883931
 30
0.0
 11
858.5128208011
 21
792.3947224206
 31
0.0
  0
SPLINE
  5
2D6
330
1F
100
AcDbEntity
  8
0
  6
Continuous
 62
     7
370
    25
100
AcDbSpline
210
0.0
220
0.0
230
1.0
 70
     8
 71
     3
 72
     8
 73
     4
 74
     0
 42
0.000000001
 43
0.00000001
 40
0.0
 40
0.0
 40
0.0
 40
0.0
 40
1.0
 40
1.0
 40
1.0
 40
1.0
 10
858.5128208010691
 20
797.0649883931143
 30
0.0
 10
858.5128208010691
 20
796.4439207168949
 30
0.0
 10
858.6871361014486
 20
795.8398513964063
 30
0.0
 10
858.9594027884604
 20
795.2453338049411
 30
0.0
  0
SPLINE
  5
2D7
330
1F
100
AcDbEntity
  8
0
  6
Continuous
 62
     7
370
    25
100
AcDbSpline
210
0.0
220
0.0
230
1.0
 70
     8
 71
     3
 72
     8
 73
     4
 74
     0
 42
0.000000001
 43
0.00000001
 40
0.0
 40
0.0
 40
0.0
 40
0.0
 40
1.0
 40
1.0
 40
1.0
 40
1.0
 10
858.9594027884604
 20
795.2453338049348
 30
0.0
 10
858.687136101449
 20
794.3139819838784
 30
0.0
 10
858.5128208010691
 20
793.3676667364225
 30
0.0
 10
858.5128208010691
 20
792.3947224206445
 30
0.0
  0
SPLINE
  5
2D8
330
1F
100
AcDbEntity
  8
0
  6
Continuous
 62
     7
370
    25
100
AcDbSpline
210
0.0
220
0.0
230
1.0
 70
     8
 71
     3
 72
     8
 73
     4
 74
     0
 42
0.000000001
 43
0.00000001
 40
0.0
 40
0.0
 40
0.0
 40
0.0
 40
1.0
 40
1.0
 40
1.0
 40
1.0
 10
858.5128208010691
 20
792.3947224206445
 30
0.0
 10
858.5128208010691
 20
791.4217781048649
 30
0.0
 10
858.6871361014486
 20
790.4754628574124
 30
0.0
 10
858.9594027884604
 20
789.5441110363543
 30
0.0
  0
LINE
  5
2D9
330
1F
100
AcDbEntity
  8
0
  6
Continuous
 62
     7
370
    25
100
AcDbLine
 10
862.5128208011
 20
795.2453338049
 30
0.0
 11
858.9594027885
 21
795.2453338049
 31
0.0
  0
LINE
  5
2DA
330
1F
100
AcDbEntity
  8
0
  6
Continuous
 62
     7
370
    25
100
AcDbLine
 10
862.5128208011
 20
789.5441110364
 30
0.0
 11
858.9594027885
 21
789.5441110364
 31
0.0
  0
SPLINE
  5
2DB
330
1F
100
AcDbEntity
  8
0
  6
Continuous
 62
     7
370
    25
100
AcDbSpline
210
0.0
220
0.0
230
1.0
 70
     8
 71
     3
 72
     8
 73
     4
 74
     0
 42
0.000000001
 43
0.00000001
 40
0.0
 40
0.0
 40
0.0
 40
0.0
 40
1.0
 40
1.0
 40
1.0
 40
1.0
 10
858.9594027884604
 20
798.8846429812872
 30
0.0
 10
858.687136101449
 20
798.2901253898231
 30
0.0
 10
858.5128208010691
 20
797.6860560693323
 30
0.0
 10
858.5128208010691
 20
797.0649883931143
 30
0.0
  0
LINE
  5
2DC
330
1F
100
AcDbEntity
  8
0
  6
Continuous
 62
     7
370
    25
100
AcDbLine
 10
862.5128208011
 20
798.8846429813
 30
0.0
 11
858.9594027885
 21
798.8846429813
 31
0.0
  0
LINE
  5
2DD
330
1F
100
AcDbEntity
  8
0
  6
Continuous
 62
     7
370
    25
100
AcDbLine
 10
858.5128208011
 20
792.3947224206
 30
0.0
 11
858.5128208011
 21
788.5131542402
 31
0.0
  0
SPLINE
  5
2DE
330
1F
100
AcDbEntity
  8
0
  6
Continuous
 62
     7
370
    25
100
AcDbSpline
210
0.0
220
0.0
230
1.0
 70
     8
 71
     3
 72
     8
 73
     4
 74
     0
 42
0.000000001
 43
0.00000001
 40
0.0
 40
0.0
 40
0.0
 40
0.0
 40
1.0
 40
1.0
 40
1.0
 40
1.0
 10
858.9594027884604
 20
789.5441110363491
 30
0.0
 10
858.687136101449
 20
789.2072768067568
 30
0.0
 10
858.5128208010691
 20
788.8650308797916
 30
0.0
 10
858.5128208010691
 20
788.5131542402318
 30
0.0
  0
SPLINE
  5
2DF
330
1F
100
AcDbEntity
  8
0
  6
Continuous
 62
     7
370
    25
100
AcDbSpline
210
0.0
220
0.0
230
1.0
 70
     8
 71
     3
 72
     8
 73
     4
 74
     0
 42
0.000000001
 43
0.00000001
 40
0.0
 40
0.0
 40
0.0
 40
0.0
 40
1.0
 40
1.0
 40
1.0
 40
1.0
 10
858.5128208010691
 20
788.5131542402318
 30
0.0
 10
858.5128208010691
 20
788.1612776006712
 30
0.0
 10
858.6871361014485
 20
787.8190316737071
 30
0.0
 10
858.9594027884604
 20
787.4821974441141
 30
0.0
  0
LINE
  5
2E0
330
1F
100
AcDbEntity
  8
0
  6
Continuous
 62
     7
370
    25
100
AcDbLine
 10
862.5128208011
 20
787.4821974441
 30
0.0
 11
858.9594027885
 21
787.4821974441
 31
0.0
  0
LINE
  5
2E1
330
1F
100
AcDbEntity
  8
0
  6
Continuous
 62
     7
370
    25
100
AcDbLine
 10
858.8091965582
 20
798.5378844056
 30
0.0
 11
858.9594027885
 21
798.8846429813
 31
0.0
  0
LINE
  5
2E2
330
1F
100
AcDbEntity
  8
0
  6
Continuous
 62
     7
370
    25
100
AcDbLine
 10
858.5128208011
 20
798.1834202127
 30
0.0
 11
858.5128208011
 21
797.0649883931
 31
0.0
  0
LINE
  5
2E3
330
1F
100
AcDbEntity
  8
0
  6
Continuous
 62
     7
370
    25
100
AcDbLine
 10
873.5128208011
 20
792.7955780735
 30
0.0
 11
873.5128208011
 21
795.6421702127
 31
0.0
  0
LINE
  5
2E4
330
1F
100
AcDbEntity
  8
0
  6
Continuous
 62
     7
370
    25
100
AcDbLine
 10
873.5128208011
 20
790.7246702127
 30
0.0
 11
873.5128208011
 21
792.7955780735
 31
0.0
  0
LINE
  5
2E5
330
1F
100
AcDbEntity
  8
0
  6
Continuous
 62
     7
370
    25
100
AcDbLine
 10
872.9715708011
 20
790.1834202127
 30
0.0
 11
872.9715708011
 21
796.1834202127
 31
0.0
  0
LINE
  5
2E6
330
1F
100
AcDbEntity
  8
0
  6
Continuous
 62
     7
370
    25
100
AcDbLine
 10
858.5128208011
 20
788.5131542402
 30
0.0
 11
858.5128208011
 21
788.1834202127
 31
0.0
  0
LINE
  5
2E7
330
1F
100
AcDbEntity
  8
0
  6
Continuous
 62
     7
370
    25
100
AcDbLine
 10
873.1715708011
 20
790.1834202127
 30
0.0
 11
873.1715708011
 21
790.3834202127
 31
0.0
  0
LINE
  5
2E8
330
1F
100
AcDbEntity
  8
0
  6
Continuous
 62
     7
370
    25
100
AcDbLine
 10
873.1715708011
 20
795.9834202127
 30
0.0
 11
873.1715708011
 21
796.1834202127
 31
0.0
  0
LINE
  5
2E9
330
1F
100
AcDbEntity
  8
0
  6
Continuous
 62
     7
370
    25
100
AcDbLine
 10
873.7128208011
 20
794.76282355
 30
0.0
 11
873.7128208011
 21
795.6421702127
 31
0.0
  0
LINE
  5
2EA
330
1F
100
AcDbEntity
  8
0
  6
Continuous
 62
     7
370
    25
100
AcDbLine
 10
873.7128208011
 20
790.7246702127
 30
0.0
 11
873.7128208011
 21
794.76282355
 31
0.0
  0
LINE
  5
2EB
330
1F
100
AcDbEntity
  8
0
  6
Continuous
 62
     7
370
    25
100
AcDbLine
 10
-25.2371791989
 20
811.7834202127
 30
0.0
 11
-25.2371791989
 21
811.2834202127
 31
0.0
  0
LINE
  5
2EC
330
1F
100
AcDbEntity
  8
0
  6
Continuous
 62
     7
370
    25
100
AcDbLine
 10
-25.2371791989
 20
811.2834202127
 30
0.0
 11
-34.7371791989
 21
811.2834202127
 31
0.0
  0
LINE
  5
2ED
330
1F
100
AcDbEntity
  8
0
  6
Continuous
 62
     7
370
    25
100
AcDbLine
 10
-34.7371791989
 20
811.2834202127
 30
0.0
 11
-34.7371791989
 21
811.7834202127
 31
0.0
  0
LINE
  5
2EE
330
1F
100
AcDbEntity
  8
0
  6
Continuous
 62
     7
370
    25
100
AcDbLine
 10
-24.4737791989
 20
811.2834202127
 30
0.0
 11
-25.2371791989
 21
811.2834202127
 31
0.0
  0
ARC
  5
2EF
330
1F
100
AcDbEntity
  8
0
  6
Continuous
 62
     7
370
    25
100
AcDbCircle
 10
-35.5005791989
 20
812.5200202127
 30
0.0
 40
1.236600000000067
100
AcDbArc
 50
216.5600911005
 51
270.0
  0
LINE
  5
2F0
330
1F
100
AcDbEntity
  8
0
  6
Continuous
 62
     7
370
    25
100
AcDbLine
 10
-34.7371791989
 20
811.2834202127
 30
0.0
 11
-35.5005791989
 21
811.2834202127
 31
0.0
  0
ARC
  5
2F1
330
1F
100
AcDbEntity
  8
0
  6
Continuous
 62
     7
370
    25
100
AcDbCircle
 10
-24.4737791989
 20
812.5200202127
 30
0.0
 40
1.236599999999967
100
AcDbArc
 50
270.0
 51
323.4399088995
  0
LINE
  5
2F2
330
1F
100
AcDbEntity
  8
0
  6
Continuous
 62
     7
370
    25
100
AcDbLine
 10
863.0128208011
 20
807.4834202127
 30
0.0
 11
863.0128208011
 21
805.6834202127
 31
0.0
  0
LINE
  5
2F3
330
1F
100
AcDbEntity
  8
0
  6
Continuous
 62
     7
370
    25
100
AcDbLine
 10
863.0128208011
 20
805.6834202127
 30
0.0
 11
-39.9871791989
 21
805.6834202127
 31
0.0
  0
LINE
  5
2F4
330
1F
100
AcDbEntity
  8
0
  6
Continuous
 62
     7
370
    25
100
AcDbLine
 10
-39.9871791989
 20
805.6834202127
 30
0.0
 11
-39.9871791989
 21
807.4834202127
 31
0.0
  0
LINE
  5
2F5
330
1F
100
AcDbEntity
  8
0
  6
Continuous
 62
     7
370
    25
100
AcDbLine
 10
863.0128208011
 20
807.4834202127
 30
0.0
 11
863.5128208011
 21
812.8584202127
 31
0.0
  0
LINE
  5
2F6
330
1F
100
AcDbEntity
  8
0
  6
Continuous
 62
     7
370
    25
100
AcDbLine
 10
-40.4871791989
 20
812.8584202127
 30
0.0
 11
-39.9871791989
 21
807.4834202127
 31
0.0
  0
LINE
  5
2F7
330
1F
100
AcDbEntity
  8
0
  6
Continuous
 62
     7
370
    25
100
AcDbLine
 10
-50.6871791989
 20
790.9660821354
 30
0.0
 11
-50.6871791989
 21
790.7246702127
 31
0.0
  0
LINE
  5
2F8
330
1F
100
AcDbEntity
  8
0
  6
Continuous
 62
     7
370
    25
100
AcDbLine
 10
-50.6871791989
 20
795.6421702127
 30
0.0
 11
-50.6871791989
 21
790.9660821354
 31
0.0
  0
LINE
  5
2F9
330
1F
100
AcDbEntity
  8
0
  6
Continuous
 62
     7
370
    25
100
AcDbLine
 10
-50.1459291989
 20
796.1834202127
 30
0.0
 11
-50.1459291989
 21
795.9834202127
 31
0.0
  0
LINE
  5
2FA
330
1F
100
AcDbEntity
  8
0
  6
Continuous
 62
     7
370
    25
100
AcDbLine
 10
-50.1459291989
 20
790.3834202127
 30
0.0
 11
-50.1459291989
 21
790.1834202127
 31
0.0
  0
LINE
  5
2FB
330
1F
100
AcDbEntity
  8
0
  6
Continuous
 62
     7
370
    25
100
AcDbLine
 10
-35.8010348008
 20
798.4552358469
 30
0.0
 11
-35.9337611863
 21
798.9399247369
 31
0.0
  0
LINE
  5
2FC
330
1F
100
AcDbEntity
  8
0
  6
Continuous
 62
     7
370
    25
100
AcDbLine
 10
-35.9337611863
 20
798.9399247369
 30
0.0
 11
-39.4871791989
 21
798.9399247369
 31
0.0
  0
LINE
  5
2FD
330
1F
100
AcDbEntity
  8
0
  6
Continuous
 62
     7
370
    25
100
AcDbLine
 10
-35.9337611863
 20
787.4269156885
 30
0.0
 11
-35.7338508413
 21
787.9853212945
 31
0.0
  0
LINE
  5
2FE
330
1F
100
AcDbEntity
  8
0
  6
Continuous
 62
     7
370
    25
100
AcDbLine
 10
-39.4871791989
 20
787.4269156885
 30
0.0
 11
-35.9337611863
 21
787.4269156885
 31
0.0
  0
LINE
  5
2FF
330
1F
100
AcDbEntity
  8
0
  6
Continuous
 62
     7
370
    25
100
AcDbLine
 10
-35.9337611863
 20
798.9399247369
 30
0.0
 11
-35.8585734308
 21
798.7299042691
 31
0.0
  0
LINE
  5
300
330
1F
100
AcDbEntity
  8
0
  6
Continuous
 62
     7
370
    25
100
AcDbLine
 10
863.5128208011
 20
816.2834202127
 30
0.0
 11
863.5128208011
 21
787.2834202127
 31
0.0
  0
LINE
  5
301
330
1F
100
AcDbEntity
  8
0
  6
Continuous
 62
     7
370
    25
100
AcDbLine
 10
865.5128208011
 20
816.2834202127
 30
0.0
 11
865.5128208011
 21
787.2834202127
 31
0.0
  0
LINE
  5
302
330
1F
100
AcDbEntity
  8
0
  6
Continuous
 62
     7
370
    25
100
AcDbLine
 10
865.5128208011
 20
785.2834202127
 30
0.0
 11
863.5128208011
 21
785.2834202127
 31
0.0
  0
LINE
  5
303
330
1F
100
AcDbEntity
  8
0
  6
Continuous
 62
     7
370
    25
100
AcDbLine
 10
863.5128208011
 20
785.2834202127
 30
0.0
 11
863.5128208011
 21
787.2834202127
 31
0.0
  0
LINE
  5
304
330
1F
100
AcDbEntity
  8
0
  6
Continuous
 62
     7
370
    25
100
AcDbLine
 10
865.5128208011
 20
787.2834202127
 30
0.0
 11
865.5128208011
 21
785.2834202127
 31
0.0
  0
LINE
  5
305
330
1F
100
AcDbEntity
  8
0
  6
Continuous
 62
     7
370
    25
100
AcDbLine
 10
865.5128208011
 20
816.2834202127
 30
0.0
 11
865.5111536712
 21
816.3834202127
 31
0.0
  0
LINE
  5
306
330
1F
100
AcDbEntity
  8
0
  6
Continuous
 62
     7
370
    25
100
AcDbLine
 10
863.5128208011
 20
816.2834202127
 30
0.0
 11
863.5078082382
 21
816.3834202127
 31
0.0
  0
LINE
  5
307
330
1F
100
AcDbEntity
  8
0
  6
Continuous
 62
     7
370
    25
100
AcDbLine
 10
865.5731281803
 20
801.2834202127
 30
0.0
 11
865.5128208011
 21
801.2834202127
 31
0.0
  0
LINE
  5
308
330
1F
100
AcDbEntity
  8
0
  6
Continuous
 62
     7
370
    25
100
AcDbLine
 10
865.5128208011
 20
785.2834202127
 30
0.0
 11
865.5731281803
 21
785.2834202127
 31
0.0
  0
LWPOLYLINE
  5
309
330
1F
100
AcDbEntity
  8
0
  6
Continuous
 62
     7
370
    25
100
AcDbPolyline
 90
        9
 70
   128
 43
0.0
 10
867.4443269026
 20
785.2834202127
 10
867.5777765424
 20
785.3218496519
 10
867.7060977874
 20
785.4356611477
 10
867.824359324
 20
785.6204809881
 10
867.9280164279
 20
785.8692066503
 10
868.0130856145
 20
786.1722797467
 10
868.0762977228
 20
786.518053348
 10
868.1152235469
 20
786.8932395687
 10
868.1283671892
 20
787.2834202127
  0
LINE
  5
30A
330
1F
100
AcDbEntity
  8
0
  6
Continuous
 62
     7
370
    25
100
AcDbLine
 10
867.4443269026
 20
785.2834202127
 30
0.0
 11
865.5731281803
 21
785.2834202127
 31
0.0
  0
LINE
  5
30B
330
1F
100
AcDbEntity
  8
0
  6
Continuous
 62
     7
370
    25
100
AcDbLine
 10
865.5731281803
 20
801.2834202127
 30
0.0
 11
867.4443269026
 21
801.2834202127
 31
0.0
  0
LWPOLYLINE
  5
30C
330
1F
100
AcDbEntity
  8
0
  6
Continuous
 62
     7
370
    25
100
AcDbPolyline
 90
        9
 70
   128
 43
0.0
 10
868.1283671892
 20
799.2834202127
 10
868.1152235469
 20
799.6736008567
 10
868.0762977228
 20
800.0487870774
 10
868.0130856145
 20
800.3945606787
 10
867.9280164279
 20
800.6976337751
 10
867.824359324
 20
800.9463594373
 10
867.7060977874
 20
801.1311792777
 10
867.5777765424
 20
801.2449907735
 10
867.4443269026
 20
801.2834202127
  0
LINE
  5
30D
330
1F
100
AcDbEntity
  8
0
  6
Continuous
 62
     7
370
    25
100
AcDbLine
 10
868.1283671892
 20
799.2834202127
 30
0.0
 11
868.1283671892
 21
796.1834202127
 31
0.0
  0
LINE
  5
30E
330
1F
100
AcDbEntity
  8
0
  6
Continuous
 62
     7
370
    25
100
AcDbLine
 10
868.1283671892
 20
790.1834202127
 30
0.0
 11
868.1283671892
 21
787.2834202127
 31
0.0
  0
LINE
  5
30F
330
1F
100
AcDbEntity
  8
0
  6
Continuous
 62
     7
370
    25
100
AcDbLine
 10
-40.4871791989
 20
785.2834202127
 30
0.0
 11
-42.4871791989
 21
785.2834202127
 31
0.0
  0
LINE
  5
310
330
1F
100
AcDbEntity
  8
0
  6
Continuous
 62
     7
370
    25
100
AcDbLine
 10
-40.4871791989
 20
787.2834202127
 30
0.0
 11
-40.4871791989
 21
785.2834202127
 31
0.0
  0
LINE
  5
311
330
1F
100
AcDbEntity
  8
0
  6
Continuous
 62
     7
370
    25
100
AcDbLine
 10
-42.4871791989
 20
785.2834202127
 30
0.0
 11
-42.4871791989
 21
787.2834202127
 31
0.0
  0
LINE
  5
312
330
1F
100
AcDbEntity
  8
0
  6
Continuous
 62
     7
370
    25
100
AcDbLine
 10
-40.4871791989
 20
787.2834202127
 30
0.0
 11
-40.4871791989
 21
816.2834202127
 31
0.0
  0
LINE
  5
313
330
1F
100
AcDbEntity
  8
0
  6
Continuous
 62
     7
370
    25
100
AcDbLine
 10
-42.4871791989
 20
787.2834202127
 30
0.0
 11
-42.4871791989
 21
816.2834202127
 31
0.0
  0
LINE
  5
314
330
1F
100
AcDbEntity
  8
0
  6
Continuous
 62
     7
370
    25
100
AcDbLine
 10
-42.4855120691
 20
816.3834202127
 30
0.0
 11
-42.4871791989
 21
816.2834202127
 31
0.0
  0
LINE
  5
315
330
1F
100
AcDbEntity
  8
0
  6
Continuous
 62
     7
370
    25
100
AcDbLine
 10
-40.482166636
 20
816.3834202127
 30
0.0
 11
-40.4871791989
 21
816.2834202127
 31
0.0
  0
LINE
  5
316
330
1F
100
AcDbEntity
  8
0
  6
Continuous
 62
     7
370
    25
100
AcDbLine
 10
-42.5474865782
 20
785.2834202127
 30
0.0
 11
-42.4871791989
 21
785.2834202127
 31
0.0
  0
LINE
  5
317
330
1F
100
AcDbEntity
  8
0
  6
Continuous
 62
     7
370
    25
100
AcDbLine
 10
-42.4871791989
 20
801.2834202127
 30
0.0
 11
-42.5474865782
 21
801.2834202127
 31
0.0
  0
LINE
  5
318
330
1F
100
AcDbEntity
  8
0
  6
Continuous
 62
     7
370
    25
100
AcDbLine
 10
-42.5474865782
 20
785.2834202127
 30
0.0
 11
-44.4186853005
 21
785.2834202127
 31
0.0
  0
LWPOLYLINE
  5
319
330
1F
100
AcDbEntity
  8
0
  6
Continuous
 62
     7
370
    25
100
AcDbPolyline
 90
        9
 70
   128
 43
0.0
 10
-45.1027255871
 20
787.2834202127
 10
-45.0895819448
 20
786.8932395687
 10
-45.0506561207
 20
786.518053348
 10
-44.9874440124
 20
786.1722797467
 10
-44.9023748258
 20
785.8692066503
 10
-44.7987177219
 20
785.6204809881
 10
-44.6804561852
 20
785.4356611477
 10
-44.5521349403
 20
785.3218496519
 10
-44.4186853005
 20
785.2834202127
  0
LINE
  5
31A
330
1F
100
AcDbEntity
  8
0
  6
Continuous
 62
     7
370
    25
100
AcDbLine
 10
-45.1027255871
 20
787.2834202127
 30
0.0
 11
-45.1027255871
 21
790.1834202127
 31
0.0
  0
LINE
  5
31B
330
1F
100
AcDbEntity
  8
0
  6
Continuous
 62
     7
370
    25
100
AcDbLine
 10
-45.1027255871
 20
796.1834202127
 30
0.0
 11
-45.1027255871
 21
799.2834202127
 31
0.0
  0
LWPOLYLINE
  5
31C
330
1F
100
AcDbEntity
  8
0
  6
Continuous
 62
     7
370
    25
100
AcDbPolyline
 90
        9
 70
   128
 43
0.0
 10
-44.4186853005
 20
801.2834202127
 10
-44.5521349403
 20
801.2449907735
 10
-44.6804561852
 20
801.1311792777
 10
-44.7987177219
 20
800.9463594373
 10
-44.9023748258
 20
800.6976337751
 10
-44.9874440124
 20
800.3945606787
 10
-45.0506561207
 20
800.0487870774
 10
-45.0895819448
 20
799.6736008567
 10
-45.1027255871
 20
799.2834202127
  0
LINE
  5
31D
330
1F
100
AcDbEntity
  8
0
  6
Continuous
 62
     7
370
    25
100
AcDbLine
 10
-44.4186853005
 20
801.2834202127
 30
0.0
 11
-42.5474865782
 21
801.2834202127
 31
0.0
  0
ARC
  5
31E
330
1F
100
AcDbEntity
  8
0
  6
Continuous
 62
     7
370
    25
100
AcDbCircle
 10
-48.9871791989
 20
822.3834202127
 30
0.0
 40
6.000000000000006
100
AcDbArc
 50
216.8698976459
 51
270.0
  0
ARC
  5
31F
330
1F
100
AcDbEntity
  8
0
  6
Continuous
 62
     7
370
    25
100
AcDbCircle
 10
872.0128208011
 20
822.3834202127
 30
0.0
 40
6.0
100
AcDbArc
 50
270.0
 51
323.1301023541
  0
SPLINE
  5
320
330
1F
100
AcDbEntity
  8
0
  6
Continuous
 62
     7
370
    25
100
AcDbSpline
210
0.0
220
0.0
230
1.0
 70
    24
 71
     3
 72
    19
 73
    15
 74
     0
 42
0.000000001
 43
0.00000001
 40
0.0
 40
0.0
 40
0.0
 40
0.0
 40
0.1348599644641575
 40
0.2074574467700402
 40
0.2815955518104269
 40
0.3557336568508132
 40
0.4283311391566972
 40
0.5631911036208539
 40
0.6980510680850107
 40
0.7706485503908947
 40
0.8447866554312816
 40
0.9189247604716664
 40
0.9915222427775493
 40
1.0
 40
1.0
 40
1.0
 40
1.0
 10
-39.48717919893785
 20
787.7411090869678
 30
0.0
 10
-39.48717919893785
 20
788.066049526654
 30
0.0
 10
-39.4871791989379
 20
788.565911099638
 30
0.0
 10
-39.4871791989379
 20
789.7115569585679
 30
0.0
 10
-39.48717919893807
 20
790.7347728095957
 30
0.0
 10
-39.48717919893785
 20
791.8671313797773
 30
0.0
 10
-39.48717919893796
 20
793.3764704991358
 30
0.0
 10
-39.48717919893807
 20
795.2368410739531
 30
0.0
 10
-39.4871791989378
 20
796.8529469148529
 30
0.0
 10
-39.4871791989379
 20
797.8750562611573
 30
0.0
 10
-39.48717919893796
 20
798.4951900131863
 30
0.0
 10
-39.48717919893807
 20
798.8441571975748
 30
0.0
 10
-39.48717919893785
 20
799.0452203196536
 30
0.0
 10
-39.4871791989379
 20
798.9675049938885
 30
0.0
 10
-39.4871791989379
 20
798.9593785712207
 30
0.0
  0
SPLINE
  5
321
330
1F
100
AcDbEntity
  8
0
  6
Continuous
 62
     7
370
    25
100
AcDbSpline
210
0.0
220
0.0
230
1.0
 70
     8
 71
     3
 72
     8
 73
     4
 74
     0
 42
0.000000001
 43
0.00000001
 40
0.0
 40
0.0
 40
0.0
 40
0.0
 40
1.0
 40
1.0
 40
1.0
 40
1.0
 10
-35.48717919894501
 20
789.9846900433788
 30
0.0
 10
-35.48717919894501
 20
790.7419622660291
 30
0.0
 10
-35.66149449932443
 20
791.4785082729729
 30
0.0
 10
-35.93376118633634
 20
792.2034077889714
 30
0.0
  0
SPLINE
  5
322
330
1F
100
AcDbEntity
  8
0
  6
Continuous
 62
     7
370
    25
100
AcDbSpline
210
0.0
220
0.0
230
1.0
 70
     8
 71
     3
 72
     8
 73
     4
 74
     0
 42
0.000000001
 43
0.00000001
 40
0.0
 40
0.0
 40
0.0
 40
0.0
 40
1.0
 40
1.0
 40
1.0
 40
1.0
 10
-35.93376118633634
 20
787.7659722977863
 30
0.0
 10
-35.66149449932493
 20
788.4908718137834
 30
0.0
 10
-35.48717919894501
 20
789.2274178207299
 30
0.0
 10
-35.48717919894501
 20
789.9846900433788
 30
0.0
  0
LINE
  5
323
330
1F
100
AcDbEntity
  8
0
  6
Continuous
 62
     7
370
    25
100
AcDbLine
 10
-39.4871791989
 20
787.7659722978
 30
0.0
 11
-35.9337611863
 21
787.7659722978
 31
0.0
  0
LINE
  5
324
330
1F
100
AcDbEntity
  8
0
  6
Continuous
 62
     7
370
    25
100
AcDbLine
 10
-39.4871791989
 20
792.203407789
 30
0.0
 11
-35.9337611863
 21
792.203407789
 31
0.0
  0
SPLINE
  5
325
330
1F
100
AcDbEntity
  8
0
  6
Continuous
 62
     7
370
    25
100
AcDbSpline
210
0.0
220
0.0
230
1.0
 70
     8
 71
     3
 72
     8
 73
     4
 74
     0
 42
0.000000001
 43
0.00000001
 40
0.0
 40
0.0
 40
0.0
 40
0.0
 40
1.0
 40
1.0
 40
1.0
 40
1.0
 10
-35.48717919894506
 20
794.9121317464336
 30
0.0
 10
-35.48717919894506
 20
795.8366483578336
 30
0.0
 10
-35.66149449932448
 20
796.7358613463899
 30
0.0
 10
-35.93376118633634
 20
797.6208557038891
 30
0.0
  0
SPLINE
  5
326
330
1F
100
AcDbEntity
  8
0
  6
Continuous
 62
     7
370
    25
100
AcDbSpline
210
0.0
220
0.0
230
1.0
 70
     8
 71
     3
 72
     8
 73
     4
 74
     0
 42
0.000000001
 43
0.00000001
 40
0.0
 40
0.0
 40
0.0
 40
0.0
 40
1.0
 40
1.0
 40
1.0
 40
1.0
 10
-35.93376118633634
 20
792.203407788978
 30
0.0
 10
-35.66149449932493
 20
793.0884021464756
 30
0.0
 10
-35.48717919894506
 20
793.9876151350352
 30
0.0
 10
-35.48717919894506
 20
794.9121317464336
 30
0.0
  0
LINE
  5
327
330
1F
100
AcDbEntity
  8
0
  6
Continuous
 62
     7
370
    25
100
AcDbLine
 10
-39.4871791989
 20
797.6208557039
 30
0.0
 11
-35.9337611863
 21
797.6208557039
 31
0.0
  0
LINE
  5
328
330
1F
100
AcDbEntity
  8
0
  6
Continuous
 62
     7
370
    25
100
AcDbLine
 10
-35.4871791989
 20
789.9846900434
 30
0.0
 11
-35.4871791989
 21
794.9121317464
 31
0.0
  0
SPLINE
  5
329
330
1F
100
AcDbEntity
  8
0
  6
Continuous
 62
     7
370
    25
100
AcDbSpline
210
0.0
220
0.0
230
1.0
 70
     8
 71
     3
 72
     8
 73
     4
 74
     0
 42
0.000000001
 43
0.00000001
 40
0.0
 40
0.0
 40
0.0
 40
0.0
 40
1.0
 40
1.0
 40
1.0
 40
1.0
 10
-35.93376118633629
 20
797.6208557038933
 30
0.0
 10
-35.66149449932487
 20
797.7809505453939
 30
0.0
 10
-35.48717919894495
 20
797.9436175270071
 30
0.0
 10
-35.48717919894495
 20
798.1108619157567
 30
0.0
  0
LINE
  5
32A
330
1F
100
AcDbEntity
  8
0
  6
Continuous
 62
     7
370
    25
100
AcDbLine
 10
-35.4871791989
 20
794.9121317464
 30
0.0
 11
-35.4871791989
 21
798.1108619158
 31
0.0
  0
SPLINE
  5
32B
330
1F
100
AcDbEntity
  8
0
  6
Continuous
 62
     7
370
    25
100
AcDbSpline
210
0.0
220
0.0
230
1.0
 70
     8
 71
     3
 72
     8
 73
     4
 74
     0
 42
0.000000001
 43
0.00000001
 40
0.0
 40
0.0
 40
0.0
 40
0.0
 40
1.0
 40
1.0
 40
1.0
 40
1.0
 10
-35.48717919894489
 20
788.2559785096474
 30
0.0
 10
-35.48717919894489
 20
788.0887341208975
 30
0.0
 10
-35.66149449932432
 20
787.926067139285
 30
0.0
 10
-35.93376118633629
 20
787.7659722977841
 30
0.0
  0
LINE
  5
32C
330
1F
100
AcDbEntity
  8
0
  6
Continuous
 62
     7
370
    25
100
AcDbLine
 10
-35.4871791989
 20
789.9846900434
 30
0.0
 11
-35.4871791989
 21
788.1873538338
 31
0.0
  0
SPLINE
  5
32D
330
1F
100
AcDbEntity
  8
0
  6
Continuous
 62
     7
370
    25
100
AcDbSpline
210
0.0
220
0.0
230
1.0
 70
     8
 71
     3
 72
     8
 73
     4
 74
     0
 42
0.000000001
 43
0.00000001
 40
0.0
 40
0.0
 40
0.0
 40
0.0
 40
1.0
 40
1.0
 40
1.0
 40
1.0
 10
-35.48717919894495
 20
798.1108619157567
 30
0.0
 10
-35.48717919894495
 20
798.2781063045064
 30
0.0
 10
-35.66149449932438
 20
798.440773286119
 30
0.0
 10
-35.93376118633634
 20
798.6008681276198
 30
0.0
  0
LINE
  5
32E
330
1F
100
AcDbEntity
  8
0
  6
Continuous
 62
     7
370
    25
100
AcDbLine
 10
-39.4871791989
 20
798.6008681276
 30
0.0
 11
-35.9337611863
 21
798.6008681276
 31
0.0
  0
LINE
  5
32F
330
1F
100
AcDbEntity
  8
0
  6
Continuous
 62
     7
370
    25
100
AcDbLine
 10
-50.4871791989
 20
794.0335141094
 30
0.0
 11
-50.4871791989
 21
790.7246702127
 31
0.0
  0
LINE
  5
330
330
1F
100
AcDbEntity
  8
0
  6
Continuous
 62
     7
370
    25
100
AcDbLine
 10
-50.4871791989
 20
795.6421702127
 30
0.0
 11
-50.4871791989
 21
794.0335141094
 31
0.0
  0
LINE
  5
331
330
1F
100
AcDbEntity
  8
0
  6
Continuous
 62
     7
370
    25
100
AcDbLine
 10
-49.9459291989
 20
796.1834202127
 30
0.0
 11
-49.9459291989
 21
790.1834202127
 31
0.0
  0
LINE
  5
332
330
1F
100
AcDbEntity
  8
0
  6
Continuous
 62
     7
370
    25
100
AcDbLine
 10
848.2628208011
 20
811.2834202127
 30
0.0
 11
848.2628208011
 21
811.7834202127
 31
0.0
  0
LINE
  5
333
330
1F
100
AcDbEntity
  8
0
  6
Continuous
 62
     7
370
    25
100
AcDbLine
 10
857.7628208011
 20
811.7834202127
 30
0.0
 11
857.7628208011
 21
811.2834202127
 31
0.0
  0
LINE
  5
334
330
1F
100
AcDbEntity
  8
0
  6
Continuous
 62
     7
370
    25
100
AcDbLine
 10
857.7628208011
 20
811.2834202127
 30
0.0
 11
848.2628208011
 21
811.2834202127
 31
0.0
  0
LINE
  5
335
330
1F
100
AcDbEntity
  8
0
  6
Continuous
 62
     7
370
    25
100
AcDbLine
 10
848.2628208011
 20
811.2834202127
 30
0.0
 11
847.4994208011
 21
811.2834202127
 31
0.0
  0
LINE
  5
336
330
1F
100
AcDbEntity
  8
0
  6
Continuous
 62
     7
370
    25
100
AcDbLine
 10
858.5262208011
 20
811.2834202127
 30
0.0
 11
857.7628208011
 21
811.2834202127
 31
0.0
  0
ARC
  5
337
330
1F
100
AcDbEntity
  8
0
  6
Continuous
 62
     7
370
    25
100
AcDbCircle
 10
858.5262208011
 20
812.5200202127
 30
0.0
 40
1.236600000000075
100
AcDbArc
 50
270.0
 51
323.4399088989
  0
ARC
  5
338
330
1F
100
AcDbEntity
  8
0
  6
Continuous
 62
     7
370
    25
100
AcDbCircle
 10
847.4994208011
 20
812.5200202127
 30
0.0
 40
1.236600000000075
100
AcDbArc
 50
216.5600911011
 51
270.0
  0
ARC
  5
339
330
1F
100
AcDbEntity
  8
0
  6
Continuous
 62
     7
370
    25
100
AcDbCircle
 10
863.2128208011
 20
-193.6482894243
 30
0.0
 40
0.5
100
AcDbArc
 50
180.0
 51
0.0
  0
ARC
  5
33A
330
1F
100
AcDbEntity
  8
0
  6
Continuous
 62
     7
370
    25
100
AcDbCircle
 10
863.2128208011
 20
-182.0482894241
 30
0.0
 40
0.5
100
AcDbArc
 50
360.0
 51
180.0
  0
LINE
  5
33B
330
1F
100
AcDbEntity
  8
0
  6
Continuous
 62
     7
370
    25
100
AcDbLine
 10
873.1715708011
 20
-190.8482894242
 30
0.0
 11
873.7128208011
 21
-190.3070394242
 31
0.0
  0
LINE
  5
33C
330
1F
100
AcDbEntity
  8
0
  6
Continuous
 62
     7
370
    25
100
AcDbLine
 10
873.7128208011
 20
-185.3895394242
 30
0.0
 11
873.1715708011
 21
-184.8482894242
 31
0.0
  0
LINE
  5
33D
330
1F
100
AcDbEntity
  8
0
  6
Continuous
 62
     7
370
    25
100
AcDbLine
 10
873.1715708011
 20
-184.8482894242
 30
0.0
 11
864.5128208011
 21
-184.8482894242
 31
0.0
  0
LINE
  5
33E
330
1F
100
AcDbEntity
  8
0
  6
Continuous
 62
     7
370
    25
100
AcDbLine
 10
864.5128208011
 20
-190.8482894242
 30
0.0
 11
873.1715708011
 21
-190.8482894242
 31
0.0
  0
LINE
  5
33F
330
1F
100
AcDbEntity
  8
0
  6
Continuous
 62
     7
370
    25
100
AcDbLine
 10
846.5580353867
 20
-196.4764666716
 30
0.0
 11
846.1628208011
 21
-196.2482894242
 31
0.0
  0
LINE
  5
340
330
1F
100
AcDbEntity
  8
0
  6
Continuous
 62
     7
370
    25
100
AcDbLine
 10
839.8628208011
 20
-196.2482894242
 30
0.0
 11
839.4322825061
 21
-196.4968608247
 31
0.0
  0
LINE
  5
341
330
1F
100
AcDbEntity
  8
0
  6
Continuous
 62
     7
370
    25
100
AcDbLine
 10
839.4322825061
 20
-199.1997180237
 30
0.0
 11
839.8628208011
 21
-199.4482894242
 31
0.0
  0
LINE
  5
342
330
1F
100
AcDbEntity
  8
0
  6
Continuous
 62
     7
370
    25
100
AcDbLine
 10
846.1628208011
 20
-199.4482894242
 30
0.0
 11
846.5580353867
 21
-199.2201121768
 31
0.0
  0
LINE
  5
343
330
1F
100
AcDbEntity
  8
0
  6
Continuous
 62
     7
370
    25
100
AcDbLine
 10
263.5580353867
 20
-196.4764666716
 30
0.0
 11
263.1628208011
 21
-196.2482894242
 31
0.0
  0
LINE
  5
344
330
1F
100
AcDbEntity
  8
0
  6
Continuous
 62
     7
370
    25
100
AcDbLine
 10
256.8628208011
 20
-196.2482894242
 30
0.0
 11
256.4322825061
 21
-196.4968608247
 31
0.0
  0
LINE
  5
345
330
1F
100
AcDbEntity
  8
0
  6
Continuous
 62
     7
370
    25
100
AcDbLine
 10
256.4322825061
 20
-199.1997180237
 30
0.0
 11
256.8628208011
 21
-199.4482894242
 31
0.0
  0
LINE
  5
346
330
1F
100
AcDbEntity
  8
0
  6
Continuous
 62
     7
370
    25
100
AcDbLine
 10
263.1628208011
 20
-199.4482894242
 30
0.0
 11
263.5580353867
 21
-199.2201121768
 31
0.0
  0
LINE
  5
347
330
1F
100
AcDbEntity
  8
0
  6
Continuous
 62
     7
370
    25
100
AcDbLine
 10
566.5580353867
 20
-196.4764666716
 30
0.0
 11
566.1628208011
 21
-196.2482894242
 31
0.0
  0
LINE
  5
348
330
1F
100
AcDbEntity
  8
0
  6
Continuous
 62
     7
370
    25
100
AcDbLine
 10
559.8628208011
 20
-196.2482894242
 30
0.0
 11
559.4322825061
 21
-196.4968608247
 31
0.0
  0
LINE
  5
349
330
1F
100
AcDbEntity
  8
0
  6
Continuous
 62
     7
370
    25
100
AcDbLine
 10
559.4322825061
 20
-199.1997180237
 30
0.0
 11
559.8628208011
 21
-199.4482894242
 31
0.0
  0
LINE
  5
34A
330
1F
100
AcDbEntity
  8
0
  6
Continuous
 62
     7
370
    25
100
AcDbLine
 10
566.1628208011
 20
-199.4482894242
 30
0.0
 11
566.5580353867
 21
-199.2201121768
 31
0.0
  0
LINE
  5
34B
330
1F
100
AcDbEntity
  8
0
  6
Continuous
 62
     7
370
    25
100
AcDbLine
 10
-16.4419646133
 20
-196.4764666716
 30
0.0
 11
-16.8371791989
 21
-196.2482894242
 31
0.0
  0
LINE
  5
34C
330
1F
100
AcDbEntity
  8
0
  6
Continuous
 62
     7
370
    25
100
AcDbLine
 10
-23.1371791989
 20
-196.2482894242
 30
0.0
 11
-23.5677174939
 21
-196.4968608247
 31
0.0
  0
LINE
  5
34D
330
1F
100
AcDbEntity
  8
0
  6
Continuous
 62
     7
370
    25
100
AcDbLine
 10
-23.5677174939
 20
-199.1997180237
 30
0.0
 11
-23.1371791989
 21
-199.4482894242
 31
0.0
  0
LINE
  5
34E
330
1F
100
AcDbEntity
  8
0
  6
Continuous
 62
     7
370
    25
100
AcDbLine
 10
-16.8371791989
 20
-199.4482894242
 30
0.0
 11
-16.4419646133
 21
-199.2201121768
 31
0.0
  0
LINE
  5
34F
330
1F
100
AcDbEntity
  8
0
  6
Continuous
 62
     7
370
    25
100
AcDbLine
 10
-40.9871791989
 20
-212.8982894242
 30
0.0
 11
864.0128208011
 21
-212.8982894242
 31
0.0
  0
LINE
  5
350
330
1F
100
AcDbEntity
  8
0
  6
Continuous
 62
     7
370
    25
100
AcDbLine
 10
841.0128208011
 20
-191.1482894242
 30
0.0
 11
841.0128208011
 21
-196.2482894242
 31
0.0
  0
LINE
  5
351
330
1F
100
AcDbEntity
  8
0
  6
Continuous
 62
     7
370
    25
100
AcDbLine
 10
841.0128208011
 20
-199.4482894242
 30
0.0
 11
841.0128208011
 21
-199.5482894242
 31
0.0
  0
LINE
  5
352
330
1F
100
AcDbEntity
  8
0
  6
Continuous
 62
     7
370
    25
100
AcDbLine
 10
845.0128208011
 20
-199.5482894242
 30
0.0
 11
845.0128208011
 21
-199.4482894242
 31
0.0
  0
LINE
  5
353
330
1F
100
AcDbEntity
  8
0
  6
Continuous
 62
     7
370
    25
100
AcDbLine
 10
845.0128208011
 20
-196.2482894242
 30
0.0
 11
845.0128208011
 21
-191.1482894242
 31
0.0
  0
LINE
  5
354
330
1F
100
AcDbEntity
  8
0
  6
Continuous
 62
     7
370
    25
100
AcDbLine
 10
258.0128208011
 20
-191.1482894242
 30
0.0
 11
258.0128208011
 21
-196.2482894242
 31
0.0
  0
LINE
  5
355
330
1F
100
AcDbEntity
  8
0
  6
Continuous
 62
     7
370
    25
100
AcDbLine
 10
258.0128208011
 20
-199.4482894242
 30
0.0
 11
258.0128208011
 21
-199.5482894242
 31
0.0
  0
LINE
  5
356
330
1F
100
AcDbEntity
  8
0
  6
Continuous
 62
     7
370
    25
100
AcDbLine
 10
262.0128208011
 20
-199.5482894242
 30
0.0
 11
262.0128208011
 21
-199.4482894242
 31
0.0
  0
LINE
  5
357
330
1F
100
AcDbEntity
  8
0
  6
Continuous
 62
     7
370
    25
100
AcDbLine
 10
262.0128208011
 20
-196.2482894242
 30
0.0
 11
262.0128208011
 21
-191.1482894242
 31
0.0
  0
LINE
  5
358
330
1F
100
AcDbEntity
  8
0
  6
Continuous
 62
     7
370
    25
100
AcDbLine
 10
561.0128208011
 20
-191.1482894242
 30
0.0
 11
561.0128208011
 21
-196.2482894242
 31
0.0
  0
LINE
  5
359
330
1F
100
AcDbEntity
  8
0
  6
Continuous
 62
     7
370
    25
100
AcDbLine
 10
561.0128208011
 20
-199.4482894242
 30
0.0
 11
561.0128208011
 21
-199.5482894242
 31
0.0
  0
LINE
  5
35A
330
1F
100
AcDbEntity
  8
0
  6
Continuous
 62
     7
370
    25
100
AcDbLine
 10
565.0128208011
 20
-199.5482894242
 30
0.0
 11
565.0128208011
 21
-199.4482894242
 31
0.0
  0
LINE
  5
35B
330
1F
100
AcDbEntity
  8
0
  6
Continuous
 62
     7
370
    25
100
AcDbLine
 10
565.0128208011
 20
-196.2482894242
 30
0.0
 11
565.0128208011
 21
-191.1482894242
 31
0.0
  0
LINE
  5
35C
330
1F
100
AcDbEntity
  8
0
  6
Continuous
 62
     7
370
    25
100
AcDbLine
 10
-21.9871791989
 20
-191.1482894242
 30
0.0
 11
-21.9871791989
 21
-196.2482894242
 31
0.0
  0
LINE
  5
35D
330
1F
100
AcDbEntity
  8
0
  6
Continuous
 62
     7
370
    25
100
AcDbLine
 10
-21.9871791989
 20
-199.4482894242
 30
0.0
 11
-21.9871791989
 21
-199.5482894242
 31
0.0
  0
LINE
  5
35E
330
1F
100
AcDbEntity
  8
0
  6
Continuous
 62
     7
370
    25
100
AcDbLine
 10
-17.9871791989
 20
-199.5482894242
 30
0.0
 11
-17.9871791989
 21
-199.4482894242
 31
0.0
  0
LINE
  5
35F
330
1F
100
AcDbEntity
  8
0
  6
Continuous
 62
     7
370
    25
100
AcDbLine
 10
-17.9871791989
 20
-196.2482894242
 30
0.0
 11
-17.9871791989
 21
-191.1482894242
 31
0.0
  0
ARC
  5
360
330
1F
100
AcDbEntity
  8
0
  6
Continuous
 62
     7
370
    25
100
AcDbCircle
 10
-40.1871791989
 20
-182.0482894241
 30
0.0
 40
0.5
100
AcDbArc
 50
360.0
 51
180.0
  0
ARC
  5
361
330
1F
100
AcDbEntity
  8
0
  6
Continuous
 62
     7
370
    25
100
AcDbCircle
 10
-40.1871791989
 20
-193.6482894243
 30
0.0
 40
0.5000000000000071
100
AcDbArc
 50
180.0
 51
360.0
  0
LINE
  5
362
330
1F
100
AcDbEntity
  8
0
  6
Continuous
 62
     7
370
    25
100
AcDbLine
 10
-50.1459291989
 20
-184.8482894242
 30
0.0
 11
-50.6871791989
 21
-185.3895394242
 31
0.0
  0
LINE
  5
363
330
1F
100
AcDbEntity
  8
0
  6
Continuous
 62
     7
370
    25
100
AcDbLine
 10
-50.6871791989
 20
-190.3070394242
 30
0.0
 11
-50.1459291989
 21
-190.8482894242
 31
0.0
  0
LINE
  5
364
330
1F
100
AcDbEntity
  8
0
  6
Continuous
 62
     7
370
    25
100
AcDbLine
 10
-50.1459291989
 20
-190.8482894242
 30
0.0
 11
-41.4871791989
 21
-190.8482894242
 31
0.0
  0
LINE
  5
365
330
1F
100
AcDbEntity
  8
0
  6
Continuous
 62
     7
370
    25
100
AcDbLine
 10
-41.4871791989
 20
-184.8482894242
 30
0.0
 11
-50.1459291989
 21
-184.8482894242
 31
0.0
  0
LINE
  5
366
330
1F
100
AcDbEntity
  8
0
  6
Continuous
 62
     7
370
    25
100
AcDbLine
 10
-35.6871791989
 20
-182.8482894242
 30
0.0
 11
-36.0166622947
 21
-182.2776079621
 31
0.0
  0
LINE
  5
367
330
1F
100
AcDbEntity
  8
0
  6
Continuous
 62
     7
370
    25
100
AcDbLine
 10
-36.0166622947
 20
-193.4189708863
 30
0.0
 11
-35.6871791989
 21
-192.8482894242
 31
0.0
  0
LINE
  5
368
330
1F
100
AcDbEntity
  8
0
  6
Continuous
 62
     7
370
    25
100
AcDbLine
 10
-42.9871791989
 20
-211.0482894242
 30
0.0
 11
-48.9871791989
 21
-211.0482894242
 31
0.0
  0
LINE
  5
369
330
1F
100
AcDbEntity
  8
0
  6
Continuous
 62
     7
370
    25
100
AcDbLine
 10
872.0128208011
 20
-211.0482894242
 30
0.0
 11
866.0128208011
 21
-211.0482894242
 31
0.0
  0
LINE
  5
36A
330
1F
100
AcDbEntity
  8
0
  6
Continuous
 62
     7
370
    25
100
AcDbLine
 10
866.0128208011
 20
-211.0482894242
 30
0.0
 11
863.8407277778
 21
-211.0482894242
 31
0.0
  0
LINE
  5
36B
330
1F
100
AcDbEntity
  8
0
  6
Continuous
 62
     7
370
    25
100
AcDbLine
 10
-40.8150861757
 20
-211.0482894242
 30
0.0
 11
-42.9871791989
 21
-211.0482894242
 31
0.0
  0
SPLINE
  5
36C
330
1F
100
AcDbEntity
  8
0
  6
Continuous
 62
     7
370
    25
100
AcDbSpline
210
0.0
220
0.0
230
1.0
 70
    24
 71
     3
 72
     9
 73
     5
 74
     0
 42
0.000000001
 43
0.00000001
 40
0.0
 40
0.0
 40
0.0
 40
0.0
 40
0.5153941859573686
 40
1.0
 40
1.0
 40
1.0
 40
1.0
 10
863.7128208010599
 20
-182.173279424225
 30
0.0
 10
863.71282080106
 20
-182.1295375761705
 30
0.0
 10
863.7128208010599
 20
-182.0446669097054
 30
0.0
 10
863.7128208010599
 20
-182.0674233449487
 30
0.0
 10
863.71282080106
 20
-182.0784512457745
 30
0.0
  0
SPLINE
  5
36D
330
1F
100
AcDbEntity
  8
0
  6
Continuous
 62
     7
370
    25
100
AcDbSpline
210
0.0
220
0.0
230
1.0
 70
    24
 71
     3
 72
    17
 73
    13
 74
     0
 42
0.000000001
 43
0.00000001
 40
0.0
 40
0.0
 40
0.0
 40
0.0
 40
0.0359921626376355
 40
0.1205930661280437
 40
0.203435925287458
 40
0.3573281084250904
 40
0.5112202915627206
 40
0.5940631507221371
 40
0.6786640542125448
 40
0.7632649577029527
 40
0.8461078168623692
 40
1.0
 40
1.0
 40
1.0
 40
1.0
 10
862.7128208010599
 20
-182.0784512457636
 30
0.0
 10
862.71282080106
 20
-182.0712998587223
 30
0.0
 10
862.71282080106
 20
-182.0473388731306
 30
0.0
 10
862.7128208010599
 20
-182.2653437993662
 30
0.0
 10
862.7128208010599
 20
-182.8371308964534
 30
0.0
 10
862.7128208010599
 20
-184.0341474725436
 30
0.0
 10
862.7128208010597
 20
-185.6802042324207
 30
0.0
 10
862.71282080106
 20
-187.1653945846345
 30
0.0
 10
862.7128208010599
 20
-188.3614227090087
 30
0.0
 10
862.7128208010599
 20
-189.5311881217982
 30
0.0
 10
862.7128208010599
 20
-190.953135302382
 30
0.0
 10
862.7128208010599
 20
-191.7654025822421
 30
0.0
 10
862.7128208010599
 20
-192.2934257417037
 30
0.0
  0
SPLINE
  5
36E
330
1F
100
AcDbEntity
  8
0
  6
Continuous
 62
     7
370
    25
100
AcDbSpline
210
0.0
220
0.0
230
1.0
 70
     8
 71
     3
 72
     8
 73
     4
 74
     0
 42
0.000000001
 43
0.00000001
 40
0.0
 40
0.0
 40
0.0
 40
0.0
 40
1.0
 40
1.0
 40
1.0
 40
1.0
 10
858.712820801067
 20
-184.636488026549
 30
0.0
 10
858.712820801067
 20
-185.391608832857
 30
0.0
 10
858.8871361014465
 20
-186.1260623068004
 30
0.0
 10
859.1594027884584
 20
-186.8489023775707
 30
0.0
  0
SPLINE
  5
36F
330
1F
100
AcDbEntity
  8
0
  6
Continuous
 62
     7
370
    25
100
AcDbSpline
210
0.0
220
0.0
230
1.0
 70
     8
 71
     3
 72
     8
 73
     4
 74
     0
 42
0.000000001
 43
0.00000001
 40
0.0
 40
0.0
 40
0.0
 40
0.0
 40
1.0
 40
1.0
 40
1.0
 40
1.0
 10
859.1594027884584
 20
-182.4240736755273
 30
0.0
 10
858.8871361014469
 20
-183.1469137462965
 30
0.0
 10
858.712820801067
 20
-183.8813672202422
 30
0.0
 10
858.712820801067
 20
-184.636488026549
 30
0.0
  0
LINE
  5
370
330
1F
100
AcDbEntity
  8
0
  6
Continuous
 62
     7
370
    25
100
AcDbLine
 10
859.1594027885
 20
-182.4240736755
 30
0.0
 11
862.7128208011
 21
-182.4240736755
 31
0.0
  0
LINE
  5
371
330
1F
100
AcDbEntity
  8
0
  6
Continuous
 62
     7
370
    25
100
AcDbLine
 10
862.7128208011
 20
-186.8489023776
 30
0.0
 11
859.1594027885
 21
-186.8489023776
 31
0.0
  0
SPLINE
  5
372
330
1F
100
AcDbEntity
  8
0
  6
Continuous
 62
     7
370
    25
100
AcDbSpline
210
0.0
220
0.0
230
1.0
 70
     8
 71
     3
 72
     8
 73
     4
 74
     0
 42
0.000000001
 43
0.00000001
 40
0.0
 40
0.0
 40
0.0
 40
0.0
 40
1.0
 40
1.0
 40
1.0
 40
1.0
 10
858.7128208010669
 20
-189.561010251926
 30
0.0
 10
858.7128208010669
 20
-190.4866818305463
 30
0.0
 10
858.8871361014463
 20
-191.3870181753656
 30
0.0
 10
859.1594027884584
 20
-192.2731181262748
 30
0.0
  0
SPLINE
  5
373
330
1F
100
AcDbEntity
  8
0
  6
Continuous
 62
     7
370
    25
100
AcDbSpline
210
0.0
220
0.0
230
1.0
 70
     8
 71
     3
 72
     8
 73
     4
 74
     0
 42
0.000000001
 43
0.00000001
 40
0.0
 40
0.0
 40
0.0
 40
0.0
 40
1.0
 40
1.0
 40
1.0
 40
1.0
 10
859.1594027884582
 20
-186.8489023775774
 30
0.0
 10
858.8871361014468
 20
-187.7350023284849
 30
0.0
 10
858.7128208010669
 20
-188.6353386733075
 30
0.0
 10
858.7128208010669
 20
-189.561010251926
 30
0.0
  0
LINE
  5
374
330
1F
100
AcDbEntity
  8
0
  6
Continuous
 62
     7
370
    25
100
AcDbLine
 10
862.7128208011
 20
-192.2731181263
 30
0.0
 11
859.1594027885
 21
-192.2731181263
 31
0.0
  0
LINE
  5
375
330
1F
100
AcDbEntity
  8
0
  6
Continuous
 62
     7
370
    25
100
AcDbLine
 10
858.7128208011
 20
-184.6364880266
 30
0.0
 11
858.7128208011
 21
-189.5610102519
 31
0.0
  0
SPLINE
  5
376
330
1F
100
AcDbEntity
  8
0
  6
Continuous
 62
     7
370
    25
100
AcDbSpline
210
0.0
220
0.0
230
1.0
 70
     8
 71
     3
 72
     8
 73
     4
 74
     0
 42
0.000000001
 43
0.00000001
 40
0.0
 40
0.0
 40
0.0
 40
0.0
 40
1.0
 40
1.0
 40
1.0
 40
1.0
 10
859.1594027884584
 20
-192.2731181262792
 30
0.0
 10
858.8871361014469
 20
-192.4363780064177
 30
0.0
 10
858.712820801067
 20
-192.602260877294
 30
0.0
 10
858.712820801067
 20
-192.7728116496059
 30
0.0
  0
LINE
  5
377
330
1F
100
AcDbEntity
  8
0
  6
Continuous
 62
     7
370
    25
100
AcDbLine
 10
858.7128208011
 20
-189.5610102519
 30
0.0
 11
858.7128208011
 21
-192.7728116496
 31
0.0
  0
SPLINE
  5
378
330
1F
100
AcDbEntity
  8
0
  6
Continuous
 62
     7
370
    25
100
AcDbSpline
210
0.0
220
0.0
230
1.0
 70
     8
 71
     3
 72
     8
 73
     4
 74
     0
 42
0.000000001
 43
0.00000001
 40
0.0
 40
0.0
 40
0.0
 40
0.0
 40
1.0
 40
1.0
 40
1.0
 40
1.0
 10
858.712820801067
 20
-182.9237671988516
 30
0.0
 10
858.712820801067
 20
-182.7532164265394
 30
0.0
 10
858.8871361014463
 20
-182.5873335556637
 30
0.0
 10
859.1594027884584
 20
-182.4240736755249
 30
0.0
  0
LINE
  5
379
330
1F
100
AcDbEntity
  8
0
  6
Continuous
 62
     7
370
    25
100
AcDbLine
 10
858.7128208011
 20
-184.6364880266
 30
0.0
 11
858.7128208011
 21
-182.8529274585
 31
0.0
  0
SPLINE
  5
37A
330
1F
100
AcDbEntity
  8
0
  6
Continuous
 62
     7
370
    25
100
AcDbSpline
210
0.0
220
0.0
230
1.0
 70
     8
 71
     3
 72
     8
 73
     4
 74
     0
 42
0.000000001
 43
0.00000001
 40
0.0
 40
0.0
 40
0.0
 40
0.0
 40
1.0
 40
1.0
 40
1.0
 40
1.0
 10
858.712820801067
 20
-192.7728116496059
 30
0.0
 10
858.712820801067
 20
-192.9433624219181
 30
0.0
 10
858.8871361014465
 20
-193.1092452927939
 30
0.0
 10
859.1594027884584
 20
-193.2725051729327
 30
0.0
  0
LINE
  5
37B
330
1F
100
AcDbEntity
  8
0
  6
Continuous
 62
     7
370
    25
100
AcDbLine
 10
862.7128208011
 20
-193.2725051729
 30
0.0
 11
859.1594027885
 21
-193.2725051729
 31
0.0
  0
LINE
  5
37C
330
1F
100
AcDbEntity
  8
0
  6
Continuous
 62
     7
370
    25
100
AcDbLine
 10
873.7128208011
 20
-190.3070394242
 30
0.0
 11
873.7128208011
 21
-185.3895394242
 31
0.0
  0
LINE
  5
37D
330
1F
100
AcDbEntity
  8
0
  6
Continuous
 62
     7
370
    25
100
AcDbLine
 10
873.1715708011
 20
-185.9212085856
 30
0.0
 11
873.1715708011
 21
-184.8482894242
 31
0.0
  0
LINE
  5
37E
330
1F
100
AcDbEntity
  8
0
  6
Continuous
 62
     7
370
    25
100
AcDbLine
 10
873.1715708011
 20
-190.8482894242
 30
0.0
 11
873.1715708011
 21
-185.9212085856
 31
0.0
  0
LINE
  5
37F
330
1F
100
AcDbEntity
  8
0
  6
Continuous
 62
     7
370
    25
100
AcDbLine
 10
878.0128208011
 20
-213.4482894242
 30
0.0
 11
866.0128208011
 21
-213.4482894242
 31
0.0
  0
LINE
  5
380
330
1F
100
AcDbEntity
  8
0
  6
Continuous
 62
     7
370
    25
100
AcDbLine
 10
881.0128208011
 20
-209.4482894242
 30
0.0
 11
881.0128208011
 21
-210.4482894242
 31
0.0
  0
ARC
  5
381
330
1F
100
AcDbEntity
  8
0
  6
Continuous
 62
     7
370
    25
100
AcDbCircle
 10
884.0128208011
 20
-209.4482894242
 30
0.0
 40
3.0
100
AcDbArc
 50
90.0
 51
180.0
  0
LINE
  5
382
330
1F
100
AcDbEntity
  8
0
  6
Continuous
 62
     7
370
    25
100
AcDbLine
 10
907.5421101229
 20
-206.4482894242
 30
0.0
 11
884.0128208011
 21
-206.4482894242
 31
0.0
  0
LINE
  5
383
330
1F
100
AcDbEntity
  8
0
  6
Continuous
 62
     7
370
    25
100
AcDbLine
 10
907.5421101229
 20
-216.0482894242
 30
0.0
 11
907.5421101229
 21
-206.4482894242
 31
0.0
  0
LINE
  5
384
330
1F
100
AcDbEntity
  8
0
  6
Continuous
 62
     7
370
    25
100
AcDbLine
 10
-84.5164685208
 20
-216.0482894242
 30
0.0
 11
-84.5164685208
 21
-206.4482894242
 31
0.0
  0
LINE
  5
385
330
1F
100
AcDbEntity
  8
0
  6
Continuous
 62
     7
370
    25
100
AcDbLine
 10
-60.9871791989
 20
-206.4482894242
 30
0.0
 11
-84.5164685208
 21
-206.4482894242
 31
0.0
  0
ARC
  5
386
330
1F
100
AcDbEntity
  8
0
  6
Continuous
 62
     7
370
    25
100
AcDbCircle
 10
-60.9871791989
 20
-209.4482894242
 30
0.0
 40
3.0
100
AcDbArc
 50
0.0
 51
90.0
  0
LINE
  5
387
330
1F
100
AcDbEntity
  8
0
  6
Continuous
 62
     7
370
    25
100
AcDbLine
 10
-57.9871791989
 20
-209.4482894242
 30
0.0
 11
-57.9871791989
 21
-210.4482894242
 31
0.0
  0
ARC
  5
388
330
1F
100
AcDbEntity
  8
0
  6
Continuous
 62
     7
370
    25
100
AcDbCircle
 10
-54.9871791989
 20
-210.4482894242
 30
0.0
 40
3.0
100
AcDbArc
 50
180.0
 51
270.0
  0
LINE
  5
389
330
1F
100
AcDbEntity
  8
0
  6
Continuous
 62
     7
370
    25
100
AcDbLine
 10
-54.9871791989
 20
-213.4482894242
 30
0.0
 11
-42.9871791989
 21
-213.4482894242
 31
0.0
  0
ARC
  5
38A
330
1F
100
AcDbEntity
  8
0
  6
Continuous
 62
     7
370
    25
100
AcDbCircle
 10
-42.9871791989
 20
-210.4482894242
 30
0.0
 40
3.0
100
AcDbArc
 50
270.0
 51
312.3694630984
  0
ARC
  5
38B
330
1F
100
AcDbEntity
  8
0
  6
Continuous
 62
     7
370
    25
100
AcDbCircle
 10
866.0128208011
 20
-210.4482894242
 30
0.0
 40
3.000000000000022
100
AcDbArc
 50
227.6305369016
 51
270.0
  0
ARC
  5
38C
330
1F
100
AcDbEntity
  8
0
  6
Continuous
 62
     7
370
    25
100
AcDbCircle
 10
878.0128208011
 20
-210.4482894242
 30
0.0
 40
3.0
100
AcDbArc
 50
270.0
 51
0.0
  0
SPLINE
  5
38D
330
1F
100
AcDbEntity
  8
0
  6
Continuous
 62
     7
370
    25
100
AcDbSpline
210
0.0
220
0.0
230
1.0
 70
     8
 71
     3
 72
    20
 73
    16
 74
     0
 42
0.000000001
 43
0.00000001
 40
0.0
 40
0.0
 40
0.0
 40
0.0
 40
0.1250000000000067
 40
0.1250000000000067
 40
0.2500000000000134
 40
0.2500000000000134
 40
0.3750000000000201
 40
0.3750000000000201
 40
0.5000000000000268
 40
0.5000000000000268
 40
0.7500000000000001
 40
0.7500000000000001
 40
0.8750000000000001
 40
0.8750000000000001
 40
1.0
 40
1.0
 40
1.0
 40
1.0
 10
-83.58717919893854
 20
-218.448289424225
 30
0.0
 10
-83.62621992979314
 20
-218.448289424225
 30
0.0
 10
-83.66473863399293
 20
-218.4327528637502
 30
0.0
 10
-83.74214538530073
 20
-218.3714345117896
 30
0.0
 10
-83.78128980328736
 20
-218.3250107662028
 30
0.0
 10
-83.85844055720281
 20
-218.2050598960486
 30
0.0
 10
-83.89676813894364
 20
-218.1314552517652
 30
0.0
 10
-83.97431445942021
 20
-217.9567248856696
 30
0.0
 10
-84.01329066708901
 20
-217.855874256768
 30
0.0
 10
-84.12878552353436
 20
-217.5245889767841
 30
0.0
 10
-84.20669796720404
 20
-217.2569088154002
 30
0.0
 10
-84.32217789260504
 20
-216.8242347893448
 30
0.0
 10
-84.36104368847013
 20
-216.6727167024937
 30
0.0
 10
-84.43881802213859
 20
-216.3632909451076
 30
0.0
 10
-84.47742778909328
 20
-216.2066686154137
 30
0.0
 10
-84.51646852081996
 20
-216.0482894242249
 30
0.0
  0
SPLINE
  5
38E
330
1F
100
AcDbEntity
  8
0
  6
Continuous
 62
     7
370
    25
100
AcDbSpline
210
0.0
220
0.0
230
1.0
 70
     8
 71
     3
 72
    20
 73
    16
 74
     0
 42
0.000000001
 43
0.00000001
 40
0.0
 40
0.0
 40
0.0
 40
0.0
 40
0.1250000000000013
 40
0.1250000000000013
 40
0.2500000000000026
 40
0.2500000000000026
 40
0.3750000000000038
 40
0.3750000000000038
 40
0.5000000000000052
 40
0.5000000000000052
 40
0.7499999999999976
 40
0.7499999999999976
 40
0.8749999999999988
 40
0.8749999999999988
 40
1.0
 40
1.0
 40
1.0
 40
1.0
 10
907.5421101229429
 20
-216.0482894242252
 30
0.0
 10
907.5030693920885
 20
-216.2066686118759
 30
0.0
 10
907.4645506878885
 20
-216.3629143365677
 30
0.0
 10
907.3871439365806
 20
-216.6709061859842
 30
0.0
 10
907.3479995185936
 20
-216.8235502934554
 30
0.0
 10
907.2708487646786
 20
-217.1126345826424
 30
0.0
 10
907.2325211829377
 20
-217.2504391208264
 30
0.0
 10
907.1549748624612
 20
-217.5120577964653
 30
0.0
 10
907.1159986547925
 20
-217.6348041031479
 30
0.0
 10
907.0005037983475
 20
-217.9661284800956
 30
0.0
 10
906.9225913546773
 20
-218.1451396041238
 30
0.0
 10
906.8071114292765
 20
-218.3247547035046
 30
0.0
 10
906.7682456334113
 20
-218.3709990523723
 30
0.0
 10
906.690471299743
 20
-218.4327523583835
 30
0.0
 10
906.6518615327881
 20
-218.448289424225
 30
0.0
 10
906.6128208010614
 20
-218.448289424225
 30
0.0
  0
LINE
  5
38F
330
1F
100
AcDbEntity
  8
0
  6
Continuous
 62
     7
370
    25
100
AcDbLine
 10
906.6128208011
 20
-218.4482894242
 30
0.0
 11
-83.5871791989
 21
-218.4482894242
 31
0.0
  0
SPLINE
  5
390
330
1F
100
AcDbEntity
  8
0
  6
Continuous
 62
     7
370
    25
100
AcDbSpline
210
0.0
220
0.0
230
1.0
 70
     8
 71
     3
 72
     9
 73
     5
 74
     0
 42
0.000000001
 43
0.00000001
 40
0.0
 40
0.0
 40
0.0
 40
0.0
 40
0.4825784287291314
 40
1.0
 40
1.0
 40
1.0
 40
1.0
 10
907.388991033008
 20
-216.6608291634029
 30
0.0
 10
907.4527992260694
 20
-216.5726948220866
 30
0.0
 10
907.5850226933085
 20
-216.3900626610336
 30
0.0
 10
907.6033419977649
 20
-216.1648297769892
 30
0.0
 10
907.6128208010614
 20
-216.048289424225
 30
0.0
  0
LINE
  5
391
330
1F
100
AcDbEntity
  8
0
  6
Continuous
 62
     7
370
    25
100
AcDbLine
 10
909.0128208011
 20
-216.0482894242
 30
0.0
 11
907.6128208011
 21
-216.0482894242
 31
0.0
  0
SPLINE
  5
392
330
1F
100
AcDbEntity
  8
0
  6
Continuous
 62
     7
370
    25
100
AcDbSpline
210
0.0
220
0.0
230
1.0
 70
     8
 71
     3
 72
    20
 73
    16
 74
     0
 42
0.000000001
 43
0.00000001
 40
0.0
 40
0.0
 40
0.0
 40
0.0
 40
0.1250000000000007
 40
0.1250000000000007
 40
0.2500000000000014
 40
0.2500000000000014
 40
0.3750000000000021
 40
0.3750000000000021
 40
0.5000000000000028
 40
0.5000000000000028
 40
0.7500000000000042
 40
0.7500000000000042
 40
0.8750000000000021
 40
0.8750000000000021
 40
1.0
 40
1.0
 40
1.0
 40
1.0
 10
906.6128208010614
 20
-218.448289424225
 30
0.0
 10
906.7711999887122
 20
-218.448289424225
 30
0.0
 10
906.9274457134038
 20
-218.4327528637502
 30
0.0
 10
907.2354375628203
 20
-218.3714345117896
 30
0.0
 10
907.3880816702915
 20
-218.3250107662028
 30
0.0
 10
907.6771659594789
 20
-218.2050598960487
 30
0.0
 10
907.8149704976628
 20
-218.1314552517653
 30
0.0
 10
908.0765891733016
 20
-217.9567248856696
 30
0.0
 10
908.1993354799844
 20
-217.8558742567681
 30
0.0
 10
908.5306598569321
 20
-217.5245889767841
 30
0.0
 10
908.7096709809601
 20
-217.2569088154002
 30
0.0
 10
908.889286080341
 20
-216.8242347893448
 30
0.0
 10
908.9355304292088
 20
-216.6727167024937
 30
0.0
 10
908.9972837352201
 20
-216.3632909451075
 30
0.0
 10
909.0128208010615
 20
-216.2066686154138
 30
0.0
 10
909.0128208010615
 20
-216.048289424225
 30
0.0
  0
LINE
  5
393
330
1F
100
AcDbEntity
  8
0
  6
Continuous
 62
     7
370
    25
100
AcDbLine
 10
-85.9871791989
 20
-216.0482894242
 30
0.0
 11
-84.5871791989
 21
-216.0482894242
 31
0.0
  0
SPLINE
  5
394
330
1F
100
AcDbEntity
  8
0
  6
Continuous
 62
     7
370
    25
100
AcDbSpline
210
0.0
220
0.0
230
1.0
 70
     8
 71
     3
 72
     9
 73
     5
 74
     0
 42
0.000000001
 43
0.00000001
 40
0.0
 40
0.0
 40
0.0
 40
0.0
 40
0.6784508005729721
 40
1.0
 40
1.0
 40
1.0
 40
1.0
 10
-84.58717919893854
 20
-216.048289424225
 30
0.0
 10
-84.57392962847405
 20
-216.1989966286783
 30
0.0
 10
-84.55440047403395
 20
-216.4211309445728
 30
0.0
 10
-84.41355282039514
 20
-216.5879640494618
 30
0.0
 10
-84.36826337012631
 20
-216.6416091007768
 30
0.0
  0
SPLINE
  5
395
330
1F
100
AcDbEntity
  8
0
  6
Continuous
 62
     7
370
    25
100
AcDbSpline
210
0.0
220
0.0
230
1.0
 70
     8
 71
     3
 72
    20
 73
    16
 74
     0
 42
0.000000001
 43
0.00000001
 40
0.0
 40
0.0
 40
0.0
 40
0.0
 40
0.1249999999999974
 40
0.1249999999999974
 40
0.2499999999999948
 40
0.2499999999999948
 40
0.3749999999999922
 40
0.3749999999999922
 40
0.4999999999999896
 40
0.4999999999999896
 40
0.7499999999999948
 40
0.7499999999999948
 40
0.8749999999999973
 40
0.8749999999999973
 40
1.0
 40
1.0
 40
1.0
 40
1.0
 10
-85.98717919893856
 20
-216.048289424225
 30
0.0
 10
-85.9871791989385
 20
-216.2066686118757
 30
0.0
 10
-85.97164263846379
 20
-216.3629143365674
 30
0.0
 10
-85.91032428650308
 20
-216.670906185984
 30
0.0
 10
-85.8639005409163
 20
-216.8235502934552
 30
0.0
 10
-85.7439496707622
 20
-217.1126345826422
 30
0.0
 10
-85.67034502647869
 20
-217.2504391208263
 30
0.0
 10
-85.49561466038324
 20
-217.5120577964652
 30
0.0
 10
-85.3947640314816
 20
-217.6348041031478
 30
0.0
 10
-85.06347875149773
 20
-217.9661284800955
 30
0.0
 10
-84.79579859011378
 20
-218.1451396041237
 30
0.0
 10
-84.36312456405842
 20
-218.3247547035047
 30
0.0
 10
-84.21160647720738
 20
-218.3709990523723
 30
0.0
 10
-83.90218071982125
 20
-218.4327523583836
 30
0.0
 10
-83.74555839012731
 20
-218.448289424225
 30
0.0
 10
-83.58717919893854
 20
-218.448289424225
 30
0.0
  0
LINE
  5
396
330
1F
100
AcDbEntity
  8
0
  6
Continuous
 62
     7
370
    25
100
AcDbLine
 10
909.0128208011
 20
-206.4482894242
 30
0.0
 11
907.6128208011
 21
-206.4482894242
 31
0.0
  0
LINE
  5
397
330
1F
100
AcDbEntity
  8
0
  6
Continuous
 62
     7
370
    25
100
AcDbLine
 10
909.0128208011
 20
-216.0482894242
 30
0.0
 11
909.0128208011
 21
-206.4482894242
 31
0.0
  0
LINE
  5
398
330
1F
100
AcDbEntity
  8
0
  6
Continuous
 62
     7
370
    25
100
AcDbLine
 10
907.6128208011
 20
-216.0482894242
 30
0.0
 11
907.6128208011
 21
-206.4482894242
 31
0.0
  0
LINE
  5
399
330
1F
100
AcDbEntity
  8
0
  6
Continuous
 62
     7
370
    25
100
AcDbLine
 10
-84.5871791989
 20
-216.0482894242
 30
0.0
 11
-84.5871791989
 21
-206.4482894242
 31
0.0
  0
LINE
  5
39A
330
1F
100
AcDbEntity
  8
0
  6
Continuous
 62
     7
370
    25
100
AcDbLine
 10
-85.9871791989
 20
-216.0482894242
 30
0.0
 11
-85.9871791989
 21
-206.4482894242
 31
0.0
  0
LINE
  5
39B
330
1F
100
AcDbEntity
  8
0
  6
Continuous
 62
     7
370
    25
100
AcDbLine
 10
-85.9871791989
 20
-206.4482894242
 30
0.0
 11
-84.5871791989
 21
-206.4482894242
 31
0.0
  0
LINE
  5
39C
330
1F
100
AcDbEntity
  8
0
  6
Continuous
 62
     7
370
    25
100
AcDbLine
 10
-40.6871791989
 20
-199.3482894242
 30
0.0
 11
-40.6871791989
 21
-182.3482894242
 31
0.0
  0
LINE
  5
39D
330
1F
100
AcDbEntity
  8
0
  6
Continuous
 62
     7
370
    25
100
AcDbLine
 10
-41.4871791989
 20
-199.3482894242
 30
0.0
 11
-41.4871791989
 21
-182.3482894242
 31
0.0
  0
LINE
  5
39E
330
1F
100
AcDbEntity
  8
0
  6
Continuous
 62
     7
370
    25
100
AcDbLine
 10
864.5128208011
 20
-182.3482894242
 30
0.0
 11
864.5128208011
 21
-199.3482894242
 31
0.0
  0
LINE
  5
39F
330
1F
100
AcDbEntity
  8
0
  6
Continuous
 62
     7
370
    25
100
AcDbLine
 10
863.7128208011
 20
-182.3482894242
 30
0.0
 11
863.7128208011
 21
-199.3482894242
 31
0.0
  0
LINE
  5
3A0
330
1F
100
AcDbEntity
  8
0
  6
Continuous
 62
     7
370
    25
100
AcDbLine
 10
863.7128208011
 20
-182.3482894242
 30
0.0
 11
863.7128208011
 21
-179.3482894242
 31
0.0
  0
LINE
  5
3A1
330
1F
100
AcDbEntity
  8
0
  6
Continuous
 62
     7
370
    25
100
AcDbLine
 10
863.7128208011
 20
-179.3482894242
 30
0.0
 11
864.5128208011
 21
-179.3482894242
 31
0.0
  0
LINE
  5
3A2
330
1F
100
AcDbEntity
  8
0
  6
Continuous
 62
     7
370
    25
100
AcDbLine
 10
864.5128208011
 20
-179.3482894242
 30
0.0
 11
864.5128208011
 21
-182.3482894242
 31
0.0
  0
LINE
  5
3A3
330
1F
100
AcDbEntity
  8
0
  6
Continuous
 62
     7
370
    25
100
AcDbLine
 10
-41.4871791989
 20
-179.3482894242
 30
0.0
 11
-40.6871791989
 21
-179.3482894242
 31
0.0
  0
LINE
  5
3A4
330
1F
100
AcDbEntity
  8
0
  6
Continuous
 62
     7
370
    25
100
AcDbLine
 10
-41.4871791989
 20
-182.3482894242
 30
0.0
 11
-41.4871791989
 21
-179.3482894242
 31
0.0
  0
LINE
  5
3A5
330
1F
100
AcDbEntity
  8
0
  6
Continuous
 62
     7
370
    25
100
AcDbLine
 10
-40.6871791989
 20
-179.3482894242
 30
0.0
 11
-40.6871791989
 21
-182.3482894242
 31
0.0
  0
LINE
  5
3A6
330
1F
100
AcDbEntity
  8
0
  6
Continuous
 62
     7
370
    25
100
AcDbLine
 10
-40.6871791989
 20
-202.3482894242
 30
0.0
 11
-41.4871791989
 21
-202.3482894242
 31
0.0
  0
LINE
  5
3A7
330
1F
100
AcDbEntity
  8
0
  6
Continuous
 62
     7
370
    25
100
AcDbLine
 10
-41.4871791989
 20
-202.3482894242
 30
0.0
 11
-41.4871791989
 21
-199.3482894242
 31
0.0
  0
LINE
  5
3A8
330
1F
100
AcDbEntity
  8
0
  6
Continuous
 62
     7
370
    25
100
AcDbLine
 10
-40.6871791989
 20
-199.3482894242
 30
0.0
 11
-40.6871791989
 21
-202.3482894242
 31
0.0
  0
LINE
  5
3A9
330
1F
100
AcDbEntity
  8
0
  6
Continuous
 62
     7
370
    25
100
AcDbLine
 10
864.5128208011
 20
-202.3482894242
 30
0.0
 11
863.7128208011
 21
-202.3482894242
 31
0.0
  0
LINE
  5
3AA
330
1F
100
AcDbEntity
  8
0
  6
Continuous
 62
     7
370
    25
100
AcDbLine
 10
863.7128208011
 20
-202.3482894242
 30
0.0
 11
863.7128208011
 21
-199.3482894242
 31
0.0
  0
LINE
  5
3AB
330
1F
100
AcDbEntity
  8
0
  6
Continuous
 62
     7
370
    25
100
AcDbLine
 10
864.5128208011
 20
-199.3482894242
 30
0.0
 11
864.5128208011
 21
-202.3482894242
 31
0.0
  0
LINE
  5
3AC
330
1F
100
AcDbEntity
  8
0
  6
Continuous
 62
     7
370
    25
100
AcDbLine
 10
861.5128208011
 20
-199.5482894242
 30
0.0
 11
-38.4871791989
 21
-199.5482894242
 31
0.0
  0
LINE
  5
3AD
330
1F
100
AcDbEntity
  8
0
  6
Continuous
 62
     7
370
    25
100
AcDbLine
 10
-38.4871791989
 20
-200.3482894242
 30
0.0
 11
-38.4871791989
 21
-199.5482894242
 31
0.0
  0
LINE
  5
3AE
330
1F
100
AcDbEntity
  8
0
  6
Continuous
 62
     7
370
    25
100
AcDbLine
 10
861.5128208011
 20
-200.3482894242
 30
0.0
 11
861.5128208011
 21
-199.5482894242
 31
0.0
  0
LINE
  5
3AF
330
1F
100
AcDbEntity
  8
0
  6
Continuous
 62
     7
370
    25
100
AcDbLine
 10
16.0128208011
 20
-159.4436760324
 30
0.0
 11
16.0128208011
 21
-165.9613674861
 31
0.0
  0
ARC
  5
3B0
330
1F
100
AcDbEntity
  8
0
  6
Continuous
 62
     7
370
    25
100
AcDbCircle
 10
19.0128208011
 20
-159.4436760324
 30
0.0
 40
3.0
100
AcDbArc
 50
90.0
 51
180.0
  0
LINE
  5
3B1
330
1F
100
AcDbEntity
  8
0
  6
Continuous
 62
     7
370
    25
100
AcDbLine
 10
213.0128208011
 20
-156.4436760324
 30
0.0
 11
19.0128208011
 21
-156.4436760324
 31
0.0
  0
ARC
  5
3B2
330
1F
100
AcDbEntity
  8
0
  6
Continuous
 62
     7
370
    25
100
AcDbCircle
 10
213.0128208011
 20
-159.4436760324
 30
0.0
 40
3.0
100
AcDbArc
 50
0.0
 51
90.0
  0
LINE
  5
3B3
330
1F
100
AcDbEntity
  8
0
  6
Continuous
 62
     7
370
    25
100
AcDbLine
 10
216.0128208011
 20
-165.9613674861
 30
0.0
 11
216.0128208011
 21
-159.4436760324
 31
0.0
  0
LINE
  5
3B4
330
1F
100
AcDbEntity
  8
0
  6
Continuous
 62
     7
370
    25
100
AcDbLine
 10
607.0128208011
 20
-159.4436760324
 30
0.0
 11
607.0128208011
 21
-165.9613674861
 31
0.0
  0
ARC
  5
3B5
330
1F
100
AcDbEntity
  8
0
  6
Continuous
 62
     7
370
    25
100
AcDbCircle
 10
610.0128208011
 20
-159.4436760324
 30
0.0
 40
3.0
100
AcDbArc
 50
90.0
 51
180.0
  0
ARC
  5
3B6
330
1F
100
AcDbEntity
  8
0
  6
Continuous
 62
     7
370
    25
100
AcDbCircle
 10
804.0128208011
 20
-159.4436760324
 30
0.0
 40
3.0
100
AcDbArc
 50
0.0
 51
90.0
  0
LINE
  5
3B7
330
1F
100
AcDbEntity
  8
0
  6
Continuous
 62
     7
370
    25
100
AcDbLine
 10
807.0128208011
 20
-165.9613674861
 30
0.0
 11
807.0128208011
 21
-159.4436760324
 31
0.0
  0
LINE
  5
3B8
330
1F
100
AcDbEntity
  8
0
  6
Continuous
 62
     7
370
    25
100
AcDbLine
 10
804.0128208011
 20
-156.4436760324
 30
0.0
 11
610.0128208011
 21
-156.4436760324
 31
0.0
  0
LINE
  5
3B9
330
1F
100
AcDbEntity
  8
0
  6
Continuous
 62
     7
370
    25
100
AcDbLine
 10
311.5128208011
 20
-159.4436760324
 30
0.0
 11
311.5128208011
 21
-165.9613674861
 31
0.0
  0
LINE
  5
3BA
330
1F
100
AcDbEntity
  8
0
  6
Continuous
 62
     7
370
    25
100
AcDbLine
 10
508.5128208011
 20
-156.4436760324
 30
0.0
 11
314.5128208011
 21
-156.4436760324
 31
0.0
  0
LINE
  5
3BB
330
1F
100
AcDbEntity
  8
0
  6
Continuous
 62
     7
370
    25
100
AcDbLine
 10
511.5128208011
 20
-165.9613674861
 30
0.0
 11
511.5128208011
 21
-159.4436760324
 31
0.0
  0
ARC
  5
3BC
330
1F
100
AcDbEntity
  8
0
  6
Continuous
 62
     7
370
    25
100
AcDbCircle
 10
508.5128208011
 20
-159.4436760324
 30
0.0
 40
3.0
100
AcDbArc
 50
0.0
 51
90.0
  0
ARC
  5
3BD
330
1F
100
AcDbEntity
  8
0
  6
Continuous
 62
     7
370
    25
100
AcDbCircle
 10
314.5128208011
 20
-159.4436760324
 30
0.0
 40
3.0
100
AcDbArc
 50
90.0
 51
180.0
  0
LINE
  5
3BE
330
1F
100
AcDbEntity
  8
0
  6
Continuous
 62
     7
370
    25
100
AcDbLine
 10
607.0128208011
 20
-166.8613674861
 30
0.0
 11
607.0128208011
 21
-165.9613674861
 31
0.0
  0
LINE
  5
3BF
330
1F
100
AcDbEntity
  8
0
  6
Continuous
 62
     7
370
    25
100
AcDbLine
 10
807.0128208011
 20
-165.9613674861
 30
0.0
 11
807.0128208011
 21
-166.8613674861
 31
0.0
  0
LINE
  5
3C0
330
1F
100
AcDbEntity
  8
0
  6
Continuous
 62
     7
370
    25
100
AcDbLine
 10
216.0128208011
 20
-165.9613674861
 30
0.0
 11
216.0128208011
 21
-166.8613674861
 31
0.0
  0
LINE
  5
3C1
330
1F
100
AcDbEntity
  8
0
  6
Continuous
 62
     7
370
    25
100
AcDbLine
 10
16.0128208011
 20
-166.8613674861
 30
0.0
 11
16.0128208011
 21
-165.9613674861
 31
0.0
  0
LINE
  5
3C2
330
1F
100
AcDbEntity
  8
0
  6
Continuous
 62
     7
370
    25
100
AcDbLine
 10
511.5128208011
 20
-165.9613674861
 30
0.0
 11
511.5128208011
 21
-166.8613674861
 31
0.0
  0
LINE
  5
3C3
330
1F
100
AcDbEntity
  8
0
  6
Continuous
 62
     7
370
    25
100
AcDbLine
 10
311.5128208011
 20
-166.8613674861
 30
0.0
 11
311.5128208011
 21
-165.9613674861
 31
0.0
  0
LINE
  5
3C4
330
1F
100
AcDbEntity
  8
0
  6
Continuous
 62
     7
370
    25
100
AcDbLine
 10
607.0128208011
 20
-173.4862386167
 30
0.0
 11
607.0128208011
 21
-166.8613674861
 31
0.0
  0
LINE
  5
3C5
330
1F
100
AcDbEntity
  8
0
  6
Continuous
 62
     7
370
    25
100
AcDbLine
 10
807.0128208011
 20
-166.8613674861
 30
0.0
 11
807.0128208011
 21
-173.4862386167
 31
0.0
  0
LINE
  5
3C6
330
1F
100
AcDbEntity
  8
0
  6
Continuous
 62
     7
370
    25
100
AcDbLine
 10
16.0128208011
 20
-173.4862386167
 30
0.0
 11
16.0128208011
 21
-166.8613674861
 31
0.0
  0
LINE
  5
3C7
330
1F
100
AcDbEntity
  8
0
  6
Continuous
 62
     7
370
    25
100
AcDbLine
 10
216.0128208011
 20
-166.8613674861
 30
0.0
 11
216.0128208011
 21
-173.4862386167
 31
0.0
  0
LINE
  5
3C8
330
1F
100
AcDbEntity
  8
0
  6
Continuous
 62
     7
370
    25
100
AcDbLine
 10
511.5128208011
 20
-166.8613674861
 30
0.0
 11
511.5128208011
 21
-173.4862386167
 31
0.0
  0
LINE
  5
3C9
330
1F
100
AcDbEntity
  8
0
  6
Continuous
 62
     7
370
    25
100
AcDbLine
 10
311.5128208011
 20
-173.4862386167
 30
0.0
 11
311.5128208011
 21
-166.8613674861
 31
0.0
  0
LINE
  5
3CA
330
1F
100
AcDbEntity
  8
0
  6
Continuous
 62
     7
370
    25
100
AcDbLine
 10
863.7128208011
 20
-179.3482894242
 30
0.0
 11
862.7128208011
 21
-179.3482894242
 31
0.0
  0
LINE
  5
3CB
330
1F
100
AcDbEntity
  8
0
  6
Continuous
 62
     7
370
    25
100
AcDbLine
 10
862.7128208011
 20
-198.3482894242
 30
0.0
 11
863.7128208011
 21
-198.3482894242
 31
0.0
  0
LINE
  5
3CC
330
1F
100
AcDbEntity
  8
0
  6
Continuous
 62
     7
370
    25
100
AcDbLine
 10
-40.6871791989
 20
-198.3482894242
 30
0.0
 11
-39.6871791989
 21
-198.3482894242
 31
0.0
  0
LINE
  5
3CD
330
1F
100
AcDbEntity
  8
0
  6
Continuous
 62
     7
370
    25
100
AcDbLine
 10
-39.6871791989
 20
-179.3482894242
 30
0.0
 11
-40.6871791989
 21
-179.3482894242
 31
0.0
  0
LINE
  5
3CE
330
1F
100
AcDbEntity
  8
0
  6
Continuous
 62
     7
370
    25
100
AcDbLine
 10
861.5128208011
 20
-199.5482894242
 30
0.0
 11
861.5128208011
 21
-198.5482894242
 31
0.0
  0
LINE
  5
3CF
330
1F
100
AcDbEntity
  8
0
  6
Continuous
 62
     7
370
    25
100
AcDbLine
 10
-38.4871791989
 20
-198.5482894242
 30
0.0
 11
-38.4871791989
 21
-199.5482894242
 31
0.0
  0
LINE
  5
3D0
330
1F
100
AcDbEntity
  8
0
  6
Continuous
 62
     7
370
    25
100
AcDbLine
 10
607.0128208011
 20
-173.4862386167
 30
0.0
 11
607.0128208011
 21
-173.9862386167
 31
0.0
  0
LINE
  5
3D1
330
1F
100
AcDbEntity
  8
0
  6
Continuous
 62
     7
370
    25
100
AcDbLine
 10
807.0128208011
 20
-173.9862386167
 30
0.0
 11
807.0128208011
 21
-173.4862386167
 31
0.0
  0
LINE
  5
3D2
330
1F
100
AcDbEntity
  8
0
  6
Continuous
 62
     7
370
    25
100
AcDbLine
 10
311.5128208011
 20
-173.4862386167
 30
0.0
 11
311.5128208011
 21
-173.9862386167
 31
0.0
  0
LINE
  5
3D3
330
1F
100
AcDbEntity
  8
0
  6
Continuous
 62
     7
370
    25
100
AcDbLine
 10
511.5128208011
 20
-173.9862386167
 30
0.0
 11
511.5128208011
 21
-173.4862386167
 31
0.0
  0
LINE
  5
3D4
330
1F
100
AcDbEntity
  8
0
  6
Continuous
 62
     7
370
    25
100
AcDbLine
 10
216.0128208011
 20
-173.9862386167
 30
0.0
 11
216.0128208011
 21
-173.4862386167
 31
0.0
  0
LINE
  5
3D5
330
1F
100
AcDbEntity
  8
0
  6
Continuous
 62
     7
370
    25
100
AcDbLine
 10
16.0128208011
 20
-173.4862386167
 30
0.0
 11
16.0128208011
 21
-173.9862386167
 31
0.0
  0
LINE
  5
3D6
330
1F
100
AcDbEntity
  8
0
  6
Continuous
 62
     7
370
    25
100
AcDbLine
 10
-38.4871791989
 20
-198.3482894242
 30
0.0
 11
-38.4871791989
 21
-198.5482894242
 31
0.0
  0
LINE
  5
3D7
330
1F
100
AcDbEntity
  8
0
  6
Continuous
 62
     7
370
    25
100
AcDbLine
 10
-39.6871791989
 20
-198.3482894242
 30
0.0
 11
-38.4871791989
 21
-198.3482894242
 31
0.0
  0
LINE
  5
3D8
330
1F
100
AcDbEntity
  8
0
  6
Continuous
 62
     7
370
    25
100
AcDbLine
 10
-36.4871791989
 20
-179.3482894242
 30
0.0
 11
-39.6871791989
 21
-179.3482894242
 31
0.0
  0
LINE
  5
3D9
330
1F
100
AcDbEntity
  8
0
  6
Continuous
 62
     7
370
    25
100
AcDbLine
 10
-36.4871791989
 20
-158.3482894242
 30
0.0
 11
-36.4871791989
 21
-179.3482894242
 31
0.0
  0
ARC
  5
3DA
330
1F
100
AcDbEntity
  8
0
  6
Continuous
 62
     7
370
    25
100
AcDbCircle
 10
-33.4871791989
 20
-158.3482894242
 30
0.0
 40
3.000000000000007
100
AcDbArc
 50
90.0
 51
180.0
  0
LINE
  5
3DB
330
1F
100
AcDbEntity
  8
0
  6
Continuous
 62
     7
370
    25
100
AcDbLine
 10
10.5128208011
 20
-155.3482894242
 30
0.0
 11
-33.4871791989
 21
-155.3482894242
 31
0.0
  0
ARC
  5
3DC
330
1F
100
AcDbEntity
  8
0
  6
Continuous
 62
     7
370
    25
100
AcDbCircle
 10
10.5128208011
 20
-158.3482894242
 30
0.0
 40
3.000000000000002
100
AcDbArc
 50
0.0
 51
90.0
  0
LINE
  5
3DD
330
1F
100
AcDbEntity
  8
0
  6
Continuous
 62
     7
370
    25
100
AcDbLine
 10
13.5128208011
 20
-158.3482894242
 30
0.0
 11
13.5128208011
 21
-174.4782894242
 31
0.0
  0
LINE
  5
3DE
330
1F
100
AcDbEntity
  8
0
  6
Continuous
 62
     7
370
    25
100
AcDbLine
 10
13.5128208011
 20
-174.4782894242
 30
0.0
 11
16.0128208011
 21
-174.4782894242
 31
0.0
  0
LINE
  5
3DF
330
1F
100
AcDbEntity
  8
0
  6
Continuous
 62
     7
370
    25
100
AcDbLine
 10
16.0128208011
 20
-173.9862386167
 30
0.0
 11
16.0128208011
 21
-174.4782894242
 31
0.0
  0
LINE
  5
3E0
330
1F
100
AcDbEntity
  8
0
  6
Continuous
 62
     7
370
    25
100
AcDbLine
 10
216.0128208011
 20
-173.9862386167
 30
0.0
 11
216.0128208011
 21
-174.4782894242
 31
0.0
  0
LINE
  5
3E1
330
1F
100
AcDbEntity
  8
0
  6
Continuous
 62
     7
370
    25
100
AcDbLine
 10
216.0128208011
 20
-174.4782894242
 30
0.0
 11
218.5128208011
 21
-174.4782894242
 31
0.0
  0
LINE
  5
3E2
330
1F
100
AcDbEntity
  8
0
  6
Continuous
 62
     7
370
    25
100
AcDbLine
 10
218.5128208011
 20
-174.4782894242
 30
0.0
 11
218.5128208011
 21
-158.3482894242
 31
0.0
  0
ARC
  5
3E3
330
1F
100
AcDbEntity
  8
0
  6
Continuous
 62
     7
370
    25
100
AcDbCircle
 10
221.5128208011
 20
-158.3482894242
 30
0.0
 40
3.000000000000028
100
AcDbArc
 50
90.0
 51
180.0
  0
LINE
  5
3E4
330
1F
100
AcDbEntity
  8
0
  6
Continuous
 62
     7
370
    25
100
AcDbLine
 10
306.0128208011
 20
-155.3482894242
 30
0.0
 11
221.5128208011
 21
-155.3482894242
 31
0.0
  0
ARC
  5
3E5
330
1F
100
AcDbEntity
  8
0
  6
Continuous
 62
     7
370
    25
100
AcDbCircle
 10
306.0128208011
 20
-158.3482894242
 30
0.0
 40
3.0
100
AcDbArc
 50
0.0
 51
90.0
  0
LINE
  5
3E6
330
1F
100
AcDbEntity
  8
0
  6
Continuous
 62
     7
370
    25
100
AcDbLine
 10
309.0128208011
 20
-158.3482894242
 30
0.0
 11
309.0128208011
 21
-174.4782894242
 31
0.0
  0
LINE
  5
3E7
330
1F
100
AcDbEntity
  8
0
  6
Continuous
 62
     7
370
    25
100
AcDbLine
 10
309.0128208011
 20
-174.4782894242
 30
0.0
 11
311.5128208011
 21
-174.4782894242
 31
0.0
  0
LINE
  5
3E8
330
1F
100
AcDbEntity
  8
0
  6
Continuous
 62
     7
370
    25
100
AcDbLine
 10
311.5128208011
 20
-173.9862386167
 30
0.0
 11
311.5128208011
 21
-174.4782894242
 31
0.0
  0
LINE
  5
3E9
330
1F
100
AcDbEntity
  8
0
  6
Continuous
 62
     7
370
    25
100
AcDbLine
 10
511.5128208011
 20
-173.9862386167
 30
0.0
 11
511.5128208011
 21
-174.4782894242
 31
0.0
  0
LINE
  5
3EA
330
1F
100
AcDbEntity
  8
0
  6
Continuous
 62
     7
370
    25
100
AcDbLine
 10
511.5128208011
 20
-174.4782894242
 30
0.0
 11
514.0128208011
 21
-174.4782894242
 31
0.0
  0
LINE
  5
3EB
330
1F
100
AcDbEntity
  8
0
  6
Continuous
 62
     7
370
    25
100
AcDbLine
 10
514.0128208011
 20
-174.4782894242
 30
0.0
 11
514.0128208011
 21
-158.3482894242
 31
0.0
  0
ARC
  5
3EC
330
1F
100
AcDbEntity
  8
0
  6
Continuous
 62
     7
370
    25
100
AcDbCircle
 10
517.0128208011
 20
-158.3482894242
 30
0.0
 40
3.0
100
AcDbArc
 50
90.0
 51
180.0
  0
LINE
  5
3ED
330
1F
100
AcDbEntity
  8
0
  6
Continuous
 62
     7
370
    25
100
AcDbLine
 10
601.5128208011
 20
-155.3482894242
 30
0.0
 11
517.0128208011
 21
-155.3482894242
 31
0.0
  0
ARC
  5
3EE
330
1F
100
AcDbEntity
  8
0
  6
Continuous
 62
     7
370
    25
100
AcDbCircle
 10
601.5128208011
 20
-158.3482894242
 30
0.0
 40
3.0
100
AcDbArc
 50
0.0
 51
90.0
  0
LINE
  5
3EF
330
1F
100
AcDbEntity
  8
0
  6
Continuous
 62
     7
370
    25
100
AcDbLine
 10
604.5128208011
 20
-158.3482894242
 30
0.0
 11
604.5128208011
 21
-174.4782894242
 31
0.0
  0
LINE
  5
3F0
330
1F
100
AcDbEntity
  8
0
  6
Continuous
 62
     7
370
    25
100
AcDbLine
 10
604.5128208011
 20
-174.4782894242
 30
0.0
 11
607.0128208011
 21
-174.4782894242
 31
0.0
  0
LINE
  5
3F1
330
1F
100
AcDbEntity
  8
0
  6
Continuous
 62
     7
370
    25
100
AcDbLine
 10
607.0128208011
 20
-173.9862386167
 30
0.0
 11
607.0128208011
 21
-174.4782894242
 31
0.0
  0
LINE
  5
3F2
330
1F
100
AcDbEntity
  8
0
  6
Continuous
 62
     7
370
    25
100
AcDbLine
 10
807.0128208011
 20
-173.9862386167
 30
0.0
 11
807.0128208011
 21
-174.4782894242
 31
0.0
  0
LINE
  5
3F3
330
1F
100
AcDbEntity
  8
0
  6
Continuous
 62
     7
370
    25
100
AcDbLine
 10
807.0128208011
 20
-174.4782894242
 30
0.0
 11
809.5128208011
 21
-174.4782894242
 31
0.0
  0
LINE
  5
3F4
330
1F
100
AcDbEntity
  8
0
  6
Continuous
 62
     7
370
    25
100
AcDbLine
 10
809.5128208011
 20
-174.4782894242
 30
0.0
 11
809.5128208011
 21
-158.3482894242
 31
0.0
  0
ARC
  5
3F5
330
1F
100
AcDbEntity
  8
0
  6
Continuous
 62
     7
370
    25
100
AcDbCircle
 10
812.5128208011
 20
-158.3482894242
 30
0.0
 40
3.0
100
AcDbArc
 50
90.0
 51
180.0
  0
LINE
  5
3F6
330
1F
100
AcDbEntity
  8
0
  6
Continuous
 62
     7
370
    25
100
AcDbLine
 10
856.5128208011
 20
-155.3482894242
 30
0.0
 11
812.5128208011
 21
-155.3482894242
 31
0.0
  0
ARC
  5
3F7
330
1F
100
AcDbEntity
  8
0
  6
Continuous
 62
     7
370
    25
100
AcDbCircle
 10
856.5128208011
 20
-158.3482894242
 30
0.0
 40
3.000000000000114
100
AcDbArc
 50
0.0
 51
90.0
  0
LINE
  5
3F8
330
1F
100
AcDbEntity
  8
0
  6
Continuous
 62
     7
370
    25
100
AcDbLine
 10
859.5128208011
 20
-179.3482894242
 30
0.0
 11
859.5128208011
 21
-158.3482894242
 31
0.0
  0
LINE
  5
3F9
330
1F
100
AcDbEntity
  8
0
  6
Continuous
 62
     7
370
    25
100
AcDbLine
 10
862.7128208011
 20
-179.3482894242
 30
0.0
 11
859.5128208011
 21
-179.3482894242
 31
0.0
  0
LINE
  5
3FA
330
1F
100
AcDbEntity
  8
0
  6
Continuous
 62
     7
370
    25
100
AcDbLine
 10
861.5128208011
 20
-198.3482894242
 30
0.0
 11
862.7128208011
 21
-198.3482894242
 31
0.0
  0
LINE
  5
3FB
330
1F
100
AcDbEntity
  8
0
  6
Continuous
 62
     7
370
    25
100
AcDbLine
 10
861.5128208011
 20
-198.5482894242
 30
0.0
 11
861.5128208011
 21
-198.3482894242
 31
0.0
  0
SPLINE
  5
3FC
330
1F
100
AcDbEntity
  8
0
  6
Continuous
 62
     7
370
    25
100
AcDbSpline
210
0.0
220
0.0
230
1.0
 70
     8
 71
     3
 72
    14
 73
    10
 74
     0
 42
0.000000001
 43
0.00000001
 40
0.0
 40
0.0
 40
0.0
 40
0.0
 40
0.25
 40
0.25
 40
0.5
 40
0.5
 40
0.75
 40
0.75
 40
1.0
 40
1.0
 40
1.0
 40
1.0
 10
846.1485605239168
 20
-196.7629694096111
 30
0.0
 10
846.2006182328074
 20
-196.6680948003004
 30
0.0
 10
846.2539517711358
 20
-196.5884898754247
 30
0.0
 10
846.3608837787639
 20
-196.4796532605305
 30
0.0
 10
846.4146371452114
 20
-196.45032965484
 30
0.0
 10
846.522816196635
 20
-196.4503944365856
 30
0.0
 10
846.577644893223
 20
-196.4805506299119
 30
0.0
 10
846.6845518758829
 20
-196.5901358312776
 30
0.0
 10
846.7369733908552
 20
-196.6686788050798
 30
0.0
 10
846.7887106562573
 20
-196.7629694096111
 30
0.0
  0
SPLINE
  5
3FD
330
1F
100
AcDbEntity
  8
0
  6
Continuous
 62
     7
370
    25
100
AcDbSpline
210
0.0
220
0.0
230
1.0
 70
     8
 71
     3
 72
    12
 73
     8
 74
     0
 42
0.000000001
 43
0.00000001
 40
0.0
 40
0.0
 40
0.0
 40
0.0
 40
0.4999999999999811
 40
0.4999999999999811
 40
0.7499999999999906
 40
0.7499999999999906
 40
1.0
 40
1.0
 40
1.0
 40
1.0
 10
846.1485605239169
 20
-196.7629694096101
 30
0.0
 10
845.5320301339966
 20
-196.5724751201865
 30
0.0
 10
844.9062622615469
 20
-196.4508007071242
 30
0.0
 10
843.9432005521619
 20
-196.4501445165929
 30
0.0
 10
843.6225075170322
 20
-196.4799785183873
 30
0.0
 10
842.9925492670362
 20
-196.5889083884949
 30
0.0
 10
842.6813199990055
 20
-196.6676035755578
 30
0.0
 10
842.3726706687207
 20
-196.7629694096105
 30
0.0
  0
SPLINE
  5
3FE
330
1F
100
AcDbEntity
  8
0
  6
Continuous
 62
     7
370
    25
100
AcDbSpline
210
0.0
220
0.0
230
1.0
 70
     8
 71
     3
 72
    12
 73
     8
 74
     0
 42
0.000000001
 43
0.00000001
 40
0.0
 40
0.0
 40
0.0
 40
0.0
 40
0.5
 40
0.5
 40
0.75
 40
0.75
 40
1.0
 40
1.0
 40
1.0
 40
1.0
 10
842.372670668721
 20
-196.76296940961
 30
0.0
 10
841.860664517016
 20
-196.5724751201865
 30
0.0
 10
841.3409869707475
 20
-196.4508007071242
 30
0.0
 10
840.5411991131853
 20
-196.450144516593
 30
0.0
 10
840.2748751663373
 20
-196.4799785183873
 30
0.0
 10
839.7517176633359
 20
-196.5889083884949
 30
0.0
 10
839.4932530321875
 20
-196.6676035755578
 30
0.0
 10
839.2369309458654
 20
-196.7629694096105
 30
0.0
  0
SPLINE
  5
3FF
330
1F
100
AcDbEntity
  8
0
  6
Continuous
 62
     7
370
    25
100
AcDbSpline
210
0.0
220
0.0
230
1.0
 70
     8
 71
     3
 72
     9
 73
     5
 74
     0
 42
0.000000001
 43
0.00000001
 40
0.0
 40
0.0
 40
0.0
 40
0.0
 40
0.372234808695469
 40
1.0
 40
1.0
 40
1.0
 40
1.0
 10
839.2369309458654
 20
-196.7629694096111
 30
0.0
 10
839.2648971795371
 20
-196.7110451008375
 30
0.0
 10
839.340027804128
 20
-196.571551674751
 30
0.0
 10
839.4185716622849
 20
-196.5635429486458
 30
0.0
 10
839.4678787624263
 20
-196.5585153491703
 30
0.0
  0
LINE
  5
400
330
1F
100
AcDbEntity
  8
0
  6
Continuous
 62
     7
370
    25
100
AcDbLine
 10
846.1628208011
 20
-196.2482894242
 30
0.0
 11
839.8628208011
 21
-196.2482894242
 31
0.0
  0
LINE
  5
401
330
1F
100
AcDbEntity
  8
0
  6
Continuous
 62
     7
370
    25
100
AcDbLine
 10
846.1485605239
 20
-196.7629694096
 30
0.0
 11
846.1485605239
 21
-198.9336094388
 31
0.0
  0
SPLINE
  5
402
330
1F
100
AcDbEntity
  8
0
  6
Continuous
 62
     7
370
    25
100
AcDbSpline
210
0.0
220
0.0
230
1.0
 70
     8
 71
     3
 72
    12
 73
     8
 74
     0
 42
0.000000001
 43
0.00000001
 40
0.0
 40
0.0
 40
0.0
 40
0.0
 40
0.4999999999999811
 40
0.4999999999999811
 40
0.7499999999999906
 40
0.7499999999999906
 40
1.0
 40
1.0
 40
1.0
 40
1.0
 10
842.3726706687207
 20
-198.93360943884
 30
0.0
 10
842.9892010586409
 20
-199.1241037282635
 30
0.0
 10
843.6149689310906
 20
-199.2457781413259
 30
0.0
 10
844.5780306404757
 20
-199.2464343318572
 30
0.0
 10
844.8987236756054
 20
-199.2166003300627
 30
0.0
 10
845.5286819256012
 20
-199.1076704599551
 30
0.0
 10
845.8399111936324
 20
-199.0289752728923
 30
0.0
 10
846.1485605239168
 20
-198.9336094388395
 30
0.0
  0
LINE
  5
403
330
1F
100
AcDbEntity
  8
0
  6
Continuous
 62
     7
370
    25
100
AcDbLine
 10
842.3726706687
 20
-196.7629694096
 30
0.0
 11
842.3726706687
 21
-198.9336094388
 31
0.0
  0
SPLINE
  5
404
330
1F
100
AcDbEntity
  8
0
  6
Continuous
 62
     7
370
    25
100
AcDbSpline
210
0.0
220
0.0
230
1.0
 70
     8
 71
     3
 72
     9
 73
     5
 74
     0
 42
0.000000001
 43
0.00000001
 40
0.0
 40
0.0
 40
0.0
 40
0.0
 40
0.6277651913045291
 40
1.0
 40
1.0
 40
1.0
 40
1.0
 10
839.4678787624262
 20
-199.1380634992797
 30
0.0
 10
839.4185716622846
 20
-199.1330358998042
 30
0.0
 10
839.3400278041281
 20
-199.1250271736991
 30
0.0
 10
839.2648971795372
 20
-198.9855337476126
 30
0.0
 10
839.2369309458654
 20
-198.933609438839
 30
0.0
  0
SPLINE
  5
405
330
1F
100
AcDbEntity
  8
0
  6
Continuous
 62
     7
370
    25
100
AcDbSpline
210
0.0
220
0.0
230
1.0
 70
     8
 71
     3
 72
    12
 73
     8
 74
     0
 42
0.000000001
 43
0.00000001
 40
0.0
 40
0.0
 40
0.0
 40
0.0
 40
0.5
 40
0.5
 40
0.75
 40
0.75
 40
1.0
 40
1.0
 40
1.0
 40
1.0
 10
839.2369309458654
 20
-198.93360943884
 30
0.0
 10
839.7489370975701
 20
-199.1241037282635
 30
0.0
 10
840.2686146438385
 20
-199.2457781413259
 30
0.0
 10
841.068402501401
 20
-199.2464343318571
 30
0.0
 10
841.3347264482491
 20
-199.2166003300628
 30
0.0
 10
841.8578839512505
 20
-199.1076704599551
 30
0.0
 10
842.1163485823988
 20
-199.0289752728923
 30
0.0
 10
842.372670668721
 20
-198.9336094388395
 30
0.0
  0
SPLINE
  5
406
330
1F
100
AcDbEntity
  8
0
  6
Continuous
 62
     7
370
    25
100
AcDbSpline
210
0.0
220
0.0
230
1.0
 70
     8
 71
     3
 72
    14
 73
    10
 74
     0
 42
0.000000001
 43
0.00000001
 40
0.0
 40
0.0
 40
0.0
 40
0.0
 40
0.25
 40
0.25
 40
0.5
 40
0.5
 40
0.75
 40
0.75
 40
1.0
 40
1.0
 40
1.0
 40
1.0
 10
846.1485605239168
 20
-198.933609438839
 30
0.0
 10
846.2006182328074
 20
-199.0284840481496
 30
0.0
 10
846.2539517711358
 20
-199.1080889730254
 30
0.0
 10
846.3608837787639
 20
-199.2169255879196
 30
0.0
 10
846.4146371452114
 20
-199.2462491936101
 30
0.0
 10
846.522816196635
 20
-199.2461844118645
 30
0.0
 10
846.577644893223
 20
-199.2160282185382
 30
0.0
 10
846.6845518758829
 20
-199.1064430171724
 30
0.0
 10
846.7369733908552
 20
-199.0279000433703
 30
0.0
 10
846.7887106562573
 20
-198.933609438839
 30
0.0
  0
LINE
  5
407
330
1F
100
AcDbEntity
  8
0
  6
Continuous
 62
     7
370
    25
100
AcDbLine
 10
846.1628208011
 20
-199.4482894242
 30
0.0
 11
839.8628208011
 21
-199.4482894242
 31
0.0
  0
LINE
  5
408
330
1F
100
AcDbEntity
  8
0
  6
Continuous
 62
     7
370
    25
100
AcDbLine
 10
839.2369309459
 20
-196.7629694096
 30
0.0
 11
839.2369309459
 21
-198.9336094388
 31
0.0
  0
LINE
  5
409
330
1F
100
AcDbEntity
  8
0
  6
Continuous
 62
     7
370
    25
100
AcDbLine
 10
846.7887106563
 20
-196.7629694096
 30
0.0
 11
846.7887106563
 21
-198.9336094388
 31
0.0
  0
SPLINE
  5
40A
330
1F
100
AcDbEntity
  8
0
  6
Continuous
 62
     7
370
    25
100
AcDbSpline
210
0.0
220
0.0
230
1.0
 70
     8
 71
     3
 72
    14
 73
    10
 74
     0
 42
0.000000001
 43
0.00000001
 40
0.0
 40
0.0
 40
0.0
 40
0.0
 40
0.25
 40
0.25
 40
0.5
 40
0.5
 40
0.75
 40
0.75
 40
1.0
 40
1.0
 40
1.0
 40
1.0
 10
263.1485605239168
 20
-196.762969409611
 30
0.0
 10
263.2006182328076
 20
-196.6680948003004
 30
0.0
 10
263.2539517711357
 20
-196.5884898754246
 30
0.0
 10
263.3608837787638
 20
-196.4796532605304
 30
0.0
 10
263.4146371452114
 20
-196.4503296548399
 30
0.0
 10
263.5228161966351
 20
-196.4503944365855
 30
0.0
 10
263.577644893223
 20
-196.4805506299119
 30
0.0
 10
263.6845518758828
 20
-196.5901358312776
 30
0.0
 10
263.7369733908552
 20
-196.6686788050797
 30
0.0
 10
263.7887106562574
 20
-196.762969409611
 30
0.0
  0
SPLINE
  5
40B
330
1F
100
AcDbEntity
  8
0
  6
Continuous
 62
     7
370
    25
100
AcDbSpline
210
0.0
220
0.0
230
1.0
 70
     8
 71
     3
 72
    12
 73
     8
 74
     0
 42
0.000000001
 43
0.00000001
 40
0.0
 40
0.0
 40
0.0
 40
0.0
 40
0.5000000000000094
 40
0.5000000000000094
 40
0.7500000000000047
 40
0.7500000000000047
 40
1.0
 40
1.0
 40
1.0
 40
1.0
 10
263.1485605239169
 20
-196.76296940961
 30
0.0
 10
262.5320301339966
 20
-196.5724751201865
 30
0.0
 10
261.9062622615468
 20
-196.4508007071241
 30
0.0
 10
260.943200552162
 20
-196.4501445165929
 30
0.0
 10
260.6225075170322
 20
-196.4799785183873
 30
0.0
 10
259.9925492670363
 20
-196.5889083884949
 30
0.0
 10
259.6813199990054
 20
-196.6676035755578
 30
0.0
 10
259.3726706687208
 20
-196.7629694096105
 30
0.0
  0
SPLINE
  5
40C
330
1F
100
AcDbEntity
  8
0
  6
Continuous
 62
     7
370
    25
100
AcDbSpline
210
0.0
220
0.0
230
1.0
 70
     8
 71
     3
 72
    12
 73
     8
 74
     0
 42
0.000000001
 43
0.00000001
 40
0.0
 40
0.0
 40
0.0
 40
0.0
 40
0.4999999999999922
 40
0.4999999999999922
 40
0.7499999999999961
 40
0.7499999999999961
 40
1.0
 40
1.0
 40
1.0
 40
1.0
 10
259.372670668721
 20
-196.76296940961
 30
0.0
 10
258.8606645170161
 20
-196.5724751201865
 30
0.0
 10
258.3409869707478
 20
-196.4508007071242
 30
0.0
 10
257.5411991131853
 20
-196.4501445165929
 30
0.0
 10
257.2748751663373
 20
-196.4799785183873
 30
0.0
 10
256.7517176633358
 20
-196.5889083884949
 30
0.0
 10
256.4932530321876
 20
-196.6676035755578
 30
0.0
 10
256.2369309458655
 20
-196.7629694096105
 30
0.0
  0
SPLINE
  5
40D
330
1F
100
AcDbEntity
  8
0
  6
Continuous
 62
     7
370
    25
100
AcDbSpline
210
0.0
220
0.0
230
1.0
 70
     8
 71
     3
 72
     9
 73
     5
 74
     0
 42
0.000000001
 43
0.00000001
 40
0.0
 40
0.0
 40
0.0
 40
0.0
 40
0.3722348086954546
 40
1.0
 40
1.0
 40
1.0
 40
1.0
 10
256.2369309458655
 20
-196.762969409611
 30
0.0
 10
256.2648971795373
 20
-196.7110451008374
 30
0.0
 10
256.3400278041281
 20
-196.5715516747509
 30
0.0
 10
256.4185716622848
 20
-196.5635429486458
 30
0.0
 10
256.4678787624263
 20
-196.5585153491703
 30
0.0
  0
LINE
  5
40E
330
1F
100
AcDbEntity
  8
0
  6
Continuous
 62
     7
370
    25
100
AcDbLine
 10
263.1628208011
 20
-196.2482894242
 30
0.0
 11
256.8628208011
 21
-196.2482894242
 31
0.0
  0
LINE
  5
40F
330
1F
100
AcDbEntity
  8
0
  6
Continuous
 62
     7
370
    25
100
AcDbLine
 10
263.1485605239
 20
-196.7629694096
 30
0.0
 11
263.1485605239
 21
-198.9336094388
 31
0.0
  0
SPLINE
  5
410
330
1F
100
AcDbEntity
  8
0
  6
Continuous
 62
     7
370
    25
100
AcDbSpline
210
0.0
220
0.0
230
1.0
 70
     8
 71
     3
 72
    12
 73
     8
 74
     0
 42
0.000000001
 43
0.00000001
 40
0.0
 40
0.0
 40
0.0
 40
0.0
 40
0.4999999999999906
 40
0.4999999999999906
 40
0.7499999999999952
 40
0.7499999999999952
 40
1.0
 40
1.0
 40
1.0
 40
1.0
 10
259.3726706687207
 20
-198.93360943884
 30
0.0
 10
259.989201058641
 20
-199.1241037282635
 30
0.0
 10
260.6149689310907
 20
-199.2457781413259
 30
0.0
 10
261.5780306404757
 20
-199.2464343318571
 30
0.0
 10
261.8987236756054
 20
-199.2166003300627
 30
0.0
 10
262.5286819256013
 20
-199.1076704599551
 30
0.0
 10
262.8399111936322
 20
-199.0289752728923
 30
0.0
 10
263.1485605239169
 20
-198.9336094388395
 30
0.0
  0
LINE
  5
411
330
1F
100
AcDbEntity
  8
0
  6
Continuous
 62
     7
370
    25
100
AcDbLine
 10
259.3726706687
 20
-196.7629694096
 30
0.0
 11
259.3726706687
 21
-198.9336094388
 31
0.0
  0
SPLINE
  5
412
330
1F
100
AcDbEntity
  8
0
  6
Continuous
 62
     7
370
    25
100
AcDbSpline
210
0.0
220
0.0
230
1.0
 70
     8
 71
     3
 72
     9
 73
     5
 74
     0
 42
0.000000001
 43
0.00000001
 40
0.0
 40
0.0
 40
0.0
 40
0.0
 40
0.6277651913045457
 40
1.0
 40
1.0
 40
1.0
 40
1.0
 10
256.4678787624263
 20
-199.1380634992797
 30
0.0
 10
256.4185716622848
 20
-199.1330358998042
 30
0.0
 10
256.3400278041281
 20
-199.1250271736991
 30
0.0
 10
256.2648971795373
 20
-198.9855337476126
 30
0.0
 10
256.2369309458655
 20
-198.933609438839
 30
0.0
  0
SPLINE
  5
413
330
1F
100
AcDbEntity
  8
0
  6
Continuous
 62
     7
370
    25
100
AcDbSpline
210
0.0
220
0.0
230
1.0
 70
     8
 71
     3
 72
    12
 73
     8
 74
     0
 42
0.000000001
 43
0.00000001
 40
0.0
 40
0.0
 40
0.0
 40
0.0
 40
0.4999999999999922
 40
0.4999999999999922
 40
0.7499999999999961
 40
0.7499999999999961
 40
1.0
 40
1.0
 40
1.0
 40
1.0
 10
256.2369309458654
 20
-198.93360943884
 30
0.0
 10
256.7489370975703
 20
-199.1241037282635
 30
0.0
 10
257.2686146438386
 20
-199.2457781413259
 30
0.0
 10
258.0684025014012
 20
-199.2464343318571
 30
0.0
 10
258.3347264482492
 20
-199.2166003300627
 30
0.0
 10
258.8578839512505
 20
-199.1076704599551
 30
0.0
 10
259.1163485823989
 20
-199.0289752728923
 30
0.0
 10
259.372670668721
 20
-198.9336094388395
 30
0.0
  0
SPLINE
  5
414
330
1F
100
AcDbEntity
  8
0
  6
Continuous
 62
     7
370
    25
100
AcDbSpline
210
0.0
220
0.0
230
1.0
 70
     8
 71
     3
 72
    14
 73
    10
 74
     0
 42
0.000000001
 43
0.00000001
 40
0.0
 40
0.0
 40
0.0
 40
0.0
 40
0.25
 40
0.25
 40
0.5
 40
0.5
 40
0.75
 40
0.75
 40
1.0
 40
1.0
 40
1.0
 40
1.0
 10
263.1485605239168
 20
-198.933609438839
 30
0.0
 10
263.2006182328076
 20
-199.0284840481496
 30
0.0
 10
263.2539517711357
 20
-199.1080889730254
 30
0.0
 10
263.3608837787638
 20
-199.2169255879196
 30
0.0
 10
263.4146371452114
 20
-199.2462491936101
 30
0.0
 10
263.5228161966351
 20
-199.2461844118645
 30
0.0
 10
263.577644893223
 20
-199.2160282185381
 30
0.0
 10
263.6845518758828
 20
-199.1064430171724
 30
0.0
 10
263.7369733908552
 20
-199.0279000433703
 30
0.0
 10
263.7887106562574
 20
-198.933609438839
 30
0.0
  0
LINE
  5
415
330
1F
100
AcDbEntity
  8
0
  6
Continuous
 62
     7
370
    25
100
AcDbLine
 10
263.1628208011
 20
-199.4482894242
 30
0.0
 11
256.8628208011
 21
-199.4482894242
 31
0.0
  0
LINE
  5
416
330
1F
100
AcDbEntity
  8
0
  6
Continuous
 62
     7
370
    25
100
AcDbLine
 10
256.2369309459
 20
-196.7629694096
 30
0.0
 11
256.2369309459
 21
-198.9336094388
 31
0.0
  0
LINE
  5
417
330
1F
100
AcDbEntity
  8
0
  6
Continuous
 62
     7
370
    25
100
AcDbLine
 10
263.7887106563
 20
-196.7629694096
 30
0.0
 11
263.7887106563
 21
-198.9336094388
 31
0.0
  0
SPLINE
  5
418
330
1F
100
AcDbEntity
  8
0
  6
Continuous
 62
     7
370
    25
100
AcDbSpline
210
0.0
220
0.0
230
1.0
 70
     8
 71
     3
 72
    14
 73
    10
 74
     0
 42
0.000000001
 43
0.00000001
 40
0.0
 40
0.0
 40
0.0
 40
0.0
 40
0.25
 40
0.25
 40
0.5
 40
0.5
 40
0.75
 40
0.75
 40
1.0
 40
1.0
 40
1.0
 40
1.0
 10
566.1485605239167
 20
-196.762969409611
 30
0.0
 10
566.2006182328076
 20
-196.6680948003004
 30
0.0
 10
566.2539517711357
 20
-196.5884898754246
 30
0.0
 10
566.3608837787638
 20
-196.4796532605305
 30
0.0
 10
566.4146371452114
 20
-196.4503296548399
 30
0.0
 10
566.5228161966351
 20
-196.4503944365856
 30
0.0
 10
566.5776448932229
 20
-196.4805506299119
 30
0.0
 10
566.6845518758829
 20
-196.5901358312776
 30
0.0
 10
566.7369733908552
 20
-196.6686788050798
 30
0.0
 10
566.7887106562573
 20
-196.7629694096111
 30
0.0
  0
SPLINE
  5
419
330
1F
100
AcDbEntity
  8
0
  6
Continuous
 62
     7
370
    25
100
AcDbSpline
210
0.0
220
0.0
230
1.0
 70
     8
 71
     3
 72
    12
 73
     8
 74
     0
 42
0.000000001
 43
0.00000001
 40
0.0
 40
0.0
 40
0.0
 40
0.0
 40
0.5000000000000094
 40
0.5000000000000094
 40
0.7500000000000047
 40
0.7500000000000047
 40
1.0
 40
1.0
 40
1.0
 40
1.0
 10
566.1485605239169
 20
-196.76296940961
 30
0.0
 10
565.5320301339966
 20
-196.5724751201865
 30
0.0
 10
564.9062622615469
 20
-196.4508007071242
 30
0.0
 10
563.943200552162
 20
-196.4501445165929
 30
0.0
 10
563.6225075170322
 20
-196.4799785183873
 30
0.0
 10
562.9925492670363
 20
-196.5889083884949
 30
0.0
 10
562.6813199990054
 20
-196.6676035755578
 30
0.0
 10
562.3726706687207
 20
-196.7629694096105
 30
0.0
  0
SPLINE
  5
41A
330
1F
100
AcDbEntity
  8
0
  6
Continuous
 62
     7
370
    25
100
AcDbSpline
210
0.0
220
0.0
230
1.0
 70
     8
 71
     3
 72
    12
 73
     8
 74
     0
 42
0.000000001
 43
0.00000001
 40
0.0
 40
0.0
 40
0.0
 40
0.0
 40
0.4999999999999922
 40
0.4999999999999922
 40
0.7499999999999961
 40
0.7499999999999961
 40
1.0
 40
1.0
 40
1.0
 40
1.0
 10
562.372670668721
 20
-196.76296940961
 30
0.0
 10
561.8606645170161
 20
-196.5724751201865
 30
0.0
 10
561.3409869707477
 20
-196.4508007071242
 30
0.0
 10
560.5411991131853
 20
-196.4501445165929
 30
0.0
 10
560.2748751663371
 20
-196.4799785183873
 30
0.0
 10
559.7517176633357
 20
-196.5889083884949
 30
0.0
 10
559.4932530321876
 20
-196.6676035755578
 30
0.0
 10
559.2369309458654
 20
-196.7629694096105
 30
0.0
  0
SPLINE
  5
41B
330
1F
100
AcDbEntity
  8
0
  6
Continuous
 62
     7
370
    25
100
AcDbSpline
210
0.0
220
0.0
230
1.0
 70
     8
 71
     3
 72
     9
 73
     5
 74
     0
 42
0.000000001
 43
0.00000001
 40
0.0
 40
0.0
 40
0.0
 40
0.0
 40
0.3722348086954546
 40
1.0
 40
1.0
 40
1.0
 40
1.0
 10
559.2369309458655
 20
-196.7629694096111
 30
0.0
 10
559.2648971795373
 20
-196.7110451008375
 30
0.0
 10
559.3400278041281
 20
-196.571551674751
 30
0.0
 10
559.4185716622848
 20
-196.5635429486458
 30
0.0
 10
559.4678787624263
 20
-196.5585153491703
 30
0.0
  0
LINE
  5
41C
330
1F
100
AcDbEntity
  8
0
  6
Continuous
 62
     7
370
    25
100
AcDbLine
 10
566.1628208011
 20
-196.2482894242
 30
0.0
 11
559.8628208011
 21
-196.2482894242
 31
0.0
  0
LINE
  5
41D
330
1F
100
AcDbEntity
  8
0
  6
Continuous
 62
     7
370
    25
100
AcDbLine
 10
566.1485605239
 20
-196.7629694096
 30
0.0
 11
566.1485605239
 21
-198.9336094388
 31
0.0
  0
SPLINE
  5
41E
330
1F
100
AcDbEntity
  8
0
  6
Continuous
 62
     7
370
    25
100
AcDbSpline
210
0.0
220
0.0
230
1.0
 70
     8
 71
     3
 72
    12
 73
     8
 74
     0
 42
0.000000001
 43
0.00000001
 40
0.0
 40
0.0
 40
0.0
 40
0.0
 40
0.4999999999999906
 40
0.4999999999999906
 40
0.7499999999999952
 40
0.7499999999999952
 40
1.0
 40
1.0
 40
1.0
 40
1.0
 10
562.3726706687206
 20
-198.93360943884
 30
0.0
 10
562.989201058641
 20
-199.1241037282635
 30
0.0
 10
563.6149689310909
 20
-199.2457781413259
 30
0.0
 10
564.5780306404757
 20
-199.2464343318571
 30
0.0
 10
564.8987236756053
 20
-199.2166003300628
 30
0.0
 10
565.5286819256014
 20
-199.1076704599551
 30
0.0
 10
565.8399111936324
 20
-199.0289752728923
 30
0.0
 10
566.1485605239168
 20
-198.9336094388395
 30
0.0
  0
LINE
  5
41F
330
1F
100
AcDbEntity
  8
0
  6
Continuous
 62
     7
370
    25
100
AcDbLine
 10
562.3726706687
 20
-196.7629694096
 30
0.0
 11
562.3726706687
 21
-198.9336094388
 31
0.0
  0
SPLINE
  5
420
330
1F
100
AcDbEntity
  8
0
  6
Continuous
 62
     7
370
    25
100
AcDbSpline
210
0.0
220
0.0
230
1.0
 70
     8
 71
     3
 72
     9
 73
     5
 74
     0
 42
0.000000001
 43
0.00000001
 40
0.0
 40
0.0
 40
0.0
 40
0.0
 40
0.6277651913045457
 40
1.0
 40
1.0
 40
1.0
 40
1.0
 10
559.4678787624263
 20
-199.1380634992797
 30
0.0
 10
559.4185716622848
 20
-199.1330358998042
 30
0.0
 10
559.3400278041281
 20
-199.1250271736991
 30
0.0
 10
559.2648971795373
 20
-198.9855337476126
 30
0.0
 10
559.2369309458655
 20
-198.933609438839
 30
0.0
  0
SPLINE
  5
421
330
1F
100
AcDbEntity
  8
0
  6
Continuous
 62
     7
370
    25
100
AcDbSpline
210
0.0
220
0.0
230
1.0
 70
     8
 71
     3
 72
    12
 73
     8
 74
     0
 42
0.000000001
 43
0.00000001
 40
0.0
 40
0.0
 40
0.0
 40
0.0
 40
0.4999999999999922
 40
0.4999999999999922
 40
0.7499999999999961
 40
0.7499999999999961
 40
1.0
 40
1.0
 40
1.0
 40
1.0
 10
559.2369309458653
 20
-198.93360943884
 30
0.0
 10
559.7489370975703
 20
-199.1241037282635
 30
0.0
 10
560.2686146438386
 20
-199.2457781413259
 30
0.0
 10
561.0684025014011
 20
-199.2464343318572
 30
0.0
 10
561.3347264482491
 20
-199.2166003300628
 30
0.0
 10
561.8578839512505
 20
-199.1076704599551
 30
0.0
 10
562.1163485823988
 20
-199.0289752728923
 30
0.0
 10
562.3726706687208
 20
-198.9336094388395
 30
0.0
  0
SPLINE
  5
422
330
1F
100
AcDbEntity
  8
0
  6
Continuous
 62
     7
370
    25
100
AcDbSpline
210
0.0
220
0.0
230
1.0
 70
     8
 71
     3
 72
    14
 73
    10
 74
     0
 42
0.000000001
 43
0.00000001
 40
0.0
 40
0.0
 40
0.0
 40
0.0
 40
0.25
 40
0.25
 40
0.5
 40
0.5
 40
0.75
 40
0.75
 40
1.0
 40
1.0
 40
1.0
 40
1.0
 10
566.1485605239167
 20
-198.933609438839
 30
0.0
 10
566.2006182328076
 20
-199.0284840481497
 30
0.0
 10
566.2539517711357
 20
-199.1080889730254
 30
0.0
 10
566.3608837787638
 20
-199.2169255879196
 30
0.0
 10
566.4146371452114
 20
-199.2462491936101
 30
0.0
 10
566.5228161966351
 20
-199.2461844118645
 30
0.0
 10
566.5776448932229
 20
-199.2160282185382
 30
0.0
 10
566.6845518758829
 20
-199.1064430171724
 30
0.0
 10
566.7369733908552
 20
-199.0279000433703
 30
0.0
 10
566.7887106562573
 20
-198.933609438839
 30
0.0
  0
LINE
  5
423
330
1F
100
AcDbEntity
  8
0
  6
Continuous
 62
     7
370
    25
100
AcDbLine
 10
566.1628208011
 20
-199.4482894242
 30
0.0
 11
559.8628208011
 21
-199.4482894242
 31
0.0
  0
LINE
  5
424
330
1F
100
AcDbEntity
  8
0
  6
Continuous
 62
     7
370
    25
100
AcDbLine
 10
559.2369309459
 20
-196.7629694096
 30
0.0
 11
559.2369309459
 21
-198.9336094388
 31
0.0
  0
LINE
  5
425
330
1F
100
AcDbEntity
  8
0
  6
Continuous
 62
     7
370
    25
100
AcDbLine
 10
566.7887106563
 20
-196.7629694096
 30
0.0
 11
566.7887106563
 21
-198.9336094388
 31
0.0
  0
SPLINE
  5
426
330
1F
100
AcDbEntity
  8
0
  6
Continuous
 62
     7
370
    25
100
AcDbSpline
210
0.0
220
0.0
230
1.0
 70
     8
 71
     3
 72
    14
 73
    10
 74
     0
 42
0.000000001
 43
0.00000001
 40
0.0
 40
0.0
 40
0.0
 40
0.0
 40
0.25
 40
0.25
 40
0.5
 40
0.5
 40
0.75
 40
0.75
 40
1.0
 40
1.0
 40
1.0
 40
1.0
 10
-16.85143947608325
 20
-196.762969409611
 30
0.0
 10
-16.79938176719237
 20
-196.6680948003004
 30
0.0
 10
-16.74604822886439
 20
-196.5884898754246
 30
0.0
 10
-16.63911622123615
 20
-196.4796532605304
 30
0.0
 10
-16.58536285478873
 20
-196.4503296548399
 30
0.0
 10
-16.47718380336499
 20
-196.4503944365855
 30
0.0
 10
-16.42235510677698
 20
-196.4805506299118
 30
0.0
 10
-16.31544812411711
 20
-196.5901358312775
 30
0.0
 10
-16.2630266091448
 20
-196.6686788050797
 30
0.0
 10
-16.21128934374266
 20
-196.762969409611
 30
0.0
  0
SPLINE
  5
427
330
1F
100
AcDbEntity
  8
0
  6
Continuous
 62
     7
370
    25
100
AcDbSpline
210
0.0
220
0.0
230
1.0
 70
     8
 71
     3
 72
    12
 73
     8
 74
     0
 42
0.000000001
 43
0.00000001
 40
0.0
 40
0.0
 40
0.0
 40
0.0
 40
0.4999999999999811
 40
0.4999999999999811
 40
0.7499999999999906
 40
0.7499999999999906
 40
1.0
 40
1.0
 40
1.0
 40
1.0
 10
-16.85143947608314
 20
-196.76296940961
 30
0.0
 10
-17.46796986600346
 20
-196.5724751201865
 30
0.0
 10
-18.09373773845319
 20
-196.4508007071241
 30
0.0
 10
-19.05679944783811
 20
-196.4501445165929
 30
0.0
 10
-19.37749248296788
 20
-196.4799785183872
 30
0.0
 10
-20.00745073296362
 20
-196.5889083884948
 30
0.0
 10
-20.31868000099474
 20
-196.6676035755577
 30
0.0
 10
-20.62732933127925
 20
-196.7629694096105
 30
0.0
  0
SPLINE
  5
428
330
1F
100
AcDbEntity
  8
0
  6
Continuous
 62
     7
370
    25
100
AcDbSpline
210
0.0
220
0.0
230
1.0
 70
     8
 71
     3
 72
    12
 73
     8
 74
     0
 42
0.000000001
 43
0.00000001
 40
0.0
 40
0.0
 40
0.0
 40
0.0
 40
0.5
 40
0.5
 40
0.75
 40
0.75
 40
1.0
 40
1.0
 40
1.0
 40
1.0
 10
-20.62732933127909
 20
-196.76296940961
 30
0.0
 10
-21.13933548298391
 20
-196.5724751201865
 30
0.0
 10
-21.65901302925233
 20
-196.4508007071241
 30
0.0
 10
-22.4588008868149
 20
-196.4501445165929
 30
0.0
 10
-22.72512483366279
 20
-196.4799785183873
 30
0.0
 10
-23.24828233666437
 20
-196.5889083884948
 30
0.0
 10
-23.50674696781257
 20
-196.6676035755577
 30
0.0
 10
-23.76306905413461
 20
-196.7629694096105
 30
0.0
  0
SPLINE
  5
429
330
1F
100
AcDbEntity
  8
0
  6
Continuous
 62
     7
370
    25
100
AcDbSpline
210
0.0
220
0.0
230
1.0
 70
     8
 71
     3
 72
     9
 73
     5
 74
     0
 42
0.000000001
 43
0.00000001
 40
0.0
 40
0.0
 40
0.0
 40
0.0
 40
0.372234808695469
 40
1.0
 40
1.0
 40
1.0
 40
1.0
 10
-23.76306905413455
 20
-196.762969409611
 30
0.0
 10
-23.73510282046276
 20
-196.7110451008374
 30
0.0
 10
-23.65997219587185
 20
-196.5715516747509
 30
0.0
 10
-23.58142833771526
 20
-196.5635429486458
 30
0.0
 10
-23.53212123757375
 20
-196.5585153491703
 30
0.0
  0
LINE
  5
42A
330
1F
100
AcDbEntity
  8
0
  6
Continuous
 62
     7
370
    25
100
AcDbLine
 10
-16.8371791989
 20
-196.2482894242
 30
0.0
 11
-23.1371791989
 21
-196.2482894242
 31
0.0
  0
LINE
  5
42B
330
1F
100
AcDbEntity
  8
0
  6
Continuous
 62
     7
370
    25
100
AcDbLine
 10
-16.8514394761
 20
-196.7629694096
 30
0.0
 11
-16.8514394761
 21
-198.9336094388
 31
0.0
  0
SPLINE
  5
42C
330
1F
100
AcDbEntity
  8
0
  6
Continuous
 62
     7
370
    25
100
AcDbSpline
210
0.0
220
0.0
230
1.0
 70
     8
 71
     3
 72
    12
 73
     8
 74
     0
 42
0.000000001
 43
0.00000001
 40
0.0
 40
0.0
 40
0.0
 40
0.0
 40
0.4999999999999811
 40
0.4999999999999811
 40
0.7499999999999906
 40
0.7499999999999906
 40
1.0
 40
1.0
 40
1.0
 40
1.0
 10
-20.62732933127937
 20
-198.9336094388399
 30
0.0
 10
-20.01079894135921
 20
-199.1241037282635
 30
0.0
 10
-19.38503106890932
 20
-199.2457781413258
 30
0.0
 10
-18.42196935952434
 20
-199.2464343318571
 30
0.0
 10
-18.10127632439479
 20
-199.2166003300627
 30
0.0
 10
-17.47131807439872
 20
-199.1076704599551
 30
0.0
 10
-17.16008880636793
 20
-199.0289752728922
 30
0.0
 10
-16.8514394760832
 20
-198.9336094388395
 30
0.0
  0
LINE
  5
42D
330
1F
100
AcDbEntity
  8
0
  6
Continuous
 62
     7
370
    25
100
AcDbLine
 10
-20.6273293313
 20
-196.7629694096
 30
0.0
 11
-20.6273293313
 21
-198.9336094388
 31
0.0
  0
SPLINE
  5
42E
330
1F
100
AcDbEntity
  8
0
  6
Continuous
 62
     7
370
    25
100
AcDbSpline
210
0.0
220
0.0
230
1.0
 70
     8
 71
     3
 72
     9
 73
     5
 74
     0
 42
0.000000001
 43
0.00000001
 40
0.0
 40
0.0
 40
0.0
 40
0.0
 40
0.6277651913045291
 40
1.0
 40
1.0
 40
1.0
 40
1.0
 10
-23.53212123757381
 20
-199.1380634992796
 30
0.0
 10
-23.58142833771532
 20
-199.1330358998042
 30
0.0
 10
-23.65997219587196
 20
-199.125027173699
 30
0.0
 10
-23.73510282046282
 20
-198.9855337476125
 30
0.0
 10
-23.76306905413455
 20
-198.9336094388389
 30
0.0
  0
SPLINE
  5
42F
330
1F
100
AcDbEntity
  8
0
  6
Continuous
 62
     7
370
    25
100
AcDbSpline
210
0.0
220
0.0
230
1.0
 70
     8
 71
     3
 72
    12
 73
     8
 74
     0
 42
0.000000001
 43
0.00000001
 40
0.0
 40
0.0
 40
0.0
 40
0.0
 40
0.5
 40
0.5
 40
0.75
 40
0.75
 40
1.0
 40
1.0
 40
1.0
 40
1.0
 10
-23.76306905413467
 20
-198.9336094388399
 30
0.0
 10
-23.25106290242962
 20
-199.1241037282634
 30
0.0
 10
-22.73138535616132
 20
-199.2457781413258
 30
0.0
 10
-21.93159749859902
 20
-199.2464343318571
 30
0.0
 10
-21.66527355175096
 20
-199.2166003300627
 30
0.0
 10
-21.14211604874955
 20
-199.1076704599551
 30
0.0
 10
-20.88365141760118
 20
-199.0289752728922
 30
0.0
 10
-20.62732933127914
 20
-198.9336094388395
 30
0.0
  0
SPLINE
  5
430
330
1F
100
AcDbEntity
  8
0
  6
Continuous
 62
     7
370
    25
100
AcDbSpline
210
0.0
220
0.0
230
1.0
 70
     8
 71
     3
 72
    14
 73
    10
 74
     0
 42
0.000000001
 43
0.00000001
 40
0.0
 40
0.0
 40
0.0
 40
0.0
 40
0.25
 40
0.25
 40
0.5
 40
0.5
 40
0.75
 40
0.75
 40
1.0
 40
1.0
 40
1.0
 40
1.0
 10
-16.85143947608325
 20
-198.933609438839
 30
0.0
 10
-16.79938176719237
 20
-199.0284840481496
 30
0.0
 10
-16.74604822886439
 20
-199.1080889730253
 30
0.0
 10
-16.63911622123615
 20
-199.2169255879195
 30
0.0
 10
-16.58536285478873
 20
-199.24624919361
 30
0.0
 10
-16.47718380336499
 20
-199.2461844118644
 30
0.0
 10
-16.42235510677698
 20
-199.2160282185381
 30
0.0
 10
-16.31544812411711
 20
-199.1064430171724
 30
0.0
 10
-16.2630266091448
 20
-199.0279000433702
 30
0.0
 10
-16.21128934374266
 20
-198.9336094388389
 30
0.0
  0
LINE
  5
431
330
1F
100
AcDbEntity
  8
0
  6
Continuous
 62
     7
370
    25
100
AcDbLine
 10
-16.8371791989
 20
-199.4482894242
 30
0.0
 11
-23.1371791989
 21
-199.4482894242
 31
0.0
  0
LINE
  5
432
330
1F
100
AcDbEntity
  8
0
  6
Continuous
 62
     7
370
    25
100
AcDbLine
 10
-23.7630690541
 20
-196.7629694096
 30
0.0
 11
-23.7630690541
 21
-198.9336094388
 31
0.0
  0
LINE
  5
433
330
1F
100
AcDbEntity
  8
0
  6
Continuous
 62
     7
370
    25
100
AcDbLine
 10
-16.2112893437
 20
-196.7629694096
 30
0.0
 11
-16.2112893437
 21
-198.9336094388
 31
0.0
  0
LINE
  5
434
330
1F
100
AcDbEntity
  8
0
  6
Continuous
 62
     7
370
    25
100
AcDbLine
 10
-39.9871791989
 20
-200.3482894242
 30
0.0
 11
863.0128208011
 21
-200.3482894242
 31
0.0
  0
LINE
  5
435
330
1F
100
AcDbEntity
  8
0
  6
Continuous
 62
     7
370
    25
100
AcDbLine
 10
863.0128208011
 20
-200.3482894242
 30
0.0
 11
863.0128208011
 21
-202.1482894242
 31
0.0
  0
LINE
  5
436
330
1F
100
AcDbEntity
  8
0
  6
Continuous
 62
     7
370
    25
100
AcDbLine
 10
-39.9871791989
 20
-202.1482894242
 30
0.0
 11
-39.9871791989
 21
-200.3482894242
 31
0.0
  0
LINE
  5
437
330
1F
100
AcDbEntity
  8
0
  6
Continuous
 62
     7
370
    25
100
AcDbLine
 10
-40.9871791989
 20
-212.8982894242
 30
0.0
 11
-40.9081094315
 21
-212.0482894242
 31
0.0
  0
LINE
  5
438
330
1F
100
AcDbEntity
  8
0
  6
Continuous
 62
     7
370
    25
100
AcDbLine
 10
863.9337510336
 20
-212.0482894242
 30
0.0
 11
864.0128208011
 21
-212.8982894242
 31
0.0
  0
LINE
  5
439
330
1F
100
AcDbEntity
  8
0
  6
Continuous
 62
     7
370
    25
100
AcDbLine
 10
-40.9081094315
 20
-212.0482894242
 30
0.0
 11
-39.9871791989
 21
-202.1482894242
 31
0.0
  0
LINE
  5
43A
330
1F
100
AcDbEntity
  8
0
  6
Continuous
 62
     7
370
    25
100
AcDbLine
 10
863.0128208011
 20
-202.1482894242
 30
0.0
 11
863.9337510336
 21
-212.0482894242
 31
0.0
  0
LINE
  5
43B
330
1F
100
AcDbEntity
  8
0
  6
Continuous
 62
     7
370
    25
100
AcDbLine
 10
842.6960286429
 20
-191.1482894242
 30
0.0
 11
845.0128208011
 21
-191.1482894242
 31
0.0
  0
LINE
  5
43C
330
1F
100
AcDbEntity
  8
0
  6
Continuous
 62
     7
370
    25
100
AcDbLine
 10
841.0128208011
 20
-191.1482894242
 30
0.0
 11
842.6960286429
 21
-191.1482894242
 31
0.0
  0
LINE
  5
43D
330
1F
100
AcDbEntity
  8
0
  6
Continuous
 62
     7
370
    25
100
AcDbLine
 10
259.6960286429
 20
-191.1482894242
 30
0.0
 11
262.0128208011
 21
-191.1482894242
 31
0.0
  0
LINE
  5
43E
330
1F
100
AcDbEntity
  8
0
  6
Continuous
 62
     7
370
    25
100
AcDbLine
 10
258.0128208011
 20
-191.1482894242
 30
0.0
 11
259.6960286429
 21
-191.1482894242
 31
0.0
  0
LINE
  5
43F
330
1F
100
AcDbEntity
  8
0
  6
Continuous
 62
     7
370
    25
100
AcDbLine
 10
562.6960286429
 20
-191.1482894242
 30
0.0
 11
565.0128208011
 21
-191.1482894242
 31
0.0
  0
LINE
  5
440
330
1F
100
AcDbEntity
  8
0
  6
Continuous
 62
     7
370
    25
100
AcDbLine
 10
561.0128208011
 20
-191.1482894242
 30
0.0
 11
562.6960286429
 21
-191.1482894242
 31
0.0
  0
LINE
  5
441
330
1F
100
AcDbEntity
  8
0
  6
Continuous
 62
     7
370
    25
100
AcDbLine
 10
-20.3039713571
 20
-191.1482894242
 30
0.0
 11
-17.9871791989
 21
-191.1482894242
 31
0.0
  0
LINE
  5
442
330
1F
100
AcDbEntity
  8
0
  6
Continuous
 62
     7
370
    25
100
AcDbLine
 10
-21.9871791989
 20
-191.1482894242
 30
0.0
 11
-20.3039713571
 21
-191.1482894242
 31
0.0
  0
LINE
  5
443
330
1F
100
AcDbEntity
  8
0
  6
Continuous
 62
     7
370
    25
100
AcDbLine
 10
865.5128208011
 20
-181.9482894242
 30
0.0
 11
865.5128208011
 21
-184.8482894242
 31
0.0
  0
LINE
  5
444
330
1F
100
AcDbEntity
  8
0
  6
Continuous
 62
     7
370
    25
100
AcDbLine
 10
865.5128208011
 20
-190.8482894242
 30
0.0
 11
865.5128208011
 21
-210.9482894242
 31
0.0
  0
LINE
  5
445
330
1F
100
AcDbEntity
  8
0
  6
Continuous
 62
     7
370
    25
100
AcDbLine
 10
863.5128208011
 20
-198.3482894242
 30
0.0
 11
863.5128208011
 21
-207.5232894242
 31
0.0
  0
LINE
  5
446
330
1F
100
AcDbEntity
  8
0
  6
Continuous
 62
     7
370
    25
100
AcDbLine
 10
864.5128208011
 20
-179.9482894242
 30
0.0
 11
865.5128208011
 21
-179.9482894242
 31
0.0
  0
LINE
  5
447
330
1F
100
AcDbEntity
  8
0
  6
Continuous
 62
     7
370
    25
100
AcDbLine
 10
865.5128208011
 20
-179.9482894242
 30
0.0
 11
865.5128208011
 21
-181.9482894242
 31
0.0
  0
LINE
  5
448
330
1F
100
AcDbEntity
  8
0
  6
Continuous
 62
     7
370
    25
100
AcDbLine
 10
865.5111536712
 20
-211.0482894242
 30
0.0
 11
865.5128208011
 21
-210.9482894242
 31
0.0
  0
LINE
  5
449
330
1F
100
AcDbEntity
  8
0
  6
Continuous
 62
     7
370
    25
100
AcDbLine
 10
865.5128208011
 20
-195.9482894242
 30
0.0
 11
865.5731281803
 21
-195.9482894242
 31
0.0
  0
LINE
  5
44A
330
1F
100
AcDbEntity
  8
0
  6
Continuous
 62
     7
370
    25
100
AcDbLine
 10
865.5731281803
 20
-179.9482894242
 30
0.0
 11
865.5128208011
 21
-179.9482894242
 31
0.0
  0
LWPOLYLINE
  5
44B
330
1F
100
AcDbEntity
  8
0
  6
Continuous
 62
     7
370
    25
100
AcDbPolyline
 90
        9
 70
   128
 43
0.0
 10
868.1283671892
 20
-181.9482894242
 10
868.1152235469
 20
-181.5581087802
 10
868.0762977228
 20
-181.1829225595
 10
868.0130856145
 20
-180.8371489582
 10
867.9280164279
 20
-180.5340758619
 10
867.824359324
 20
-180.2853501996
 10
867.7060977874
 20
-180.1005303592
 10
867.5777765424
 20
-179.9867188634
 10
867.4443269026
 20
-179.9482894242
  0
LINE
  5
44C
330
1F
100
AcDbEntity
  8
0
  6
Continuous
 62
     7
370
    25
100
AcDbLine
 10
868.1283671892
 20
-181.9482894242
 30
0.0
 11
868.1283671892
 21
-184.8482894242
 31
0.0
  0
LINE
  5
44D
330
1F
100
AcDbEntity
  8
0
  6
Continuous
 62
     7
370
    25
100
AcDbLine
 10
868.1283671892
 20
-190.8482894242
 30
0.0
 11
868.1283671892
 21
-193.9482894242
 31
0.0
  0
LWPOLYLINE
  5
44E
330
1F
100
AcDbEntity
  8
0
  6
Continuous
 62
     7
370
    25
100
AcDbPolyline
 90
        9
 70
   128
 43
0.0
 10
867.4443269026
 20
-195.9482894242
 10
867.5777765424
 20
-195.909859985
 10
867.7060977874
 20
-195.7960484892
 10
867.824359324
 20
-195.6112286488
 10
867.9280164279
 20
-195.3625029866
 10
868.0130856145
 20
-195.0594298903
 10
868.0762977228
 20
-194.713656289
 10
868.1152235469
 20
-194.3384700683
 10
868.1283671892
 20
-193.9482894242
  0
LINE
  5
44F
330
1F
100
AcDbEntity
  8
0
  6
Continuous
 62
     7
370
    25
100
AcDbLine
 10
867.4443269026
 20
-195.9482894242
 30
0.0
 11
865.5731281803
 21
-195.9482894242
 31
0.0
  0
LINE
  5
450
330
1F
100
AcDbEntity
  8
0
  6
Continuous
 62
     7
370
    25
100
AcDbLine
 10
865.5731281803
 20
-179.9482894242
 30
0.0
 11
867.4443269026
 21
-179.9482894242
 31
0.0
  0
LINE
  5
451
330
1F
100
AcDbEntity
  8
0
  6
Continuous
 62
     7
370
    25
100
AcDbLine
 10
-42.4871791989
 20
-210.9482894242
 30
0.0
 11
-42.4871791989
 21
-190.8482894242
 31
0.0
  0
LINE
  5
452
330
1F
100
AcDbEntity
  8
0
  6
Continuous
 62
     7
370
    25
100
AcDbLine
 10
-42.4871791989
 20
-184.8482894242
 30
0.0
 11
-42.4871791989
 21
-181.9482894242
 31
0.0
  0
LINE
  5
453
330
1F
100
AcDbEntity
  8
0
  6
Continuous
 62
     7
370
    25
100
AcDbLine
 10
-40.4871791989
 20
-207.5232894242
 30
0.0
 11
-40.4871791989
 21
-198.3482894242
 31
0.0
  0
LINE
  5
454
330
1F
100
AcDbEntity
  8
0
  6
Continuous
 62
     7
370
    25
100
AcDbLine
 10
-42.4871791989
 20
-179.9482894242
 30
0.0
 11
-41.4871791989
 21
-179.9482894242
 31
0.0
  0
LINE
  5
455
330
1F
100
AcDbEntity
  8
0
  6
Continuous
 62
     7
370
    25
100
AcDbLine
 10
-42.4871791989
 20
-181.9482894242
 30
0.0
 11
-42.4871791989
 21
-179.9482894242
 31
0.0
  0
LINE
  5
456
330
1F
100
AcDbEntity
  8
0
  6
Continuous
 62
     7
370
    25
100
AcDbLine
 10
-42.4871791989
 20
-210.9482894242
 30
0.0
 11
-42.4855120691
 21
-211.0482894242
 31
0.0
  0
LINE
  5
457
330
1F
100
AcDbEntity
  8
0
  6
Continuous
 62
     7
370
    25
100
AcDbLine
 10
-42.5474865782
 20
-195.9482894242
 30
0.0
 11
-42.4871791989
 21
-195.9482894242
 31
0.0
  0
LINE
  5
458
330
1F
100
AcDbEntity
  8
0
  6
Continuous
 62
     7
370
    25
100
AcDbLine
 10
-42.4871791989
 20
-179.9482894242
 30
0.0
 11
-42.5474865782
 21
-179.9482894242
 31
0.0
  0
LWPOLYLINE
  5
459
330
1F
100
AcDbEntity
  8
0
  6
Continuous
 62
     7
370
    25
100
AcDbPolyline
 90
        9
 70
   128
 43
0.0
 10
-44.4186853005
 20
-179.9482894242
 10
-44.5521349403
 20
-179.9867188634
 10
-44.6804561852
 20
-180.1005303592
 10
-44.7987177219
 20
-180.2853501996
 10
-44.9023748258
 20
-180.5340758619
 10
-44.9874440124
 20
-180.8371489582
 10
-45.0506561207
 20
-181.1829225595
 10
-45.0895819448
 20
-181.5581087802
 10
-45.1027255871
 20
-181.9482894242
  0
LINE
  5
45A
330
1F
100
AcDbEntity
  8
0
  6
Continuous
 62
     7
370
    25
100
AcDbLine
 10
-44.4186853005
 20
-179.9482894242
 30
0.0
 11
-42.5474865782
 21
-179.9482894242
 31
0.0
  0
LINE
  5
45B
330
1F
100
AcDbEntity
  8
0
  6
Continuous
 62
     7
370
    25
100
AcDbLine
 10
-42.5474865782
 20
-195.9482894242
 30
0.0
 11
-44.4186853005
 21
-195.9482894242
 31
0.0
  0
LWPOLYLINE
  5
45C
330
1F
100
AcDbEntity
  8
0
  6
Continuous
 62
     7
370
    25
100
AcDbPolyline
 90
        9
 70
   128
 43
0.0
 10
-45.1027255871
 20
-193.9482894242
 10
-45.0895819448
 20
-194.3384700683
 10
-45.0506561207
 20
-194.713656289
 10
-44.9874440124
 20
-195.0594298903
 10
-44.9023748258
 20
-195.3625029866
 10
-44.7987177219
 20
-195.6112286488
 10
-44.6804561852
 20
-195.7960484892
 10
-44.5521349403
 20
-195.909859985
 10
-44.4186853005
 20
-195.9482894242
  0
LINE
  5
45D
330
1F
100
AcDbEntity
  8
0
  6
Continuous
 62
     7
370
    25
100
AcDbLine
 10
-45.1027255871
 20
-193.9482894242
 30
0.0
 11
-45.1027255871
 21
-190.8482894242
 31
0.0
  0
LINE
  5
45E
330
1F
100
AcDbEntity
  8
0
  6
Continuous
 62
     7
370
    25
100
AcDbLine
 10
-45.1027255871
 20
-184.8482894242
 30
0.0
 11
-45.1027255871
 21
-181.9482894242
 31
0.0
  0
SPLINE
  5
45F
330
1F
100
AcDbEntity
  8
0
  6
Continuous
 62
     7
370
    25
100
AcDbSpline
210
0.0
220
0.0
230
1.0
 70
    24
 71
     3
 72
     9
 73
     5
 74
     0
 42
0.000000001
 43
0.00000001
 40
0.0
 40
0.0
 40
0.0
 40
0.0
 40
0.7059102712416074
 40
1.0
 40
1.0
 40
1.0
 40
1.0
 10
-40.68717919893822
 20
-182.0750406148355
 30
0.0
 10
-40.68717919893827
 20
-182.0647878455389
 30
0.0
 10
-40.68717919893833
 20
-182.0502636634802
 30
0.0
 10
-40.68717919893816
 20
-182.1453156200883
 30
0.0
 10
-40.68717919893816
 20
-182.1732694242251
 30
0.0
  0
SPLINE
  5
460
330
1F
100
AcDbEntity
  8
0
  6
Continuous
 62
     7
370
    25
100
AcDbSpline
210
0.0
220
0.0
230
1.0
 70
    24
 71
     3
 72
    12
 73
     8
 74
     0
 42
0.000000001
 43
0.00000001
 40
0.0
 40
0.0
 40
0.0
 40
0.0
 40
0.3344405486782611
 40
0.5144757571369835
 40
0.6983315710265358
 40
0.8821873849160827
 40
1.0
 40
1.0
 40
1.0
 40
1.0
 10
-39.68717919893816
 20
-185.341982119169
 30
0.0
 10
-39.6871791989381
 20
-184.7178365836672
 30
0.0
 10
-39.6871791989381
 20
-183.7577025681896
 30
0.0
 10
-39.68717919893827
 20
-182.8497916618943
 30
0.0
 10
-39.6871791989381
 20
-182.3440743239781
 30
0.0
 10
-39.68717919893838
 20
-182.0724545898399
 30
0.0
 10
-39.6871791989381
 20
-182.0743143212997
 30
0.0
 10
-39.68717919893816
 20
-182.0750406148246
 30
0.0
  0
SPLINE
  5
461
330
1F
100
AcDbEntity
  8
0
  6
Continuous
 62
     7
370
    25
100
AcDbSpline
210
0.0
220
0.0
230
1.0
 70
    24
 71
     3
 72
    15
 73
    11
 74
     0
 42
0.000000001
 43
0.00000001
 40
0.0
 40
0.0
 40
0.0
 40
0.0
 40
0.034696749791865
 40
0.2211884951269616
 40
0.4076802404620631
 40
0.508072015263078
 40
0.6105942475634826
 40
0.7131164798638864
 40
0.8135082546649008
 40
1.0
 40
1.0
 40
1.0
 40
1.0
 10
-39.68717919893816
 20
-193.6215382336303
 30
0.0
 10
-39.68717919893816
 20
-193.6282593372617
 30
0.0
 10
-39.68717919893822
 20
-193.6711057366145
 30
0.0
 10
-39.68717919893805
 20
-193.183064773856
 30
0.0
 10
-39.68717919893805
 20
-192.0871537163875
 30
0.0
 10
-39.68717919893838
 20
-190.8682565839399
 30
0.0
 10
-39.6871791989381
 20
-189.788081356083
 30
0.0
 10
-39.68717919893822
 20
-188.6276044536173
 30
0.0
 10
-39.6871791989381
 20
-187.0970295585022
 30
0.0
 10
-39.68717919893816
 20
-186.0334036698521
 30
0.0
 10
-39.68717919893816
 20
-185.341982119169
 30
0.0
  0
SPLINE
  5
462
330
1F
100
AcDbEntity
  8
0
  6
Continuous
 62
     7
370
    25
100
AcDbSpline
210
0.0
220
0.0
230
1.0
 70
     8
 71
     3
 72
     8
 73
     4
 74
     0
 42
0.000000001
 43
0.00000001
 40
0.0
 40
0.0
 40
0.0
 40
0.0
 40
1.0
 40
1.0
 40
1.0
 40
1.0
 10
-35.68717919894515
 20
-188.2316844519139
 30
0.0
 10
-35.68717919894515
 20
-187.2493060073411
 30
0.0
 10
-35.86149449932458
 20
-186.2938148391514
 30
0.0
 10
-36.13376118633654
 20
-185.3534321898238
 30
0.0
  0
SPLINE
  5
463
330
1F
100
AcDbEntity
  8
0
  6
Continuous
 62
     7
370
    25
100
AcDbSpline
210
0.0
220
0.0
230
1.0
 70
     8
 71
     3
 72
     8
 73
     4
 74
     0
 42
0.000000001
 43
0.00000001
 40
0.0
 40
0.0
 40
0.0
 40
0.0
 40
1.0
 40
1.0
 40
1.0
 40
1.0
 10
-36.13376118633649
 20
-191.1099367140039
 30
0.0
 10
-35.86149449932508
 20
-190.1695540646781
 30
0.0
 10
-35.68717919894515
 20
-189.2140628964848
 30
0.0
 10
-35.68717919894515
 20
-188.2316844519139
 30
0.0
  0
LINE
  5
464
330
1F
100
AcDbEntity
  8
0
  6
Continuous
 62
     7
370
    25
100
AcDbLine
 10
-39.6871791989
 20
-191.109936714
 30
0.0
 11
-36.1337611863
 21
-191.109936714
 31
0.0
  0
LINE
  5
465
330
1F
100
AcDbEntity
  8
0
  6
Continuous
 62
     7
370
    25
100
AcDbLine
 10
-39.6871791989
 20
-185.3534321898
 30
0.0
 11
-36.1337611863
 21
-185.3534321898
 31
0.0
  0
LINE
  5
466
330
1F
100
AcDbEntity
  8
0
  6
Continuous
 62
     7
370
    25
100
AcDbLine
 10
-35.6871791989
 20
-188.2316844519
 30
0.0
 11
-35.6871791989
 21
-183.7226085449
 31
0.0
  0
SPLINE
  5
467
330
1F
100
AcDbEntity
  8
0
  6
Continuous
 62
     7
370
    25
100
AcDbSpline
210
0.0
220
0.0
230
1.0
 70
     8
 71
     3
 72
     8
 73
     4
 74
     0
 42
0.000000001
 43
0.00000001
 40
0.0
 40
0.0
 40
0.0
 40
0.0
 40
1.0
 40
1.0
 40
1.0
 40
1.0
 10
-36.13376118633666
 20
-185.3534321898177
 30
0.0
 10
-35.86149449932524
 20
-184.8206094487529
 30
0.0
 10
-35.68717919894532
 20
-184.2792261898582
 30
0.0
 10
-35.68717919894532
 20
-183.7226085449298
 30
0.0
  0
LINE
  5
468
330
1F
100
AcDbEntity
  8
0
  6
Continuous
 62
     7
370
    25
100
AcDbLine
 10
-35.6871791989
 20
-192.3573653312
 30
0.0
 11
-35.6871791989
 21
-188.2316844519
 31
0.0
  0
SPLINE
  5
469
330
1F
100
AcDbEntity
  8
0
  6
Continuous
 62
     7
370
    25
100
AcDbSpline
210
0.0
220
0.0
230
1.0
 70
     8
 71
     3
 72
     8
 73
     4
 74
     0
 42
0.000000001
 43
0.00000001
 40
0.0
 40
0.0
 40
0.0
 40
0.0
 40
1.0
 40
1.0
 40
1.0
 40
1.0
 10
-35.68717919894532
 20
-192.3573653312114
 30
0.0
 10
-35.68717919894532
 20
-191.9316045315682
 30
0.0
 10
-35.86149449932474
 20
-191.5174966222711
 30
0.0
 10
-36.1337611863366
 20
-191.1099367140095
 30
0.0
  0
SPLINE
  5
46A
330
1F
100
AcDbEntity
  8
0
  6
Continuous
 62
     7
370
    25
100
AcDbSpline
210
0.0
220
0.0
230
1.0
 70
     8
 71
     3
 72
     8
 73
     4
 74
     0
 42
0.000000001
 43
0.00000001
 40
0.0
 40
0.0
 40
0.0
 40
0.0
 40
1.0
 40
1.0
 40
1.0
 40
1.0
 10
-35.68717919894532
 20
-183.7226085449298
 30
0.0
 10
-35.68717919894532
 20
-183.1659909000004
 30
0.0
 10
-35.86149449932474
 20
-182.6246076411078
 30
0.0
 10
-36.13376118633666
 20
-182.0917849000419
 30
0.0
  0
LINE
  5
46B
330
1F
100
AcDbEntity
  8
0
  6
Continuous
 62
     7
370
    25
100
AcDbLine
 10
-39.6871791989
 20
-182.0917849
 30
0.0
 11
-36.1337611863
 21
-182.0917849
 31
0.0
  0
SPLINE
  5
46C
330
1F
100
AcDbEntity
  8
0
  6
Continuous
 62
     7
370
    25
100
AcDbSpline
210
0.0
220
0.0
230
1.0
 70
     8
 71
     3
 72
     8
 73
     4
 74
     0
 42
0.000000001
 43
0.00000001
 40
0.0
 40
0.0
 40
0.0
 40
0.0
 40
1.0
 40
1.0
 40
1.0
 40
1.0
 10
-36.1337611863366
 20
-193.6047939484134
 30
0.0
 10
-35.86149449932513
 20
-193.1972340401523
 30
0.0
 10
-35.68717919894532
 20
-192.783126130854
 30
0.0
 10
-35.68717919894532
 20
-192.3573653312114
 30
0.0
  0
LINE
  5
46D
330
1F
100
AcDbEntity
  8
0
  6
Continuous
 62
     7
370
    25
100
AcDbLine
 10
-36.1337611863
 20
-193.6047939484
 30
0.0
 11
-39.6871791989
 21
-193.6047939484
 31
0.0
  0
LINE
  5
46E
330
1F
100
AcDbEntity
  8
0
  6
Continuous
 62
     7
370
    25
100
AcDbLine
 10
-50.6871791989
 20
-185.3895394242
 30
0.0
 11
-50.6871791989
 21
-190.3070394242
 31
0.0
  0
LINE
  5
46F
330
1F
100
AcDbEntity
  8
0
  6
Continuous
 62
     7
370
    25
100
AcDbLine
 10
-50.1459291989
 20
-190.5537349684
 30
0.0
 11
-50.1459291989
 21
-190.8482894242
 31
0.0
  0
LINE
  5
470
330
1F
100
AcDbEntity
  8
0
  6
Continuous
 62
     7
370
    25
100
AcDbLine
 10
-50.1459291989
 20
-184.8482894242
 30
0.0
 11
-50.1459291989
 21
-190.5537349684
 31
0.0
  0
LINE
  5
471
330
1F
100
AcDbEntity
  8
0
  6
Continuous
 62
     7
370
    25
100
AcDbLine
 10
-36.1337611863
 20
-182.0917849
 30
0.0
 11
-36.0585734308
 21
-182.3018053679
 31
0.0
  0
LINE
  5
472
330
1F
100
AcDbEntity
  8
0
  6
Continuous
 62
     7
370
    25
100
AcDbLine
 10
-35.6871791989
 20
-183.7226085449
 30
0.0
 11
-35.6871791989
 21
-182.8482894242
 31
0.0
  0
LINE
  5
473
330
1F
100
AcDbEntity
  8
0
  6
Continuous
 62
     7
370
    25
100
AcDbLine
 10
-35.6871791989
 20
-192.8482894242
 30
0.0
 11
-35.6871791989
 21
-192.3573653312
 31
0.0
  0
ARC
  5
474
330
1F
100
AcDbEntity
  8
0
  6
Continuous
 62
     7
370
    25
100
AcDbCircle
 10
-48.9871791989
 20
-217.0482894242
 30
0.0
 40
6.000000000000114
100
AcDbArc
 50
90.0
 51
143.1301023541
  0
ARC
  5
475
330
1F
100
AcDbEntity
  8
0
  6
Continuous
 62
     7
370
    25
100
AcDbCircle
 10
872.0128208011
 20
-217.0482894242
 30
0.0
 40
6.000000000000085
100
AcDbArc
 50
36.8698976459
 51
90.0
  0
LINE
  5
476
330
1F
100
AcDbEntity
  8
0
  6
Continuous
 62
     7
370
    25
100
AcDbLine
 10
-165.5389910836
 20
696.5364911679
 30
0.0
 11
-165.901928862
 21
695.9078644958
 31
0.0
  0
LINE
  5
477
330
1F
100
AcDbEntity
  8
0
  6
Continuous
 62
     7
370
    25
100
AcDbLine
 10
-165.901928862
 20
689.6078644958
 30
0.0
 11
-165.5389910836
 21
688.9792378237
 31
0.0
  0
LINE
  5
478
330
1F
100
AcDbEntity
  8
0
  6
Continuous
 62
     7
370
    25
100
AcDbLine
 10
-167.601928862
 20
696.7578644958
 30
0.0
 11
-169.601928862
 21
696.7578644958
 31
0.0
  0
LINE
  5
479
330
1F
100
AcDbEntity
  8
0
  6
Continuous
 62
     7
370
    25
100
AcDbLine
 10
-169.601928862
 20
688.7578644958
 30
0.0
 11
-167.601928862
 21
688.7578644958
 31
0.0
  0
ARC
  5
47A
330
1F
100
AcDbEntity
  8
0
  6
Continuous
 62
     7
370
    25
100
AcDbCircle
 10
-162.6737256317
 20
692.7578644958
 30
0.0
 40
8.000000000000016
100
AcDbArc
 50
195.2747479997
 51
210.0
  0
ARC
  5
47B
330
1F
100
AcDbEntity
  8
0
  6
Continuous
 62
     7
370
    25
100
AcDbCircle
 10
-162.6737256317
 20
692.7578644958
 30
0.0
 40
8.000000000000016
100
AcDbArc
 50
150.0
 51
164.7252520003
  0
LINE
  5
47C
330
1F
100
AcDbEntity
  8
0
  6
Continuous
 62
     7
370
    25
100
AcDbLine
 10
-165.9019288619
 20
694.7578644958
 30
0.0
 11
-166.001928862
 21
694.7578644958
 31
0.0
  0
LINE
  5
47D
330
1F
100
AcDbEntity
  8
0
  6
Continuous
 62
     7
370
    25
100
AcDbLine
 10
-166.001928862
 20
690.7578644958
 30
0.0
 11
-165.9019288619
 21
690.7578644958
 31
0.0
  0
CIRCLE
  5
47E
330
1F
100
AcDbEntity
  8
0
  6
Continuous
 62
     7
370
    25
100
AcDbCircle
 10
-154.301928862
 20
291.7578644958
 30
0.0
 40
2.458750000016652
  0
CIRCLE
  5
47F
330
1F
100
AcDbEntity
  8
0
  6
Continuous
 62
     7
370
    25
100
AcDbCircle
 10
-154.301928862
 20
291.7578644958
 30
0.0
 40
2.999999999999994
  0
CIRCLE
  5
480
330
1F
100
AcDbEntity
  8
0
  6
Continuous
 62
     7
370
    25
100
AcDbCircle
 10
-154.301928862
 20
717.7578644958
 30
0.0
 40
2.458750000016533
  0
CIRCLE
  5
481
330
1F
100
AcDbEntity
  8
0
  6
Continuous
 62
     7
370
    25
100
AcDbCircle
 10
-154.301928862
 20
717.7578644958
 30
0.0
 40
3.000000000000003
  0
LINE
  5
482
330
1F
100
AcDbEntity
  8
0
  6
Continuous
 62
     7
370
    25
100
AcDbLine
 10
-172.901928862
 20
-104.7714248261
 30
0.0
 11
-172.901928862
 21
688.2871538176
 31
0.0
  0
LINE
  5
483
330
1F
100
AcDbEntity
  8
0
  6
Continuous
 62
     7
370
    25
100
AcDbLine
 10
-182.501928862
 20
-104.7714248261
 30
0.0
 11
-172.901928862
 21
-104.7714248261
 31
0.0
  0
LINE
  5
484
330
1F
100
AcDbEntity
  8
0
  6
Continuous
 62
     7
370
    25
100
AcDbLine
 10
-182.501928862
 20
688.2871538176
 30
0.0
 11
-172.901928862
 21
688.2871538176
 31
0.0
  0
SPLINE
  5
485
330
1F
100
AcDbEntity
  8
0
  6
Continuous
 62
     7
370
    25
100
AcDbSpline
210
0.0
220
0.0
230
1.0
 70
     8
 71
     3
 72
    20
 73
    16
 74
     0
 42
0.000000001
 43
0.00000001
 40
0.0
 40
0.0
 40
0.0
 40
0.0
 40
0.1250000000000111
 40
0.1250000000000111
 40
0.2500000000000223
 40
0.2500000000000223
 40
0.3750000000000336
 40
0.3750000000000336
 40
0.5000000000000449
 40
0.5000000000000449
 40
0.7500000000000275
 40
0.7500000000000275
 40
0.8750000000000138
 40
0.8750000000000138
 40
1.0
 40
1.0
 40
1.0
 40
1.0
 10
-182.5019288619501
 20
-104.7714248261245
 30
0.0
 10
-182.6603080496009
 20
-104.73238409527
 30
0.0
 10
-182.8165537742925
 20
-104.69386539107
 30
0.0
 10
-183.1245456237092
 20
-104.6164586397623
 30
0.0
 10
-183.2771897311804
 20
-104.5773142217756
 30
0.0
 10
-183.5662740203674
 20
-104.5001634678604
 30
0.0
 10
-183.7040785585515
 20
-104.4618358861195
 30
0.0
 10
-183.9656972341903
 20
-104.3842895656428
 30
0.0
 10
-184.088443540873
 20
-104.3453133579741
 30
0.0
 10
-184.4197679178207
 20
-104.2298185015292
 30
0.0
 10
-184.5987790418489
 20
-104.151906057859
 30
0.0
 10
-184.7783941412298
 20
-104.0364261324581
 30
0.0
 10
-184.8246384900975
 20
-103.997560336593
 30
0.0
 10
-184.8863917961087
 20
-103.9197860029246
 30
0.0
 10
-184.9019288619502
 20
-103.8811762359698
 30
0.0
 10
-184.9019288619502
 20
-103.8421355042431
 30
0.0
  0
LINE
  5
486
330
1F
100
AcDbEntity
  8
0
  6
Continuous
 62
     7
370
    25
100
AcDbLine
 10
-184.901928862
 20
-103.8421355042
 30
0.0
 11
-184.901928862
 21
687.3578644958
 31
0.0
  0
SPLINE
  5
487
330
1F
100
AcDbEntity
  8
0
  6
Continuous
 62
     7
370
    25
100
AcDbSpline
210
0.0
220
0.0
230
1.0
 70
     8
 71
     3
 72
    20
 73
    16
 74
     0
 42
0.000000001
 43
0.00000001
 40
0.0
 40
0.0
 40
0.0
 40
0.0
 40
0.1250000000000007
 40
0.1250000000000007
 40
0.2500000000000014
 40
0.2500000000000014
 40
0.3750000000000021
 40
0.3750000000000021
 40
0.5000000000000028
 40
0.5000000000000028
 40
0.7500000000000042
 40
0.7500000000000042
 40
0.8750000000000021
 40
0.8750000000000021
 40
1.0
 40
1.0
 40
1.0
 40
1.0
 10
-184.9019288619502
 20
687.357864495757
 30
0.0
 10
-184.9019288619502
 20
687.3969052266116
 30
0.0
 10
-184.8863923014753
 20
687.4354239308113
 30
0.0
 10
-184.8250739495147
 20
687.5128306821192
 30
0.0
 10
-184.7786502039279
 20
687.5519751001058
 30
0.0
 10
-184.6586993337738
 20
687.6291258540213
 30
0.0
 10
-184.5850946894904
 20
687.6674534357624
 30
0.0
 10
-184.4103643233947
 20
687.7449997562386
 30
0.0
 10
-184.3095136944932
 20
687.7839759639073
 30
0.0
 10
-183.9782284145092
 20
687.8994708203523
 30
0.0
 10
-183.7105482531254
 20
687.9773832640226
 30
0.0
 10
-183.2778742270699
 20
688.0928631894233
 30
0.0
 10
-183.1263561402188
 20
688.1317289852883
 30
0.0
 10
-182.8169303828327
 20
688.2095033189569
 30
0.0
 10
-182.6603080531389
 20
688.2481130859118
 30
0.0
 10
-182.5019288619501
 20
688.2871538176382
 30
0.0
  0
LINE
  5
488
330
1F
100
AcDbEntity
  8
0
  6
Continuous
 62
     7
370
    25
100
AcDbLine
 10
-182.501928862
 20
689.7578644958
 30
0.0
 11
-182.501928862
 21
688.3578644958
 31
0.0
  0
SPLINE
  5
489
330
1F
100
AcDbEntity
  8
0
  6
Continuous
 62
     7
370
    25
100
AcDbSpline
210
0.0
220
0.0
230
1.0
 70
     8
 71
     3
 72
     9
 73
     5
 74
     0
 42
0.000000001
 43
0.00000001
 40
0.0
 40
0.0
 40
0.0
 40
0.0
 40
0.7584558214379088
 40
1.0
 40
1.0
 40
1.0
 40
1.0
 10
-182.5019288619502
 20
688.3578644957569
 30
0.0
 10
-182.6536366398865
 20
688.3468099599232
 30
0.0
 10
-182.8536585444566
 20
688.3322349042364
 30
0.0
 10
-183.0042126358479
 20
688.2091385206368
 30
0.0
 10
-183.0405781001823
 20
688.1794053057764
 30
0.0
  0
SPLINE
  5
48A
330
1F
100
AcDbEntity
  8
0
  6
Continuous
 62
     7
370
    25
100
AcDbSpline
210
0.0
220
0.0
230
1.0
 70
     8
 71
     3
 72
    20
 73
    16
 74
     0
 42
0.000000001
 43
0.00000001
 40
0.0
 40
0.0
 40
0.0
 40
0.0
 40
0.1250000000000013
 40
0.1250000000000013
 40
0.2500000000000026
 40
0.2500000000000026
 40
0.3750000000000038
 40
0.3750000000000038
 40
0.5000000000000052
 40
0.5000000000000052
 40
0.7499999999999976
 40
0.7499999999999976
 40
0.8749999999999988
 40
0.8749999999999988
 40
1.0
 40
1.0
 40
1.0
 40
1.0
 10
-182.5019288619503
 20
689.7578644957568
 30
0.0
 10
-182.660308049601
 20
689.7578644957568
 30
0.0
 10
-182.8165537742928
 20
689.742327935282
 30
0.0
 10
-183.1245456237094
 20
689.6810095833213
 30
0.0
 10
-183.2771897311805
 20
689.6345858377347
 30
0.0
 10
-183.5662740203675
 20
689.5146349675805
 30
0.0
 10
-183.7040785585516
 20
689.4410303232969
 30
0.0
 10
-183.9656972341904
 20
689.2662999572012
 30
0.0
 10
-184.0884435408731
 20
689.1654493282999
 30
0.0
 10
-184.4197679178207
 20
688.834164048316
 30
0.0
 10
-184.5987790418489
 20
688.5664838869319
 30
0.0
 10
-184.7783941412298
 20
688.1338098608767
 30
0.0
 10
-184.8246384900975
 20
687.9822917740257
 30
0.0
 10
-184.8863917961087
 20
687.6728660166395
 30
0.0
 10
-184.9019288619502
 20
687.5162436869457
 30
0.0
 10
-184.9019288619502
 20
687.357864495757
 30
0.0
  0
SPLINE
  5
48B
330
1F
100
AcDbEntity
  8
0
  6
Continuous
 62
     7
370
    25
100
AcDbSpline
210
0.0
220
0.0
230
1.0
 70
     8
 71
     3
 72
    20
 73
    16
 74
     0
 42
0.000000001
 43
0.00000001
 40
0.0
 40
0.0
 40
0.0
 40
0.0
 40
0.125000000000002
 40
0.125000000000002
 40
0.250000000000004
 40
0.250000000000004
 40
0.375000000000006
 40
0.375000000000006
 40
0.500000000000008
 40
0.500000000000008
 40
0.750000000000012
 40
0.750000000000012
 40
0.875000000000006
 40
0.875000000000006
 40
1.0
 40
1.0
 40
1.0
 40
1.0
 10
-184.9019288619501
 20
-103.842135504243
 30
0.0
 10
-184.9019288619502
 20
-104.0005146918937
 30
0.0
 10
-184.8863923014753
 20
-104.1567604165856
 30
0.0
 10
-184.8250739495147
 20
-104.4647522660022
 30
0.0
 10
-184.7786502039279
 20
-104.6173963734733
 30
0.0
 10
-184.6586993337738
 20
-104.9064806626604
 30
0.0
 10
-184.5850946894903
 20
-105.0442852008444
 30
0.0
 10
-184.4103643233947
 20
-105.3059038764832
 30
0.0
 10
-184.3095136944933
 20
-105.428650183166
 30
0.0
 10
-183.9782284145092
 20
-105.7599745601137
 30
0.0
 10
-183.7105482531254
 20
-105.9389856841418
 30
0.0
 10
-183.27787422707
 20
-106.1186007835228
 30
0.0
 10
-183.1263561402188
 20
-106.1648451323904
 30
0.0
 10
-182.8169303828327
 20
-106.2265984384017
 30
0.0
 10
-182.6603080531389
 20
-106.2421355042433
 30
0.0
 10
-182.5019288619501
 20
-106.2421355042431
 30
0.0
  0
SPLINE
  5
48C
330
1F
100
AcDbEntity
  8
0
  6
Continuous
 62
     7
370
    25
100
AcDbSpline
210
0.0
220
0.0
230
1.0
 70
     8
 71
     3
 72
     9
 73
     5
 74
     0
 42
0.000000001
 43
0.00000001
 40
0.0
 40
0.0
 40
0.0
 40
0.0
 40
0.4258694941523528
 40
0.9999999999999999
 40
0.9999999999999999
 40
0.9999999999999999
 40
0.9999999999999999
 10
-183.0583202889593
 20
-104.6520569415659
 30
0.0
 10
-182.9879161123544
 20
-104.7019785664104
 30
0.0
 10
-182.8225974464919
 20
-104.8192013906087
 30
0.0
 10
-182.6188858842355
 20
-104.8337707757703
 30
0.0
 10
-182.5019288619502
 20
-104.8421355042431
 30
0.0
  0
LINE
  5
48D
330
1F
100
AcDbEntity
  8
0
  6
Continuous
 62
     7
370
    25
100
AcDbLine
 10
-182.501928862
 20
-106.2421355042
 30
0.0
 11
-182.501928862
 21
-104.8421355042
 31
0.0
  0
LINE
  5
48E
330
1F
100
AcDbEntity
  8
0
  6
Continuous
 62
     7
370
    25
100
AcDbLine
 10
-172.901928862
 20
689.7578644958
 30
0.0
 11
-172.901928862
 21
688.3578644958
 31
0.0
  0
LINE
  5
48F
330
1F
100
AcDbEntity
  8
0
  6
Continuous
 62
     7
370
    25
100
AcDbLine
 10
-182.501928862
 20
689.7578644958
 30
0.0
 11
-172.901928862
 21
689.7578644958
 31
0.0
  0
LINE
  5
490
330
1F
100
AcDbEntity
  8
0
  6
Continuous
 62
     7
370
    25
100
AcDbLine
 10
-182.501928862
 20
688.3578644958
 30
0.0
 11
-172.901928862
 21
688.3578644958
 31
0.0
  0
LINE
  5
491
330
1F
100
AcDbEntity
  8
0
  6
Continuous
 62
     7
370
    25
100
AcDbLine
 10
-182.501928862
 20
-104.8421355042
 30
0.0
 11
-172.901928862
 21
-104.8421355042
 31
0.0
  0
LINE
  5
492
330
1F
100
AcDbEntity
  8
0
  6
Continuous
 62
     7
370
    25
100
AcDbLine
 10
-182.501928862
 20
-106.2421355042
 30
0.0
 11
-172.901928862
 21
-106.2421355042
 31
0.0
  0
LINE
  5
493
330
1F
100
AcDbEntity
  8
0
  6
Continuous
 62
     7
370
    25
100
AcDbLine
 10
-172.901928862
 20
-106.2421355042
 30
0.0
 11
-172.901928862
 21
-104.8421355042
 31
0.0
  0
ARC
  5
494
330
1F
100
AcDbEntity
  8
0
  6
Continuous
 62
     7
370
    25
100
AcDbCircle
 10
-148.801928862
 20
721.2578644958
 30
0.0
 40
3.0
100
AcDbArc
 50
0.0
 51
90.0
  0
LINE
  5
495
330
1F
100
AcDbEntity
  8
0
  6
Continuous
 62
     7
370
    25
100
AcDbLine
 10
-145.801928862
 20
687.0578644958
 30
0.0
 11
-145.801928862
 21
721.2578644958
 31
0.0
  0
LINE
  5
496
330
1F
100
AcDbEntity
  8
0
  6
Continuous
 62
     7
370
    25
100
AcDbLine
 10
-164.801928862
 20
704.2578644958
 30
0.0
 11
-164.801928862
 21
687.0578644958
 31
0.0
  0
LINE
  5
497
330
1F
100
AcDbEntity
  8
0
  6
Continuous
 62
     7
370
    25
100
AcDbLine
 10
-168.801928862
 20
704.2578644958
 30
0.0
 11
-164.801928862
 21
704.2578644958
 31
0.0
  0
LINE
  5
498
330
1F
100
AcDbEntity
  8
0
  6
Continuous
 62
     7
370
    25
100
AcDbLine
 10
-168.801928862
 20
721.2578644958
 30
0.0
 11
-168.801928862
 21
704.2578644958
 31
0.0
  0
ARC
  5
499
330
1F
100
AcDbEntity
  8
0
  6
Continuous
 62
     7
370
    25
100
AcDbCircle
 10
-165.801928862
 20
721.2578644958
 30
0.0
 40
3.0
100
AcDbArc
 50
90.0
 51
180.0
  0
LINE
  5
49A
330
1F
100
AcDbEntity
  8
0
  6
Continuous
 62
     7
370
    25
100
AcDbLine
 10
-148.801928862
 20
724.2578644958
 30
0.0
 11
-165.801928862
 21
724.2578644958
 31
0.0
  0
CIRCLE
  5
49B
330
1F
100
AcDbEntity
  8
0
  6
Continuous
 62
     7
370
    25
100
AcDbCircle
 10
-154.301928862
 20
717.7578644958
 30
0.0
 40
3.249999999999773
  0
CIRCLE
  5
49C
330
1F
100
AcDbEntity
  8
0
  6
Continuous
 62
     7
370
    25
100
AcDbCircle
 10
-154.301928862
 20
692.7578644958
 30
0.0
 40
3.249999999999886
  0
LINE
  5
49D
330
1F
100
AcDbEntity
  8
0
  6
Continuous
 62
     7
370
    25
100
AcDbLine
 10
-164.801928862
 20
685.2578644958
 30
0.0
 11
-164.801928862
 21
687.0578644958
 31
0.0
  0
LINE
  5
49E
330
1F
100
AcDbEntity
  8
0
  6
Continuous
 62
     7
370
    25
100
AcDbLine
 10
-145.801928862
 20
687.0578644958
 30
0.0
 11
-145.801928862
 21
685.2578644958
 31
0.0
  0
LINE
  5
49F
330
1F
100
AcDbEntity
  8
0
  6
Continuous
 62
     7
370
    25
100
AcDbLine
 10
-145.801928862
 20
685.2578644958
 30
0.0
 11
-164.801928862
 21
685.2578644958
 31
0.0
  0
LINE
  5
4A0
330
1F
100
AcDbEntity
  8
0
  6
Continuous
 62
     7
370
    25
100
AcDbLine
 10
-166.001928862
 20
687.0578644958
 30
0.0
 11
-166.001928862
 21
697.2578644958
 31
0.0
  0
LINE
  5
4A1
330
1F
100
AcDbEntity
  8
0
  6
Continuous
 62
     7
370
    25
100
AcDbLine
 10
-166.801928862
 20
697.2578644958
 30
0.0
 11
-166.001928862
 21
697.2578644958
 31
0.0
  0
ARC
  5
4A2
330
1F
100
AcDbEntity
  8
0
  6
Continuous
 62
     7
370
    25
100
AcDbCircle
 10
-165.001928862
 20
687.0578644958
 30
0.0
 40
1.000000000000114
100
AcDbArc
 50
180.0
 51
270.0
  0
ARC
  5
4A3
330
1F
100
AcDbEntity
  8
0
  6
Continuous
 62
     7
370
    25
100
AcDbCircle
 10
-165.001928862
 20
687.0578644958
 30
0.0
 40
1.800000000000068
100
AcDbArc
 50
180.0
 51
270.0
  0
LINE
  5
4A4
330
1F
100
AcDbEntity
  8
0
  6
Continuous
 62
     7
370
    25
100
AcDbLine
 10
-165.001928862
 20
686.0578644958
 30
0.0
 11
-164.801928862
 21
686.0578644958
 31
0.0
  0
LINE
  5
4A5
330
1F
100
AcDbEntity
  8
0
  6
Continuous
 62
     7
370
    25
100
AcDbLine
 10
-165.001928862
 20
685.2578644958
 30
0.0
 11
-164.801928862
 21
685.2578644958
 31
0.0
  0
LINE
  5
4A6
330
1F
100
AcDbEntity
  8
0
  6
Continuous
 62
     7
370
    25
100
AcDbLine
 10
-145.801928862
 20
686.0578644958
 30
0.0
 11
-124.801928862
 21
686.0578644958
 31
0.0
  0
LINE
  5
4A7
330
1F
100
AcDbEntity
  8
0
  6
Continuous
 62
     7
370
    25
100
AcDbLine
 10
-145.801928862
 20
685.2578644958
 30
0.0
 11
-124.801928862
 21
685.2578644958
 31
0.0
  0
LINE
  5
4A8
330
1F
100
AcDbEntity
  8
0
  6
Continuous
 62
     7
370
    25
100
AcDbLine
 10
-121.801928862
 20
686.0578644958
 30
0.0
 11
-121.801928862
 21
685.2578644958
 31
0.0
  0
LINE
  5
4A9
330
1F
100
AcDbEntity
  8
0
  6
Continuous
 62
     7
370
    25
100
AcDbLine
 10
-124.801928862
 20
686.0578644958
 30
0.0
 11
-121.801928862
 21
686.0578644958
 31
0.0
  0
LINE
  5
4AA
330
1F
100
AcDbEntity
  8
0
  6
Continuous
 62
     7
370
    25
100
AcDbLine
 10
-121.801928862
 20
685.2578644958
 30
0.0
 11
-124.801928862
 21
685.2578644958
 31
0.0
  0
ARC
  5
4AB
330
1F
100
AcDbEntity
  8
0
  6
Continuous
 62
     7
370
    25
100
AcDbCircle
 10
-140.4398780544
 20
687.0578644958
 30
0.0
 40
1.0
100
AcDbArc
 50
270.0
 51
300.0
  0
LINE
  5
4AC
330
1F
100
AcDbEntity
  8
0
  6
Continuous
 62
     7
370
    25
100
AcDbLine
 10
-132.9150069238
 20
689.3238898995
 30
0.0
 11
-138.571928862
 21
686.0578644958
 31
0.0
  0
LINE
  5
4AD
330
1F
100
AcDbEntity
  8
0
  6
Continuous
 62
     7
370
    25
100
AcDbLine
 10
-133.3150069238
 20
690.0167102226
 30
0.0
 11
-139.9398780544
 21
686.191839092
 31
0.0
  0
LINE
  5
4AE
330
1F
100
AcDbEntity
  8
0
  6
Continuous
 62
     7
370
    25
100
AcDbLine
 10
-122.8973154702
 20
690.2578644958
 30
0.0
 11
-122.8973154702
 21
689.4578644958
 31
0.0
  0
LINE
  5
4AF
330
1F
100
AcDbEntity
  8
0
  6
Continuous
 62
     7
370
    25
100
AcDbLine
 10
-122.8973154702
 20
689.4578644958
 30
0.0
 11
-125.8973154702
 21
689.4578644958
 31
0.0
  0
LINE
  5
4B0
330
1F
100
AcDbEntity
  8
0
  6
Continuous
 62
     7
370
    25
100
AcDbLine
 10
-125.8973154702
 20
690.2578644958
 30
0.0
 11
-122.8973154702
 21
690.2578644958
 31
0.0
  0
LINE
  5
4B1
330
1F
100
AcDbEntity
  8
0
  6
Continuous
 62
     7
370
    25
100
AcDbLine
 10
-132.4150069238
 20
690.2578644958
 30
0.0
 11
-125.8973154702
 21
690.2578644958
 31
0.0
  0
LINE
  5
4B2
330
1F
100
AcDbEntity
  8
0
  6
Continuous
 62
     7
370
    25
100
AcDbLine
 10
-132.4150069238
 20
689.4578644958
 30
0.0
 11
-125.8973154702
 21
689.4578644958
 31
0.0
  0
ARC
  5
4B3
330
1F
100
AcDbEntity
  8
0
  6
Continuous
 62
     7
370
    25
100
AcDbCircle
 10
-132.4150069238
 20
688.4578644958
 30
0.0
 40
0.9999999999998863
100
AcDbArc
 50
90.0
 51
120.0
  0
ARC
  5
4B4
330
1F
100
AcDbEntity
  8
0
  6
Continuous
 62
     7
370
    25
100
AcDbCircle
 10
-132.4150069238
 20
688.4578644958
 30
0.0
 40
1.799999999999955
100
AcDbArc
 50
90.0
 51
120.0
  0
CIRCLE
  5
4B5
330
1F
100
AcDbEntity
  8
0
  6
Continuous
 62
     7
370
    25
100
AcDbCircle
 10
-154.301928862
 20
-58.2421355042
 30
0.0
 40
2.458750000016638
  0
CIRCLE
  5
4B6
330
1F
100
AcDbEntity
  8
0
  6
Continuous
 62
     7
370
    25
100
AcDbCircle
 10
-154.301928862
 20
-58.2421355042
 30
0.0
 40
2.999999999999997
  0
CIRCLE
  5
4B7
330
1F
100
AcDbEntity
  8
0
  6
Continuous
 62
     7
370
    25
100
AcDbCircle
 10
-154.301928862
 20
692.7578644958
 30
0.0
 40
2.458750000016533
  0
CIRCLE
  5
4B8
330
1F
100
AcDbEntity
  8
0
  6
Continuous
 62
     7
370
    25
100
AcDbCircle
 10
-154.301928862
 20
692.7578644958
 30
0.0
 40
3.000000000000003
  0
SPLINE
  5
4B9
330
1F
100
AcDbEntity
  8
0
  6
Continuous
 62
     7
370
    25
100
AcDbSpline
210
0.0
220
0.0
230
1.0
 70
     8
 71
     3
 72
    12
 73
     8
 74
     0
 42
0.000000001
 43
0.00000001
 40
0.0
 40
0.0
 40
0.0
 40
0.0
 40
0.5
 40
0.5
 40
0.75
 40
0.75
 40
1.0
 40
1.0
 40
1.0
 40
1.0
 10
-165.3872488765651
 20
691.3170351738866
 30
0.0
 10
-165.5777431659887
 20
690.9007340902319
 30
0.0
 10
-165.699417579051
 20
690.4781955622435
 30
0.0
 10
-165.7000737695823
 20
689.8279054227827
 30
0.0
 10
-165.6702397677879
 20
689.6113632048683
 30
0.0
 10
-165.5613098976803
 20
689.1859951996282
 30
0.0
 10
-165.4826147106174
 20
688.9758432206428
 30
0.0
 10
-165.3872488765647
 20
688.76743329833
 30
0.0
  0
LINE
  5
4BA
330
1F
100
AcDbEntity
  8
0
  6
Continuous
 62
     7
370
    25
100
AcDbLine
 10
-165.3872488766
 20
688.7674332983
 30
0.0
 11
-165.4851239138
 21
689.0103380486
 31
0.0
  0
SPLINE
  5
4BB
330
1F
100
AcDbEntity
  8
0
  6
Continuous
 62
     7
370
    25
100
AcDbSpline
210
0.0
220
0.0
230
1.0
 70
     8
 71
     3
 72
    12
 73
     8
 74
     0
 42
0.000000001
 43
0.00000001
 40
0.0
 40
0.0
 40
0.0
 40
0.0
 40
0.4999999999999811
 40
0.4999999999999811
 40
0.7499999999999906
 40
0.7499999999999906
 40
1.0
 40
1.0
 40
1.0
 40
1.0
 10
-165.3872488765652
 20
696.7482956931839
 30
0.0
 10
-165.5777431659887
 20
696.5130359007408
 30
0.0
 10
-165.699417579051
 20
696.2742512078903
 30
0.0
 10
-165.7000737695823
 20
695.9067596753333
 30
0.0
 10
-165.6702397677879
 20
695.7843874806839
 30
0.0
 10
-165.5613098976803
 20
695.5440037955244
 30
0.0
 10
-165.4826147106174
 20
695.4252428484629
 30
0.0
 10
-165.3872488765647
 20
695.3074663713132
 30
0.0
  0
SPLINE
  5
4BC
330
1F
100
AcDbEntity
  8
0
  6
Continuous
 62
     7
370
    25
100
AcDbSpline
210
0.0
220
0.0
230
1.0
 70
     8
 71
     3
 72
    14
 73
    10
 74
     0
 42
0.000000001
 43
0.00000001
 40
0.0
 40
0.0
 40
0.0
 40
0.0
 40
0.25
 40
0.25
 40
0.5
 40
0.5
 40
0.75
 40
0.75
 40
1.0
 40
1.0
 40
1.0
 40
1.0
 10
-165.3872488765642
 20
695.3074663713132
 30
0.0
 10
-165.4821234858748
 20
694.9829601420246
 30
0.0
 10
-165.5617284107505
 20
694.6505009196302
 30
0.0
 10
-165.6705650256447
 20
693.983931004722
 30
0.0
 10
-165.6998886313353
 20
693.6488547474469
 30
0.0
 10
-165.6998238495896
 20
692.9745112772192
 30
0.0
 10
-165.6696676562633
 20
692.6327318565404
 30
0.0
 10
-165.5600824548976
 20
691.9663179369356
 30
0.0
 10
-165.4815394810954
 20
691.6395438909828
 30
0.0
 10
-165.3872488765642
 20
691.3170351738864
 30
0.0
  0
LINE
  5
4BD
330
1F
100
AcDbEntity
  8
0
  6
Continuous
 62
     7
370
    25
100
AcDbLine
 10
-165.901928862
 20
689.6078644958
 30
0.0
 11
-165.901928862
 21
695.9078644958
 31
0.0
  0
LINE
  5
4BE
330
1F
100
AcDbEntity
  8
0
  6
Continuous
 62
     7
370
    25
100
AcDbLine
 10
-164.801928862
 20
691.3170351739
 30
0.0
 11
-165.3872488766
 21
691.3170351739
 31
0.0
  0
LINE
  5
4BF
330
1F
100
AcDbEntity
  8
0
  6
Continuous
 62
     7
370
    25
100
AcDbLine
 10
-164.801928862
 20
695.3074663713
 30
0.0
 11
-165.3872488766
 21
695.3074663713
 31
0.0
  0
LINE
  5
4C0
330
1F
100
AcDbEntity
  8
0
  6
Continuous
 62
     7
370
    25
100
AcDbLine
 10
-164.8019288619
 20
688.7674332983
 30
0.0
 11
-165.3872488766
 21
688.7674332983
 31
0.0
  0
LINE
  5
4C1
330
1F
100
AcDbEntity
  8
0
  6
Continuous
 62
     7
370
    25
100
AcDbLine
 10
-164.8019288619
 20
696.7482956932
 30
0.0
 11
-165.3872488766
 21
696.7482956932
 31
0.0
  0
LINE
  5
4C2
330
1F
100
AcDbEntity
  8
0
  6
Continuous
 62
     7
370
    25
100
AcDbLine
 10
-168.601928862
 20
702.7578644958
 30
0.0
 11
-178.501928862
 21
702.7578644958
 31
0.0
  0
LINE
  5
4C3
330
1F
100
AcDbEntity
  8
0
  6
Continuous
 62
     7
370
    25
100
AcDbLine
 10
-168.601928862
 20
701.9578644958
 30
0.0
 11
-168.601928862
 21
702.7578644958
 31
0.0
  0
LINE
  5
4C4
330
1F
100
AcDbEntity
  8
0
  6
Continuous
 62
     7
370
    25
100
AcDbLine
 10
-178.501928862
 20
701.9578644958
 30
0.0
 11
-168.601928862
 21
701.9578644958
 31
0.0
  0
LINE
  5
4C5
330
1F
100
AcDbEntity
  8
0
  6
Continuous
 62
     7
370
    25
100
AcDbLine
 10
-178.501928862
 20
701.9578644958
 30
0.0
 11
-178.501928862
 21
701.8578644958
 31
0.0
  0
LINE
  5
4C6
330
1F
100
AcDbEntity
  8
0
  6
Continuous
 62
     7
370
    25
100
AcDbLine
 10
-178.501928862
 20
701.8578644958
 30
0.0
 11
-173.351928862
 21
701.8578644958
 31
0.0
  0
LINE
  5
4C7
330
1F
100
AcDbEntity
  8
0
  6
Continuous
 62
     7
370
    25
100
AcDbLine
 10
-173.351928862
 20
701.0578644958
 30
0.0
 11
-173.351928862
 21
701.8578644958
 31
0.0
  0
LINE
  5
4C8
330
1F
100
AcDbEntity
  8
0
  6
Continuous
 62
     7
370
    25
100
AcDbLine
 10
-178.501928862
 20
701.0578644958
 30
0.0
 11
-173.351928862
 21
701.0578644958
 31
0.0
  0
ARC
  5
4C9
330
1F
100
AcDbEntity
  8
0
  6
Continuous
 62
     7
370
    25
100
AcDbCircle
 10
-178.501928862
 20
701.9078644958
 30
0.0
 40
0.8500000000000227
100
AcDbArc
 50
90.0
 51
270.0
  0
LINE
  5
4CA
330
1F
100
AcDbEntity
  8
0
  6
Continuous
 62
     7
370
    25
100
AcDbLine
 10
-168.601928862
 20
683.5578644958
 30
0.0
 11
-172.9019288619
 21
683.5578644958
 31
0.0
  0
LINE
  5
4CB
330
1F
100
AcDbEntity
  8
0
  6
Continuous
 62
     7
370
    25
100
AcDbLine
 10
-168.601928862
 20
682.7578644958
 30
0.0
 11
-168.601928862
 21
683.5578644958
 31
0.0
  0
LINE
  5
4CC
330
1F
100
AcDbEntity
  8
0
  6
Continuous
 62
     7
370
    25
100
AcDbLine
 10
-168.601928862
 20
682.7578644958
 30
0.0
 11
-172.9019288619
 21
682.7578644958
 31
0.0
  0
LINE
  5
4CD
330
1F
100
AcDbEntity
  8
0
  6
Continuous
 62
     7
370
    25
100
AcDbLine
 10
-166.801928862
 20
684.5578644958
 30
0.0
 11
-166.801928862
 21
700.9578644958
 31
0.0
  0
ARC
  5
4CE
330
1F
100
AcDbEntity
  8
0
  6
Continuous
 62
     7
370
    25
100
AcDbCircle
 10
-168.601928862
 20
684.5578644958
 30
0.0
 40
1.000000000000057
100
AcDbArc
 50
270.0
 51
0.0
  0
ARC
  5
4CF
330
1F
100
AcDbEntity
  8
0
  6
Continuous
 62
     7
370
    25
100
AcDbCircle
 10
-168.601928862
 20
700.9578644958
 30
0.0
 40
1.800000000000182
100
AcDbArc
 50
0.0
 51
90.0
  0
ARC
  5
4D0
330
1F
100
AcDbEntity
  8
0
  6
Continuous
 62
     7
370
    25
100
AcDbCircle
 10
-168.601928862
 20
684.5578644958
 30
0.0
 40
1.800000000000068
100
AcDbArc
 50
270.0
 51
0.0
  0
ARC
  5
4D1
330
1F
100
AcDbEntity
  8
0
  6
Continuous
 62
     7
370
    25
100
AcDbCircle
 10
-168.601928862
 20
700.9578644958
 30
0.0
 40
1.000000000000114
100
AcDbArc
 50
360.0
 51
90.0
  0
LINE
  5
4D2
330
1F
100
AcDbEntity
  8
0
  6
Continuous
 62
     7
370
    25
100
AcDbLine
 10
-167.601928862
 20
684.5578644958
 30
0.0
 11
-167.601928862
 21
700.9578644958
 31
0.0
  0
LINE
  5
4D3
330
1F
100
AcDbEntity
  8
0
  6
Continuous
 62
     7
370
    25
100
AcDbLine
 10
-169.601928862
 20
696.7578644958
 30
0.0
 11
-169.601928862
 21
688.7578644958
 31
0.0
  0
LWPOLYLINE
  5
4D4
330
1F
100
AcDbEntity
  8
0
  6
Continuous
 62
     7
370
    25
100
AcDbPolyline
 90
        3
 70
   128
 43
0.0
 10
-170.6079729796
 20
693.481645889
 10
-170.6123735035
 20
693.4389505695
 10
-170.6285983522
 20
693.2552522407
  0
ARC
  5
4D5
330
1F
100
AcDbEntity
  8
0
  6
Continuous
 62
     7
370
    25
100
AcDbCircle
 10
-170.1042054278
 20
693.5683800782
 30
0.0
 40
0.6107675350076833
100
AcDbArc
 50
210.8424581413
 51
243.3898036633
  0
ARC
  5
4D6
330
1F
100
AcDbEntity
  8
0
  6
Continuous
 62
     7
370
    25
100
AcDbCircle
 10
-161.2212715063
 20
692.4268671269
 30
0.0
 40
9.175815043718469
100
AcDbArc
 50
177.9327321278
 51
179.6562100937
  0
ARC
  5
4D7
330
1F
100
AcDbEntity
  8
0
  6
Continuous
 62
     7
370
    25
100
AcDbCircle
 10
-162.8649489642
 20
692.6637272207
 30
0.0
 40
7.786288415100779
100
AcDbArc
 50
184.3702527064
 51
195.2299003794
  0
ARC
  5
4D8
330
1F
100
AcDbEntity
  8
0
  6
Continuous
 62
     7
370
    25
100
AcDbCircle
 10
-170.1566572969
 20
690.7133633794
 30
0.0
 40
0.2406805056717088
100
AcDbArc
 50
156.7420981704
 51
203.2579018296
  0
ARC
  5
4D9
330
1F
100
AcDbEntity
  8
0
  6
Continuous
 62
     7
370
    25
100
AcDbCircle
 10
-162.8649489642
 20
692.8538025156
 30
0.0
 40
7.786288415100749
100
AcDbArc
 50
184.3702527064
 51
195.2299003794
  0
ARC
  5
4DA
330
1F
100
AcDbEntity
  8
0
  6
Continuous
 62
     7
370
    25
100
AcDbCircle
 10
-170.1042054278
 20
691.9473489133
 30
0.0
 40
0.6107675350100341
100
AcDbArc
 50
116.6101963367
 51
149.1575418586
  0
ARC
  5
4DB
330
1F
100
AcDbEntity
  8
0
  6
Continuous
 62
     7
370
    25
100
AcDbCircle
 10
-161.2981432863
 20
693.0858460084
 30
0.0
 40
9.098942710240554
100
AcDbArc
 50
176.2668736477
 51
183.7331263523
  0
ARC
  5
4DC
330
1F
100
AcDbEntity
  8
0
  6
Continuous
 62
     7
370
    25
100
AcDbCircle
 10
-170.1042054278
 20
693.1321996981
 30
0.0
 40
0.6107675350085603
100
AcDbArc
 50
116.6101963367
 51
149.1575418587
  0
ARC
  5
4DD
330
1F
100
AcDbEntity
  8
0
  6
Continuous
 62
     7
370
    25
100
AcDbCircle
 10
-162.8649489642
 20
692.8520017708
 30
0.0
 40
7.786288415100061
100
AcDbArc
 50
164.7700996206
 51
175.6297472936
  0
ARC
  5
4DE
330
1F
100
AcDbEntity
  8
0
  6
Continuous
 62
     7
370
    25
100
AcDbCircle
 10
-170.2446950833
 20
694.8234668726
 30
0.0
 40
0.1522432420390964
100
AcDbArc
 50
150.9451665845
 51
179.1449116386
  0
LINE
  5
4DF
330
1F
100
AcDbEntity
  8
0
  6
Continuous
 62
     7
370
    25
100
AcDbLine
 10
-170.6285983522
 20
693.4453275356
 30
0.0
 11
-170.3900426943
 21
693.4453275356
 31
0.0
  0
LINE
  5
4E0
330
1F
100
AcDbEntity
  8
0
  6
Continuous
 62
     7
370
    25
100
AcDbLine
 10
-170.6285983522
 20
692.0704014559
 30
0.0
 11
-170.6117313605
 21
692.0704014559
 31
0.0
  0
LINE
  5
4E1
330
1F
100
AcDbEntity
  8
0
  6
Continuous
 62
     7
370
    25
100
AcDbLine
 10
-170.6285983522
 20
693.2552522407
 30
0.0
 11
-170.3955480358
 21
693.2552522407
 31
0.0
  0
ARC
  5
4E2
330
1F
100
AcDbEntity
  8
0
  6
Continuous
 62
     7
370
    25
100
AcDbCircle
 10
-148.3434399727
 20
629.0133376721
 30
0.0
 40
1.942508566655134
100
AcDbArc
 50
268.2745645851
 51
358.1637932024
  0
LINE
  5
4E3
330
1F
100
AcDbEntity
  8
0
  6
Continuous
 62
     7
370
    25
100
AcDbLine
 10
-146.401928862
 20
628.9510950963
 30
0.0
 11
-146.401928862
 21
628.2670548096
 31
0.0
  0
ARC
  5
4E4
330
1F
100
AcDbEntity
  8
0
  6
Continuous
 62
     7
370
    25
100
AcDbCircle
 10
-148.3434399727
 20
628.3292973855
 30
0.0
 40
1.94250856665536
100
AcDbArc
 50
268.2745645851
 51
358.1637932023
  0
LINE
  5
4E5
330
1F
100
AcDbEntity
  8
0
  6
Continuous
 62
     7
370
    25
100
AcDbLine
 10
-146.401928862
 20
634.0921713331
 30
0.0
 11
-146.401928862
 21
628.9510950963
 31
0.0
  0
LINE
  5
4E6
330
1F
100
AcDbEntity
  8
0
  6
Continuous
 62
     7
370
    25
100
AcDbLine
 10
-148.401928862
 20
627.0717098547
 30
0.0
 11
-160.401928862
 21
627.0717098547
 31
0.0
  0
ARC
  5
4E7
330
1F
100
AcDbEntity
  8
0
  6
Continuous
 62
     7
370
    25
100
AcDbCircle
 10
-160.4604177512
 20
629.0133376721
 30
0.0
 40
1.942508566655133
100
AcDbArc
 50
181.8362067976
 51
271.7254354149
  0
LINE
  5
4E8
330
1F
100
AcDbEntity
  8
0
  6
Continuous
 62
     7
370
    25
100
AcDbLine
 10
-162.401928862
 20
628.9510950963
 30
0.0
 11
-162.401928862
 21
634.0921713331
 31
0.0
  0
LINE
  5
4E9
330
1F
100
AcDbEntity
  8
0
  6
Continuous
 62
     7
370
    25
100
AcDbLine
 10
-148.401928862
 20
626.3876695681
 30
0.0
 11
-160.401928862
 21
626.3876695681
 31
0.0
  0
LINE
  5
4EA
330
1F
100
AcDbEntity
  8
0
  6
Continuous
 62
     7
370
    25
100
AcDbLine
 10
-162.401928862
 20
628.2670548096
 30
0.0
 11
-162.401928862
 21
628.9510950963
 31
0.0
  0
ARC
  5
4EB
330
1F
100
AcDbEntity
  8
0
  6
Continuous
 62
     7
370
    25
100
AcDbCircle
 10
-160.4604177512
 20
628.3292973855
 30
0.0
 40
1.942508566655355
100
AcDbArc
 50
181.8362067977
 51
271.7254354149
  0
LINE
  5
4EC
330
1F
100
AcDbEntity
  8
0
  6
Continuous
 62
     7
370
    25
100
AcDbLine
 10
-162.401928862
 20
634.4341914765
 30
0.0
 11
-162.401928862
 21
634.0921713331
 31
0.0
  0
LINE
  5
4ED
330
1F
100
AcDbEntity
  8
0
  6
Continuous
 62
     7
370
    25
100
AcDbLine
 10
-146.401928862
 20
634.0921713331
 30
0.0
 11
-146.401928862
 21
634.4341914765
 31
0.0
  0
LINE
  5
4EE
330
1F
100
AcDbEntity
  8
0
  6
Continuous
 62
     7
370
    25
100
AcDbLine
 10
-172.9019288619
 20
634.2578644958
 30
0.0
 11
-162.401928862
 21
634.2578644958
 31
0.0
  0
ARC
  5
4EF
330
1F
100
AcDbEntity
  8
0
  6
Continuous
 62
     7
370
    25
100
AcDbCircle
 10
-148.401928862
 20
647.2578644958
 30
0.0
 40
2.0
100
AcDbArc
 50
0.0
 51
90.0
  0
LINE
  5
4F0
330
1F
100
AcDbEntity
  8
0
  6
Continuous
 62
     7
370
    25
100
AcDbLine
 10
-146.401928862
 20
634.4341914765
 30
0.0
 11
-146.401928862
 21
647.2578644958
 31
0.0
  0
CIRCLE
  5
4F1
330
1F
100
AcDbEntity
  8
0
  6
Continuous
 62
     7
370
    25
100
AcDbCircle
 10
-154.301928862
 20
641.7578644958
 30
0.0
 40
3.5
  0
LINE
  5
4F2
330
1F
100
AcDbEntity
  8
0
  6
Continuous
 62
     7
370
    25
100
AcDbLine
 10
-148.401928862
 20
649.2578644958
 30
0.0
 11
-172.9019288619
 21
649.2578644958
 31
0.0
  0
LINE
  5
4F3
330
1F
100
AcDbEntity
  8
0
  6
Continuous
 62
     7
370
    25
100
AcDbLine
 10
-146.401928862
 20
284.0921713331
 30
0.0
 11
-146.401928862
 21
278.9510950963
 31
0.0
  0
ARC
  5
4F4
330
1F
100
AcDbEntity
  8
0
  6
Continuous
 62
     7
370
    25
100
AcDbCircle
 10
-148.3434399727
 20
279.0133376721
 30
0.0
 40
1.942508566655269
100
AcDbArc
 50
268.2745645851
 51
358.1637932023
  0
LINE
  5
4F5
330
1F
100
AcDbEntity
  8
0
  6
Continuous
 62
     7
370
    25
100
AcDbLine
 10
-148.401928862
 20
277.0717098547
 30
0.0
 11
-160.401928862
 21
277.0717098547
 31
0.0
  0
ARC
  5
4F6
330
1F
100
AcDbEntity
  8
0
  6
Continuous
 62
     7
370
    25
100
AcDbCircle
 10
-160.4604177512
 20
279.0133376721
 30
0.0
 40
1.942508566655243
100
AcDbArc
 50
181.8362067977
 51
271.7254354149
  0
LINE
  5
4F7
330
1F
100
AcDbEntity
  8
0
  6
Continuous
 62
     7
370
    25
100
AcDbLine
 10
-162.401928862
 20
278.9510950963
 30
0.0
 11
-162.401928862
 21
284.0921713331
 31
0.0
  0
LINE
  5
4F8
330
1F
100
AcDbEntity
  8
0
  6
Continuous
 62
     7
370
    25
100
AcDbLine
 10
-148.401928862
 20
276.3876695681
 30
0.0
 11
-160.401928862
 21
276.3876695681
 31
0.0
  0
LINE
  5
4F9
330
1F
100
AcDbEntity
  8
0
  6
Continuous
 62
     7
370
    25
100
AcDbLine
 10
-146.401928862
 20
278.9510950963
 30
0.0
 11
-146.401928862
 21
278.2670548096
 31
0.0
  0
ARC
  5
4FA
330
1F
100
AcDbEntity
  8
0
  6
Continuous
 62
     7
370
    25
100
AcDbCircle
 10
-148.3434399727
 20
278.3292973855
 30
0.0
 40
1.942508566655355
100
AcDbArc
 50
268.2745645851
 51
358.1637932023
  0
LINE
  5
4FB
330
1F
100
AcDbEntity
  8
0
  6
Continuous
 62
     7
370
    25
100
AcDbLine
 10
-162.401928862
 20
278.2670548096
 30
0.0
 11
-162.401928862
 21
278.9510950963
 31
0.0
  0
ARC
  5
4FC
330
1F
100
AcDbEntity
  8
0
  6
Continuous
 62
     7
370
    25
100
AcDbCircle
 10
-160.4604177512
 20
278.3292973855
 30
0.0
 40
1.9425085666553
100
AcDbArc
 50
181.8362067977
 51
271.7254354149
  0
LINE
  5
4FD
330
1F
100
AcDbEntity
  8
0
  6
Continuous
 62
     7
370
    25
100
AcDbLine
 10
-146.401928862
 20
284.0921713331
 30
0.0
 11
-146.401928862
 21
284.4341914765
 31
0.0
  0
LINE
  5
4FE
330
1F
100
AcDbEntity
  8
0
  6
Continuous
 62
     7
370
    25
100
AcDbLine
 10
-162.401928862
 20
284.4341914765
 30
0.0
 11
-162.401928862
 21
284.0921713331
 31
0.0
  0
LINE
  5
4FF
330
1F
100
AcDbEntity
  8
0
  6
Continuous
 62
     7
370
    25
100
AcDbLine
 10
-172.9019288619
 20
284.2578644958
 30
0.0
 11
-162.401928862
 21
284.2578644958
 31
0.0
  0
CIRCLE
  5
500
330
1F
100
AcDbEntity
  8
0
  6
Continuous
 62
     7
370
    25
100
AcDbCircle
 10
-154.301928862
 20
291.7578644958
 30
0.0
 40
3.5
  0
ARC
  5
501
330
1F
100
AcDbEntity
  8
0
  6
Continuous
 62
     7
370
    25
100
AcDbCircle
 10
-148.401928862
 20
297.2578644958
 30
0.0
 40
2.0
100
AcDbArc
 50
0.0
 51
90.0
  0
LINE
  5
502
330
1F
100
AcDbEntity
  8
0
  6
Continuous
 62
     7
370
    25
100
AcDbLine
 10
-148.401928862
 20
299.2578644958
 30
0.0
 11
-172.9019288619
 21
299.2578644958
 31
0.0
  0
LINE
  5
503
330
1F
100
AcDbEntity
  8
0
  6
Continuous
 62
     7
370
    25
100
AcDbLine
 10
-146.401928862
 20
284.4341914765
 30
0.0
 11
-146.401928862
 21
297.2578644958
 31
0.0
  0
LINE
  5
504
330
1F
100
AcDbEntity
  8
0
  6
Continuous
 62
     7
370
    25
100
AcDbLine
 10
-146.401928862
 20
-44.7513258181
 30
0.0
 11
-146.401928862
 21
-45.4353661048
 31
0.0
  0
ARC
  5
505
330
1F
100
AcDbEntity
  8
0
  6
Continuous
 62
     7
370
    25
100
AcDbCircle
 10
-148.3434399727
 20
-45.4976086806
 30
0.0
 40
1.942508566655278
100
AcDbArc
 50
1.8362067977
 51
91.7254354149
  0
ARC
  5
506
330
1F
100
AcDbEntity
  8
0
  6
Continuous
 62
     7
370
    25
100
AcDbCircle
 10
-148.3434399727
 20
-44.813568394
 30
0.0
 40
1.942508566655264
100
AcDbArc
 50
1.8362067977
 51
91.7254354149
  0
LINE
  5
507
330
1F
100
AcDbEntity
  8
0
  6
Continuous
 62
     7
370
    25
100
AcDbLine
 10
-146.401928862
 20
-45.4353661048
 30
0.0
 11
-146.401928862
 21
-50.5764423416
 31
0.0
  0
LINE
  5
508
330
1F
100
AcDbEntity
  8
0
  6
Continuous
 62
     7
370
    25
100
AcDbLine
 10
-162.401928862
 20
-50.5764423416
 30
0.0
 11
-162.401928862
 21
-45.4353661048
 31
0.0
  0
ARC
  5
509
330
1F
100
AcDbEntity
  8
0
  6
Continuous
 62
     7
370
    25
100
AcDbCircle
 10
-160.4604177512
 20
-45.4976086806
 30
0.0
 40
1.942508566655243
100
AcDbArc
 50
88.2745645851
 51
178.1637932023
  0
LINE
  5
50A
330
1F
100
AcDbEntity
  8
0
  6
Continuous
 62
     7
370
    25
100
AcDbLine
 10
-160.401928862
 20
-43.5559808632
 30
0.0
 11
-148.401928862
 21
-43.5559808632
 31
0.0
  0
LINE
  5
50B
330
1F
100
AcDbEntity
  8
0
  6
Continuous
 62
     7
370
    25
100
AcDbLine
 10
-160.401928862
 20
-42.8719405765
 30
0.0
 11
-148.401928862
 21
-42.8719405765
 31
0.0
  0
LINE
  5
50C
330
1F
100
AcDbEntity
  8
0
  6
Continuous
 62
     7
370
    25
100
AcDbLine
 10
-162.401928862
 20
-45.4353661048
 30
0.0
 11
-162.401928862
 21
-44.7513258181
 31
0.0
  0
ARC
  5
50D
330
1F
100
AcDbEntity
  8
0
  6
Continuous
 62
     7
370
    25
100
AcDbCircle
 10
-160.4604177512
 20
-44.813568394
 30
0.0
 40
1.942508566655285
100
AcDbArc
 50
88.2745645851
 51
178.1637932023
  0
LINE
  5
50E
330
1F
100
AcDbEntity
  8
0
  6
Continuous
 62
     7
370
    25
100
AcDbLine
 10
-162.401928862
 20
-50.5764423416
 30
0.0
 11
-162.401928862
 21
-50.918462485
 31
0.0
  0
LINE
  5
50F
330
1F
100
AcDbEntity
  8
0
  6
Continuous
 62
     7
370
    25
100
AcDbLine
 10
-146.401928862
 20
-50.918462485
 30
0.0
 11
-146.401928862
 21
-50.5764423416
 31
0.0
  0
LINE
  5
510
330
1F
100
AcDbEntity
  8
0
  6
Continuous
 62
     7
370
    25
100
AcDbLine
 10
-162.401928862
 20
-50.7421355042
 30
0.0
 11
-172.9019288619
 21
-50.7421355042
 31
0.0
  0
LINE
  5
511
330
1F
100
AcDbEntity
  8
0
  6
Continuous
 62
     7
370
    25
100
AcDbLine
 10
-172.9019288619
 20
-65.7421355042
 30
0.0
 11
-148.401928862
 21
-65.7421355042
 31
0.0
  0
CIRCLE
  5
512
330
1F
100
AcDbEntity
  8
0
  6
Continuous
 62
     7
370
    25
100
AcDbCircle
 10
-154.301928862
 20
-58.2421355042
 30
0.0
 40
3.499999999999972
  0
ARC
  5
513
330
1F
100
AcDbEntity
  8
0
  6
Continuous
 62
     7
370
    25
100
AcDbCircle
 10
-148.401928862
 20
-63.7421355042
 30
0.0
 40
2.000000000000007
100
AcDbArc
 50
270.0
 51
0.0
  0
LINE
  5
514
330
1F
100
AcDbEntity
  8
0
  6
Continuous
 62
     7
370
    25
100
AcDbLine
 10
-146.401928862
 20
-63.7421355042
 30
0.0
 11
-146.401928862
 21
-50.918462485
 31
0.0
  0
CIRCLE
  5
515
330
1F
100
AcDbEntity
  8
0
  6
Continuous
 62
     7
370
    25
100
AcDbCircle
 10
-154.301928862
 20
641.7578644958
 30
0.0
 40
2.458750000016591
  0
CIRCLE
  5
516
330
1F
100
AcDbEntity
  8
0
  6
Continuous
 62
     7
370
    25
100
AcDbCircle
 10
-154.301928862
 20
641.7578644958
 30
0.0
 40
3.000000000000051
  0
ENDSEC
  0
SECTION
  2
OBJECTS
  0
DICTIONARY
  5
C
330
0
100
AcDbDictionary
281
     1
  3
ACAD_GROUP
350
D
  3
ACAD_LAYOUT
350
1A
  3
ACAD_MLINESTYLE
350
17
  3
ACAD_PLOTSETTINGS
350
19
  3
ACAD_PLOTSTYLENAME
350
E
  3
ACAD_SCALELIST
350
47
  0
DICTIONARY
  5
D
102
{ACAD_REACTORS
330
C
102
}
330
C
100
AcDbDictionary
281
     1
  0
DICTIONARY
  5
1A
102
{ACAD_REACTORS
330
C
102
}
330
C
100
AcDbDictionary
281
     1
  3
Layout1
350
1E
  3
Layout2
350
26
  3
Model
350
22
  0
DICTIONARY
  5
17
102
{ACAD_REACTORS
330
C
102
}
330
C
100
AcDbDictionary
281
     1
  3
Standard
350
18
  0
DICTIONARY
  5
19
102
{ACAD_REACTORS
330
C
102
}
330
C
100
AcDbDictionary
281
     1
  0
ACDBDICTIONARYWDFLT
  5
E
102
{ACAD_REACTORS
330
C
102
}
330
C
100
AcDbDictionary
281
     1
  3
Normal
350
F
100
AcDbDictionaryWithDefault
340
F
  0
DICTIONARY
  5
47
102
{ACAD_REACTORS
330
C
102
}
330
C
100
AcDbDictionary
281
     1
  3
A0
350
48
  3
A1
350
49
  3
A2
350
4A
  3
A3
350
4B
  3
A4
350
4C
  3
A5
350
4D
  3
A6
350
4E
  3
A7
350
4F
  3
A8
350
50
  3
A9
350
51
  3
B0
350
52
  3
B1
350
53
  3
B2
350
54
  3
B3
350
55
  3
B4
350
56
  3
B5
350
57
  3
B6
350
58
  3
B7
350
59
  3
B8
350
5A
  3
B9
350
5B
  3
C0
350
5C
  3
C1
350
5D
  3
C2
350
5E
  3
C3
350
5F
  3
C4
350
60
  3
C5
350
61
  3
C6
350
62
  3
C7
350
63
  3
C8
350
64
  3
C9
350
65
  3
D0
350
66
  3
D1
350
67
  3
D2
350
68
  0
LAYOUT
  5
1E
102
{ACAD_REACTORS
330
1A
102
}
330
1A
100
AcDbPlotSettings
  1

  2
none_device
  4

  6

 40
0.0
 41
0.0
 42
0.0
 43
0.0
 44
0.0
 45
0.0
 46
0.0
 47
0.0
 48
0.0
 49
0.0
140
0.0
141
0.0
142
1.0
143
1.0
 70
   688
 72
     1
 73
     0
 74
     5
  7

 75
    16
147
1.0
148
0.0
149
0.0
100
AcDbLayout
  1
Layout1
 70
     1
 71
     1
 10
0.0
 20
0.0
 11
420.0
 21
297.0
 12
0.0
 22
0.0
 32
0.0
 14
1.0000000000E+20
 24
1.0000000000E+20
 34
1.0000000000E+20
 15
-1.0000000000E+20
 25
-1.0000000000E+20
 35
-1.0000000000E+20
146
0.0
 13
0.0
 23
0.0
 33
0.0
 16
1.0
 26
0.0
 36
0.0
 17
0.0
 27
1.0
 37
0.0
 76
     0
330
1B
  0
LAYOUT
  5
26
102
{ACAD_REACTORS
330
1A
102
}
330
1A
100
AcDbPlotSettings
  1

  2
none_device
  4

  6

 40
0.0
 41
0.0
 42
0.0
 43
0.0
 44
0.0
 45
0.0
 46
0.0
 47
0.0
 48
0.0
 49
0.0
140
0.0
141
0.0
142
1.0
143
1.0
 70
   688
 72
     1
 73
     0
 74
     5
  7

 75
    16
147
1.0
148
0.0
149
0.0
100
AcDbLayout
  1
Layout2
 70
     1
 71
     2
 10
0.0
 20
0.0
 11
0.0
 21
0.0
 12
0.0
 22
0.0
 32
0.0
 14
0.0
 24
0.0
 34
0.0
 15
0.0
 25
0.0
 35
0.0
146
0.0
 13
0.0
 23
0.0
 33
0.0
 16
1.0
 26
0.0
 36
0.0
 17
0.0
 27
1.0
 37
0.0
 76
     0
330
23
  0
LAYOUT
  5
22
102
{ACAD_REACTORS
330
1A
102
}
330
1A
100
AcDbPlotSettings
  1

  2
none_device
  4
Letter_(8.50_x_11.00_Inches)
  6

 40
6.35
 41
6.35
 42
6.35000508
 43
6.35000508
 44
215.9
 45
279.4
 46
0.0
 47
0.0
 48
0.0
 49
0.0
140
0.0
141
0.0
142
1.0
143
1.0
 70
  1712
 72
     1
 73
     0
 74
     0
  7

 75
     0
147
1.0
148
0.0
149
0.0
100
AcDbLayout
  1
Model
 70
     1
 71
     0
 10
0.0
 20
0.0
 11
841.0
 21
594.0
 12
0.0
 22
0.0
 32
0.0
 14
0.0
 24
0.0
 34
0.0
 15
841.0
 25
594.0
 35
0.0
146
0.0
 13
0.0
 23
0.0
 33
0.0
 16
1.0
 26
0.0
 36
0.0
 17
0.0
 27
1.0
 37
0.0
 76
     0
330
1F
331
29
  0
MLINESTYLE
  5
18
102
{ACAD_REACTORS
330
17
102
}
330
17
100
AcDbMlineStyle
  2
Standard
 70
     0
  3

 62
   256
 51
90.0
 52
90.0
 71
     2
 49
0.5
 62
   256
  6
BYLAYER
 49
-0.5
 62
   256
  6
BYLAYER
  0
ACDBPLACEHOLDER
  5
F
102
{ACAD_REACTORS
330
E
102
}
330
E
  0
SCALE
  5
48
102
{ACAD_REACTORS
330
47
102
}
330
47
100
AcDbScale
 70
     0
300
1:1
140
1.0
141
1.0
290
     1
  0
SCALE
  5
49
102
{ACAD_REACTORS
330
47
102
}
330
47
100
AcDbScale
 70
     0
300
1:2
140
1.0
141
2.0
290
     0
  0
SCALE
  5
4A
102
{ACAD_REACTORS
330
47
102
}
330
47
100
AcDbScale
 70
     0
300
1:4
140
1.0
141
4.0
290
     0
  0
SCALE
  5
4B
102
{ACAD_REACTORS
330
47
102
}
330
47
100
AcDbScale
 70
     0
300
1:5
140
1.0
141
5.0
290
     0
  0
SCALE
  5
4C
102
{ACAD_REACTORS
330
47
102
}
330
47
100
AcDbScale
 70
     0
300
1:8
140
1.0
141
8.0
290
     0
  0
SCALE
  5
4D
102
{ACAD_REACTORS
330
47
102
}
330
47
100
AcDbScale
 70
     0
300
1:10
140
1.0
141
10.0
290
     0
  0
SCALE
  5
4E
102
{ACAD_REACTORS
330
47
102
}
330
47
100
AcDbScale
 70
     0
300
1:16
140
1.0
141
16.0
290
     0
  0
SCALE
  5
4F
102
{ACAD_REACTORS
330
47
102
}
330
47
100
AcDbScale
 70
     0
300
1:20
140
1.0
141
20.0
290
     0
  0
SCALE
  5
50
102
{ACAD_REACTORS
330
47
102
}
330
47
100
AcDbScale
 70
     0
300
1:30
140
1.0
141
30.0
290
     0
  0
SCALE
  5
51
102
{ACAD_REACTORS
330
47
102
}
330
47
100
AcDbScale
 70
     0
300
1:40
140
1.0
141
40.0
290
     0
  0
SCALE
  5
52
102
{ACAD_REACTORS
330
47
102
}
330
47
100
AcDbScale
 70
     0
300
1:50
140
1.0
141
50.0
290
     0
  0
SCALE
  5
53
102
{ACAD_REACTORS
330
47
102
}
330
47
100
AcDbScale
 70
     0
300
1:100
140
1.0
141
100.0
290
     0
  0
SCALE
  5
54
102
{ACAD_REACTORS
330
47
102
}
330
47
100
AcDbScale
 70
     0
300
2:1
140
2.0
141
1.0
290
     0
  0
SCALE
  5
55
102
{ACAD_REACTORS
330
47
102
}
330
47
100
AcDbScale
 70
     0
300
4:1
140
4.0
141
1.0
290
     0
  0
SCALE
  5
56
102
{ACAD_REACTORS
330
47
102
}
330
47
100
AcDbScale
 70
     0
300
8:1
140
8.0
141
1.0
290
     0
  0
SCALE
  5
57
102
{ACAD_REACTORS
330
47
102
}
330
47
100
AcDbScale
 70
     0
300
10:1
140
10.0
141
1.0
290
     0
  0
SCALE
  5
58
102
{ACAD_REACTORS
330
47
102
}
330
47
100
AcDbScale
 70
     0
300
100:1
140
100.0
141
1.0
290
     0
  0
SCALE
  5
59
102
{ACAD_REACTORS
330
47
102
}
330
47
100
AcDbScale
 70
     0
300
1/128" = 1'-0"
140
0.0078125
141
12.0
290
     0
  0
SCALE
  5
5A
102
{ACAD_REACTORS
330
47
102
}
330
47
100
AcDbScale
 70
     0
300
1/64" = 1'-0"
140
0.015625
141
12.0
290
     0
  0
SCALE
  5
5B
102
{ACAD_REACTORS
330
47
102
}
330
47
100
AcDbScale
 70
     0
300
1/32" = 1'-0"
140
0.03125
141
12.0
290
     0
  0
SCALE
  5
5C
102
{ACAD_REACTORS
330
47
102
}
330
47
100
AcDbScale
 70
     0
300
1/16" = 1'-0"
140
0.0625
141
12.0
290
     0
  0
SCALE
  5
5D
102
{ACAD_REACTORS
330
47
102
}
330
47
100
AcDbScale
 70
     0
300
3/32" = 1'-0"
140
0.09375
141
12.0
290
     0
  0
SCALE
  5
5E
102
{ACAD_REACTORS
330
47
102
}
330
47
100
AcDbScale
 70
     0
300
1/8" = 1'-0"
140
0.125
141
12.0
290
     0
  0
SCALE
  5
5F
102
{ACAD_REACTORS
330
47
102
}
330
47
100
AcDbScale
 70
     0
300
3/16" = 1'-0"
140
0.1875
141
12.0
290
     0
  0
SCALE
  5
60
102
{ACAD_REACTORS
330
47
102
}
330
47
100
AcDbScale
 70
     0
300
1/4" = 1'-0"
140
0.25
141
12.0
290
     0
  0
SCALE
  5
61
102
{ACAD_REACTORS
330
47
102
}
330
47
100
AcDbScale
 70
     0
300
3/8" = 1'-0"
140
0.375
141
12.0
290
     0
  0
SCALE
  5
62
102
{ACAD_REACTORS
330
47
102
}
330
47
100
AcDbScale
 70
     0
300
1/2" = 1'-0"
140
0.5
141
12.0
290
     0
  0
SCALE
  5
63
102
{ACAD_REACTORS
330
47
102
}
330
47
100
AcDbScale
 70
     0
300
3/4" = 1'-0"
140
0.75
141
12.0
290
     0
  0
SCALE
  5
64
102
{ACAD_REACTORS
330
47
102
}
330
47
100
AcDbScale
 70
     0
300
1" = 1'-0"
140
1.0
141
12.0
290
     0
  0
SCALE
  5
65
102
{ACAD_REACTORS
330
47
102
}
330
47
100
AcDbScale
 70
     0
300
1-1/2" = 1'-0"
140
1.5
141
12.0
290
     0
  0
SCALE
  5
66
102
{ACAD_REACTORS
330
47
102
}
330
47
100
AcDbScale
 70
     0
300
3" = 1'-0"
140
3.0
141
12.0
290
     0
  0
SCALE
  5
67
102
{ACAD_REACTORS
330
47
102
}
330
47
100
AcDbScale
 70
     0
300
6" = 1'-0"
140
6.0
141
12.0
290
     0
  0
SCALE
  5
68
102
{ACAD_REACTORS
330
47
102
}
330
47
100
AcDbScale
 70
     0
300
1'-0" = 1'-0"
140
12.0
141
12.0
290
     0
  0
ENDSEC
  0
EOF
