  0
SECTION
  2
HEADER
  9
$ACADVER
  1
AC1015
  9
$ACADMAINTVER
 70
     6
  9
$DWGCODEPAGE
  3
ANSI_1251
  9
$INSBASE
 10
0.0
 20
0.0
 30
0.0
  9
$EXTMIN
 10
0.0
 20
0.0
 30
0.0
  9
$EXTMAX
 10
841.0
 20
594.0
 30
0.0
  9
$LIMMIN
 10
0.0
 20
0.0
  9
$LIMMAX
 10
841.0
 20
594.0
  9
$ORTHOMODE
 70
     0
  9
$REGENMODE
 70
     1
  9
$FILLMODE
 70
     1
  9
$QTEXTMODE
 70
     0
  9
$MIRRTEXT
 70
     1
  9
$LTSCALE
 40
1.0
  9
$ATTMODE
 70
     1
  9
$TEXTSIZE
 40
3.5
  9
$TRACEWID
 40
1.0
  9
$TEXTSTYLE
  7
Standard
  9
$CLAYER
  8
0
  9
$CELTYPE
  6
ByLayer
  9
$CECOLOR
 62
   256
  9
$CELTSCALE
 40
1.0
  9
$DISPSILH
 70
     0
  9
$DIMSCALE
 40
1.0
  9
$DIMASZ
 40
3.5
  9
$DIMEXO
 40
0.01
  9
$DIMDLI
 40
3.75
  9
$DIMRND
 40
0.0
  9
$DIMDLE
 40
0.0
  9
$DIMEXE
 40
1.0
  9
$DIMTP
 40
0.0
  9
$DIMTM
 40
0.0
  9
$DIMTXT
 40
3.5
  9
$DIMCEN
 40
2.5
  9
$DIMTSZ
 40
0.0
  9
$DIMTOL
 70
     0
  9
$DIMLIM
 70
     0
  9
$DIMTIH
 70
     1
  9
$DIMTOH
 70
     1
  9
$DIMSE1
 70
     0
  9
$DIMSE2
 70
     0
  9
$DIMTAD
 70
     1
  9
$DIMZIN
 70
     0
  9
$DIMBLK
  1

  9
$DIMASO
 70
     1
  9
$DIMSHO
 70
     1
  9
$DIMPOST
  1

  9
$DIMAPOST
  1

  9
$DIMALT
 70
     0
  9
$DIMALTD
 70
     3
  9
$DIMALTF
 40
0.0393700787
  9
$DIMLFAC
 40
1.0
  9
$DIMTOFL
 70
     1
  9
$DIMTVP
 40
0.0
  9
$DIMTIX
 70
     0
  9
$DIMSOXD
 70
     0
  9
$DIMSAH
 70
     0
  9
$DIMBLK1
  1

  9
$DIMBLK2
  1

  9
$DIMSTYLE
  2
ISO-25
  9
$DIMCLRD
 70
     0
  9
$DIMCLRE
 70
     0
  9
$DIMCLRT
 70
     0
  9
$DIMTFAC
 40
1.0
  9
$DIMGAP
 40
3.0
  9
$DIMJUST
 70
     0
  9
$DIMSD1
 70
     0
  9
$DIMSD2
 70
     0
  9
$DIMTOLJ
 70
     0
  9
$DIMTZIN
 70
     0
  9
$DIMALTZ
 70
     0
  9
$DIMALTTZ
 70
     0
  9
$DIMUPT
 70
     0
  9
$DIMDEC
 70
     2
  9
$DIMTDEC
 70
     3
  9
$DIMALTU
 70
     2
  9
$DIMALTTD
 70
     3
  9
$DIMTXSTY
  7
Standard
  9
$DIMAUNIT
 70
     0
  9
$DIMADEC
 70
     2
  9
$DIMALTRND
 40
0.0
  9
$DIMAZIN
 70
     0
  9
$DIMDSEP
 70
    44
  9
$DIMATFIT
 70
     3
  9
$DIMFRAC
 70
     0
  9
$DIMLDRBLK
  1

  9
$DIMLUNIT
 70
     2
  9
$DIMLWD
 70
    -2
  9
$DIMLWE
 70
    -2
  9
$DIMTMOVE
 70
     0
  9
$LUNITS
 70
     2
  9
$LUPREC
 70
     2
  9
$SKETCHINC
 40
1.0
  9
$FILLETRAD
 40
10.0
  9
$AUNITS
 70
     0
  9
$AUPREC
 70
     2
  9
$MENU
  1
.
  9
$ELEVATION
 40
0.0
  9
$PELEVATION
 40
0.0
  9
$THICKNESS
 40
0.0
  9
$LIMCHECK
 70
     0
  9
$CHAMFERA
 40
0.0
  9
$CHAMFERB
 40
0.0
  9
$CHAMFERC
 40
0.0
  9
$CHAMFERD
 40
0.0
  9
$SKPOLY
 70
     0
  9
$TDCREATE
 40
2459732.500361331
  9
$TDUCREATE
 40
2459732.375361331
  9
$TDUPDATE
 40
2459732.500362107
  9
$TDUUPDATE
 40
2459732.375362107
  9
$TDINDWG
 40
0.0000000116
  9
$TDUSRTIMER
 40
0.0000000116
  9
$USRTIMER
 70
     1
  9
$ANGBASE
 50
0.0
  9
$ANGDIR
 70
     0
  9
$PDMODE
 70
     0
  9
$PDSIZE
 40
-1.0
  9
$PLINEWID
 40
0.0
  9
$SPLFRAME
 70
     0
  9
$SPLINETYPE
 70
     6
  9
$SPLINESEGS
 70
     8
  9
$HANDSEED
  5
48F
  9
$SURFTAB1
 70
     6
  9
$SURFTAB2
 70
     6
  9
$SURFTYPE
 70
     6
  9
$SURFU
 70
     6
  9
$SURFV
 70
     6
  9
$UCSBASE
  2

  9
$UCSNAME
  2

  9
$UCSORG
 10
0.0
 20
0.0
 30
0.0
  9
$UCSXDIR
 10
1.0
 20
0.0
 30
0.0
  9
$UCSYDIR
 10
0.0
 20
1.0
 30
0.0
  9
$UCSORTHOREF
  2

  9
$UCSORTHOVIEW
 70
     0
  9
$UCSORGTOP
 10
0.0
 20
0.0
 30
0.0
  9
$UCSORGBOTTOM
 10
0.0
 20
0.0
 30
0.0
  9
$UCSORGLEFT
 10
0.0
 20
0.0
 30
0.0
  9
$UCSORGRIGHT
 10
0.0
 20
0.0
 30
0.0
  9
$UCSORGFRONT
 10
0.0
 20
0.0
 30
0.0
  9
$UCSORGBACK
 10
0.0
 20
0.0
 30
0.0
  9
$PUCSBASE
  2

  9
$PUCSNAME
  2

  9
$PUCSORG
 10
0.0
 20
0.0
 30
0.0
  9
$PUCSXDIR
 10
1.0
 20
0.0
 30
0.0
  9
$PUCSYDIR
 10
0.0
 20
1.0
 30
0.0
  9
$PUCSORTHOREF
  2

  9
$PUCSORTHOVIEW
 70
     0
  9
$PUCSORGTOP
 10
0.0
 20
0.0
 30
0.0
  9
$PUCSORGBOTTOM
 10
0.0
 20
0.0
 30
0.0
  9
$PUCSORGLEFT
 10
0.0
 20
0.0
 30
0.0
  9
$PUCSORGRIGHT
 10
0.0
 20
0.0
 30
0.0
  9
$PUCSORGFRONT
 10
0.0
 20
0.0
 30
0.0
  9
$PUCSORGBACK
 10
0.0
 20
0.0
 30
0.0
  9
$USERI1
 70
     0
  9
$USERI2
 70
     0
  9
$USERI3
 70
     0
  9
$USERI4
 70
     0
  9
$USERI5
 70
     0
  9
$USERR1
 40
0.0
  9
$USERR2
 40
0.0
  9
$USERR3
 40
0.0
  9
$USERR4
 40
0.0
  9
$USERR5
 40
0.0
  9
$WORLDVIEW
 70
     1
  9
$SHADEDGE
 70
     3
  9
$SHADEDIF
 70
    70
  9
$TILEMODE
 70
     1
  9
$MAXACTVP
 70
    64
  9
$PINSBASE
 10
0.0
 20
0.0
 30
0.0
  9
$PLIMCHECK
 70
     0
  9
$PEXTMIN
 10
1.0000000000E+20
 20
1.0000000000E+20
 30
1.0000000000E+20
  9
$PEXTMAX
 10
-1.0000000000E+20
 20
-1.0000000000E+20
 30
-1.0000000000E+20
  9
$PLIMMIN
 10
0.0
 20
0.0
  9
$PLIMMAX
 10
420.0
 20
297.0
  9
$UNITMODE
 70
     0
  9
$VISRETAIN
 70
     1
  9
$PLINEGEN
 70
     0
  9
$PSLTSCALE
 70
     1
  9
$TREEDEPTH
 70
  3020
  9
$CMLSTYLE
  2
Standard
  9
$CMLJUST
 70
     0
  9
$CMLSCALE
 40
20.0
  9
$PROXYGRAPHICS
 70
     1
  9
$MEASUREMENT
 70
     1
  9
$CELWEIGHT
370
    -1
  9
$ENDCAPS
280
     0
  9
$JOINSTYLE
280
     0
  9
$LWDISPLAY
290
     1
  9
$INSUNITS
 70
     4
  9
$HYPERLINKBASE
  1

  9
$STYLESHEET
  1

  9
$XEDIT
290
     1
  9
$CEPSNTYPE
380
     0
  9
$PSTYLEMODE
290
     1
  9
$FINGERPRINTGUID
  2
{2B197B0F-2211-497F-962B-87D7F6A449F0}
  9
$VERSIONGUID
  2
{FAEB1C32-E019-11D5-929B-00C0DF256EC4}
  9
$EXTNAMES
290
     1
  9
$PSVPSCALE
 40
0.0
  9
$OLESTARTUP
290
     0
  0
ENDSEC
  0
SECTION
  2
CLASSES
  0
CLASS
  1
ACDBDICTIONARYWDFLT
  2
AcDbDictionaryWithDefault
  3
ObjectDBX Classes
 90
        0
280
     0
281
     0
  0
CLASS
  1
VISUALSTYLE
  2
AcDbVisualStyle
  3
ObjectDBX Classes
 90
     4095
280
     0
281
     0
  0
CLASS
  1
MATERIAL
  2
AcDbMaterial
  3
ObjectDBX Classes
 90
     1153
280
     0
281
     0
  0
CLASS
  1
SCALE
  2
AcDbScale
  3
ObjectDBX Classes
 90
     1153
280
     0
281
     0
  0
CLASS
  1
TABLESTYLE
  2
AcDbTableStyle
  3
ObjectDBX Classes
 90
     4095
280
     0
281
     0
  0
CLASS
  1
MLEADERSTYLE
  2
AcDbMLeaderStyle
  3
ACDB_MLEADERSTYLE_CLASS
 90
     4095
280
     0
281
     0
  0
CLASS
  1
SUN
  2
AcDbSun
  3
SCENEOE
 90
     1153
280
     0
281
     0
  0
CLASS
  1
ACDBPLACEHOLDER
  2
AcDbPlaceHolder
  3
ObjectDBX Classes
 90
        0
280
     0
281
     0
  0
CLASS
  1
LAYOUT
  2
AcDbLayout
  3
ObjectDBX Classes
 90
        0
280
     0
281
     0
  0
ENDSEC
  0
SECTION
  2
TABLES
  0
TABLE
  2
VPORT
  5
8
330
0
100
AcDbSymbolTable
 70
     1
  0
VPORT
  5
29
330
8
100
AcDbSymbolTableRecord
100
AcDbViewportTableRecord
  2
*Active
 70
     0
 10
0.0
 20
0.0
 11
1.0
 21
1.0
 12
420.5
 22
297.0
 13
0.0
 23
0.0
 14
10.0
 24
10.0
 15
10.0
 25
10.0
 16
0.0
 26
0.0
 36
1.0
 17
0.0
 27
0.0
 37
0.0
 40
594.0
 41
1.4158249158
 42
50.0
 43
0.0
 44
0.0
 50
0.0
 51
0.0
 71
     0
 72
  2000
 73
     1
 74
     3
 75
     0
 76
     0
 77
     0
 78
     0
281
     0
 65
     1
110
0.0
120
0.0
130
0.0
111
1.0
121
0.0
131
0.0
112
0.0
122
1.0
132
0.0
 79
     0
146
0.0
  0
ENDTAB
  0
TABLE
  2
LTYPE
  5
5
330
0
100
AcDbSymbolTable
 70
     6
  0
LTYPE
  5
14
330
5
100
AcDbSymbolTableRecord
100
AcDbLinetypeTableRecord
  2
ByBlock
 70
     0
  3

 72
    65
 73
     0
 40
0.0
  0
LTYPE
  5
15
330
5
100
AcDbSymbolTableRecord
100
AcDbLinetypeTableRecord
  2
ByLayer
 70
     0
  3

 72
    65
 73
     0
 40
0.0
  0
LTYPE
  5
16
330
5
100
AcDbSymbolTableRecord
100
AcDbLinetypeTableRecord
  2
Continuous
 70
     0
  3
Solid line
 72
    65
 73
     0
 40
0.0
  0
LTYPE
  5
6E
330
5
100
AcDbSymbolTableRecord
100
AcDbLinetypeTableRecord
  2
HIDDEN
 70
     0
  3
Hidden __ __ __ __ __ __ __ __ __ __ __ __ __ __
 72
    65
 73
     2
 40
1.905
 49
1.27
 74
     0
 49
-0.635
 74
     0
  0
LTYPE
  5
6F
330
5
100
AcDbSymbolTableRecord
100
AcDbLinetypeTableRecord
  2
PHANTOM
 70
     0
  3
Phantom ______  __  __  ______  __  __  ______
 72
    65
 73
     6
 40
12.7
 49
6.35
 74
     0
 49
-1.27
 74
     0
 49
1.27
 74
     0
 49
-1.27
 74
     0
 49
1.27
 74
     0
 49
-1.27
 74
     0
  0
LTYPE
  5
70
330
5
100
AcDbSymbolTableRecord
100
AcDbLinetypeTableRecord
  2
CENTER
 70
     0
  3
Center ____ _ ____ _ ____ _ ____ _ ____ _ ____
 72
    65
 73
     4
 40
10.16
 49
6.35
 74
     0
 49
-1.27
 74
     0
 49
1.27
 74
     0
 49
-1.27
 74
     0
  0
LTYPE
  5
71
330
5
100
AcDbSymbolTableRecord
100
AcDbLinetypeTableRecord
  2
CENTERX2
 70
     0
  3
Center (2x) ________  __  ________  __  _____
 72
    65
 73
     4
 40
20.32
 49
12.7
 74
     0
 49
-2.54
 74
     0
 49
2.54
 74
     0
 49
-2.54
 74
     0
  0
LTYPE
  5
72
330
5
100
AcDbSymbolTableRecord
100
AcDbLinetypeTableRecord
  2
DOT2
 70
     0
  3
Dot (.5x) ........................................
 72
    65
 73
     2
 40
0.635
 49
0.0
 74
     0
 49
-0.635
 74
     0
  0
ENDTAB
  0
TABLE
  2
LAYER
  5
2
330
0
100
AcDbSymbolTable
 70
     1
  0
LAYER
  5
10
330
2
100
AcDbSymbolTableRecord
100
AcDbLayerTableRecord
  2
0
 70
     0
 62
     7
  6
Continuous
370
    -3
390
F
  0
ENDTAB
  0
TABLE
  2
STYLE
  5
3
330
0
100
AcDbSymbolTable
 70
     1
  0
STYLE
  5
11
330
3
100
AcDbSymbolTableRecord
100
AcDbTextStyleTableRecord
  2
Standard
 70
     0
 40
0.0
 41
1.0
 50
0.0
 71
     0
 42
3.5
  3
txt
  4

  0
ENDTAB
  0
TABLE
  2
VIEW
  5
6
330
0
100
AcDbSymbolTable
 70
     0
  0
ENDTAB
  0
TABLE
  2
UCS
  5
7
330
0
100
AcDbSymbolTable
 70
     0
  0
ENDTAB
  0
TABLE
  2
APPID
  5
9
330
0
100
AcDbSymbolTable
 70
     1
  0
APPID
  5
12
330
9
100
AcDbSymbolTableRecord
100
AcDbRegAppTableRecord
  2
ACAD
 70
     0
  0
ENDTAB
  0
TABLE
  2
DIMSTYLE
  5
A
330
0
100
AcDbSymbolTable
 70
     1
100
AcDbDimStyleTable
  0
DIMSTYLE
105
27
330
A
100
AcDbSymbolTableRecord
100
AcDbDimStyleTableRecord
  2
ISO-25
 70
     0
 41
2.5
 42
0.625
 43
3.75
 44
1.25
 73
     0
 74
     0
 77
     1
 78
     8
140
2.5
141
2.5
143
0.0393700787
147
0.625
171
     3
172
     1
178
     0
271
     2
272
     2
274
     3
278
    44
283
     0
284
     8
340
11
  0
ENDTAB
  0
TABLE
  2
BLOCK_RECORD
  5
1
330
0
100
AcDbSymbolTable
 70
     1
  0
BLOCK_RECORD
  5
1F
330
1
100
AcDbSymbolTableRecord
100
AcDbBlockTableRecord
  2
*Model_Space
340
22
  0
BLOCK_RECORD
  5
1B
330
1
100
AcDbSymbolTableRecord
100
AcDbBlockTableRecord
  2
*Paper_Space
340
1E
  0
BLOCK_RECORD
  5
23
330
1
100
AcDbSymbolTableRecord
100
AcDbBlockTableRecord
  2
*Paper_Space0
340
26
  0
ENDTAB
  0
ENDSEC
  0
SECTION
  2
BLOCKS
  0
BLOCK
  5
20
330
1F
100
AcDbEntity
  8
0
100
AcDbBlockBegin
  2
*Model_Space
 70
     0
 10
0.0
 20
0.0
 30
0.0
  3
*Model_Space
  1

  0
ENDBLK
  5
21
330
1F
100
AcDbEntity
  8
0
100
AcDbBlockEnd
  0
BLOCK
  5
1C
330
1B
100
AcDbEntity
 67
     1
  8
0
100
AcDbBlockBegin
  2
*Paper_Space
 70
     0
 10
0.0
 20
0.0
 30
0.0
  3
*Paper_Space
  1

  0
ENDBLK
  5
1D
330
1B
100
AcDbEntity
 67
     1
  8
0
100
AcDbBlockEnd
  0
BLOCK
  5
24
330
23
100
AcDbEntity
  8
0
100
AcDbBlockBegin
  2
*Paper_Space0
 70
     0
 10
0.0
 20
0.0
 30
0.0
  3
*Paper_Space0
  1

  0
ENDBLK
  5
25
330
23
100
AcDbEntity
  8
0
100
AcDbBlockEnd
  0
ENDSEC
  0
SECTION
  2
ENTITIES
  0
ARC
  5
73
330
1F
100
AcDbEntity
  8
0
  6
Continuous
 62
     7
370
    25
100
AcDbCircle
 10
767.4593535338
 20
274.5748509703
 30
0.0
 40
0.5
100
AcDbArc
 50
180.0
 51
0.0
  0
ARC
  5
74
330
1F
100
AcDbEntity
  8
0
  6
Continuous
 62
     7
370
    25
100
AcDbCircle
 10
767.4593535338
 20
286.1748509704
 30
0.0
 40
0.5000000000001137
100
AcDbArc
 50
0.0
 51
180.0
  0
LINE
  5
75
330
1F
100
AcDbEntity
  8
0
  6
Continuous
 62
     7
370
    25
100
AcDbLine
 10
762.9593535338
 20
275.3748509704
 30
0.0
 11
763.1699325888
 21
275.0101173481
 31
0.0
  0
LINE
  5
76
330
1F
100
AcDbEntity
  8
0
  6
Continuous
 62
     7
370
    25
100
AcDbLine
 10
777.4181035338
 20
283.3748509703
 30
0.0
 11
768.7593535338
 21
283.3748509703
 31
0.0
  0
LINE
  5
77
330
1F
100
AcDbEntity
  8
0
  6
Continuous
 62
     7
370
    25
100
AcDbLine
 10
768.7593535338
 20
277.3748509703
 30
0.0
 11
777.4181035338
 21
277.3748509703
 31
0.0
  0
LINE
  5
78
330
1F
100
AcDbEntity
  8
0
  6
Continuous
 62
     7
370
    25
100
AcDbLine
 10
777.4181035338
 20
277.3748509703
 30
0.0
 11
777.9593535338
 21
277.9161009703
 31
0.0
  0
LINE
  5
79
330
1F
100
AcDbEntity
  8
0
  6
Continuous
 62
     7
370
    25
100
AcDbLine
 10
777.9593535338
 20
282.8336009704
 30
0.0
 11
777.4181035338
 21
283.3748509704
 31
0.0
  0
LINE
  5
7A
330
1F
100
AcDbEntity
  8
0
  6
Continuous
 62
     7
370
    25
100
AcDbLine
 10
763.1699325888
 20
285.7395845926
 30
0.0
 11
762.9593535338
 21
285.3748509703
 31
0.0
  0
ARC
  5
7B
330
1F
100
AcDbEntity
  8
0
  6
Continuous
 62
     7
370
    25
100
AcDbCircle
 10
767.4593535338
 20
261.1748509704
 30
0.0
 40
0.5000000000000007
100
AcDbArc
 50
0.0
 51
113.5781784782
  0
LINE
  5
7C
330
1F
100
AcDbEntity
  8
0
  6
Continuous
 62
     7
370
    25
100
AcDbLine
 10
777.4181035338
 20
258.3748509703
 30
0.0
 11
768.7593535338
 21
258.3748509703
 31
0.0
  0
LINE
  5
7D
330
1F
100
AcDbEntity
  8
0
  6
Continuous
 62
     7
370
    25
100
AcDbLine
 10
777.4181035338
 20
252.3748509703
 30
0.0
 11
777.9593535338
 21
252.9161009703
 31
0.0
  0
LINE
  5
7E
330
1F
100
AcDbEntity
  8
0
  6
Continuous
 62
     7
370
    25
100
AcDbLine
 10
777.9593535338
 20
257.8336009704
 30
0.0
 11
777.4181035338
 21
258.3748509704
 31
0.0
  0
ARC
  5
7F
330
1F
100
AcDbEntity
  8
0
  6
Continuous
 62
     7
370
    25
100
AcDbCircle
 10
64.0593535338
 20
261.1748509704
 30
0.0
 40
0.5000000000000071
100
AcDbArc
 50
66.4218215218
 51
180.0
  0
LINE
  5
80
330
1F
100
AcDbEntity
  8
0
  6
Continuous
 62
     7
370
    25
100
AcDbLine
 10
54.1006035338
 20
258.3748509704
 30
0.0
 11
53.5593535338
 21
257.8336009704
 31
0.0
  0
LINE
  5
81
330
1F
100
AcDbEntity
  8
0
  6
Continuous
 62
     7
370
    25
100
AcDbLine
 10
53.5593535338
 20
252.9161009703
 30
0.0
 11
54.1006035338
 21
252.3748509703
 31
0.0
  0
LINE
  5
82
330
1F
100
AcDbEntity
  8
0
  6
Continuous
 62
     7
370
    25
100
AcDbLine
 10
62.7593535338
 20
258.3748509703
 30
0.0
 11
54.1006035338
 21
258.3748509703
 31
0.0
  0
ARC
  5
83
330
1F
100
AcDbEntity
  8
0
  6
Continuous
 62
     7
370
    25
100
AcDbCircle
 10
64.0593535338
 20
286.1748509704
 30
0.0
 40
0.5000000000000071
100
AcDbArc
 50
0.0
 51
180.0
  0
ARC
  5
84
330
1F
100
AcDbEntity
  8
0
  6
Continuous
 62
     7
370
    25
100
AcDbCircle
 10
64.0593535338
 20
274.5748509703
 30
0.0
 40
0.5000000000000071
100
AcDbArc
 50
180.0
 51
0.0
  0
LINE
  5
85
330
1F
100
AcDbEntity
  8
0
  6
Continuous
 62
     7
370
    25
100
AcDbLine
 10
54.1006035338
 20
277.3748509703
 30
0.0
 11
62.7593535338
 21
277.3748509703
 31
0.0
  0
LINE
  5
86
330
1F
100
AcDbEntity
  8
0
  6
Continuous
 62
     7
370
    25
100
AcDbLine
 10
62.7593535338
 20
283.3748509703
 30
0.0
 11
54.1006035338
 21
283.3748509703
 31
0.0
  0
LINE
  5
87
330
1F
100
AcDbEntity
  8
0
  6
Continuous
 62
     7
370
    25
100
AcDbLine
 10
54.1006035338
 20
283.3748509704
 30
0.0
 11
53.5593535338
 21
282.8336009704
 31
0.0
  0
LINE
  5
88
330
1F
100
AcDbEntity
  8
0
  6
Continuous
 62
     7
370
    25
100
AcDbLine
 10
53.5593535338
 20
277.9161009703
 30
0.0
 11
54.1006035338
 21
277.3748509703
 31
0.0
  0
SPLINE
  5
89
330
1F
100
AcDbEntity
  8
0
  6
Continuous
 62
     7
370
    25
100
AcDbSpline
210
0.0
220
0.0
230
1.0
 70
    24
 71
     3
 72
    16
 73
    12
 74
     0
 42
0.000000001
 43
0.00000001
 40
0.0
 40
0.0
 40
0.0
 40
0.0
 40
0.1658292928977498
 40
0.2550981074401224
 40
0.3462613343064166
 40
0.4374245611727111
 40
0.5266933757150835
 40
0.6925226686128335
 40
0.8583519615105839
 40
0.9476207760529565
 40
1.0
 40
1.0
 40
1.0
 40
1.0
 10
766.9593535337912
 20
284.1005405949784
 30
0.0
 10
766.959353533791
 20
283.4916327973034
 30
0.0
 10
766.959353533791
 20
282.5549392609677
 30
0.0
 10
766.9593535337913
 20
281.0551405697319
 30
0.0
 10
766.9593535337913
 20
279.8631834899168
 30
0.0
 10
766.959353533791
 20
278.6887552157104
 30
0.0
 10
766.9593535337913
 20
277.2851419224231
 30
0.0
 10
766.9593535337913
 20
275.817798841641
 30
0.0
 10
766.959353533791
 20
274.9186114908202
 30
0.0
 10
766.9593535337913
 20
274.590780163706
 30
0.0
 10
766.9593535337912
 20
274.6011705791463
 30
0.0
 10
766.9593535337912
 20
274.6050127918804
 30
0.0
  0
SPLINE
  5
8A
330
1F
100
AcDbEntity
  8
0
  6
Continuous
 62
     7
370
    25
100
AcDbSpline
210
0.0
220
0.0
230
1.0
 70
     8
 71
     3
 72
     8
 73
     4
 74
     0
 42
0.000000001
 43
0.00000001
 40
0.0
 40
0.0
 40
0.0
 40
0.0
 40
1.0
 40
1.0
 40
1.0
 40
1.0
 10
762.9593535337984
 20
281.2403455409618
 30
0.0
 10
762.9593535337984
 20
280.2699396050716
 30
0.0
 10
763.1336688341778
 20
279.3260932631405
 30
0.0
 10
763.4059355211897
 20
278.3971713085138
 30
0.0
  0
SPLINE
  5
8B
330
1F
100
AcDbEntity
  8
0
  6
Continuous
 62
     7
370
    25
100
AcDbSpline
210
0.0
220
0.0
230
1.0
 70
     8
 71
     3
 72
     8
 73
     4
 74
     0
 42
0.000000001
 43
0.00000001
 40
0.0
 40
0.0
 40
0.0
 40
0.0
 40
1.0
 40
1.0
 40
1.0
 40
1.0
 10
763.4059355211896
 20
284.0835197734097
 30
0.0
 10
763.1336688341783
 20
283.1545978187848
 30
0.0
 10
762.9593535337984
 20
282.2107514768502
 30
0.0
 10
762.9593535337984
 20
281.2403455409618
 30
0.0
  0
LINE
  5
8C
330
1F
100
AcDbEntity
  8
0
  6
Continuous
 62
     7
370
    25
100
AcDbLine
 10
766.9593535338
 20
284.0835197734
 30
0.0
 11
763.4059355212
 21
284.0835197734
 31
0.0
  0
LINE
  5
8D
330
1F
100
AcDbEntity
  8
0
  6
Continuous
 62
     7
370
    25
100
AcDbLine
 10
766.9593535338
 20
278.3971713085
 30
0.0
 11
763.4059355212
 21
278.3971713085
 31
0.0
  0
LINE
  5
8E
330
1F
100
AcDbEntity
  8
0
  6
Continuous
 62
     7
370
    25
100
AcDbLine
 10
762.9593535338
 20
281.240345541
 30
0.0
 11
762.9593535338
 21
276.542836907
 31
0.0
  0
SPLINE
  5
8F
330
1F
100
AcDbEntity
  8
0
  6
Continuous
 62
     7
370
    25
100
AcDbSpline
210
0.0
220
0.0
230
1.0
 70
     8
 71
     3
 72
     8
 73
     4
 74
     0
 42
0.000000001
 43
0.00000001
 40
0.0
 40
0.0
 40
0.0
 40
0.0
 40
1.0
 40
1.0
 40
1.0
 40
1.0
 10
763.4059355211897
 20
278.3971713085075
 30
0.0
 10
763.1336688341784
 20
277.7913231275764
 30
0.0
 10
762.9593535337984
 20
277.1757411763774
 30
0.0
 10
762.9593535337984
 20
276.542836906976
 30
0.0
  0
SPLINE
  5
90
330
1F
100
AcDbEntity
  8
0
  6
Continuous
 62
     7
370
    25
100
AcDbSpline
210
0.0
220
0.0
230
1.0
 70
     8
 71
     3
 72
     8
 73
     4
 74
     0
 42
0.000000001
 43
0.00000001
 40
0.0
 40
0.0
 40
0.0
 40
0.0
 40
1.0
 40
1.0
 40
1.0
 40
1.0
 10
762.9593535337984
 20
276.542836906976
 30
0.0
 10
762.9593535337984
 20
275.9099326375735
 30
0.0
 10
763.1336688341779
 20
275.2943506863768
 30
0.0
 10
763.4059355211897
 20
274.6885025054447
 30
0.0
  0
LINE
  5
91
330
1F
100
AcDbEntity
  8
0
  6
Continuous
 62
     7
370
    25
100
AcDbLine
 10
766.9593535338
 20
274.6885025054
 30
0.0
 11
763.4059355212
 21
274.6885025054
 31
0.0
  0
LINE
  5
92
330
1F
100
AcDbEntity
  8
0
  6
Continuous
 62
     7
370
    25
100
AcDbLine
 10
762.9593535338
 20
285.0723596043
 30
0.0
 11
762.9593535338
 21
281.240345541
 31
0.0
  0
SPLINE
  5
93
330
1F
100
AcDbEntity
  8
0
  6
Continuous
 62
     7
370
    25
100
AcDbSpline
210
0.0
220
0.0
230
1.0
 70
     8
 71
     3
 72
     8
 73
     4
 74
     0
 42
0.000000001
 43
0.00000001
 40
0.0
 40
0.0
 40
0.0
 40
0.0
 40
1.0
 40
1.0
 40
1.0
 40
1.0
 10
762.9593535337982
 20
285.0723596043313
 30
0.0
 10
762.9593535337982
 20
284.7348579378436
 30
0.0
 10
763.1336688341777
 20
284.4065935471092
 30
0.0
 10
763.4059355211895
 20
284.0835197734148
 30
0.0
  0
SPLINE
  5
94
330
1F
100
AcDbEntity
  8
0
  6
Continuous
 62
     7
370
    25
100
AcDbSpline
210
0.0
220
0.0
230
1.0
 70
     8
 71
     3
 72
     8
 73
     4
 74
     0
 42
0.000000001
 43
0.00000001
 40
0.0
 40
0.0
 40
0.0
 40
0.0
 40
1.0
 40
1.0
 40
1.0
 40
1.0
 10
763.4059355211895
 20
286.0611994352477
 30
0.0
 10
763.1336688341781
 20
285.7381256615539
 30
0.0
 10
762.9593535337982
 20
285.4098612708182
 30
0.0
 10
762.9593535337982
 20
285.0723596043313
 30
0.0
  0
LINE
  5
95
330
1F
100
AcDbEntity
  8
0
  6
Continuous
 62
     7
370
    25
100
AcDbLine
 10
766.9593535338
 20
286.0611994352
 30
0.0
 11
763.4059355212
 21
286.0611994352
 31
0.0
  0
LINE
  5
96
330
1F
100
AcDbEntity
  8
0
  6
Continuous
 62
     7
370
    25
100
AcDbLine
 10
763.4059355212
 20
274.6885025054
 30
0.0
 11
763.241917486
 21
275.0516778479
 31
0.0
  0
LINE
  5
97
330
1F
100
AcDbEntity
  8
0
  6
Continuous
 62
     7
370
    25
100
AcDbLine
 10
762.9593535338
 20
276.542836907
 30
0.0
 11
762.9593535338
 21
275.3748509704
 31
0.0
  0
LINE
  5
98
330
1F
100
AcDbEntity
  8
0
  6
Continuous
 62
     7
370
    25
100
AcDbLine
 10
777.4181035338
 20
277.3748509703
 30
0.0
 11
777.4181035338
 21
283.3748509703
 31
0.0
  0
LINE
  5
99
330
1F
100
AcDbEntity
  8
0
  6
Continuous
 62
     7
370
    25
100
AcDbLine
 10
777.9593535338
 20
278.4904580547
 30
0.0
 11
777.9593535338
 21
282.8336009704
 31
0.0
  0
LINE
  5
9A
330
1F
100
AcDbEntity
  8
0
  6
Continuous
 62
     7
370
    25
100
AcDbLine
 10
777.9593535338
 20
277.9161009703
 30
0.0
 11
777.9593535338
 21
278.4904580547
 31
0.0
  0
LINE
  5
9B
330
1F
100
AcDbEntity
  8
0
  6
Continuous
 62
     7
370
    25
100
AcDbLine
 10
762.9593535338
 20
285.3748509703
 30
0.0
 11
762.9593535338
 21
285.0723596043
 31
0.0
  0
CIRCLE
  5
9C
330
1F
100
AcDbEntity
  8
0
  6
Continuous
 62
     7
370
    25
100
AcDbCircle
 10
118.2593535338
 20
227.3748509703
 30
0.0
 40
0.5
  0
SPLINE
  5
9D
330
1F
100
AcDbEntity
  8
0
  6
Continuous
 62
     7
370
    25
100
AcDbSpline
210
0.0
220
0.0
230
1.0
 70
     8
 71
     3
 72
    20
 73
    16
 74
     0
 42
0.000000001
 43
0.00000001
 40
0.0
 40
0.0
 40
0.0
 40
0.0
 40
0.1249999999999961
 40
0.1249999999999961
 40
0.2499999999999922
 40
0.2499999999999922
 40
0.3749999999999883
 40
0.3749999999999883
 40
0.4999999999999845
 40
0.4999999999999845
 40
0.749999999999987
 40
0.749999999999987
 40
0.8749999999999934
 40
0.8749999999999934
 40
1.0
 40
1.0
 40
1.0
 40
1.0
 10
810.8593535337914
 20
208.7748509703415
 30
0.0
 10
810.8983942646458
 20
208.6164717826909
 30
0.0
 10
810.9369129688457
 20
208.4602260579991
 30
0.0
 10
811.0143197201536
 20
208.1522342085825
 30
0.0
 10
811.0534641381402
 20
207.9995901011114
 30
0.0
 10
811.1306148920554
 20
207.7105058119243
 30
0.0
 10
811.1689424737965
 20
207.5727012737402
 30
0.0
 10
811.246488794273
 20
207.3110825981013
 30
0.0
 10
811.2854650019419
 20
207.1883362914186
 30
0.0
 10
811.4009598583868
 20
206.8570119144709
 30
0.0
 10
811.4788723020567
 20
206.6780007904427
 30
0.0
 10
811.5943522274578
 20
206.4983856910618
 30
0.0
 10
811.6332180233228
 20
206.4521413421941
 30
0.0
 10
811.7109923569911
 20
206.3903880361829
 30
0.0
 10
811.749602123946
 20
206.3748509703414
 30
0.0
 10
811.7886428556726
 20
206.3748509703414
 30
0.0
  0
LINE
  5
9E
330
1F
100
AcDbEntity
  8
0
  6
Continuous
 62
     7
370
    25
100
AcDbLine
 10
19.7300642119
 20
206.3748509703
 30
0.0
 11
811.7886428557
 21
206.3748509703
 31
0.0
  0
SPLINE
  5
9F
330
1F
100
AcDbEntity
  8
0
  6
Continuous
 62
     7
370
    25
100
AcDbSpline
210
0.0
220
0.0
230
1.0
 70
     8
 71
     3
 72
    20
 73
    16
 74
     0
 42
0.000000001
 43
0.00000001
 40
0.0
 40
0.0
 40
0.0
 40
0.0
 40
0.1250000000000031
 40
0.1250000000000031
 40
0.2500000000000061
 40
0.2500000000000061
 40
0.3750000000000092
 40
0.3750000000000092
 40
0.5000000000000122
 40
0.5000000000000122
 40
0.7500000000000061
 40
0.7500000000000061
 40
0.875000000000003
 40
0.875000000000003
 40
1.0
 40
1.0
 40
1.0
 40
1.0
 10
19.73006421191004
 20
206.3748509703414
 30
0.0
 10
19.76910494276457
 20
206.3748509703414
 30
0.0
 10
19.80762364696437
 20
206.3903875308163
 30
0.0
 10
19.88503039827227
 20
206.4517058827768
 30
0.0
 10
19.92417481625919
 20
206.4981296283637
 30
0.0
 10
20.00132557017415
 20
206.6180804985178
 30
0.0
 10
20.03965315191497
 20
206.6916851428012
 30
0.0
 10
20.11719947239165
 20
206.8664155088968
 30
0.0
 10
20.15617568006034
 20
206.9672661377983
 30
0.0
 10
20.2716705365053
 20
207.2985514177822
 30
0.0
 10
20.34958298017547
 20
207.5662315791661
 30
0.0
 10
20.46506290557626
 20
207.9989056052214
 30
0.0
 10
20.5039287014413
 20
208.1504236920725
 30
0.0
 10
20.58170303510992
 20
208.4598494494587
 30
0.0
 10
20.62031280206461
 20
208.6164717791524
 30
0.0
 10
20.65935353379128
 20
208.7748509703412
 30
0.0
  0
SPLINE
  5
A0
330
1F
100
AcDbEntity
  8
0
  6
Continuous
 62
     7
370
    25
100
AcDbSpline
210
0.0
220
0.0
230
1.0
 70
     8
 71
     3
 72
    20
 73
    16
 74
     0
 42
0.000000001
 43
0.00000001
 40
0.0
 40
0.0
 40
0.0
 40
0.0
 40
0.1250000000000001
 40
0.1250000000000001
 40
0.2500000000000003
 40
0.2500000000000003
 40
0.3750000000000005
 40
0.3750000000000005
 40
0.5000000000000008
 40
0.5000000000000008
 40
0.7500000000000008
 40
0.7500000000000008
 40
0.8750000000000004
 40
0.8750000000000004
 40
1.0
 40
1.0
 40
1.0
 40
1.0
 10
813.2593535337913
 20
207.8455616484601
 30
0.0
 10
813.2593535337916
 20
207.8846023793146
 30
0.0
 10
813.2438169733165
 20
207.9231210835144
 30
0.0
 10
813.182498621356
 20
208.0005278348223
 30
0.0
 10
813.1360748757692
 20
208.039672252809
 30
0.0
 10
813.0161240056151
 20
208.1168230067242
 30
0.0
 10
812.9425193613315
 20
208.1551505884652
 30
0.0
 10
812.7677889952358
 20
208.2326969089418
 30
0.0
 10
812.6669383663345
 20
208.2716731166105
 30
0.0
 10
812.3356530863505
 20
208.3871679730555
 30
0.0
 10
812.0679729249665
 20
208.4650804167256
 30
0.0
 10
811.6352988989113
 20
208.5805603421265
 30
0.0
 10
811.4837808120601
 20
208.6194261379915
 30
0.0
 10
811.1743550546739
 20
208.69720047166
 30
0.0
 10
811.0177327249802
 20
208.7358102386148
 30
0.0
 10
810.8593535337914
 20
208.7748509703414
 30
0.0
  0
LINE
  5
A1
330
1F
100
AcDbEntity
  8
0
  6
Continuous
 62
     7
370
    25
100
AcDbLine
 10
813.2593535338
 20
207.8455616485
 30
0.0
 11
811.8593535338
 21
207.8455616485
 31
0.0
  0
SPLINE
  5
A2
330
1F
100
AcDbEntity
  8
0
  6
Continuous
 62
     7
370
    25
100
AcDbSpline
210
0.0
220
0.0
230
1.0
 70
     8
 71
     3
 72
    14
 73
    10
 74
     0
 42
0.000000001
 43
0.00000001
 40
0.0
 40
0.0
 40
0.0
 40
0.0
 40
0.25
 40
0.25
 40
0.5
 40
0.5
 40
0.75
 40
0.75
 40
1.0
 40
1.0
 40
1.0
 40
1.0
 10
811.8593535337914
 20
207.8455616484601
 30
0.0
 10
811.8593535337914
 20
207.9237630634817
 30
0.0
 10
811.8337948691112
 20
207.9994730107786
 30
0.0
 10
811.7336668405144
 20
208.1547534224256
 30
0.0
 10
811.66010266121
 20
208.2317632720087
 30
0.0
 10
811.4745650255182
 20
208.3871867580361
 30
0.0
 10
811.3644001045587
 20
208.4641364749545
 30
0.0
 10
811.1217883478695
 20
208.6195664542037
 30
0.0
 10
810.9915389370464
 20
208.6966495627764
 30
0.0
 10
810.8593535337914
 20
208.7748509703414
 30
0.0
  0
SPLINE
  5
A3
330
1F
100
AcDbEntity
  8
0
  6
Continuous
 62
     7
370
    25
100
AcDbSpline
210
0.0
220
0.0
230
1.0
 70
     8
 71
     3
 72
    14
 73
    10
 74
     0
 42
0.000000001
 43
0.00000001
 40
0.0
 40
0.0
 40
0.0
 40
0.0
 40
0.2500000000000001
 40
0.2500000000000001
 40
0.5000000000000001
 40
0.5000000000000001
 40
0.7500000000000002
 40
0.7500000000000002
 40
1.0
 40
1.0
 40
1.0
 40
1.0
 10
810.8593535337914
 20
208.7748509703414
 30
0.0
 10
810.9375549488132
 20
208.6426655544825
 30
0.0
 10
811.0132648961101
 20
208.5146835359489
 30
0.0
 10
811.1685453077569
 20
208.2720595110015
 30
0.0
 10
811.2455551573398
 20
208.1616172465915
 30
0.0
 10
811.4009786433676
 20
207.9756203493983
 30
0.0
 10
811.477928360286
 20
207.90181937056
 30
0.0
 10
811.633358339535
 20
207.8010007861649
 30
0.0
 10
811.7104414481075
 20
207.7748509703414
 30
0.0
 10
811.7886428556726
 20
207.7748509703414
 30
0.0
  0
LINE
  5
A4
330
1F
100
AcDbEntity
  8
0
  6
Continuous
 62
     7
370
    25
100
AcDbLine
 10
811.7886428557
 20
206.3748509703
 30
0.0
 11
811.7886428557
 21
207.7748509703
 31
0.0
  0
SPLINE
  5
A5
330
1F
100
AcDbEntity
  8
0
  6
Continuous
 62
     7
370
    25
100
AcDbSpline
210
0.0
220
0.0
230
1.0
 70
     8
 71
     3
 72
    20
 73
    16
 74
     0
 42
0.000000001
 43
0.00000001
 40
0.0
 40
0.0
 40
0.0
 40
0.0
 40
0.1249999999999948
 40
0.1249999999999948
 40
0.2499999999999897
 40
0.2499999999999897
 40
0.3749999999999845
 40
0.3749999999999845
 40
0.4999999999999793
 40
0.4999999999999793
 40
0.749999999999998
 40
0.749999999999998
 40
0.8749999999999989
 40
0.8749999999999989
 40
1.0
 40
1.0
 40
1.0
 40
1.0
 10
810.8593535337914
 20
249.9748509703414
 30
0.0
 10
811.017732721442
 20
250.013891701196
 30
0.0
 10
811.1739784461337
 20
250.0524104053958
 30
0.0
 10
811.4819702955502
 20
250.1298171567037
 30
0.0
 10
811.6346144030214
 20
250.1689615746904
 30
0.0
 10
811.9236986922085
 20
250.2461123286056
 30
0.0
 10
812.0615032303926
 20
250.2844399103466
 30
0.0
 10
812.3231219060314
 20
250.3619862308231
 30
0.0
 10
812.445868212714
 20
250.4009624384918
 30
0.0
 10
812.7771925896618
 20
250.5164572949369
 30
0.0
 10
812.9562037136901
 20
250.5943697386069
 30
0.0
 10
813.1358188130711
 20
250.7098496640078
 30
0.0
 10
813.1820631619387
 20
250.7487154598729
 30
0.0
 10
813.24381646795
 20
250.8264897935414
 30
0.0
 10
813.2593535337915
 20
250.8650995604961
 30
0.0
 10
813.2593535337913
 20
250.9041402922228
 30
0.0
  0
SPLINE
  5
A6
330
1F
100
AcDbEntity
  8
0
  6
Continuous
 62
     7
370
    25
100
AcDbSpline
210
0.0
220
0.0
230
1.0
 70
     8
 71
     3
 72
    14
 73
    10
 74
     0
 42
0.000000001
 43
0.00000001
 40
0.0
 40
0.0
 40
0.0
 40
0.0
 40
0.25
 40
0.25
 40
0.5
 40
0.5
 40
0.75
 40
0.75
 40
1.0
 40
1.0
 40
1.0
 40
1.0
 10
810.8593535337914
 20
249.9748509703414
 30
0.0
 10
810.9915389496502
 20
250.0530523853631
 30
0.0
 10
811.1195209681839
 20
250.12876233266
 30
0.0
 10
811.3621449931312
 20
250.284042744307
 30
0.0
 10
811.4725872575415
 20
250.36105259389
 30
0.0
 10
811.6585841547346
 20
250.5164760799175
 30
0.0
 10
811.7323851335727
 20
250.5934257968358
 30
0.0
 10
811.833203717968
 20
250.748855776085
 30
0.0
 10
811.8593535337914
 20
250.8259388846578
 30
0.0
 10
811.8593535337914
 20
250.9041402922228
 30
0.0
  0
LINE
  5
A7
330
1F
100
AcDbEntity
  8
0
  6
Continuous
 62
     7
370
    25
100
AcDbLine
 10
813.2593535338
 20
250.9041402922
 30
0.0
 11
811.8593535338
 21
250.9041402922
 31
0.0
  0
LINE
  5
A8
330
1F
100
AcDbEntity
  8
0
  6
Continuous
 62
     7
370
    25
100
AcDbLine
 10
813.2593535338
 20
207.8455616485
 30
0.0
 11
813.2593535338
 21
250.9041402922
 31
0.0
  0
SPLINE
  5
A9
330
1F
100
AcDbEntity
  8
0
  6
Continuous
 62
     7
370
    25
100
AcDbSpline
210
0.0
220
0.0
230
1.0
 70
     8
 71
     3
 72
    20
 73
    16
 74
     0
 42
0.000000001
 43
0.00000001
 40
0.0
 40
0.0
 40
0.0
 40
0.0
 40
0.1250000000000001
 40
0.1250000000000001
 40
0.2500000000000002
 40
0.2500000000000002
 40
0.3750000000000002
 40
0.3750000000000002
 40
0.5000000000000003
 40
0.5000000000000003
 40
0.7500000000000004
 40
0.7500000000000004
 40
0.8750000000000002
 40
0.8750000000000002
 40
1.0
 40
1.0
 40
1.0
 40
1.0
 10
18.25935353379132
 20
250.9041402922227
 30
0.0
 10
18.25935353379138
 20
250.8650995613681
 30
0.0
 10
18.27489009426619
 20
250.8265808571684
 30
0.0
 10
18.33620844622657
 20
250.7491741058604
 30
0.0
 10
18.38263219181357
 20
250.7100296878737
 30
0.0
 10
18.50258306196761
 20
250.6328789339586
 30
0.0
 10
18.57618770625113
 20
250.5945513522175
 30
0.0
 10
18.75091807234686
 20
250.517005031741
 30
0.0
 10
18.85176870124827
 20
250.4780288240723
 30
0.0
 10
19.18305398123227
 20
250.3625339676273
 30
0.0
 10
19.45073414261617
 20
250.2846215239571
 30
0.0
 10
19.88340816867151
 20
250.1691415985563
 30
0.0
 10
20.03492625552261
 20
250.1302758026913
 30
0.0
 10
20.34435201290868
 20
250.0525014690228
 30
0.0
 10
20.50097434260245
 20
250.013891702068
 30
0.0
 10
20.65935353379134
 20
249.9748509703413
 30
0.0
  0
LINE
  5
AA
330
1F
100
AcDbEntity
  8
0
  6
Continuous
 62
     7
370
    25
100
AcDbLine
 10
18.2593535338
 20
250.9041402922
 30
0.0
 11
19.6593535338
 21
250.9041402922
 31
0.0
  0
SPLINE
  5
AB
330
1F
100
AcDbEntity
  8
0
  6
Continuous
 62
     7
370
    25
100
AcDbSpline
210
0.0
220
0.0
230
1.0
 70
     8
 71
     3
 72
    14
 73
    10
 74
     0
 42
0.000000001
 43
0.00000001
 40
0.0
 40
0.0
 40
0.0
 40
0.0
 40
0.25
 40
0.25
 40
0.5
 40
0.5
 40
0.75
 40
0.75
 40
1.0
 40
1.0
 40
1.0
 40
1.0
 10
19.65935353379134
 20
250.9041402922227
 30
0.0
 10
19.65935353379134
 20
250.825938877201
 30
0.0
 10
19.68491219847146
 20
250.7502289299041
 30
0.0
 10
19.78504022706823
 20
250.5949485182572
 30
0.0
 10
19.8586044063726
 20
250.5179386686741
 30
0.0
 10
20.04414204206445
 20
250.3625151826466
 30
0.0
 10
20.15430696302395
 20
250.2855654657282
 30
0.0
 10
20.39691871971333
 20
250.130135486479
 30
0.0
 10
20.5271681305364
 20
250.0530523779064
 30
0.0
 10
20.65935353379134
 20
249.9748509703413
 30
0.0
  0
SPLINE
  5
AC
330
1F
100
AcDbEntity
  8
0
  6
Continuous
 62
     7
370
    25
100
AcDbSpline
210
0.0
220
0.0
230
1.0
 70
     8
 71
     3
 72
    20
 73
    16
 74
     0
 42
0.000000001
 43
0.00000001
 40
0.0
 40
0.0
 40
0.0
 40
0.0
 40
0.1250000000000094
 40
0.1250000000000094
 40
0.2500000000000187
 40
0.2500000000000187
 40
0.3750000000000281
 40
0.3750000000000281
 40
0.5000000000000374
 40
0.5000000000000374
 40
0.7500000000000263
 40
0.7500000000000263
 40
0.8750000000000132
 40
0.8750000000000132
 40
1.0
 40
1.0
 40
1.0
 40
1.0
 10
20.65935353379134
 20
208.7748509703413
 30
0.0
 10
20.50097434614046
 20
208.7358102394867
 30
0.0
 10
20.34472862144887
 20
208.6972915352869
 30
0.0
 10
20.03673677203233
 20
208.619884783979
 30
0.0
 10
19.88409266456126
 20
208.5807403659923
 30
0.0
 10
19.59500837537404
 20
208.5035896120771
 30
0.0
 10
19.45720383718996
 20
208.4652620303361
 30
0.0
 10
19.19558516155112
 20
208.3877157098595
 30
0.0
 10
19.07283885486849
 20
208.3487395021909
 30
0.0
 10
18.74151447792094
 20
208.2332446457458
 30
0.0
 10
18.56250335389259
 20
208.1553322020758
 30
0.0
 10
18.38288825451156
 20
208.0398522766749
 30
0.0
 10
18.33664390564405
 20
208.0009864808098
 30
0.0
 10
18.27489059963294
 20
207.9232121471414
 30
0.0
 10
18.25935353379138
 20
207.8846023801866
 30
0.0
 10
18.25935353379132
 20
207.8455616484599
 30
0.0
  0
LINE
  5
AD
330
1F
100
AcDbEntity
  8
0
  6
Continuous
 62
     7
370
    25
100
AcDbLine
 10
18.2593535338
 20
250.9041402922
 30
0.0
 11
18.2593535338
 21
207.8455616485
 31
0.0
  0
SPLINE
  5
AE
330
1F
100
AcDbEntity
  8
0
  6
Continuous
 62
     7
370
    25
100
AcDbSpline
210
0.0
220
0.0
230
1.0
 70
     8
 71
     3
 72
    20
 73
    16
 74
     0
 42
0.000000001
 43
0.00000001
 40
0.0
 40
0.0
 40
0.0
 40
0.0
 40
0.1250000000000013
 40
0.1250000000000013
 40
0.2500000000000026
 40
0.2500000000000026
 40
0.3750000000000038
 40
0.3750000000000038
 40
0.5000000000000051
 40
0.5000000000000051
 40
0.7500000000000077
 40
0.7500000000000077
 40
0.8750000000000038
 40
0.8750000000000038
 40
1.0
 40
1.0
 40
1.0
 40
1.0
 10
20.65935353379139
 20
249.9748509703412
 30
0.0
 10
20.62031280293674
 20
250.1332301579919
 30
0.0
 10
20.58179409873717
 20
250.2894758826837
 30
0.0
 10
20.50438734742916
 20
250.5974677321003
 30
0.0
 10
20.46524292944246
 20
250.7501118395714
 30
0.0
 10
20.38809217552723
 20
251.0391961287585
 30
0.0
 10
20.34976459378623
 20
251.1770006669426
 30
0.0
 10
20.27221827330966
 20
251.4386193425815
 30
0.0
 10
20.23324206564092
 20
251.5613656492641
 30
0.0
 10
20.11774720919601
 20
251.8926900262119
 30
0.0
 10
20.03983476552595
 20
252.07170115024
 30
0.0
 10
19.924354840125
 20
252.2513162496209
 30
0.0
 10
19.88548904425991
 20
252.2975605984886
 30
0.0
 10
19.80771471059128
 20
252.3593139044998
 30
0.0
 10
19.76910494363654
 20
252.3748509703413
 30
0.0
 10
19.73006421190998
 20
252.3748509703413
 30
0.0
  0
LINE
  5
AF
330
1F
100
AcDbEntity
  8
0
  6
Continuous
 62
     7
370
    25
100
AcDbLine
 10
811.7886428557
 20
252.3748509703
 30
0.0
 11
19.7300642119
 21
252.3748509703
 31
0.0
  0
SPLINE
  5
B0
330
1F
100
AcDbEntity
  8
0
  6
Continuous
 62
     7
370
    25
100
AcDbSpline
210
0.0
220
0.0
230
1.0
 70
     8
 71
     3
 72
    20
 73
    16
 74
     0
 42
0.000000001
 43
0.00000001
 40
0.0
 40
0.0
 40
0.0
 40
0.0
 40
0.1249999999999987
 40
0.1249999999999987
 40
0.2499999999999974
 40
0.2499999999999974
 40
0.3749999999999962
 40
0.3749999999999962
 40
0.4999999999999949
 40
0.4999999999999949
 40
0.7499999999999923
 40
0.7499999999999923
 40
0.8749999999999961
 40
0.8749999999999961
 40
1.0
 40
1.0
 40
1.0
 40
1.0
 10
811.7886428556726
 20
252.3748509703413
 30
0.0
 10
811.7496021248182
 20
252.3748509703413
 30
0.0
 10
811.7110834206184
 20
252.3593144098665
 30
0.0
 10
811.6336766693104
 20
252.2979960579059
 30
0.0
 10
811.5945322513236
 20
252.2515723123191
 30
0.0
 10
811.5173814974086
 20
252.1316214421649
 30
0.0
 10
811.4790539156678
 20
252.0580167978815
 30
0.0
 10
811.401507595191
 20
251.8832864317859
 30
0.0
 10
811.3625313875224
 20
251.7824358028844
 30
0.0
 10
811.2470365310774
 20
251.4511505229004
 30
0.0
 10
811.169124087407
 20
251.1834703615166
 30
0.0
 10
811.0536441620062
 20
250.7507963354612
 30
0.0
 10
811.0147783661413
 20
250.5992782486101
 30
0.0
 10
810.9370040324729
 20
250.289852491224
 30
0.0
 10
810.8983942655182
 20
250.1332301615302
 30
0.0
 10
810.8593535337914
 20
249.9748509703415
 30
0.0
  0
SPLINE
  5
B1
330
1F
100
AcDbEntity
  8
0
  6
Continuous
 62
     7
370
    25
100
AcDbSpline
210
0.0
220
0.0
230
1.0
 70
     8
 71
     3
 72
    14
 73
    10
 74
     0
 42
0.000000001
 43
0.00000001
 40
0.0
 40
0.0
 40
0.0
 40
0.0
 40
0.2499999999999999
 40
0.2499999999999999
 40
0.4999999999999999
 40
0.4999999999999999
 40
0.7499999999999998
 40
0.7499999999999998
 40
1.0
 40
1.0
 40
1.0
 40
1.0
 10
20.65935353379134
 20
208.7748509703413
 30
0.0
 10
20.52716811793232
 20
208.6966495553196
 30
0.0
 10
20.39918609939889
 20
208.6209396080228
 30
0.0
 10
20.15656207445149
 20
208.4656591963756
 30
0.0
 10
20.04611981004151
 20
208.3886493467927
 30
0.0
 10
19.86012291284811
 20
208.2332258607652
 30
0.0
 10
19.78632193400992
 20
208.1562761438468
 30
0.0
 10
19.68550334961489
 20
208.0008461645976
 30
0.0
 10
19.65935353379145
 20
207.923763056025
 30
0.0
 10
19.65935353379134
 20
207.8455616484599
 30
0.0
  0
LINE
  5
B2
330
1F
100
AcDbEntity
  8
0
  6
Continuous
 62
     7
370
    25
100
AcDbLine
 10
18.2593535338
 20
207.8455616485
 30
0.0
 11
19.6593535338
 21
207.8455616485
 31
0.0
  0
SPLINE
  5
B3
330
1F
100
AcDbEntity
  8
0
  6
Continuous
 62
     7
370
    25
100
AcDbSpline
210
0.0
220
0.0
230
1.0
 70
     8
 71
     3
 72
    14
 73
    10
 74
     0
 42
0.000000001
 43
0.00000001
 40
0.0
 40
0.0
 40
0.0
 40
0.0
 40
0.25
 40
0.25
 40
0.5
 40
0.5
 40
0.75
 40
0.75
 40
1.0
 40
1.0
 40
1.0
 40
1.0
 10
20.65935353379139
 20
249.9748509703413
 30
0.0
 10
20.58115211876977
 20
250.1070363862002
 30
0.0
 10
20.50544217147271
 20
250.2350184047338
 30
0.0
 10
20.35016175982579
 20
250.4776424296812
 30
0.0
 10
20.2731519102427
 20
250.5880846940912
 30
0.0
 10
20.11772842421528
 20
250.7740815912845
 30
0.0
 10
20.04077870729692
 20
250.8478825701228
 30
0.0
 10
19.88534872804776
 20
250.9487011545179
 30
0.0
 10
19.80826561947502
 20
250.9748509703413
 30
0.0
 10
19.73006421190998
 20
250.9748509703413
 30
0.0
  0
LINE
  5
B4
330
1F
100
AcDbEntity
  8
0
  6
Continuous
 62
     7
370
    25
100
AcDbLine
 10
19.7300642119
 20
252.3748509703
 30
0.0
 11
19.7300642119
 21
250.9748509703
 31
0.0
  0
LINE
  5
B5
330
1F
100
AcDbEntity
  8
0
  6
Continuous
 62
     7
370
    25
100
AcDbLine
 10
811.7886428557
 20
252.3748509703
 30
0.0
 11
811.7886428557
 21
250.9748509703
 31
0.0
  0
SPLINE
  5
B6
330
1F
100
AcDbEntity
  8
0
  6
Continuous
 62
     7
370
    25
100
AcDbSpline
210
0.0
220
0.0
230
1.0
 70
     8
 71
     3
 72
    14
 73
    10
 74
     0
 42
0.000000001
 43
0.00000001
 40
0.0
 40
0.0
 40
0.0
 40
0.0
 40
0.25
 40
0.25
 40
0.5
 40
0.5
 40
0.75
 40
0.75
 40
1.0
 40
1.0
 40
1.0
 40
1.0
 10
811.7886428556726
 20
250.9748509703413
 30
0.0
 10
811.7104414406509
 20
250.9748509703413
 30
0.0
 10
811.634731493354
 20
250.949292305661
 30
0.0
 10
811.4794510817069
 20
250.8491642770644
 30
0.0
 10
811.4024412321243
 20
250.7756000977601
 30
0.0
 10
811.2470177460966
 20
250.5900624620682
 30
0.0
 10
811.1700680291782
 20
250.4798975411087
 30
0.0
 10
811.014638049929
 20
250.2372857844193
 30
0.0
 10
810.9375549413564
 20
250.1070363735963
 30
0.0
 10
810.8593535337914
 20
249.9748509703414
 30
0.0
  0
LINE
  5
B7
330
1F
100
AcDbEntity
  8
0
  6
Continuous
 62
     7
370
    25
100
AcDbLine
 10
19.7300642119
 20
206.3748509703
 30
0.0
 11
19.7300642119
 21
207.7748509703
 31
0.0
  0
SPLINE
  5
B8
330
1F
100
AcDbEntity
  8
0
  6
Continuous
 62
     7
370
    25
100
AcDbSpline
210
0.0
220
0.0
230
1.0
 70
     8
 71
     3
 72
    14
 73
    10
 74
     0
 42
0.000000001
 43
0.00000001
 40
0.0
 40
0.0
 40
0.0
 40
0.0
 40
0.25
 40
0.25
 40
0.5
 40
0.5
 40
0.75
 40
0.75
 40
1.0
 40
1.0
 40
1.0
 40
1.0
 10
19.73006421191004
 20
207.7748509703414
 30
0.0
 10
19.80826562693166
 20
207.7748509703414
 30
0.0
 10
19.88397557422855
 20
207.8004096350217
 30
0.0
 10
20.03925598587547
 20
207.9005376636184
 30
0.0
 10
20.1162658354585
 20
207.9741018429226
 30
0.0
 10
20.27168932148599
 20
208.1596394786145
 30
0.0
 10
20.34863903840439
 20
208.269804399574
 30
0.0
 10
20.50406901765356
 20
208.5124161562633
 30
0.0
 10
20.58115212622624
 20
208.6426655670864
 30
0.0
 10
20.65935353379128
 20
208.7748509703413
 30
0.0
  0
CIRCLE
  5
B9
330
1F
100
AcDbEntity
  8
0
  6
Continuous
 62
     7
370
    25
100
AcDbCircle
 10
74.2593535338
 20
229.3748509703
 30
0.0
 40
5.500000000000111
  0
ARC
  5
BA
330
1F
100
AcDbEntity
  8
0
  6
Continuous
 62
     7
370
    25
100
AcDbCircle
 10
76.4393634354
 20
230.4317870852
 30
0.0
 40
0.5050994627334905
100
AcDbArc
 50
298.8005827702
 51
112.9304972368
  0
ARC
  5
BB
330
1F
100
AcDbEntity
  8
0
  6
Continuous
 62
     7
370
    25
100
AcDbCircle
 10
74.2593535338
 20
229.3748509703
 30
0.0
 40
2.499999999999971
100
AcDbArc
 50
37.506301084
 51
74.2247789229
  0
ARC
  5
BC
330
1F
100
AcDbEntity
  8
0
  6
Continuous
 62
     7
370
    25
100
AcDbCircle
 10
74.434024959
 20
231.791262983
 30
0.0
 40
0.5050994627349494
100
AcDbArc
 50
358.800582771
 51
172.930497236
  0
ARC
  5
BD
330
1F
100
AcDbEntity
  8
0
  6
Continuous
 62
     7
370
    25
100
AcDbCircle
 10
74.2593535338
 20
229.3748509703
 30
0.0
 40
2.499999999999979
100
AcDbArc
 50
97.5063010841
 51
134.2247789229
  0
ARC
  5
BE
330
1F
100
AcDbEntity
  8
0
  6
Continuous
 62
     7
370
    25
100
AcDbCircle
 10
72.2540150574
 20
230.7343268682
 30
0.0
 40
0.505099462735168
100
AcDbArc
 50
58.8005827697
 51
232.9304972372
  0
ARC
  5
BF
330
1F
100
AcDbEntity
  8
0
  6
Continuous
 62
     7
370
    25
100
AcDbCircle
 10
74.2593535338
 20
229.3748509703
 30
0.0
 40
2.49999999999997
100
AcDbArc
 50
157.5063010841
 51
194.2247789229
  0
ARC
  5
C0
330
1F
100
AcDbEntity
  8
0
  6
Continuous
 62
     7
370
    25
100
AcDbCircle
 10
72.0793436322
 20
228.3179148555
 30
0.0
 40
0.505099462733284
100
AcDbArc
 50
118.8005827707
 51
292.9304972361
  0
ARC
  5
C1
330
1F
100
AcDbEntity
  8
0
  6
Continuous
 62
     7
370
    25
100
AcDbCircle
 10
74.2593535338
 20
229.3748509703
 30
0.0
 40
2.499999999999944
100
AcDbArc
 50
217.506301084
 51
254.2247789229
  0
ARC
  5
C2
330
1F
100
AcDbEntity
  8
0
  6
Continuous
 62
     7
370
    25
100
AcDbCircle
 10
74.0846821086
 20
226.9584389577
 30
0.0
 40
0.5050994627366219
100
AcDbArc
 50
178.8005827716
 51
352.9304972354
  0
ARC
  5
C3
330
1F
100
AcDbEntity
  8
0
  6
Continuous
 62
     7
370
    25
100
AcDbCircle
 10
74.2593535338
 20
229.3748509703
 30
0.0
 40
2.49999999999994
100
AcDbArc
 50
277.5063010841
 51
314.2247789229
  0
ARC
  5
C4
330
1F
100
AcDbEntity
  8
0
  6
Continuous
 62
     7
370
    25
100
AcDbCircle
 10
76.2646920102
 20
228.0153750725
 30
0.0
 40
0.5050994627354972
100
AcDbArc
 50
238.8005827701
 51
52.9304972368
  0
ARC
  5
C5
330
1F
100
AcDbEntity
  8
0
  6
Continuous
 62
     7
370
    25
100
AcDbCircle
 10
74.2593535338
 20
229.3748509703
 30
0.0
 40
2.499999999999964
100
AcDbArc
 50
337.5063010841
 51
14.2247789229
  0
CIRCLE
  5
C6
330
1F
100
AcDbEntity
  8
0
  6
Continuous
 62
     7
370
    25
100
AcDbCircle
 10
757.2593535338
 20
229.3748509703
 30
0.0
 40
5.500000000000082
  0
ARC
  5
C7
330
1F
100
AcDbEntity
  8
0
  6
Continuous
 62
     7
370
    25
100
AcDbCircle
 10
755.1777433268
 20
230.6143896216
 30
0.0
 40
0.505099462734931
100
AcDbArc
 50
62.1624680637
 51
236.2923825287
  0
ARC
  5
C8
330
1F
100
AcDbEntity
  8
0
  6
Continuous
 62
     7
370
    25
100
AcDbCircle
 10
755.1450764693
 20
228.191892976
 30
0.0
 40
0.5050994627352132
100
AcDbArc
 50
122.1624680624
 51
296.2923825299
  0
ARC
  5
C9
330
1F
100
AcDbEntity
  8
0
  6
Continuous
 62
     7
370
    25
100
AcDbCircle
 10
757.2593535338
 20
229.3748509703
 30
0.0
 40
2.499999999999944
100
AcDbArc
 50
220.8681863768
 51
257.5866642156
  0
ARC
  5
CA
330
1F
100
AcDbEntity
  8
0
  6
Continuous
 62
     7
370
    25
100
AcDbCircle
 10
757.2266866763
 20
226.9523543247
 30
0.0
 40
0.5050994627333343
100
AcDbArc
 50
182.1624680634
 51
356.2923825288
  0
ARC
  5
CB
330
1F
100
AcDbEntity
  8
0
  6
Continuous
 62
     7
370
    25
100
AcDbCircle
 10
757.2593535338
 20
229.3748509703
 30
0.0
 40
2.499999999999984
100
AcDbArc
 50
280.8681863767
 51
317.5866642156
  0
ARC
  5
CC
330
1F
100
AcDbEntity
  8
0
  6
Continuous
 62
     7
370
    25
100
AcDbCircle
 10
759.3409637408
 20
228.1353123191
 30
0.0
 40
0.5050994627366139
100
AcDbArc
 50
242.1624680643
 51
56.2923825281
  0
ARC
  5
CD
330
1F
100
AcDbEntity
  8
0
  6
Continuous
 62
     7
370
    25
100
AcDbCircle
 10
759.3736305983
 20
230.5578089647
 30
0.0
 40
0.5050994627355099
100
AcDbArc
 50
302.1624680628
 51
116.2923825295
  0
ARC
  5
CE
330
1F
100
AcDbEntity
  8
0
  6
Continuous
 62
     7
370
    25
100
AcDbCircle
 10
757.2593535338
 20
229.3748509703
 30
0.0
 40
2.500000000000042
100
AcDbArc
 50
40.8681863768
 51
77.5866642156
  0
ARC
  5
CF
330
1F
100
AcDbEntity
  8
0
  6
Continuous
 62
     7
370
    25
100
AcDbCircle
 10
757.2920203913
 20
231.797347616
 30
0.0
 40
0.5050994627335915
100
AcDbArc
 50
2.1624680629
 51
176.2923825295
  0
ARC
  5
D0
330
1F
100
AcDbEntity
  8
0
  6
Continuous
 62
     7
370
    25
100
AcDbCircle
 10
757.2593535338
 20
229.3748509703
 30
0.0
 40
2.500000000000096
100
AcDbArc
 50
340.8681863768
 51
17.5866642156
  0
ARC
  5
D1
330
1F
100
AcDbEntity
  8
0
  6
Continuous
 62
     7
370
    25
100
AcDbCircle
 10
757.2593535338
 20
229.3748509703
 30
0.0
 40
2.499999999999925
100
AcDbArc
 50
160.8681863768
 51
197.5866642156
  0
ARC
  5
D2
330
1F
100
AcDbEntity
  8
0
  6
Continuous
 62
     7
370
    25
100
AcDbCircle
 10
757.2593535338
 20
229.3748509703
 30
0.0
 40
2.499999999999917
100
AcDbArc
 50
100.8681863767
 51
137.5866642156
  0
LINE
  5
D3
330
1F
100
AcDbEntity
  8
0
  6
Continuous
 62
     7
370
    25
100
AcDbLine
 10
62.7593535338
 20
266.8748509703
 30
0.0
 11
63.5593535338
 21
266.8748509703
 31
0.0
  0
LINE
  5
D4
330
1F
100
AcDbEntity
  8
0
  6
Continuous
 62
     7
370
    25
100
AcDbLine
 10
63.5593535338
 20
266.8748509703
 30
0.0
 11
63.5593535338
 21
283.8748509703
 31
0.0
  0
LINE
  5
D5
330
1F
100
AcDbEntity
  8
0
  6
Continuous
 62
     7
370
    25
100
AcDbLine
 10
62.7593535338
 20
266.8748509703
 30
0.0
 11
62.7593535338
 21
283.8748509703
 31
0.0
  0
LINE
  5
D6
330
1F
100
AcDbEntity
  8
0
  6
Continuous
 62
     7
370
    25
100
AcDbLine
 10
62.7593535338
 20
286.8748509703
 30
0.0
 11
63.5593535338
 21
286.8748509703
 31
0.0
  0
LINE
  5
D7
330
1F
100
AcDbEntity
  8
0
  6
Continuous
 62
     7
370
    25
100
AcDbLine
 10
63.5593535338
 20
286.8748509703
 30
0.0
 11
63.5593535338
 21
283.8748509703
 31
0.0
  0
LINE
  5
D8
330
1F
100
AcDbEntity
  8
0
  6
Continuous
 62
     7
370
    25
100
AcDbLine
 10
62.7593535338
 20
283.8748509703
 30
0.0
 11
62.7593535338
 21
286.8748509703
 31
0.0
  0
LINE
  5
D9
330
1F
100
AcDbEntity
  8
0
  6
Continuous
 62
     7
370
    25
100
AcDbLine
 10
768.7593535338
 20
266.8748509703
 30
0.0
 11
767.9593535338
 21
266.8748509703
 31
0.0
  0
LINE
  5
DA
330
1F
100
AcDbEntity
  8
0
  6
Continuous
 62
     7
370
    25
100
AcDbLine
 10
767.9593535338
 20
283.8748509703
 30
0.0
 11
767.9593535338
 21
266.8748509703
 31
0.0
  0
LINE
  5
DB
330
1F
100
AcDbEntity
  8
0
  6
Continuous
 62
     7
370
    25
100
AcDbLine
 10
768.7593535338
 20
283.8748509703
 30
0.0
 11
768.7593535338
 21
266.8748509703
 31
0.0
  0
LINE
  5
DC
330
1F
100
AcDbEntity
  8
0
  6
Continuous
 62
     7
370
    25
100
AcDbLine
 10
767.9593535338
 20
283.8748509703
 30
0.0
 11
767.9593535338
 21
286.8748509703
 31
0.0
  0
LINE
  5
DD
330
1F
100
AcDbEntity
  8
0
  6
Continuous
 62
     7
370
    25
100
AcDbLine
 10
767.9593535338
 20
286.8748509703
 30
0.0
 11
768.7593535338
 21
286.8748509703
 31
0.0
  0
LINE
  5
DE
330
1F
100
AcDbEntity
  8
0
  6
Continuous
 62
     7
370
    25
100
AcDbLine
 10
768.7593535338
 20
286.8748509703
 30
0.0
 11
768.7593535338
 21
283.8748509703
 31
0.0
  0
LINE
  5
DF
330
1F
100
AcDbEntity
  8
0
  6
Continuous
 62
     7
370
    25
100
AcDbLine
 10
63.5593535338
 20
252.3748509703
 30
0.0
 11
63.5593535338
 21
263.6748509703
 31
0.0
  0
LINE
  5
E0
330
1F
100
AcDbEntity
  8
0
  6
Continuous
 62
     7
370
    25
100
AcDbLine
 10
63.5593535338
 20
265.3748509703
 30
0.0
 11
63.5593535338
 21
266.8748509703
 31
0.0
  0
LINE
  5
E1
330
1F
100
AcDbEntity
  8
0
  6
Continuous
 62
     7
370
    25
100
AcDbLine
 10
62.7593535338
 20
252.3748509703
 30
0.0
 11
62.7593535338
 21
266.8748509703
 31
0.0
  0
LINE
  5
E2
330
1F
100
AcDbEntity
  8
0
  6
Continuous
 62
     7
370
    25
100
AcDbLine
 10
767.9593535338
 20
266.8748509703
 30
0.0
 11
767.9593535338
 21
265.3748509703
 31
0.0
  0
LINE
  5
E3
330
1F
100
AcDbEntity
  8
0
  6
Continuous
 62
     7
370
    25
100
AcDbLine
 10
767.9593535338
 20
263.6748509703
 30
0.0
 11
767.9593535338
 21
252.3748509703
 31
0.0
  0
LINE
  5
E4
330
1F
100
AcDbEntity
  8
0
  6
Continuous
 62
     7
370
    25
100
AcDbLine
 10
768.7593535338
 20
266.8748509703
 30
0.0
 11
768.7593535338
 21
252.3748509703
 31
0.0
  0
LINE
  5
E5
330
1F
100
AcDbEntity
  8
0
  6
Continuous
 62
     7
370
    25
100
AcDbLine
 10
777.4181035338
 20
252.3748509703
 30
0.0
 11
777.4181035338
 21
258.3748509703
 31
0.0
  0
LINE
  5
E6
330
1F
100
AcDbEntity
  8
0
  6
Continuous
 62
     7
370
    25
100
AcDbLine
 10
777.9593535338
 20
253.4904580547
 30
0.0
 11
777.9593535338
 21
257.8336009704
 31
0.0
  0
LINE
  5
E7
330
1F
100
AcDbEntity
  8
0
  6
Continuous
 62
     7
370
    25
100
AcDbLine
 10
777.9593535338
 20
252.9161009703
 30
0.0
 11
777.9593535338
 21
253.4904580547
 31
0.0
  0
LINE
  5
E8
330
1F
100
AcDbEntity
  8
0
  6
Continuous
 62
     7
370
    25
100
AcDbLine
 10
63.3384233012
 20
265.3748509703
 30
0.0
 11
768.1802837663
 21
265.3748509703
 31
0.0
  0
LINE
  5
E9
330
1F
100
AcDbEntity
  8
0
  6
Continuous
 62
     7
370
    25
100
AcDbLine
 10
63.3384233012
 20
263.6748509703
 30
0.0
 11
768.1802837663
 21
263.6748509703
 31
0.0
  0
ELLIPSE
  5
EA
330
1F
100
AcDbEntity
  8
0
  6
Continuous
 62
     7
370
    25
100
AcDbEllipse
 10
768.1802837663
 20
264.5248509703
 30
0.0
 11
0.0
 21
0.8500000000000227
 31
0.0
210
0.0
220
0.0
230
1.0
 40
0.0930232558
 41
3.141592653588355
 42
6.283185307179586
  0
ELLIPSE
  5
EB
330
1F
100
AcDbEntity
  8
0
  6
Continuous
 62
     7
370
    25
100
AcDbEllipse
 10
63.3384233012
 20
264.5248509703
 30
0.0
 11
0.0
 21
0.8500000000000227
 31
0.0
210
0.0
220
0.0
230
1.0
 40
0.0930232558
 41
0.0
 42
3.141592653589792
  0
LINE
  5
EC
330
1F
100
AcDbEntity
  8
0
  6
Continuous
 62
     7
370
    25
100
AcDbLine
 10
64.2593535338
 20
263.6748509703
 30
0.0
 11
64.2593535338
 21
263.5748509703
 31
0.0
  0
LINE
  5
ED
330
1F
100
AcDbEntity
  8
0
  6
Continuous
 62
     7
370
    25
100
AcDbLine
 10
767.2593535338
 20
263.5748509703
 30
0.0
 11
767.2593535338
 21
263.6748509703
 31
0.0
  0
LINE
  5
EE
330
1F
100
AcDbEntity
  8
0
  6
Continuous
 62
     7
370
    25
100
AcDbLine
 10
64.2593535338
 20
263.5748509703
 30
0.0
 11
64.2593535338
 21
252.3748509703
 31
0.0
  0
LINE
  5
EF
330
1F
100
AcDbEntity
  8
0
  6
Continuous
 62
     7
370
    25
100
AcDbLine
 10
767.2593535338
 20
252.3748509703
 30
0.0
 11
767.2593535338
 21
263.5748509703
 31
0.0
  0
LINE
  5
F0
330
1F
100
AcDbEntity
  8
0
  6
Continuous
 62
     7
370
    25
100
AcDbLine
 10
53.5593535338
 20
257.8336009704
 30
0.0
 11
53.5593535338
 21
252.9161009703
 31
0.0
  0
LINE
  5
F1
330
1F
100
AcDbEntity
  8
0
  6
Continuous
 62
     7
370
    25
100
AcDbLine
 10
54.1006035338
 20
256.6712168166
 30
0.0
 11
54.1006035338
 21
252.3748509703
 31
0.0
  0
LINE
  5
F2
330
1F
100
AcDbEntity
  8
0
  6
Continuous
 62
     7
370
    25
100
AcDbLine
 10
54.1006035338
 20
258.3748509704
 30
0.0
 11
54.1006035338
 21
256.6712168166
 31
0.0
  0
ARC
  5
F3
330
1F
100
AcDbEntity
  8
0
  6
Continuous
 62
     7
370
    25
100
AcDbCircle
 10
757.0848198488
 20
256.951064981
 30
0.0
 40
12.03669752935204
100
AcDbArc
 50
186.2565722694
 51
191.9710500657
  0
ARC
  5
F4
330
1F
100
AcDbEntity
  8
0
  6
Continuous
 62
     7
370
    25
100
AcDbCircle
 10
745.6831395232
 20
265.2003172854
 30
0.0
 40
12.0366975293101
100
AcDbArc
 50
276.2565722693
 51
281.9710500657
  0
ARC
  5
F5
330
1F
100
AcDbEntity
  8
0
  6
Continuous
 62
     7
370
    25
100
AcDbCircle
 10
737.4338872188
 20
253.7986369597
 30
0.0
 40
12.03669752932606
100
AcDbArc
 50
6.2565722693
 51
11.9710500657
  0
ARC
  5
F6
330
1F
100
AcDbEntity
  8
0
  6
Continuous
 62
     7
370
    25
100
AcDbCircle
 10
748.8355675444
 20
245.5493846553
 30
0.0
 40
12.03669752930702
100
AcDbArc
 50
96.2565722693
 51
101.9710500657
  0
ARC
  5
F7
330
1F
100
AcDbEntity
  8
0
  6
Continuous
 62
     7
370
    25
100
AcDbCircle
 10
747.2593535338
 20
255.3748509703
 30
0.0
 40
4.000000000000001
100
AcDbArc
 50
311.4096221093
 51
99.1138111675
  0
ARC
  5
F8
330
1F
100
AcDbEntity
  8
0
  6
Continuous
 62
     7
370
    25
100
AcDbCircle
 10
747.2593535338
 20
255.3748509703
 30
0.0
 40
3.99999999999998
100
AcDbArc
 50
99.1138111675
 51
228.5903778907
  0
LINE
  5
F9
330
1F
100
AcDbEntity
  8
0
  6
Continuous
 62
     7
370
    25
100
AcDbLine
 10
746.7619657888
 20
254.6873879305
 30
0.0
 11
746.994909654
 21
253.2353122065
 31
0.0
  0
LINE
  5
FA
330
1F
100
AcDbEntity
  8
0
  6
Continuous
 62
     7
370
    25
100
AcDbLine
 10
747.9468165737
 20
254.8774632254
 30
0.0
 11
749.3988922976
 21
255.1104070906
 31
0.0
  0
LINE
  5
FB
330
1F
100
AcDbEntity
  8
0
  6
Continuous
 62
     7
370
    25
100
AcDbLine
 10
745.3098900649
 20
254.4544440653
 30
0.0
 11
746.7619657888
 21
254.6873879305
 31
0.0
  0
LINE
  5
FC
330
1F
100
AcDbEntity
  8
0
  6
Continuous
 62
     7
370
    25
100
AcDbLine
 10
747.9468165737
 20
254.8774632254
 30
0.0
 11
748.1797604388
 21
253.4253875015
 31
0.0
  0
LINE
  5
FD
330
1F
100
AcDbEntity
  8
0
  6
Continuous
 62
     7
370
    25
100
AcDbLine
 10
747.7567412787
 20
256.0623140102
 30
0.0
 11
749.2088170027
 21
256.2952578754
 31
0.0
  0
LINE
  5
FE
330
1F
100
AcDbEntity
  8
0
  6
Continuous
 62
     7
370
    25
100
AcDbLine
 10
746.3389466288
 20
257.3243144392
 30
0.0
 11
746.5718904939
 21
255.8722387153
 31
0.0
  0
LINE
  5
FF
330
1F
100
AcDbEntity
  8
0
  6
Continuous
 62
     7
370
    25
100
AcDbLine
 10
745.11981477
 20
255.6392948501
 30
0.0
 11
746.5718904939
 21
255.8722387153
 31
0.0
  0
LINE
  5
100
330
1F
100
AcDbEntity
  8
0
  6
Continuous
 62
     7
370
    25
100
AcDbLine
 10
747.5237974136
 20
257.5143897341
 30
0.0
 11
747.7567412787
 21
256.0623140102
 31
0.0
  0
LINE
  5
101
330
1F
100
AcDbEntity
  8
0
  6
Continuous
 62
     7
370
    25
100
AcDbLine
 10
747.9048476268
 20
256.0860734221
 30
0.0
 11
748.0949229218
 21
254.9012226373
 31
0.0
  0
LINE
  5
102
330
1F
100
AcDbEntity
  8
0
  6
Continuous
 62
     7
370
    25
100
AcDbLine
 10
747.7329818669
 20
256.2104203583
 30
0.0
 11
746.5481310821
 21
256.0203450634
 31
0.0
  0
LINE
  5
103
330
1F
100
AcDbEntity
  8
0
  6
Continuous
 62
     7
370
    25
100
AcDbLine
 10
747.9705759855
 20
254.7293568773
 30
0.0
 11
746.7857252007
 21
254.5392815824
 31
0.0
  0
LINE
  5
104
330
1F
100
AcDbEntity
  8
0
  6
Continuous
 62
     7
370
    25
100
AcDbLine
 10
746.4237841458
 20
255.8484793034
 30
0.0
 11
746.6138594407
 21
254.6636285186
 31
0.0
  0
LINE
  5
105
330
1F
100
AcDbEntity
  8
0
  6
Continuous
 62
     7
370
    25
100
AcDbLine
 10
303.3389466288
 20
257.3243144392
 30
0.0
 11
303.5718904939
 21
255.8722387153
 31
0.0
  0
LINE
  5
106
330
1F
100
AcDbEntity
  8
0
  6
Continuous
 62
     7
370
    25
100
AcDbLine
 10
302.11981477
 20
255.6392948501
 30
0.0
 11
303.5718904939
 21
255.8722387153
 31
0.0
  0
ARC
  5
107
330
1F
100
AcDbEntity
  8
0
  6
Continuous
 62
     7
370
    25
100
AcDbCircle
 10
314.0848198488
 20
256.951064981
 30
0.0
 40
12.0366975293417
100
AcDbArc
 50
186.2565722694
 51
191.9710500657
  0
LINE
  5
108
330
1F
100
AcDbEntity
  8
0
  6
Continuous
 62
     7
370
    25
100
AcDbLine
 10
302.3098900649
 20
254.4544440653
 30
0.0
 11
303.7619657888
 21
254.6873879305
 31
0.0
  0
LINE
  5
109
330
1F
100
AcDbEntity
  8
0
  6
Continuous
 62
     7
370
    25
100
AcDbLine
 10
303.7619657888
 20
254.6873879305
 30
0.0
 11
303.994909654
 21
253.2353122065
 31
0.0
  0
ARC
  5
10A
330
1F
100
AcDbEntity
  8
0
  6
Continuous
 62
     7
370
    25
100
AcDbCircle
 10
302.6831395232
 20
265.2003172854
 30
0.0
 40
12.0366975293314
100
AcDbArc
 50
276.2565722693
 51
281.9710500657
  0
LINE
  5
10B
330
1F
100
AcDbEntity
  8
0
  6
Continuous
 62
     7
370
    25
100
AcDbLine
 10
304.9468165737
 20
254.8774632254
 30
0.0
 11
305.1797604388
 21
253.4253875015
 31
0.0
  0
LINE
  5
10C
330
1F
100
AcDbEntity
  8
0
  6
Continuous
 62
     7
370
    25
100
AcDbLine
 10
304.9468165737
 20
254.8774632254
 30
0.0
 11
306.3988922976
 21
255.1104070906
 31
0.0
  0
ARC
  5
10D
330
1F
100
AcDbEntity
  8
0
  6
Continuous
 62
     7
370
    25
100
AcDbCircle
 10
294.4338872188
 20
253.7986369597
 30
0.0
 40
12.0366975292997
100
AcDbArc
 50
6.2565722693
 51
11.9710500657
  0
LINE
  5
10E
330
1F
100
AcDbEntity
  8
0
  6
Continuous
 62
     7
370
    25
100
AcDbLine
 10
304.7567412787
 20
256.0623140102
 30
0.0
 11
306.2088170027
 21
256.2952578754
 31
0.0
  0
LINE
  5
10F
330
1F
100
AcDbEntity
  8
0
  6
Continuous
 62
     7
370
    25
100
AcDbLine
 10
304.5237974136
 20
257.5143897341
 30
0.0
 11
304.7567412787
 21
256.0623140102
 31
0.0
  0
ARC
  5
110
330
1F
100
AcDbEntity
  8
0
  6
Continuous
 62
     7
370
    25
100
AcDbCircle
 10
305.8355675444
 20
245.5493846553
 30
0.0
 40
12.0366975293506
100
AcDbArc
 50
96.2565722694
 51
101.9710500657
  0
ARC
  5
111
330
1F
100
AcDbEntity
  8
0
  6
Continuous
 62
     7
370
    25
100
AcDbCircle
 10
304.2593535338
 20
255.3748509703
 30
0.0
 40
3.999999999999983
100
AcDbArc
 50
311.4096221093
 51
99.1138111675
  0
ARC
  5
112
330
1F
100
AcDbEntity
  8
0
  6
Continuous
 62
     7
370
    25
100
AcDbCircle
 10
304.2593535338
 20
255.3748509703
 30
0.0
 40
3.999999999999983
100
AcDbArc
 50
99.1138111675
 51
228.5903778907
  0
LINE
  5
113
330
1F
100
AcDbEntity
  8
0
  6
Continuous
 62
     7
370
    25
100
AcDbLine
 10
304.9048476268
 20
256.0860734221
 30
0.0
 11
305.0949229218
 21
254.9012226373
 31
0.0
  0
LINE
  5
114
330
1F
100
AcDbEntity
  8
0
  6
Continuous
 62
     7
370
    25
100
AcDbLine
 10
304.9705759855
 20
254.7293568773
 30
0.0
 11
303.7857252007
 21
254.5392815824
 31
0.0
  0
LINE
  5
115
330
1F
100
AcDbEntity
  8
0
  6
Continuous
 62
     7
370
    25
100
AcDbLine
 10
304.7329818669
 20
256.2104203583
 30
0.0
 11
303.5481310821
 21
256.0203450634
 31
0.0
  0
LINE
  5
116
330
1F
100
AcDbEntity
  8
0
  6
Continuous
 62
     7
370
    25
100
AcDbLine
 10
303.4237841458
 20
255.8484793034
 30
0.0
 11
303.6138594407
 21
254.6636285186
 31
0.0
  0
ARC
  5
117
330
1F
100
AcDbEntity
  8
0
  6
Continuous
 62
     7
370
    25
100
AcDbCircle
 10
537.0848198488
 20
256.951064981
 30
0.0
 40
12.036697529282
100
AcDbArc
 50
186.2565722693
 51
191.9710500657
  0
ARC
  5
118
330
1F
100
AcDbEntity
  8
0
  6
Continuous
 62
     7
370
    25
100
AcDbCircle
 10
525.6831395232
 20
265.2003172853
 30
0.0
 40
12.03669752930225
100
AcDbArc
 50
276.2565722693
 51
281.9710500657
  0
ARC
  5
119
330
1F
100
AcDbEntity
  8
0
  6
Continuous
 62
     7
370
    25
100
AcDbCircle
 10
517.4338872188
 20
253.7986369597
 30
0.0
 40
12.0366975293226
100
AcDbArc
 50
6.2565722693
 51
11.9710500657
  0
ARC
  5
11A
330
1F
100
AcDbEntity
  8
0
  6
Continuous
 62
     7
370
    25
100
AcDbCircle
 10
528.8355675444
 20
245.5493846553
 30
0.0
 40
12.03669752933212
100
AcDbArc
 50
96.2565722693
 51
101.9710500657
  0
ARC
  5
11B
330
1F
100
AcDbEntity
  8
0
  6
Continuous
 62
     7
370
    25
100
AcDbCircle
 10
527.2593535338
 20
255.3748509703
 30
0.0
 40
4.000000000000019
100
AcDbArc
 50
311.4096221093
 51
99.1138111675
  0
ARC
  5
11C
330
1F
100
AcDbEntity
  8
0
  6
Continuous
 62
     7
370
    25
100
AcDbCircle
 10
527.2593535338
 20
255.3748509703
 30
0.0
 40
3.999999999999998
100
AcDbArc
 50
99.1138111675
 51
228.5903778907
  0
LINE
  5
11D
330
1F
100
AcDbEntity
  8
0
  6
Continuous
 62
     7
370
    25
100
AcDbLine
 10
527.5237974136
 20
257.5143897341
 30
0.0
 11
527.7567412787
 21
256.0623140102
 31
0.0
  0
LINE
  5
11E
330
1F
100
AcDbEntity
  8
0
  6
Continuous
 62
     7
370
    25
100
AcDbLine
 10
527.9468165737
 20
254.8774632254
 30
0.0
 11
528.1797604388
 21
253.4253875015
 31
0.0
  0
LINE
  5
11F
330
1F
100
AcDbEntity
  8
0
  6
Continuous
 62
     7
370
    25
100
AcDbLine
 10
527.7567412787
 20
256.0623140102
 30
0.0
 11
529.2088170027
 21
256.2952578754
 31
0.0
  0
LINE
  5
120
330
1F
100
AcDbEntity
  8
0
  6
Continuous
 62
     7
370
    25
100
AcDbLine
 10
525.3098900649
 20
254.4544440653
 30
0.0
 11
526.7619657888
 21
254.6873879305
 31
0.0
  0
LINE
  5
121
330
1F
100
AcDbEntity
  8
0
  6
Continuous
 62
     7
370
    25
100
AcDbLine
 10
526.3389466288
 20
257.3243144392
 30
0.0
 11
526.5718904939
 21
255.8722387153
 31
0.0
  0
LINE
  5
122
330
1F
100
AcDbEntity
  8
0
  6
Continuous
 62
     7
370
    25
100
AcDbLine
 10
525.11981477
 20
255.6392948501
 30
0.0
 11
526.5718904939
 21
255.8722387153
 31
0.0
  0
LINE
  5
123
330
1F
100
AcDbEntity
  8
0
  6
Continuous
 62
     7
370
    25
100
AcDbLine
 10
527.9468165737
 20
254.8774632254
 30
0.0
 11
529.3988922976
 21
255.1104070906
 31
0.0
  0
LINE
  5
124
330
1F
100
AcDbEntity
  8
0
  6
Continuous
 62
     7
370
    25
100
AcDbLine
 10
526.7619657888
 20
254.6873879305
 30
0.0
 11
526.994909654
 21
253.2353122065
 31
0.0
  0
LINE
  5
125
330
1F
100
AcDbEntity
  8
0
  6
Continuous
 62
     7
370
    25
100
AcDbLine
 10
527.9048476268
 20
256.0860734221
 30
0.0
 11
528.0949229218
 21
254.9012226373
 31
0.0
  0
LINE
  5
126
330
1F
100
AcDbEntity
  8
0
  6
Continuous
 62
     7
370
    25
100
AcDbLine
 10
527.9705759855
 20
254.7293568773
 30
0.0
 11
526.7857252007
 21
254.5392815824
 31
0.0
  0
LINE
  5
127
330
1F
100
AcDbEntity
  8
0
  6
Continuous
 62
     7
370
    25
100
AcDbLine
 10
527.7329818669
 20
256.2104203583
 30
0.0
 11
526.5481310821
 21
256.0203450634
 31
0.0
  0
LINE
  5
128
330
1F
100
AcDbEntity
  8
0
  6
Continuous
 62
     7
370
    25
100
AcDbLine
 10
526.4237841458
 20
255.8484793034
 30
0.0
 11
526.6138594407
 21
254.6636285186
 31
0.0
  0
ARC
  5
129
330
1F
100
AcDbEntity
  8
0
  6
Continuous
 62
     7
370
    25
100
AcDbCircle
 10
94.0848198488
 20
256.951064981
 30
0.0
 40
12.03669752935772
100
AcDbArc
 50
186.2565722694
 51
191.9710500657
  0
ARC
  5
12A
330
1F
100
AcDbEntity
  8
0
  6
Continuous
 62
     7
370
    25
100
AcDbCircle
 10
82.6831395232
 20
265.2003172854
 30
0.0
 40
12.03669752932315
100
AcDbArc
 50
276.2565722693
 51
281.9710500657
  0
LINE
  5
12B
330
1F
100
AcDbEntity
  8
0
  6
Continuous
 62
     7
370
    25
100
AcDbLine
 10
84.9468165737
 20
254.8774632254
 30
0.0
 11
85.1797604388
 21
253.4253875015
 31
0.0
  0
ARC
  5
12C
330
1F
100
AcDbEntity
  8
0
  6
Continuous
 62
     7
370
    25
100
AcDbCircle
 10
74.4338872187
 20
253.7986369597
 30
0.0
 40
12.03669752935996
100
AcDbArc
 50
6.2565722694
 51
11.9710500657
  0
ARC
  5
12D
330
1F
100
AcDbEntity
  8
0
  6
Continuous
 62
     7
370
    25
100
AcDbCircle
 10
85.8355675444
 20
245.5493846553
 30
0.0
 40
12.03669752932738
100
AcDbArc
 50
96.2565722693
 51
101.9710500657
  0
ARC
  5
12E
330
1F
100
AcDbEntity
  8
0
  6
Continuous
 62
     7
370
    25
100
AcDbCircle
 10
84.2593535338
 20
255.3748509703
 30
0.0
 40
3.999999999999972
100
AcDbArc
 50
311.4096221092
 51
99.1138111675
  0
ARC
  5
12F
330
1F
100
AcDbEntity
  8
0
  6
Continuous
 62
     7
370
    25
100
AcDbCircle
 10
84.2593535338
 20
255.3748509703
 30
0.0
 40
3.999999999999987
100
AcDbArc
 50
99.1138111675
 51
228.5903778908
  0
LINE
  5
130
330
1F
100
AcDbEntity
  8
0
  6
Continuous
 62
     7
370
    25
100
AcDbLine
 10
83.3389466288
 20
257.3243144392
 30
0.0
 11
83.5718904939
 21
255.8722387153
 31
0.0
  0
LINE
  5
131
330
1F
100
AcDbEntity
  8
0
  6
Continuous
 62
     7
370
    25
100
AcDbLine
 10
82.3098900649
 20
254.4544440653
 30
0.0
 11
83.7619657888
 21
254.6873879305
 31
0.0
  0
LINE
  5
132
330
1F
100
AcDbEntity
  8
0
  6
Continuous
 62
     7
370
    25
100
AcDbLine
 10
84.7567412787
 20
256.0623140102
 30
0.0
 11
86.2088170027
 21
256.2952578754
 31
0.0
  0
LINE
  5
133
330
1F
100
AcDbEntity
  8
0
  6
Continuous
 62
     7
370
    25
100
AcDbLine
 10
84.9468165737
 20
254.8774632254
 30
0.0
 11
86.3988922976
 21
255.1104070906
 31
0.0
  0
LINE
  5
134
330
1F
100
AcDbEntity
  8
0
  6
Continuous
 62
     7
370
    25
100
AcDbLine
 10
83.7619657888
 20
254.6873879305
 30
0.0
 11
83.994909654
 21
253.2353122065
 31
0.0
  0
LINE
  5
135
330
1F
100
AcDbEntity
  8
0
  6
Continuous
 62
     7
370
    25
100
AcDbLine
 10
82.11981477
 20
255.6392948501
 30
0.0
 11
83.5718904939
 21
255.8722387153
 31
0.0
  0
LINE
  5
136
330
1F
100
AcDbEntity
  8
0
  6
Continuous
 62
     7
370
    25
100
AcDbLine
 10
84.5237974136
 20
257.5143897341
 30
0.0
 11
84.7567412787
 21
256.0623140102
 31
0.0
  0
LINE
  5
137
330
1F
100
AcDbEntity
  8
0
  6
Continuous
 62
     7
370
    25
100
AcDbLine
 10
84.9048476268
 20
256.0860734221
 30
0.0
 11
85.0949229218
 21
254.9012226373
 31
0.0
  0
LINE
  5
138
330
1F
100
AcDbEntity
  8
0
  6
Continuous
 62
     7
370
    25
100
AcDbLine
 10
84.9705759855
 20
254.7293568773
 30
0.0
 11
83.7857252007
 21
254.5392815824
 31
0.0
  0
LINE
  5
139
330
1F
100
AcDbEntity
  8
0
  6
Continuous
 62
     7
370
    25
100
AcDbLine
 10
84.7329818669
 20
256.2104203583
 30
0.0
 11
83.5481310821
 21
256.0203450634
 31
0.0
  0
LINE
  5
13A
330
1F
100
AcDbEntity
  8
0
  6
Continuous
 62
     7
370
    25
100
AcDbLine
 10
83.4237841458
 20
255.8484793034
 30
0.0
 11
83.6138594407
 21
254.6636285186
 31
0.0
  0
SPLINE
  5
13B
330
1F
100
AcDbEntity
  8
0
  6
Continuous
 62
     7
370
    25
100
AcDbSpline
210
0.0
220
0.0
230
1.0
 70
    24
 71
     3
 72
    18
 73
    14
 74
     0
 42
0.000000001
 43
0.00000001
 40
0.0
 40
0.0
 40
0.0
 40
0.0
 40
0.1395442450004754
 40
0.2146633576115609
 40
0.2913766055701592
 40
0.3680898535287566
 40
0.4432089661398425
 40
0.5827532111403181
 40
0.7222974561407931
 40
0.7974165687518792
 40
0.874129816710477
 40
0.950843064669075
 40
1.0
 40
1.0
 40
1.0
 40
1.0
 10
64.55935353379117
 20
275.144322913575
 30
0.0
 10
64.55935353379111
 20
275.5294538055006
 30
0.0
 10
64.55935353379105
 20
276.1219074060086
 30
0.0
 10
64.55935353379122
 20
277.3578215873936
 30
0.0
 10
64.559353533791
 20
278.4338511997485
 30
0.0
 10
64.55935353379128
 20
279.5973793202973
 30
0.0
 10
64.55935353379122
 20
281.1178265113155
 30
0.0
 10
64.55935353379117
 20
282.9420165093222
 30
0.0
 10
64.55935353379117
 20
284.4572514639146
 30
0.0
 10
64.55935353379117
 20
285.3749987623445
 30
0.0
 10
64.55935353379122
 20
285.8786155806983
 30
0.0
 10
64.55935353379111
 20
286.1507527054382
 30
0.0
 10
64.55935353379111
 20
286.1488448625522
 30
0.0
 10
64.55935353379111
 20
286.1480997797462
 30
0.0
  0
SPLINE
  5
13C
330
1F
100
AcDbEntity
  8
0
  6
Continuous
 62
     7
370
    25
100
AcDbSpline
210
0.0
220
0.0
230
1.0
 70
     8
 71
     3
 72
     8
 73
     4
 74
     0
 42
0.000000001
 43
0.00000001
 40
0.0
 40
0.0
 40
0.0
 40
0.0
 40
1.0
 40
1.0
 40
1.0
 40
1.0
 10
68.559353533784
 20
282.5354607141556
 30
0.0
 10
68.559353533784
 20
283.4240005207113
 30
0.0
 10
68.38503823340459
 20
284.2882213741303
 30
0.0
 10
68.11277154639272
 20
285.1387769028455
 30
0.0
  0
SPLINE
  5
13D
330
1F
100
AcDbEntity
  8
0
  6
Continuous
 62
     7
370
    25
100
AcDbSpline
210
0.0
220
0.0
230
1.0
 70
     8
 71
     3
 72
     8
 73
     4
 74
     0
 42
0.000000001
 43
0.00000001
 40
0.0
 40
0.0
 40
0.0
 40
0.0
 40
1.0
 40
1.0
 40
1.0
 40
1.0
 10
68.11277154639272
 20
279.9321445254655
 30
0.0
 10
68.38503823340419
 20
280.7827000541794
 30
0.0
 10
68.559353533784
 20
281.6469209076011
 30
0.0
 10
68.559353533784
 20
282.5354607141556
 30
0.0
  0
LINE
  5
13E
330
1F
100
AcDbEntity
  8
0
  6
Continuous
 62
     7
370
    25
100
AcDbLine
 10
68.1127715464
 20
279.9321445255
 30
0.0
 11
64.5593535338
 21
279.9321445255
 31
0.0
  0
LINE
  5
13F
330
1F
100
AcDbEntity
  8
0
  6
Continuous
 62
     7
370
    25
100
AcDbLine
 10
64.5593535338
 20
285.1387769028
 30
0.0
 11
68.1127715464
 21
285.1387769028
 31
0.0
  0
SPLINE
  5
140
330
1F
100
AcDbEntity
  8
0
  6
Continuous
 62
     7
370
    25
100
AcDbSpline
210
0.0
220
0.0
230
1.0
 70
     8
 71
     3
 72
     8
 73
     4
 74
     0
 42
0.000000001
 43
0.00000001
 40
0.0
 40
0.0
 40
0.0
 40
0.0
 40
1.0
 40
1.0
 40
1.0
 40
1.0
 10
68.55935353378406
 20
277.550181559209
 30
0.0
 10
68.55935353378406
 20
278.3631711309142
 30
0.0
 10
68.3850382334048
 20
279.1539095269819
 30
0.0
 10
68.11277154639272
 20
279.9321445254588
 30
0.0
  0
SPLINE
  5
141
330
1F
100
AcDbEntity
  8
0
  6
Continuous
 62
     7
370
    25
100
AcDbSpline
210
0.0
220
0.0
230
1.0
 70
     8
 71
     3
 72
     8
 73
     4
 74
     0
 42
0.000000001
 43
0.00000001
 40
0.0
 40
0.0
 40
0.0
 40
0.0
 40
1.0
 40
1.0
 40
1.0
 40
1.0
 10
68.11277154639272
 20
275.1682185929592
 30
0.0
 10
68.38503823340415
 20
275.9464535914341
 30
0.0
 10
68.55935353378406
 20
276.737191987506
 30
0.0
 10
68.55935353378406
 20
277.550181559209
 30
0.0
  0
LINE
  5
142
330
1F
100
AcDbEntity
  8
0
  6
Continuous
 62
     7
370
    25
100
AcDbLine
 10
64.5593535338
 20
275.168218593
 30
0.0
 11
68.1127715464
 21
275.168218593
 31
0.0
  0
LINE
  5
143
330
1F
100
AcDbEntity
  8
0
  6
Continuous
 62
     7
370
    25
100
AcDbLine
 10
68.5593535338
 20
277.5501815592
 30
0.0
 11
68.5593535338
 21
282.5354607142
 31
0.0
  0
SPLINE
  5
144
330
1F
100
AcDbEntity
  8
0
  6
Continuous
 62
     7
370
    25
100
AcDbSpline
210
0.0
220
0.0
230
1.0
 70
     8
 71
     3
 72
     8
 73
     4
 74
     0
 42
0.000000001
 43
0.00000001
 40
0.0
 40
0.0
 40
0.0
 40
0.0
 40
1.0
 40
1.0
 40
1.0
 40
1.0
 10
68.11277154639284
 20
285.1387769028491
 30
0.0
 10
68.38503823340425
 20
285.211097433088
 30
0.0
 10
68.55935353378418
 20
285.2845798904385
 30
0.0
 10
68.55935353378418
 20
285.3601301252896
 30
0.0
  0
LINE
  5
145
330
1F
100
AcDbEntity
  8
0
  6
Continuous
 62
     7
370
    25
100
AcDbLine
 10
68.5593535338
 20
282.5354607142
 30
0.0
 11
68.5593535338
 21
285.3601301253
 31
0.0
  0
SPLINE
  5
146
330
1F
100
AcDbEntity
  8
0
  6
Continuous
 62
     7
370
    25
100
AcDbSpline
210
0.0
220
0.0
230
1.0
 70
     8
 71
     3
 72
     8
 73
     4
 74
     0
 42
0.000000001
 43
0.00000001
 40
0.0
 40
0.0
 40
0.0
 40
0.0
 40
1.0
 40
1.0
 40
1.0
 40
1.0
 10
68.55935353378418
 20
275.3895718153969
 30
0.0
 10
68.55935353378418
 20
275.3140215805456
 30
0.0
 10
68.38503823340474
 20
275.2405391231954
 30
0.0
 10
68.11277154639278
 20
275.1682185929565
 30
0.0
  0
LINE
  5
147
330
1F
100
AcDbEntity
  8
0
  6
Continuous
 62
     7
370
    25
100
AcDbLine
 10
68.5593535338
 20
277.5501815592
 30
0.0
 11
68.5593535338
 21
275.3821784766
 31
0.0
  0
SPLINE
  5
148
330
1F
100
AcDbEntity
  8
0
  6
Continuous
 62
     7
370
    25
100
AcDbSpline
210
0.0
220
0.0
230
1.0
 70
     8
 71
     3
 72
     8
 73
     4
 74
     0
 42
0.000000001
 43
0.00000001
 40
0.0
 40
0.0
 40
0.0
 40
0.0
 40
1.0
 40
1.0
 40
1.0
 40
1.0
 10
68.55935353378418
 20
285.3601301252896
 30
0.0
 10
68.55935353378418
 20
285.435680360141
 30
0.0
 10
68.38503823340474
 20
285.5091628174912
 30
0.0
 10
68.11277154639278
 20
285.5814833477302
 30
0.0
  0
LINE
  5
149
330
1F
100
AcDbEntity
  8
0
  6
Continuous
 62
     7
370
    25
100
AcDbLine
 10
64.5593535338
 20
285.5814833477
 30
0.0
 11
68.1127715464
 21
285.5814833477
 31
0.0
  0
LINE
  5
14A
330
1F
100
AcDbEntity
  8
0
  6
Continuous
 62
     7
370
    25
100
AcDbLine
 10
54.1006035338
 20
281.6712168166
 30
0.0
 11
54.1006035338
 21
277.3748509703
 31
0.0
  0
LINE
  5
14B
330
1F
100
AcDbEntity
  8
0
  6
Continuous
 62
     7
370
    25
100
AcDbLine
 10
54.1006035338
 20
283.3748509703
 30
0.0
 11
54.1006035338
 21
281.6712168166
 31
0.0
  0
LINE
  5
14C
330
1F
100
AcDbEntity
  8
0
  6
Continuous
 62
     7
370
    25
100
AcDbLine
 10
53.5593535338
 20
282.8336009704
 30
0.0
 11
53.5593535338
 21
277.9161009703
 31
0.0
  0
LINE
  5
14D
330
1F
100
AcDbEntity
  8
0
  6
Continuous
 62
     7
370
    25
100
AcDbLine
 10
887.2482621479
 20
251.5962242982
 30
0.0
 11
887.6111999263
 21
252.2248509703
 31
0.0
  0
LINE
  5
14E
330
1F
100
AcDbEntity
  8
0
  6
Continuous
 62
     7
370
    25
100
AcDbLine
 10
887.6111999263
 20
258.5248509703
 30
0.0
 11
887.2482621479
 21
259.1534776424
 31
0.0
  0
LINE
  5
14F
330
1F
100
AcDbEntity
  8
0
  6
Continuous
 62
     7
370
    25
100
AcDbLine
 10
889.3111999263
 20
251.3748509703
 30
0.0
 11
891.3111999263
 21
251.3748509703
 31
0.0
  0
LINE
  5
150
330
1F
100
AcDbEntity
  8
0
  6
Continuous
 62
     7
370
    25
100
AcDbLine
 10
891.3111999263
 20
259.3748509703
 30
0.0
 11
889.3111999263
 21
259.3748509703
 31
0.0
  0
ARC
  5
151
330
1F
100
AcDbEntity
  8
0
  6
Continuous
 62
     7
370
    25
100
AcDbCircle
 10
884.382996696
 20
255.3748509703
 30
0.0
 40
8.000000000000044
100
AcDbArc
 50
330.0
 51
344.7252520003
  0
ARC
  5
152
330
1F
100
AcDbEntity
  8
0
  6
Continuous
 62
     7
370
    25
100
AcDbCircle
 10
884.382996696
 20
255.3748509703
 30
0.0
 40
8.000000000000068
100
AcDbArc
 50
15.2747479997
 51
30.0
  0
LINE
  5
153
330
1F
100
AcDbEntity
  8
0
  6
Continuous
 62
     7
370
    25
100
AcDbLine
 10
887.6111999263
 20
253.3748509703
 30
0.0
 11
887.7111999263
 21
253.3748509703
 31
0.0
  0
LINE
  5
154
330
1F
100
AcDbEntity
  8
0
  6
Continuous
 62
     7
370
    25
100
AcDbLine
 10
887.7111999263
 20
257.3748509703
 30
0.0
 11
887.6111999263
 21
257.3748509703
 31
0.0
  0
LINE
  5
155
330
1F
100
AcDbEntity
  8
0
  6
Continuous
 62
     7
370
    25
100
AcDbLine
 10
894.6111999263
 20
250.9041402922
 30
0.0
 11
894.6111999263
 21
207.8455616485
 31
0.0
  0
LINE
  5
156
330
1F
100
AcDbEntity
  8
0
  6
Continuous
 62
     7
370
    25
100
AcDbLine
 10
904.2111999263
 20
250.9041402922
 30
0.0
 11
894.6111999263
 21
250.9041402922
 31
0.0
  0
LINE
  5
157
330
1F
100
AcDbEntity
  8
0
  6
Continuous
 62
     7
370
    25
100
AcDbLine
 10
904.2111999263
 20
207.8455616485
 30
0.0
 11
894.6111999263
 21
207.8455616485
 31
0.0
  0
SPLINE
  5
158
330
1F
100
AcDbEntity
  8
0
  6
Continuous
 62
     7
370
    25
100
AcDbSpline
210
0.0
220
0.0
230
1.0
 70
     8
 71
     3
 72
    20
 73
    16
 74
     0
 42
0.000000001
 43
0.00000001
 40
0.0
 40
0.0
 40
0.0
 40
0.0
 40
0.1250000000000094
 40
0.1250000000000094
 40
0.2500000000000187
 40
0.2500000000000187
 40
0.3750000000000281
 40
0.3750000000000281
 40
0.5000000000000374
 40
0.5000000000000374
 40
0.7500000000000263
 40
0.7500000000000263
 40
0.8750000000000132
 40
0.8750000000000132
 40
1.0
 40
1.0
 40
1.0
 40
1.0
 10
906.6111999262998
 20
208.7748509703413
 30
0.0
 10
906.6111999262998
 20
208.7358102394867
 30
0.0
 10
906.595663365825
 20
208.6972915352869
 30
0.0
 10
906.5343450138644
 20
208.619884783979
 30
0.0
 10
906.4879212682774
 20
208.5807403659923
 30
0.0
 10
906.3679703981235
 20
208.5035896120771
 30
0.0
 10
906.29436575384
 20
208.4652620303361
 30
0.0
 10
906.1196353877443
 20
208.3877157098595
 30
0.0
 10
906.0187847588428
 20
208.3487395021909
 30
0.0
 10
905.6874994788589
 20
208.2332446457458
 30
0.0
 10
905.419819317475
 20
208.1553322020758
 30
0.0
 10
904.9871452914196
 20
208.0398522766749
 30
0.0
 10
904.8356272045685
 20
208.0009864808098
 30
0.0
 10
904.5262014471823
 20
207.9232121471414
 30
0.0
 10
904.3695791174886
 20
207.8846023801866
 30
0.0
 10
904.2111999262999
 20
207.8455616484599
 30
0.0
  0
SPLINE
  5
159
330
1F
100
AcDbEntity
  8
0
  6
Continuous
 62
     7
370
    25
100
AcDbSpline
210
0.0
220
0.0
230
1.0
 70
     8
 71
     3
 72
    20
 73
    16
 74
     0
 42
0.000000001
 43
0.00000001
 40
0.0
 40
0.0
 40
0.0
 40
0.0
 40
0.1250000000000001
 40
0.1250000000000001
 40
0.2500000000000002
 40
0.2500000000000002
 40
0.3750000000000002
 40
0.3750000000000002
 40
0.5000000000000003
 40
0.5000000000000003
 40
0.7500000000000004
 40
0.7500000000000004
 40
0.8750000000000002
 40
0.8750000000000002
 40
1.0
 40
1.0
 40
1.0
 40
1.0
 10
904.2111999262999
 20
250.9041402922227
 30
0.0
 10
904.3695791139505
 20
250.8650995613681
 30
0.0
 10
904.5258248386422
 20
250.8265808571684
 30
0.0
 10
904.8338166880588
 20
250.7491741058604
 30
0.0
 10
904.98646079553
 20
250.7100296878737
 30
0.0
 10
905.2755450847171
 20
250.6328789339586
 30
0.0
 10
905.4133496229011
 20
250.5945513522175
 30
0.0
 10
905.67496829854
 20
250.517005031741
 30
0.0
 10
905.7977146052226
 20
250.4780288240723
 30
0.0
 10
906.1290389821703
 20
250.3625339676273
 30
0.0
 10
906.3080501061985
 20
250.2846215239571
 30
0.0
 10
906.4876652055794
 20
250.1691415985563
 30
0.0
 10
906.5339095544472
 20
250.1302758026913
 30
0.0
 10
906.5956628604583
 20
250.0525014690228
 30
0.0
 10
906.6111999262998
 20
250.013891702068
 30
0.0
 10
906.6111999262998
 20
249.9748509703413
 30
0.0
  0
LINE
  5
15A
330
1F
100
AcDbEntity
  8
0
  6
Continuous
 62
     7
370
    25
100
AcDbLine
 10
906.6111999263
 20
249.9748509703
 30
0.0
 11
906.6111999263
 21
208.7748509703
 31
0.0
  0
SPLINE
  5
15B
330
1F
100
AcDbEntity
  8
0
  6
Continuous
 62
     7
370
    25
100
AcDbSpline
210
0.0
220
0.0
230
1.0
 70
     8
 71
     3
 72
    20
 73
    16
 74
     0
 42
0.000000001
 43
0.00000001
 40
0.0
 40
0.0
 40
0.0
 40
0.0
 40
0.1250000000000013
 40
0.1250000000000013
 40
0.2500000000000026
 40
0.2500000000000026
 40
0.3750000000000038
 40
0.3750000000000038
 40
0.5000000000000051
 40
0.5000000000000051
 40
0.7500000000000077
 40
0.7500000000000077
 40
0.8750000000000038
 40
0.8750000000000038
 40
1.0
 40
1.0
 40
1.0
 40
1.0
 10
906.6111999262998
 20
249.9748509703412
 30
0.0
 10
906.6111999262998
 20
250.1332301579919
 30
0.0
 10
906.595663365825
 20
250.2894758826837
 30
0.0
 10
906.5343450138645
 20
250.5974677321003
 30
0.0
 10
906.4879212682775
 20
250.7501118395714
 30
0.0
 10
906.3679703981235
 20
251.0391961287585
 30
0.0
 10
906.29436575384
 20
251.1770006669426
 30
0.0
 10
906.1196353877444
 20
251.4386193425815
 30
0.0
 10
906.0187847588428
 20
251.5613656492641
 30
0.0
 10
905.687499478859
 20
251.8926900262119
 30
0.0
 10
905.4198193174751
 20
252.07170115024
 30
0.0
 10
904.9871452914197
 20
252.2513162496209
 30
0.0
 10
904.8356272045686
 20
252.2975605984886
 30
0.0
 10
904.5262014471824
 20
252.3593139044998
 30
0.0
 10
904.3695791174886
 20
252.3748509703413
 30
0.0
 10
904.2111999262999
 20
252.3748509703413
 30
0.0
  0
SPLINE
  5
15C
330
1F
100
AcDbEntity
  8
0
  6
Continuous
 62
     7
370
    25
100
AcDbSpline
210
0.0
220
0.0
230
1.0
 70
     8
 71
     3
 72
     9
 73
     5
 74
     0
 42
0.000000001
 43
0.00000001
 40
0.0
 40
0.0
 40
0.0
 40
0.0
 40
0.4825784287291755
 40
1.0
 40
1.0
 40
1.0
 40
1.0
 10
904.8237396654779
 20
250.7510212022877
 30
0.0
 10
904.7356053241615
 20
250.8148293953491
 30
0.0
 10
904.5529731631086
 20
250.9470528625883
 30
0.0
 10
904.3277402790641
 20
250.9653721670448
 30
0.0
 10
904.2111999262999
 20
250.9748509703413
 30
0.0
  0
LINE
  5
15D
330
1F
100
AcDbEntity
  8
0
  6
Continuous
 62
     7
370
    25
100
AcDbLine
 10
904.2111999263
 20
252.3748509703
 30
0.0
 11
904.2111999263
 21
250.9748509703
 31
0.0
  0
LINE
  5
15E
330
1F
100
AcDbEntity
  8
0
  6
Continuous
 62
     7
370
    25
100
AcDbLine
 10
904.2111999263
 20
206.3748509703
 30
0.0
 11
904.2111999263
 21
207.7748509703
 31
0.0
  0
SPLINE
  5
15F
330
1F
100
AcDbEntity
  8
0
  6
Continuous
 62
     7
370
    25
100
AcDbSpline
210
0.0
220
0.0
230
1.0
 70
     8
 71
     3
 72
     9
 73
     5
 74
     0
 42
0.000000001
 43
0.00000001
 40
0.0
 40
0.0
 40
0.0
 40
0.0
 40
0.7329379507205542
 40
1.0
 40
1.0
 40
1.0
 40
1.0
 10
904.2111999262999
 20
207.7748509703414
 30
0.0
 10
904.3625885679556
 20
207.7866056198593
 30
0.0
 10
904.5691389880926
 20
207.8026433342475
 30
0.0
 10
904.7244993302124
 20
207.9309806407427
 30
0.0
 10
904.7659901815558
 20
207.9652546648144
 30
0.0
  0
SPLINE
  5
160
330
1F
100
AcDbEntity
  8
0
  6
Continuous
 62
     7
370
    25
100
AcDbSpline
210
0.0
220
0.0
230
1.0
 70
     8
 71
     3
 72
    20
 73
    16
 74
     0
 42
0.000000001
 43
0.00000001
 40
0.0
 40
0.0
 40
0.0
 40
0.0
 40
0.1250000000000031
 40
0.1250000000000031
 40
0.2500000000000061
 40
0.2500000000000061
 40
0.3750000000000092
 40
0.3750000000000092
 40
0.5000000000000122
 40
0.5000000000000122
 40
0.7500000000000061
 40
0.7500000000000061
 40
0.875000000000003
 40
0.875000000000003
 40
1.0
 40
1.0
 40
1.0
 40
1.0
 10
904.2111999262999
 20
206.3748509703414
 30
0.0
 10
904.3695791139504
 20
206.3748509703414
 30
0.0
 10
904.525824838642
 20
206.3903875308163
 30
0.0
 10
904.8338166880587
 20
206.4517058827768
 30
0.0
 10
904.9864607955298
 20
206.4981296283637
 30
0.0
 10
905.275545084717
 20
206.6180804985178
 30
0.0
 10
905.413349622901
 20
206.6916851428012
 30
0.0
 10
905.6749682985399
 20
206.8664155088968
 30
0.0
 10
905.7977146052225
 20
206.9672661377983
 30
0.0
 10
906.1290389821702
 20
207.2985514177822
 30
0.0
 10
906.3080501061984
 20
207.5662315791661
 30
0.0
 10
906.4876652055793
 20
207.9989056052214
 30
0.0
 10
906.5339095544471
 20
208.1504236920725
 30
0.0
 10
906.5956628604582
 20
208.4598494494587
 30
0.0
 10
906.6111999262997
 20
208.6164717791524
 30
0.0
 10
906.6111999262998
 20
208.7748509703412
 30
0.0
  0
LINE
  5
161
330
1F
100
AcDbEntity
  8
0
  6
Continuous
 62
     7
370
    25
100
AcDbLine
 10
904.2111999263
 20
252.3748509703
 30
0.0
 11
894.6111999263
 21
252.3748509703
 31
0.0
  0
LINE
  5
162
330
1F
100
AcDbEntity
  8
0
  6
Continuous
 62
     7
370
    25
100
AcDbLine
 10
894.6111999263
 20
252.3748509703
 30
0.0
 11
894.6111999263
 21
250.9748509703
 31
0.0
  0
LINE
  5
163
330
1F
100
AcDbEntity
  8
0
  6
Continuous
 62
     7
370
    25
100
AcDbLine
 10
904.2111999263
 20
250.9748509703
 30
0.0
 11
894.6111999263
 21
250.9748509703
 31
0.0
  0
LINE
  5
164
330
1F
100
AcDbEntity
  8
0
  6
Continuous
 62
     7
370
    25
100
AcDbLine
 10
904.2111999263
 20
207.7748509703
 30
0.0
 11
894.6111999263
 21
207.7748509703
 31
0.0
  0
LINE
  5
165
330
1F
100
AcDbEntity
  8
0
  6
Continuous
 62
     7
370
    25
100
AcDbLine
 10
904.2111999263
 20
206.3748509703
 30
0.0
 11
894.6111999263
 21
206.3748509703
 31
0.0
  0
LINE
  5
166
330
1F
100
AcDbEntity
  8
0
  6
Continuous
 62
     7
370
    25
100
AcDbLine
 10
894.6111999263
 20
206.3748509703
 30
0.0
 11
894.6111999263
 21
207.7748509703
 31
0.0
  0
LINE
  5
167
330
1F
100
AcDbEntity
  8
0
  6
Continuous
 62
     7
370
    25
100
AcDbLine
 10
886.5111999263
 20
266.8748509703
 30
0.0
 11
890.5111999263
 21
266.8748509703
 31
0.0
  0
LINE
  5
168
330
1F
100
AcDbEntity
  8
0
  6
Continuous
 62
     7
370
    25
100
AcDbLine
 10
886.5111999263
 20
249.6748509703
 30
0.0
 11
886.5111999263
 21
266.8748509703
 31
0.0
  0
LINE
  5
169
330
1F
100
AcDbEntity
  8
0
  6
Continuous
 62
     7
370
    25
100
AcDbLine
 10
867.5111999263
 20
283.8748509703
 30
0.0
 11
867.5111999263
 21
249.6748509703
 31
0.0
  0
ARC
  5
16A
330
1F
100
AcDbEntity
  8
0
  6
Continuous
 62
     7
370
    25
100
AcDbCircle
 10
870.5111999263
 20
283.8748509703
 30
0.0
 40
3.0
100
AcDbArc
 50
90.0
 51
180.0
  0
LINE
  5
16B
330
1F
100
AcDbEntity
  8
0
  6
Continuous
 62
     7
370
    25
100
AcDbLine
 10
887.5111999263
 20
286.8748509703
 30
0.0
 11
870.5111999263
 21
286.8748509703
 31
0.0
  0
ARC
  5
16C
330
1F
100
AcDbEntity
  8
0
  6
Continuous
 62
     7
370
    25
100
AcDbCircle
 10
887.5111999263
 20
283.8748509703
 30
0.0
 40
3.0
100
AcDbArc
 50
0.0
 51
90.0
  0
LINE
  5
16D
330
1F
100
AcDbEntity
  8
0
  6
Continuous
 62
     7
370
    25
100
AcDbLine
 10
890.5111999263
 20
266.8748509703
 30
0.0
 11
890.5111999263
 21
283.8748509703
 31
0.0
  0
CIRCLE
  5
16E
330
1F
100
AcDbEntity
  8
0
  6
Continuous
 62
     7
370
    25
100
AcDbCircle
 10
876.0111999263
 20
280.3748509703
 30
0.0
 40
3.249999999999886
  0
CIRCLE
  5
16F
330
1F
100
AcDbEntity
  8
0
  6
Continuous
 62
     7
370
    25
100
AcDbCircle
 10
876.0111999263
 20
255.3748509703
 30
0.0
 40
3.249999999999943
  0
LINE
  5
170
330
1F
100
AcDbEntity
  8
0
  6
Continuous
 62
     7
370
    25
100
AcDbLine
 10
886.5111999263
 20
249.6748509703
 30
0.0
 11
886.5111999263
 21
247.8748509703
 31
0.0
  0
LINE
  5
171
330
1F
100
AcDbEntity
  8
0
  6
Continuous
 62
     7
370
    25
100
AcDbLine
 10
886.5111999263
 20
247.8748509703
 30
0.0
 11
867.5111999263
 21
247.8748509703
 31
0.0
  0
LINE
  5
172
330
1F
100
AcDbEntity
  8
0
  6
Continuous
 62
     7
370
    25
100
AcDbLine
 10
867.5111999263
 20
247.8748509703
 30
0.0
 11
867.5111999263
 21
249.6748509703
 31
0.0
  0
LINE
  5
173
330
1F
100
AcDbEntity
  8
0
  6
Continuous
 62
     7
370
    25
100
AcDbLine
 10
886.5111999263
 20
247.8748509703
 30
0.0
 11
886.7111999263
 21
247.8748509703
 31
0.0
  0
LINE
  5
174
330
1F
100
AcDbEntity
  8
0
  6
Continuous
 62
     7
370
    25
100
AcDbLine
 10
886.5111999263
 20
248.6748509703
 30
0.0
 11
886.7111999263
 21
248.6748509703
 31
0.0
  0
LINE
  5
175
330
1F
100
AcDbEntity
  8
0
  6
Continuous
 62
     7
370
    25
100
AcDbLine
 10
887.7111999263
 20
259.8748509703
 30
0.0
 11
887.7111999263
 21
249.6748509703
 31
0.0
  0
LINE
  5
176
330
1F
100
AcDbEntity
  8
0
  6
Continuous
 62
     7
370
    25
100
AcDbLine
 10
888.5111999263
 20
259.8748509703
 30
0.0
 11
887.7111999263
 21
259.8748509703
 31
0.0
  0
ARC
  5
177
330
1F
100
AcDbEntity
  8
0
  6
Continuous
 62
     7
370
    25
100
AcDbCircle
 10
886.7111999263
 20
249.6748509703
 30
0.0
 40
1.800000000000068
100
AcDbArc
 50
270.0
 51
0.0
  0
ARC
  5
178
330
1F
100
AcDbEntity
  8
0
  6
Continuous
 62
     7
370
    25
100
AcDbCircle
 10
886.7111999263
 20
249.6748509703
 30
0.0
 40
1.0
100
AcDbArc
 50
270.0
 51
0.0
  0
LINE
  5
179
330
1F
100
AcDbEntity
  8
0
  6
Continuous
 62
     7
370
    25
100
AcDbLine
 10
843.5111999263
 20
247.8748509703
 30
0.0
 11
843.5111999263
 21
248.6748509703
 31
0.0
  0
LINE
  5
17A
330
1F
100
AcDbEntity
  8
0
  6
Continuous
 62
     7
370
    25
100
AcDbLine
 10
846.5111999263
 20
247.8748509703
 30
0.0
 11
843.5111999263
 21
247.8748509703
 31
0.0
  0
LINE
  5
17B
330
1F
100
AcDbEntity
  8
0
  6
Continuous
 62
     7
370
    25
100
AcDbLine
 10
843.5111999263
 20
248.6748509703
 30
0.0
 11
846.5111999263
 21
248.6748509703
 31
0.0
  0
LINE
  5
17C
330
1F
100
AcDbEntity
  8
0
  6
Continuous
 62
     7
370
    25
100
AcDbLine
 10
846.5111999263
 20
247.8748509703
 30
0.0
 11
867.5111999263
 21
247.8748509703
 31
0.0
  0
LINE
  5
17D
330
1F
100
AcDbEntity
  8
0
  6
Continuous
 62
     7
370
    25
100
AcDbLine
 10
846.5111999263
 20
248.6748509703
 30
0.0
 11
867.5111999263
 21
248.6748509703
 31
0.0
  0
LINE
  5
17E
330
1F
100
AcDbEntity
  8
0
  6
Continuous
 62
     7
370
    25
100
AcDbLine
 10
844.6065865345
 20
252.0748509703
 30
0.0
 11
844.6065865345
 21
252.8748509703
 31
0.0
  0
LINE
  5
17F
330
1F
100
AcDbEntity
  8
0
  6
Continuous
 62
     7
370
    25
100
AcDbLine
 10
847.6065865345
 20
252.0748509703
 30
0.0
 11
844.6065865345
 21
252.0748509703
 31
0.0
  0
LINE
  5
180
330
1F
100
AcDbEntity
  8
0
  6
Continuous
 62
     7
370
    25
100
AcDbLine
 10
844.6065865345
 20
252.8748509703
 30
0.0
 11
847.6065865345
 21
252.8748509703
 31
0.0
  0
LINE
  5
181
330
1F
100
AcDbEntity
  8
0
  6
Continuous
 62
     7
370
    25
100
AcDbLine
 10
847.6065865345
 20
252.0748509703
 30
0.0
 11
854.1242779881
 21
252.0748509703
 31
0.0
  0
LINE
  5
182
330
1F
100
AcDbEntity
  8
0
  6
Continuous
 62
     7
370
    25
100
AcDbLine
 10
847.6065865345
 20
252.8748509703
 30
0.0
 11
854.1242779881
 21
252.8748509703
 31
0.0
  0
LINE
  5
183
330
1F
100
AcDbEntity
  8
0
  6
Continuous
 62
     7
370
    25
100
AcDbLine
 10
861.6491491187
 20
248.8088255666
 30
0.0
 11
855.0242779881
 21
252.6336966972
 31
0.0
  0
LINE
  5
184
330
1F
100
AcDbEntity
  8
0
  6
Continuous
 62
     7
370
    25
100
AcDbLine
 10
860.2811999263
 20
248.6748509703
 30
0.0
 11
854.6242779881
 21
251.9408763741
 31
0.0
  0
ARC
  5
185
330
1F
100
AcDbEntity
  8
0
  6
Continuous
 62
     7
370
    25
100
AcDbCircle
 10
854.1242779881
 20
251.0748509703
 30
0.0
 40
1.800000000000018
100
AcDbArc
 50
60.0
 51
90.0
  0
ARC
  5
186
330
1F
100
AcDbEntity
  8
0
  6
Continuous
 62
     7
370
    25
100
AcDbCircle
 10
854.1242779881
 20
251.0748509703
 30
0.0
 40
1.0
100
AcDbArc
 50
60.0
 51
90.0
  0
ARC
  5
187
330
1F
100
AcDbEntity
  8
0
  6
Continuous
 62
     7
370
    25
100
AcDbCircle
 10
862.1491491187
 20
249.6748509703
 30
0.0
 40
0.9999999999999836
100
AcDbArc
 50
240.0
 51
270.0
  0
SPLINE
  5
188
330
1F
100
AcDbEntity
  8
0
  6
Continuous
 62
     7
370
    25
100
AcDbSpline
210
0.0
220
0.0
230
1.0
 70
     8
 71
     3
 72
    12
 73
     8
 74
     0
 42
0.000000001
 43
0.00000001
 40
0.0
 40
0.0
 40
0.0
 40
0.0
 40
0.5000000000000189
 40
0.5000000000000189
 40
0.7500000000000094
 40
0.7500000000000094
 40
1.0
 40
1.0
 40
1.0
 40
1.0
 10
887.0965199409147
 20
251.3844197729154
 30
0.0
 10
887.2870142303383
 20
251.6196795653585
 30
0.0
 10
887.4086886434008
 20
251.858464258209
 30
0.0
 10
887.4093448339319
 20
252.2259557907661
 30
0.0
 10
887.3795108321375
 20
252.3483279854154
 30
0.0
 10
887.27058096203
 20
252.5887116705749
 30
0.0
 10
887.191885774967
 20
252.7074726176365
 30
0.0
 10
887.0965199409143
 20
252.825249094786
 30
0.0
  0
SPLINE
  5
189
330
1F
100
AcDbEntity
  8
0
  6
Continuous
 62
     7
370
    25
100
AcDbSpline
210
0.0
220
0.0
230
1.0
 70
     8
 71
     3
 72
    14
 73
    10
 74
     0
 42
0.000000001
 43
0.00000001
 40
0.0
 40
0.0
 40
0.0
 40
0.0
 40
0.25
 40
0.25
 40
0.5
 40
0.5
 40
0.75
 40
0.75
 40
1.0
 40
1.0
 40
1.0
 40
1.0
 10
887.0965199409137
 20
256.8156802922128
 30
0.0
 10
887.1913945502245
 20
256.4911740629242
 30
0.0
 10
887.2709994751001
 20
256.1587148405299
 30
0.0
 10
887.3798360899943
 20
255.4921449256217
 30
0.0
 10
887.4091596956849
 20
255.1570686683464
 30
0.0
 10
887.4090949139393
 20
254.4827251981187
 30
0.0
 10
887.378938720613
 20
254.1409457774398
 30
0.0
 10
887.2693535192471
 20
253.4745318578351
 30
0.0
 10
887.1908105454451
 20
253.1477578118824
 30
0.0
 10
887.0965199409137
 20
252.825249094786
 30
0.0
  0
SPLINE
  5
18A
330
1F
100
AcDbEntity
  8
0
  6
Continuous
 62
     7
370
    25
100
AcDbSpline
210
0.0
220
0.0
230
1.0
 70
     8
 71
     3
 72
    12
 73
     8
 74
     0
 42
0.000000001
 43
0.00000001
 40
0.0
 40
0.0
 40
0.0
 40
0.0
 40
0.4999999999999992
 40
0.4999999999999992
 40
0.7499999999999996
 40
0.7499999999999996
 40
1.0
 40
1.0
 40
1.0
 40
1.0
 10
887.0965199409147
 20
256.8156802922128
 30
0.0
 10
887.2870142303383
 20
257.2319813758673
 30
0.0
 10
887.4086886434006
 20
257.6545199038557
 30
0.0
 10
887.4093448339319
 20
258.3048100433166
 30
0.0
 10
887.3795108321375
 20
258.521352261231
 30
0.0
 10
887.27058096203
 20
258.9467202664713
 30
0.0
 10
887.191885774967
 20
259.1568722454566
 30
0.0
 10
887.0965199409143
 20
259.3652821677694
 30
0.0
  0
LINE
  5
18B
330
1F
100
AcDbEntity
  8
0
  6
Continuous
 62
     7
370
    25
100
AcDbLine
 10
887.0965199409
 20
259.3652821678
 30
0.0
 11
887.1943949782
 21
259.1223774175
 31
0.0
  0
LINE
  5
18C
330
1F
100
AcDbEntity
  8
0
  6
Continuous
 62
     7
370
    25
100
AcDbLine
 10
887.6111999263
 20
254.8759033212
 30
0.0
 11
887.6111999263
 21
252.2248509703
 31
0.0
  0
LINE
  5
18D
330
1F
100
AcDbEntity
  8
0
  6
Continuous
 62
     7
370
    25
100
AcDbLine
 10
887.6111999263
 20
258.5248509703
 30
0.0
 11
887.6111999263
 21
254.8759033212
 31
0.0
  0
LINE
  5
18E
330
1F
100
AcDbEntity
  8
0
  6
Continuous
 62
     7
370
    25
100
AcDbLine
 10
886.5111999263
 20
256.8156802922
 30
0.0
 11
887.0965199409
 21
256.8156802922
 31
0.0
  0
LINE
  5
18F
330
1F
100
AcDbEntity
  8
0
  6
Continuous
 62
     7
370
    25
100
AcDbLine
 10
886.5111999263
 20
252.8252490948
 30
0.0
 11
887.0965199409
 21
252.8252490948
 31
0.0
  0
LINE
  5
190
330
1F
100
AcDbEntity
  8
0
  6
Continuous
 62
     7
370
    25
100
AcDbLine
 10
886.5111999263
 20
259.3652821678
 30
0.0
 11
887.0965199409
 21
259.3652821678
 31
0.0
  0
LINE
  5
191
330
1F
100
AcDbEntity
  8
0
  6
Continuous
 62
     7
370
    25
100
AcDbLine
 10
886.5111999263
 20
251.3844197729
 30
0.0
 11
887.0965199409
 21
251.3844197729
 31
0.0
  0
LINE
  5
192
330
1F
100
AcDbEntity
  8
0
  6
Continuous
 62
     7
370
    25
100
AcDbLine
 10
890.3111999263
 20
245.3748509703
 30
0.0
 11
890.3111999263
 21
246.1748509703
 31
0.0
  0
LINE
  5
193
330
1F
100
AcDbEntity
  8
0
  6
Continuous
 62
     7
370
    25
100
AcDbLine
 10
894.6111999263
 20
246.1748509703
 30
0.0
 11
890.3111999263
 21
246.1748509703
 31
0.0
  0
LINE
  5
194
330
1F
100
AcDbEntity
  8
0
  6
Continuous
 62
     7
370
    25
100
AcDbLine
 10
894.6111999263
 20
245.3748509703
 30
0.0
 11
890.3111999263
 21
245.3748509703
 31
0.0
  0
LINE
  5
195
330
1F
100
AcDbEntity
  8
0
  6
Continuous
 62
     7
370
    25
100
AcDbLine
 10
895.0611999263
 20
263.6748509703
 30
0.0
 11
900.2111999263
 21
263.6748509703
 31
0.0
  0
LINE
  5
196
330
1F
100
AcDbEntity
  8
0
  6
Continuous
 62
     7
370
    25
100
AcDbLine
 10
895.0611999263
 20
264.4748509703
 30
0.0
 11
895.0611999263
 21
263.6748509703
 31
0.0
  0
LINE
  5
197
330
1F
100
AcDbEntity
  8
0
  6
Continuous
 62
     7
370
    25
100
AcDbLine
 10
895.0611999263
 20
264.4748509703
 30
0.0
 11
900.2111999263
 21
264.4748509703
 31
0.0
  0
LINE
  5
198
330
1F
100
AcDbEntity
  8
0
  6
Continuous
 62
     7
370
    25
100
AcDbLine
 10
900.2111999263
 20
264.4748509703
 30
0.0
 11
900.2111999263
 21
264.5748509703
 31
0.0
  0
LINE
  5
199
330
1F
100
AcDbEntity
  8
0
  6
Continuous
 62
     7
370
    25
100
AcDbLine
 10
890.3111999263
 20
264.5748509703
 30
0.0
 11
900.2111999263
 21
264.5748509703
 31
0.0
  0
LINE
  5
19A
330
1F
100
AcDbEntity
  8
0
  6
Continuous
 62
     7
370
    25
100
AcDbLine
 10
890.3111999263
 20
264.5748509703
 30
0.0
 11
890.3111999263
 21
265.3748509703
 31
0.0
  0
LINE
  5
19B
330
1F
100
AcDbEntity
  8
0
  6
Continuous
 62
     7
370
    25
100
AcDbLine
 10
900.2111999263
 20
265.3748509703
 30
0.0
 11
890.3111999263
 21
265.3748509703
 31
0.0
  0
ARC
  5
19C
330
1F
100
AcDbEntity
  8
0
  6
Continuous
 62
     7
370
    25
100
AcDbCircle
 10
900.2111999263
 20
264.5248509703
 30
0.0
 40
0.8500000000000227
100
AcDbArc
 50
270.0
 51
90.0
  0
ARC
  5
19D
330
1F
100
AcDbEntity
  8
0
  6
Continuous
 62
     7
370
    25
100
AcDbCircle
 10
890.3111999263
 20
263.5748509703
 30
0.0
 40
1.799999999999955
100
AcDbArc
 50
90.0
 51
180.0
  0
LINE
  5
19E
330
1F
100
AcDbEntity
  8
0
  6
Continuous
 62
     7
370
    25
100
AcDbLine
 10
889.3111999263
 20
263.5748509703
 30
0.0
 11
889.3111999263
 21
247.1748509703
 31
0.0
  0
LINE
  5
19F
330
1F
100
AcDbEntity
  8
0
  6
Continuous
 62
     7
370
    25
100
AcDbLine
 10
888.5111999263
 20
247.1748509703
 30
0.0
 11
888.5111999263
 21
263.5748509703
 31
0.0
  0
ARC
  5
1A0
330
1F
100
AcDbEntity
  8
0
  6
Continuous
 62
     7
370
    25
100
AcDbCircle
 10
890.3111999263
 20
263.5748509703
 30
0.0
 40
1.000000000000114
100
AcDbArc
 50
90.0
 51
180.0
  0
ARC
  5
1A1
330
1F
100
AcDbEntity
  8
0
  6
Continuous
 62
     7
370
    25
100
AcDbCircle
 10
890.3111999263
 20
247.1748509703
 30
0.0
 40
1.800000000000182
100
AcDbArc
 50
180.0
 51
270.0
  0
ARC
  5
1A2
330
1F
100
AcDbEntity
  8
0
  6
Continuous
 62
     7
370
    25
100
AcDbCircle
 10
890.3111999263
 20
247.1748509703
 30
0.0
 40
1.000000000000057
100
AcDbArc
 50
180.0
 51
270.0
  0
CIRCLE
  5
1A3
330
1F
100
AcDbEntity
  8
0
  6
Continuous
 62
     7
370
    25
100
AcDbCircle
 10
876.0111999263
 20
255.3748509703
 30
0.0
 40
2.458750000016702
  0
CIRCLE
  5
1A4
330
1F
100
AcDbEntity
  8
0
  6
Continuous
 62
     7
370
    25
100
AcDbCircle
 10
876.0111999263
 20
255.3748509703
 30
0.0
 40
3.000000000000015
  0
LINE
  5
1A5
330
1F
100
AcDbEntity
  8
0
  6
Continuous
 62
     7
370
    25
100
AcDbLine
 10
891.3111999263
 20
259.3243535864
 30
0.0
 11
891.3111999263
 21
259.3748509703
 31
0.0
  0
LINE
  5
1A6
330
1F
100
AcDbEntity
  8
0
  6
Continuous
 62
     7
370
    25
100
AcDbLine
 10
891.3111999263
 20
251.3748509703
 30
0.0
 11
891.3111999263
 21
259.3243535864
 31
0.0
  0
ARC
  5
1A7
330
1F
100
AcDbEntity
  8
0
  6
Continuous
 62
     7
370
    25
100
AcDbCircle
 10
884.5742200286
 20
255.2789129505
 30
0.0
 40
7.786288415096958
100
AcDbArc
 50
4.3702527064
 51
15.2299003794
  0
ARC
  5
1A8
330
1F
100
AcDbEntity
  8
0
  6
Continuous
 62
     7
370
    25
100
AcDbCircle
 10
891.8134764921
 20
256.1853665528
 30
0.0
 40
0.6107675350086738
100
AcDbArc
 50
296.6101963367
 51
329.1575418587
  0
ARC
  5
1A9
330
1F
100
AcDbEntity
  8
0
  6
Continuous
 62
     7
370
    25
100
AcDbCircle
 10
883.0074143507
 20
255.0468694577
 30
0.0
 40
9.098942710247902
100
AcDbArc
 50
356.2668736478
 51
3.7331263522
  0
ARC
  5
1AA
330
1F
100
AcDbEntity
  8
0
  6
Continuous
 62
     7
370
    25
100
AcDbCircle
 10
891.8134764921
 20
255.000515768
 30
0.0
 40
0.6107675350086992
100
AcDbArc
 50
296.6101963367
 51
329.1575418587
  0
ARC
  5
1AB
330
1F
100
AcDbEntity
  8
0
  6
Continuous
 62
     7
370
    25
100
AcDbCircle
 10
884.5742200286
 20
255.2807136953
 30
0.0
 40
7.78628841509684
100
AcDbArc
 50
344.7700996206
 51
355.6297472936
  0
ARC
  5
1AC
330
1F
100
AcDbEntity
  8
0
  6
Continuous
 62
     7
370
    25
100
AcDbCircle
 10
891.9539661477
 20
253.3092485935
 30
0.0
 40
0.1522432420606561
100
AcDbArc
 50
330.9451665855
 51
359.1449116562
  0
LWPOLYLINE
  5
1AD
330
1F
100
AcDbEntity
  8
0
  6
Continuous
 62
     7
370
    25
100
AcDbPolyline
 90
        3
 70
   128
 43
0.0
 10
892.3378694166
 20
254.8774632254
 10
892.3216445679
 20
254.6937648966
 10
892.3210024248
 20
254.6873879305
  0
ARC
  5
1AE
330
1F
100
AcDbEntity
  8
0
  6
Continuous
 62
     7
370
    25
100
AcDbCircle
 10
891.8134764921
 20
254.5643353879
 30
0.0
 40
0.610767535008302
100
AcDbArc
 50
30.8424581413
 51
63.3898036633
  0
ARC
  5
1AF
330
1F
100
AcDbEntity
  8
0
  6
Continuous
 62
     7
370
    25
100
AcDbCircle
 10
882.9305425708
 20
255.7058483392
 30
0.0
 40
9.175815043594197
100
AcDbArc
 50
357.9327321269
 51
359.6562101043
  0
ARC
  5
1B0
330
1F
100
AcDbEntity
  8
0
  6
Continuous
 62
     7
370
    25
100
AcDbCircle
 10
884.5742200286
 20
255.4689882454
 30
0.0
 40
7.786288415099706
100
AcDbArc
 50
4.3702527064
 51
15.2299003794
  0
ARC
  5
1B1
330
1F
100
AcDbEntity
  8
0
  6
Continuous
 62
     7
370
    25
100
AcDbCircle
 10
891.8659283613
 20
257.4193520867
 30
0.0
 40
0.2406805056725146
100
AcDbArc
 50
336.7420981705
 51
23.2579018295
  0
LINE
  5
1B2
330
1F
100
AcDbEntity
  8
0
  6
Continuous
 62
     7
370
    25
100
AcDbLine
 10
892.3378694166
 20
254.6873879305
 30
0.0
 11
892.0993137587
 21
254.6873879305
 31
0.0
  0
LINE
  5
1B3
330
1F
100
AcDbEntity
  8
0
  6
Continuous
 62
     7
370
    25
100
AcDbLine
 10
892.3378694166
 20
256.0623140102
 30
0.0
 11
892.3210024248
 21
256.0623140102
 31
0.0
  0
LINE
  5
1B4
330
1F
100
AcDbEntity
  8
0
  6
Continuous
 62
     7
370
    25
100
AcDbLine
 10
892.3378694166
 20
254.8774632254
 30
0.0
 11
892.1048191002
 21
254.8774632254
 31
0.0
  0
LINE
  5
1B5
330
1F
100
AcDbEntity
  8
0
  6
Continuous
 62
     7
370
    25
100
AcDbLine
 10
882.1111999263
 20
214.6886963293
 30
0.0
 11
870.1111999263
 21
214.6886963293
 31
0.0
  0
LINE
  5
1B6
330
1F
100
AcDbEntity
  8
0
  6
Continuous
 62
     7
370
    25
100
AcDbLine
 10
882.1111999263
 20
214.0046560426
 30
0.0
 11
870.1111999263
 21
214.0046560426
 31
0.0
  0
ARC
  5
1B7
330
1F
100
AcDbEntity
  8
0
  6
Continuous
 62
     7
370
    25
100
AcDbCircle
 10
870.0527110371
 20
216.6303241467
 30
0.0
 40
1.942508566655476
100
AcDbArc
 50
181.8362067977
 51
271.7254354149
  0
LINE
  5
1B8
330
1F
100
AcDbEntity
  8
0
  6
Continuous
 62
     7
370
    25
100
AcDbLine
 10
868.1111999263
 20
216.5680815709
 30
0.0
 11
868.1111999263
 21
221.7091578077
 31
0.0
  0
LINE
  5
1B9
330
1F
100
AcDbEntity
  8
0
  6
Continuous
 62
     7
370
    25
100
AcDbLine
 10
884.1111999263
 20
221.7091578077
 30
0.0
 11
884.1111999263
 21
216.5680815709
 31
0.0
  0
ARC
  5
1BA
330
1F
100
AcDbEntity
  8
0
  6
Continuous
 62
     7
370
    25
100
AcDbCircle
 10
882.1696888155
 20
216.6303241467
 30
0.0
 40
1.942508566655241
100
AcDbArc
 50
268.2745645851
 51
358.1637932023
  0
LINE
  5
1BB
330
1F
100
AcDbEntity
  8
0
  6
Continuous
 62
     7
370
    25
100
AcDbLine
 10
868.1111999263
 20
215.8840412842
 30
0.0
 11
868.1111999263
 21
216.5680815709
 31
0.0
  0
ARC
  5
1BC
330
1F
100
AcDbEntity
  8
0
  6
Continuous
 62
     7
370
    25
100
AcDbCircle
 10
870.0527110371
 20
215.9462838601
 30
0.0
 40
1.942508566655382
100
AcDbArc
 50
181.8362067977
 51
271.7254354149
  0
LINE
  5
1BD
330
1F
100
AcDbEntity
  8
0
  6
Continuous
 62
     7
370
    25
100
AcDbLine
 10
884.1111999263
 20
216.5680815709
 30
0.0
 11
884.1111999263
 21
215.8840412842
 31
0.0
  0
ARC
  5
1BE
330
1F
100
AcDbEntity
  8
0
  6
Continuous
 62
     7
370
    25
100
AcDbCircle
 10
882.1696888155
 20
215.9462838601
 30
0.0
 40
1.942508566655241
100
AcDbArc
 50
268.2745645851
 51
358.1637932023
  0
LINE
  5
1BF
330
1F
100
AcDbEntity
  8
0
  6
Continuous
 62
     7
370
    25
100
AcDbLine
 10
884.1111999263
 20
221.7091578077
 30
0.0
 11
884.1111999263
 21
222.051177951
 31
0.0
  0
LINE
  5
1C0
330
1F
100
AcDbEntity
  8
0
  6
Continuous
 62
     7
370
    25
100
AcDbLine
 10
868.1111999263
 20
222.051177951
 30
0.0
 11
868.1111999263
 21
221.7091578077
 31
0.0
  0
LINE
  5
1C1
330
1F
100
AcDbEntity
  8
0
  6
Continuous
 62
     7
370
    25
100
AcDbLine
 10
884.1111999263
 20
221.8748509703
 30
0.0
 11
894.6111999263
 21
221.8748509703
 31
0.0
  0
LINE
  5
1C2
330
1F
100
AcDbEntity
  8
0
  6
Continuous
 62
     7
370
    25
100
AcDbLine
 10
868.1111999263
 20
234.8748509703
 30
0.0
 11
868.1111999263
 21
222.051177951
 31
0.0
  0
LINE
  5
1C3
330
1F
100
AcDbEntity
  8
0
  6
Continuous
 62
     7
370
    25
100
AcDbLine
 10
894.6111999263
 20
236.8748509703
 30
0.0
 11
870.1111999263
 21
236.8748509703
 31
0.0
  0
CIRCLE
  5
1C4
330
1F
100
AcDbEntity
  8
0
  6
Continuous
 62
     7
370
    25
100
AcDbCircle
 10
876.0111999263
 20
229.3748509703
 30
0.0
 40
3.499999999999886
  0
ARC
  5
1C5
330
1F
100
AcDbEntity
  8
0
  6
Continuous
 62
     7
370
    25
100
AcDbCircle
 10
870.1111999263
 20
234.8748509703
 30
0.0
 40
2.0
100
AcDbArc
 50
90.0
 51
180.0
  0
CIRCLE
  5
1C6
330
1F
100
AcDbEntity
  8
0
  6
Continuous
 62
     7
370
    25
100
AcDbCircle
 10
876.0111999263
 20
280.3748509703
 30
0.0
 40
2.458750000016702
  0
CIRCLE
  5
1C7
330
1F
100
AcDbEntity
  8
0
  6
Continuous
 62
     7
370
    25
100
AcDbCircle
 10
876.0111999263
 20
280.3748509703
 30
0.0
 40
3.000000000000015
  0
CIRCLE
  5
1C8
330
1F
100
AcDbEntity
  8
0
  6
Continuous
 62
     7
370
    25
100
AcDbCircle
 10
876.0111999263
 20
229.3748509703
 30
0.0
 40
2.458750000016497
  0
CIRCLE
  5
1C9
330
1F
100
AcDbEntity
  8
0
  6
Continuous
 62
     7
370
    25
100
AcDbCircle
 10
876.0111999263
 20
229.3748509703
 30
0.0
 40
3.000000000000002
  0
LINE
  5
1CA
330
1F
100
AcDbEntity
  8
0
  6
Continuous
 62
     7
370
    25
100
AcDbLine
 10
76.5972384796
 20
398.3200529832
 30
0.0
 11
77.0972384796
 21
398.8200529832
 31
0.0
  0
LINE
  5
1CB
330
1F
100
AcDbEntity
  8
0
  6
Continuous
 62
     7
370
    25
100
AcDbLine
 10
77.0972384796
 20
398.8200529832
 30
0.0
 11
77.0972384796
 21
402.8200529832
 31
0.0
  0
LINE
  5
1CC
330
1F
100
AcDbEntity
  8
0
  6
Continuous
 62
     7
370
    25
100
AcDbLine
 10
71.3676937953
 20
398.8200529832
 30
0.0
 11
71.8676937953
 21
398.3200529832
 31
0.0
  0
LINE
  5
1CD
330
1F
100
AcDbEntity
  8
0
  6
Continuous
 62
     7
370
    25
100
AcDbLine
 10
71.3676937953
 20
402.8200529832
 30
0.0
 11
71.3676937953
 21
398.8200529832
 31
0.0
  0
LINE
  5
1CE
330
1F
100
AcDbEntity
  8
0
  6
Continuous
 62
     7
370
    25
100
AcDbLine
 10
754.3909008194
 20
398.8200529832
 30
0.0
 11
754.8909008194
 21
398.3200529832
 31
0.0
  0
LINE
  5
1CF
330
1F
100
AcDbEntity
  8
0
  6
Continuous
 62
     7
370
    25
100
AcDbLine
 10
754.3909008194
 20
402.8200529832
 30
0.0
 11
754.3909008194
 21
398.8200529832
 31
0.0
  0
LINE
  5
1D0
330
1F
100
AcDbEntity
  8
0
  6
Continuous
 62
     7
370
    25
100
AcDbLine
 10
759.6229310435
 20
398.3200529832
 30
0.0
 11
760.1229310435
 21
398.8200529832
 31
0.0
  0
LINE
  5
1D1
330
1F
100
AcDbEntity
  8
0
  6
Continuous
 62
     7
370
    25
100
AcDbLine
 10
760.1229310435
 20
398.8200529832
 30
0.0
 11
760.1229310435
 21
402.8200529832
 31
0.0
  0
LINE
  5
1D2
330
1F
100
AcDbEntity
  8
0
  6
Continuous
 62
     7
370
    25
100
AcDbLine
 10
777.4181035338
 20
387.7200529832
 30
0.0
 11
777.2181035338
 21
387.7200529832
 31
0.0
  0
LINE
  5
1D3
330
1F
100
AcDbEntity
  8
0
  6
Continuous
 62
     7
370
    25
100
AcDbLine
 10
777.2181035338
 20
381.7200529832
 30
0.0
 11
777.4181035338
 21
381.7200529832
 31
0.0
  0
LINE
  5
1D4
330
1F
100
AcDbEntity
  8
0
  6
Continuous
 62
     7
370
    25
100
AcDbLine
 10
777.4181035338
 20
381.7200529832
 30
0.0
 11
777.9593535338
 21
382.2613029832
 31
0.0
  0
LINE
  5
1D5
330
1F
100
AcDbEntity
  8
0
  6
Continuous
 62
     7
370
    25
100
AcDbLine
 10
777.9593535338
 20
387.1788029833
 30
0.0
 11
777.4181035338
 21
387.7200529832
 31
0.0
  0
LINE
  5
1D6
330
1F
100
AcDbEntity
  8
0
  6
Continuous
 62
     7
370
    25
100
AcDbLine
 10
54.1006035338
 20
387.7200529832
 30
0.0
 11
53.5593535338
 21
387.1788029833
 31
0.0
  0
LINE
  5
1D7
330
1F
100
AcDbEntity
  8
0
  6
Continuous
 62
     7
370
    25
100
AcDbLine
 10
53.5593535338
 20
382.2613029832
 30
0.0
 11
54.1006035338
 21
381.7200529832
 31
0.0
  0
LINE
  5
1D8
330
1F
100
AcDbEntity
  8
0
  6
Continuous
 62
     7
370
    25
100
AcDbLine
 10
54.1006035338
 20
381.7200529832
 30
0.0
 11
54.3006035338
 21
381.7200529832
 31
0.0
  0
LINE
  5
1D9
330
1F
100
AcDbEntity
  8
0
  6
Continuous
 62
     7
370
    25
100
AcDbLine
 10
54.3006035338
 20
387.7200529832
 30
0.0
 11
54.1006035338
 21
387.7200529832
 31
0.0
  0
ARC
  5
1DA
330
1F
100
AcDbEntity
  8
0
  6
Continuous
 62
     7
370
    25
100
AcDbCircle
 10
767.2593535338
 20
378.9200529831
 30
0.0
 40
0.5000000000001137
100
AcDbArc
 50
180.0
 51
0.0
  0
ARC
  5
1DB
330
1F
100
AcDbEntity
  8
0
  6
Continuous
 62
     7
370
    25
100
AcDbCircle
 10
767.2593535338
 20
390.5200529833
 30
0.0
 40
0.5
100
AcDbArc
 50
0.0
 51
180.0
  0
LINE
  5
1DC
330
1F
100
AcDbEntity
  8
0
  6
Continuous
 62
     7
370
    25
100
AcDbLine
 10
762.986934971
 20
390.1142355953
 30
0.0
 11
762.7593535338
 21
389.7200529832
 31
0.0
  0
LINE
  5
1DD
330
1F
100
AcDbEntity
  8
0
  6
Continuous
 62
     7
370
    25
100
AcDbLine
 10
777.2181035338
 20
381.7200529832
 30
0.0
 11
777.7593535338
 21
382.2613029832
 31
0.0
  0
LINE
  5
1DE
330
1F
100
AcDbEntity
  8
0
  6
Continuous
 62
     7
370
    25
100
AcDbLine
 10
777.7593535338
 20
387.1788029833
 30
0.0
 11
777.2181035338
 21
387.7200529832
 31
0.0
  0
LINE
  5
1DF
330
1F
100
AcDbEntity
  8
0
  6
Continuous
 62
     7
370
    25
100
AcDbLine
 10
777.2181035338
 20
387.7200529832
 30
0.0
 11
772.374899922
 21
387.7200529832
 31
0.0
  0
LINE
  5
1E0
330
1F
100
AcDbEntity
  8
0
  6
Continuous
 62
     7
370
    25
100
AcDbLine
 10
772.374899922
 20
381.7200529832
 30
0.0
 11
777.2181035338
 21
381.7200529832
 31
0.0
  0
LINE
  5
1E1
330
1F
100
AcDbEntity
  8
0
  6
Continuous
 62
     7
370
    25
100
AcDbLine
 10
762.7593535338
 20
379.7200529832
 30
0.0
 11
762.986934971
 21
379.3258703712
 31
0.0
  0
LINE
  5
1E2
330
1F
100
AcDbEntity
  8
0
  6
Continuous
 62
     7
370
    25
100
AcDbLine
 10
61.2593535338
 20
407.9200529832
 30
0.0
 11
64.1987412251
 21
407.9200529832
 31
0.0
  0
LINE
  5
1E3
330
1F
100
AcDbEntity
  8
0
  6
Continuous
 62
     7
370
    25
100
AcDbLine
 10
767.3199658425
 20
407.9200529832
 30
0.0
 11
770.2593535338
 21
407.9200529832
 31
0.0
  0
LINE
  5
1E4
330
1F
100
AcDbEntity
  8
0
  6
Continuous
 62
     7
370
    25
100
AcDbLine
 10
770.2593535338
 20
407.9200529832
 30
0.0
 11
776.2593535338
 21
407.9200529832
 31
0.0
  0
LINE
  5
1E5
330
1F
100
AcDbEntity
  8
0
  6
Continuous
 62
     7
370
    25
100
AcDbLine
 10
55.2593535338
 20
407.9200529832
 30
0.0
 11
61.2593535338
 21
407.9200529832
 31
0.0
  0
ARC
  5
1E6
330
1F
100
AcDbEntity
  8
0
  6
Continuous
 62
     7
370
    25
100
AcDbCircle
 10
64.2593535338
 20
390.5200529833
 30
0.0
 40
0.5000000000000142
100
AcDbArc
 50
0.0
 51
180.0
  0
ARC
  5
1E7
330
1F
100
AcDbEntity
  8
0
  6
Continuous
 62
     7
370
    25
100
AcDbCircle
 10
64.2593535338
 20
378.9200529831
 30
0.0
 40
0.5000000000000142
100
AcDbArc
 50
180.0
 51
0.0
  0
LINE
  5
1E8
330
1F
100
AcDbEntity
  8
0
  6
Continuous
 62
     7
370
    25
100
AcDbLine
 10
54.3006035338
 20
381.7200529832
 30
0.0
 11
59.1438071456
 21
381.7200529832
 31
0.0
  0
LINE
  5
1E9
330
1F
100
AcDbEntity
  8
0
  6
Continuous
 62
     7
370
    25
100
AcDbLine
 10
59.1438071456
 20
387.7200529832
 30
0.0
 11
54.3006035338
 21
387.7200529832
 31
0.0
  0
LINE
  5
1EA
330
1F
100
AcDbEntity
  8
0
  6
Continuous
 62
     7
370
    25
100
AcDbLine
 10
54.3006035338
 20
387.7200529832
 30
0.0
 11
53.7593535338
 21
387.1788029833
 31
0.0
  0
LINE
  5
1EB
330
1F
100
AcDbEntity
  8
0
  6
Continuous
 62
     7
370
    25
100
AcDbLine
 10
53.7593535338
 20
382.2613029832
 30
0.0
 11
54.3006035338
 21
381.7200529832
 31
0.0
  0
LINE
  5
1EC
330
1F
100
AcDbEntity
  8
0
  6
Continuous
 62
     7
370
    25
100
AcDbLine
 10
68.7593535338
 20
389.7200529832
 30
0.0
 11
68.429870438
 21
390.2907344453
 31
0.0
  0
LINE
  5
1ED
330
1F
100
AcDbEntity
  8
0
  6
Continuous
 62
     7
370
    25
100
AcDbLine
 10
68.429870438
 20
379.1493715212
 30
0.0
 11
68.7593535338
 21
379.7200529832
 31
0.0
  0
ARC
  5
1EE
330
1F
100
AcDbEntity
  8
0
  6
Continuous
 62
     7
370
    25
100
AcDbCircle
 10
61.2593535338
 20
407.3200529832
 30
0.0
 40
3.000000000000007
100
AcDbArc
 50
0.0
 51
90.0
  0
LINE
  5
1EF
330
1F
100
AcDbEntity
  8
0
  6
Continuous
 62
     7
370
    25
100
AcDbLine
 10
49.2593535338
 20
410.3200529832
 30
0.0
 11
61.2593535338
 21
410.3200529832
 31
0.0
  0
ARC
  5
1F0
330
1F
100
AcDbEntity
  8
0
  6
Continuous
 62
     7
370
    25
100
AcDbCircle
 10
49.2593535338
 20
407.3200529832
 30
0.0
 40
3.000000000000007
100
AcDbArc
 50
90.0
 51
180.0
  0
LINE
  5
1F1
330
1F
100
AcDbEntity
  8
0
  6
Continuous
 62
     7
370
    25
100
AcDbLine
 10
46.2593535338
 20
406.3200529832
 30
0.0
 11
46.2593535338
 21
407.3200529832
 31
0.0
  0
ARC
  5
1F2
330
1F
100
AcDbEntity
  8
0
  6
Continuous
 62
     7
370
    25
100
AcDbCircle
 10
43.2593535338
 20
406.3200529832
 30
0.0
 40
3.0
100
AcDbArc
 50
270.0
 51
0.0
  0
LINE
  5
1F3
330
1F
100
AcDbEntity
  8
0
  6
Continuous
 62
     7
370
    25
100
AcDbLine
 10
811.7886428557
 20
412.9200529832
 30
0.0
 11
811.7886428557
 21
403.3200529832
 31
0.0
  0
LINE
  5
1F4
330
1F
100
AcDbEntity
  8
0
  6
Continuous
 62
     7
370
    25
100
AcDbLine
 10
788.2593535338
 20
403.3200529832
 30
0.0
 11
811.7886428557
 21
403.3200529832
 31
0.0
  0
ARC
  5
1F5
330
1F
100
AcDbEntity
  8
0
  6
Continuous
 62
     7
370
    25
100
AcDbCircle
 10
788.2593535338
 20
406.3200529832
 30
0.0
 40
3.0
100
AcDbArc
 50
180.0
 51
270.0
  0
LINE
  5
1F6
330
1F
100
AcDbEntity
  8
0
  6
Continuous
 62
     7
370
    25
100
AcDbLine
 10
785.2593535338
 20
406.3200529832
 30
0.0
 11
785.2593535338
 21
407.3200529832
 31
0.0
  0
ARC
  5
1F7
330
1F
100
AcDbEntity
  8
0
  6
Continuous
 62
     7
370
    25
100
AcDbCircle
 10
782.2593535338
 20
407.3200529832
 30
0.0
 40
3.0
100
AcDbArc
 50
0.0
 51
90.0
  0
LINE
  5
1F8
330
1F
100
AcDbEntity
  8
0
  6
Continuous
 62
     7
370
    25
100
AcDbLine
 10
782.2593535338
 20
410.3200529832
 30
0.0
 11
770.2593535338
 21
410.3200529832
 31
0.0
  0
ARC
  5
1F9
330
1F
100
AcDbEntity
  8
0
  6
Continuous
 62
     7
370
    25
100
AcDbCircle
 10
770.2593535338
 20
407.3200529832
 30
0.0
 40
3.0
100
AcDbArc
 50
90.0
 51
180.0
  0
LINE
  5
1FA
330
1F
100
AcDbEntity
  8
0
  6
Continuous
 62
     7
370
    25
100
AcDbLine
 10
767.2593535338
 20
406.3200529832
 30
0.0
 11
767.2593535338
 21
407.3200529832
 31
0.0
  0
ARC
  5
1FB
330
1F
100
AcDbEntity
  8
0
  6
Continuous
 62
     7
370
    25
100
AcDbCircle
 10
764.2593535338
 20
406.3200529832
 30
0.0
 40
3.000000000000114
100
AcDbArc
 50
270.0
 51
0.0
  0
LINE
  5
1FC
330
1F
100
AcDbEntity
  8
0
  6
Continuous
 62
     7
370
    25
100
AcDbLine
 10
67.2593535338
 20
403.3200529832
 30
0.0
 11
764.2593535338
 21
403.3200529832
 31
0.0
  0
ARC
  5
1FD
330
1F
100
AcDbEntity
  8
0
  6
Continuous
 62
     7
370
    25
100
AcDbCircle
 10
67.2593535338
 20
406.3200529832
 30
0.0
 40
3.0
100
AcDbArc
 50
180.0
 51
270.0
  0
LINE
  5
1FE
330
1F
100
AcDbEntity
  8
0
  6
Continuous
 62
     7
370
    25
100
AcDbLine
 10
64.2593535338
 20
406.3200529832
 30
0.0
 11
64.2593535338
 21
407.3200529832
 31
0.0
  0
LINE
  5
1FF
330
1F
100
AcDbEntity
  8
0
  6
Continuous
 62
     7
370
    25
100
AcDbLine
 10
19.7300642119
 20
412.9200529832
 30
0.0
 11
19.7300642119
 21
403.3200529832
 31
0.0
  0
LINE
  5
200
330
1F
100
AcDbEntity
  8
0
  6
Continuous
 62
     7
370
    25
100
AcDbLine
 10
19.7300642119
 20
403.3200529832
 30
0.0
 11
43.2593535338
 21
403.3200529832
 31
0.0
  0
SPLINE
  5
201
330
1F
100
AcDbEntity
  8
0
  6
Continuous
 62
     7
370
    25
100
AcDbSpline
210
0.0
220
0.0
230
1.0
 70
     8
 71
     3
 72
    20
 73
    16
 74
     0
 42
0.000000001
 43
0.00000001
 40
0.0
 40
0.0
 40
0.0
 40
0.0
 40
0.1249999999999961
 40
0.1249999999999961
 40
0.2499999999999922
 40
0.2499999999999922
 40
0.3749999999999883
 40
0.3749999999999883
 40
0.4999999999999845
 40
0.4999999999999845
 40
0.749999999999987
 40
0.749999999999987
 40
0.8749999999999934
 40
0.8749999999999934
 40
1.0
 40
1.0
 40
1.0
 40
1.0
 10
810.8593535337914
 20
415.3200529832407
 30
0.0
 10
810.8983942646458
 20
415.3200529832407
 30
0.0
 10
810.9369129688457
 20
415.3045164227659
 30
0.0
 10
811.0143197201536
 20
415.2431980708053
 30
0.0
 10
811.0534641381402
 20
415.1967743252185
 30
0.0
 10
811.1306148920554
 20
415.0768234550644
 30
0.0
 10
811.1689424737965
 20
415.003218810781
 30
0.0
 10
811.246488794273
 20
414.8284884446853
 30
0.0
 10
811.2854650019419
 20
414.7276378157837
 30
0.0
 10
811.4009598583868
 20
414.3963525357998
 30
0.0
 10
811.4788723020567
 20
414.128672374416
 30
0.0
 10
811.5943522274578
 20
413.6959983483605
 30
0.0
 10
811.6332180233228
 20
413.5444802615094
 30
0.0
 10
811.7109923569911
 20
413.2350545041234
 30
0.0
 10
811.749602123946
 20
413.0784321744296
 30
0.0
 10
811.7886428556726
 20
412.9200529832409
 30
0.0
  0
LINE
  5
202
330
1F
100
AcDbEntity
  8
0
  6
Continuous
 62
     7
370
    25
100
AcDbLine
 10
20.6593535338
 20
415.3200529832
 30
0.0
 11
810.8593535338
 21
415.3200529832
 31
0.0
  0
SPLINE
  5
203
330
1F
100
AcDbEntity
  8
0
  6
Continuous
 62
     7
370
    25
100
AcDbSpline
210
0.0
220
0.0
230
1.0
 70
     8
 71
     3
 72
    20
 73
    16
 74
     0
 42
0.000000001
 43
0.00000001
 40
0.0
 40
0.0
 40
0.0
 40
0.0
 40
0.1250000000000031
 40
0.1250000000000031
 40
0.2500000000000061
 40
0.2500000000000061
 40
0.3750000000000092
 40
0.3750000000000092
 40
0.5000000000000122
 40
0.5000000000000122
 40
0.7500000000000061
 40
0.7500000000000061
 40
0.875000000000003
 40
0.875000000000003
 40
1.0
 40
1.0
 40
1.0
 40
1.0
 10
19.73006421191004
 20
412.9200529832407
 30
0.0
 10
19.76910494276457
 20
413.0784321708915
 30
0.0
 10
19.80762364696437
 20
413.2346778955831
 30
0.0
 10
19.88503039827227
 20
413.5426697449997
 30
0.0
 10
19.92417481625919
 20
413.6953138524708
 30
0.0
 10
20.00132557017415
 20
413.9843981416579
 30
0.0
 10
20.03965315191497
 20
414.122202679842
 30
0.0
 10
20.11719947239165
 20
414.3838213554808
 30
0.0
 10
20.15617568006034
 20
414.5065676621634
 30
0.0
 10
20.2716705365053
 20
414.8378920391112
 30
0.0
 10
20.34958298017547
 20
415.0169031631394
 30
0.0
 10
20.46506290557626
 20
415.1965182625203
 30
0.0
 10
20.5039287014413
 20
415.2427626113881
 30
0.0
 10
20.58170303510992
 20
415.3045159173993
 30
0.0
 10
20.62031280206461
 20
415.3200529832407
 30
0.0
 10
20.65935353379128
 20
415.3200529832407
 30
0.0
  0
SPLINE
  5
204
330
1F
100
AcDbEntity
  8
0
  6
Continuous
 62
     7
370
    25
100
AcDbSpline
210
0.0
220
0.0
230
1.0
 70
     8
 71
     3
 72
     9
 73
     5
 74
     0
 42
0.000000001
 43
0.00000001
 40
0.0
 40
0.0
 40
0.0
 40
0.0
 40
0.4825784287294796
 40
1.0
 40
1.0
 40
1.0
 40
1.0
 10
19.88318330184519
 20
413.5325927224192
 30
0.0
 10
19.81937510878368
 20
413.4444583811027
 30
0.0
 10
19.68715164154428
 20
413.2618262200496
 30
0.0
 10
19.66883233708783
 20
413.036593336005
 30
0.0
 10
19.65935353379134
 20
412.9200529832408
 30
0.0
  0
LINE
  5
205
330
1F
100
AcDbEntity
  8
0
  6
Continuous
 62
     7
370
    25
100
AcDbLine
 10
18.2593535338
 20
412.9200529832
 30
0.0
 11
19.6593535338
 21
412.9200529832
 31
0.0
  0
SPLINE
  5
206
330
1F
100
AcDbEntity
  8
0
  6
Continuous
 62
     7
370
    25
100
AcDbSpline
210
0.0
220
0.0
230
1.0
 70
     8
 71
     3
 72
    20
 73
    16
 74
     0
 42
0.000000001
 43
0.00000001
 40
0.0
 40
0.0
 40
0.0
 40
0.0
 40
0.1250000000000094
 40
0.1250000000000094
 40
0.2500000000000187
 40
0.2500000000000187
 40
0.3750000000000281
 40
0.3750000000000281
 40
0.5000000000000374
 40
0.5000000000000374
 40
0.7500000000000263
 40
0.7500000000000263
 40
0.8750000000000132
 40
0.8750000000000132
 40
1.0
 40
1.0
 40
1.0
 40
1.0
 10
20.65935353379134
 20
415.3200529832408
 30
0.0
 10
20.50097434614046
 20
415.3200529832408
 30
0.0
 10
20.34472862144887
 20
415.304516422766
 30
0.0
 10
20.03673677203233
 20
415.2431980708054
 30
0.0
 10
19.88409266456126
 20
415.1967743252185
 30
0.0
 10
19.59500837537404
 20
415.0768234550644
 30
0.0
 10
19.45720383718996
 20
415.0032188107809
 30
0.0
 10
19.19558516155112
 20
414.8284884446853
 30
0.0
 10
19.07283885486849
 20
414.7276378157837
 30
0.0
 10
18.74151447792094
 20
414.3963525357998
 30
0.0
 10
18.56250335389259
 20
414.128672374416
 30
0.0
 10
18.38288825451156
 20
413.6959983483605
 30
0.0
 10
18.33664390564405
 20
413.5444802615094
 30
0.0
 10
18.27489059963294
 20
413.2350545041234
 30
0.0
 10
18.25935353379138
 20
413.0784321744296
 30
0.0
 10
18.25935353379132
 20
412.9200529832408
 30
0.0
  0
SPLINE
  5
207
330
1F
100
AcDbEntity
  8
0
  6
Continuous
 62
     7
370
    25
100
AcDbSpline
210
0.0
220
0.0
230
1.0
 70
     8
 71
     3
 72
    20
 73
    16
 74
     0
 42
0.000000001
 43
0.00000001
 40
0.0
 40
0.0
 40
0.0
 40
0.0
 40
0.1250000000000001
 40
0.1250000000000001
 40
0.2500000000000003
 40
0.2500000000000003
 40
0.3750000000000005
 40
0.3750000000000005
 40
0.5000000000000008
 40
0.5000000000000008
 40
0.7500000000000008
 40
0.7500000000000008
 40
0.8750000000000004
 40
0.8750000000000004
 40
1.0
 40
1.0
 40
1.0
 40
1.0
 10
813.2593535337913
 20
412.9200529832408
 30
0.0
 10
813.2593535337916
 20
413.0784321708915
 30
0.0
 10
813.2438169733165
 20
413.2346778955832
 30
0.0
 10
813.182498621356
 20
413.5426697449998
 30
0.0
 10
813.1360748757692
 20
413.6953138524709
 30
0.0
 10
813.0161240056151
 20
413.984398141658
 30
0.0
 10
812.9425193613315
 20
414.1222026798421
 30
0.0
 10
812.7677889952358
 20
414.383821355481
 30
0.0
 10
812.6669383663345
 20
414.5065676621637
 30
0.0
 10
812.3356530863505
 20
414.8378920391114
 30
0.0
 10
812.0679729249665
 20
415.0169031631395
 30
0.0
 10
811.6352988989113
 20
415.1965182625204
 30
0.0
 10
811.4837808120601
 20
415.2427626113882
 30
0.0
 10
811.1743550546739
 20
415.3045159173994
 30
0.0
 10
811.0177327249802
 20
415.3200529832408
 30
0.0
 10
810.8593535337914
 20
415.3200529832408
 30
0.0
  0
LINE
  5
208
330
1F
100
AcDbEntity
  8
0
  6
Continuous
 62
     7
370
    25
100
AcDbLine
 10
813.2593535338
 20
412.9200529832
 30
0.0
 11
811.8593535338
 21
412.9200529832
 31
0.0
  0
SPLINE
  5
209
330
1F
100
AcDbEntity
  8
0
  6
Continuous
 62
     7
370
    25
100
AcDbSpline
210
0.0
220
0.0
230
1.0
 70
     8
 71
     3
 72
     9
 73
     5
 74
     0
 42
0.000000001
 43
0.00000001
 40
0.0
 40
0.0
 40
0.0
 40
0.0
 40
0.6784508005727276
 40
1.0
 40
1.0
 40
1.0
 40
1.0
 10
811.8593535337914
 20
412.9200529832408
 30
0.0
 10
811.8461039633269
 20
413.0707601876941
 30
0.0
 10
811.8265748088868
 20
413.2928945035886
 30
0.0
 10
811.6857271552478
 20
413.4597276084778
 30
0.0
 10
811.6404377049789
 20
413.5133726597929
 30
0.0
  0
LINE
  5
20A
330
1F
100
AcDbEntity
  8
0
  6
Continuous
 62
     7
370
    25
100
AcDbLine
 10
19.6593535338
 20
412.9200529832
 30
0.0
 11
19.6593535338
 21
403.3200529832
 31
0.0
  0
LINE
  5
20B
330
1F
100
AcDbEntity
  8
0
  6
Continuous
 62
     7
370
    25
100
AcDbLine
 10
18.2593535338
 20
403.3200529832
 30
0.0
 11
19.6593535338
 21
403.3200529832
 31
0.0
  0
LINE
  5
20C
330
1F
100
AcDbEntity
  8
0
  6
Continuous
 62
     7
370
    25
100
AcDbLine
 10
18.2593535338
 20
412.9200529832
 30
0.0
 11
18.2593535338
 21
403.3200529832
 31
0.0
  0
LINE
  5
20D
330
1F
100
AcDbEntity
  8
0
  6
Continuous
 62
     7
370
    25
100
AcDbLine
 10
811.8593535338
 20
412.9200529832
 30
0.0
 11
811.8593535338
 21
403.3200529832
 31
0.0
  0
LINE
  5
20E
330
1F
100
AcDbEntity
  8
0
  6
Continuous
 62
     7
370
    25
100
AcDbLine
 10
813.2593535338
 20
412.9200529832
 30
0.0
 11
813.2593535338
 21
403.3200529832
 31
0.0
  0
LINE
  5
20F
330
1F
100
AcDbEntity
  8
0
  6
Continuous
 62
     7
370
    25
100
AcDbLine
 10
813.2593535338
 20
403.3200529832
 30
0.0
 11
811.8593535338
 21
403.3200529832
 31
0.0
  0
LINE
  5
210
330
1F
100
AcDbEntity
  8
0
  6
Continuous
 62
     7
370
    25
100
AcDbLine
 10
76.5972384796
 20
398.3200529832
 30
0.0
 11
75.0165762907
 21
398.3200529832
 31
0.0
  0
LINE
  5
211
330
1F
100
AcDbEntity
  8
0
  6
Continuous
 62
     7
370
    25
100
AcDbLine
 10
74.9896888944
 20
398.8200529832
 30
0.0
 11
77.0972384796
 21
398.8200529832
 31
0.0
  0
LINE
  5
212
330
1F
100
AcDbEntity
  8
0
  6
Continuous
 62
     7
370
    25
100
AcDbLine
 10
75.0165762907
 20
398.3200529832
 30
0.0
 11
73.2870316064
 21
398.3200529832
 31
0.0
  0
LINE
  5
213
330
1F
100
AcDbEntity
  8
0
  6
Continuous
 62
     7
370
    25
100
AcDbLine
 10
73.2601442101
 20
398.8200529832
 30
0.0
 11
74.9896888944
 21
398.8200529832
 31
0.0
  0
LINE
  5
214
330
1F
100
AcDbEntity
  8
0
  6
Continuous
 62
     7
370
    25
100
AcDbLine
 10
73.2870316064
 20
398.3200529832
 30
0.0
 11
71.8676937953
 21
398.3200529832
 31
0.0
  0
LINE
  5
215
330
1F
100
AcDbEntity
  8
0
  6
Continuous
 62
     7
370
    25
100
AcDbLine
 10
71.3676937953
 20
398.8200529832
 30
0.0
 11
73.2601442101
 21
398.8200529832
 31
0.0
  0
LINE
  5
216
330
1F
100
AcDbEntity
  8
0
  6
Continuous
 62
     7
370
    25
100
AcDbLine
 10
758.5669078101
 20
398.3200529832
 30
0.0
 11
755.968862474
 21
398.3200529832
 31
0.0
  0
LINE
  5
217
330
1F
100
AcDbEntity
  8
0
  6
Continuous
 62
     7
370
    25
100
AcDbLine
 10
755.5370737191
 20
398.8200529832
 30
0.0
 11
759.0011341673
 21
398.8200529832
 31
0.0
  0
LINE
  5
218
330
1F
100
AcDbEntity
  8
0
  6
Continuous
 62
     7
370
    25
100
AcDbLine
 10
754.6637458
 20
398.8200529832
 30
0.0
 11
755.5370737191
 21
398.8200529832
 31
0.0
  0
LINE
  5
219
330
1F
100
AcDbEntity
  8
0
  6
Continuous
 62
     7
370
    25
100
AcDbLine
 10
755.968862474
 20
398.3200529832
 30
0.0
 11
755.0955345549
 21
398.3200529832
 31
0.0
  0
LINE
  5
21A
330
1F
100
AcDbEntity
  8
0
  6
Continuous
 62
     7
370
    25
100
AcDbLine
 10
759.0011341673
 20
398.8200529832
 30
0.0
 11
759.8598364723
 21
398.8200529832
 31
0.0
  0
LINE
  5
21B
330
1F
100
AcDbEntity
  8
0
  6
Continuous
 62
     7
370
    25
100
AcDbLine
 10
759.4256101151
 20
398.3200529832
 30
0.0
 11
758.5669078101
 21
398.3200529832
 31
0.0
  0
LINE
  5
21C
330
1F
100
AcDbEntity
  8
0
  6
Continuous
 62
     7
370
    25
100
AcDbLine
 10
754.3909008194
 20
398.8200529832
 30
0.0
 11
754.6637458
 21
398.8200529832
 31
0.0
  0
LINE
  5
21D
330
1F
100
AcDbEntity
  8
0
  6
Continuous
 62
     7
370
    25
100
AcDbLine
 10
755.0955345549
 20
398.3200529832
 30
0.0
 11
754.8909008194
 21
398.3200529832
 31
0.0
  0
LINE
  5
21E
330
1F
100
AcDbEntity
  8
0
  6
Continuous
 62
     7
370
    25
100
AcDbLine
 10
759.8598364723
 20
398.8200529832
 30
0.0
 11
760.1229310435
 21
398.8200529832
 31
0.0
  0
LINE
  5
21F
330
1F
100
AcDbEntity
  8
0
  6
Continuous
 62
     7
370
    25
100
AcDbLine
 10
759.6229310435
 20
398.3200529832
 30
0.0
 11
759.4256101151
 21
398.3200529832
 31
0.0
  0
LINE
  5
220
330
1F
100
AcDbEntity
  8
0
  6
Continuous
 62
     7
370
    25
100
AcDbLine
 10
765.7593535338
 20
395.2200529832
 30
0.0
 11
766.9593535338
 21
395.2200529832
 31
0.0
  0
LINE
  5
221
330
1F
100
AcDbEntity
  8
0
  6
Continuous
 62
     7
370
    25
100
AcDbLine
 10
766.9593535338
 20
376.2200529832
 30
0.0
 11
763.7593535338
 21
376.2200529832
 31
0.0
  0
LINE
  5
222
330
1F
100
AcDbEntity
  8
0
  6
Continuous
 62
     7
370
    25
100
AcDbLine
 10
763.7593535338
 20
376.2200529832
 30
0.0
 11
763.7593535338
 21
355.2200529832
 31
0.0
  0
ARC
  5
223
330
1F
100
AcDbEntity
  8
0
  6
Continuous
 62
     7
370
    25
100
AcDbCircle
 10
760.7593535338
 20
355.2200529832
 30
0.0
 40
3.000000000000114
100
AcDbArc
 50
270.0
 51
0.0
  0
LINE
  5
224
330
1F
100
AcDbEntity
  8
0
  6
Continuous
 62
     7
370
    25
100
AcDbLine
 10
760.7593535338
 20
352.2200529832
 30
0.0
 11
716.7593535338
 21
352.2200529832
 31
0.0
  0
ARC
  5
225
330
1F
100
AcDbEntity
  8
0
  6
Continuous
 62
     7
370
    25
100
AcDbCircle
 10
716.7593535338
 20
355.2200529832
 30
0.0
 40
3.0
100
AcDbArc
 50
180.0
 51
270.0
  0
LINE
  5
226
330
1F
100
AcDbEntity
  8
0
  6
Continuous
 62
     7
370
    25
100
AcDbLine
 10
713.7593535338
 20
355.2200529832
 30
0.0
 11
713.7593535338
 21
371.3500529832
 31
0.0
  0
LINE
  5
227
330
1F
100
AcDbEntity
  8
0
  6
Continuous
 62
     7
370
    25
100
AcDbLine
 10
713.7593535338
 20
371.3500529832
 30
0.0
 11
711.2593535338
 21
371.3500529832
 31
0.0
  0
LINE
  5
228
330
1F
100
AcDbEntity
  8
0
  6
Continuous
 62
     7
370
    25
100
AcDbLine
 10
711.2593535338
 20
370.8580021757
 30
0.0
 11
711.2593535338
 21
371.3500529832
 31
0.0
  0
LINE
  5
229
330
1F
100
AcDbEntity
  8
0
  6
Continuous
 62
     7
370
    25
100
AcDbLine
 10
561.2593535338
 20
370.8580021757
 30
0.0
 11
561.2593535338
 21
371.3500529832
 31
0.0
  0
LINE
  5
22A
330
1F
100
AcDbEntity
  8
0
  6
Continuous
 62
     7
370
    25
100
AcDbLine
 10
561.2593535338
 20
371.3500529832
 30
0.0
 11
558.7593535338
 21
371.3500529832
 31
0.0
  0
LINE
  5
22B
330
1F
100
AcDbEntity
  8
0
  6
Continuous
 62
     7
370
    25
100
AcDbLine
 10
558.7593535338
 20
371.3500529832
 30
0.0
 11
558.7593535338
 21
355.2200529832
 31
0.0
  0
ARC
  5
22C
330
1F
100
AcDbEntity
  8
0
  6
Continuous
 62
     7
370
    25
100
AcDbCircle
 10
555.7593535338
 20
355.2200529832
 30
0.0
 40
3.0
100
AcDbArc
 50
270.0
 51
360.0
  0
LINE
  5
22D
330
1F
100
AcDbEntity
  8
0
  6
Continuous
 62
     7
370
    25
100
AcDbLine
 10
555.7593535338
 20
352.2200529832
 30
0.0
 11
496.2593535338
 21
352.2200529832
 31
0.0
  0
ARC
  5
22E
330
1F
100
AcDbEntity
  8
0
  6
Continuous
 62
     7
370
    25
100
AcDbCircle
 10
496.2593535338
 20
355.2200529832
 30
0.0
 40
3.0
100
AcDbArc
 50
180.0
 51
270.0
  0
LINE
  5
22F
330
1F
100
AcDbEntity
  8
0
  6
Continuous
 62
     7
370
    25
100
AcDbLine
 10
493.2593535338
 20
355.2200529832
 30
0.0
 11
493.2593535338
 21
371.3500529832
 31
0.0
  0
LINE
  5
230
330
1F
100
AcDbEntity
  8
0
  6
Continuous
 62
     7
370
    25
100
AcDbLine
 10
493.2593535338
 20
371.3500529832
 30
0.0
 11
490.7593535338
 21
371.3500529832
 31
0.0
  0
LINE
  5
231
330
1F
100
AcDbEntity
  8
0
  6
Continuous
 62
     7
370
    25
100
AcDbLine
 10
490.7593535338
 20
370.8580021757
 30
0.0
 11
490.7593535338
 21
371.3500529832
 31
0.0
  0
LINE
  5
232
330
1F
100
AcDbEntity
  8
0
  6
Continuous
 62
     7
370
    25
100
AcDbLine
 10
340.7593535338
 20
370.8580021757
 30
0.0
 11
340.7593535338
 21
371.3500529832
 31
0.0
  0
LINE
  5
233
330
1F
100
AcDbEntity
  8
0
  6
Continuous
 62
     7
370
    25
100
AcDbLine
 10
340.7593535338
 20
371.3500529832
 30
0.0
 11
338.2593535338
 21
371.3500529832
 31
0.0
  0
LINE
  5
234
330
1F
100
AcDbEntity
  8
0
  6
Continuous
 62
     7
370
    25
100
AcDbLine
 10
338.2593535338
 20
371.3500529832
 30
0.0
 11
338.2593535338
 21
355.2200529832
 31
0.0
  0
ARC
  5
235
330
1F
100
AcDbEntity
  8
0
  6
Continuous
 62
     7
370
    25
100
AcDbCircle
 10
335.2593535338
 20
355.2200529832
 30
0.0
 40
3.0
100
AcDbArc
 50
270.0
 51
0.0
  0
LINE
  5
236
330
1F
100
AcDbEntity
  8
0
  6
Continuous
 62
     7
370
    25
100
AcDbLine
 10
335.2593535338
 20
352.2200529832
 30
0.0
 11
275.7593535338
 21
352.2200529832
 31
0.0
  0
ARC
  5
237
330
1F
100
AcDbEntity
  8
0
  6
Continuous
 62
     7
370
    25
100
AcDbCircle
 10
275.7593535338
 20
355.2200529832
 30
0.0
 40
3.0
100
AcDbArc
 50
180.0
 51
270.0
  0
LINE
  5
238
330
1F
100
AcDbEntity
  8
0
  6
Continuous
 62
     7
370
    25
100
AcDbLine
 10
272.7593535338
 20
355.2200529832
 30
0.0
 11
272.7593535338
 21
371.3500529832
 31
0.0
  0
LINE
  5
239
330
1F
100
AcDbEntity
  8
0
  6
Continuous
 62
     7
370
    25
100
AcDbLine
 10
272.7593535338
 20
371.3500529832
 30
0.0
 11
270.2593535338
 21
371.3500529832
 31
0.0
  0
LINE
  5
23A
330
1F
100
AcDbEntity
  8
0
  6
Continuous
 62
     7
370
    25
100
AcDbLine
 10
270.2593535338
 20
370.8580021757
 30
0.0
 11
270.2593535338
 21
371.3500529832
 31
0.0
  0
LINE
  5
23B
330
1F
100
AcDbEntity
  8
0
  6
Continuous
 62
     7
370
    25
100
AcDbLine
 10
120.2593535338
 20
370.8580021757
 30
0.0
 11
120.2593535338
 21
371.3500529832
 31
0.0
  0
LINE
  5
23C
330
1F
100
AcDbEntity
  8
0
  6
Continuous
 62
     7
370
    25
100
AcDbLine
 10
120.2593535338
 20
371.3500529832
 30
0.0
 11
117.7593535338
 21
371.3500529832
 31
0.0
  0
LINE
  5
23D
330
1F
100
AcDbEntity
  8
0
  6
Continuous
 62
     7
370
    25
100
AcDbLine
 10
117.7593535338
 20
371.3500529832
 30
0.0
 11
117.7593535338
 21
355.2200529832
 31
0.0
  0
ARC
  5
23E
330
1F
100
AcDbEntity
  8
0
  6
Continuous
 62
     7
370
    25
100
AcDbCircle
 10
114.7593535338
 20
355.2200529832
 30
0.0
 40
3.0
100
AcDbArc
 50
270.0
 51
360.0
  0
LINE
  5
23F
330
1F
100
AcDbEntity
  8
0
  6
Continuous
 62
     7
370
    25
100
AcDbLine
 10
114.7593535338
 20
352.2200529832
 30
0.0
 11
70.7593535338
 21
352.2200529832
 31
0.0
  0
ARC
  5
240
330
1F
100
AcDbEntity
  8
0
  6
Continuous
 62
     7
370
    25
100
AcDbCircle
 10
70.7593535338
 20
355.2200529832
 30
0.0
 40
3.0
100
AcDbArc
 50
180.0
 51
270.0
  0
LINE
  5
241
330
1F
100
AcDbEntity
  8
0
  6
Continuous
 62
     7
370
    25
100
AcDbLine
 10
67.7593535338
 20
355.2200529832
 30
0.0
 11
67.7593535338
 21
376.2200529832
 31
0.0
  0
LINE
  5
242
330
1F
100
AcDbEntity
  8
0
  6
Continuous
 62
     7
370
    25
100
AcDbLine
 10
67.7593535338
 20
376.2200529832
 30
0.0
 11
64.5593535338
 21
376.2200529832
 31
0.0
  0
LINE
  5
243
330
1F
100
AcDbEntity
  8
0
  6
Continuous
 62
     7
370
    25
100
AcDbLine
 10
64.5593535338
 20
395.2200529832
 30
0.0
 11
65.7593535338
 21
395.2200529832
 31
0.0
  0
LINE
  5
244
330
1F
100
AcDbEntity
  8
0
  6
Continuous
 62
     7
370
    25
100
AcDbLine
 10
65.7593535338
 20
395.2200529832
 30
0.0
 11
65.7593535338
 21
395.4200529832
 31
0.0
  0
LINE
  5
245
330
1F
100
AcDbEntity
  8
0
  6
Continuous
 62
     7
370
    25
100
AcDbLine
 10
765.7593535338
 20
395.4200529832
 30
0.0
 11
765.7593535338
 21
395.2200529832
 31
0.0
  0
LINE
  5
246
330
1F
100
AcDbEntity
  8
0
  6
Continuous
 62
     7
370
    25
100
AcDbLine
 10
340.7593535338
 20
369.9580021757
 30
0.0
 11
340.7593535338
 21
370.8580021757
 31
0.0
  0
LINE
  5
247
330
1F
100
AcDbEntity
  8
0
  6
Continuous
 62
     7
370
    25
100
AcDbLine
 10
490.7593535338
 20
370.8580021757
 30
0.0
 11
490.7593535338
 21
369.9580021757
 31
0.0
  0
LINE
  5
248
330
1F
100
AcDbEntity
  8
0
  6
Continuous
 62
     7
370
    25
100
AcDbLine
 10
120.2593535338
 20
369.9580021757
 30
0.0
 11
120.2593535338
 21
370.8580021757
 31
0.0
  0
LINE
  5
249
330
1F
100
AcDbEntity
  8
0
  6
Continuous
 62
     7
370
    25
100
AcDbLine
 10
270.2593535338
 20
370.8580021757
 30
0.0
 11
270.2593535338
 21
369.9580021757
 31
0.0
  0
LINE
  5
24A
330
1F
100
AcDbEntity
  8
0
  6
Continuous
 62
     7
370
    25
100
AcDbLine
 10
561.2593535338
 20
369.9580021757
 30
0.0
 11
561.2593535338
 21
370.8580021757
 31
0.0
  0
LINE
  5
24B
330
1F
100
AcDbEntity
  8
0
  6
Continuous
 62
     7
370
    25
100
AcDbLine
 10
711.2593535338
 20
370.8580021757
 30
0.0
 11
711.2593535338
 21
369.9580021757
 31
0.0
  0
LINE
  5
24C
330
1F
100
AcDbEntity
  8
0
  6
Continuous
 62
     7
370
    25
100
AcDbLine
 10
64.5593535338
 20
376.2200529832
 30
0.0
 11
62.7593535338
 21
376.2200529832
 31
0.0
  0
LINE
  5
24D
330
1F
100
AcDbEntity
  8
0
  6
Continuous
 62
     7
370
    25
100
AcDbLine
 10
62.7593535338
 20
376.2200529832
 30
0.0
 11
62.7593535338
 21
376.8200529832
 31
0.0
  0
LINE
  5
24E
330
1F
100
AcDbEntity
  8
0
  6
Continuous
 62
     7
370
    25
100
AcDbLine
 10
63.7593535338
 20
395.2200529832
 30
0.0
 11
64.5593535338
 21
395.2200529832
 31
0.0
  0
LINE
  5
24F
330
1F
100
AcDbEntity
  8
0
  6
Continuous
 62
     7
370
    25
100
AcDbLine
 10
766.9593535338
 20
395.2200529832
 30
0.0
 11
767.7593535338
 21
395.2200529832
 31
0.0
  0
LINE
  5
250
330
1F
100
AcDbEntity
  8
0
  6
Continuous
 62
     7
370
    25
100
AcDbLine
 10
768.7593535338
 20
376.2200529832
 30
0.0
 11
768.7593535338
 21
376.8200529832
 31
0.0
  0
LINE
  5
251
330
1F
100
AcDbEntity
  8
0
  6
Continuous
 62
     7
370
    25
100
AcDbLine
 10
768.7593535338
 20
376.2200529832
 30
0.0
 11
766.9593535338
 21
376.2200529832
 31
0.0
  0
LINE
  5
252
330
1F
100
AcDbEntity
  8
0
  6
Continuous
 62
     7
370
    25
100
AcDbLine
 10
765.7593535338
 20
397.2200529832
 30
0.0
 11
765.7593535338
 21
395.4200529832
 31
0.0
  0
LINE
  5
253
330
1F
100
AcDbEntity
  8
0
  6
Continuous
 62
     7
370
    25
100
AcDbLine
 10
65.7593535338
 20
395.4200529832
 30
0.0
 11
65.7593535338
 21
397.2200529832
 31
0.0
  0
LINE
  5
254
330
1F
100
AcDbEntity
  8
0
  6
Continuous
 62
     7
370
    25
100
AcDbLine
 10
120.2593535338
 20
369.9580021757
 30
0.0
 11
120.2593535338
 21
363.3331310451
 31
0.0
  0
LINE
  5
255
330
1F
100
AcDbEntity
  8
0
  6
Continuous
 62
     7
370
    25
100
AcDbLine
 10
270.2593535338
 20
363.3331310451
 30
0.0
 11
270.2593535338
 21
369.9580021757
 31
0.0
  0
LINE
  5
256
330
1F
100
AcDbEntity
  8
0
  6
Continuous
 62
     7
370
    25
100
AcDbLine
 10
340.7593535338
 20
369.9580021757
 30
0.0
 11
340.7593535338
 21
363.3331310451
 31
0.0
  0
LINE
  5
257
330
1F
100
AcDbEntity
  8
0
  6
Continuous
 62
     7
370
    25
100
AcDbLine
 10
490.7593535338
 20
363.3331310451
 30
0.0
 11
490.7593535338
 21
369.9580021757
 31
0.0
  0
LINE
  5
258
330
1F
100
AcDbEntity
  8
0
  6
Continuous
 62
     7
370
    25
100
AcDbLine
 10
561.2593535338
 20
369.9580021757
 30
0.0
 11
561.2593535338
 21
363.3331310451
 31
0.0
  0
LINE
  5
259
330
1F
100
AcDbEntity
  8
0
  6
Continuous
 62
     7
370
    25
100
AcDbLine
 10
711.2593535338
 20
363.3331310451
 30
0.0
 11
711.2593535338
 21
369.9580021757
 31
0.0
  0
LINE
  5
25A
330
1F
100
AcDbEntity
  8
0
  6
Continuous
 62
     7
370
    25
100
AcDbLine
 10
270.2593535338
 20
362.8331310451
 30
0.0
 11
270.2593535338
 21
363.3331310451
 31
0.0
  0
LINE
  5
25B
330
1F
100
AcDbEntity
  8
0
  6
Continuous
 62
     7
370
    25
100
AcDbLine
 10
120.2593535338
 20
363.3331310451
 30
0.0
 11
120.2593535338
 21
362.8331310451
 31
0.0
  0
LINE
  5
25C
330
1F
100
AcDbEntity
  8
0
  6
Continuous
 62
     7
370
    25
100
AcDbLine
 10
561.2593535338
 20
363.3331310451
 30
0.0
 11
561.2593535338
 21
362.8331310451
 31
0.0
  0
LINE
  5
25D
330
1F
100
AcDbEntity
  8
0
  6
Continuous
 62
     7
370
    25
100
AcDbLine
 10
711.2593535338
 20
362.8331310451
 30
0.0
 11
711.2593535338
 21
363.3331310451
 31
0.0
  0
LINE
  5
25E
330
1F
100
AcDbEntity
  8
0
  6
Continuous
 62
     7
370
    25
100
AcDbLine
 10
490.7593535338
 20
362.8331310451
 30
0.0
 11
490.7593535338
 21
363.3331310451
 31
0.0
  0
LINE
  5
25F
330
1F
100
AcDbEntity
  8
0
  6
Continuous
 62
     7
370
    25
100
AcDbLine
 10
340.7593535338
 20
363.3331310451
 30
0.0
 11
340.7593535338
 21
362.8331310451
 31
0.0
  0
ARC
  5
260
330
1F
100
AcDbEntity
  8
0
  6
Continuous
 62
     7
370
    25
100
AcDbCircle
 10
123.2593535338
 20
356.3154395915
 30
0.0
 40
3.0
100
AcDbArc
 50
180.0
 51
270.0
  0
LINE
  5
261
330
1F
100
AcDbEntity
  8
0
  6
Continuous
 62
     7
370
    25
100
AcDbLine
 10
120.2593535338
 20
356.3154395915
 30
0.0
 11
120.2593535338
 21
362.8331310451
 31
0.0
  0
LINE
  5
262
330
1F
100
AcDbEntity
  8
0
  6
Continuous
 62
     7
370
    25
100
AcDbLine
 10
270.2593535338
 20
362.8331310451
 30
0.0
 11
270.2593535338
 21
356.3154395915
 31
0.0
  0
ARC
  5
263
330
1F
100
AcDbEntity
  8
0
  6
Continuous
 62
     7
370
    25
100
AcDbCircle
 10
267.2593535338
 20
356.3154395915
 30
0.0
 40
3.000000000000057
100
AcDbArc
 50
270.0
 51
0.0
  0
LINE
  5
264
330
1F
100
AcDbEntity
  8
0
  6
Continuous
 62
     7
370
    25
100
AcDbLine
 10
267.2593535338
 20
353.3154395915
 30
0.0
 11
123.2593535338
 21
353.3154395915
 31
0.0
  0
ARC
  5
265
330
1F
100
AcDbEntity
  8
0
  6
Continuous
 62
     7
370
    25
100
AcDbCircle
 10
343.7593535338
 20
356.3154395915
 30
0.0
 40
3.0
100
AcDbArc
 50
180.0
 51
270.0
  0
LINE
  5
266
330
1F
100
AcDbEntity
  8
0
  6
Continuous
 62
     7
370
    25
100
AcDbLine
 10
340.7593535338
 20
356.3154395915
 30
0.0
 11
340.7593535338
 21
362.8331310451
 31
0.0
  0
LINE
  5
267
330
1F
100
AcDbEntity
  8
0
  6
Continuous
 62
     7
370
    25
100
AcDbLine
 10
490.7593535338
 20
362.8331310451
 30
0.0
 11
490.7593535338
 21
356.3154395915
 31
0.0
  0
ARC
  5
268
330
1F
100
AcDbEntity
  8
0
  6
Continuous
 62
     7
370
    25
100
AcDbCircle
 10
487.7593535338
 20
356.3154395915
 30
0.0
 40
3.000000000000057
100
AcDbArc
 50
270.0
 51
0.0
  0
LINE
  5
269
330
1F
100
AcDbEntity
  8
0
  6
Continuous
 62
     7
370
    25
100
AcDbLine
 10
487.7593535338
 20
353.3154395915
 30
0.0
 11
343.7593535338
 21
353.3154395915
 31
0.0
  0
ARC
  5
26A
330
1F
100
AcDbEntity
  8
0
  6
Continuous
 62
     7
370
    25
100
AcDbCircle
 10
564.2593535338
 20
356.3154395915
 30
0.0
 40
3.0
100
AcDbArc
 50
180.0
 51
270.0
  0
LINE
  5
26B
330
1F
100
AcDbEntity
  8
0
  6
Continuous
 62
     7
370
    25
100
AcDbLine
 10
561.2593535338
 20
356.3154395915
 30
0.0
 11
561.2593535338
 21
362.8331310451
 31
0.0
  0
LINE
  5
26C
330
1F
100
AcDbEntity
  8
0
  6
Continuous
 62
     7
370
    25
100
AcDbLine
 10
711.2593535338
 20
362.8331310451
 30
0.0
 11
711.2593535338
 21
356.3154395915
 31
0.0
  0
ARC
  5
26D
330
1F
100
AcDbEntity
  8
0
  6
Continuous
 62
     7
370
    25
100
AcDbCircle
 10
708.2593535338
 20
356.3154395915
 30
0.0
 40
3.000000000000114
100
AcDbArc
 50
270.0
 51
0.0
  0
LINE
  5
26E
330
1F
100
AcDbEntity
  8
0
  6
Continuous
 62
     7
370
    25
100
AcDbLine
 10
708.2593535338
 20
353.3154395915
 30
0.0
 11
564.2593535338
 21
353.3154395915
 31
0.0
  0
LINE
  5
26F
330
1F
100
AcDbEntity
  8
0
  6
Continuous
 62
     7
370
    25
100
AcDbLine
 10
752.5093535338
 20
402.8200529832
 30
0.0
 11
752.5093535338
 21
403.3200529832
 31
0.0
  0
LINE
  5
270
330
1F
100
AcDbEntity
  8
0
  6
Continuous
 62
     7
370
    25
100
AcDbLine
 10
762.0093535338
 20
402.8200529832
 30
0.0
 11
752.5093535338
 21
402.8200529832
 31
0.0
  0
LINE
  5
271
330
1F
100
AcDbEntity
  8
0
  6
Continuous
 62
     7
370
    25
100
AcDbLine
 10
762.0093535338
 20
403.3200529832
 30
0.0
 11
762.0093535338
 21
402.8200529832
 31
0.0
  0
ARC
  5
272
330
1F
100
AcDbEntity
  8
0
  6
Continuous
 62
     7
370
    25
100
AcDbCircle
 10
762.7727535338
 20
404.0566529832
 30
0.0
 40
1.236600000000012
100
AcDbArc
 50
270.0
 51
323.4399088994
  0
LINE
  5
273
330
1F
100
AcDbEntity
  8
0
  6
Continuous
 62
     7
370
    25
100
AcDbLine
 10
762.7727535338
 20
402.8200529832
 30
0.0
 11
762.0093535338
 21
402.8200529832
 31
0.0
  0
ARC
  5
274
330
1F
100
AcDbEntity
  8
0
  6
Continuous
 62
     7
370
    25
100
AcDbCircle
 10
751.7459535338
 20
404.0566529832
 30
0.0
 40
1.23660000000001
100
AcDbArc
 50
216.5600911006
 51
270.0
  0
LINE
  5
275
330
1F
100
AcDbEntity
  8
0
  6
Continuous
 62
     7
370
    25
100
AcDbLine
 10
752.5093535338
 20
402.8200529832
 30
0.0
 11
751.7459535338
 21
402.8200529832
 31
0.0
  0
LINE
  5
276
330
1F
100
AcDbEntity
  8
0
  6
Continuous
 62
     7
370
    25
100
AcDbLine
 10
69.5093535338
 20
402.8200529832
 30
0.0
 11
69.5093535338
 21
403.3200529832
 31
0.0
  0
LINE
  5
277
330
1F
100
AcDbEntity
  8
0
  6
Continuous
 62
     7
370
    25
100
AcDbLine
 10
79.0093535338
 20
402.8200529832
 30
0.0
 11
69.5093535338
 21
402.8200529832
 31
0.0
  0
LINE
  5
278
330
1F
100
AcDbEntity
  8
0
  6
Continuous
 62
     7
370
    25
100
AcDbLine
 10
79.0093535338
 20
403.3200529832
 30
0.0
 11
79.0093535338
 21
402.8200529832
 31
0.0
  0
ARC
  5
279
330
1F
100
AcDbEntity
  8
0
  6
Continuous
 62
     7
370
    25
100
AcDbCircle
 10
79.7727535338
 20
404.0566529832
 30
0.0
 40
1.236600000000067
100
AcDbArc
 50
270.0
 51
323.4399088994
  0
LINE
  5
27A
330
1F
100
AcDbEntity
  8
0
  6
Continuous
 62
     7
370
    25
100
AcDbLine
 10
79.7727535338
 20
402.8200529832
 30
0.0
 11
79.0093535338
 21
402.8200529832
 31
0.0
  0
ARC
  5
27B
330
1F
100
AcDbEntity
  8
0
  6
Continuous
 62
     7
370
    25
100
AcDbCircle
 10
68.7459535338
 20
404.0566529832
 30
0.0
 40
1.236600000000067
100
AcDbArc
 50
216.5600911006
 51
270.0
  0
LINE
  5
27C
330
1F
100
AcDbEntity
  8
0
  6
Continuous
 62
     7
370
    25
100
AcDbLine
 10
69.5093535338
 20
402.8200529832
 30
0.0
 11
68.7459535338
 21
402.8200529832
 31
0.0
  0
LINE
  5
27D
330
1F
100
AcDbEntity
  8
0
  6
Continuous
 62
     7
370
    25
100
AcDbLine
 10
777.4181035338
 20
381.7200529832
 30
0.0
 11
777.4181035338
 21
381.9200529832
 31
0.0
  0
LINE
  5
27E
330
1F
100
AcDbEntity
  8
0
  6
Continuous
 62
     7
370
    25
100
AcDbLine
 10
777.4181035338
 20
387.5200529832
 30
0.0
 11
777.4181035338
 21
387.7200529832
 31
0.0
  0
LINE
  5
27F
330
1F
100
AcDbEntity
  8
0
  6
Continuous
 62
     7
370
    25
100
AcDbLine
 10
777.9593535338
 20
386.2994563206
 30
0.0
 11
777.9593535338
 21
387.1788029833
 31
0.0
  0
LINE
  5
280
330
1F
100
AcDbEntity
  8
0
  6
Continuous
 62
     7
370
    25
100
AcDbLine
 10
777.9593535338
 20
382.2613029832
 30
0.0
 11
777.9593535338
 21
386.2994563206
 31
0.0
  0
LINE
  5
281
330
1F
100
AcDbEntity
  8
0
  6
Continuous
 62
     7
370
    25
100
AcDbLine
 10
767.2593535338
 20
399.0200529832
 30
0.0
 11
767.2593535338
 21
397.2200529832
 31
0.0
  0
LINE
  5
282
330
1F
100
AcDbEntity
  8
0
  6
Continuous
 62
     7
370
    25
100
AcDbLine
 10
767.2593535338
 20
397.2200529832
 30
0.0
 11
64.2593535338
 21
397.2200529832
 31
0.0
  0
LINE
  5
283
330
1F
100
AcDbEntity
  8
0
  6
Continuous
 62
     7
370
    25
100
AcDbLine
 10
64.2593535338
 20
397.2200529832
 30
0.0
 11
64.2593535338
 21
399.0200529832
 31
0.0
  0
LINE
  5
284
330
1F
100
AcDbEntity
  8
0
  6
Continuous
 62
     7
370
    25
100
AcDbLine
 10
767.2593535338
 20
399.0200529832
 30
0.0
 11
767.7593535338
 21
404.3950529833
 31
0.0
  0
LINE
  5
285
330
1F
100
AcDbEntity
  8
0
  6
Continuous
 62
     7
370
    25
100
AcDbLine
 10
63.7593535338
 20
404.3950529832
 30
0.0
 11
64.2593535338
 21
399.0200529832
 31
0.0
  0
LINE
  5
286
330
1F
100
AcDbEntity
  8
0
  6
Continuous
 62
     7
370
    25
100
AcDbLine
 10
53.5593535338
 20
382.502714906
 30
0.0
 11
53.5593535338
 21
382.2613029832
 31
0.0
  0
LINE
  5
287
330
1F
100
AcDbEntity
  8
0
  6
Continuous
 62
     7
370
    25
100
AcDbLine
 10
53.5593535338
 20
387.1788029833
 30
0.0
 11
53.5593535338
 21
382.502714906
 31
0.0
  0
LINE
  5
288
330
1F
100
AcDbEntity
  8
0
  6
Continuous
 62
     7
370
    25
100
AcDbLine
 10
54.1006035338
 20
387.7200529832
 30
0.0
 11
54.1006035338
 21
387.5200529832
 31
0.0
  0
LINE
  5
289
330
1F
100
AcDbEntity
  8
0
  6
Continuous
 62
     7
370
    25
100
AcDbLine
 10
54.1006035338
 20
381.9200529832
 30
0.0
 11
54.1006035338
 21
381.7200529832
 31
0.0
  0
LWPOLYLINE
  5
28A
330
1F
100
AcDbEntity
  8
0
  6
Continuous
 62
     7
370
    25
100
AcDbPolyline
 90
        9
 70
   128
 43
0.0
 10
769.8114743937
 20
376.8200529832
 10
769.9449240335
 20
376.8584824224
 10
770.0732452785
 20
376.9722939182
 10
770.1915068152
 20
377.1571137586
 10
770.295163919
 20
377.4058394209
 10
770.3802331057
 20
377.7089125172
 10
770.443445214
 20
378.0546861185
 10
770.4823710381
 20
378.4298723392
 10
770.4955146804
 20
378.8200529832
  0
LINE
  5
28B
330
1F
100
AcDbEntity
  8
0
  6
Continuous
 62
     7
370
    25
100
AcDbLine
 10
767.9402756714
 20
376.8200529832
 30
0.0
 11
769.8114743937
 21
376.8200529832
 31
0.0
  0
LINE
  5
28C
330
1F
100
AcDbEntity
  8
0
  6
Continuous
 62
     7
370
    25
100
AcDbLine
 10
769.8114743937
 20
392.8200529832
 30
0.0
 11
767.9402756714
 21
392.8200529832
 31
0.0
  0
LWPOLYLINE
  5
28D
330
1F
100
AcDbEntity
  8
0
  6
Continuous
 62
     7
370
    25
100
AcDbPolyline
 90
        9
 70
   128
 43
0.0
 10
770.4955146804
 20
390.8200529832
 10
770.4823710381
 20
391.2102336273
 10
770.443445214
 20
391.585419848
 10
770.3802331057
 20
391.9311934493
 10
770.295163919
 20
392.2342665456
 10
770.1915068152
 20
392.4829922078
 10
770.0732452785
 20
392.6678120483
 10
769.9449240335
 20
392.781623544
 10
769.8114743937
 20
392.8200529832
  0
LINE
  5
28E
330
1F
100
AcDbEntity
  8
0
  6
Continuous
 62
     7
370
    25
100
AcDbLine
 10
770.4955146804
 20
378.8200529832
 30
0.0
 11
770.4955146804
 21
390.8200529832
 31
0.0
  0
LWPOLYLINE
  5
28F
330
1F
100
AcDbEntity
  8
0
  6
Continuous
 62
     7
370
    25
100
AcDbPolyline
 90
        9
 70
   128
 43
0.0
 10
772.374899922
 20
378.8200529832
 10
772.3617562797
 20
378.4298723392
 10
772.3228304556
 20
378.0546861185
 10
772.2596183473
 20
377.7089125172
 10
772.1745491606
 20
377.4058394209
 10
772.0708920568
 20
377.1571137586
 10
771.9526305201
 20
376.9722939182
 10
771.8243092751
 20
376.8584824224
 10
771.6908596353
 20
376.8200529832
  0
LINE
  5
290
330
1F
100
AcDbEntity
  8
0
  6
Continuous
 62
     7
370
    25
100
AcDbLine
 10
771.6908596353
 20
376.8200529832
 30
0.0
 11
769.8114743937
 21
376.8200529832
 31
0.0
  0
LINE
  5
291
330
1F
100
AcDbEntity
  8
0
  6
Continuous
 62
     7
370
    25
100
AcDbLine
 10
772.374899922
 20
378.8200529832
 30
0.0
 11
772.374899922
 21
390.8200529832
 31
0.0
  0
LINE
  5
292
330
1F
100
AcDbEntity
  8
0
  6
Continuous
 62
     7
370
    25
100
AcDbLine
 10
769.8114743937
 20
392.8200529832
 30
0.0
 11
771.6908596353
 21
392.8200529832
 31
0.0
  0
LWPOLYLINE
  5
293
330
1F
100
AcDbEntity
  8
0
  6
Continuous
 62
     7
370
    25
100
AcDbPolyline
 90
        9
 70
   128
 43
0.0
 10
771.6908596353
 20
392.8200529832
 10
771.8243092751
 20
392.781623544
 10
771.9526305201
 20
392.6678120483
 10
772.0708920568
 20
392.4829922078
 10
772.1745491606
 20
392.2342665456
 10
772.2596183473
 20
391.9311934493
 10
772.3228304556
 20
391.585419848
 10
772.3617562797
 20
391.2102336273
 10
772.374899922
 20
390.8200529832
  0
LINE
  5
294
330
1F
100
AcDbEntity
  8
0
  6
Continuous
 62
     7
370
    25
100
AcDbLine
 10
767.7645398842
 20
392.8200529832
 30
0.0
 11
767.9402756714
 21
392.8200529832
 31
0.0
  0
LINE
  5
295
330
1F
100
AcDbEntity
  8
0
  6
Continuous
 62
     7
370
    25
100
AcDbLine
 10
767.7593535338
 20
376.8200529832
 30
0.0
 11
767.7593535338
 21
392.8200529832
 31
0.0
  0
LINE
  5
296
330
1F
100
AcDbEntity
  8
0
  6
Continuous
 62
     7
370
    25
100
AcDbLine
 10
767.9402756714
 20
376.8200529832
 30
0.0
 11
767.7593535338
 21
376.8200529832
 31
0.0
  0
LINE
  5
297
330
1F
100
AcDbEntity
  8
0
  6
Continuous
 62
     7
370
    25
100
AcDbLine
 10
767.7645398842
 20
392.8200529832
 30
0.0
 11
767.7593535338
 21
392.8200529832
 31
0.0
  0
LINE
  5
298
330
1F
100
AcDbEntity
  8
0
  6
Continuous
 62
     7
370
    25
100
AcDbLine
 10
769.7593535338
 20
407.8200529832
 30
0.0
 11
769.7593535338
 21
392.8200529832
 31
0.0
  0
LINE
  5
299
330
1F
100
AcDbEntity
  8
0
  6
Continuous
 62
     7
370
    25
100
AcDbLine
 10
767.7593535338
 20
407.8200529832
 30
0.0
 11
767.7593535338
 21
392.8200529832
 31
0.0
  0
LINE
  5
29A
330
1F
100
AcDbEntity
  8
0
  6
Continuous
 62
     7
370
    25
100
AcDbLine
 10
769.7593535338
 20
407.8200529832
 30
0.0
 11
769.7576864039
 21
407.9200529832
 31
0.0
  0
LINE
  5
29B
330
1F
100
AcDbEntity
  8
0
  6
Continuous
 62
     7
370
    25
100
AcDbLine
 10
767.7593535338
 20
407.8200529832
 30
0.0
 11
767.7543409709
 21
407.9200529832
 31
0.0
  0
LINE
  5
29C
330
1F
100
AcDbEntity
  8
0
  6
Continuous
 62
     7
370
    25
100
AcDbLine
 10
61.7072326738
 20
376.8200529832
 30
0.0
 11
63.5784313962
 21
376.8200529832
 31
0.0
  0
LWPOLYLINE
  5
29D
330
1F
100
AcDbEntity
  8
0
  6
Continuous
 62
     7
370
    25
100
AcDbPolyline
 90
        9
 70
   128
 43
0.0
 10
61.0231923872
 20
378.8200529832
 10
61.0363360295
 20
378.4298723392
 10
61.0752618536
 20
378.0546861185
 10
61.1384739619
 20
377.7089125172
 10
61.2235431485
 20
377.4058394209
 10
61.3272002524
 20
377.1571137586
 10
61.4454617891
 20
376.9722939182
 10
61.573783034
 20
376.8584824224
 10
61.7072326738
 20
376.8200529832
  0
LINE
  5
29E
330
1F
100
AcDbEntity
  8
0
  6
Continuous
 62
     7
370
    25
100
AcDbLine
 10
61.0231923872
 20
390.8200529832
 30
0.0
 11
61.0231923872
 21
378.8200529832
 31
0.0
  0
LWPOLYLINE
  5
29F
330
1F
100
AcDbEntity
  8
0
  6
Continuous
 62
     7
370
    25
100
AcDbPolyline
 90
        9
 70
   128
 43
0.0
 10
61.7072326738
 20
392.8200529832
 10
61.573783034
 20
392.781623544
 10
61.4454617891
 20
392.6678120483
 10
61.3272002524
 20
392.4829922078
 10
61.2235431485
 20
392.2342665456
 10
61.1384739619
 20
391.9311934493
 10
61.0752618536
 20
391.585419848
 10
61.0363360295
 20
391.2102336273
 10
61.0231923872
 20
390.8200529832
  0
LINE
  5
2A0
330
1F
100
AcDbEntity
  8
0
  6
Continuous
 62
     7
370
    25
100
AcDbLine
 10
63.5784313962
 20
392.8200529832
 30
0.0
 11
61.7072326738
 21
392.8200529832
 31
0.0
  0
LINE
  5
2A1
330
1F
100
AcDbEntity
  8
0
  6
Continuous
 62
     7
370
    25
100
AcDbLine
 10
61.7072326738
 20
376.8200529832
 30
0.0
 11
59.8278474323
 21
376.8200529832
 31
0.0
  0
LWPOLYLINE
  5
2A2
330
1F
100
AcDbEntity
  8
0
  6
Continuous
 62
     7
370
    25
100
AcDbPolyline
 90
        9
 70
   128
 43
0.0
 10
59.8278474323
 20
376.8200529832
 10
59.6943977925
 20
376.8584824224
 10
59.5660765475
 20
376.9722939182
 10
59.4478150108
 20
377.1571137586
 10
59.344157907
 20
377.4058394209
 10
59.2590887203
 20
377.7089125172
 10
59.195876612
 20
378.0546861185
 10
59.1569507879
 20
378.4298723392
 10
59.1438071456
 20
378.8200529832
  0
LINE
  5
2A3
330
1F
100
AcDbEntity
  8
0
  6
Continuous
 62
     7
370
    25
100
AcDbLine
 10
59.1438071456
 20
390.8200529832
 30
0.0
 11
59.1438071456
 21
378.8200529832
 31
0.0
  0
LWPOLYLINE
  5
2A4
330
1F
100
AcDbEntity
  8
0
  6
Continuous
 62
     7
370
    25
100
AcDbPolyline
 90
        9
 70
   128
 43
0.0
 10
59.1438071456
 20
390.8200529832
 10
59.1569507879
 20
391.2102336273
 10
59.195876612
 20
391.585419848
 10
59.2590887203
 20
391.9311934493
 10
59.344157907
 20
392.2342665456
 10
59.4478150108
 20
392.4829922078
 10
59.5660765475
 20
392.6678120483
 10
59.6943977925
 20
392.781623544
 10
59.8278474323
 20
392.8200529832
  0
LINE
  5
2A5
330
1F
100
AcDbEntity
  8
0
  6
Continuous
 62
     7
370
    25
100
AcDbLine
 10
59.8278474323
 20
392.8200529832
 30
0.0
 11
61.7072326738
 21
392.8200529832
 31
0.0
  0
LINE
  5
2A6
330
1F
100
AcDbEntity
  8
0
  6
Continuous
 62
     7
370
    25
100
AcDbLine
 10
63.5784313962
 20
392.8200529832
 30
0.0
 11
63.7541671834
 21
392.8200529832
 31
0.0
  0
LINE
  5
2A7
330
1F
100
AcDbEntity
  8
0
  6
Continuous
 62
     7
370
    25
100
AcDbLine
 10
63.7593535338
 20
392.8200529832
 30
0.0
 11
63.7593535338
 21
376.8200529832
 31
0.0
  0
LINE
  5
2A8
330
1F
100
AcDbEntity
  8
0
  6
Continuous
 62
     7
370
    25
100
AcDbLine
 10
63.7593535338
 20
376.8200529832
 30
0.0
 11
63.5784313962
 21
376.8200529832
 31
0.0
  0
LINE
  5
2A9
330
1F
100
AcDbEntity
  8
0
  6
Continuous
 62
     7
370
    25
100
AcDbLine
 10
63.7541671834
 20
392.8200529832
 30
0.0
 11
63.7593535338
 21
392.8200529832
 31
0.0
  0
LINE
  5
2AA
330
1F
100
AcDbEntity
  8
0
  6
Continuous
 62
     7
370
    25
100
AcDbLine
 10
63.7593535338
 20
392.8200529832
 30
0.0
 11
63.7593535338
 21
407.8200529832
 31
0.0
  0
LINE
  5
2AB
330
1F
100
AcDbEntity
  8
0
  6
Continuous
 62
     7
370
    25
100
AcDbLine
 10
61.7593535338
 20
392.8200529832
 30
0.0
 11
61.7593535338
 21
407.8200529832
 31
0.0
  0
LINE
  5
2AC
330
1F
100
AcDbEntity
  8
0
  6
Continuous
 62
     7
370
    25
100
AcDbLine
 10
61.7610206637
 20
407.9200529832
 30
0.0
 11
61.7593535338
 21
407.8200529832
 31
0.0
  0
LINE
  5
2AD
330
1F
100
AcDbEntity
  8
0
  6
Continuous
 62
     7
370
    25
100
AcDbLine
 10
63.7643660967
 20
407.9200529832
 30
0.0
 11
63.7593535338
 21
407.8200529832
 31
0.0
  0
SPLINE
  5
2AE
330
1F
100
AcDbEntity
  8
0
  6
Continuous
 62
     7
370
    25
100
AcDbSpline
210
0.0
220
0.0
230
1.0
 70
    24
 71
     3
 72
    19
 73
    15
 74
     0
 42
0.000000001
 43
0.00000001
 40
0.0
 40
0.0
 40
0.0
 40
0.0
 40
0.1260638187928848
 40
0.1939261817305607
 40
0.2632286813759842
 40
0.3325311810214078
 40
0.4003935439590837
 40
0.5264573627519685
 40
0.6525211815448531
 40
0.7203835444825295
 40
0.7896860441279526
 40
0.8589885437733761
 40
0.9268509067110522
 40
1.0
 40
1.0
 40
1.0
 40
1.0
 10
766.7593535337933
 20
390.4474413386188
 30
0.0
 10
766.7593535337933
 20
390.2558534276824
 30
0.0
 10
766.7593535337933
 20
389.9611303866912
 30
0.0
 10
766.7593535337934
 20
389.0338758638506
 30
0.0
 10
766.7593535337933
 20
388.148319823318
 30
0.0
 10
766.7593535337933
 20
387.1119186137828
 30
0.0
 10
766.7593535337933
 20
385.6679652411334
 30
0.0
 10
766.7593535337933
 20
383.7831376584248
 30
0.0
 10
766.7593535337933
 20
382.0101274565982
 30
0.0
 10
766.7593535337933
 20
380.787823834858
 30
0.0
 10
766.7593535337933
 20
379.9871371196398
 30
0.0
 10
766.7593535337933
 20
379.4016465368668
 30
0.0
 10
766.7593535337933
 20
378.9737603983139
 30
0.0
 10
766.7593535337933
 20
379.0042726502165
 30
0.0
 10
766.7593535337933
 20
379.0201007511425
 30
0.0
  0
SPLINE
  5
2AF
330
1F
100
AcDbEntity
  8
0
  6
Continuous
 62
     7
370
    25
100
AcDbSpline
210
0.0
220
0.0
230
1.0
 70
     8
 71
     3
 72
     8
 73
     4
 74
     0
 42
0.000000001
 43
0.00000001
 40
0.0
 40
0.0
 40
0.0
 40
0.0
 40
1.0
 40
1.0
 40
1.0
 40
1.0
 10
762.7593535338004
 20
383.9313551911827
 30
0.0
 10
762.7593535338004
 20
382.9584108754031
 30
0.0
 10
762.9336688341799
 20
382.0120956279506
 30
0.0
 10
763.2059355211918
 20
381.0807438068925
 30
0.0
  0
SPLINE
  5
2B0
330
1F
100
AcDbEntity
  8
0
  6
Continuous
 62
     7
370
    25
100
AcDbSpline
210
0.0
220
0.0
230
1.0
 70
     8
 71
     3
 72
     8
 73
     4
 74
     0
 42
0.000000001
 43
0.00000001
 40
0.0
 40
0.0
 40
0.0
 40
0.0
 40
1.0
 40
1.0
 40
1.0
 40
1.0
 10
763.2059355211918
 20
386.7819665754731
 30
0.0
 10
762.9336688341804
 20
385.8506147544167
 30
0.0
 10
762.7593535338004
 20
384.9042995069606
 30
0.0
 10
762.7593535338004
 20
383.9313551911827
 30
0.0
  0
LINE
  5
2B1
330
1F
100
AcDbEntity
  8
0
  6
Continuous
 62
     7
370
    25
100
AcDbLine
 10
766.7593535338
 20
386.7819665755
 30
0.0
 11
763.2059355212
 21
386.7819665755
 31
0.0
  0
LINE
  5
2B2
330
1F
100
AcDbEntity
  8
0
  6
Continuous
 62
     7
370
    25
100
AcDbLine
 10
766.7593535338
 20
381.0807438069
 30
0.0
 11
763.2059355212
 21
381.0807438069
 31
0.0
  0
LINE
  5
2B3
330
1F
100
AcDbEntity
  8
0
  6
Continuous
 62
     7
370
    25
100
AcDbLine
 10
762.7593535338
 20
388.6016211637
 30
0.0
 11
762.7593535338
 21
383.9313551912
 31
0.0
  0
SPLINE
  5
2B4
330
1F
100
AcDbEntity
  8
0
  6
Continuous
 62
     7
370
    25
100
AcDbSpline
210
0.0
220
0.0
230
1.0
 70
     8
 71
     3
 72
     8
 73
     4
 74
     0
 42
0.000000001
 43
0.00000001
 40
0.0
 40
0.0
 40
0.0
 40
0.0
 40
1.0
 40
1.0
 40
1.0
 40
1.0
 10
762.7593535338004
 20
388.6016211636525
 30
0.0
 10
762.7593535338004
 20
387.9805534874332
 30
0.0
 10
762.9336688341799
 20
387.3764841669446
 30
0.0
 10
763.2059355211918
 20
386.7819665754794
 30
0.0
  0
SPLINE
  5
2B5
330
1F
100
AcDbEntity
  8
0
  6
Continuous
 62
     7
370
    25
100
AcDbSpline
210
0.0
220
0.0
230
1.0
 70
     8
 71
     3
 72
     8
 73
     4
 74
     0
 42
0.000000001
 43
0.00000001
 40
0.0
 40
0.0
 40
0.0
 40
0.0
 40
1.0
 40
1.0
 40
1.0
 40
1.0
 10
763.2059355211918
 20
390.4212757518255
 30
0.0
 10
762.9336688341804
 20
389.8267581603613
 30
0.0
 10
762.7593535338004
 20
389.2226888398706
 30
0.0
 10
762.7593535338004
 20
388.6016211636525
 30
0.0
  0
LINE
  5
2B6
330
1F
100
AcDbEntity
  8
0
  6
Continuous
 62
     7
370
    25
100
AcDbLine
 10
766.7593535338
 20
390.4212757518
 30
0.0
 11
763.2059355212
 21
390.4212757518
 31
0.0
  0
LINE
  5
2B7
330
1F
100
AcDbEntity
  8
0
  6
Continuous
 62
     7
370
    25
100
AcDbLine
 10
762.7593535338
 20
383.9313551912
 30
0.0
 11
762.7593535338
 21
380.0497870108
 31
0.0
  0
SPLINE
  5
2B8
330
1F
100
AcDbEntity
  8
0
  6
Continuous
 62
     7
370
    25
100
AcDbSpline
210
0.0
220
0.0
230
1.0
 70
     8
 71
     3
 72
     8
 73
     4
 74
     0
 42
0.000000001
 43
0.00000001
 40
0.0
 40
0.0
 40
0.0
 40
0.0
 40
1.0
 40
1.0
 40
1.0
 40
1.0
 10
763.2059355211918
 20
381.0807438068874
 30
0.0
 10
762.9336688341804
 20
380.7439095772951
 30
0.0
 10
762.7593535338004
 20
380.4016636503297
 30
0.0
 10
762.7593535338004
 20
380.0497870107699
 30
0.0
  0
SPLINE
  5
2B9
330
1F
100
AcDbEntity
  8
0
  6
Continuous
 62
     7
370
    25
100
AcDbSpline
210
0.0
220
0.0
230
1.0
 70
     8
 71
     3
 72
     8
 73
     4
 74
     0
 42
0.000000001
 43
0.00000001
 40
0.0
 40
0.0
 40
0.0
 40
0.0
 40
1.0
 40
1.0
 40
1.0
 40
1.0
 10
762.7593535338004
 20
380.0497870107699
 30
0.0
 10
762.7593535338004
 20
379.6979103712094
 30
0.0
 10
762.9336688341798
 20
379.3556644442453
 30
0.0
 10
763.2059355211918
 20
379.0188302146524
 30
0.0
  0
LINE
  5
2BA
330
1F
100
AcDbEntity
  8
0
  6
Continuous
 62
     7
370
    25
100
AcDbLine
 10
766.7593535338
 20
379.0188302147
 30
0.0
 11
763.2059355212
 21
379.0188302147
 31
0.0
  0
LINE
  5
2BB
330
1F
100
AcDbEntity
  8
0
  6
Continuous
 62
     7
370
    25
100
AcDbLine
 10
763.055729291
 20
390.0745171761
 30
0.0
 11
763.2059355212
 21
390.4212757518
 31
0.0
  0
LINE
  5
2BC
330
1F
100
AcDbEntity
  8
0
  6
Continuous
 62
     7
370
    25
100
AcDbLine
 10
762.7593535338
 20
389.7200529832
 30
0.0
 11
762.7593535338
 21
388.6016211637
 31
0.0
  0
LINE
  5
2BD
330
1F
100
AcDbEntity
  8
0
  6
Continuous
 62
     7
370
    25
100
AcDbLine
 10
777.7593535338
 20
384.332210844
 30
0.0
 11
777.7593535338
 21
387.1788029833
 31
0.0
  0
LINE
  5
2BE
330
1F
100
AcDbEntity
  8
0
  6
Continuous
 62
     7
370
    25
100
AcDbLine
 10
777.7593535338
 20
382.2613029832
 30
0.0
 11
777.7593535338
 21
384.332210844
 31
0.0
  0
LINE
  5
2BF
330
1F
100
AcDbEntity
  8
0
  6
Continuous
 62
     7
370
    25
100
AcDbLine
 10
777.2181035338
 20
381.7200529832
 30
0.0
 11
777.2181035338
 21
387.7200529832
 31
0.0
  0
LINE
  5
2C0
330
1F
100
AcDbEntity
  8
0
  6
Continuous
 62
     7
370
    25
100
AcDbLine
 10
762.7593535338
 20
380.0497870108
 30
0.0
 11
762.7593535338
 21
379.7200529832
 31
0.0
  0
ARC
  5
2C1
330
1F
100
AcDbEntity
  8
0
  6
Continuous
 62
     7
370
    25
100
AcDbCircle
 10
776.2593535338
 20
413.9200529832
 30
0.0
 40
6.000000000000022
100
AcDbArc
 50
270.0
 51
323.1301023542
  0
ARC
  5
2C2
330
1F
100
AcDbEntity
  8
0
  6
Continuous
 62
     7
370
    25
100
AcDbCircle
 10
55.2593535338
 20
413.9200529832
 30
0.0
 40
6.0
100
AcDbArc
 50
216.8698976458
 51
270.0
  0
SPLINE
  5
2C3
330
1F
100
AcDbEntity
  8
0
  6
Continuous
 62
     7
370
    25
100
AcDbSpline
210
0.0
220
0.0
230
1.0
 70
    24
 71
     3
 72
    15
 73
    11
 74
     0
 42
0.000000001
 43
0.00000001
 40
0.0
 40
0.0
 40
0.0
 40
0.0
 40
0.0346967497918683
 40
0.2211884951269672
 40
0.4076802404620663
 40
0.5080720152630804
 40
0.6105942475634838
 40
0.7131164798638874
 40
0.8135082546649011
 40
1.0
 40
1.0
 40
1.0
 40
1.0
 10
64.7593535337932
 20
378.9468041738366
 30
0.0
 10
64.7593535337932
 20
378.9400830702052
 30
0.0
 10
64.75935353379315
 20
378.8972366708524
 30
0.0
 10
64.75935353379325
 20
379.3852776336108
 30
0.0
 10
64.7593535337932
 20
380.4811886910795
 30
0.0
 10
64.7593535337932
 20
381.7000858235269
 30
0.0
 10
64.7593535337932
 20
382.7802610513838
 30
0.0
 10
64.75935353379309
 20
383.9407379538495
 30
0.0
 10
64.75935353379325
 20
385.4713128489647
 30
0.0
 10
64.7593535337932
 20
386.5349387376148
 30
0.0
 10
64.7593535337932
 20
387.2263602882979
 30
0.0
  0
SPLINE
  5
2C4
330
1F
100
AcDbEntity
  8
0
  6
Continuous
 62
     7
370
    25
100
AcDbSpline
210
0.0
220
0.0
230
1.0
 70
    24
 71
     3
 72
    12
 73
     8
 74
     0
 42
0.000000001
 43
0.00000001
 40
0.0
 40
0.0
 40
0.0
 40
0.0
 40
0.3344405486782636
 40
0.5144757571369877
 40
0.6983315710265378
 40
0.8821873849160877
 40
1.0
 40
1.0
 40
1.0
 40
1.0
 10
64.7593535337932
 20
387.2263602882979
 30
0.0
 10
64.7593535337932
 20
387.8505058237997
 30
0.0
 10
64.75935353379325
 20
388.8106398392773
 30
0.0
 10
64.75935353379315
 20
389.7185507455726
 30
0.0
 10
64.7593535337932
 20
390.2242680834888
 30
0.0
 10
64.75935353379325
 20
390.495887817627
 30
0.0
 10
64.75935353379325
 20
390.4940280861672
 30
0.0
 10
64.7593535337932
 20
390.4933017926423
 30
0.0
  0
SPLINE
  5
2C5
330
1F
100
AcDbEntity
  8
0
  6
Continuous
 62
     7
370
    25
100
AcDbSpline
210
0.0
220
0.0
230
1.0
 70
     8
 71
     3
 72
     8
 73
     4
 74
     0
 42
0.000000001
 43
0.00000001
 40
0.0
 40
0.0
 40
0.0
 40
0.0
 40
1.0
 40
1.0
 40
1.0
 40
1.0
 10
68.75935353378621
 20
384.3366579555529
 30
0.0
 10
68.75935353378621
 20
385.3190364001257
 30
0.0
 10
68.58503823340678
 20
386.2745275683154
 30
0.0
 10
68.31277154639481
 20
387.214910217643
 30
0.0
  0
SPLINE
  5
2C6
330
1F
100
AcDbEntity
  8
0
  6
Continuous
 62
     7
370
    25
100
AcDbSpline
210
0.0
220
0.0
230
1.0
 70
     8
 71
     3
 72
     8
 73
     4
 74
     0
 42
0.000000001
 43
0.00000001
 40
0.0
 40
0.0
 40
0.0
 40
0.0
 40
1.0
 40
1.0
 40
1.0
 40
1.0
 10
68.31277154639481
 20
381.458405693463
 30
0.0
 10
68.58503823340622
 20
382.3987883427887
 30
0.0
 10
68.75935353378621
 20
383.354279510982
 30
0.0
 10
68.75935353378621
 20
384.3366579555529
 30
0.0
  0
LINE
  5
2C7
330
1F
100
AcDbEntity
  8
0
  6
Continuous
 62
     7
370
    25
100
AcDbLine
 10
64.7593535338
 20
381.4584056935
 30
0.0
 11
68.3127715464
 21
381.4584056935
 31
0.0
  0
LINE
  5
2C8
330
1F
100
AcDbEntity
  8
0
  6
Continuous
 62
     7
370
    25
100
AcDbLine
 10
64.7593535338
 20
387.2149102176
 30
0.0
 11
68.3127715464
 21
387.2149102176
 31
0.0
  0
LINE
  5
2C9
330
1F
100
AcDbEntity
  8
0
  6
Continuous
 62
     7
370
    25
100
AcDbLine
 10
68.7593535338
 20
384.3366579556
 30
0.0
 11
68.7593535338
 21
388.8457338625
 31
0.0
  0
SPLINE
  5
2CA
330
1F
100
AcDbEntity
  8
0
  6
Continuous
 62
     7
370
    25
100
AcDbSpline
210
0.0
220
0.0
230
1.0
 70
     8
 71
     3
 72
     8
 73
     4
 74
     0
 42
0.000000001
 43
0.00000001
 40
0.0
 40
0.0
 40
0.0
 40
0.0
 40
1.0
 40
1.0
 40
1.0
 40
1.0
 10
68.31277154639476
 20
387.2149102176492
 30
0.0
 10
68.58503823340617
 20
387.747732958714
 30
0.0
 10
68.7593535337861
 20
388.2891162176086
 30
0.0
 10
68.7593535337861
 20
388.845733862537
 30
0.0
  0
LINE
  5
2CB
330
1F
100
AcDbEntity
  8
0
  6
Continuous
 62
     7
370
    25
100
AcDbLine
 10
68.7593535338
 20
380.2109770763
 30
0.0
 11
68.7593535338
 21
384.3366579556
 31
0.0
  0
SPLINE
  5
2CC
330
1F
100
AcDbEntity
  8
0
  6
Continuous
 62
     7
370
    25
100
AcDbSpline
210
0.0
220
0.0
230
1.0
 70
     8
 71
     3
 72
     8
 73
     4
 74
     0
 42
0.000000001
 43
0.00000001
 40
0.0
 40
0.0
 40
0.0
 40
0.0
 40
1.0
 40
1.0
 40
1.0
 40
1.0
 10
68.75935353378598
 20
380.2109770762554
 30
0.0
 10
68.75935353378598
 20
380.6367378758986
 30
0.0
 10
68.58503823340662
 20
381.0508457851957
 30
0.0
 10
68.31277154639476
 20
381.4584056934573
 30
0.0
  0
SPLINE
  5
2CD
330
1F
100
AcDbEntity
  8
0
  6
Continuous
 62
     7
370
    25
100
AcDbSpline
210
0.0
220
0.0
230
1.0
 70
     8
 71
     3
 72
     8
 73
     4
 74
     0
 42
0.000000001
 43
0.00000001
 40
0.0
 40
0.0
 40
0.0
 40
0.0
 40
1.0
 40
1.0
 40
1.0
 40
1.0
 10
68.7593535337861
 20
388.845733862537
 30
0.0
 10
68.7593535337861
 20
389.4023515074669
 30
0.0
 10
68.58503823340683
 20
389.9437347663587
 30
0.0
 10
68.31277154639476
 20
390.4765575074249
 30
0.0
  0
LINE
  5
2CE
330
1F
100
AcDbEntity
  8
0
  6
Continuous
 62
     7
370
    25
100
AcDbLine
 10
68.3127715464
 20
390.4765575074
 30
0.0
 11
64.7593535338
 21
390.4765575074
 31
0.0
  0
SPLINE
  5
2CF
330
1F
100
AcDbEntity
  8
0
  6
Continuous
 62
     7
370
    25
100
AcDbSpline
210
0.0
220
0.0
230
1.0
 70
     8
 71
     3
 72
     8
 73
     4
 74
     0
 42
0.000000001
 43
0.00000001
 40
0.0
 40
0.0
 40
0.0
 40
0.0
 40
1.0
 40
1.0
 40
1.0
 40
1.0
 10
68.3127715463947
 20
378.9635484590535
 30
0.0
 10
68.58503823340611
 20
379.3711083673144
 30
0.0
 10
68.75935353378598
 20
379.785216276613
 30
0.0
 10
68.75935353378598
 20
380.2109770762554
 30
0.0
  0
LINE
  5
2D0
330
1F
100
AcDbEntity
  8
0
  6
Continuous
 62
     7
370
    25
100
AcDbLine
 10
64.7593535338
 20
378.9635484591
 30
0.0
 11
68.3127715464
 21
378.9635484591
 31
0.0
  0
LINE
  5
2D1
330
1F
100
AcDbEntity
  8
0
  6
Continuous
 62
     7
370
    25
100
AcDbLine
 10
54.3006035338
 20
387.7200529832
 30
0.0
 11
54.3006035338
 21
381.7200529832
 31
0.0
  0
LINE
  5
2D2
330
1F
100
AcDbEntity
  8
0
  6
Continuous
 62
     7
370
    25
100
AcDbLine
 10
53.7593535338
 20
382.502714906
 30
0.0
 11
53.7593535338
 21
382.2613029832
 31
0.0
  0
LINE
  5
2D3
330
1F
100
AcDbEntity
  8
0
  6
Continuous
 62
     7
370
    25
100
AcDbLine
 10
53.7593535338
 20
387.1788029833
 30
0.0
 11
53.7593535338
 21
382.502714906
 31
0.0
  0
LINE
  5
2D4
330
1F
100
AcDbEntity
  8
0
  6
Continuous
 62
     7
370
    25
100
AcDbLine
 10
68.3127715464
 20
390.4765575074
 30
0.0
 11
68.3879593019
 21
390.2665370396
 31
0.0
  0
LINE
  5
2D5
330
1F
100
AcDbEntity
  8
0
  6
Continuous
 62
     7
370
    25
100
AcDbLine
 10
68.7593535338
 20
388.8457338625
 30
0.0
 11
68.7593535338
 21
389.7200529832
 31
0.0
  0
LINE
  5
2D6
330
1F
100
AcDbEntity
  8
0
  6
Continuous
 62
     7
370
    25
100
AcDbLine
 10
68.7593535338
 20
379.7200529832
 30
0.0
 11
68.7593535338
 21
380.2109770763
 31
0.0
  0
ARC
  5
2D7
330
1F
100
AcDbEntity
  8
0
  6
Continuous
 62
     7
370
    25
100
AcDbCircle
 10
767.4593535338
 20
107.2463019205
 30
0.0
 40
0.5
100
AcDbArc
 50
180.0
 51
0.0
  0
ARC
  5
2D8
330
1F
100
AcDbEntity
  8
0
  6
Continuous
 62
     7
370
    25
100
AcDbCircle
 10
767.4593535338
 20
118.8463019207
 30
0.0
 40
0.5
100
AcDbArc
 50
0.0
 51
180.0
  0
LINE
  5
2D9
330
1F
100
AcDbEntity
  8
0
  6
Continuous
 62
     7
370
    25
100
AcDbLine
 10
777.4181035338
 20
110.0463019206
 30
0.0
 11
777.9593535338
 21
110.5875519206
 31
0.0
  0
LINE
  5
2DA
330
1F
100
AcDbEntity
  8
0
  6
Continuous
 62
     7
370
    25
100
AcDbLine
 10
777.9593535338
 20
115.5050519206
 30
0.0
 11
777.4181035338
 21
116.0463019206
 31
0.0
  0
LINE
  5
2DB
330
1F
100
AcDbEntity
  8
0
  6
Continuous
 62
     7
370
    25
100
AcDbLine
 10
777.4181035338
 20
116.0463019206
 30
0.0
 11
768.7593535338
 21
116.0463019206
 31
0.0
  0
LINE
  5
2DC
330
1F
100
AcDbEntity
  8
0
  6
Continuous
 62
     7
370
    25
100
AcDbLine
 10
768.7593535338
 20
110.0463019206
 30
0.0
 11
777.4181035338
 21
110.0463019206
 31
0.0
  0
LINE
  5
2DD
330
1F
100
AcDbEntity
  8
0
  6
Continuous
 62
     7
370
    25
100
AcDbLine
 10
750.8045681194
 20
104.4181246732
 30
0.0
 11
750.4093535338
 21
104.6463019206
 31
0.0
  0
LINE
  5
2DE
330
1F
100
AcDbEntity
  8
0
  6
Continuous
 62
     7
370
    25
100
AcDbLine
 10
744.1093535338
 20
104.6463019206
 30
0.0
 11
743.6788152389
 21
104.3977305201
 31
0.0
  0
LINE
  5
2DF
330
1F
100
AcDbEntity
  8
0
  6
Continuous
 62
     7
370
    25
100
AcDbLine
 10
743.6788152389
 20
101.6948733211
 30
0.0
 11
744.1093535338
 21
101.4463019206
 31
0.0
  0
LINE
  5
2E0
330
1F
100
AcDbEntity
  8
0
  6
Continuous
 62
     7
370
    25
100
AcDbLine
 10
750.4093535338
 20
101.4463019206
 30
0.0
 11
750.8045681194
 21
101.674479168
 31
0.0
  0
LINE
  5
2E1
330
1F
100
AcDbEntity
  8
0
  6
Continuous
 62
     7
370
    25
100
AcDbLine
 10
307.8045681194
 20
104.4181246732
 30
0.0
 11
307.4093535338
 21
104.6463019206
 31
0.0
  0
LINE
  5
2E2
330
1F
100
AcDbEntity
  8
0
  6
Continuous
 62
     7
370
    25
100
AcDbLine
 10
301.1093535338
 20
104.6463019206
 30
0.0
 11
300.6788152389
 21
104.3977305201
 31
0.0
  0
LINE
  5
2E3
330
1F
100
AcDbEntity
  8
0
  6
Continuous
 62
     7
370
    25
100
AcDbLine
 10
300.6788152389
 20
101.6948733211
 30
0.0
 11
301.1093535338
 21
101.4463019206
 31
0.0
  0
LINE
  5
2E4
330
1F
100
AcDbEntity
  8
0
  6
Continuous
 62
     7
370
    25
100
AcDbLine
 10
307.4093535338
 20
101.4463019206
 30
0.0
 11
307.8045681194
 21
101.674479168
 31
0.0
  0
LINE
  5
2E5
330
1F
100
AcDbEntity
  8
0
  6
Continuous
 62
     7
370
    25
100
AcDbLine
 10
530.8045681194
 20
104.4181246732
 30
0.0
 11
530.4093535338
 21
104.6463019206
 31
0.0
  0
LINE
  5
2E6
330
1F
100
AcDbEntity
  8
0
  6
Continuous
 62
     7
370
    25
100
AcDbLine
 10
524.1093535338
 20
104.6463019206
 30
0.0
 11
523.6788152389
 21
104.3977305201
 31
0.0
  0
LINE
  5
2E7
330
1F
100
AcDbEntity
  8
0
  6
Continuous
 62
     7
370
    25
100
AcDbLine
 10
523.6788152389
 20
101.6948733211
 30
0.0
 11
524.1093535338
 21
101.4463019206
 31
0.0
  0
LINE
  5
2E8
330
1F
100
AcDbEntity
  8
0
  6
Continuous
 62
     7
370
    25
100
AcDbLine
 10
530.4093535338
 20
101.4463019206
 30
0.0
 11
530.8045681194
 21
101.674479168
 31
0.0
  0
LINE
  5
2E9
330
1F
100
AcDbEntity
  8
0
  6
Continuous
 62
     7
370
    25
100
AcDbLine
 10
87.8045681194
 20
104.4181246732
 30
0.0
 11
87.4093535338
 21
104.6463019206
 31
0.0
  0
LINE
  5
2EA
330
1F
100
AcDbEntity
  8
0
  6
Continuous
 62
     7
370
    25
100
AcDbLine
 10
81.1093535338
 20
104.6463019206
 30
0.0
 11
80.6788152389
 21
104.3977305201
 31
0.0
  0
LINE
  5
2EB
330
1F
100
AcDbEntity
  8
0
  6
Continuous
 62
     7
370
    25
100
AcDbLine
 10
80.6788152389
 20
101.6948733211
 30
0.0
 11
81.1093535338
 21
101.4463019206
 31
0.0
  0
LINE
  5
2EC
330
1F
100
AcDbEntity
  8
0
  6
Continuous
 62
     7
370
    25
100
AcDbLine
 10
87.4093535338
 20
101.4463019206
 30
0.0
 11
87.8045681194
 21
101.674479168
 31
0.0
  0
LINE
  5
2ED
330
1F
100
AcDbEntity
  8
0
  6
Continuous
 62
     7
370
    25
100
AcDbLine
 10
63.2593535338
 20
87.9963019206
 30
0.0
 11
768.2593535338
 21
87.9963019206
 31
0.0
  0
LINE
  5
2EE
330
1F
100
AcDbEntity
  8
0
  6
Continuous
 62
     7
370
    25
100
AcDbLine
 10
745.2593535338
 20
109.7463019206
 30
0.0
 11
745.2593535338
 21
104.6463019206
 31
0.0
  0
LINE
  5
2EF
330
1F
100
AcDbEntity
  8
0
  6
Continuous
 62
     7
370
    25
100
AcDbLine
 10
745.2593535338
 20
101.4463019206
 30
0.0
 11
745.2593535338
 21
101.3463019206
 31
0.0
  0
LINE
  5
2F0
330
1F
100
AcDbEntity
  8
0
  6
Continuous
 62
     7
370
    25
100
AcDbLine
 10
749.2593535338
 20
101.3463019206
 30
0.0
 11
749.2593535338
 21
101.4463019206
 31
0.0
  0
LINE
  5
2F1
330
1F
100
AcDbEntity
  8
0
  6
Continuous
 62
     7
370
    25
100
AcDbLine
 10
749.2593535338
 20
104.6463019206
 30
0.0
 11
749.2593535338
 21
109.7463019206
 31
0.0
  0
LINE
  5
2F2
330
1F
100
AcDbEntity
  8
0
  6
Continuous
 62
     7
370
    25
100
AcDbLine
 10
302.2593535338
 20
109.7463019206
 30
0.0
 11
302.2593535338
 21
104.6463019206
 31
0.0
  0
LINE
  5
2F3
330
1F
100
AcDbEntity
  8
0
  6
Continuous
 62
     7
370
    25
100
AcDbLine
 10
302.2593535338
 20
101.4463019206
 30
0.0
 11
302.2593535338
 21
101.3463019206
 31
0.0
  0
LINE
  5
2F4
330
1F
100
AcDbEntity
  8
0
  6
Continuous
 62
     7
370
    25
100
AcDbLine
 10
306.2593535338
 20
101.3463019206
 30
0.0
 11
306.2593535338
 21
101.4463019206
 31
0.0
  0
LINE
  5
2F5
330
1F
100
AcDbEntity
  8
0
  6
Continuous
 62
     7
370
    25
100
AcDbLine
 10
306.2593535338
 20
104.6463019206
 30
0.0
 11
306.2593535338
 21
109.7463019206
 31
0.0
  0
LINE
  5
2F6
330
1F
100
AcDbEntity
  8
0
  6
Continuous
 62
     7
370
    25
100
AcDbLine
 10
525.2593535338
 20
109.7463019206
 30
0.0
 11
525.2593535338
 21
104.6463019206
 31
0.0
  0
LINE
  5
2F7
330
1F
100
AcDbEntity
  8
0
  6
Continuous
 62
     7
370
    25
100
AcDbLine
 10
525.2593535338
 20
101.4463019206
 30
0.0
 11
525.2593535338
 21
101.3463019206
 31
0.0
  0
LINE
  5
2F8
330
1F
100
AcDbEntity
  8
0
  6
Continuous
 62
     7
370
    25
100
AcDbLine
 10
529.2593535338
 20
101.3463019206
 30
0.0
 11
529.2593535338
 21
101.4463019206
 31
0.0
  0
LINE
  5
2F9
330
1F
100
AcDbEntity
  8
0
  6
Continuous
 62
     7
370
    25
100
AcDbLine
 10
529.2593535338
 20
104.6463019206
 30
0.0
 11
529.2593535338
 21
109.7463019206
 31
0.0
  0
LINE
  5
2FA
330
1F
100
AcDbEntity
  8
0
  6
Continuous
 62
     7
370
    25
100
AcDbLine
 10
82.2593535338
 20
109.7463019206
 30
0.0
 11
82.2593535338
 21
104.6463019206
 31
0.0
  0
LINE
  5
2FB
330
1F
100
AcDbEntity
  8
0
  6
Continuous
 62
     7
370
    25
100
AcDbLine
 10
82.2593535338
 20
101.4463019206
 30
0.0
 11
82.2593535338
 21
101.3463019206
 31
0.0
  0
LINE
  5
2FC
330
1F
100
AcDbEntity
  8
0
  6
Continuous
 62
     7
370
    25
100
AcDbLine
 10
86.2593535338
 20
101.3463019206
 30
0.0
 11
86.2593535338
 21
101.4463019206
 31
0.0
  0
LINE
  5
2FD
330
1F
100
AcDbEntity
  8
0
  6
Continuous
 62
     7
370
    25
100
AcDbLine
 10
86.2593535338
 20
104.6463019206
 30
0.0
 11
86.2593535338
 21
109.7463019206
 31
0.0
  0
ARC
  5
2FE
330
1F
100
AcDbEntity
  8
0
  6
Continuous
 62
     7
370
    25
100
AcDbCircle
 10
64.0593535338
 20
118.8463019207
 30
0.0
 40
0.5
100
AcDbArc
 50
0.0
 51
180.0
  0
ARC
  5
2FF
330
1F
100
AcDbEntity
  8
0
  6
Continuous
 62
     7
370
    25
100
AcDbCircle
 10
64.0593535338
 20
107.2463019205
 30
0.0
 40
0.5000000000000071
100
AcDbArc
 50
180.0
 51
0.0
  0
LINE
  5
300
330
1F
100
AcDbEntity
  8
0
  6
Continuous
 62
     7
370
    25
100
AcDbLine
 10
54.1006035338
 20
110.0463019206
 30
0.0
 11
62.7593535338
 21
110.0463019206
 31
0.0
  0
LINE
  5
301
330
1F
100
AcDbEntity
  8
0
  6
Continuous
 62
     7
370
    25
100
AcDbLine
 10
62.7593535338
 20
116.0463019206
 30
0.0
 11
54.1006035338
 21
116.0463019206
 31
0.0
  0
LINE
  5
302
330
1F
100
AcDbEntity
  8
0
  6
Continuous
 62
     7
370
    25
100
AcDbLine
 10
54.1006035338
 20
116.0463019206
 30
0.0
 11
53.5593535338
 21
115.5050519206
 31
0.0
  0
LINE
  5
303
330
1F
100
AcDbEntity
  8
0
  6
Continuous
 62
     7
370
    25
100
AcDbLine
 10
53.5593535338
 20
110.5875519206
 30
0.0
 11
54.1006035338
 21
110.0463019206
 31
0.0
  0
LINE
  5
304
330
1F
100
AcDbEntity
  8
0
  6
Continuous
 62
     7
370
    25
100
AcDbLine
 10
68.5593535338
 20
118.0463019206
 30
0.0
 11
68.229870438
 21
118.6169833827
 31
0.0
  0
LINE
  5
305
330
1F
100
AcDbEntity
  8
0
  6
Continuous
 62
     7
370
    25
100
AcDbLine
 10
68.229870438
 20
107.4756204585
 30
0.0
 11
68.5593535338
 21
108.0463019206
 31
0.0
  0
LINE
  5
306
330
1F
100
AcDbEntity
  8
0
  6
Continuous
 62
     7
370
    25
100
AcDbLine
 10
770.2593535338
 20
89.8463019206
 30
0.0
 11
768.0872605105
 21
89.8463019206
 31
0.0
  0
LINE
  5
307
330
1F
100
AcDbEntity
  8
0
  6
Continuous
 62
     7
370
    25
100
AcDbLine
 10
63.431446557
 20
89.8463019206
 30
0.0
 11
61.2593535338
 21
89.8463019206
 31
0.0
  0
LINE
  5
308
330
1F
100
AcDbEntity
  8
0
  6
Continuous
 62
     7
370
    25
100
AcDbLine
 10
776.2593535338
 20
89.8463019206
 30
0.0
 11
770.2593535338
 21
89.8463019206
 31
0.0
  0
LINE
  5
309
330
1F
100
AcDbEntity
  8
0
  6
Continuous
 62
     7
370
    25
100
AcDbLine
 10
61.2593535338
 20
89.8463019206
 30
0.0
 11
55.2593535338
 21
89.8463019206
 31
0.0
  0
SPLINE
  5
30A
330
1F
100
AcDbEntity
  8
0
  6
Continuous
 62
     7
370
    25
100
AcDbSpline
210
0.0
220
0.0
230
1.0
 70
    24
 71
     3
 72
     9
 73
     5
 74
     0
 42
0.000000001
 43
0.00000001
 40
0.0
 40
0.0
 40
0.0
 40
0.0
 40
0.5153941859651394
 40
1.0
 40
1.0
 40
1.0
 40
1.0
 10
767.9593535337912
 20
118.7213119206162
 30
0.0
 10
767.9593535337912
 20
118.7650537686722
 30
0.0
 10
767.9593535337912
 20
118.849924435139
 30
0.0
 10
767.9593535337912
 20
118.8271679998955
 30
0.0
 10
767.9593535337912
 20
118.8161400990699
 30
0.0
  0
SPLINE
  5
30B
330
1F
100
AcDbEntity
  8
0
  6
Continuous
 62
     7
370
    25
100
AcDbSpline
210
0.0
220
0.0
230
1.0
 70
    24
 71
     3
 72
    17
 73
    13
 74
     0
 42
0.000000001
 43
0.00000001
 40
0.0
 40
0.0
 40
0.0
 40
0.0
 40
0.0359921626376351
 40
0.120593066128043
 40
0.2034359252874596
 40
0.35732810842509
 40
0.5112202915627205
 40
0.5940631507221377
 40
0.678664054212545
 40
0.7632649577029529
 40
0.8461078168623697
 40
1.0
 40
1.0
 40
1.0
 40
1.0
 10
766.9593535337912
 20
118.8161400990808
 30
0.0
 10
766.9593535337913
 20
118.8232914861221
 30
0.0
 10
766.959353533791
 20
118.8472524717138
 30
0.0
 10
766.959353533791
 20
118.6292475454782
 30
0.0
 10
766.9593535337913
 20
118.0574604483911
 30
0.0
 10
766.9593535337913
 20
116.8604438723008
 30
0.0
 10
766.9593535337913
 20
115.2143871124237
 30
0.0
 10
766.9593535337912
 20
113.7291967602099
 30
0.0
 10
766.9593535337912
 20
112.5331686358357
 30
0.0
 10
766.9593535337913
 20
111.3634032230462
 30
0.0
 10
766.959353533791
 20
109.9414560424625
 30
0.0
 10
766.959353533791
 20
109.1291887626023
 30
0.0
 10
766.9593535337912
 20
108.6011656031407
 30
0.0
  0
SPLINE
  5
30C
330
1F
100
AcDbEntity
  8
0
  6
Continuous
 62
     7
370
    25
100
AcDbSpline
210
0.0
220
0.0
230
1.0
 70
     8
 71
     3
 72
     8
 73
     4
 74
     0
 42
0.000000001
 43
0.00000001
 40
0.0
 40
0.0
 40
0.0
 40
0.0
 40
1.0
 40
1.0
 40
1.0
 40
1.0
 10
762.9593535337984
 20
116.2581033182954
 30
0.0
 10
762.9593535337984
 20
115.5029825119874
 30
0.0
 10
763.1336688341777
 20
114.768529038044
 30
0.0
 10
763.4059355211895
 20
114.0456889672737
 30
0.0
  0
SPLINE
  5
30D
330
1F
100
AcDbEntity
  8
0
  6
Continuous
 62
     7
370
    25
100
AcDbSpline
210
0.0
220
0.0
230
1.0
 70
     8
 71
     3
 72
     8
 73
     4
 74
     0
 42
0.000000001
 43
0.00000001
 40
0.0
 40
0.0
 40
0.0
 40
0.0
 40
1.0
 40
1.0
 40
1.0
 40
1.0
 10
763.4059355211896
 20
118.4705176693172
 30
0.0
 10
763.1336688341781
 20
117.7476775985479
 30
0.0
 10
762.9593535337984
 20
117.0132241246022
 30
0.0
 10
762.9593535337984
 20
116.2581033182954
 30
0.0
  0
LINE
  5
30E
330
1F
100
AcDbEntity
  8
0
  6
Continuous
 62
     7
370
    25
100
AcDbLine
 10
763.4059355212
 20
118.4705176693
 30
0.0
 11
766.9593535338
 21
118.4705176693
 31
0.0
  0
LINE
  5
30F
330
1F
100
AcDbEntity
  8
0
  6
Continuous
 62
     7
370
    25
100
AcDbLine
 10
766.9593535338
 20
114.0456889673
 30
0.0
 11
763.4059355212
 21
114.0456889673
 31
0.0
  0
SPLINE
  5
310
330
1F
100
AcDbEntity
  8
0
  6
Continuous
 62
     7
370
    25
100
AcDbSpline
210
0.0
220
0.0
230
1.0
 70
     8
 71
     3
 72
     8
 73
     4
 74
     0
 42
0.000000001
 43
0.00000001
 40
0.0
 40
0.0
 40
0.0
 40
0.0
 40
1.0
 40
1.0
 40
1.0
 40
1.0
 10
762.9593535337982
 20
111.3335810929184
 30
0.0
 10
762.9593535337982
 20
110.4079095142981
 30
0.0
 10
763.1336688341777
 20
109.5075731694788
 30
0.0
 10
763.4059355211895
 20
108.6214732185696
 30
0.0
  0
SPLINE
  5
311
330
1F
100
AcDbEntity
  8
0
  6
Continuous
 62
     7
370
    25
100
AcDbSpline
210
0.0
220
0.0
230
1.0
 70
     8
 71
     3
 72
     8
 73
     4
 74
     0
 42
0.000000001
 43
0.00000001
 40
0.0
 40
0.0
 40
0.0
 40
0.0
 40
1.0
 40
1.0
 40
1.0
 40
1.0
 10
763.4059355211895
 20
114.0456889672671
 30
0.0
 10
763.1336688341781
 20
113.1595890163595
 30
0.0
 10
762.9593535337982
 20
112.2592526715369
 30
0.0
 10
762.9593535337982
 20
111.3335810929184
 30
0.0
  0
LINE
  5
312
330
1F
100
AcDbEntity
  8
0
  6
Continuous
 62
     7
370
    25
100
AcDbLine
 10
766.9593535338
 20
108.6214732186
 30
0.0
 11
763.4059355212
 21
108.6214732186
 31
0.0
  0
LINE
  5
313
330
1F
100
AcDbEntity
  8
0
  6
Continuous
 62
     7
370
    25
100
AcDbLine
 10
762.9593535338
 20
116.2581033183
 30
0.0
 11
762.9593535338
 21
111.3335810929
 31
0.0
  0
SPLINE
  5
314
330
1F
100
AcDbEntity
  8
0
  6
Continuous
 62
     7
370
    25
100
AcDbSpline
210
0.0
220
0.0
230
1.0
 70
     8
 71
     3
 72
     8
 73
     4
 74
     0
 42
0.000000001
 43
0.00000001
 40
0.0
 40
0.0
 40
0.0
 40
0.0
 40
1.0
 40
1.0
 40
1.0
 40
1.0
 10
763.4059355211896
 20
108.6214732185652
 30
0.0
 10
763.1336688341783
 20
108.4582133384268
 30
0.0
 10
762.9593535337984
 20
108.2923304675504
 30
0.0
 10
762.9593535337984
 20
108.1217796952385
 30
0.0
  0
LINE
  5
315
330
1F
100
AcDbEntity
  8
0
  6
Continuous
 62
     7
370
    25
100
AcDbLine
 10
762.9593535338
 20
111.3335810929
 30
0.0
 11
762.9593535338
 21
108.1217796952
 31
0.0
  0
SPLINE
  5
316
330
1F
100
AcDbEntity
  8
0
  6
Continuous
 62
     7
370
    25
100
AcDbSpline
210
0.0
220
0.0
230
1.0
 70
     8
 71
     3
 72
     8
 73
     4
 74
     0
 42
0.000000001
 43
0.00000001
 40
0.0
 40
0.0
 40
0.0
 40
0.0
 40
1.0
 40
1.0
 40
1.0
 40
1.0
 10
762.9593535337984
 20
117.9708241459928
 30
0.0
 10
762.9593535337984
 20
118.1413749183051
 30
0.0
 10
763.1336688341776
 20
118.3072577891806
 30
0.0
 10
763.4059355211896
 20
118.4705176693195
 30
0.0
  0
LINE
  5
317
330
1F
100
AcDbEntity
  8
0
  6
Continuous
 62
     7
370
    25
100
AcDbLine
 10
762.9593535338
 20
116.2581033183
 30
0.0
 11
762.9593535338
 21
118.0416638864
 31
0.0
  0
SPLINE
  5
318
330
1F
100
AcDbEntity
  8
0
  6
Continuous
 62
     7
370
    25
100
AcDbSpline
210
0.0
220
0.0
230
1.0
 70
     8
 71
     3
 72
     8
 73
     4
 74
     0
 42
0.000000001
 43
0.00000001
 40
0.0
 40
0.0
 40
0.0
 40
0.0
 40
1.0
 40
1.0
 40
1.0
 40
1.0
 10
762.9593535337984
 20
108.1217796952385
 30
0.0
 10
762.9593535337984
 20
107.9512289229263
 30
0.0
 10
763.1336688341778
 20
107.7853460520505
 30
0.0
 10
763.4059355211897
 20
107.6220861719118
 30
0.0
  0
LINE
  5
319
330
1F
100
AcDbEntity
  8
0
  6
Continuous
 62
     7
370
    25
100
AcDbLine
 10
766.9593535338
 20
107.6220861719
 30
0.0
 11
763.4059355212
 21
107.6220861719
 31
0.0
  0
LINE
  5
31A
330
1F
100
AcDbEntity
  8
0
  6
Continuous
 62
     7
370
    25
100
AcDbLine
 10
777.9593535338
 20
110.5875519206
 30
0.0
 11
777.9593535338
 21
115.5050519206
 31
0.0
  0
LINE
  5
31B
330
1F
100
AcDbEntity
  8
0
  6
Continuous
 62
     7
370
    25
100
AcDbLine
 10
777.4181035338
 20
114.9733827592
 30
0.0
 11
777.4181035338
 21
116.0463019206
 31
0.0
  0
LINE
  5
31C
330
1F
100
AcDbEntity
  8
0
  6
Continuous
 62
     7
370
    25
100
AcDbLine
 10
777.4181035338
 20
110.0463019206
 30
0.0
 11
777.4181035338
 21
114.9733827592
 31
0.0
  0
ARC
  5
31D
330
1F
100
AcDbEntity
  8
0
  6
Continuous
 62
     7
370
    25
100
AcDbCircle
 10
770.2593535338
 20
90.4463019206
 30
0.0
 40
3.000000000000109
100
AcDbArc
 50
227.6305369015
 51
270.0
  0
LINE
  5
31E
330
1F
100
AcDbEntity
  8
0
  6
Continuous
 62
     7
370
    25
100
AcDbLine
 10
782.2593535338
 20
87.4463019206
 30
0.0
 11
770.2593535338
 21
87.4463019206
 31
0.0
  0
ARC
  5
31F
330
1F
100
AcDbEntity
  8
0
  6
Continuous
 62
     7
370
    25
100
AcDbCircle
 10
782.2593535338
 20
90.4463019206
 30
0.0
 40
3.0
100
AcDbArc
 50
270.0
 51
0.0
  0
LINE
  5
320
330
1F
100
AcDbEntity
  8
0
  6
Continuous
 62
     7
370
    25
100
AcDbLine
 10
785.2593535338
 20
91.4463019206
 30
0.0
 11
785.2593535338
 21
90.4463019206
 31
0.0
  0
ARC
  5
321
330
1F
100
AcDbEntity
  8
0
  6
Continuous
 62
     7
370
    25
100
AcDbCircle
 10
788.2593535338
 20
91.4463019206
 30
0.0
 40
3.0
100
AcDbArc
 50
90.0
 51
180.0
  0
LINE
  5
322
330
1F
100
AcDbEntity
  8
0
  6
Continuous
 62
     7
370
    25
100
AcDbLine
 10
811.7886428557
 20
94.4463019206
 30
0.0
 11
788.2593535338
 21
94.4463019206
 31
0.0
  0
LINE
  5
323
330
1F
100
AcDbEntity
  8
0
  6
Continuous
 62
     7
370
    25
100
AcDbLine
 10
811.7886428557
 20
84.8463019206
 30
0.0
 11
811.7886428557
 21
94.4463019206
 31
0.0
  0
LINE
  5
324
330
1F
100
AcDbEntity
  8
0
  6
Continuous
 62
     7
370
    25
100
AcDbLine
 10
19.7300642119
 20
84.8463019206
 30
0.0
 11
19.7300642119
 21
94.4463019206
 31
0.0
  0
LINE
  5
325
330
1F
100
AcDbEntity
  8
0
  6
Continuous
 62
     7
370
    25
100
AcDbLine
 10
43.2593535338
 20
94.4463019206
 30
0.0
 11
19.7300642119
 21
94.4463019206
 31
0.0
  0
ARC
  5
326
330
1F
100
AcDbEntity
  8
0
  6
Continuous
 62
     7
370
    25
100
AcDbCircle
 10
43.2593535338
 20
91.4463019206
 30
0.0
 40
3.0
100
AcDbArc
 50
0.0
 51
90.0
  0
LINE
  5
327
330
1F
100
AcDbEntity
  8
0
  6
Continuous
 62
     7
370
    25
100
AcDbLine
 10
46.2593535338
 20
91.4463019206
 30
0.0
 11
46.2593535338
 21
90.4463019206
 31
0.0
  0
ARC
  5
328
330
1F
100
AcDbEntity
  8
0
  6
Continuous
 62
     7
370
    25
100
AcDbCircle
 10
49.2593535338
 20
90.4463019206
 30
0.0
 40
3.000000000000007
100
AcDbArc
 50
180.0
 51
270.0
  0
LINE
  5
329
330
1F
100
AcDbEntity
  8
0
  6
Continuous
 62
     7
370
    25
100
AcDbLine
 10
49.2593535338
 20
87.4463019206
 30
0.0
 11
61.2593535338
 21
87.4463019206
 31
0.0
  0
ARC
  5
32A
330
1F
100
AcDbEntity
  8
0
  6
Continuous
 62
     7
370
    25
100
AcDbCircle
 10
61.2593535338
 20
90.4463019206
 30
0.0
 40
2.999999999999986
100
AcDbArc
 50
270.0
 51
312.3694630984
  0
SPLINE
  5
32B
330
1F
100
AcDbEntity
  8
0
  6
Continuous
 62
     7
370
    25
100
AcDbSpline
210
0.0
220
0.0
230
1.0
 70
     8
 71
     3
 72
    20
 73
    16
 74
     0
 42
0.000000001
 43
0.00000001
 40
0.0
 40
0.0
 40
0.0
 40
0.0
 40
0.1250000000000013
 40
0.1250000000000013
 40
0.2500000000000026
 40
0.2500000000000026
 40
0.3750000000000038
 40
0.3750000000000038
 40
0.5000000000000051
 40
0.5000000000000051
 40
0.7500000000000077
 40
0.7500000000000077
 40
0.8750000000000038
 40
0.8750000000000038
 40
1.0
 40
1.0
 40
1.0
 40
1.0
 10
20.65935353379139
 20
82.4463019206162
 30
0.0
 10
20.62031280293674
 20
82.44630192061618
 30
0.0
 10
20.58179409873717
 20
82.46183848109104
 30
0.0
 10
20.50438734742916
 20
82.52315683305163
 30
0.0
 10
20.46524292944246
 20
82.56958057863844
 30
0.0
 10
20.38809217552723
 20
82.68953144879254
 30
0.0
 10
20.34976459378623
 20
82.76313609307597
 30
0.0
 10
20.27221827330966
 20
82.9378664591716
 30
0.0
 10
20.23324206564092
 20
83.03871708807317
 30
0.0
 10
20.11774720919601
 20
83.3700023680571
 30
0.0
 10
20.03983476552595
 20
83.63768252944095
 30
0.0
 10
19.924354840125
 20
84.07035655549636
 30
0.0
 10
19.88548904425991
 20
84.22187464234749
 30
0.0
 10
19.80771471059128
 20
84.53130039973361
 30
0.0
 10
19.76910494363654
 20
84.68792272942744
 30
0.0
 10
19.73006421190998
 20
84.84630192061618
 30
0.0
  0
LINE
  5
32C
330
1F
100
AcDbEntity
  8
0
  6
Continuous
 62
     7
370
    25
100
AcDbLine
 10
810.8593535338
 20
82.4463019206
 30
0.0
 11
20.6593535338
 21
82.4463019206
 31
0.0
  0
SPLINE
  5
32D
330
1F
100
AcDbEntity
  8
0
  6
Continuous
 62
     7
370
    25
100
AcDbSpline
210
0.0
220
0.0
230
1.0
 70
     8
 71
     3
 72
    20
 73
    16
 74
     0
 42
0.000000001
 43
0.00000001
 40
0.0
 40
0.0
 40
0.0
 40
0.0
 40
0.1249999999999987
 40
0.1249999999999987
 40
0.2499999999999974
 40
0.2499999999999974
 40
0.3749999999999962
 40
0.3749999999999962
 40
0.4999999999999949
 40
0.4999999999999949
 40
0.7499999999999923
 40
0.7499999999999923
 40
0.8749999999999961
 40
0.8749999999999961
 40
1.0
 40
1.0
 40
1.0
 40
1.0
 10
811.7886428556726
 20
84.84630192061607
 30
0.0
 10
811.7496021248182
 20
84.68792273296538
 30
0.0
 10
811.7110834206184
 20
84.53167700827366
 30
0.0
 10
811.6336766693104
 20
84.22368515885708
 30
0.0
 10
811.5945322513236
 20
84.07104105138598
 30
0.0
 10
811.5173814974086
 20
83.78195676219892
 30
0.0
 10
811.4790539156678
 20
83.64415222401489
 30
0.0
 10
811.401507595191
 20
83.38253354837602
 30
0.0
 10
811.3625313875224
 20
83.25978724169337
 30
0.0
 10
811.2470365310774
 20
82.92846286474568
 30
0.0
 10
811.169124087407
 20
82.74945174071749
 30
0.0
 10
811.0536441620062
 20
82.5698366413366
 30
0.0
 10
811.0147783661413
 20
82.52359229246888
 30
0.0
 10
810.9370040324729
 20
82.46183898645765
 30
0.0
 10
810.8983942655182
 20
82.4463019206162
 30
0.0
 10
810.8593535337914
 20
82.4463019206162
 30
0.0
  0
SPLINE
  5
32E
330
1F
100
AcDbEntity
  8
0
  6
Continuous
 62
     7
370
    25
100
AcDbSpline
210
0.0
220
0.0
230
1.0
 70
     8
 71
     3
 72
     9
 73
     5
 74
     0
 42
0.000000001
 43
0.00000001
 40
0.0
 40
0.0
 40
0.0
 40
0.0
 40
0.4825784287293757
 40
1.0
 40
1.0
 40
1.0
 40
1.0
 10
811.6355237657377
 20
84.23376218143794
 30
0.0
 10
811.6993319587991
 20
84.32189652275439
 30
0.0
 10
811.8315554260383
 20
84.50452868380748
 30
0.0
 10
811.8498747304949
 20
84.72976156785202
 30
0.0
 10
811.8593535337914
 20
84.84630192061618
 30
0.0
  0
LINE
  5
32F
330
1F
100
AcDbEntity
  8
0
  6
Continuous
 62
     7
370
    25
100
AcDbLine
 10
813.2593535338
 20
84.8463019206
 30
0.0
 11
811.8593535338
 21
84.8463019206
 31
0.0
  0
SPLINE
  5
330
330
1F
100
AcDbEntity
  8
0
  6
Continuous
 62
     7
370
    25
100
AcDbSpline
210
0.0
220
0.0
230
1.0
 70
     8
 71
     3
 72
    20
 73
    16
 74
     0
 42
0.000000001
 43
0.00000001
 40
0.0
 40
0.0
 40
0.0
 40
0.0
 40
0.1249999999999948
 40
0.1249999999999948
 40
0.2499999999999897
 40
0.2499999999999897
 40
0.3749999999999845
 40
0.3749999999999845
 40
0.4999999999999793
 40
0.4999999999999793
 40
0.749999999999998
 40
0.749999999999998
 40
0.8749999999999989
 40
0.8749999999999989
 40
1.0
 40
1.0
 40
1.0
 40
1.0
 10
810.8593535337914
 20
82.44630192061616
 30
0.0
 10
811.017732721442
 20
82.44630192061616
 30
0.0
 10
811.1739784461337
 20
82.46183848109102
 30
0.0
 10
811.4819702955502
 20
82.52315683305163
 30
0.0
 10
811.6346144030214
 20
82.56958057863842
 30
0.0
 10
811.9236986922085
 20
82.68953144879254
 30
0.0
 10
812.0615032303926
 20
82.76313609307599
 30
0.0
 10
812.3231219060314
 20
82.93786645917162
 30
0.0
 10
812.445868212714
 20
83.03871708807318
 30
0.0
 10
812.7771925896618
 20
83.37000236805711
 30
0.0
 10
812.9562037136901
 20
83.637682529441
 30
0.0
 10
813.1358188130711
 20
84.07035655549642
 30
0.0
 10
813.1820631619387
 20
84.22187464234754
 30
0.0
 10
813.24381646795
 20
84.53130039973365
 30
0.0
 10
813.2593535337915
 20
84.68792272942743
 30
0.0
 10
813.2593535337913
 20
84.84630192061618
 30
0.0
  0
SPLINE
  5
331
330
1F
100
AcDbEntity
  8
0
  6
Continuous
 62
     7
370
    25
100
AcDbSpline
210
0.0
220
0.0
230
1.0
 70
     8
 71
     3
 72
    20
 73
    16
 74
     0
 42
0.000000001
 43
0.00000001
 40
0.0
 40
0.0
 40
0.0
 40
0.0
 40
0.1250000000000001
 40
0.1250000000000001
 40
0.2500000000000002
 40
0.2500000000000002
 40
0.3750000000000002
 40
0.3750000000000002
 40
0.5000000000000003
 40
0.5000000000000003
 40
0.7500000000000004
 40
0.7500000000000004
 40
0.8750000000000002
 40
0.8750000000000002
 40
1.0
 40
1.0
 40
1.0
 40
1.0
 10
18.25935353379132
 20
84.84630192061617
 30
0.0
 10
18.25935353379138
 20
84.68792273296546
 30
0.0
 10
18.27489009426619
 20
84.53167700827379
 30
0.0
 10
18.33620844622657
 20
84.22368515885717
 30
0.0
 10
18.38263219181357
 20
84.07104105138603
 30
0.0
 10
18.50258306196761
 20
83.78195676219896
 30
0.0
 10
18.57618770625113
 20
83.64415222401493
 30
0.0
 10
18.75091807234686
 20
83.38253354837602
 30
0.0
 10
18.85176870124827
 20
83.25978724169336
 30
0.0
 10
19.18305398123227
 20
82.92846286474567
 30
0.0
 10
19.45073414261617
 20
82.74945174071743
 30
0.0
 10
19.88340816867151
 20
82.56983664133656
 30
0.0
 10
20.03492625552261
 20
82.52359229246883
 30
0.0
 10
20.34435201290868
 20
82.46183898645762
 30
0.0
 10
20.50097434260245
 20
82.44630192061618
 30
0.0
 10
20.65935353379134
 20
82.44630192061618
 30
0.0
  0
LINE
  5
332
330
1F
100
AcDbEntity
  8
0
  6
Continuous
 62
     7
370
    25
100
AcDbLine
 10
18.2593535338
 20
84.8463019206
 30
0.0
 11
19.6593535338
 21
84.8463019206
 31
0.0
  0
SPLINE
  5
333
330
1F
100
AcDbEntity
  8
0
  6
Continuous
 62
     7
370
    25
100
AcDbSpline
210
0.0
220
0.0
230
1.0
 70
     8
 71
     3
 72
     9
 73
     5
 74
     0
 42
0.000000001
 43
0.00000001
 40
0.0
 40
0.0
 40
0.0
 40
0.0
 40
0.6784508005729234
 40
1.0
 40
1.0
 40
1.0
 40
1.0
 10
19.65935353379134
 20
84.84630192061618
 30
0.0
 10
19.67260310425578
 20
84.69559471616287
 30
0.0
 10
19.69213225869593
 20
84.47346040026845
 30
0.0
 10
19.8329799123349
 20
84.3066272953793
 30
0.0
 10
19.87826936260367
 20
84.25298224406426
 30
0.0
  0
LINE
  5
334
330
1F
100
AcDbEntity
  8
0
  6
Continuous
 62
     7
370
    25
100
AcDbLine
 10
811.8593535338
 20
84.8463019206
 30
0.0
 11
811.8593535338
 21
94.4463019206
 31
0.0
  0
LINE
  5
335
330
1F
100
AcDbEntity
  8
0
  6
Continuous
 62
     7
370
    25
100
AcDbLine
 10
813.2593535338
 20
94.4463019206
 30
0.0
 11
811.8593535338
 21
94.4463019206
 31
0.0
  0
LINE
  5
336
330
1F
100
AcDbEntity
  8
0
  6
Continuous
 62
     7
370
    25
100
AcDbLine
 10
813.2593535338
 20
84.8463019206
 30
0.0
 11
813.2593535338
 21
94.4463019206
 31
0.0
  0
LINE
  5
337
330
1F
100
AcDbEntity
  8
0
  6
Continuous
 62
     7
370
    25
100
AcDbLine
 10
19.6593535338
 20
84.8463019206
 30
0.0
 11
19.6593535338
 21
94.4463019206
 31
0.0
  0
LINE
  5
338
330
1F
100
AcDbEntity
  8
0
  6
Continuous
 62
     7
370
    25
100
AcDbLine
 10
18.2593535338
 20
84.8463019206
 30
0.0
 11
18.2593535338
 21
94.4463019206
 31
0.0
  0
LINE
  5
339
330
1F
100
AcDbEntity
  8
0
  6
Continuous
 62
     7
370
    25
100
AcDbLine
 10
18.2593535338
 20
94.4463019206
 30
0.0
 11
19.6593535338
 21
94.4463019206
 31
0.0
  0
LINE
  5
33A
330
1F
100
AcDbEntity
  8
0
  6
Continuous
 62
     7
370
    25
100
AcDbLine
 10
767.9593535338
 20
118.5463019206
 30
0.0
 11
767.9593535338
 21
121.5463019206
 31
0.0
  0
LINE
  5
33B
330
1F
100
AcDbEntity
  8
0
  6
Continuous
 62
     7
370
    25
100
AcDbLine
 10
767.9593535338
 20
121.5463019206
 30
0.0
 11
768.7593535338
 21
121.5463019206
 31
0.0
  0
LINE
  5
33C
330
1F
100
AcDbEntity
  8
0
  6
Continuous
 62
     7
370
    25
100
AcDbLine
 10
768.7593535338
 20
121.5463019206
 30
0.0
 11
768.7593535338
 21
118.5463019206
 31
0.0
  0
LINE
  5
33D
330
1F
100
AcDbEntity
  8
0
  6
Continuous
 62
     7
370
    25
100
AcDbLine
 10
62.7593535338
 20
121.5463019206
 30
0.0
 11
63.5593535338
 21
121.5463019206
 31
0.0
  0
LINE
  5
33E
330
1F
100
AcDbEntity
  8
0
  6
Continuous
 62
     7
370
    25
100
AcDbLine
 10
62.7593535338
 20
118.5463019206
 30
0.0
 11
62.7593535338
 21
121.5463019206
 31
0.0
  0
LINE
  5
33F
330
1F
100
AcDbEntity
  8
0
  6
Continuous
 62
     7
370
    25
100
AcDbLine
 10
63.5593535338
 20
121.5463019206
 30
0.0
 11
63.5593535338
 21
118.5463019206
 31
0.0
  0
LINE
  5
340
330
1F
100
AcDbEntity
  8
0
  6
Continuous
 62
     7
370
    25
100
AcDbLine
 10
768.7593535338
 20
118.5463019206
 30
0.0
 11
768.7593535338
 21
101.5463019206
 31
0.0
  0
LINE
  5
341
330
1F
100
AcDbEntity
  8
0
  6
Continuous
 62
     7
370
    25
100
AcDbLine
 10
767.9593535338
 20
118.5463019206
 30
0.0
 11
767.9593535338
 21
101.5463019206
 31
0.0
  0
LINE
  5
342
330
1F
100
AcDbEntity
  8
0
  6
Continuous
 62
     7
370
    25
100
AcDbLine
 10
62.7593535338
 20
101.5463019206
 30
0.0
 11
62.7593535338
 21
118.5463019206
 31
0.0
  0
LINE
  5
343
330
1F
100
AcDbEntity
  8
0
  6
Continuous
 62
     7
370
    25
100
AcDbLine
 10
63.5593535338
 20
101.5463019206
 30
0.0
 11
63.5593535338
 21
118.5463019206
 31
0.0
  0
LINE
  5
344
330
1F
100
AcDbEntity
  8
0
  6
Continuous
 62
     7
370
    25
100
AcDbLine
 10
768.7593535338
 20
98.5463019206
 30
0.0
 11
767.9593535338
 21
98.5463019206
 31
0.0
  0
LINE
  5
345
330
1F
100
AcDbEntity
  8
0
  6
Continuous
 62
     7
370
    25
100
AcDbLine
 10
768.7593535338
 20
101.5463019206
 30
0.0
 11
768.7593535338
 21
98.5463019206
 31
0.0
  0
LINE
  5
346
330
1F
100
AcDbEntity
  8
0
  6
Continuous
 62
     7
370
    25
100
AcDbLine
 10
767.9593535338
 20
98.5463019206
 30
0.0
 11
767.9593535338
 21
101.5463019206
 31
0.0
  0
LINE
  5
347
330
1F
100
AcDbEntity
  8
0
  6
Continuous
 62
     7
370
    25
100
AcDbLine
 10
63.5593535338
 20
98.5463019206
 30
0.0
 11
62.7593535338
 21
98.5463019206
 31
0.0
  0
LINE
  5
348
330
1F
100
AcDbEntity
  8
0
  6
Continuous
 62
     7
370
    25
100
AcDbLine
 10
62.7593535338
 20
98.5463019206
 30
0.0
 11
62.7593535338
 21
101.5463019206
 31
0.0
  0
LINE
  5
349
330
1F
100
AcDbEntity
  8
0
  6
Continuous
 62
     7
370
    25
100
AcDbLine
 10
63.5593535338
 20
101.5463019206
 30
0.0
 11
63.5593535338
 21
98.5463019206
 31
0.0
  0
LINE
  5
34A
330
1F
100
AcDbEntity
  8
0
  6
Continuous
 62
     7
370
    25
100
AcDbLine
 10
65.7593535338
 20
100.5463019206
 30
0.0
 11
65.7593535338
 21
101.3463019206
 31
0.0
  0
LINE
  5
34B
330
1F
100
AcDbEntity
  8
0
  6
Continuous
 62
     7
370
    25
100
AcDbLine
 10
765.7593535338
 20
100.5463019206
 30
0.0
 11
765.7593535338
 21
101.3463019206
 31
0.0
  0
LINE
  5
34C
330
1F
100
AcDbEntity
  8
0
  6
Continuous
 62
     7
370
    25
100
AcDbLine
 10
765.7593535338
 20
101.3463019206
 30
0.0
 11
65.7593535338
 21
101.3463019206
 31
0.0
  0
LINE
  5
34D
330
1F
100
AcDbEntity
  8
0
  6
Continuous
 62
     7
370
    25
100
AcDbLine
 10
340.7593535338
 20
141.4509153124
 30
0.0
 11
340.7593535338
 21
134.9332238588
 31
0.0
  0
ARC
  5
34E
330
1F
100
AcDbEntity
  8
0
  6
Continuous
 62
     7
370
    25
100
AcDbCircle
 10
343.7593535338
 20
141.4509153124
 30
0.0
 40
3.0
100
AcDbArc
 50
90.0
 51
180.0
  0
LINE
  5
34F
330
1F
100
AcDbEntity
  8
0
  6
Continuous
 62
     7
370
    25
100
AcDbLine
 10
487.7593535338
 20
144.4509153124
 30
0.0
 11
343.7593535338
 21
144.4509153124
 31
0.0
  0
ARC
  5
350
330
1F
100
AcDbEntity
  8
0
  6
Continuous
 62
     7
370
    25
100
AcDbCircle
 10
487.7593535338
 20
141.4509153124
 30
0.0
 40
3.0
100
AcDbArc
 50
0.0
 51
90.0
  0
LINE
  5
351
330
1F
100
AcDbEntity
  8
0
  6
Continuous
 62
     7
370
    25
100
AcDbLine
 10
490.7593535338
 20
134.9332238588
 30
0.0
 11
490.7593535338
 21
141.4509153124
 31
0.0
  0
LINE
  5
352
330
1F
100
AcDbEntity
  8
0
  6
Continuous
 62
     7
370
    25
100
AcDbLine
 10
561.2593535338
 20
141.4509153124
 30
0.0
 11
561.2593535338
 21
134.9332238588
 31
0.0
  0
ARC
  5
353
330
1F
100
AcDbEntity
  8
0
  6
Continuous
 62
     7
370
    25
100
AcDbCircle
 10
564.2593535338
 20
141.4509153124
 30
0.0
 40
3.0
100
AcDbArc
 50
90.0
 51
180.0
  0
LINE
  5
354
330
1F
100
AcDbEntity
  8
0
  6
Continuous
 62
     7
370
    25
100
AcDbLine
 10
711.2593535338
 20
134.9332238588
 30
0.0
 11
711.2593535338
 21
141.4509153124
 31
0.0
  0
LINE
  5
355
330
1F
100
AcDbEntity
  8
0
  6
Continuous
 62
     7
370
    25
100
AcDbLine
 10
708.2593535338
 20
144.4509153124
 30
0.0
 11
564.2593535338
 21
144.4509153124
 31
0.0
  0
ARC
  5
356
330
1F
100
AcDbEntity
  8
0
  6
Continuous
 62
     7
370
    25
100
AcDbCircle
 10
708.2593535338
 20
141.4509153124
 30
0.0
 40
3.000000000000114
100
AcDbArc
 50
0.0
 51
90.0
  0
LINE
  5
357
330
1F
100
AcDbEntity
  8
0
  6
Continuous
 62
     7
370
    25
100
AcDbLine
 10
120.2593535338
 20
141.4509153124
 30
0.0
 11
120.2593535338
 21
134.9332238588
 31
0.0
  0
ARC
  5
358
330
1F
100
AcDbEntity
  8
0
  6
Continuous
 62
     7
370
    25
100
AcDbCircle
 10
123.2593535338
 20
141.4509153124
 30
0.0
 40
3.0
100
AcDbArc
 50
90.0
 51
180.0
  0
LINE
  5
359
330
1F
100
AcDbEntity
  8
0
  6
Continuous
 62
     7
370
    25
100
AcDbLine
 10
270.2593535338
 20
134.9332238588
 30
0.0
 11
270.2593535338
 21
141.4509153124
 31
0.0
  0
ARC
  5
35A
330
1F
100
AcDbEntity
  8
0
  6
Continuous
 62
     7
370
    25
100
AcDbCircle
 10
267.2593535338
 20
141.4509153124
 30
0.0
 40
3.0
100
AcDbArc
 50
0.0
 51
90.0
  0
LINE
  5
35B
330
1F
100
AcDbEntity
  8
0
  6
Continuous
 62
     7
370
    25
100
AcDbLine
 10
267.2593535338
 20
144.4509153124
 30
0.0
 11
123.2593535338
 21
144.4509153124
 31
0.0
  0
LINE
  5
35C
330
1F
100
AcDbEntity
  8
0
  6
Continuous
 62
     7
370
    25
100
AcDbLine
 10
340.7593535338
 20
134.0332238588
 30
0.0
 11
340.7593535338
 21
134.9332238588
 31
0.0
  0
LINE
  5
35D
330
1F
100
AcDbEntity
  8
0
  6
Continuous
 62
     7
370
    25
100
AcDbLine
 10
490.7593535338
 20
134.9332238588
 30
0.0
 11
490.7593535338
 21
134.0332238588
 31
0.0
  0
LINE
  5
35E
330
1F
100
AcDbEntity
  8
0
  6
Continuous
 62
     7
370
    25
100
AcDbLine
 10
711.2593535338
 20
134.9332238588
 30
0.0
 11
711.2593535338
 21
134.0332238588
 31
0.0
  0
LINE
  5
35F
330
1F
100
AcDbEntity
  8
0
  6
Continuous
 62
     7
370
    25
100
AcDbLine
 10
561.2593535338
 20
134.0332238588
 30
0.0
 11
561.2593535338
 21
134.9332238588
 31
0.0
  0
LINE
  5
360
330
1F
100
AcDbEntity
  8
0
  6
Continuous
 62
     7
370
    25
100
AcDbLine
 10
120.2593535338
 20
134.0332238588
 30
0.0
 11
120.2593535338
 21
134.9332238588
 31
0.0
  0
LINE
  5
361
330
1F
100
AcDbEntity
  8
0
  6
Continuous
 62
     7
370
    25
100
AcDbLine
 10
270.2593535338
 20
134.9332238588
 30
0.0
 11
270.2593535338
 21
134.0332238588
 31
0.0
  0
LINE
  5
362
330
1F
100
AcDbEntity
  8
0
  6
Continuous
 62
     7
370
    25
100
AcDbLine
 10
120.2593535338
 20
127.4083527282
 30
0.0
 11
120.2593535338
 21
134.0332238588
 31
0.0
  0
LINE
  5
363
330
1F
100
AcDbEntity
  8
0
  6
Continuous
 62
     7
370
    25
100
AcDbLine
 10
270.2593535338
 20
134.0332238588
 30
0.0
 11
270.2593535338
 21
127.4083527282
 31
0.0
  0
LINE
  5
364
330
1F
100
AcDbEntity
  8
0
  6
Continuous
 62
     7
370
    25
100
AcDbLine
 10
561.2593535338
 20
127.4083527282
 30
0.0
 11
561.2593535338
 21
134.0332238588
 31
0.0
  0
LINE
  5
365
330
1F
100
AcDbEntity
  8
0
  6
Continuous
 62
     7
370
    25
100
AcDbLine
 10
711.2593535338
 20
134.0332238588
 30
0.0
 11
711.2593535338
 21
127.4083527282
 31
0.0
  0
LINE
  5
366
330
1F
100
AcDbEntity
  8
0
  6
Continuous
 62
     7
370
    25
100
AcDbLine
 10
490.7593535338
 20
134.0332238588
 30
0.0
 11
490.7593535338
 21
127.4083527282
 31
0.0
  0
LINE
  5
367
330
1F
100
AcDbEntity
  8
0
  6
Continuous
 62
     7
370
    25
100
AcDbLine
 10
340.7593535338
 20
127.4083527282
 30
0.0
 11
340.7593535338
 21
134.0332238588
 31
0.0
  0
LINE
  5
368
330
1F
100
AcDbEntity
  8
0
  6
Continuous
 62
     7
370
    25
100
AcDbLine
 10
63.5593535338
 20
102.5463019206
 30
0.0
 11
64.5593535338
 21
102.5463019206
 31
0.0
  0
LINE
  5
369
330
1F
100
AcDbEntity
  8
0
  6
Continuous
 62
     7
370
    25
100
AcDbLine
 10
64.5593535338
 20
121.5463019206
 30
0.0
 11
63.5593535338
 21
121.5463019206
 31
0.0
  0
LINE
  5
36A
330
1F
100
AcDbEntity
  8
0
  6
Continuous
 62
     7
370
    25
100
AcDbLine
 10
766.9593535338
 20
102.5463019206
 30
0.0
 11
767.9593535338
 21
102.5463019206
 31
0.0
  0
LINE
  5
36B
330
1F
100
AcDbEntity
  8
0
  6
Continuous
 62
     7
370
    25
100
AcDbLine
 10
767.9593535338
 20
121.5463019206
 30
0.0
 11
766.9593535338
 21
121.5463019206
 31
0.0
  0
LINE
  5
36C
330
1F
100
AcDbEntity
  8
0
  6
Continuous
 62
     7
370
    25
100
AcDbLine
 10
65.7593535338
 20
102.3463019206
 30
0.0
 11
65.7593535338
 21
101.3463019206
 31
0.0
  0
LINE
  5
36D
330
1F
100
AcDbEntity
  8
0
  6
Continuous
 62
     7
370
    25
100
AcDbLine
 10
765.7593535338
 20
101.3463019206
 30
0.0
 11
765.7593535338
 21
102.3463019206
 31
0.0
  0
LINE
  5
36E
330
1F
100
AcDbEntity
  8
0
  6
Continuous
 62
     7
370
    25
100
AcDbLine
 10
270.2593535338
 20
126.9083527282
 30
0.0
 11
270.2593535338
 21
127.4083527282
 31
0.0
  0
LINE
  5
36F
330
1F
100
AcDbEntity
  8
0
  6
Continuous
 62
     7
370
    25
100
AcDbLine
 10
120.2593535338
 20
127.4083527282
 30
0.0
 11
120.2593535338
 21
126.9083527282
 31
0.0
  0
LINE
  5
370
330
1F
100
AcDbEntity
  8
0
  6
Continuous
 62
     7
370
    25
100
AcDbLine
 10
711.2593535338
 20
126.9083527282
 30
0.0
 11
711.2593535338
 21
127.4083527282
 31
0.0
  0
LINE
  5
371
330
1F
100
AcDbEntity
  8
0
  6
Continuous
 62
     7
370
    25
100
AcDbLine
 10
561.2593535338
 20
127.4083527282
 30
0.0
 11
561.2593535338
 21
126.9083527282
 31
0.0
  0
LINE
  5
372
330
1F
100
AcDbEntity
  8
0
  6
Continuous
 62
     7
370
    25
100
AcDbLine
 10
490.7593535338
 20
126.9083527282
 30
0.0
 11
490.7593535338
 21
127.4083527282
 31
0.0
  0
LINE
  5
373
330
1F
100
AcDbEntity
  8
0
  6
Continuous
 62
     7
370
    25
100
AcDbLine
 10
340.7593535338
 20
127.4083527282
 30
0.0
 11
340.7593535338
 21
126.9083527282
 31
0.0
  0
LINE
  5
374
330
1F
100
AcDbEntity
  8
0
  6
Continuous
 62
     7
370
    25
100
AcDbLine
 10
65.7593535338
 20
102.5463019206
 30
0.0
 11
65.7593535338
 21
102.3463019206
 31
0.0
  0
LINE
  5
375
330
1F
100
AcDbEntity
  8
0
  6
Continuous
 62
     7
370
    25
100
AcDbLine
 10
64.5593535338
 20
102.5463019206
 30
0.0
 11
65.7593535338
 21
102.5463019206
 31
0.0
  0
LINE
  5
376
330
1F
100
AcDbEntity
  8
0
  6
Continuous
 62
     7
370
    25
100
AcDbLine
 10
67.7593535338
 20
121.5463019206
 30
0.0
 11
64.5593535338
 21
121.5463019206
 31
0.0
  0
LINE
  5
377
330
1F
100
AcDbEntity
  8
0
  6
Continuous
 62
     7
370
    25
100
AcDbLine
 10
67.7593535338
 20
142.5463019206
 30
0.0
 11
67.7593535338
 21
121.5463019206
 31
0.0
  0
ARC
  5
378
330
1F
100
AcDbEntity
  8
0
  6
Continuous
 62
     7
370
    25
100
AcDbCircle
 10
70.7593535338
 20
142.5463019206
 30
0.0
 40
3.0
100
AcDbArc
 50
90.0
 51
180.0
  0
LINE
  5
379
330
1F
100
AcDbEntity
  8
0
  6
Continuous
 62
     7
370
    25
100
AcDbLine
 10
114.7593535338
 20
145.5463019206
 30
0.0
 11
70.7593535338
 21
145.5463019206
 31
0.0
  0
ARC
  5
37A
330
1F
100
AcDbEntity
  8
0
  6
Continuous
 62
     7
370
    25
100
AcDbCircle
 10
114.7593535338
 20
142.5463019206
 30
0.0
 40
3.0
100
AcDbArc
 50
0.0
 51
90.0
  0
LINE
  5
37B
330
1F
100
AcDbEntity
  8
0
  6
Continuous
 62
     7
370
    25
100
AcDbLine
 10
117.7593535338
 20
142.5463019206
 30
0.0
 11
117.7593535338
 21
126.4163019206
 31
0.0
  0
LINE
  5
37C
330
1F
100
AcDbEntity
  8
0
  6
Continuous
 62
     7
370
    25
100
AcDbLine
 10
117.7593535338
 20
126.4163019206
 30
0.0
 11
120.2593535338
 21
126.4163019206
 31
0.0
  0
LINE
  5
37D
330
1F
100
AcDbEntity
  8
0
  6
Continuous
 62
     7
370
    25
100
AcDbLine
 10
120.2593535338
 20
126.9083527282
 30
0.0
 11
120.2593535338
 21
126.4163019206
 31
0.0
  0
LINE
  5
37E
330
1F
100
AcDbEntity
  8
0
  6
Continuous
 62
     7
370
    25
100
AcDbLine
 10
270.2593535338
 20
126.9083527282
 30
0.0
 11
270.2593535338
 21
126.4163019206
 31
0.0
  0
LINE
  5
37F
330
1F
100
AcDbEntity
  8
0
  6
Continuous
 62
     7
370
    25
100
AcDbLine
 10
270.2593535338
 20
126.4163019206
 30
0.0
 11
272.7593535338
 21
126.4163019206
 31
0.0
  0
LINE
  5
380
330
1F
100
AcDbEntity
  8
0
  6
Continuous
 62
     7
370
    25
100
AcDbLine
 10
272.7593535338
 20
126.4163019206
 30
0.0
 11
272.7593535338
 21
142.5463019206
 31
0.0
  0
ARC
  5
381
330
1F
100
AcDbEntity
  8
0
  6
Continuous
 62
     7
370
    25
100
AcDbCircle
 10
275.7593535338
 20
142.5463019206
 30
0.0
 40
3.0
100
AcDbArc
 50
90.0
 51
180.0
  0
LINE
  5
382
330
1F
100
AcDbEntity
  8
0
  6
Continuous
 62
     7
370
    25
100
AcDbLine
 10
335.2593535338
 20
145.5463019206
 30
0.0
 11
275.7593535338
 21
145.5463019206
 31
0.0
  0
ARC
  5
383
330
1F
100
AcDbEntity
  8
0
  6
Continuous
 62
     7
370
    25
100
AcDbCircle
 10
335.2593535338
 20
142.5463019206
 30
0.0
 40
3.0
100
AcDbArc
 50
0.0
 51
90.0
  0
LINE
  5
384
330
1F
100
AcDbEntity
  8
0
  6
Continuous
 62
     7
370
    25
100
AcDbLine
 10
338.2593535338
 20
142.5463019206
 30
0.0
 11
338.2593535338
 21
126.4163019206
 31
0.0
  0
LINE
  5
385
330
1F
100
AcDbEntity
  8
0
  6
Continuous
 62
     7
370
    25
100
AcDbLine
 10
338.2593535338
 20
126.4163019206
 30
0.0
 11
340.7593535338
 21
126.4163019206
 31
0.0
  0
LINE
  5
386
330
1F
100
AcDbEntity
  8
0
  6
Continuous
 62
     7
370
    25
100
AcDbLine
 10
340.7593535338
 20
126.9083527282
 30
0.0
 11
340.7593535338
 21
126.4163019206
 31
0.0
  0
LINE
  5
387
330
1F
100
AcDbEntity
  8
0
  6
Continuous
 62
     7
370
    25
100
AcDbLine
 10
490.7593535338
 20
126.9083527282
 30
0.0
 11
490.7593535338
 21
126.4163019206
 31
0.0
  0
LINE
  5
388
330
1F
100
AcDbEntity
  8
0
  6
Continuous
 62
     7
370
    25
100
AcDbLine
 10
490.7593535338
 20
126.4163019206
 30
0.0
 11
493.2593535338
 21
126.4163019206
 31
0.0
  0
LINE
  5
389
330
1F
100
AcDbEntity
  8
0
  6
Continuous
 62
     7
370
    25
100
AcDbLine
 10
493.2593535338
 20
126.4163019206
 30
0.0
 11
493.2593535338
 21
142.5463019206
 31
0.0
  0
ARC
  5
38A
330
1F
100
AcDbEntity
  8
0
  6
Continuous
 62
     7
370
    25
100
AcDbCircle
 10
496.2593535338
 20
142.5463019206
 30
0.0
 40
3.0
100
AcDbArc
 50
90.0
 51
180.0
  0
LINE
  5
38B
330
1F
100
AcDbEntity
  8
0
  6
Continuous
 62
     7
370
    25
100
AcDbLine
 10
555.7593535338
 20
145.5463019206
 30
0.0
 11
496.2593535338
 21
145.5463019206
 31
0.0
  0
ARC
  5
38C
330
1F
100
AcDbEntity
  8
0
  6
Continuous
 62
     7
370
    25
100
AcDbCircle
 10
555.7593535338
 20
142.5463019206
 30
0.0
 40
3.0
100
AcDbArc
 50
0.0
 51
90.0
  0
LINE
  5
38D
330
1F
100
AcDbEntity
  8
0
  6
Continuous
 62
     7
370
    25
100
AcDbLine
 10
558.7593535338
 20
142.5463019206
 30
0.0
 11
558.7593535338
 21
126.4163019206
 31
0.0
  0
LINE
  5
38E
330
1F
100
AcDbEntity
  8
0
  6
Continuous
 62
     7
370
    25
100
AcDbLine
 10
558.7593535338
 20
126.4163019206
 30
0.0
 11
561.2593535338
 21
126.4163019206
 31
0.0
  0
LINE
  5
38F
330
1F
100
AcDbEntity
  8
0
  6
Continuous
 62
     7
370
    25
100
AcDbLine
 10
561.2593535338
 20
126.9083527282
 30
0.0
 11
561.2593535338
 21
126.4163019206
 31
0.0
  0
LINE
  5
390
330
1F
100
AcDbEntity
  8
0
  6
Continuous
 62
     7
370
    25
100
AcDbLine
 10
711.2593535338
 20
126.9083527282
 30
0.0
 11
711.2593535338
 21
126.4163019206
 31
0.0
  0
LINE
  5
391
330
1F
100
AcDbEntity
  8
0
  6
Continuous
 62
     7
370
    25
100
AcDbLine
 10
711.2593535338
 20
126.4163019206
 30
0.0
 11
713.7593535338
 21
126.4163019206
 31
0.0
  0
LINE
  5
392
330
1F
100
AcDbEntity
  8
0
  6
Continuous
 62
     7
370
    25
100
AcDbLine
 10
713.7593535338
 20
126.4163019206
 30
0.0
 11
713.7593535338
 21
142.5463019206
 31
0.0
  0
ARC
  5
393
330
1F
100
AcDbEntity
  8
0
  6
Continuous
 62
     7
370
    25
100
AcDbCircle
 10
716.7593535338
 20
142.5463019206
 30
0.0
 40
3.0
100
AcDbArc
 50
90.0
 51
180.0
  0
LINE
  5
394
330
1F
100
AcDbEntity
  8
0
  6
Continuous
 62
     7
370
    25
100
AcDbLine
 10
760.7593535338
 20
145.5463019206
 30
0.0
 11
716.7593535338
 21
145.5463019206
 31
0.0
  0
ARC
  5
395
330
1F
100
AcDbEntity
  8
0
  6
Continuous
 62
     7
370
    25
100
AcDbCircle
 10
760.7593535338
 20
142.5463019206
 30
0.0
 40
3.000000000000114
100
AcDbArc
 50
0.0
 51
90.0
  0
LINE
  5
396
330
1F
100
AcDbEntity
  8
0
  6
Continuous
 62
     7
370
    25
100
AcDbLine
 10
763.7593535338
 20
121.5463019206
 30
0.0
 11
763.7593535338
 21
142.5463019206
 31
0.0
  0
LINE
  5
397
330
1F
100
AcDbEntity
  8
0
  6
Continuous
 62
     7
370
    25
100
AcDbLine
 10
766.9593535338
 20
121.5463019206
 30
0.0
 11
763.7593535338
 21
121.5463019206
 31
0.0
  0
LINE
  5
398
330
1F
100
AcDbEntity
  8
0
  6
Continuous
 62
     7
370
    25
100
AcDbLine
 10
765.7593535338
 20
102.5463019206
 30
0.0
 11
766.9593535338
 21
102.5463019206
 31
0.0
  0
LINE
  5
399
330
1F
100
AcDbEntity
  8
0
  6
Continuous
 62
     7
370
    25
100
AcDbLine
 10
765.7593535338
 20
102.3463019206
 30
0.0
 11
765.7593535338
 21
102.5463019206
 31
0.0
  0
SPLINE
  5
39A
330
1F
100
AcDbEntity
  8
0
  6
Continuous
 62
     7
370
    25
100
AcDbSpline
210
0.0
220
0.0
230
1.0
 70
     8
 71
     3
 72
    12
 73
     8
 74
     0
 42
0.000000001
 43
0.00000001
 40
0.0
 40
0.0
 40
0.0
 40
0.0
 40
0.5000000000000189
 40
0.5000000000000189
 40
0.7500000000000094
 40
0.7500000000000094
 40
1.0
 40
1.0
 40
1.0
 40
1.0
 10
750.3950932566468
 20
104.1316219352311
 30
0.0
 10
749.7785628667266
 20
104.3221162246546
 30
0.0
 10
749.1527949942766
 20
104.443790637717
 30
0.0
 10
748.1897332848916
 20
104.4444468282482
 30
0.0
 10
747.869040249762
 20
104.4146128264539
 30
0.0
 10
747.2390819997661
 20
104.3056829563463
 30
0.0
 10
746.9278527317351
 20
104.2269877692834
 30
0.0
 10
746.6192034014506
 20
104.1316219352307
 30
0.0
  0
LINE
  5
39B
330
1F
100
AcDbEntity
  8
0
  6
Continuous
 62
     7
370
    25
100
AcDbLine
 10
750.3950932566
 20
104.1316219352
 30
0.0
 11
750.3950932566
 21
101.960981906
 31
0.0
  0
SPLINE
  5
39C
330
1F
100
AcDbEntity
  8
0
  6
Continuous
 62
     7
370
    25
100
AcDbSpline
210
0.0
220
0.0
230
1.0
 70
     8
 71
     3
 72
    12
 73
     8
 74
     0
 42
0.000000001
 43
0.00000001
 40
0.0
 40
0.0
 40
0.0
 40
0.0
 40
0.5000000000000189
 40
0.5000000000000189
 40
0.7500000000000094
 40
0.7500000000000094
 40
1.0
 40
1.0
 40
1.0
 40
1.0
 10
746.6192034014505
 20
101.9609819060012
 30
0.0
 10
747.2357337913709
 20
101.7704876165777
 30
0.0
 10
747.8615016638206
 20
101.6488132035153
 30
0.0
 10
748.8245633732054
 20
101.6481570129841
 30
0.0
 10
749.1452564083352
 20
101.6779910147785
 30
0.0
 10
749.775214658331
 20
101.786920884886
 30
0.0
 10
750.0864439263619
 20
101.8656160719489
 30
0.0
 10
750.3950932566466
 20
101.9609819060017
 30
0.0
  0
LINE
  5
39D
330
1F
100
AcDbEntity
  8
0
  6
Continuous
 62
     7
370
    25
100
AcDbLine
 10
746.6192034015
 20
104.1316219352
 30
0.0
 11
746.6192034015
 21
101.960981906
 31
0.0
  0
SPLINE
  5
39E
330
1F
100
AcDbEntity
  8
0
  6
Continuous
 62
     7
370
    25
100
AcDbSpline
210
0.0
220
0.0
230
1.0
 70
     8
 71
     3
 72
    14
 73
    10
 74
     0
 42
0.000000001
 43
0.00000001
 40
0.0
 40
0.0
 40
0.0
 40
0.0
 40
0.25
 40
0.25
 40
0.5
 40
0.5
 40
0.75
 40
0.75
 40
1.0
 40
1.0
 40
1.0
 40
1.0
 10
750.3950932566465
 20
104.1316219352302
 30
0.0
 10
750.4471509655374
 20
104.2264965445408
 30
0.0
 10
750.5004845038656
 20
104.3061014694165
 30
0.0
 10
750.6074165114935
 20
104.4149380843107
 30
0.0
 10
750.6611698779412
 20
104.4442616900012
 30
0.0
 10
750.7693489293648
 20
104.4441969082556
 30
0.0
 10
750.824177625953
 20
104.4140407149293
 30
0.0
 10
750.9310846086125
 20
104.3044555135636
 30
0.0
 10
750.983506123585
 20
104.2259125397614
 30
0.0
 10
751.0352433889872
 20
104.1316219352301
 30
0.0
  0
SPLINE
  5
39F
330
1F
100
AcDbEntity
  8
0
  6
Continuous
 62
     7
370
    25
100
AcDbSpline
210
0.0
220
0.0
230
1.0
 70
     8
 71
     3
 72
    12
 73
     8
 74
     0
 42
0.000000001
 43
0.00000001
 40
0.0
 40
0.0
 40
0.0
 40
0.0
 40
0.4999999999999992
 40
0.4999999999999992
 40
0.7499999999999996
 40
0.7499999999999996
 40
1.0
 40
1.0
 40
1.0
 40
1.0
 10
746.6192034014507
 20
104.1316219352311
 30
0.0
 10
746.1071972497459
 20
104.3221162246546
 30
0.0
 10
745.5875197034776
 20
104.443790637717
 30
0.0
 10
744.7877318459151
 20
104.4444468282482
 30
0.0
 10
744.5214078990671
 20
104.4146128264538
 30
0.0
 10
743.9982503960656
 20
104.3056829563463
 30
0.0
 10
743.7397857649173
 20
104.2269877692834
 30
0.0
 10
743.4834636785952
 20
104.1316219352306
 30
0.0
  0
SPLINE
  5
3A0
330
1F
100
AcDbEntity
  8
0
  6
Continuous
 62
     7
370
    25
100
AcDbSpline
210
0.0
220
0.0
230
1.0
 70
     8
 71
     3
 72
     9
 73
     5
 74
     0
 42
0.000000001
 43
0.00000001
 40
0.0
 40
0.0
 40
0.0
 40
0.0
 40
0.3722348086954454
 40
1.0
 40
1.0
 40
1.0
 40
1.0
 10
743.4834636785953
 20
104.1316219352302
 30
0.0
 10
743.5114299122671
 20
104.1835462440037
 30
0.0
 10
743.586560536858
 20
104.3230396700902
 30
0.0
 10
743.6651043950146
 20
104.3310483961954
 30
0.0
 10
743.7144114951561
 20
104.3360759956708
 30
0.0
  0
LINE
  5
3A1
330
1F
100
AcDbEntity
  8
0
  6
Continuous
 62
     7
370
    25
100
AcDbLine
 10
750.4093535338
 20
104.6463019206
 30
0.0
 11
744.1093535338
 21
104.6463019206
 31
0.0
  0
SPLINE
  5
3A2
330
1F
100
AcDbEntity
  8
0
  6
Continuous
 62
     7
370
    25
100
AcDbSpline
210
0.0
220
0.0
230
1.0
 70
     8
 71
     3
 72
     9
 73
     5
 74
     0
 42
0.000000001
 43
0.00000001
 40
0.0
 40
0.0
 40
0.0
 40
0.0
 40
0.6277651913045432
 40
1.0
 40
1.0
 40
1.0
 40
1.0
 10
743.714411495156
 20
101.7565278455615
 30
0.0
 10
743.6651043950145
 20
101.761555445037
 30
0.0
 10
743.5865605368579
 20
101.7695641711421
 30
0.0
 10
743.5114299122672
 20
101.9090575972286
 30
0.0
 10
743.4834636785953
 20
101.9609819060022
 30
0.0
  0
SPLINE
  5
3A3
330
1F
100
AcDbEntity
  8
0
  6
Continuous
 62
     7
370
    25
100
AcDbSpline
210
0.0
220
0.0
230
1.0
 70
     8
 71
     3
 72
    12
 73
     8
 74
     0
 42
0.000000001
 43
0.00000001
 40
0.0
 40
0.0
 40
0.0
 40
0.0
 40
0.4999999999999992
 40
0.4999999999999992
 40
0.7499999999999996
 40
0.7499999999999996
 40
1.0
 40
1.0
 40
1.0
 40
1.0
 10
743.4834636785952
 20
101.9609819060012
 30
0.0
 10
743.9954698303001
 20
101.7704876165777
 30
0.0
 10
744.5151473765684
 20
101.6488132035153
 30
0.0
 10
745.3149352341309
 20
101.6481570129841
 30
0.0
 10
745.5812591809788
 20
101.6779910147785
 30
0.0
 10
746.1044166839803
 20
101.7869208848861
 30
0.0
 10
746.3628813151287
 20
101.8656160719489
 30
0.0
 10
746.6192034014507
 20
101.9609819060017
 30
0.0
  0
SPLINE
  5
3A4
330
1F
100
AcDbEntity
  8
0
  6
Continuous
 62
     7
370
    25
100
AcDbSpline
210
0.0
220
0.0
230
1.0
 70
     8
 71
     3
 72
    14
 73
    10
 74
     0
 42
0.000000001
 43
0.00000001
 40
0.0
 40
0.0
 40
0.0
 40
0.0
 40
0.25
 40
0.25
 40
0.5
 40
0.5
 40
0.75
 40
0.75
 40
1.0
 40
1.0
 40
1.0
 40
1.0
 10
750.3950932566465
 20
101.9609819060022
 30
0.0
 10
750.4471509655374
 20
101.8661072966916
 30
0.0
 10
750.5004845038656
 20
101.7865023718158
 30
0.0
 10
750.6074165114935
 20
101.6776657569216
 30
0.0
 10
750.6611698779412
 20
101.6483421512311
 30
0.0
 10
750.7693489293648
 20
101.6484069329767
 30
0.0
 10
750.824177625953
 20
101.678563126303
 30
0.0
 10
750.9310846086125
 20
101.7881483276688
 30
0.0
 10
750.983506123585
 20
101.8666913014709
 30
0.0
 10
751.0352433889872
 20
101.9609819060022
 30
0.0
  0
LINE
  5
3A5
330
1F
100
AcDbEntity
  8
0
  6
Continuous
 62
     7
370
    25
100
AcDbLine
 10
750.4093535338
 20
101.4463019206
 30
0.0
 11
744.1093535338
 21
101.4463019206
 31
0.0
  0
LINE
  5
3A6
330
1F
100
AcDbEntity
  8
0
  6
Continuous
 62
     7
370
    25
100
AcDbLine
 10
743.4834636786
 20
104.1316219352
 30
0.0
 11
743.4834636786
 21
101.960981906
 31
0.0
  0
LINE
  5
3A7
330
1F
100
AcDbEntity
  8
0
  6
Continuous
 62
     7
370
    25
100
AcDbLine
 10
751.035243389
 20
104.1316219352
 30
0.0
 11
751.035243389
 21
101.960981906
 31
0.0
  0
SPLINE
  5
3A8
330
1F
100
AcDbEntity
  8
0
  6
Continuous
 62
     7
370
    25
100
AcDbSpline
210
0.0
220
0.0
230
1.0
 70
     8
 71
     3
 72
    12
 73
     8
 74
     0
 42
0.000000001
 43
0.00000001
 40
0.0
 40
0.0
 40
0.0
 40
0.0
 40
0.4999999999999958
 40
0.4999999999999958
 40
0.7499999999999979
 40
0.7499999999999979
 40
1.0
 40
1.0
 40
1.0
 40
1.0
 10
307.3950932566468
 20
104.1316219352312
 30
0.0
 10
306.7785628667265
 20
104.3221162246547
 30
0.0
 10
306.1527949942767
 20
104.4437906377171
 30
0.0
 10
305.1897332848918
 20
104.4444468282483
 30
0.0
 10
304.8690402497621
 20
104.4146128264539
 30
0.0
 10
304.2390819997662
 20
104.3056829563463
 30
0.0
 10
303.9278527317353
 20
104.2269877692834
 30
0.0
 10
303.6192034014506
 20
104.1316219352307
 30
0.0
  0
LINE
  5
3A9
330
1F
100
AcDbEntity
  8
0
  6
Continuous
 62
     7
370
    25
100
AcDbLine
 10
307.3950932566
 20
104.1316219352
 30
0.0
 11
307.3950932566
 21
101.960981906
 31
0.0
  0
SPLINE
  5
3AA
330
1F
100
AcDbEntity
  8
0
  6
Continuous
 62
     7
370
    25
100
AcDbSpline
210
0.0
220
0.0
230
1.0
 70
     8
 71
     3
 72
    12
 73
     8
 74
     0
 42
0.000000001
 43
0.00000001
 40
0.0
 40
0.0
 40
0.0
 40
0.0
 40
0.5000000000000052
 40
0.5000000000000052
 40
0.7500000000000026
 40
0.7500000000000026
 40
1.0
 40
1.0
 40
1.0
 40
1.0
 10
303.6192034014506
 20
101.9609819060012
 30
0.0
 10
304.2357337913709
 20
101.7704876165777
 30
0.0
 10
304.8615016638207
 20
101.6488132035153
 30
0.0
 10
305.8245633732055
 20
101.6481570129841
 30
0.0
 10
306.1452564083352
 20
101.6779910147785
 30
0.0
 10
306.7752146583313
 20
101.7869208848861
 30
0.0
 10
307.0864439263621
 20
101.8656160719489
 30
0.0
 10
307.3950932566468
 20
101.9609819060017
 30
0.0
  0
LINE
  5
3AB
330
1F
100
AcDbEntity
  8
0
  6
Continuous
 62
     7
370
    25
100
AcDbLine
 10
303.6192034015
 20
104.1316219352
 30
0.0
 11
303.6192034015
 21
101.960981906
 31
0.0
  0
SPLINE
  5
3AC
330
1F
100
AcDbEntity
  8
0
  6
Continuous
 62
     7
370
    25
100
AcDbSpline
210
0.0
220
0.0
230
1.0
 70
     8
 71
     3
 72
    14
 73
    10
 74
     0
 42
0.000000001
 43
0.00000001
 40
0.0
 40
0.0
 40
0.0
 40
0.0
 40
0.25
 40
0.25
 40
0.5
 40
0.5
 40
0.75
 40
0.75
 40
1.0
 40
1.0
 40
1.0
 40
1.0
 10
307.3950932566466
 20
104.1316219352302
 30
0.0
 10
307.4471509655375
 20
104.2264965445408
 30
0.0
 10
307.5004845038656
 20
104.3061014694165
 30
0.0
 10
307.6074165114937
 20
104.4149380843108
 30
0.0
 10
307.6611698779412
 20
104.4442616900013
 30
0.0
 10
307.7693489293649
 20
104.4441969082557
 30
0.0
 10
307.8241776259529
 20
104.4140407149293
 30
0.0
 10
307.9310846086128
 20
104.3044555135636
 30
0.0
 10
307.9835061235851
 20
104.2259125397614
 30
0.0
 10
308.0352433889872
 20
104.1316219352302
 30
0.0
  0
SPLINE
  5
3AD
330
1F
100
AcDbEntity
  8
0
  6
Continuous
 62
     7
370
    25
100
AcDbSpline
210
0.0
220
0.0
230
1.0
 70
     8
 71
     3
 72
    12
 73
     8
 74
     0
 42
0.000000001
 43
0.00000001
 40
0.0
 40
0.0
 40
0.0
 40
0.0
 40
0.5
 40
0.5
 40
0.75
 40
0.75
 40
1.0
 40
1.0
 40
1.0
 40
1.0
 10
303.6192034014509
 20
104.1316219352312
 30
0.0
 10
303.1071972497459
 20
104.3221162246547
 30
0.0
 10
302.5875197034777
 20
104.4437906377171
 30
0.0
 10
301.7877318459152
 20
104.4444468282483
 30
0.0
 10
301.5214078990671
 20
104.4146128264539
 30
0.0
 10
300.9982503960657
 20
104.3056829563463
 30
0.0
 10
300.7397857649174
 20
104.2269877692834
 30
0.0
 10
300.4834636785953
 20
104.1316219352307
 30
0.0
  0
SPLINE
  5
3AE
330
1F
100
AcDbEntity
  8
0
  6
Continuous
 62
     7
370
    25
100
AcDbSpline
210
0.0
220
0.0
230
1.0
 70
     8
 71
     3
 72
     9
 73
     5
 74
     0
 42
0.000000001
 43
0.00000001
 40
0.0
 40
0.0
 40
0.0
 40
0.0
 40
0.3722348086954444
 40
1.0
 40
1.0
 40
1.0
 40
1.0
 10
300.4834636785954
 20
104.1316219352302
 30
0.0
 10
300.5114299122671
 20
104.1835462440038
 30
0.0
 10
300.5865605368581
 20
104.3230396700903
 30
0.0
 10
300.6651043950146
 20
104.3310483961954
 30
0.0
 10
300.7144114951561
 20
104.3360759956709
 30
0.0
  0
LINE
  5
3AF
330
1F
100
AcDbEntity
  8
0
  6
Continuous
 62
     7
370
    25
100
AcDbLine
 10
307.4093535338
 20
104.6463019206
 30
0.0
 11
301.1093535338
 21
104.6463019206
 31
0.0
  0
SPLINE
  5
3B0
330
1F
100
AcDbEntity
  8
0
  6
Continuous
 62
     7
370
    25
100
AcDbSpline
210
0.0
220
0.0
230
1.0
 70
     8
 71
     3
 72
     9
 73
     5
 74
     0
 42
0.000000001
 43
0.00000001
 40
0.0
 40
0.0
 40
0.0
 40
0.0
 40
0.6277651913045457
 40
1.0
 40
1.0
 40
1.0
 40
1.0
 10
300.7144114951561
 20
101.7565278455615
 30
0.0
 10
300.6651043950146
 20
101.761555445037
 30
0.0
 10
300.586560536858
 20
101.7695641711421
 30
0.0
 10
300.5114299122671
 20
101.9090575972286
 30
0.0
 10
300.4834636785954
 20
101.9609819060022
 30
0.0
  0
SPLINE
  5
3B1
330
1F
100
AcDbEntity
  8
0
  6
Continuous
 62
     7
370
    25
100
AcDbSpline
210
0.0
220
0.0
230
1.0
 70
     8
 71
     3
 72
    12
 73
     8
 74
     0
 42
0.000000001
 43
0.00000001
 40
0.0
 40
0.0
 40
0.0
 40
0.0
 40
0.5
 40
0.5
 40
0.75
 40
0.75
 40
1.0
 40
1.0
 40
1.0
 40
1.0
 10
300.4834636785953
 20
101.9609819060012
 30
0.0
 10
300.9954698303002
 20
101.7704876165777
 30
0.0
 10
301.5151473765686
 20
101.6488132035153
 30
0.0
 10
302.314935234131
 20
101.6481570129841
 30
0.0
 10
302.581259180979
 20
101.6779910147785
 30
0.0
 10
303.1044166839804
 20
101.7869208848861
 30
0.0
 10
303.3628813151287
 20
101.8656160719489
 30
0.0
 10
303.6192034014508
 20
101.9609819060017
 30
0.0
  0
SPLINE
  5
3B2
330
1F
100
AcDbEntity
  8
0
  6
Continuous
 62
     7
370
    25
100
AcDbSpline
210
0.0
220
0.0
230
1.0
 70
     8
 71
     3
 72
    14
 73
    10
 74
     0
 42
0.000000001
 43
0.00000001
 40
0.0
 40
0.0
 40
0.0
 40
0.0
 40
0.25
 40
0.25
 40
0.5
 40
0.5
 40
0.75
 40
0.75
 40
1.0
 40
1.0
 40
1.0
 40
1.0
 10
307.3950932566466
 20
101.9609819060022
 30
0.0
 10
307.4471509655375
 20
101.8661072966916
 30
0.0
 10
307.5004845038656
 20
101.7865023718158
 30
0.0
 10
307.6074165114937
 20
101.6776657569216
 30
0.0
 10
307.6611698779412
 20
101.6483421512311
 30
0.0
 10
307.7693489293649
 20
101.6484069329767
 30
0.0
 10
307.8241776259529
 20
101.678563126303
 30
0.0
 10
307.9310846086128
 20
101.7881483276688
 30
0.0
 10
307.9835061235851
 20
101.8666913014709
 30
0.0
 10
308.0352433889872
 20
101.9609819060022
 30
0.0
  0
LINE
  5
3B3
330
1F
100
AcDbEntity
  8
0
  6
Continuous
 62
     7
370
    25
100
AcDbLine
 10
307.4093535338
 20
101.4463019206
 30
0.0
 11
301.1093535338
 21
101.4463019206
 31
0.0
  0
LINE
  5
3B4
330
1F
100
AcDbEntity
  8
0
  6
Continuous
 62
     7
370
    25
100
AcDbLine
 10
300.4834636786
 20
104.1316219352
 30
0.0
 11
300.4834636786
 21
101.960981906
 31
0.0
  0
LINE
  5
3B5
330
1F
100
AcDbEntity
  8
0
  6
Continuous
 62
     7
370
    25
100
AcDbLine
 10
308.035243389
 20
104.1316219352
 30
0.0
 11
308.035243389
 21
101.960981906
 31
0.0
  0
SPLINE
  5
3B6
330
1F
100
AcDbEntity
  8
0
  6
Continuous
 62
     7
370
    25
100
AcDbSpline
210
0.0
220
0.0
230
1.0
 70
     8
 71
     3
 72
    14
 73
    10
 74
     0
 42
0.000000001
 43
0.00000001
 40
0.0
 40
0.0
 40
0.0
 40
0.0
 40
0.25
 40
0.25
 40
0.5
 40
0.5
 40
0.75
 40
0.75
 40
1.0
 40
1.0
 40
1.0
 40
1.0
 10
530.3950932566465
 20
104.1316219352302
 30
0.0
 10
530.4471509655374
 20
104.2264965445408
 30
0.0
 10
530.5004845038654
 20
104.3061014694165
 30
0.0
 10
530.6074165114935
 20
104.4149380843107
 30
0.0
 10
530.6611698779411
 20
104.4442616900012
 30
0.0
 10
530.7693489293649
 20
104.4441969082556
 30
0.0
 10
530.8241776259528
 20
104.4140407149293
 30
0.0
 10
530.9310846086128
 20
104.3044555135636
 30
0.0
 10
530.983506123585
 20
104.2259125397614
 30
0.0
 10
531.0352433889872
 20
104.1316219352302
 30
0.0
  0
SPLINE
  5
3B7
330
1F
100
AcDbEntity
  8
0
  6
Continuous
 62
     7
370
    25
100
AcDbSpline
210
0.0
220
0.0
230
1.0
 70
     8
 71
     3
 72
    12
 73
     8
 74
     0
 42
0.000000001
 43
0.00000001
 40
0.0
 40
0.0
 40
0.0
 40
0.0
 40
0.4999999999999958
 40
0.4999999999999958
 40
0.7499999999999979
 40
0.7499999999999979
 40
1.0
 40
1.0
 40
1.0
 40
1.0
 10
530.3950932566466
 20
104.1316219352311
 30
0.0
 10
529.7785628667266
 20
104.3221162246547
 30
0.0
 10
529.1527949942767
 20
104.443790637717
 30
0.0
 10
528.1897332848919
 20
104.4444468282483
 30
0.0
 10
527.8690402497621
 20
104.4146128264539
 30
0.0
 10
527.2390819997661
 20
104.3056829563463
 30
0.0
 10
526.9278527317352
 20
104.2269877692834
 30
0.0
 10
526.6192034014506
 20
104.1316219352307
 30
0.0
  0
SPLINE
  5
3B8
330
1F
100
AcDbEntity
  8
0
  6
Continuous
 62
     7
370
    25
100
AcDbSpline
210
0.0
220
0.0
230
1.0
 70
     8
 71
     3
 72
    12
 73
     8
 74
     0
 42
0.000000001
 43
0.00000001
 40
0.0
 40
0.0
 40
0.0
 40
0.0
 40
0.5
 40
0.5
 40
0.75
 40
0.75
 40
1.0
 40
1.0
 40
1.0
 40
1.0
 10
526.6192034014507
 20
104.1316219352311
 30
0.0
 10
526.1071972497458
 20
104.3221162246546
 30
0.0
 10
525.5875197034776
 20
104.443790637717
 30
0.0
 10
524.7877318459151
 20
104.4444468282483
 30
0.0
 10
524.5214078990671
 20
104.4146128264539
 30
0.0
 10
523.9982503960656
 20
104.3056829563463
 30
0.0
 10
523.7397857649174
 20
104.2269877692834
 30
0.0
 10
523.4834636785953
 20
104.1316219352307
 30
0.0
  0
SPLINE
  5
3B9
330
1F
100
AcDbEntity
  8
0
  6
Continuous
 62
     7
370
    25
100
AcDbSpline
210
0.0
220
0.0
230
1.0
 70
     8
 71
     3
 72
     9
 73
     5
 74
     0
 42
0.000000001
 43
0.00000001
 40
0.0
 40
0.0
 40
0.0
 40
0.0
 40
0.3722348086954438
 40
0.9999999999999999
 40
0.9999999999999999
 40
0.9999999999999999
 40
0.9999999999999999
 10
523.4834636785953
 20
104.1316219352302
 30
0.0
 10
523.5114299122671
 20
104.1835462440037
 30
0.0
 10
523.586560536858
 20
104.3230396700902
 30
0.0
 10
523.6651043950146
 20
104.3310483961954
 30
0.0
 10
523.7144114951561
 20
104.3360759956708
 30
0.0
  0
LINE
  5
3BA
330
1F
100
AcDbEntity
  8
0
  6
Continuous
 62
     7
370
    25
100
AcDbLine
 10
530.4093535338
 20
104.6463019206
 30
0.0
 11
524.1093535338
 21
104.6463019206
 31
0.0
  0
LINE
  5
3BB
330
1F
100
AcDbEntity
  8
0
  6
Continuous
 62
     7
370
    25
100
AcDbLine
 10
530.3950932566
 20
104.1316219352
 30
0.0
 11
530.3950932566
 21
101.960981906
 31
0.0
  0
SPLINE
  5
3BC
330
1F
100
AcDbEntity
  8
0
  6
Continuous
 62
     7
370
    25
100
AcDbSpline
210
0.0
220
0.0
230
1.0
 70
     8
 71
     3
 72
    12
 73
     8
 74
     0
 42
0.000000001
 43
0.00000001
 40
0.0
 40
0.0
 40
0.0
 40
0.0
 40
0.5000000000000052
 40
0.5000000000000052
 40
0.7500000000000026
 40
0.7500000000000026
 40
1.0
 40
1.0
 40
1.0
 40
1.0
 10
526.6192034014505
 20
101.9609819060012
 30
0.0
 10
527.2357337913708
 20
101.7704876165777
 30
0.0
 10
527.8615016638206
 20
101.6488132035153
 30
0.0
 10
528.8245633732055
 20
101.6481570129841
 30
0.0
 10
529.1452564083352
 20
101.6779910147785
 30
0.0
 10
529.7752146583312
 20
101.786920884886
 30
0.0
 10
530.0864439263621
 20
101.8656160719489
 30
0.0
 10
530.3950932566466
 20
101.9609819060017
 30
0.0
  0
LINE
  5
3BD
330
1F
100
AcDbEntity
  8
0
  6
Continuous
 62
     7
370
    25
100
AcDbLine
 10
526.6192034015
 20
104.1316219352
 30
0.0
 11
526.6192034015
 21
101.960981906
 31
0.0
  0
SPLINE
  5
3BE
330
1F
100
AcDbEntity
  8
0
  6
Continuous
 62
     7
370
    25
100
AcDbSpline
210
0.0
220
0.0
230
1.0
 70
     8
 71
     3
 72
     9
 73
     5
 74
     0
 42
0.000000001
 43
0.00000001
 40
0.0
 40
0.0
 40
0.0
 40
0.0
 40
0.6277651913045457
 40
1.0
 40
1.0
 40
1.0
 40
1.0
 10
523.7144114951561
 20
101.7565278455615
 30
0.0
 10
523.6651043950146
 20
101.761555445037
 30
0.0
 10
523.586560536858
 20
101.7695641711421
 30
0.0
 10
523.5114299122671
 20
101.9090575972286
 30
0.0
 10
523.4834636785953
 20
101.9609819060022
 30
0.0
  0
SPLINE
  5
3BF
330
1F
100
AcDbEntity
  8
0
  6
Continuous
 62
     7
370
    25
100
AcDbSpline
210
0.0
220
0.0
230
1.0
 70
     8
 71
     3
 72
    12
 73
     8
 74
     0
 42
0.000000001
 43
0.00000001
 40
0.0
 40
0.0
 40
0.0
 40
0.0
 40
0.5
 40
0.5
 40
0.75
 40
0.75
 40
1.0
 40
1.0
 40
1.0
 40
1.0
 10
523.4834636785952
 20
101.9609819060012
 30
0.0
 10
523.9954698303001
 20
101.7704876165777
 30
0.0
 10
524.5151473765685
 20
101.6488132035153
 30
0.0
 10
525.314935234131
 20
101.6481570129841
 30
0.0
 10
525.581259180979
 20
101.6779910147785
 30
0.0
 10
526.1044166839805
 20
101.786920884886
 30
0.0
 10
526.3628813151287
 20
101.8656160719489
 30
0.0
 10
526.6192034014507
 20
101.9609819060017
 30
0.0
  0
SPLINE
  5
3C0
330
1F
100
AcDbEntity
  8
0
  6
Continuous
 62
     7
370
    25
100
AcDbSpline
210
0.0
220
0.0
230
1.0
 70
     8
 71
     3
 72
    14
 73
    10
 74
     0
 42
0.000000001
 43
0.00000001
 40
0.0
 40
0.0
 40
0.0
 40
0.0
 40
0.25
 40
0.25
 40
0.5
 40
0.5
 40
0.75
 40
0.75
 40
1.0
 40
1.0
 40
1.0
 40
1.0
 10
530.3950932566465
 20
101.9609819060022
 30
0.0
 10
530.4471509655374
 20
101.8661072966915
 30
0.0
 10
530.5004845038654
 20
101.7865023718158
 30
0.0
 10
530.6074165114935
 20
101.6776657569216
 30
0.0
 10
530.6611698779411
 20
101.6483421512311
 30
0.0
 10
530.7693489293649
 20
101.6484069329767
 30
0.0
 10
530.8241776259528
 20
101.678563126303
 30
0.0
 10
530.9310846086128
 20
101.7881483276688
 30
0.0
 10
530.983506123585
 20
101.8666913014709
 30
0.0
 10
531.0352433889872
 20
101.9609819060022
 30
0.0
  0
LINE
  5
3C1
330
1F
100
AcDbEntity
  8
0
  6
Continuous
 62
     7
370
    25
100
AcDbLine
 10
530.4093535338
 20
101.4463019206
 30
0.0
 11
524.1093535338
 21
101.4463019206
 31
0.0
  0
LINE
  5
3C2
330
1F
100
AcDbEntity
  8
0
  6
Continuous
 62
     7
370
    25
100
AcDbLine
 10
523.4834636786
 20
104.1316219352
 30
0.0
 11
523.4834636786
 21
101.960981906
 31
0.0
  0
LINE
  5
3C3
330
1F
100
AcDbEntity
  8
0
  6
Continuous
 62
     7
370
    25
100
AcDbLine
 10
531.035243389
 20
104.1316219352
 30
0.0
 11
531.035243389
 21
101.960981906
 31
0.0
  0
SPLINE
  5
3C4
330
1F
100
AcDbEntity
  8
0
  6
Continuous
 62
     7
370
    25
100
AcDbSpline
210
0.0
220
0.0
230
1.0
 70
     8
 71
     3
 72
    12
 73
     8
 74
     0
 42
0.000000001
 43
0.00000001
 40
0.0
 40
0.0
 40
0.0
 40
0.0
 40
0.5000000000000189
 40
0.5000000000000189
 40
0.7500000000000094
 40
0.7500000000000094
 40
1.0
 40
1.0
 40
1.0
 40
1.0
 10
87.39509325664685
 20
104.1316219352312
 30
0.0
 10
86.77856286672647
 20
104.3221162246547
 30
0.0
 10
86.15279499427675
 20
104.4437906377171
 30
0.0
 10
85.18973328489193
 20
104.4444468282483
 30
0.0
 10
84.86904024976211
 20
104.4146128264539
 30
0.0
 10
84.23908199976626
 20
104.3056829563463
 30
0.0
 10
83.92785273173541
 20
104.2269877692835
 30
0.0
 10
83.61920340145068
 20
104.1316219352307
 30
0.0
  0
LINE
  5
3C5
330
1F
100
AcDbEntity
  8
0
  6
Continuous
 62
     7
370
    25
100
AcDbLine
 10
87.3950932566
 20
104.1316219352
 30
0.0
 11
87.3950932566
 21
101.960981906
 31
0.0
  0
SPLINE
  5
3C6
330
1F
100
AcDbEntity
  8
0
  6
Continuous
 62
     7
370
    25
100
AcDbSpline
210
0.0
220
0.0
230
1.0
 70
     8
 71
     3
 72
    12
 73
     8
 74
     0
 42
0.000000001
 43
0.00000001
 40
0.0
 40
0.0
 40
0.0
 40
0.0
 40
0.5000000000000189
 40
0.5000000000000189
 40
0.7500000000000094
 40
0.7500000000000094
 40
1.0
 40
1.0
 40
1.0
 40
1.0
 10
83.61920340145062
 20
101.9609819060012
 30
0.0
 10
84.23573379137083
 20
101.7704876165777
 30
0.0
 10
84.86150166382073
 20
101.6488132035153
 30
0.0
 10
85.82456337320565
 20
101.6481570129841
 30
0.0
 10
86.14525640833537
 20
101.6779910147785
 30
0.0
 10
86.77521465833121
 20
101.7869208848861
 30
0.0
 10
87.08644392636222
 20
101.865616071949
 30
0.0
 10
87.39509325664673
 20
101.9609819060017
 30
0.0
  0
LINE
  5
3C7
330
1F
100
AcDbEntity
  8
0
  6
Continuous
 62
     7
370
    25
100
AcDbLine
 10
83.6192034015
 20
104.1316219352
 30
0.0
 11
83.6192034015
 21
101.960981906
 31
0.0
  0
SPLINE
  5
3C8
330
1F
100
AcDbEntity
  8
0
  6
Continuous
 62
     7
370
    25
100
AcDbSpline
210
0.0
220
0.0
230
1.0
 70
     8
 71
     3
 72
    14
 73
    10
 74
     0
 42
0.000000001
 43
0.00000001
 40
0.0
 40
0.0
 40
0.0
 40
0.0
 40
0.25
 40
0.25
 40
0.5
 40
0.5
 40
0.75
 40
0.75
 40
1.0
 40
1.0
 40
1.0
 40
1.0
 10
87.39509325664669
 20
104.1316219352302
 30
0.0
 10
87.44715096553752
 20
104.2264965445408
 30
0.0
 10
87.50048450386566
 20
104.3061014694166
 30
0.0
 10
87.60741651149378
 20
104.4149380843108
 30
0.0
 10
87.6611698779412
 20
104.4442616900013
 30
0.0
 10
87.769348929365
 20
104.4441969082557
 30
0.0
 10
87.82417762595296
 20
104.4140407149293
 30
0.0
 10
87.93108460861271
 20
104.3044555135636
 30
0.0
 10
87.98350612358513
 20
104.2259125397615
 30
0.0
 10
88.03524338898727
 20
104.1316219352302
 30
0.0
  0
SPLINE
  5
3C9
330
1F
100
AcDbEntity
  8
0
  6
Continuous
 62
     7
370
    25
100
AcDbSpline
210
0.0
220
0.0
230
1.0
 70
     8
 71
     3
 72
    12
 73
     8
 74
     0
 42
0.000000001
 43
0.00000001
 40
0.0
 40
0.0
 40
0.0
 40
0.0
 40
0.5000000000000009
 40
0.5000000000000009
 40
0.7500000000000004
 40
0.7500000000000004
 40
1.0
 40
1.0
 40
1.0
 40
1.0
 10
83.61920340145085
 20
104.1316219352312
 30
0.0
 10
83.10719724974591
 20
104.3221162246547
 30
0.0
 10
82.58751970347755
 20
104.4437906377171
 30
0.0
 10
81.7877318459152
 20
104.4444468282483
 30
0.0
 10
81.5214078990672
 20
104.4146128264539
 30
0.0
 10
80.99825039606561
 20
104.3056829563463
 30
0.0
 10
80.7397857649173
 20
104.2269877692834
 30
0.0
 10
80.48346367859533
 20
104.1316219352307
 30
0.0
  0
SPLINE
  5
3CA
330
1F
100
AcDbEntity
  8
0
  6
Continuous
 62
     7
370
    25
100
AcDbSpline
210
0.0
220
0.0
230
1.0
 70
     8
 71
     3
 72
     9
 73
     5
 74
     0
 42
0.000000001
 43
0.00000001
 40
0.0
 40
0.0
 40
0.0
 40
0.0
 40
0.3722348086954475
 40
0.9999999999999999
 40
0.9999999999999999
 40
0.9999999999999999
 40
0.9999999999999999
 10
80.48346367859538
 20
104.1316219352302
 30
0.0
 10
80.51142991226712
 20
104.1835462440038
 30
0.0
 10
80.58656053685809
 20
104.3230396700903
 30
0.0
 10
80.66510439501462
 20
104.3310483961954
 30
0.0
 10
80.71441149515613
 20
104.3360759956709
 30
0.0
  0
LINE
  5
3CB
330
1F
100
AcDbEntity
  8
0
  6
Continuous
 62
     7
370
    25
100
AcDbLine
 10
87.4093535338
 20
104.6463019206
 30
0.0
 11
81.1093535338
 21
104.6463019206
 31
0.0
  0
SPLINE
  5
3CC
330
1F
100
AcDbEntity
  8
0
  6
Continuous
 62
     7
370
    25
100
AcDbSpline
210
0.0
220
0.0
230
1.0
 70
     8
 71
     3
 72
     9
 73
     5
 74
     0
 42
0.000000001
 43
0.00000001
 40
0.0
 40
0.0
 40
0.0
 40
0.0
 40
0.6277651913045432
 40
1.0
 40
1.0
 40
1.0
 40
1.0
 10
80.71441149515613
 20
101.7565278455615
 30
0.0
 10
80.66510439501462
 20
101.761555445037
 30
0.0
 10
80.58656053685809
 20
101.7695641711421
 30
0.0
 10
80.51142991226706
 20
101.9090575972287
 30
0.0
 10
80.48346367859538
 20
101.9609819060022
 30
0.0
  0
SPLINE
  5
3CD
330
1F
100
AcDbEntity
  8
0
  6
Continuous
 62
     7
370
    25
100
AcDbSpline
210
0.0
220
0.0
230
1.0
 70
     8
 71
     3
 72
    12
 73
     8
 74
     0
 42
0.000000001
 43
0.00000001
 40
0.0
 40
0.0
 40
0.0
 40
0.0
 40
0.4999999999999992
 40
0.4999999999999992
 40
0.7499999999999996
 40
0.7499999999999996
 40
1.0
 40
1.0
 40
1.0
 40
1.0
 10
80.48346367859527
 20
101.9609819060013
 30
0.0
 10
80.99546983030021
 20
101.7704876165777
 30
0.0
 10
81.5151473765684
 20
101.6488132035154
 30
0.0
 10
82.31493523413086
 20
101.6481570129841
 30
0.0
 10
82.58125918097892
 20
101.6779910147785
 30
0.0
 10
83.10441668398033
 20
101.7869208848861
 30
0.0
 10
83.3628813151287
 20
101.865616071949
 30
0.0
 10
83.61920340145079
 20
101.9609819060017
 30
0.0
  0
SPLINE
  5
3CE
330
1F
100
AcDbEntity
  8
0
  6
Continuous
 62
     7
370
    25
100
AcDbSpline
210
0.0
220
0.0
230
1.0
 70
     8
 71
     3
 72
    14
 73
    10
 74
     0
 42
0.000000001
 43
0.00000001
 40
0.0
 40
0.0
 40
0.0
 40
0.0
 40
0.25
 40
0.25
 40
0.5
 40
0.5
 40
0.75
 40
0.75
 40
1.0
 40
1.0
 40
1.0
 40
1.0
 10
87.39509325664669
 20
101.9609819060022
 30
0.0
 10
87.44715096553752
 20
101.8661072966916
 30
0.0
 10
87.50048450386566
 20
101.7865023718159
 30
0.0
 10
87.60741651149378
 20
101.6776657569216
 30
0.0
 10
87.6611698779412
 20
101.6483421512311
 30
0.0
 10
87.769348929365
 20
101.6484069329767
 30
0.0
 10
87.82417762595296
 20
101.6785631263031
 30
0.0
 10
87.93108460861271
 20
101.7881483276688
 30
0.0
 10
87.98350612358513
 20
101.866691301471
 30
0.0
 10
88.03524338898727
 20
101.9609819060022
 30
0.0
  0
LINE
  5
3CF
330
1F
100
AcDbEntity
  8
0
  6
Continuous
 62
     7
370
    25
100
AcDbLine
 10
87.4093535338
 20
101.4463019206
 30
0.0
 11
81.1093535338
 21
101.4463019206
 31
0.0
  0
LINE
  5
3D0
330
1F
100
AcDbEntity
  8
0
  6
Continuous
 62
     7
370
    25
100
AcDbLine
 10
80.4834636786
 20
104.1316219352
 30
0.0
 11
80.4834636786
 21
101.960981906
 31
0.0
  0
LINE
  5
3D1
330
1F
100
AcDbEntity
  8
0
  6
Continuous
 62
     7
370
    25
100
AcDbLine
 10
88.035243389
 20
104.1316219352
 30
0.0
 11
88.035243389
 21
101.960981906
 31
0.0
  0
LINE
  5
3D2
330
1F
100
AcDbEntity
  8
0
  6
Continuous
 62
     7
370
    25
100
AcDbLine
 10
63.3384233012
 20
88.8463019206
 30
0.0
 11
64.2593535338
 21
98.7463019206
 31
0.0
  0
LINE
  5
3D3
330
1F
100
AcDbEntity
  8
0
  6
Continuous
 62
     7
370
    25
100
AcDbLine
 10
767.2593535338
 20
98.7463019206
 30
0.0
 11
768.1802837663
 21
88.8463019206
 31
0.0
  0
LINE
  5
3D4
330
1F
100
AcDbEntity
  8
0
  6
Continuous
 62
     7
370
    25
100
AcDbLine
 10
63.2593535338
 20
87.9963019206
 30
0.0
 11
63.3384233012
 21
88.8463019206
 31
0.0
  0
LINE
  5
3D5
330
1F
100
AcDbEntity
  8
0
  6
Continuous
 62
     7
370
    25
100
AcDbLine
 10
768.1802837663
 20
88.8463019206
 30
0.0
 11
768.2593535338
 21
87.9963019206
 31
0.0
  0
LINE
  5
3D6
330
1F
100
AcDbEntity
  8
0
  6
Continuous
 62
     7
370
    25
100
AcDbLine
 10
64.2593535338
 20
100.5463019206
 30
0.0
 11
767.2593535338
 21
100.5463019206
 31
0.0
  0
LINE
  5
3D7
330
1F
100
AcDbEntity
  8
0
  6
Continuous
 62
     7
370
    25
100
AcDbLine
 10
767.2593535338
 20
100.5463019206
 30
0.0
 11
767.2593535338
 21
98.7463019206
 31
0.0
  0
LINE
  5
3D8
330
1F
100
AcDbEntity
  8
0
  6
Continuous
 62
     7
370
    25
100
AcDbLine
 10
64.2593535338
 20
98.7463019206
 30
0.0
 11
64.2593535338
 21
100.5463019206
 31
0.0
  0
LINE
  5
3D9
330
1F
100
AcDbEntity
  8
0
  6
Continuous
 62
     7
370
    25
100
AcDbLine
 10
746.9425613756
 20
109.7463019206
 30
0.0
 11
749.2593535338
 21
109.7463019206
 31
0.0
  0
LINE
  5
3DA
330
1F
100
AcDbEntity
  8
0
  6
Continuous
 62
     7
370
    25
100
AcDbLine
 10
745.2593535338
 20
109.7463019206
 30
0.0
 11
746.9425613756
 21
109.7463019206
 31
0.0
  0
LINE
  5
3DB
330
1F
100
AcDbEntity
  8
0
  6
Continuous
 62
     7
370
    25
100
AcDbLine
 10
303.9425613756
 20
109.7463019206
 30
0.0
 11
306.2593535338
 21
109.7463019206
 31
0.0
  0
LINE
  5
3DC
330
1F
100
AcDbEntity
  8
0
  6
Continuous
 62
     7
370
    25
100
AcDbLine
 10
302.2593535338
 20
109.7463019206
 30
0.0
 11
303.9425613756
 21
109.7463019206
 31
0.0
  0
LINE
  5
3DD
330
1F
100
AcDbEntity
  8
0
  6
Continuous
 62
     7
370
    25
100
AcDbLine
 10
526.9425613756
 20
109.7463019206
 30
0.0
 11
529.2593535338
 21
109.7463019206
 31
0.0
  0
LINE
  5
3DE
330
1F
100
AcDbEntity
  8
0
  6
Continuous
 62
     7
370
    25
100
AcDbLine
 10
525.2593535338
 20
109.7463019206
 30
0.0
 11
526.9425613756
 21
109.7463019206
 31
0.0
  0
LINE
  5
3DF
330
1F
100
AcDbEntity
  8
0
  6
Continuous
 62
     7
370
    25
100
AcDbLine
 10
83.9425613756
 20
109.7463019206
 30
0.0
 11
86.2593535338
 21
109.7463019206
 31
0.0
  0
LINE
  5
3E0
330
1F
100
AcDbEntity
  8
0
  6
Continuous
 62
     7
370
    25
100
AcDbLine
 10
82.2593535338
 20
109.7463019206
 30
0.0
 11
83.9425613756
 21
109.7463019206
 31
0.0
  0
LINE
  5
3E1
330
1F
100
AcDbEntity
  8
0
  6
Continuous
 62
     7
370
    25
100
AcDbLine
 10
768.7593535338
 20
120.9463019206
 30
0.0
 11
769.7593535338
 21
120.9463019206
 31
0.0
  0
LINE
  5
3E2
330
1F
100
AcDbEntity
  8
0
  6
Continuous
 62
     7
370
    25
100
AcDbLine
 10
769.7593535338
 20
120.9463019206
 30
0.0
 11
769.7593535338
 21
118.9463019206
 31
0.0
  0
LINE
  5
3E3
330
1F
100
AcDbEntity
  8
0
  6
Continuous
 62
     7
370
    25
100
AcDbLine
 10
769.7593535338
 20
118.9463019206
 30
0.0
 11
769.7593535338
 21
116.0463019206
 31
0.0
  0
LINE
  5
3E4
330
1F
100
AcDbEntity
  8
0
  6
Continuous
 62
     7
370
    25
100
AcDbLine
 10
769.7593535338
 20
110.0463019206
 30
0.0
 11
769.7593535338
 21
89.9463019206
 31
0.0
  0
LINE
  5
3E5
330
1F
100
AcDbEntity
  8
0
  6
Continuous
 62
     7
370
    25
100
AcDbLine
 10
767.7593535338
 20
102.5463019206
 30
0.0
 11
767.7593535338
 21
93.3713019206
 31
0.0
  0
LINE
  5
3E6
330
1F
100
AcDbEntity
  8
0
  6
Continuous
 62
     7
370
    25
100
AcDbLine
 10
769.7576864039
 20
89.8463019206
 30
0.0
 11
769.7593535338
 21
89.9463019206
 31
0.0
  0
LINE
  5
3E7
330
1F
100
AcDbEntity
  8
0
  6
Continuous
 62
     7
370
    25
100
AcDbLine
 10
769.819660913
 20
120.9463019206
 30
0.0
 11
769.7593535338
 21
120.9463019206
 31
0.0
  0
LINE
  5
3E8
330
1F
100
AcDbEntity
  8
0
  6
Continuous
 62
     7
370
    25
100
AcDbLine
 10
769.7593535338
 20
104.9463019206
 30
0.0
 11
769.819660913
 21
104.9463019206
 31
0.0
  0
LINE
  5
3E9
330
1F
100
AcDbEntity
  8
0
  6
Continuous
 62
     7
370
    25
100
AcDbLine
 10
769.819660913
 20
120.9463019206
 30
0.0
 11
771.6908596353
 21
120.9463019206
 31
0.0
  0
LWPOLYLINE
  5
3EA
330
1F
100
AcDbEntity
  8
0
  6
Continuous
 62
     7
370
    25
100
AcDbPolyline
 90
        9
 70
   128
 43
0.0
 10
772.374899922
 20
118.9463019206
 10
772.3617562797
 20
119.3364825646
 10
772.3228304556
 20
119.7116687853
 10
772.2596183473
 20
120.0574423867
 10
772.1745491606
 20
120.360515483
 10
772.0708920568
 20
120.6092411452
 10
771.9526305201
 20
120.7940609856
 10
771.8243092751
 20
120.9078724814
 10
771.6908596353
 20
120.9463019206
  0
LINE
  5
3EB
330
1F
100
AcDbEntity
  8
0
  6
Continuous
 62
     7
370
    25
100
AcDbLine
 10
772.374899922
 20
118.9463019206
 30
0.0
 11
772.374899922
 21
116.0463019206
 31
0.0
  0
LINE
  5
3EC
330
1F
100
AcDbEntity
  8
0
  6
Continuous
 62
     7
370
    25
100
AcDbLine
 10
772.374899922
 20
110.0463019206
 30
0.0
 11
772.374899922
 21
106.9463019206
 31
0.0
  0
LWPOLYLINE
  5
3ED
330
1F
100
AcDbEntity
  8
0
  6
Continuous
 62
     7
370
    25
100
AcDbPolyline
 90
        9
 70
   128
 43
0.0
 10
771.6908596353
 20
104.9463019206
 10
771.8243092751
 20
104.9847313598
 10
771.9526305201
 20
105.0985428556
 10
772.0708920568
 20
105.283362696
 10
772.1745491606
 20
105.5320883582
 10
772.2596183473
 20
105.8351614546
 10
772.3228304556
 20
106.1809350559
 10
772.3617562797
 20
106.5561212766
 10
772.374899922
 20
106.9463019206
  0
LINE
  5
3EE
330
1F
100
AcDbEntity
  8
0
  6
Continuous
 62
     7
370
    25
100
AcDbLine
 10
771.6908596353
 20
104.9463019206
 30
0.0
 11
769.819660913
 21
104.9463019206
 31
0.0
  0
LINE
  5
3EF
330
1F
100
AcDbEntity
  8
0
  6
Continuous
 62
     7
370
    25
100
AcDbLine
 10
61.7593535338
 20
120.9463019206
 30
0.0
 11
62.7593535338
 21
120.9463019206
 31
0.0
  0
LINE
  5
3F0
330
1F
100
AcDbEntity
  8
0
  6
Continuous
 62
     7
370
    25
100
AcDbLine
 10
61.7593535338
 20
118.9463019206
 30
0.0
 11
61.7593535338
 21
120.9463019206
 31
0.0
  0
LINE
  5
3F1
330
1F
100
AcDbEntity
  8
0
  6
Continuous
 62
     7
370
    25
100
AcDbLine
 10
61.7593535338
 20
89.9463019206
 30
0.0
 11
61.7593535338
 21
110.0463019206
 31
0.0
  0
LINE
  5
3F2
330
1F
100
AcDbEntity
  8
0
  6
Continuous
 62
     7
370
    25
100
AcDbLine
 10
61.7593535338
 20
116.0463019206
 30
0.0
 11
61.7593535338
 21
118.9463019206
 31
0.0
  0
LINE
  5
3F3
330
1F
100
AcDbEntity
  8
0
  6
Continuous
 62
     7
370
    25
100
AcDbLine
 10
63.7593535338
 20
93.3713019206
 30
0.0
 11
63.7593535338
 21
102.5463019206
 31
0.0
  0
LINE
  5
3F4
330
1F
100
AcDbEntity
  8
0
  6
Continuous
 62
     7
370
    25
100
AcDbLine
 10
61.7593535338
 20
89.9463019206
 30
0.0
 11
61.7610206637
 21
89.8463019206
 31
0.0
  0
LINE
  5
3F5
330
1F
100
AcDbEntity
  8
0
  6
Continuous
 62
     7
370
    25
100
AcDbLine
 10
61.6990461546
 20
104.9463019206
 30
0.0
 11
61.7593535338
 21
104.9463019206
 31
0.0
  0
LINE
  5
3F6
330
1F
100
AcDbEntity
  8
0
  6
Continuous
 62
     7
370
    25
100
AcDbLine
 10
61.7593535338
 20
120.9463019206
 30
0.0
 11
61.6990461546
 21
120.9463019206
 31
0.0
  0
LWPOLYLINE
  5
3F7
330
1F
100
AcDbEntity
  8
0
  6
Continuous
 62
     7
370
    25
100
AcDbPolyline
 90
        9
 70
   128
 43
0.0
 10
59.8278474323
 20
120.9463019206
 10
59.6943977925
 20
120.9078724814
 10
59.5660765475
 20
120.7940609856
 10
59.4478150108
 20
120.6092411452
 10
59.344157907
 20
120.360515483
 10
59.2590887203
 20
120.0574423867
 10
59.195876612
 20
119.7116687853
 10
59.1569507879
 20
119.3364825646
 10
59.1438071456
 20
118.9463019206
  0
LINE
  5
3F8
330
1F
100
AcDbEntity
  8
0
  6
Continuous
 62
     7
370
    25
100
AcDbLine
 10
59.8278474323
 20
120.9463019206
 30
0.0
 11
61.6990461546
 21
120.9463019206
 31
0.0
  0
LINE
  5
3F9
330
1F
100
AcDbEntity
  8
0
  6
Continuous
 62
     7
370
    25
100
AcDbLine
 10
61.6990461546
 20
104.9463019206
 30
0.0
 11
59.8278474323
 21
104.9463019206
 31
0.0
  0
LWPOLYLINE
  5
3FA
330
1F
100
AcDbEntity
  8
0
  6
Continuous
 62
     7
370
    25
100
AcDbPolyline
 90
        9
 70
   128
 43
0.0
 10
59.1438071456
 20
106.9463019206
 10
59.1569507879
 20
106.5561212766
 10
59.195876612
 20
106.1809350559
 10
59.2590887203
 20
105.8351614546
 10
59.344157907
 20
105.5320883582
 10
59.4478150108
 20
105.283362696
 10
59.5660765475
 20
105.0985428556
 10
59.6943977925
 20
104.9847313598
 10
59.8278474323
 20
104.9463019206
  0
LINE
  5
3FB
330
1F
100
AcDbEntity
  8
0
  6
Continuous
 62
     7
370
    25
100
AcDbLine
 10
59.1438071456
 20
106.9463019206
 30
0.0
 11
59.1438071456
 21
110.0463019206
 31
0.0
  0
LINE
  5
3FC
330
1F
100
AcDbEntity
  8
0
  6
Continuous
 62
     7
370
    25
100
AcDbLine
 10
59.1438071456
 20
116.0463019206
 30
0.0
 11
59.1438071456
 21
118.9463019206
 31
0.0
  0
SPLINE
  5
3FD
330
1F
100
AcDbEntity
  8
0
  6
Continuous
 62
     7
370
    25
100
AcDbSpline
210
0.0
220
0.0
230
1.0
 70
    24
 71
     3
 72
     9
 73
     5
 74
     0
 42
0.000000001
 43
0.00000001
 40
0.0
 40
0.0
 40
0.0
 40
0.0
 40
0.705910271239029
 40
1.0
 40
1.0
 40
1.0
 40
1.0
 10
63.55935353379116
 20
118.8195507300066
 30
0.0
 10
63.55935353379116
 20
118.8298034993032
 30
0.0
 10
63.55935353379116
 20
118.8443276813618
 30
0.0
 10
63.55935353379122
 20
118.7492757247533
 30
0.0
 10
63.55935353379116
 20
118.7213219206161
 30
0.0
  0
SPLINE
  5
3FE
330
1F
100
AcDbEntity
  8
0
  6
Continuous
 62
     7
370
    25
100
AcDbSpline
210
0.0
220
0.0
230
1.0
 70
    24
 71
     3
 72
    12
 73
     8
 74
     0
 42
0.000000001
 43
0.00000001
 40
0.0
 40
0.0
 40
0.0
 40
0.0
 40
0.3344405486782619
 40
0.5144757571369842
 40
0.6983315710265342
 40
0.8821873849160823
 40
1.0
 40
1.0
 40
1.0
 40
1.0
 10
64.55935353379117
 20
115.5526092256732
 30
0.0
 10
64.55935353379117
 20
116.176754761175
 30
0.0
 10
64.55935353379117
 20
117.1368887766526
 30
0.0
 10
64.55935353379117
 20
118.0447996829478
 30
0.0
 10
64.55935353379105
 20
118.550517020864
 30
0.0
 10
64.55935353379132
 20
118.8221367550022
 30
0.0
 10
64.55935353379117
 20
118.8202770235424
 30
0.0
 10
64.55935353379117
 20
118.8195507300176
 30
0.0
  0
SPLINE
  5
3FF
330
1F
100
AcDbEntity
  8
0
  6
Continuous
 62
     7
370
    25
100
AcDbSpline
210
0.0
220
0.0
230
1.0
 70
    24
 71
     3
 72
    15
 73
    11
 74
     0
 42
0.000000001
 43
0.00000001
 40
0.0
 40
0.0
 40
0.0
 40
0.0
 40
0.0346967497918649
 40
0.2211884951269647
 40
0.4076802404620638
 40
0.5080720152630784
 40
0.610594247563482
 40
0.7131164798638859
 40
0.8135082546649004
 40
1.0
 40
1.0
 40
1.0
 40
1.0
 10
64.55935353379117
 20
107.2730531112118
 30
0.0
 10
64.55935353379122
 20
107.2663320075804
 30
0.0
 10
64.55935353379111
 20
107.2234856082276
 30
0.0
 10
64.55935353379111
 20
107.7115265709861
 30
0.0
 10
64.55935353379122
 20
108.8074376284547
 30
0.0
 10
64.55935353379117
 20
110.0263347609022
 30
0.0
 10
64.55935353379122
 20
111.1065099887591
 30
0.0
 10
64.55935353379111
 20
112.2669868912248
 30
0.0
 10
64.55935353379111
 20
113.79756178634
 30
0.0
 10
64.55935353379122
 20
114.86118767499
 30
0.0
 10
64.55935353379117
 20
115.5526092256732
 30
0.0
  0
LINE
  5
400
330
1F
100
AcDbEntity
  8
0
  6
Continuous
 62
     7
370
    25
100
AcDbLine
 10
68.5593535338
 20
112.6629068929
 30
0.0
 11
68.5593535338
 21
117.1719827999
 31
0.0
  0
SPLINE
  5
401
330
1F
100
AcDbEntity
  8
0
  6
Continuous
 62
     7
370
    25
100
AcDbSpline
210
0.0
220
0.0
230
1.0
 70
     8
 71
     3
 72
     8
 73
     4
 74
     0
 42
0.000000001
 43
0.00000001
 40
0.0
 40
0.0
 40
0.0
 40
0.0
 40
1.0
 40
1.0
 40
1.0
 40
1.0
 10
68.55935353378418
 20
112.6629068929282
 30
0.0
 10
68.55935353378418
 20
113.645285337501
 30
0.0
 10
68.38503823340474
 20
114.6007765056908
 30
0.0
 10
68.11277154639278
 20
115.5411591550183
 30
0.0
  0
SPLINE
  5
402
330
1F
100
AcDbEntity
  8
0
  6
Continuous
 62
     7
370
    25
100
AcDbSpline
210
0.0
220
0.0
230
1.0
 70
     8
 71
     3
 72
     8
 73
     4
 74
     0
 42
0.000000001
 43
0.00000001
 40
0.0
 40
0.0
 40
0.0
 40
0.0
 40
1.0
 40
1.0
 40
1.0
 40
1.0
 10
68.11277154639266
 20
115.5411591550244
 30
0.0
 10
68.38503823340409
 20
116.0739818960893
 30
0.0
 10
68.559353533784
 20
116.6153651549839
 30
0.0
 10
68.559353533784
 20
117.1719827999123
 30
0.0
  0
SPLINE
  5
403
330
1F
100
AcDbEntity
  8
0
  6
Continuous
 62
     7
370
    25
100
AcDbSpline
210
0.0
220
0.0
230
1.0
 70
     8
 71
     3
 72
     8
 73
     4
 74
     0
 42
0.000000001
 43
0.00000001
 40
0.0
 40
0.0
 40
0.0
 40
0.0
 40
1.0
 40
1.0
 40
1.0
 40
1.0
 10
68.11277154639284
 20
109.7846546308382
 30
0.0
 10
68.38503823340425
 20
110.725037280164
 30
0.0
 10
68.55935353378418
 20
111.6805284483573
 30
0.0
 10
68.55935353378418
 20
112.6629068929282
 30
0.0
  0
LINE
  5
404
330
1F
100
AcDbEntity
  8
0
  6
Continuous
 62
     7
370
    25
100
AcDbLine
 10
64.5593535338
 20
109.7846546308
 30
0.0
 11
68.1127715464
 21
109.7846546308
 31
0.0
  0
LINE
  5
405
330
1F
100
AcDbEntity
  8
0
  6
Continuous
 62
     7
370
    25
100
AcDbLine
 10
64.5593535338
 20
115.541159155
 30
0.0
 11
68.1127715464
 21
115.541159155
 31
0.0
  0
LINE
  5
406
330
1F
100
AcDbEntity
  8
0
  6
Continuous
 62
     7
370
    25
100
AcDbLine
 10
68.5593535338
 20
108.5372260136
 30
0.0
 11
68.5593535338
 21
112.6629068929
 31
0.0
  0
SPLINE
  5
407
330
1F
100
AcDbEntity
  8
0
  6
Continuous
 62
     7
370
    25
100
AcDbSpline
210
0.0
220
0.0
230
1.0
 70
     8
 71
     3
 72
     8
 73
     4
 74
     0
 42
0.000000001
 43
0.00000001
 40
0.0
 40
0.0
 40
0.0
 40
0.0
 40
1.0
 40
1.0
 40
1.0
 40
1.0
 10
68.559353533784
 20
108.5372260136307
 30
0.0
 10
68.559353533784
 20
108.9629868132739
 30
0.0
 10
68.38503823340459
 20
109.377094722571
 30
0.0
 10
68.11277154639272
 20
109.7846546308327
 30
0.0
  0
SPLINE
  5
408
330
1F
100
AcDbEntity
  8
0
  6
Continuous
 62
     7
370
    25
100
AcDbSpline
210
0.0
220
0.0
230
1.0
 70
     8
 71
     3
 72
     8
 73
     4
 74
     0
 42
0.000000001
 43
0.00000001
 40
0.0
 40
0.0
 40
0.0
 40
0.0
 40
1.0
 40
1.0
 40
1.0
 40
1.0
 10
68.559353533784
 20
117.1719827999123
 30
0.0
 10
68.559353533784
 20
117.7286004448418
 30
0.0
 10
68.38503823340459
 20
118.2699837037344
 30
0.0
 10
68.11277154639266
 20
118.8028064448002
 30
0.0
  0
LINE
  5
409
330
1F
100
AcDbEntity
  8
0
  6
Continuous
 62
     7
370
    25
100
AcDbLine
 10
64.5593535338
 20
118.8028064448
 30
0.0
 11
68.1127715464
 21
118.8028064448
 31
0.0
  0
SPLINE
  5
40A
330
1F
100
AcDbEntity
  8
0
  6
Continuous
 62
     7
370
    25
100
AcDbSpline
210
0.0
220
0.0
230
1.0
 70
     8
 71
     3
 72
     8
 73
     4
 74
     0
 42
0.000000001
 43
0.00000001
 40
0.0
 40
0.0
 40
0.0
 40
0.0
 40
1.0
 40
1.0
 40
1.0
 40
1.0
 10
68.11277154639272
 20
107.2897973964287
 30
0.0
 10
68.38503823340419
 20
107.6973573046898
 30
0.0
 10
68.559353533784
 20
108.1114652139881
 30
0.0
 10
68.559353533784
 20
108.5372260136307
 30
0.0
  0
LINE
  5
40B
330
1F
100
AcDbEntity
  8
0
  6
Continuous
 62
     7
370
    25
100
AcDbLine
 10
68.1127715464
 20
107.2897973964
 30
0.0
 11
64.5593535338
 21
107.2897973964
 31
0.0
  0
LINE
  5
40C
330
1F
100
AcDbEntity
  8
0
  6
Continuous
 62
     7
370
    25
100
AcDbLine
 10
54.1006035338
 20
110.3408563764
 30
0.0
 11
54.1006035338
 21
110.0463019206
 31
0.0
  0
LINE
  5
40D
330
1F
100
AcDbEntity
  8
0
  6
Continuous
 62
     7
370
    25
100
AcDbLine
 10
54.1006035338
 20
116.0463019206
 30
0.0
 11
54.1006035338
 21
110.3408563764
 31
0.0
  0
LINE
  5
40E
330
1F
100
AcDbEntity
  8
0
  6
Continuous
 62
     7
370
    25
100
AcDbLine
 10
53.5593535338
 20
115.5050519206
 30
0.0
 11
53.5593535338
 21
110.5875519206
 31
0.0
  0
LINE
  5
40F
330
1F
100
AcDbEntity
  8
0
  6
Continuous
 62
     7
370
    25
100
AcDbLine
 10
68.1127715464
 20
118.8028064448
 30
0.0
 11
68.1879593019
 21
118.592785977
 31
0.0
  0
LINE
  5
410
330
1F
100
AcDbEntity
  8
0
  6
Continuous
 62
     7
370
    25
100
AcDbLine
 10
68.5593535338
 20
117.1719827999
 30
0.0
 11
68.5593535338
 21
118.0463019206
 31
0.0
  0
LINE
  5
411
330
1F
100
AcDbEntity
  8
0
  6
Continuous
 62
     7
370
    25
100
AcDbLine
 10
68.5593535338
 20
108.0463019206
 30
0.0
 11
68.5593535338
 21
108.5372260136
 31
0.0
  0
ARC
  5
412
330
1F
100
AcDbEntity
  8
0
  6
Continuous
 62
     7
370
    25
100
AcDbCircle
 10
776.2593535338
 20
83.8463019206
 30
0.0
 40
6.000000000000036
100
AcDbArc
 50
36.8698976458
 51
90.0
  0
ARC
  5
413
330
1F
100
AcDbEntity
  8
0
  6
Continuous
 62
     7
370
    25
100
AcDbCircle
 10
55.2593535338
 20
83.8463019206
 30
0.0
 40
6.000000000000057
100
AcDbArc
 50
90.0
 51
143.1301023542
  0
LINE
  5
414
330
1F
100
AcDbEntity
  8
0
  6
Continuous
 62
     7
370
    25
100
AcDbLine
 10
-64.0777814355
 20
259.1534776424
 30
0.0
 11
-64.4407192139
 21
258.5248509703
 31
0.0
  0
LINE
  5
415
330
1F
100
AcDbEntity
  8
0
  6
Continuous
 62
     7
370
    25
100
AcDbLine
 10
-64.4407192139
 20
252.2248509703
 30
0.0
 11
-64.0777814355
 21
251.5962242982
 31
0.0
  0
ARC
  5
416
330
1F
100
AcDbEntity
  8
0
  6
Continuous
 62
     7
370
    25
100
AcDbCircle
 10
-61.2125159836
 20
255.3748509703
 30
0.0
 40
8.000000000000004
100
AcDbArc
 50
195.2747479997
 51
210.0
  0
ARC
  5
417
330
1F
100
AcDbEntity
  8
0
  6
Continuous
 62
     7
370
    25
100
AcDbCircle
 10
-61.2125159836
 20
255.3748509703
 30
0.0
 40
8.000000000000004
100
AcDbArc
 50
150.0
 51
164.7252520003
  0
LINE
  5
418
330
1F
100
AcDbEntity
  8
0
  6
Continuous
 62
     7
370
    25
100
AcDbLine
 10
-66.1407192139
 20
259.3748509703
 30
0.0
 11
-68.1407192139
 21
259.3748509703
 31
0.0
  0
LINE
  5
419
330
1F
100
AcDbEntity
  8
0
  6
Continuous
 62
     7
370
    25
100
AcDbLine
 10
-68.1407192139
 20
251.3748509703
 30
0.0
 11
-66.1407192139
 21
251.3748509703
 31
0.0
  0
LINE
  5
41A
330
1F
100
AcDbEntity
  8
0
  6
Continuous
 62
     7
370
    25
100
AcDbLine
 10
-64.4407192139
 20
257.3748509703
 30
0.0
 11
-64.5407192139
 21
257.3748509703
 31
0.0
  0
LINE
  5
41B
330
1F
100
AcDbEntity
  8
0
  6
Continuous
 62
     7
370
    25
100
AcDbLine
 10
-64.5407192139
 20
253.3748509703
 30
0.0
 11
-64.4407192139
 21
253.3748509703
 31
0.0
  0
CIRCLE
  5
41C
330
1F
100
AcDbEntity
  8
0
  6
Continuous
 62
     7
370
    25
100
AcDbCircle
 10
-52.8407192139
 20
280.3748509703
 30
0.0
 40
2.458750000016634
  0
CIRCLE
  5
41D
330
1F
100
AcDbEntity
  8
0
  6
Continuous
 62
     7
370
    25
100
AcDbCircle
 10
-52.8407192139
 20
280.3748509703
 30
0.0
 40
3.000000000000047
  0
LINE
  5
41E
330
1F
100
AcDbEntity
  8
0
  6
Continuous
 62
     7
370
    25
100
AcDbLine
 10
-71.4407192139
 20
207.8455616485
 30
0.0
 11
-71.4407192139
 21
250.9041402922
 31
0.0
  0
LINE
  5
41F
330
1F
100
AcDbEntity
  8
0
  6
Continuous
 62
     7
370
    25
100
AcDbLine
 10
-81.0407192139
 20
207.8455616485
 30
0.0
 11
-71.4407192139
 21
207.8455616485
 31
0.0
  0
LINE
  5
420
330
1F
100
AcDbEntity
  8
0
  6
Continuous
 62
     7
370
    25
100
AcDbLine
 10
-81.0407192139
 20
250.9041402922
 30
0.0
 11
-71.4407192139
 21
250.9041402922
 31
0.0
  0
SPLINE
  5
421
330
1F
100
AcDbEntity
  8
0
  6
Continuous
 62
     7
370
    25
100
AcDbSpline
210
0.0
220
0.0
230
1.0
 70
     8
 71
     3
 72
    20
 73
    16
 74
     0
 42
0.000000001
 43
0.00000001
 40
0.0
 40
0.0
 40
0.0
 40
0.0
 40
0.1249999999999948
 40
0.1249999999999948
 40
0.2499999999999897
 40
0.2499999999999897
 40
0.3749999999999845
 40
0.3749999999999845
 40
0.4999999999999793
 40
0.4999999999999793
 40
0.749999999999998
 40
0.749999999999998
 40
0.8749999999999989
 40
0.8749999999999989
 40
1.0
 40
1.0
 40
1.0
 40
1.0
 10
-83.44071921387925
 20
249.9748509703414
 30
0.0
 10
-83.44071921387925
 20
250.013891701196
 30
0.0
 10
-83.4251826534044
 20
250.0524104053958
 30
0.0
 10
-83.3638643014438
 20
250.1298171567037
 30
0.0
 10
-83.317440555857
 20
250.1689615746904
 30
0.0
 10
-83.19748968570286
 20
250.2461123286056
 30
0.0
 10
-83.12388504141944
 20
250.2844399103466
 30
0.0
 10
-82.94915467532381
 20
250.3619862308231
 30
0.0
 10
-82.84830404642224
 20
250.4009624384918
 30
0.0
 10
-82.5170187664383
 20
250.5164572949369
 30
0.0
 10
-82.24933860505443
 20
250.5943697386069
 30
0.0
 10
-81.81666457899901
 20
250.7098496640078
 30
0.0
 10
-81.66514649214788
 20
250.7487154598729
 30
0.0
 10
-81.35572073476177
 20
250.8264897935414
 30
0.0
 10
-81.19909840506799
 20
250.8650995604961
 30
0.0
 10
-81.04071921387926
 20
250.9041402922228
 30
0.0
  0
SPLINE
  5
422
330
1F
100
AcDbEntity
  8
0
  6
Continuous
 62
     7
370
    25
100
AcDbSpline
210
0.0
220
0.0
230
1.0
 70
     8
 71
     3
 72
    20
 73
    16
 74
     0
 42
0.000000001
 43
0.00000001
 40
0.0
 40
0.0
 40
0.0
 40
0.0
 40
0.1250000000000001
 40
0.1250000000000001
 40
0.2500000000000003
 40
0.2500000000000003
 40
0.3750000000000005
 40
0.3750000000000005
 40
0.5000000000000008
 40
0.5000000000000008
 40
0.7500000000000008
 40
0.7500000000000008
 40
0.8750000000000004
 40
0.8750000000000004
 40
1.0
 40
1.0
 40
1.0
 40
1.0
 10
-81.04071921387926
 20
207.8455616484601
 30
0.0
 10
-81.19909840152997
 20
207.8846023793146
 30
0.0
 10
-81.35534412622164
 20
207.9231210835144
 30
0.0
 10
-81.66333597563826
 20
208.0005278348223
 30
0.0
 10
-81.81598008310938
 20
208.039672252809
 30
0.0
 10
-82.10506437229645
 20
208.1168230067242
 30
0.0
 10
-82.2428689104805
 20
208.1551505884652
 30
0.0
 10
-82.5044875861194
 20
208.2326969089418
 30
0.0
 10
-82.6272338928021
 20
208.2716731166105
 30
0.0
 10
-82.95855826974977
 20
208.3871679730555
 30
0.0
 10
-83.13756939377801
 20
208.4650804167256
 30
0.0
 10
-83.31718449315888
 20
208.5805603421265
 30
0.0
 10
-83.36342884202658
 20
208.6194261379915
 30
0.0
 10
-83.42518214803779
 20
208.69720047166
 30
0.0
 10
-83.44071921387925
 20
208.7358102386148
 30
0.0
 10
-83.44071921387925
 20
208.7748509703414
 30
0.0
  0
LINE
  5
423
330
1F
100
AcDbEntity
  8
0
  6
Continuous
 62
     7
370
    25
100
AcDbLine
 10
-83.4407192139
 20
208.7748509703
 30
0.0
 11
-83.4407192139
 21
249.9748509703
 31
0.0
  0
LINE
  5
424
330
1F
100
AcDbEntity
  8
0
  6
Continuous
 62
     7
370
    25
100
AcDbLine
 10
-81.0407192139
 20
252.3748509703
 30
0.0
 11
-81.0407192139
 21
250.9748509703
 31
0.0
  0
SPLINE
  5
425
330
1F
100
AcDbEntity
  8
0
  6
Continuous
 62
     7
370
    25
100
AcDbSpline
210
0.0
220
0.0
230
1.0
 70
     8
 71
     3
 72
     9
 73
     5
 74
     0
 42
0.000000001
 43
0.00000001
 40
0.0
 40
0.0
 40
0.0
 40
0.0
 40
0.7584558214377636
 40
1.0
 40
1.0
 40
1.0
 40
1.0
 10
-81.04071921387929
 20
250.9748509703413
 30
0.0
 10
-81.19242699181555
 20
250.9637964345079
 30
0.0
 10
-81.39244889638567
 20
250.949221378821
 30
0.0
 10
-81.54300298777709
 20
250.8261249952213
 30
0.0
 10
-81.57936845211141
 20
250.7963917803607
 30
0.0
  0
SPLINE
  5
426
330
1F
100
AcDbEntity
  8
0
  6
Continuous
 62
     7
370
    25
100
AcDbSpline
210
0.0
220
0.0
230
1.0
 70
     8
 71
     3
 72
    20
 73
    16
 74
     0
 42
0.000000001
 43
0.00000001
 40
0.0
 40
0.0
 40
0.0
 40
0.0
 40
0.1249999999999987
 40
0.1249999999999987
 40
0.2499999999999974
 40
0.2499999999999974
 40
0.3749999999999962
 40
0.3749999999999962
 40
0.4999999999999949
 40
0.4999999999999949
 40
0.7499999999999923
 40
0.7499999999999923
 40
0.8749999999999961
 40
0.8749999999999961
 40
1.0
 40
1.0
 40
1.0
 40
1.0
 10
-81.04071921387934
 20
252.3748509703413
 30
0.0
 10
-81.19909840153004
 20
252.3748509703413
 30
0.0
 10
-81.35534412622175
 20
252.3593144098665
 30
0.0
 10
-81.66333597563832
 20
252.2979960579059
 30
0.0
 10
-81.81598008310945
 20
252.2515723123191
 30
0.0
 10
-82.10506437229651
 20
252.1316214421649
 30
0.0
 10
-82.24286891048055
 20
252.0580167978815
 30
0.0
 10
-82.50448758611941
 20
251.8832864317859
 30
0.0
 10
-82.62723389280205
 20
251.7824358028844
 30
0.0
 10
-82.95855826974974
 20
251.4511505229004
 30
0.0
 10
-83.13756939377795
 20
251.1834703615166
 30
0.0
 10
-83.31718449315883
 20
250.7507963354612
 30
0.0
 10
-83.36342884202655
 20
250.5992782486101
 30
0.0
 10
-83.42518214803778
 20
250.289852491224
 30
0.0
 10
-83.44071921387922
 20
250.1332301615302
 30
0.0
 10
-83.44071921387923
 20
249.9748509703415
 30
0.0
  0
SPLINE
  5
427
330
1F
100
AcDbEntity
  8
0
  6
Continuous
 62
     7
370
    25
100
AcDbSpline
210
0.0
220
0.0
230
1.0
 70
     8
 71
     3
 72
    20
 73
    16
 74
     0
 42
0.000000001
 43
0.00000001
 40
0.0
 40
0.0
 40
0.0
 40
0.0
 40
0.1249999999999961
 40
0.1249999999999961
 40
0.2499999999999922
 40
0.2499999999999922
 40
0.3749999999999883
 40
0.3749999999999883
 40
0.4999999999999845
 40
0.4999999999999845
 40
0.749999999999987
 40
0.749999999999987
 40
0.8749999999999934
 40
0.8749999999999934
 40
1.0
 40
1.0
 40
1.0
 40
1.0
 10
-83.44071921387916
 20
208.7748509703415
 30
0.0
 10
-83.44071921387918
 20
208.6164717826909
 30
0.0
 10
-83.42518265340433
 20
208.4602260579991
 30
0.0
 10
-83.36386430144374
 20
208.1522342085825
 30
0.0
 10
-83.31744055585693
 20
207.9995901011114
 30
0.0
 10
-83.19748968570283
 20
207.7105058119243
 30
0.0
 10
-83.12388504141943
 20
207.5727012737402
 30
0.0
 10
-82.9491546753238
 20
207.3110825981013
 30
0.0
 10
-82.84830404642223
 20
207.1883362914186
 30
0.0
 10
-82.51701876643831
 20
206.8570119144709
 30
0.0
 10
-82.24933860505443
 20
206.6780007904427
 30
0.0
 10
-81.81666457899902
 20
206.4983856910618
 30
0.0
 10
-81.66514649214788
 20
206.4521413421941
 30
0.0
 10
-81.35572073476176
 20
206.3903880361829
 30
0.0
 10
-81.19909840506803
 20
206.3748509703414
 30
0.0
 10
-81.0407192138793
 20
206.3748509703414
 30
0.0
  0
SPLINE
  5
428
330
1F
100
AcDbEntity
  8
0
  6
Continuous
 62
     7
370
    25
100
AcDbSpline
210
0.0
220
0.0
230
1.0
 70
     8
 71
     3
 72
     9
 73
     5
 74
     0
 42
0.000000001
 43
0.00000001
 40
0.0
 40
0.0
 40
0.0
 40
0.0
 40
0.425869494146432
 40
1.0
 40
1.0
 40
1.0
 40
1.0
 10
-81.59711064088305
 20
207.9649295330155
 30
0.0
 10
-81.52670646427987
 20
207.9150079081722
 30
0.0
 10
-81.3613877984189
 20
207.7977850839752
 30
0.0
 10
-81.15767623616456
 20
207.783215698814
 30
0.0
 10
-81.04071921387924
 20
207.7748509703414
 30
0.0
  0
LINE
  5
429
330
1F
100
AcDbEntity
  8
0
  6
Continuous
 62
     7
370
    25
100
AcDbLine
 10
-81.0407192139
 20
206.3748509703
 30
0.0
 11
-81.0407192139
 21
207.7748509703
 31
0.0
  0
LINE
  5
42A
330
1F
100
AcDbEntity
  8
0
  6
Continuous
 62
     7
370
    25
100
AcDbLine
 10
-81.0407192139
 20
250.9748509703
 30
0.0
 11
-71.4407192139
 21
250.9748509703
 31
0.0
  0
LINE
  5
42B
330
1F
100
AcDbEntity
  8
0
  6
Continuous
 62
     7
370
    25
100
AcDbLine
 10
-81.0407192139
 20
252.3748509703
 30
0.0
 11
-71.4407192139
 21
252.3748509703
 31
0.0
  0
LINE
  5
42C
330
1F
100
AcDbEntity
  8
0
  6
Continuous
 62
     7
370
    25
100
AcDbLine
 10
-71.4407192139
 20
252.3748509703
 30
0.0
 11
-71.4407192139
 21
250.9748509703
 31
0.0
  0
LINE
  5
42D
330
1F
100
AcDbEntity
  8
0
  6
Continuous
 62
     7
370
    25
100
AcDbLine
 10
-81.0407192139
 20
207.7748509703
 30
0.0
 11
-71.4407192139
 21
207.7748509703
 31
0.0
  0
LINE
  5
42E
330
1F
100
AcDbEntity
  8
0
  6
Continuous
 62
     7
370
    25
100
AcDbLine
 10
-81.0407192139
 20
206.3748509703
 30
0.0
 11
-71.4407192139
 21
206.3748509703
 31
0.0
  0
LINE
  5
42F
330
1F
100
AcDbEntity
  8
0
  6
Continuous
 62
     7
370
    25
100
AcDbLine
 10
-71.4407192139
 20
206.3748509703
 30
0.0
 11
-71.4407192139
 21
207.7748509703
 31
0.0
  0
ARC
  5
430
330
1F
100
AcDbEntity
  8
0
  6
Continuous
 62
     7
370
    25
100
AcDbCircle
 10
-47.3407192139
 20
283.8748509703
 30
0.0
 40
3.000000000000007
100
AcDbArc
 50
0.0
 51
90.0
  0
LINE
  5
431
330
1F
100
AcDbEntity
  8
0
  6
Continuous
 62
     7
370
    25
100
AcDbLine
 10
-44.3407192139
 20
249.6748509703
 30
0.0
 11
-44.3407192139
 21
283.8748509703
 31
0.0
  0
LINE
  5
432
330
1F
100
AcDbEntity
  8
0
  6
Continuous
 62
     7
370
    25
100
AcDbLine
 10
-63.3407192139
 20
266.8748509703
 30
0.0
 11
-63.3407192139
 21
249.6748509703
 31
0.0
  0
LINE
  5
433
330
1F
100
AcDbEntity
  8
0
  6
Continuous
 62
     7
370
    25
100
AcDbLine
 10
-67.3407192139
 20
266.8748509703
 30
0.0
 11
-63.3407192139
 21
266.8748509703
 31
0.0
  0
LINE
  5
434
330
1F
100
AcDbEntity
  8
0
  6
Continuous
 62
     7
370
    25
100
AcDbLine
 10
-67.3407192139
 20
283.8748509703
 30
0.0
 11
-67.3407192139
 21
266.8748509703
 31
0.0
  0
ARC
  5
435
330
1F
100
AcDbEntity
  8
0
  6
Continuous
 62
     7
370
    25
100
AcDbCircle
 10
-64.3407192139
 20
283.8748509703
 30
0.0
 40
3.0
100
AcDbArc
 50
90.0
 51
180.0
  0
LINE
  5
436
330
1F
100
AcDbEntity
  8
0
  6
Continuous
 62
     7
370
    25
100
AcDbLine
 10
-47.3407192139
 20
286.8748509703
 30
0.0
 11
-64.3407192139
 21
286.8748509703
 31
0.0
  0
CIRCLE
  5
437
330
1F
100
AcDbEntity
  8
0
  6
Continuous
 62
     7
370
    25
100
AcDbCircle
 10
-52.8407192139
 20
280.3748509703
 30
0.0
 40
3.249999999999943
  0
CIRCLE
  5
438
330
1F
100
AcDbEntity
  8
0
  6
Continuous
 62
     7
370
    25
100
AcDbCircle
 10
-52.8407192139
 20
255.3748509703
 30
0.0
 40
3.249999999999943
  0
LINE
  5
439
330
1F
100
AcDbEntity
  8
0
  6
Continuous
 62
     7
370
    25
100
AcDbLine
 10
-63.3407192139
 20
247.8748509703
 30
0.0
 11
-63.3407192139
 21
249.6748509703
 31
0.0
  0
LINE
  5
43A
330
1F
100
AcDbEntity
  8
0
  6
Continuous
 62
     7
370
    25
100
AcDbLine
 10
-44.3407192139
 20
247.8748509703
 30
0.0
 11
-63.3407192139
 21
247.8748509703
 31
0.0
  0
LINE
  5
43B
330
1F
100
AcDbEntity
  8
0
  6
Continuous
 62
     7
370
    25
100
AcDbLine
 10
-44.3407192139
 20
249.6748509703
 30
0.0
 11
-44.3407192139
 21
247.8748509703
 31
0.0
  0
LINE
  5
43C
330
1F
100
AcDbEntity
  8
0
  6
Continuous
 62
     7
370
    25
100
AcDbLine
 10
-65.3407192139
 20
259.8748509703
 30
0.0
 11
-64.5407192139
 21
259.8748509703
 31
0.0
  0
LINE
  5
43D
330
1F
100
AcDbEntity
  8
0
  6
Continuous
 62
     7
370
    25
100
AcDbLine
 10
-64.5407192139
 20
249.6748509703
 30
0.0
 11
-64.5407192139
 21
259.8748509703
 31
0.0
  0
LINE
  5
43E
330
1F
100
AcDbEntity
  8
0
  6
Continuous
 62
     7
370
    25
100
AcDbLine
 10
-63.5407192139
 20
247.8748509703
 30
0.0
 11
-63.3407192139
 21
247.8748509703
 31
0.0
  0
LINE
  5
43F
330
1F
100
AcDbEntity
  8
0
  6
Continuous
 62
     7
370
    25
100
AcDbLine
 10
-63.5407192139
 20
248.6748509703
 30
0.0
 11
-63.3407192139
 21
248.6748509703
 31
0.0
  0
ARC
  5
440
330
1F
100
AcDbEntity
  8
0
  6
Continuous
 62
     7
370
    25
100
AcDbCircle
 10
-63.5407192139
 20
249.6748509703
 30
0.0
 40
1.80000000000004
100
AcDbArc
 50
180.0
 51
270.0
  0
ARC
  5
441
330
1F
100
AcDbEntity
  8
0
  6
Continuous
 62
     7
370
    25
100
AcDbCircle
 10
-63.5407192139
 20
249.6748509703
 30
0.0
 40
1.0
100
AcDbArc
 50
180.0
 51
270.0
  0
LINE
  5
442
330
1F
100
AcDbEntity
  8
0
  6
Continuous
 62
     7
370
    25
100
AcDbLine
 10
-44.3407192139
 20
247.8748509703
 30
0.0
 11
-23.3407192139
 21
247.8748509703
 31
0.0
  0
LINE
  5
443
330
1F
100
AcDbEntity
  8
0
  6
Continuous
 62
     7
370
    25
100
AcDbLine
 10
-44.3407192139
 20
248.6748509703
 30
0.0
 11
-23.3407192139
 21
248.6748509703
 31
0.0
  0
LINE
  5
444
330
1F
100
AcDbEntity
  8
0
  6
Continuous
 62
     7
370
    25
100
AcDbLine
 10
-20.3407192139
 20
248.6748509703
 30
0.0
 11
-20.3407192139
 21
247.8748509703
 31
0.0
  0
LINE
  5
445
330
1F
100
AcDbEntity
  8
0
  6
Continuous
 62
     7
370
    25
100
AcDbLine
 10
-20.3407192139
 20
247.8748509703
 30
0.0
 11
-23.3407192139
 21
247.8748509703
 31
0.0
  0
LINE
  5
446
330
1F
100
AcDbEntity
  8
0
  6
Continuous
 62
     7
370
    25
100
AcDbLine
 10
-23.3407192139
 20
248.6748509703
 30
0.0
 11
-20.3407192139
 21
248.6748509703
 31
0.0
  0
LINE
  5
447
330
1F
100
AcDbEntity
  8
0
  6
Continuous
 62
     7
370
    25
100
AcDbLine
 10
-30.9537972757
 20
252.8748509703
 30
0.0
 11
-24.4361058221
 21
252.8748509703
 31
0.0
  0
LINE
  5
448
330
1F
100
AcDbEntity
  8
0
  6
Continuous
 62
     7
370
    25
100
AcDbLine
 10
-30.9537972757
 20
252.0748509703
 30
0.0
 11
-24.4361058221
 21
252.0748509703
 31
0.0
  0
LINE
  5
449
330
1F
100
AcDbEntity
  8
0
  6
Continuous
 62
     7
370
    25
100
AcDbLine
 10
-21.4361058221
 20
252.8748509703
 30
0.0
 11
-21.4361058221
 21
252.0748509703
 31
0.0
  0
LINE
  5
44A
330
1F
100
AcDbEntity
  8
0
  6
Continuous
 62
     7
370
    25
100
AcDbLine
 10
-24.4361058221
 20
252.8748509703
 30
0.0
 11
-21.4361058221
 21
252.8748509703
 31
0.0
  0
LINE
  5
44B
330
1F
100
AcDbEntity
  8
0
  6
Continuous
 62
     7
370
    25
100
AcDbLine
 10
-21.4361058221
 20
252.0748509703
 30
0.0
 11
-24.4361058221
 21
252.0748509703
 31
0.0
  0
ARC
  5
44C
330
1F
100
AcDbEntity
  8
0
  6
Continuous
 62
     7
370
    25
100
AcDbCircle
 10
-30.9537972757
 20
251.0748509703
 30
0.0
 40
1.80000000000004
100
AcDbArc
 50
90.0
 51
120.0
  0
ARC
  5
44D
330
1F
100
AcDbEntity
  8
0
  6
Continuous
 62
     7
370
    25
100
AcDbCircle
 10
-30.9537972757
 20
251.0748509703
 30
0.0
 40
1.0
100
AcDbArc
 50
90.0
 51
120.0
  0
ARC
  5
44E
330
1F
100
AcDbEntity
  8
0
  6
Continuous
 62
     7
370
    25
100
AcDbCircle
 10
-38.9786684063
 20
249.6748509703
 30
0.0
 40
0.9999999999999765
100
AcDbArc
 50
270.0
 51
300.0
  0
LINE
  5
44F
330
1F
100
AcDbEntity
  8
0
  6
Continuous
 62
     7
370
    25
100
AcDbLine
 10
-31.4537972757
 20
251.9408763741
 30
0.0
 11
-37.1107192139
 21
248.6748509703
 31
0.0
  0
LINE
  5
450
330
1F
100
AcDbEntity
  8
0
  6
Continuous
 62
     7
370
    25
100
AcDbLine
 10
-31.8537972757
 20
252.6336966972
 30
0.0
 11
-38.4786684063
 21
248.8088255666
 31
0.0
  0
CIRCLE
  5
451
330
1F
100
AcDbEntity
  8
0
  6
Continuous
 62
     7
370
    25
100
AcDbCircle
 10
-52.8407192139
 20
255.3748509703
 30
0.0
 40
2.458750000016595
  0
CIRCLE
  5
452
330
1F
100
AcDbEntity
  8
0
  6
Continuous
 62
     7
370
    25
100
AcDbCircle
 10
-52.8407192139
 20
255.3748509703
 30
0.0
 40
2.99999999999996
  0
SPLINE
  5
453
330
1F
100
AcDbEntity
  8
0
  6
Continuous
 62
     7
370
    25
100
AcDbSpline
210
0.0
220
0.0
230
1.0
 70
     8
 71
     3
 72
    12
 73
     8
 74
     0
 42
0.000000001
 43
0.00000001
 40
0.0
 40
0.0
 40
0.0
 40
0.0
 40
0.4999999999999992
 40
0.4999999999999992
 40
0.7499999999999996
 40
0.7499999999999996
 40
1.0
 40
1.0
 40
1.0
 40
1.0
 10
-63.92603922849423
 20
253.9340216484701
 30
0.0
 10
-64.11653351791774
 20
253.5177205648156
 30
0.0
 10
-64.23820793098012
 20
253.0951820368271
 30
0.0
 10
-64.23886412151136
 20
252.4448918973663
 30
0.0
 10
-64.20903011971696
 20
252.2283496794518
 30
0.0
 10
-64.10010024960937
 20
251.8029816742116
 30
0.0
 10
-64.0214050625465
 20
251.5928296952263
 30
0.0
 10
-63.92603922849374
 20
251.3844197729136
 30
0.0
  0
LINE
  5
454
330
1F
100
AcDbEntity
  8
0
  6
Continuous
 62
     7
370
    25
100
AcDbLine
 10
-63.9260392285
 20
251.3844197729
 30
0.0
 11
-64.0239142657
 21
251.6273245232
 31
0.0
  0
SPLINE
  5
455
330
1F
100
AcDbEntity
  8
0
  6
Continuous
 62
     7
370
    25
100
AcDbSpline
210
0.0
220
0.0
230
1.0
 70
     8
 71
     3
 72
    12
 73
     8
 74
     0
 42
0.000000001
 43
0.00000001
 40
0.0
 40
0.0
 40
0.0
 40
0.0
 40
0.5000000000000189
 40
0.5000000000000189
 40
0.7500000000000094
 40
0.7500000000000094
 40
1.0
 40
1.0
 40
1.0
 40
1.0
 10
-63.92603922849424
 20
259.3652821677674
 30
0.0
 10
-64.11653351791777
 20
259.1300223753244
 30
0.0
 10
-64.23820793098015
 20
258.8912376824738
 30
0.0
 10
-64.23886412151137
 20
258.5237461499168
 30
0.0
 10
-64.20903011971697
 20
258.4013739552674
 30
0.0
 10
-64.10010024960938
 20
258.160990270108
 30
0.0
 10
-64.0214050625465
 20
258.0422293230464
 30
0.0
 10
-63.92603922849374
 20
257.9244528458968
 30
0.0
  0
SPLINE
  5
456
330
1F
100
AcDbEntity
  8
0
  6
Continuous
 62
     7
370
    25
100
AcDbSpline
210
0.0
220
0.0
230
1.0
 70
     8
 71
     3
 72
    14
 73
    10
 74
     0
 42
0.000000001
 43
0.00000001
 40
0.0
 40
0.0
 40
0.0
 40
0.0
 40
0.25
 40
0.25
 40
0.5
 40
0.5
 40
0.75
 40
0.75
 40
1.0
 40
1.0
 40
1.0
 40
1.0
 10
-63.92603922849326
 20
257.9244528458969
 30
0.0
 10
-64.02091383780386
 20
257.5999466166082
 30
0.0
 10
-64.10051876267963
 20
257.2674873942138
 30
0.0
 10
-64.20935537757384
 20
256.6009174793057
 30
0.0
 10
-64.23867898326434
 20
256.2658412220304
 30
0.0
 10
-64.23861420151874
 20
255.5914977518028
 30
0.0
 10
-64.20845800819238
 20
255.2497183311239
 30
0.0
 10
-64.09887280682668
 20
254.5833044115191
 30
0.0
 10
-64.02032983302449
 20
254.2565303655663
 30
0.0
 10
-63.92603922849325
 20
253.93402164847
 30
0.0
  0
LINE
  5
457
330
1F
100
AcDbEntity
  8
0
  6
Continuous
 62
     7
370
    25
100
AcDbLine
 10
-64.4407192139
 20
252.2248509703
 30
0.0
 11
-64.4407192139
 21
258.5248509703
 31
0.0
  0
LINE
  5
458
330
1F
100
AcDbEntity
  8
0
  6
Continuous
 62
     7
370
    25
100
AcDbLine
 10
-63.3407192139
 20
253.9340216485
 30
0.0
 11
-63.9260392285
 21
253.9340216485
 31
0.0
  0
LINE
  5
459
330
1F
100
AcDbEntity
  8
0
  6
Continuous
 62
     7
370
    25
100
AcDbLine
 10
-63.3407192139
 20
257.9244528459
 30
0.0
 11
-63.9260392285
 21
257.9244528459
 31
0.0
  0
LINE
  5
45A
330
1F
100
AcDbEntity
  8
0
  6
Continuous
 62
     7
370
    25
100
AcDbLine
 10
-63.3407192139
 20
251.3844197729
 30
0.0
 11
-63.9260392285
 21
251.3844197729
 31
0.0
  0
LINE
  5
45B
330
1F
100
AcDbEntity
  8
0
  6
Continuous
 62
     7
370
    25
100
AcDbLine
 10
-63.3407192139
 20
259.3652821678
 30
0.0
 11
-63.9260392285
 21
259.3652821678
 31
0.0
  0
LINE
  5
45C
330
1F
100
AcDbEntity
  8
0
  6
Continuous
 62
     7
370
    25
100
AcDbLine
 10
-67.1407192139
 20
265.3748509703
 30
0.0
 11
-77.0407192139
 21
265.3748509703
 31
0.0
  0
LINE
  5
45D
330
1F
100
AcDbEntity
  8
0
  6
Continuous
 62
     7
370
    25
100
AcDbLine
 10
-67.1407192139
 20
264.5748509703
 30
0.0
 11
-67.1407192139
 21
265.3748509703
 31
0.0
  0
LINE
  5
45E
330
1F
100
AcDbEntity
  8
0
  6
Continuous
 62
     7
370
    25
100
AcDbLine
 10
-77.0407192139
 20
264.5748509703
 30
0.0
 11
-67.1407192139
 21
264.5748509703
 31
0.0
  0
LINE
  5
45F
330
1F
100
AcDbEntity
  8
0
  6
Continuous
 62
     7
370
    25
100
AcDbLine
 10
-77.0407192139
 20
264.5748509703
 30
0.0
 11
-77.0407192139
 21
264.4748509703
 31
0.0
  0
LINE
  5
460
330
1F
100
AcDbEntity
  8
0
  6
Continuous
 62
     7
370
    25
100
AcDbLine
 10
-77.0407192139
 20
264.4748509703
 30
0.0
 11
-71.8907192139
 21
264.4748509703
 31
0.0
  0
LINE
  5
461
330
1F
100
AcDbEntity
  8
0
  6
Continuous
 62
     7
370
    25
100
AcDbLine
 10
-71.8907192139
 20
263.6748509703
 30
0.0
 11
-71.8907192139
 21
264.4748509703
 31
0.0
  0
LINE
  5
462
330
1F
100
AcDbEntity
  8
0
  6
Continuous
 62
     7
370
    25
100
AcDbLine
 10
-77.0407192139
 20
263.6748509703
 30
0.0
 11
-71.8907192139
 21
263.6748509703
 31
0.0
  0
ARC
  5
463
330
1F
100
AcDbEntity
  8
0
  6
Continuous
 62
     7
370
    25
100
AcDbCircle
 10
-77.0407192139
 20
264.5248509703
 30
0.0
 40
0.8500000000000227
100
AcDbArc
 50
90.0
 51
270.0
  0
LINE
  5
464
330
1F
100
AcDbEntity
  8
0
  6
Continuous
 62
     7
370
    25
100
AcDbLine
 10
-67.1407192139
 20
246.1748509703
 30
0.0
 11
-71.4407192139
 21
246.1748509703
 31
0.0
  0
LINE
  5
465
330
1F
100
AcDbEntity
  8
0
  6
Continuous
 62
     7
370
    25
100
AcDbLine
 10
-67.1407192139
 20
245.3748509703
 30
0.0
 11
-67.1407192139
 21
246.1748509703
 31
0.0
  0
LINE
  5
466
330
1F
100
AcDbEntity
  8
0
  6
Continuous
 62
     7
370
    25
100
AcDbLine
 10
-67.1407192139
 20
245.3748509703
 30
0.0
 11
-71.4407192139
 21
245.3748509703
 31
0.0
  0
ARC
  5
467
330
1F
100
AcDbEntity
  8
0
  6
Continuous
 62
     7
370
    25
100
AcDbCircle
 10
-67.1407192139
 20
247.1748509703
 30
0.0
 40
1.800000000000125
100
AcDbArc
 50
270.0
 51
0.0
  0
ARC
  5
468
330
1F
100
AcDbEntity
  8
0
  6
Continuous
 62
     7
370
    25
100
AcDbCircle
 10
-67.1407192139
 20
247.1748509703
 30
0.0
 40
1.000000000000043
100
AcDbArc
 50
270.0
 51
0.0
  0
ARC
  5
469
330
1F
100
AcDbEntity
  8
0
  6
Continuous
 62
     7
370
    25
100
AcDbCircle
 10
-67.1407192139
 20
263.5748509703
 30
0.0
 40
1.000000000000057
100
AcDbArc
 50
360.0
 51
90.0
  0
ARC
  5
46A
330
1F
100
AcDbEntity
  8
0
  6
Continuous
 62
     7
370
    25
100
AcDbCircle
 10
-67.1407192139
 20
263.5748509703
 30
0.0
 40
1.800000000000011
100
AcDbArc
 50
0.0
 51
90.0
  0
LINE
  5
46B
330
1F
100
AcDbEntity
  8
0
  6
Continuous
 62
     7
370
    25
100
AcDbLine
 10
-66.1407192139
 20
247.1748509703
 30
0.0
 11
-66.1407192139
 21
263.5748509703
 31
0.0
  0
LINE
  5
46C
330
1F
100
AcDbEntity
  8
0
  6
Continuous
 62
     7
370
    25
100
AcDbLine
 10
-65.3407192139
 20
247.1748509703
 30
0.0
 11
-65.3407192139
 21
263.5748509703
 31
0.0
  0
LWPOLYLINE
  5
46D
330
1F
100
AcDbEntity
  8
0
  6
Continuous
 62
     7
370
    25
100
AcDbPolyline
 90
        3
 70
   128
 43
0.0
 10
-69.1505217124
 20
256.0623140102
 10
-69.1511638555
 20
256.0559370441
 10
-69.1673887041
 20
255.8722387153
  0
ARC
  5
46E
330
1F
100
AcDbEntity
  8
0
  6
Continuous
 62
     7
370
    25
100
AcDbCircle
 10
-68.6429957797
 20
256.1853665528
 30
0.0
 40
0.610767535008159
100
AcDbArc
 50
210.8424581413
 51
243.3898036633
  0
ARC
  5
46F
330
1F
100
AcDbEntity
  8
0
  6
Continuous
 62
     7
370
    25
100
AcDbCircle
 10
-59.7600618584
 20
255.0438536015
 30
0.0
 40
9.175815043550818
100
AcDbArc
 50
177.9327321271
 51
179.6562101044
  0
ARC
  5
470
330
1F
100
AcDbEntity
  8
0
  6
Continuous
 62
     7
370
    25
100
AcDbCircle
 10
-61.4037393161
 20
255.2807136953
 30
0.0
 40
7.786288415095378
100
AcDbArc
 50
184.3702527064
 51
195.2299003794
  0
ARC
  5
471
330
1F
100
AcDbEntity
  8
0
  6
Continuous
 62
     7
370
    25
100
AcDbCircle
 10
-68.6954476489
 20
253.330349854
 30
0.0
 40
0.2406805056719906
100
AcDbArc
 50
156.7420981705
 51
203.2579018296
  0
ARC
  5
472
330
1F
100
AcDbEntity
  8
0
  6
Continuous
 62
     7
370
    25
100
AcDbCircle
 10
-61.4037393161
 20
255.4707889902
 30
0.0
 40
7.786288415095753
100
AcDbArc
 50
184.3702527064
 51
195.2299003794
  0
ARC
  5
473
330
1F
100
AcDbEntity
  8
0
  6
Continuous
 62
     7
370
    25
100
AcDbCircle
 10
-68.6429957797
 20
254.5643353879
 30
0.0
 40
0.6107675350082997
100
AcDbArc
 50
116.6101963367
 51
149.1575418587
  0
ARC
  5
474
330
1F
100
AcDbEntity
  8
0
  6
Continuous
 62
     7
370
    25
100
AcDbCircle
 10
-59.8369336382
 20
255.702832483
 30
0.0
 40
9.09894271024371
100
AcDbArc
 50
176.2668736478
 51
183.7331263522
  0
ARC
  5
475
330
1F
100
AcDbEntity
  8
0
  6
Continuous
 62
     7
370
    25
100
AcDbCircle
 10
-68.6429957797
 20
255.7491861727
 30
0.0
 40
0.6107675350081072
100
AcDbArc
 50
116.6101963367
 51
149.1575418587
  0
ARC
  5
476
330
1F
100
AcDbEntity
  8
0
  6
Continuous
 62
     7
370
    25
100
AcDbCircle
 10
-61.4037393161
 20
255.4689882454
 30
0.0
 40
7.786288415097165
100
AcDbArc
 50
164.7700996206
 51
175.6297472936
  0
ARC
  5
477
330
1F
100
AcDbEntity
  8
0
  6
Continuous
 62
     7
370
    25
100
AcDbCircle
 10
-68.7834854353
 20
257.4404533472
 30
0.0
 40
0.1522432420606354
100
AcDbArc
 50
150.9451665855
 51
179.1449116561
  0
LINE
  5
478
330
1F
100
AcDbEntity
  8
0
  6
Continuous
 62
     7
370
    25
100
AcDbLine
 10
-68.1407192139
 20
259.3748509703
 30
0.0
 11
-68.1407192139
 21
251.3748509703
 31
0.0
  0
LINE
  5
479
330
1F
100
AcDbEntity
  8
0
  6
Continuous
 62
     7
370
    25
100
AcDbLine
 10
-69.1673887041
 20
256.0623140102
 30
0.0
 11
-68.9288330463
 21
256.0623140102
 31
0.0
  0
LINE
  5
47A
330
1F
100
AcDbEntity
  8
0
  6
Continuous
 62
     7
370
    25
100
AcDbLine
 10
-69.1673887041
 20
254.6873879305
 30
0.0
 11
-69.1505217124
 21
254.6873879305
 31
0.0
  0
LINE
  5
47B
330
1F
100
AcDbEntity
  8
0
  6
Continuous
 62
     7
370
    25
100
AcDbLine
 10
-69.1673887041
 20
255.8722387153
 30
0.0
 11
-68.9343383878
 21
255.8722387153
 31
0.0
  0
LINE
  5
47C
330
1F
100
AcDbEntity
  8
0
  6
Continuous
 62
     7
370
    25
100
AcDbLine
 10
-44.9407192139
 20
221.7091578077
 30
0.0
 11
-44.9407192139
 21
216.5680815709
 31
0.0
  0
ARC
  5
47D
330
1F
100
AcDbEntity
  8
0
  6
Continuous
 62
     7
370
    25
100
AcDbCircle
 10
-46.8822303247
 20
216.6303241467
 30
0.0
 40
1.942508566655216
100
AcDbArc
 50
268.2745645851
 51
358.1637932023
  0
LINE
  5
47E
330
1F
100
AcDbEntity
  8
0
  6
Continuous
 62
     7
370
    25
100
AcDbLine
 10
-46.9407192139
 20
214.6886963293
 30
0.0
 11
-58.9407192139
 21
214.6886963293
 31
0.0
  0
ARC
  5
47F
330
1F
100
AcDbEntity
  8
0
  6
Continuous
 62
     7
370
    25
100
AcDbCircle
 10
-58.9992081031
 20
216.6303241467
 30
0.0
 40
1.942508566655244
100
AcDbArc
 50
181.8362067977
 51
271.7254354149
  0
LINE
  5
480
330
1F
100
AcDbEntity
  8
0
  6
Continuous
 62
     7
370
    25
100
AcDbLine
 10
-60.9407192139
 20
216.5680815709
 30
0.0
 11
-60.9407192139
 21
221.7091578077
 31
0.0
  0
LINE
  5
481
330
1F
100
AcDbEntity
  8
0
  6
Continuous
 62
     7
370
    25
100
AcDbLine
 10
-44.9407192139
 20
216.5680815709
 30
0.0
 11
-44.9407192139
 21
215.8840412842
 31
0.0
  0
ARC
  5
482
330
1F
100
AcDbEntity
  8
0
  6
Continuous
 62
     7
370
    25
100
AcDbCircle
 10
-46.8822303247
 20
215.9462838601
 30
0.0
 40
1.942508566655258
100
AcDbArc
 50
268.2745645851
 51
358.1637932023
  0
LINE
  5
483
330
1F
100
AcDbEntity
  8
0
  6
Continuous
 62
     7
370
    25
100
AcDbLine
 10
-46.9407192139
 20
214.0046560426
 30
0.0
 11
-58.9407192139
 21
214.0046560426
 31
0.0
  0
LINE
  5
484
330
1F
100
AcDbEntity
  8
0
  6
Continuous
 62
     7
370
    25
100
AcDbLine
 10
-60.9407192139
 20
215.8840412842
 30
0.0
 11
-60.9407192139
 21
216.5680815709
 31
0.0
  0
ARC
  5
485
330
1F
100
AcDbEntity
  8
0
  6
Continuous
 62
     7
370
    25
100
AcDbCircle
 10
-58.9992081031
 20
215.9462838601
 30
0.0
 40
1.942508566655273
100
AcDbArc
 50
181.8362067977
 51
271.7254354149
  0
LINE
  5
486
330
1F
100
AcDbEntity
  8
0
  6
Continuous
 62
     7
370
    25
100
AcDbLine
 10
-44.9407192139
 20
221.7091578077
 30
0.0
 11
-44.9407192139
 21
222.051177951
 31
0.0
  0
LINE
  5
487
330
1F
100
AcDbEntity
  8
0
  6
Continuous
 62
     7
370
    25
100
AcDbLine
 10
-60.9407192139
 20
222.051177951
 30
0.0
 11
-60.9407192139
 21
221.7091578077
 31
0.0
  0
LINE
  5
488
330
1F
100
AcDbEntity
  8
0
  6
Continuous
 62
     7
370
    25
100
AcDbLine
 10
-71.4407192139
 20
221.8748509703
 30
0.0
 11
-60.9407192139
 21
221.8748509703
 31
0.0
  0
CIRCLE
  5
489
330
1F
100
AcDbEntity
  8
0
  6
Continuous
 62
     7
370
    25
100
AcDbCircle
 10
-52.8407192139
 20
229.3748509703
 30
0.0
 40
3.499999999999993
  0
LINE
  5
48A
330
1F
100
AcDbEntity
  8
0
  6
Continuous
 62
     7
370
    25
100
AcDbLine
 10
-44.9407192139
 20
222.051177951
 30
0.0
 11
-44.9407192139
 21
234.8748509703
 31
0.0
  0
LINE
  5
48B
330
1F
100
AcDbEntity
  8
0
  6
Continuous
 62
     7
370
    25
100
AcDbLine
 10
-46.9407192139
 20
236.8748509703
 30
0.0
 11
-71.4407192139
 21
236.8748509703
 31
0.0
  0
ARC
  5
48C
330
1F
100
AcDbEntity
  8
0
  6
Continuous
 62
     7
370
    25
100
AcDbCircle
 10
-46.9407192139
 20
234.8748509703
 30
0.0
 40
2.0
100
AcDbArc
 50
0.0
 51
90.0
  0
CIRCLE
  5
48D
330
1F
100
AcDbEntity
  8
0
  6
Continuous
 62
     7
370
    25
100
AcDbCircle
 10
-52.8407192139
 20
229.3748509703
 30
0.0
 40
2.458750000016618
  0
CIRCLE
  5
48E
330
1F
100
AcDbEntity
  8
0
  6
Continuous
 62
     7
370
    25
100
AcDbCircle
 10
-52.8407192139
 20
229.3748509703
 30
0.0
 40
2.999999999999996
  0
ENDSEC
  0
SECTION
  2
OBJECTS
  0
DICTIONARY
  5
C
330
0
100
AcDbDictionary
281
     1
  3
ACAD_GROUP
350
D
  3
ACAD_LAYOUT
350
1A
  3
ACAD_MLINESTYLE
350
17
  3
ACAD_PLOTSETTINGS
350
19
  3
ACAD_PLOTSTYLENAME
350
E
  3
ACAD_SCALELIST
350
47
  0
DICTIONARY
  5
D
102
{ACAD_REACTORS
330
C
102
}
330
C
100
AcDbDictionary
281
     1
  0
DICTIONARY
  5
1A
102
{ACAD_REACTORS
330
C
102
}
330
C
100
AcDbDictionary
281
     1
  3
Layout1
350
1E
  3
Layout2
350
26
  3
Model
350
22
  0
DICTIONARY
  5
17
102
{ACAD_REACTORS
330
C
102
}
330
C
100
AcDbDictionary
281
     1
  3
Standard
350
18
  0
DICTIONARY
  5
19
102
{ACAD_REACTORS
330
C
102
}
330
C
100
AcDbDictionary
281
     1
  0
ACDBDICTIONARYWDFLT
  5
E
102
{ACAD_REACTORS
330
C
102
}
330
C
100
AcDbDictionary
281
     1
  3
Normal
350
F
100
AcDbDictionaryWithDefault
340
F
  0
DICTIONARY
  5
47
102
{ACAD_REACTORS
330
C
102
}
330
C
100
AcDbDictionary
281
     1
  3
A0
350
48
  3
A1
350
49
  3
A2
350
4A
  3
A3
350
4B
  3
A4
350
4C
  3
A5
350
4D
  3
A6
350
4E
  3
A7
350
4F
  3
A8
350
50
  3
A9
350
51
  3
B0
350
52
  3
B1
350
53
  3
B2
350
54
  3
B3
350
55
  3
B4
350
56
  3
B5
350
57
  3
B6
350
58
  3
B7
350
59
  3
B8
350
5A
  3
B9
350
5B
  3
C0
350
5C
  3
C1
350
5D
  3
C2
350
5E
  3
C3
350
5F
  3
C4
350
60
  3
C5
350
61
  3
C6
350
62
  3
C7
350
63
  3
C8
350
64
  3
C9
350
65
  3
D0
350
66
  3
D1
350
67
  3
D2
350
68
  0
LAYOUT
  5
1E
102
{ACAD_REACTORS
330
1A
102
}
330
1A
100
AcDbPlotSettings
  1

  2
none_device
  4

  6

 40
0.0
 41
0.0
 42
0.0
 43
0.0
 44
0.0
 45
0.0
 46
0.0
 47
0.0
 48
0.0
 49
0.0
140
0.0
141
0.0
142
1.0
143
1.0
 70
   688
 72
     1
 73
     0
 74
     5
  7

 75
    16
147
1.0
148
0.0
149
0.0
100
AcDbLayout
  1
Layout1
 70
     1
 71
     1
 10
0.0
 20
0.0
 11
420.0
 21
297.0
 12
0.0
 22
0.0
 32
0.0
 14
1.0000000000E+20
 24
1.0000000000E+20
 34
1.0000000000E+20
 15
-1.0000000000E+20
 25
-1.0000000000E+20
 35
-1.0000000000E+20
146
0.0
 13
0.0
 23
0.0
 33
0.0
 16
1.0
 26
0.0
 36
0.0
 17
0.0
 27
1.0
 37
0.0
 76
     0
330
1B
  0
LAYOUT
  5
26
102
{ACAD_REACTORS
330
1A
102
}
330
1A
100
AcDbPlotSettings
  1

  2
none_device
  4

  6

 40
0.0
 41
0.0
 42
0.0
 43
0.0
 44
0.0
 45
0.0
 46
0.0
 47
0.0
 48
0.0
 49
0.0
140
0.0
141
0.0
142
1.0
143
1.0
 70
   688
 72
     1
 73
     0
 74
     5
  7

 75
    16
147
1.0
148
0.0
149
0.0
100
AcDbLayout
  1
Layout2
 70
     1
 71
     2
 10
0.0
 20
0.0
 11
0.0
 21
0.0
 12
0.0
 22
0.0
 32
0.0
 14
0.0
 24
0.0
 34
0.0
 15
0.0
 25
0.0
 35
0.0
146
0.0
 13
0.0
 23
0.0
 33
0.0
 16
1.0
 26
0.0
 36
0.0
 17
0.0
 27
1.0
 37
0.0
 76
     0
330
23
  0
LAYOUT
  5
22
102
{ACAD_REACTORS
330
1A
102
}
330
1A
100
AcDbPlotSettings
  1

  2
none_device
  4
Letter_(8.50_x_11.00_Inches)
  6

 40
6.35
 41
6.35
 42
6.35000508
 43
6.35000508
 44
215.9
 45
279.4
 46
0.0
 47
0.0
 48
0.0
 49
0.0
140
0.0
141
0.0
142
1.0
143
1.0
 70
  1712
 72
     1
 73
     0
 74
     0
  7

 75
     0
147
1.0
148
0.0
149
0.0
100
AcDbLayout
  1
Model
 70
     1
 71
     0
 10
0.0
 20
0.0
 11
841.0
 21
594.0
 12
0.0
 22
0.0
 32
0.0
 14
0.0
 24
0.0
 34
0.0
 15
841.0
 25
594.0
 35
0.0
146
0.0
 13
0.0
 23
0.0
 33
0.0
 16
1.0
 26
0.0
 36
0.0
 17
0.0
 27
1.0
 37
0.0
 76
     0
330
1F
331
29
  0
MLINESTYLE
  5
18
102
{ACAD_REACTORS
330
17
102
}
330
17
100
AcDbMlineStyle
  2
Standard
 70
     0
  3

 62
   256
 51
90.0
 52
90.0
 71
     2
 49
0.5
 62
   256
  6
BYLAYER
 49
-0.5
 62
   256
  6
BYLAYER
  0
ACDBPLACEHOLDER
  5
F
102
{ACAD_REACTORS
330
E
102
}
330
E
  0
SCALE
  5
48
102
{ACAD_REACTORS
330
47
102
}
330
47
100
AcDbScale
 70
     0
300
1:1
140
1.0
141
1.0
290
     1
  0
SCALE
  5
49
102
{ACAD_REACTORS
330
47
102
}
330
47
100
AcDbScale
 70
     0
300
1:2
140
1.0
141
2.0
290
     0
  0
SCALE
  5
4A
102
{ACAD_REACTORS
330
47
102
}
330
47
100
AcDbScale
 70
     0
300
1:4
140
1.0
141
4.0
290
     0
  0
SCALE
  5
4B
102
{ACAD_REACTORS
330
47
102
}
330
47
100
AcDbScale
 70
     0
300
1:5
140
1.0
141
5.0
290
     0
  0
SCALE
  5
4C
102
{ACAD_REACTORS
330
47
102
}
330
47
100
AcDbScale
 70
     0
300
1:8
140
1.0
141
8.0
290
     0
  0
SCALE
  5
4D
102
{ACAD_REACTORS
330
47
102
}
330
47
100
AcDbScale
 70
     0
300
1:10
140
1.0
141
10.0
290
     0
  0
SCALE
  5
4E
102
{ACAD_REACTORS
330
47
102
}
330
47
100
AcDbScale
 70
     0
300
1:16
140
1.0
141
16.0
290
     0
  0
SCALE
  5
4F
102
{ACAD_REACTORS
330
47
102
}
330
47
100
AcDbScale
 70
     0
300
1:20
140
1.0
141
20.0
290
     0
  0
SCALE
  5
50
102
{ACAD_REACTORS
330
47
102
}
330
47
100
AcDbScale
 70
     0
300
1:30
140
1.0
141
30.0
290
     0
  0
SCALE
  5
51
102
{ACAD_REACTORS
330
47
102
}
330
47
100
AcDbScale
 70
     0
300
1:40
140
1.0
141
40.0
290
     0
  0
SCALE
  5
52
102
{ACAD_REACTORS
330
47
102
}
330
47
100
AcDbScale
 70
     0
300
1:50
140
1.0
141
50.0
290
     0
  0
SCALE
  5
53
102
{ACAD_REACTORS
330
47
102
}
330
47
100
AcDbScale
 70
     0
300
1:100
140
1.0
141
100.0
290
     0
  0
SCALE
  5
54
102
{ACAD_REACTORS
330
47
102
}
330
47
100
AcDbScale
 70
     0
300
2:1
140
2.0
141
1.0
290
     0
  0
SCALE
  5
55
102
{ACAD_REACTORS
330
47
102
}
330
47
100
AcDbScale
 70
     0
300
4:1
140
4.0
141
1.0
290
     0
  0
SCALE
  5
56
102
{ACAD_REACTORS
330
47
102
}
330
47
100
AcDbScale
 70
     0
300
8:1
140
8.0
141
1.0
290
     0
  0
SCALE
  5
57
102
{ACAD_REACTORS
330
47
102
}
330
47
100
AcDbScale
 70
     0
300
10:1
140
10.0
141
1.0
290
     0
  0
SCALE
  5
58
102
{ACAD_REACTORS
330
47
102
}
330
47
100
AcDbScale
 70
     0
300
100:1
140
100.0
141
1.0
290
     0
  0
SCALE
  5
59
102
{ACAD_REACTORS
330
47
102
}
330
47
100
AcDbScale
 70
     0
300
1/128" = 1'-0"
140
0.0078125
141
12.0
290
     0
  0
SCALE
  5
5A
102
{ACAD_REACTORS
330
47
102
}
330
47
100
AcDbScale
 70
     0
300
1/64" = 1'-0"
140
0.015625
141
12.0
290
     0
  0
SCALE
  5
5B
102
{ACAD_REACTORS
330
47
102
}
330
47
100
AcDbScale
 70
     0
300
1/32" = 1'-0"
140
0.03125
141
12.0
290
     0
  0
SCALE
  5
5C
102
{ACAD_REACTORS
330
47
102
}
330
47
100
AcDbScale
 70
     0
300
1/16" = 1'-0"
140
0.0625
141
12.0
290
     0
  0
SCALE
  5
5D
102
{ACAD_REACTORS
330
47
102
}
330
47
100
AcDbScale
 70
     0
300
3/32" = 1'-0"
140
0.09375
141
12.0
290
     0
  0
SCALE
  5
5E
102
{ACAD_REACTORS
330
47
102
}
330
47
100
AcDbScale
 70
     0
300
1/8" = 1'-0"
140
0.125
141
12.0
290
     0
  0
SCALE
  5
5F
102
{ACAD_REACTORS
330
47
102
}
330
47
100
AcDbScale
 70
     0
300
3/16" = 1'-0"
140
0.1875
141
12.0
290
     0
  0
SCALE
  5
60
102
{ACAD_REACTORS
330
47
102
}
330
47
100
AcDbScale
 70
     0
300
1/4" = 1'-0"
140
0.25
141
12.0
290
     0
  0
SCALE
  5
61
102
{ACAD_REACTORS
330
47
102
}
330
47
100
AcDbScale
 70
     0
300
3/8" = 1'-0"
140
0.375
141
12.0
290
     0
  0
SCALE
  5
62
102
{ACAD_REACTORS
330
47
102
}
330
47
100
AcDbScale
 70
     0
300
1/2" = 1'-0"
140
0.5
141
12.0
290
     0
  0
SCALE
  5
63
102
{ACAD_REACTORS
330
47
102
}
330
47
100
AcDbScale
 70
     0
300
3/4" = 1'-0"
140
0.75
141
12.0
290
     0
  0
SCALE
  5
64
102
{ACAD_REACTORS
330
47
102
}
330
47
100
AcDbScale
 70
     0
300
1" = 1'-0"
140
1.0
141
12.0
290
     0
  0
SCALE
  5
65
102
{ACAD_REACTORS
330
47
102
}
330
47
100
AcDbScale
 70
     0
300
1-1/2" = 1'-0"
140
1.5
141
12.0
290
     0
  0
SCALE
  5
66
102
{ACAD_REACTORS
330
47
102
}
330
47
100
AcDbScale
 70
     0
300
3" = 1'-0"
140
3.0
141
12.0
290
     0
  0
SCALE
  5
67
102
{ACAD_REACTORS
330
47
102
}
330
47
100
AcDbScale
 70
     0
300
6" = 1'-0"
140
6.0
141
12.0
290
     0
  0
SCALE
  5
68
102
{ACAD_REACTORS
330
47
102
}
330
47
100
AcDbScale
 70
     0
300
1'-0" = 1'-0"
140
12.0
141
12.0
290
     0
  0
ENDSEC
  0
EOF
