  0
SECTION
  2
HEADER
  9
$ACADVER
  1
AC1015
  9
$ACADMAINTVER
 70
     6
  9
$DWGCODEPAGE
  3
ANSI_1251
  9
$INSBASE
 10
0.0
 20
0.0
 30
0.0
  9
$EXTMIN
 10
0.0
 20
0.0
 30
0.0
  9
$EXTMAX
 10
3500.0
 20
3000.0
 30
0.0
  9
$LIMMIN
 10
0.0
 20
0.0
  9
$LIMMAX
 10
3500.0
 20
3000.0
  9
$ORTHOMODE
 70
     0
  9
$REGENMODE
 70
     1
  9
$FILLMODE
 70
     1
  9
$QTEXTMODE
 70
     0
  9
$MIRRTEXT
 70
     1
  9
$LTSCALE
 40
1.0
  9
$ATTMODE
 70
     1
  9
$TEXTSIZE
 40
3.5
  9
$TRACEWID
 40
1.0
  9
$TEXTSTYLE
  7
Standard
  9
$CLAYER
  8
0
  9
$CELTYPE
  6
ByLayer
  9
$CECOLOR
 62
   256
  9
$CELTSCALE
 40
1.0
  9
$DISPSILH
 70
     0
  9
$DIMSCALE
 40
1.0
  9
$DIMASZ
 40
3.302
  9
$DIMEXO
 40
0.0
  9
$DIMDLI
 40
3.75
  9
$DIMRND
 40
0.0
  9
$DIMDLE
 40
0.0
  9
$DIMEXE
 40
1.0
  9
$DIMTP
 40
0.0
  9
$DIMTM
 40
0.0
  9
$DIMTXT
 40
3.5
  9
$DIMCEN
 40
2.5
  9
$DIMTSZ
 40
0.0
  9
$DIMTOL
 70
     0
  9
$DIMLIM
 70
     0
  9
$DIMTIH
 70
     1
  9
$DIMTOH
 70
     1
  9
$DIMSE1
 70
     0
  9
$DIMSE2
 70
     0
  9
$DIMTAD
 70
     1
  9
$DIMZIN
 70
     0
  9
$DIMBLK
  1

  9
$DIMASO
 70
     1
  9
$DIMSHO
 70
     1
  9
$DIMPOST
  1

  9
$DIMAPOST
  1

  9
$DIMALT
 70
     0
  9
$DIMALTD
 70
     3
  9
$DIMALTF
 40
0.0393700787
  9
$DIMLFAC
 40
1.0
  9
$DIMTOFL
 70
     1
  9
$DIMTVP
 40
0.0
  9
$DIMTIX
 70
     0
  9
$DIMSOXD
 70
     0
  9
$DIMSAH
 70
     0
  9
$DIMBLK1
  1

  9
$DIMBLK2
  1

  9
$DIMSTYLE
  2
ISO-25
  9
$DIMCLRD
 70
     0
  9
$DIMCLRE
 70
     0
  9
$DIMCLRT
 70
     0
  9
$DIMTFAC
 40
1.0
  9
$DIMGAP
 40
1.524
  9
$DIMJUST
 70
     0
  9
$DIMSD1
 70
     0
  9
$DIMSD2
 70
     0
  9
$DIMTOLJ
 70
     0
  9
$DIMTZIN
 70
     0
  9
$DIMALTZ
 70
     0
  9
$DIMALTTZ
 70
     0
  9
$DIMUPT
 70
     0
  9
$DIMDEC
 70
     2
  9
$DIMTDEC
 70
     2
  9
$DIMALTU
 70
     2
  9
$DIMALTTD
 70
     3
  9
$DIMTXSTY
  7
Standard
  9
$DIMAUNIT
 70
     0
  9
$DIMADEC
 70
     2
  9
$DIMALTRND
 40
0.0
  9
$DIMAZIN
 70
     0
  9
$DIMDSEP
 70
    44
  9
$DIMATFIT
 70
     3
  9
$DIMFRAC
 70
     0
  9
$DIMLDRBLK
  1

  9
$DIMLUNIT
 70
     2
  9
$DIMLWD
 70
    -2
  9
$DIMLWE
 70
    -2
  9
$DIMTMOVE
 70
     0
  9
$LUNITS
 70
     2
  9
$LUPREC
 70
     1
  9
$SKETCHINC
 40
1.0
  9
$FILLETRAD
 40
10.0
  9
$AUNITS
 70
     1
  9
$AUPREC
 70
     2
  9
$MENU
  1
.
  9
$ELEVATION
 40
0.0
  9
$PELEVATION
 40
0.0
  9
$THICKNESS
 40
0.0
  9
$LIMCHECK
 70
     0
  9
$CHAMFERA
 40
0.0
  9
$CHAMFERB
 40
0.0
  9
$CHAMFERC
 40
0.0
  9
$CHAMFERD
 40
0.0
  9
$SKPOLY
 70
     0
  9
$TDCREATE
 40
2459492.610706308
  9
$TDUCREATE
 40
2459492.485706308
  9
$TDUPDATE
 40
2459492.610707928
  9
$TDUUPDATE
 40
2459492.485707928
  9
$TDINDWG
 40
0.0000000116
  9
$TDUSRTIMER
 40
0.0000000116
  9
$USRTIMER
 70
     1
  9
$ANGBASE
 50
0.0
  9
$ANGDIR
 70
     0
  9
$PDMODE
 70
     0
  9
$PDSIZE
 40
-1.0
  9
$PLINEWID
 40
0.0
  9
$SPLFRAME
 70
     0
  9
$SPLINETYPE
 70
     6
  9
$SPLINESEGS
 70
     8
  9
$HANDSEED
  5
238
  9
$SURFTAB1
 70
     6
  9
$SURFTAB2
 70
     6
  9
$SURFTYPE
 70
     6
  9
$SURFU
 70
     6
  9
$SURFV
 70
     6
  9
$UCSBASE
  2

  9
$UCSNAME
  2

  9
$UCSORG
 10
0.0
 20
0.0
 30
0.0
  9
$UCSXDIR
 10
1.0
 20
0.0
 30
0.0
  9
$UCSYDIR
 10
0.0
 20
1.0
 30
0.0
  9
$UCSORTHOREF
  2

  9
$UCSORTHOVIEW
 70
     0
  9
$UCSORGTOP
 10
0.0
 20
0.0
 30
0.0
  9
$UCSORGBOTTOM
 10
0.0
 20
0.0
 30
0.0
  9
$UCSORGLEFT
 10
0.0
 20
0.0
 30
0.0
  9
$UCSORGRIGHT
 10
0.0
 20
0.0
 30
0.0
  9
$UCSORGFRONT
 10
0.0
 20
0.0
 30
0.0
  9
$UCSORGBACK
 10
0.0
 20
0.0
 30
0.0
  9
$PUCSBASE
  2

  9
$PUCSNAME
  2

  9
$PUCSORG
 10
0.0
 20
0.0
 30
0.0
  9
$PUCSXDIR
 10
1.0
 20
0.0
 30
0.0
  9
$PUCSYDIR
 10
0.0
 20
1.0
 30
0.0
  9
$PUCSORTHOREF
  2

  9
$PUCSORTHOVIEW
 70
     0
  9
$PUCSORGTOP
 10
0.0
 20
0.0
 30
0.0
  9
$PUCSORGBOTTOM
 10
0.0
 20
0.0
 30
0.0
  9
$PUCSORGLEFT
 10
0.0
 20
0.0
 30
0.0
  9
$PUCSORGRIGHT
 10
0.0
 20
0.0
 30
0.0
  9
$PUCSORGFRONT
 10
0.0
 20
0.0
 30
0.0
  9
$PUCSORGBACK
 10
0.0
 20
0.0
 30
0.0
  9
$USERI1
 70
     0
  9
$USERI2
 70
     0
  9
$USERI3
 70
     0
  9
$USERI4
 70
     0
  9
$USERI5
 70
     0
  9
$USERR1
 40
0.0
  9
$USERR2
 40
0.0
  9
$USERR3
 40
0.0
  9
$USERR4
 40
0.0
  9
$USERR5
 40
0.0
  9
$WORLDVIEW
 70
     1
  9
$SHADEDGE
 70
     3
  9
$SHADEDIF
 70
    70
  9
$TILEMODE
 70
     1
  9
$MAXACTVP
 70
    64
  9
$PINSBASE
 10
0.0
 20
0.0
 30
0.0
  9
$PLIMCHECK
 70
     0
  9
$PEXTMIN
 10
1.0000000000E+20
 20
1.0000000000E+20
 30
1.0000000000E+20
  9
$PEXTMAX
 10
-1.0000000000E+20
 20
-1.0000000000E+20
 30
-1.0000000000E+20
  9
$PLIMMIN
 10
0.0
 20
0.0
  9
$PLIMMAX
 10
420.0
 20
297.0
  9
$UNITMODE
 70
     0
  9
$VISRETAIN
 70
     1
  9
$PLINEGEN
 70
     0
  9
$PSLTSCALE
 70
     1
  9
$TREEDEPTH
 70
  3020
  9
$CMLSTYLE
  2
Standard
  9
$CMLJUST
 70
     0
  9
$CMLSCALE
 40
20.0
  9
$PROXYGRAPHICS
 70
     1
  9
$MEASUREMENT
 70
     1
  9
$CELWEIGHT
370
    -1
  9
$ENDCAPS
280
     0
  9
$JOINSTYLE
280
     0
  9
$LWDISPLAY
290
     1
  9
$INSUNITS
 70
     4
  9
$HYPERLINKBASE
  1

  9
$STYLESHEET
  1

  9
$XEDIT
290
     1
  9
$CEPSNTYPE
380
     0
  9
$PSTYLEMODE
290
     1
  9
$FINGERPRINTGUID
  2
{E80402AD-8325-4F78-9440-3A8038499364}
  9
$VERSIONGUID
  2
{FAEB1C32-E019-11D5-929B-00C0DF256EC4}
  9
$EXTNAMES
290
     1
  9
$PSVPSCALE
 40
0.0
  9
$OLESTARTUP
290
     0
  0
ENDSEC
  0
SECTION
  2
CLASSES
  0
CLASS
  1
ACDBDICTIONARYWDFLT
  2
AcDbDictionaryWithDefault
  3
ObjectDBX Classes
 90
        0
280
     0
281
     0
  0
CLASS
  1
VISUALSTYLE
  2
AcDbVisualStyle
  3
ObjectDBX Classes
 90
     4095
280
     0
281
     0
  0
CLASS
  1
MATERIAL
  2
AcDbMaterial
  3
ObjectDBX Classes
 90
     1153
280
     0
281
     0
  0
CLASS
  1
SCALE
  2
AcDbScale
  3
ObjectDBX Classes
 90
     1153
280
     0
281
     0
  0
CLASS
  1
TABLESTYLE
  2
AcDbTableStyle
  3
ObjectDBX Classes
 90
     4095
280
     0
281
     0
  0
CLASS
  1
MLEADERSTYLE
  2
AcDbMLeaderStyle
  3
ACDB_MLEADERSTYLE_CLASS
 90
     4095
280
     0
281
     0
  0
CLASS
  1
SUN
  2
AcDbSun
  3
SCENEOE
 90
     1153
280
     0
281
     0
  0
CLASS
  1
ACDBPLACEHOLDER
  2
AcDbPlaceHolder
  3
ObjectDBX Classes
 90
        0
280
     0
281
     0
  0
CLASS
  1
LAYOUT
  2
AcDbLayout
  3
ObjectDBX Classes
 90
        0
280
     0
281
     0
  0
ENDSEC
  0
SECTION
  2
TABLES
  0
TABLE
  2
VPORT
  5
8
330
0
100
AcDbSymbolTable
 70
     1
  0
VPORT
  5
29
330
8
100
AcDbSymbolTableRecord
100
AcDbViewportTableRecord
  2
*Active
 70
     0
 10
0.0
 20
0.0
 11
1.0
 21
1.0
 12
1750.0
 22
1500.0
 13
0.0
 23
0.0
 14
10.0
 24
10.0
 15
10.0
 25
10.0
 16
0.0
 26
0.0
 36
1.0
 17
0.0
 27
0.0
 37
0.0
 40
3000.0
 41
1.1666666667
 42
50.0
 43
0.0
 44
0.0
 50
0.0
 51
0.0
 71
     0
 72
  2000
 73
     1
 74
     3
 75
     0
 76
     0
 77
     0
 78
     0
281
     0
 65
     1
110
0.0
120
0.0
130
0.0
111
1.0
121
0.0
131
0.0
112
0.0
122
1.0
132
0.0
 79
     0
146
0.0
  0
ENDTAB
  0
TABLE
  2
LTYPE
  5
5
330
0
100
AcDbSymbolTable
 70
     6
  0
LTYPE
  5
14
330
5
100
AcDbSymbolTableRecord
100
AcDbLinetypeTableRecord
  2
ByBlock
 70
     0
  3

 72
    65
 73
     0
 40
0.0
  0
LTYPE
  5
15
330
5
100
AcDbSymbolTableRecord
100
AcDbLinetypeTableRecord
  2
ByLayer
 70
     0
  3

 72
    65
 73
     0
 40
0.0
  0
LTYPE
  5
16
330
5
100
AcDbSymbolTableRecord
100
AcDbLinetypeTableRecord
  2
Continuous
 70
     0
  3
Solid line
 72
    65
 73
     0
 40
0.0
  0
LTYPE
  5
6E
330
5
100
AcDbSymbolTableRecord
100
AcDbLinetypeTableRecord
  2
HIDDEN
 70
     0
  3
Hidden __ __ __ __ __ __ __ __ __ __ __ __ __ __
 72
    65
 73
     2
 40
1.905
 49
1.27
 74
     0
 49
-0.635
 74
     0
  0
LTYPE
  5
6F
330
5
100
AcDbSymbolTableRecord
100
AcDbLinetypeTableRecord
  2
PHANTOM
 70
     0
  3
Phantom ______  __  __  ______  __  __  ______
 72
    65
 73
     6
 40
12.7
 49
6.35
 74
     0
 49
-1.27
 74
     0
 49
1.27
 74
     0
 49
-1.27
 74
     0
 49
1.27
 74
     0
 49
-1.27
 74
     0
  0
LTYPE
  5
70
330
5
100
AcDbSymbolTableRecord
100
AcDbLinetypeTableRecord
  2
CENTER
 70
     0
  3
Center ____ _ ____ _ ____ _ ____ _ ____ _ ____
 72
    65
 73
     4
 40
10.16
 49
6.35
 74
     0
 49
-1.27
 74
     0
 49
1.27
 74
     0
 49
-1.27
 74
     0
  0
LTYPE
  5
71
330
5
100
AcDbSymbolTableRecord
100
AcDbLinetypeTableRecord
  2
CENTERX2
 70
     0
  3
Center (2x) ________  __  ________  __  _____
 72
    65
 73
     4
 40
20.32
 49
12.7
 74
     0
 49
-2.54
 74
     0
 49
2.54
 74
     0
 49
-2.54
 74
     0
  0
LTYPE
  5
72
330
5
100
AcDbSymbolTableRecord
100
AcDbLinetypeTableRecord
  2
DOT2
 70
     0
  3
Dot (.5x) ........................................
 72
    65
 73
     2
 40
0.635
 49
0.0
 74
     0
 49
-0.635
 74
     0
  0
ENDTAB
  0
TABLE
  2
LAYER
  5
2
330
0
100
AcDbSymbolTable
 70
     8
  0
LAYER
  5
10
330
2
100
AcDbSymbolTableRecord
100
AcDbLayerTableRecord
  2
0
 70
     0
 62
     7
  6
Continuous
370
    -3
390
F
  0
LAYER
  5
73
330
2
100
AcDbSymbolTableRecord
100
AcDbLayerTableRecord
  2
SLD-0
 70
     0
 62
     7
  6
Continuous
370
    25
390
F
  0
LAYER
  5
74
330
2
100
AcDbSymbolTableRecord
100
AcDbLayerTableRecord
  2
OSNOVA
 70
     0
 62
     5
  6
Continuous
370
    -3
390
F
  0
LAYER
  5
75
330
2
100
AcDbSymbolTableRecord
100
AcDbLayerTableRecord
  2
THIN_LINE
 70
     0
 62
     7
  6
Continuous
370
    25
390
F
  0
LAYER
  5
76
330
2
100
AcDbSymbolTableRecord
100
AcDbLayerTableRecord
  2
THICK_LINE
 70
     0
 62
     7
  6
Continuous
370
    25
390
F
  0
LAYER
  5
77
330
2
100
AcDbSymbolTableRecord
100
AcDbLayerTableRecord
  2
THIN_LIONE
 70
     0
 62
     7
  6
Continuous
370
    -3
390
F
  0
LAYER
  5
78
330
2
100
AcDbSymbolTableRecord
100
AcDbLayerTableRecord
  2
THICK_LIONE
 70
     0
 62
     7
  6
Continuous
370
    25
390
F
  0
LAYER
  5
79
330
2
100
AcDbSymbolTableRecord
100
AcDbLayerTableRecord
  2
ИЗМЕН_РАЗМЕР
 70
     0
 62
     1
  6
Continuous
370
    -3
390
F
  0
ENDTAB
  0
TABLE
  2
STYLE
  5
3
330
0
100
AcDbSymbolTable
 70
     1
  0
STYLE
  5
11
330
3
100
AcDbSymbolTableRecord
100
AcDbTextStyleTableRecord
  2
Standard
 70
     0
 40
0.0
 41
1.0
 50
0.0
 71
     0
 42
3.5
  3
txt
  4

  0
ENDTAB
  0
TABLE
  2
VIEW
  5
6
330
0
100
AcDbSymbolTable
 70
     0
  0
ENDTAB
  0
TABLE
  2
UCS
  5
7
330
0
100
AcDbSymbolTable
 70
     0
  0
ENDTAB
  0
TABLE
  2
APPID
  5
9
330
0
100
AcDbSymbolTable
 70
     1
  0
APPID
  5
12
330
9
100
AcDbSymbolTableRecord
100
AcDbRegAppTableRecord
  2
ACAD
 70
     0
  0
ENDTAB
  0
TABLE
  2
DIMSTYLE
  5
A
330
0
100
AcDbSymbolTable
 70
     1
100
AcDbDimStyleTable
  0
DIMSTYLE
105
27
330
A
100
AcDbSymbolTableRecord
100
AcDbDimStyleTableRecord
  2
ISO-25
 70
     0
 41
2.5
 42
0.625
 43
3.75
 44
1.25
 73
     0
 74
     0
 77
     1
 78
     8
140
2.5
141
2.5
143
0.0393700787
147
0.625
171
     3
172
     1
178
     0
271
     2
272
     2
274
     3
278
    44
283
     0
284
     8
340
11
  0
ENDTAB
  0
TABLE
  2
BLOCK_RECORD
  5
1
330
0
100
AcDbSymbolTable
 70
     1
  0
BLOCK_RECORD
  5
1F
330
1
100
AcDbSymbolTableRecord
100
AcDbBlockTableRecord
  2
*Model_Space
340
22
  0
BLOCK_RECORD
  5
1B
330
1
100
AcDbSymbolTableRecord
100
AcDbBlockTableRecord
  2
*Paper_Space
340
1E
  0
BLOCK_RECORD
  5
23
330
1
100
AcDbSymbolTableRecord
100
AcDbBlockTableRecord
  2
*Paper_Space0
340
26
  0
ENDTAB
  0
ENDSEC
  0
SECTION
  2
BLOCKS
  0
BLOCK
  5
20
330
1F
100
AcDbEntity
  8
0
100
AcDbBlockBegin
  2
*Model_Space
 70
     0
 10
0.0
 20
0.0
 30
0.0
  3
*Model_Space
  1

  0
ENDBLK
  5
21
330
1F
100
AcDbEntity
  8
0
100
AcDbBlockEnd
  0
BLOCK
  5
1C
330
1B
100
AcDbEntity
 67
     1
  8
0
100
AcDbBlockBegin
  2
*Paper_Space
 70
     0
 10
0.0
 20
0.0
 30
0.0
  3
*Paper_Space
  1

  0
ENDBLK
  5
1D
330
1B
100
AcDbEntity
 67
     1
  8
0
100
AcDbBlockEnd
  0
BLOCK
  5
24
330
23
100
AcDbEntity
  8
0
100
AcDbBlockBegin
  2
*Paper_Space0
 70
     0
 10
0.0
 20
0.0
 30
0.0
  3
*Paper_Space0
  1

  0
ENDBLK
  5
25
330
23
100
AcDbEntity
  8
0
100
AcDbBlockEnd
  0
ENDSEC
  0
SECTION
  2
ENTITIES
  0
LINE
  5
7A
330
1F
100
AcDbEntity
  8
0
  6
Continuous
 62
     7
370
    25
100
AcDbLine
 10
79.5179413004
 20
1789.5963884577
 30
0.0
 11
79.5179413004
 21
1790.9953114322
 31
0.0
  0
LINE
  5
7B
330
1F
100
AcDbEntity
  8
0
  6
Continuous
 62
     7
370
    25
100
AcDbLine
 10
2579.5179413004
 20
1790.9953114322
 30
0.0
 11
79.5179413004
 21
1790.9953114322
 31
0.0
  0
LINE
  5
7C
330
1F
100
AcDbEntity
  8
0
  6
Continuous
 62
     7
370
    25
100
AcDbLine
 10
2579.5179413004
 20
1789.5963884577
 30
0.0
 11
2579.5179413004
 21
1790.9953114322
 31
0.0
  0
LINE
  5
7D
330
1F
100
AcDbEntity
  8
0
  6
Continuous
 62
     7
370
    25
100
AcDbLine
 10
2579.5179413004
 20
1704.5963884577
 30
0.0
 11
79.5179413004
 21
1704.5963884577
 31
0.0
  0
LINE
  5
7E
330
1F
100
AcDbEntity
  8
0
  6
Continuous
 62
     7
370
    25
100
AcDbLine
 10
79.5179413004
 20
1789.5963884577
 30
0.0
 11
79.5179413004
 21
1707.5963884577
 31
0.0
  0
ARC
  5
7F
330
1F
100
AcDbEntity
  8
0
  6
Continuous
 62
     7
370
    25
100
AcDbCircle
 10
163.5179413004
 20
1722.5963884577
 30
0.0
 40
3.5
100
AcDbArc
 50
270.0
 51
90.0
  0
LINE
  5
80
330
1F
100
AcDbEntity
  8
0
  6
Continuous
 62
     7
370
    25
100
AcDbLine
 10
163.5179413004
 20
1726.0963884577
 30
0.0
 11
145.5179413004
 21
1726.0963884577
 31
0.0
  0
ARC
  5
81
330
1F
100
AcDbEntity
  8
0
  6
Continuous
 62
     7
370
    25
100
AcDbCircle
 10
145.5179413004
 20
1722.5963884577
 30
0.0
 40
3.5
100
AcDbArc
 50
90.0
 51
270.0
  0
LINE
  5
82
330
1F
100
AcDbEntity
  8
0
  6
Continuous
 62
     7
370
    25
100
AcDbLine
 10
145.5179413004
 20
1719.0963884577
 30
0.0
 11
163.5179413004
 21
1719.0963884577
 31
0.0
  0
ARC
  5
83
330
1F
100
AcDbEntity
  8
0
  6
Continuous
 62
     7
370
    25
100
AcDbCircle
 10
2545.5179413004
 20
1722.5963884577
 30
0.0
 40
3.500000000000227
100
AcDbArc
 50
90.0
 51
270.0
  0
LINE
  5
84
330
1F
100
AcDbEntity
  8
0
  6
Continuous
 62
     7
370
    25
100
AcDbLine
 10
2545.5179413004
 20
1719.0963884577
 30
0.0
 11
2563.5179413004
 21
1719.0963884577
 31
0.0
  0
ARC
  5
85
330
1F
100
AcDbEntity
  8
0
  6
Continuous
 62
     7
370
    25
100
AcDbCircle
 10
2563.5179413004
 20
1722.5963884577
 30
0.0
 40
3.500000000000227
100
AcDbArc
 50
270.0
 51
90.0
  0
LINE
  5
86
330
1F
100
AcDbEntity
  8
0
  6
Continuous
 62
     7
370
    25
100
AcDbLine
 10
2563.5179413004
 20
1726.0963884577
 30
0.0
 11
2545.5179413004
 21
1726.0963884577
 31
0.0
  0
ARC
  5
87
330
1F
100
AcDbEntity
  8
0
  6
Continuous
 62
     7
370
    25
100
AcDbCircle
 10
2495.5179413004
 20
1722.5963884577
 30
0.0
 40
3.5
100
AcDbArc
 50
90.0
 51
270.0
  0
LINE
  5
88
330
1F
100
AcDbEntity
  8
0
  6
Continuous
 62
     7
370
    25
100
AcDbLine
 10
2495.5179413004
 20
1719.0963884577
 30
0.0
 11
2513.5179413004
 21
1719.0963884577
 31
0.0
  0
ARC
  5
89
330
1F
100
AcDbEntity
  8
0
  6
Continuous
 62
     7
370
    25
100
AcDbCircle
 10
2513.5179413004
 20
1722.5963884577
 30
0.0
 40
3.5
100
AcDbArc
 50
270.0
 51
90.0
  0
LINE
  5
8A
330
1F
100
AcDbEntity
  8
0
  6
Continuous
 62
     7
370
    25
100
AcDbLine
 10
2513.5179413004
 20
1726.0963884577
 30
0.0
 11
2495.5179413004
 21
1726.0963884577
 31
0.0
  0
ARC
  5
8B
330
1F
100
AcDbEntity
  8
0
  6
Continuous
 62
     7
370
    25
100
AcDbCircle
 10
113.5179413004
 20
1722.5963884577
 30
0.0
 40
3.500000000000227
100
AcDbArc
 50
270.0
 51
90.0
  0
LINE
  5
8C
330
1F
100
AcDbEntity
  8
0
  6
Continuous
 62
     7
370
    25
100
AcDbLine
 10
113.5179413004
 20
1726.0963884577
 30
0.0
 11
95.5179413004
 21
1726.0963884577
 31
0.0
  0
ARC
  5
8D
330
1F
100
AcDbEntity
  8
0
  6
Continuous
 62
     7
370
    25
100
AcDbCircle
 10
95.5179413004
 20
1722.5963884577
 30
0.0
 40
3.500000000000227
100
AcDbArc
 50
90.0
 51
270.0
  0
LINE
  5
8E
330
1F
100
AcDbEntity
  8
0
  6
Continuous
 62
     7
370
    25
100
AcDbLine
 10
95.5179413004
 20
1719.0963884577
 30
0.0
 11
113.5179413004
 21
1719.0963884577
 31
0.0
  0
ARC
  5
8F
330
1F
100
AcDbEntity
  8
0
  6
Continuous
 62
     7
370
    25
100
AcDbCircle
 10
2545.5179413004
 20
1757.5963884577
 30
0.0
 40
3.5
100
AcDbArc
 50
90.0
 51
270.0
  0
LINE
  5
90
330
1F
100
AcDbEntity
  8
0
  6
Continuous
 62
     7
370
    25
100
AcDbLine
 10
2545.5179413004
 20
1754.0963884577
 30
0.0
 11
2563.5179413004
 21
1754.0963884577
 31
0.0
  0
ARC
  5
91
330
1F
100
AcDbEntity
  8
0
  6
Continuous
 62
     7
370
    25
100
AcDbCircle
 10
2563.5179413004
 20
1757.5963884577
 30
0.0
 40
3.5
100
AcDbArc
 50
270.0
 51
90.0
  0
LINE
  5
92
330
1F
100
AcDbEntity
  8
0
  6
Continuous
 62
     7
370
    25
100
AcDbLine
 10
2513.5179413004
 20
1761.0963884577
 30
0.0
 11
2495.5179413004
 21
1761.0963884577
 31
0.0
  0
ARC
  5
93
330
1F
100
AcDbEntity
  8
0
  6
Continuous
 62
     7
370
    25
100
AcDbCircle
 10
113.5179413004
 20
1757.5963884577
 30
0.0
 40
3.5
100
AcDbArc
 50
270.0
 51
90.0
  0
LINE
  5
94
330
1F
100
AcDbEntity
  8
0
  6
Continuous
 62
     7
370
    25
100
AcDbLine
 10
113.5179413004
 20
1761.0963884577
 30
0.0
 11
95.5179413004
 21
1761.0963884577
 31
0.0
  0
ARC
  5
95
330
1F
100
AcDbEntity
  8
0
  6
Continuous
 62
     7
370
    25
100
AcDbCircle
 10
95.5179413004
 20
1757.5963884577
 30
0.0
 40
3.5
100
AcDbArc
 50
90.0
 51
270.0
  0
LINE
  5
96
330
1F
100
AcDbEntity
  8
0
  6
Continuous
 62
     7
370
    25
100
AcDbLine
 10
95.5179413004
 20
1754.0963884577
 30
0.0
 11
113.5179413004
 21
1754.0963884577
 31
0.0
  0
ARC
  5
97
330
1F
100
AcDbEntity
  8
0
  6
Continuous
 62
     7
370
    25
100
AcDbCircle
 10
2495.5179413004
 20
1757.5963884577
 30
0.0
 40
3.499999999999773
100
AcDbArc
 50
90.0
 51
270.0
  0
LINE
  5
98
330
1F
100
AcDbEntity
  8
0
  6
Continuous
 62
     7
370
    25
100
AcDbLine
 10
2495.5179413004
 20
1754.0963884577
 30
0.0
 11
2513.5179413004
 21
1754.0963884577
 31
0.0
  0
ARC
  5
99
330
1F
100
AcDbEntity
  8
0
  6
Continuous
 62
     7
370
    25
100
AcDbCircle
 10
2513.5179413004
 20
1757.5963884577
 30
0.0
 40
3.499999999999773
100
AcDbArc
 50
270.0
 51
90.0
  0
LINE
  5
9A
330
1F
100
AcDbEntity
  8
0
  6
Continuous
 62
     7
370
    25
100
AcDbLine
 10
2563.5179413004
 20
1761.0963884577
 30
0.0
 11
2545.5179413004
 21
1761.0963884577
 31
0.0
  0
LINE
  5
9B
330
1F
100
AcDbEntity
  8
0
  6
Continuous
 62
     7
370
    25
100
AcDbLine
 10
79.5179413004
 20
1704.5963884577
 30
0.0
 11
79.5179413004
 21
1707.5963884577
 31
0.0
  0
LINE
  5
9C
330
1F
100
AcDbEntity
  8
0
  6
Continuous
 62
     7
370
    25
100
AcDbLine
 10
2579.5179413004
 20
1789.5963884577
 30
0.0
 11
2579.5179413004
 21
1707.5963884577
 31
0.0
  0
LINE
  5
9D
330
1F
100
AcDbEntity
  8
0
  6
Continuous
 62
     7
370
    25
100
AcDbLine
 10
2579.5179413004
 20
1704.5963884577
 30
0.0
 11
2579.5179413004
 21
1707.5963884577
 31
0.0
  0
LINE
  5
9E
330
1F
100
AcDbEntity
  8
0
  6
Continuous
 62
     7
370
    25
100
AcDbLine
 10
145.5179413004
 20
1754.0963884577
 30
0.0
 11
163.5179413004
 21
1754.0963884577
 31
0.0
  0
ARC
  5
9F
330
1F
100
AcDbEntity
  8
0
  6
Continuous
 62
     7
370
    25
100
AcDbCircle
 10
163.5179413004
 20
1757.5963884577
 30
0.0
 40
3.499999999999773
100
AcDbArc
 50
270.0
 51
90.0
  0
LINE
  5
A0
330
1F
100
AcDbEntity
  8
0
  6
Continuous
 62
     7
370
    25
100
AcDbLine
 10
163.5179413004
 20
1761.0963884577
 30
0.0
 11
145.5179413004
 21
1761.0963884577
 31
0.0
  0
ARC
  5
A1
330
1F
100
AcDbEntity
  8
0
  6
Continuous
 62
     7
370
    25
100
AcDbCircle
 10
145.5179413004
 20
1757.5963884577
 30
0.0
 40
3.499999999999773
100
AcDbArc
 50
90.0
 51
270.0
  0
LINE
  5
A2
330
1F
100
AcDbEntity
  8
0
  6
Continuous
 62
     7
370
    25
100
AcDbLine
 10
2579.5179413004
 20
1791.894521787
 30
0.0
 11
2579.5179413004
 21
1795.3918181146
 31
0.0
  0
LINE
  5
A3
330
1F
100
AcDbEntity
  8
0
  6
Continuous
 62
     7
370
    25
100
AcDbLine
 10
79.5179413004
 20
1795.3918181146
 30
0.0
 11
79.5179413004
 21
1791.894521787
 31
0.0
  0
LINE
  5
A4
330
1F
100
AcDbEntity
  8
0
  6
Continuous
 62
     7
370
    25
100
AcDbLine
 10
79.5179413004
 20
1795.3918181146
 30
0.0
 11
2579.5179413004
 21
1795.3918181146
 31
0.0
  0
LINE
  5
A5
330
1F
100
AcDbEntity
  8
0
  6
Continuous
 62
     7
370
    25
100
AcDbLine
 10
2579.5179413004
 20
1790.9953114322
 30
0.0
 11
2579.5179413004
 21
1791.894521787
 31
0.0
  0
LINE
  5
A6
330
1F
100
AcDbEntity
  8
0
  6
Continuous
 62
     7
370
    25
100
AcDbLine
 10
79.5179413004
 20
1790.9953114322
 30
0.0
 11
79.5179413004
 21
1791.894521787
 31
0.0
  0
LINE
  5
A7
330
1F
100
AcDbEntity
  8
0
  6
Continuous
 62
     7
370
    25
100
AcDbLine
 10
79.5179413004
 20
1800.4443201968
 30
0.0
 11
2579.5179413004
 21
1800.4443201968
 31
0.0
  0
LINE
  5
A8
330
1F
100
AcDbEntity
  8
0
  6
Continuous
 62
     7
370
    25
100
AcDbLine
 10
2579.5179413004
 20
1800.4443201968
 30
0.0
 11
2579.5179413004
 21
1795.3918181146
 31
0.0
  0
LINE
  5
A9
330
1F
100
AcDbEntity
  8
0
  6
Continuous
 62
     7
370
    25
100
AcDbLine
 10
79.5179413004
 20
1800.4443201968
 30
0.0
 11
79.5179413004
 21
1795.3918181146
 31
0.0
  0
LINE
  5
AA
330
1F
100
AcDbEntity
  8
0
  6
Continuous
 62
     7
370
    25
100
AcDbLine
 10
2579.5179413004
 20
1804.5626961158
 30
0.0
 11
79.5179413004
 21
1804.5626961158
 31
0.0
  0
LINE
  5
AB
330
1F
100
AcDbEntity
  8
0
  6
Continuous
 62
     7
370
    25
100
AcDbLine
 10
2579.5179413004
 20
1800.4443201968
 30
0.0
 11
2579.5179413004
 21
1804.5626961158
 31
0.0
  0
LINE
  5
AC
330
1F
100
AcDbEntity
  8
0
  6
Continuous
 62
     7
370
    25
100
AcDbLine
 10
79.5179413004
 20
1804.5626961158
 30
0.0
 11
79.5179413004
 21
1800.4443201968
 31
0.0
  0
LINE
  5
AD
330
1F
100
AcDbEntity
  8
0
  6
Continuous
 62
     7
370
    25
100
AcDbLine
 10
79.5179413004
 20
2520.7434774376
 30
0.0
 11
79.5179413004
 21
2523.7434774376
 31
0.0
  0
LINE
  5
AE
330
1F
100
AcDbEntity
  8
0
  6
Continuous
 62
     7
370
    25
100
AcDbLine
 10
2579.5179413004
 20
2523.7434774376
 30
0.0
 11
79.5179413004
 21
2523.7434774376
 31
0.0
  0
LINE
  5
AF
330
1F
100
AcDbEntity
  8
0
  6
Continuous
 62
     7
370
    25
100
AcDbLine
 10
2579.5179413004
 20
2520.7434774376
 30
0.0
 11
2579.5179413004
 21
2523.7434774376
 31
0.0
  0
LINE
  5
B0
330
1F
100
AcDbEntity
  8
0
  6
Continuous
 62
     7
370
    25
100
AcDbLine
 10
2579.5179413004
 20
2520.7434774376
 30
0.0
 11
2579.5179413004
 21
2126.7434774376
 31
0.0
  0
LINE
  5
B1
330
1F
100
AcDbEntity
  8
0
  6
Continuous
 62
     7
370
    25
100
AcDbLine
 10
2579.5179413004
 20
2123.7434774376
 30
0.0
 11
79.5179413004
 21
2123.7434774376
 31
0.0
  0
LINE
  5
B2
330
1F
100
AcDbEntity
  8
0
  6
Continuous
 62
     7
370
    25
100
AcDbLine
 10
79.5179413004
 20
2123.7434774376
 30
0.0
 11
79.5179413004
 21
2126.7434774376
 31
0.0
  0
LINE
  5
B3
330
1F
100
AcDbEntity
  8
0
  6
Continuous
 62
     7
370
    25
100
AcDbLine
 10
79.5179413004
 20
2520.7434774376
 30
0.0
 11
79.5179413004
 21
2126.7434774376
 31
0.0
  0
ARC
  5
B4
330
1F
100
AcDbEntity
  8
0
  6
Continuous
 62
     7
370
    25
100
AcDbCircle
 10
2558.5179413004
 20
2327.7434774376
 30
0.0
 40
1.0
100
AcDbArc
 50
90.0
 51
180.0
  0
LINE
  5
B5
330
1F
100
AcDbEntity
  8
0
  6
Continuous
 62
     7
370
    25
100
AcDbLine
 10
2557.5179413004
 20
2319.7434774376
 30
0.0
 11
2557.5179413004
 21
2327.7434774376
 31
0.0
  0
ARC
  5
B6
330
1F
100
AcDbEntity
  8
0
  6
Continuous
 62
     7
370
    25
100
AcDbCircle
 10
2558.5179413004
 20
2319.7434774376
 30
0.0
 40
1.0
100
AcDbArc
 50
180.0
 51
270.0
  0
LINE
  5
B7
330
1F
100
AcDbEntity
  8
0
  6
Continuous
 62
     7
370
    25
100
AcDbLine
 10
2563.5179413004
 20
2318.7434774376
 30
0.0
 11
2558.5179413004
 21
2318.7434774376
 31
0.0
  0
ARC
  5
B8
330
1F
100
AcDbEntity
  8
0
  6
Continuous
 62
     7
370
    25
100
AcDbCircle
 10
2563.5179413004
 20
2319.7434774376
 30
0.0
 40
1.0
100
AcDbArc
 50
270.0
 51
0.0
  0
LINE
  5
B9
330
1F
100
AcDbEntity
  8
0
  6
Continuous
 62
     7
370
    25
100
AcDbLine
 10
2564.5179413004
 20
2327.7434774376
 30
0.0
 11
2564.5179413004
 21
2319.7434774376
 31
0.0
  0
ARC
  5
BA
330
1F
100
AcDbEntity
  8
0
  6
Continuous
 62
     7
370
    25
100
AcDbCircle
 10
2563.5179413004
 20
2327.7434774376
 30
0.0
 40
1.0
100
AcDbArc
 50
0.0
 51
90.0
  0
LINE
  5
BB
330
1F
100
AcDbEntity
  8
0
  6
Continuous
 62
     7
370
    25
100
AcDbLine
 10
2558.5179413004
 20
2328.7434774376
 30
0.0
 11
2563.5179413004
 21
2328.7434774376
 31
0.0
  0
ARC
  5
BC
330
1F
100
AcDbEntity
  8
0
  6
Continuous
 62
     7
370
    25
100
AcDbCircle
 10
95.5179413004
 20
2327.7434774376
 30
0.0
 40
1.0
100
AcDbArc
 50
90.0
 51
180.0
  0
LINE
  5
BD
330
1F
100
AcDbEntity
  8
0
  6
Continuous
 62
     7
370
    25
100
AcDbLine
 10
94.5179413004
 20
2319.7434774376
 30
0.0
 11
94.5179413004
 21
2327.7434774376
 31
0.0
  0
ARC
  5
BE
330
1F
100
AcDbEntity
  8
0
  6
Continuous
 62
     7
370
    25
100
AcDbCircle
 10
95.5179413004
 20
2319.7434774376
 30
0.0
 40
1.0
100
AcDbArc
 50
180.0
 51
270.0
  0
LINE
  5
BF
330
1F
100
AcDbEntity
  8
0
  6
Continuous
 62
     7
370
    25
100
AcDbLine
 10
100.5179413004
 20
2318.7434774376
 30
0.0
 11
95.5179413004
 21
2318.7434774376
 31
0.0
  0
ARC
  5
C0
330
1F
100
AcDbEntity
  8
0
  6
Continuous
 62
     7
370
    25
100
AcDbCircle
 10
100.5179413004
 20
2319.7434774376
 30
0.0
 40
1.0
100
AcDbArc
 50
270.0
 51
0.0
  0
LINE
  5
C1
330
1F
100
AcDbEntity
  8
0
  6
Continuous
 62
     7
370
    25
100
AcDbLine
 10
101.5179413004
 20
2327.7434774376
 30
0.0
 11
101.5179413004
 21
2319.7434774376
 31
0.0
  0
ARC
  5
C2
330
1F
100
AcDbEntity
  8
0
  6
Continuous
 62
     7
370
    25
100
AcDbCircle
 10
100.5179413004
 20
2327.7434774376
 30
0.0
 40
1.0
100
AcDbArc
 50
0.0
 51
90.0
  0
LINE
  5
C3
330
1F
100
AcDbEntity
  8
0
  6
Continuous
 62
     7
370
    25
100
AcDbLine
 10
95.5179413004
 20
2328.7434774376
 30
0.0
 11
100.5179413004
 21
2328.7434774376
 31
0.0
  0
ARC
  5
C4
330
1F
100
AcDbEntity
  8
0
  6
Continuous
 62
     7
370
    25
100
AcDbCircle
 10
113.5179413004
 20
2136.2434774376
 30
0.0
 40
3.500000000000455
100
AcDbArc
 50
270.0
 51
90.0
  0
LINE
  5
C5
330
1F
100
AcDbEntity
  8
0
  6
Continuous
 62
     7
370
    25
100
AcDbLine
 10
95.5179413004
 20
2139.7434774376
 30
0.0
 11
113.5179413004
 21
2139.7434774376
 31
0.0
  0
ARC
  5
C6
330
1F
100
AcDbEntity
  8
0
  6
Continuous
 62
     7
370
    25
100
AcDbCircle
 10
95.5179413004
 20
2136.2434774376
 30
0.0
 40
3.500000000000455
100
AcDbArc
 50
90.0
 51
270.0
  0
LINE
  5
C7
330
1F
100
AcDbEntity
  8
0
  6
Continuous
 62
     7
370
    25
100
AcDbLine
 10
113.5179413004
 20
2132.7434774376
 30
0.0
 11
95.5179413004
 21
2132.7434774376
 31
0.0
  0
ARC
  5
C8
330
1F
100
AcDbEntity
  8
0
  6
Continuous
 62
     7
370
    25
100
AcDbCircle
 10
2495.5179413004
 20
2136.2434774376
 30
0.0
 40
3.500000000000455
100
AcDbArc
 50
90.0
 51
270.0
  0
LINE
  5
C9
330
1F
100
AcDbEntity
  8
0
  6
Continuous
 62
     7
370
    25
100
AcDbLine
 10
2513.5179413004
 20
2132.7434774376
 30
0.0
 11
2495.5179413004
 21
2132.7434774376
 31
0.0
  0
ARC
  5
CA
330
1F
100
AcDbEntity
  8
0
  6
Continuous
 62
     7
370
    25
100
AcDbCircle
 10
2513.5179413004
 20
2136.2434774376
 30
0.0
 40
3.500000000000455
100
AcDbArc
 50
270.0
 51
90.0
  0
LINE
  5
CB
330
1F
100
AcDbEntity
  8
0
  6
Continuous
 62
     7
370
    25
100
AcDbLine
 10
2495.5179413004
 20
2139.7434774376
 30
0.0
 11
2513.5179413004
 21
2139.7434774376
 31
0.0
  0
ARC
  5
CC
330
1F
100
AcDbEntity
  8
0
  6
Continuous
 62
     7
370
    25
100
AcDbCircle
 10
2545.5179413004
 20
2511.2434774376
 30
0.0
 40
3.500000000000455
100
AcDbArc
 50
90.0
 51
270.0
  0
LINE
  5
CD
330
1F
100
AcDbEntity
  8
0
  6
Continuous
 62
     7
370
    25
100
AcDbLine
 10
2563.5179413004
 20
2507.7434774376
 30
0.0
 11
2545.5179413004
 21
2507.7434774376
 31
0.0
  0
ARC
  5
CE
330
1F
100
AcDbEntity
  8
0
  6
Continuous
 62
     7
370
    25
100
AcDbCircle
 10
2563.5179413004
 20
2511.2434774376
 30
0.0
 40
3.500000000000455
100
AcDbArc
 50
270.0
 51
90.0
  0
LINE
  5
CF
330
1F
100
AcDbEntity
  8
0
  6
Continuous
 62
     7
370
    25
100
AcDbLine
 10
2545.5179413004
 20
2514.7434774376
 30
0.0
 11
2563.5179413004
 21
2514.7434774376
 31
0.0
  0
ARC
  5
D0
330
1F
100
AcDbEntity
  8
0
  6
Continuous
 62
     7
370
    25
100
AcDbCircle
 10
2495.5179413004
 20
2511.2434774376
 30
0.0
 40
3.500000000000455
100
AcDbArc
 50
90.0
 51
270.0
  0
LINE
  5
D1
330
1F
100
AcDbEntity
  8
0
  6
Continuous
 62
     7
370
    25
100
AcDbLine
 10
2513.5179413004
 20
2507.7434774376
 30
0.0
 11
2495.5179413004
 21
2507.7434774376
 31
0.0
  0
ARC
  5
D2
330
1F
100
AcDbEntity
  8
0
  6
Continuous
 62
     7
370
    25
100
AcDbCircle
 10
2513.5179413004
 20
2511.2434774376
 30
0.0
 40
3.500000000000455
100
AcDbArc
 50
270.0
 51
90.0
  0
LINE
  5
D3
330
1F
100
AcDbEntity
  8
0
  6
Continuous
 62
     7
370
    25
100
AcDbLine
 10
2495.5179413004
 20
2514.7434774376
 30
0.0
 11
2513.5179413004
 21
2514.7434774376
 31
0.0
  0
ARC
  5
D4
330
1F
100
AcDbEntity
  8
0
  6
Continuous
 62
     7
370
    25
100
AcDbCircle
 10
163.5179413004
 20
2136.2434774376
 30
0.0
 40
3.500000000000455
100
AcDbArc
 50
270.0
 51
90.0
  0
LINE
  5
D5
330
1F
100
AcDbEntity
  8
0
  6
Continuous
 62
     7
370
    25
100
AcDbLine
 10
145.5179413004
 20
2139.7434774376
 30
0.0
 11
163.5179413004
 21
2139.7434774376
 31
0.0
  0
ARC
  5
D6
330
1F
100
AcDbEntity
  8
0
  6
Continuous
 62
     7
370
    25
100
AcDbCircle
 10
145.5179413004
 20
2136.2434774376
 30
0.0
 40
3.500000000000455
100
AcDbArc
 50
90.0
 51
270.0
  0
LINE
  5
D7
330
1F
100
AcDbEntity
  8
0
  6
Continuous
 62
     7
370
    25
100
AcDbLine
 10
163.5179413004
 20
2132.7434774376
 30
0.0
 11
145.5179413004
 21
2132.7434774376
 31
0.0
  0
ARC
  5
D8
330
1F
100
AcDbEntity
  8
0
  6
Continuous
 62
     7
370
    25
100
AcDbCircle
 10
113.5179413004
 20
2511.2434774376
 30
0.0
 40
3.500000000000455
100
AcDbArc
 50
270.0
 51
90.0
  0
LINE
  5
D9
330
1F
100
AcDbEntity
  8
0
  6
Continuous
 62
     7
370
    25
100
AcDbLine
 10
95.5179413004
 20
2514.7434774376
 30
0.0
 11
113.5179413004
 21
2514.7434774376
 31
0.0
  0
ARC
  5
DA
330
1F
100
AcDbEntity
  8
0
  6
Continuous
 62
     7
370
    25
100
AcDbCircle
 10
95.5179413004
 20
2511.2434774376
 30
0.0
 40
3.500000000000455
100
AcDbArc
 50
90.0
 51
270.0
  0
LINE
  5
DB
330
1F
100
AcDbEntity
  8
0
  6
Continuous
 62
     7
370
    25
100
AcDbLine
 10
113.5179413004
 20
2507.7434774376
 30
0.0
 11
95.5179413004
 21
2507.7434774376
 31
0.0
  0
ARC
  5
DC
330
1F
100
AcDbEntity
  8
0
  6
Continuous
 62
     7
370
    25
100
AcDbCircle
 10
163.5179413004
 20
2511.2434774376
 30
0.0
 40
3.500000000000455
100
AcDbArc
 50
270.0
 51
90.0
  0
LINE
  5
DD
330
1F
100
AcDbEntity
  8
0
  6
Continuous
 62
     7
370
    25
100
AcDbLine
 10
145.5179413004
 20
2514.7434774376
 30
0.0
 11
163.5179413004
 21
2514.7434774376
 31
0.0
  0
ARC
  5
DE
330
1F
100
AcDbEntity
  8
0
  6
Continuous
 62
     7
370
    25
100
AcDbCircle
 10
145.5179413004
 20
2511.2434774376
 30
0.0
 40
3.500000000000455
100
AcDbArc
 50
90.0
 51
270.0
  0
LINE
  5
DF
330
1F
100
AcDbEntity
  8
0
  6
Continuous
 62
     7
370
    25
100
AcDbLine
 10
163.5179413004
 20
2507.7434774376
 30
0.0
 11
145.5179413004
 21
2507.7434774376
 31
0.0
  0
ARC
  5
E0
330
1F
100
AcDbEntity
  8
0
  6
Continuous
 62
     7
370
    25
100
AcDbCircle
 10
2545.5179413004
 20
2136.2434774376
 30
0.0
 40
3.5
100
AcDbArc
 50
90.0
 51
270.0
  0
LINE
  5
E1
330
1F
100
AcDbEntity
  8
0
  6
Continuous
 62
     7
370
    25
100
AcDbLine
 10
2563.5179413004
 20
2132.7434774376
 30
0.0
 11
2545.5179413004
 21
2132.7434774376
 31
0.0
  0
ARC
  5
E2
330
1F
100
AcDbEntity
  8
0
  6
Continuous
 62
     7
370
    25
100
AcDbCircle
 10
2563.5179413004
 20
2136.2434774376
 30
0.0
 40
3.500000000000455
100
AcDbArc
 50
270.0
 51
90.0
  0
LINE
  5
E3
330
1F
100
AcDbEntity
  8
0
  6
Continuous
 62
     7
370
    25
100
AcDbLine
 10
2545.5179413004
 20
2139.7434774376
 30
0.0
 11
2563.5179413004
 21
2139.7434774376
 31
0.0
  0
LINE
  5
E4
330
1F
100
AcDbEntity
  8
0
  6
Continuous
 62
     7
370
    25
100
AcDbLine
 10
2564.5179413004
 20
2227.7434774376
 30
0.0
 11
2564.5179413004
 21
2219.7434774376
 31
0.0
  0
ARC
  5
E5
330
1F
100
AcDbEntity
  8
0
  6
Continuous
 62
     7
370
    25
100
AcDbCircle
 10
2563.5179413004
 20
2227.7434774376
 30
0.0
 40
1.000000000000455
100
AcDbArc
 50
0.0
 51
90.0
  0
LINE
  5
E6
330
1F
100
AcDbEntity
  8
0
  6
Continuous
 62
     7
370
    25
100
AcDbLine
 10
2558.5179413004
 20
2228.7434774376
 30
0.0
 11
2563.5179413004
 21
2228.7434774376
 31
0.0
  0
ARC
  5
E7
330
1F
100
AcDbEntity
  8
0
  6
Continuous
 62
     7
370
    25
100
AcDbCircle
 10
2558.5179413004
 20
2227.7434774376
 30
0.0
 40
1.000000000000455
100
AcDbArc
 50
90.0
 51
180.0
  0
LINE
  5
E8
330
1F
100
AcDbEntity
  8
0
  6
Continuous
 62
     7
370
    25
100
AcDbLine
 10
2557.5179413004
 20
2219.7434774376
 30
0.0
 11
2557.5179413004
 21
2227.7434774376
 31
0.0
  0
ARC
  5
E9
330
1F
100
AcDbEntity
  8
0
  6
Continuous
 62
     7
370
    25
100
AcDbCircle
 10
2558.5179413004
 20
2219.7434774376
 30
0.0
 40
1.0
100
AcDbArc
 50
180.0
 51
270.0
  0
LINE
  5
EA
330
1F
100
AcDbEntity
  8
0
  6
Continuous
 62
     7
370
    25
100
AcDbLine
 10
2563.5179413004
 20
2218.7434774376
 30
0.0
 11
2558.5179413004
 21
2218.7434774376
 31
0.0
  0
ARC
  5
EB
330
1F
100
AcDbEntity
  8
0
  6
Continuous
 62
     7
370
    25
100
AcDbCircle
 10
2563.5179413004
 20
2219.7434774376
 30
0.0
 40
1.0
100
AcDbArc
 50
270.0
 51
0.0
  0
LINE
  5
EC
330
1F
100
AcDbEntity
  8
0
  6
Continuous
 62
     7
370
    25
100
AcDbLine
 10
2564.5179413004
 20
2427.7434774376
 30
0.0
 11
2564.5179413004
 21
2419.7434774376
 31
0.0
  0
ARC
  5
ED
330
1F
100
AcDbEntity
  8
0
  6
Continuous
 62
     7
370
    25
100
AcDbCircle
 10
2563.5179413004
 20
2427.7434774376
 30
0.0
 40
1.0
100
AcDbArc
 50
0.0
 51
90.0
  0
LINE
  5
EE
330
1F
100
AcDbEntity
  8
0
  6
Continuous
 62
     7
370
    25
100
AcDbLine
 10
2558.5179413004
 20
2428.7434774376
 30
0.0
 11
2563.5179413004
 21
2428.7434774376
 31
0.0
  0
ARC
  5
EF
330
1F
100
AcDbEntity
  8
0
  6
Continuous
 62
     7
370
    25
100
AcDbCircle
 10
2558.5179413004
 20
2427.7434774376
 30
0.0
 40
1.0
100
AcDbArc
 50
90.0
 51
180.0
  0
LINE
  5
F0
330
1F
100
AcDbEntity
  8
0
  6
Continuous
 62
     7
370
    25
100
AcDbLine
 10
2557.5179413004
 20
2419.7434774376
 30
0.0
 11
2557.5179413004
 21
2427.7434774376
 31
0.0
  0
ARC
  5
F1
330
1F
100
AcDbEntity
  8
0
  6
Continuous
 62
     7
370
    25
100
AcDbCircle
 10
2558.5179413004
 20
2419.7434774376
 30
0.0
 40
1.0
100
AcDbArc
 50
180.0
 51
270.0
  0
LINE
  5
F2
330
1F
100
AcDbEntity
  8
0
  6
Continuous
 62
     7
370
    25
100
AcDbLine
 10
2563.5179413004
 20
2418.7434774376
 30
0.0
 11
2558.5179413004
 21
2418.7434774376
 31
0.0
  0
ARC
  5
F3
330
1F
100
AcDbEntity
  8
0
  6
Continuous
 62
     7
370
    25
100
AcDbCircle
 10
2563.5179413004
 20
2419.7434774376
 30
0.0
 40
1.0
100
AcDbArc
 50
270.0
 51
0.0
  0
LINE
  5
F4
330
1F
100
AcDbEntity
  8
0
  6
Continuous
 62
     7
370
    25
100
AcDbLine
 10
95.5179413004
 20
2228.7434774376
 30
0.0
 11
100.5179413004
 21
2228.7434774376
 31
0.0
  0
ARC
  5
F5
330
1F
100
AcDbEntity
  8
0
  6
Continuous
 62
     7
370
    25
100
AcDbCircle
 10
95.5179413004
 20
2227.7434774376
 30
0.0
 40
1.000000000000455
100
AcDbArc
 50
90.0
 51
180.0
  0
LINE
  5
F6
330
1F
100
AcDbEntity
  8
0
  6
Continuous
 62
     7
370
    25
100
AcDbLine
 10
94.5179413004
 20
2219.7434774376
 30
0.0
 11
94.5179413004
 21
2227.7434774376
 31
0.0
  0
ARC
  5
F7
330
1F
100
AcDbEntity
  8
0
  6
Continuous
 62
     7
370
    25
100
AcDbCircle
 10
95.5179413004
 20
2219.7434774376
 30
0.0
 40
1.0
100
AcDbArc
 50
180.0
 51
270.0
  0
LINE
  5
F8
330
1F
100
AcDbEntity
  8
0
  6
Continuous
 62
     7
370
    25
100
AcDbLine
 10
100.5179413004
 20
2218.7434774376
 30
0.0
 11
95.5179413004
 21
2218.7434774376
 31
0.0
  0
ARC
  5
F9
330
1F
100
AcDbEntity
  8
0
  6
Continuous
 62
     7
370
    25
100
AcDbCircle
 10
100.5179413004
 20
2219.7434774376
 30
0.0
 40
1.0
100
AcDbArc
 50
270.0
 51
0.0
  0
LINE
  5
FA
330
1F
100
AcDbEntity
  8
0
  6
Continuous
 62
     7
370
    25
100
AcDbLine
 10
101.5179413004
 20
2227.7434774376
 30
0.0
 11
101.5179413004
 21
2219.7434774376
 31
0.0
  0
ARC
  5
FB
330
1F
100
AcDbEntity
  8
0
  6
Continuous
 62
     7
370
    25
100
AcDbCircle
 10
100.5179413004
 20
2227.7434774376
 30
0.0
 40
1.000000000000455
100
AcDbArc
 50
0.0
 51
90.0
  0
LINE
  5
FC
330
1F
100
AcDbEntity
  8
0
  6
Continuous
 62
     7
370
    25
100
AcDbLine
 10
95.5179413004
 20
2428.7434774376
 30
0.0
 11
100.5179413004
 21
2428.7434774376
 31
0.0
  0
ARC
  5
FD
330
1F
100
AcDbEntity
  8
0
  6
Continuous
 62
     7
370
    25
100
AcDbCircle
 10
95.5179413004
 20
2427.7434774376
 30
0.0
 40
1.0
100
AcDbArc
 50
90.0
 51
180.0
  0
LINE
  5
FE
330
1F
100
AcDbEntity
  8
0
  6
Continuous
 62
     7
370
    25
100
AcDbLine
 10
94.5179413004
 20
2419.7434774376
 30
0.0
 11
94.5179413004
 21
2427.7434774376
 31
0.0
  0
ARC
  5
FF
330
1F
100
AcDbEntity
  8
0
  6
Continuous
 62
     7
370
    25
100
AcDbCircle
 10
95.5179413004
 20
2419.7434774376
 30
0.0
 40
0.9999999999999005
100
AcDbArc
 50
180.0
 51
270.0
  0
LINE
  5
100
330
1F
100
AcDbEntity
  8
0
  6
Continuous
 62
     7
370
    25
100
AcDbLine
 10
100.5179413004
 20
2418.7434774376
 30
0.0
 11
95.5179413004
 21
2418.7434774376
 31
0.0
  0
ARC
  5
101
330
1F
100
AcDbEntity
  8
0
  6
Continuous
 62
     7
370
    25
100
AcDbCircle
 10
100.5179413004
 20
2419.7434774376
 30
0.0
 40
0.9999999999998863
100
AcDbArc
 50
270.0
 51
0.0
  0
LINE
  5
102
330
1F
100
AcDbEntity
  8
0
  6
Continuous
 62
     7
370
    25
100
AcDbLine
 10
101.5179413004
 20
2427.7434774376
 30
0.0
 11
101.5179413004
 21
2419.7434774376
 31
0.0
  0
ARC
  5
103
330
1F
100
AcDbEntity
  8
0
  6
Continuous
 62
     7
370
    25
100
AcDbCircle
 10
100.5179413004
 20
2427.7434774376
 30
0.0
 40
1.0
100
AcDbArc
 50
0.0
 51
90.0
  0
LINE
  5
104
330
1F
100
AcDbEntity
  8
0
  6
Continuous
 62
     7
370
    25
100
AcDbLine
 10
2579.5179413004
 20
2123.7434774376
 30
0.0
 11
2579.5179413004
 21
2126.7434774376
 31
0.0
  0
LINE
  5
105
330
1F
100
AcDbEntity
  8
0
  6
Continuous
 62
     7
370
    25
100
AcDbLine
 10
2565.9674310432
 20
2133.7434774376
 30
0.0
 11
2543.0684515576
 21
2133.7434774376
 31
0.0
  0
LINE
  5
106
330
1F
100
AcDbEntity
  8
0
  6
Continuous
 62
     7
370
    25
100
AcDbLine
 10
2515.9674310432
 20
2133.7434774376
 30
0.0
 11
2493.0684515576
 21
2133.7434774376
 31
0.0
  0
LINE
  5
107
330
1F
100
AcDbEntity
  8
0
  6
Continuous
 62
     7
370
    25
100
AcDbLine
 10
165.9674310432
 20
2133.7434774376
 30
0.0
 11
143.0684515576
 21
2133.7434774376
 31
0.0
  0
LINE
  5
108
330
1F
100
AcDbEntity
  8
0
  6
Continuous
 62
     7
370
    25
100
AcDbLine
 10
115.9674310432
 20
2133.7434774376
 30
0.0
 11
93.0684515576
 21
2133.7434774376
 31
0.0
  0
LINE
  5
109
330
1F
100
AcDbEntity
  8
0
  6
Continuous
 62
     7
370
    25
100
AcDbLine
 10
2565.9674310432
 20
2513.7434774376
 30
0.0
 11
2543.0684515576
 21
2513.7434774376
 31
0.0
  0
LINE
  5
10A
330
1F
100
AcDbEntity
  8
0
  6
Continuous
 62
     7
370
    25
100
AcDbLine
 10
2515.9674310432
 20
2513.7434774376
 30
0.0
 11
2493.0684515576
 21
2513.7434774376
 31
0.0
  0
LINE
  5
10B
330
1F
100
AcDbEntity
  8
0
  6
Continuous
 62
     7
370
    25
100
AcDbLine
 10
165.9674310432
 20
2513.7434774376
 30
0.0
 11
143.0684515576
 21
2513.7434774376
 31
0.0
  0
LINE
  5
10C
330
1F
100
AcDbEntity
  8
0
  6
Continuous
 62
     7
370
    25
100
AcDbLine
 10
115.9674310432
 20
2513.7434774376
 30
0.0
 11
93.0684515576
 21
2513.7434774376
 31
0.0
  0
LINE
  5
10D
330
1F
100
AcDbEntity
  8
0
  6
Continuous
 62
     7
370
    25
100
AcDbLine
 10
2863.8214942023
 20
1790.9953114322
 30
0.0
 11
2863.8214942023
 21
1789.5963884577
 31
0.0
  0
LINE
  5
10E
330
1F
100
AcDbEntity
  8
0
  6
Continuous
 62
     7
370
    25
100
AcDbLine
 10
2864.8931313732
 20
1791.894521787
 30
0.0
 11
2863.8214942023
 21
1790.9953114322
 31
0.0
  0
LINE
  5
10F
330
1F
100
AcDbEntity
  8
0
  6
Continuous
 62
     7
370
    25
100
AcDbLine
 10
2866.1787065926
 20
1790.3624329008
 30
0.0
 11
2865.8214942023
 21
1790.0626961158
 31
0.0
  0
LINE
  5
110
330
1F
100
AcDbEntity
  8
0
  6
Continuous
 62
     7
370
    25
100
AcDbLine
 10
2865.8214942023
 20
1790.0626961158
 30
0.0
 11
2865.8214942023
 21
1789.5963884577
 31
0.0
  0
LINE
  5
111
330
1F
100
AcDbEntity
  8
0
  6
Continuous
 62
     7
370
    25
100
AcDbLine
 10
2863.8214942023
 20
1704.5963884577
 30
0.0
 11
2866.8214942023
 21
1704.5963884577
 31
0.0
  0
LINE
  5
112
330
1F
100
AcDbEntity
  8
0
  6
Continuous
 62
     7
370
    25
100
AcDbLine
 10
2863.8214942023
 20
1707.5963884577
 30
0.0
 11
2863.8214942023
 21
1704.5963884577
 31
0.0
  0
LINE
  5
113
330
1F
100
AcDbEntity
  8
0
  6
Continuous
 62
     7
370
    25
100
AcDbLine
 10
2865.8214942023
 20
1707.5963884577
 30
0.0
 11
2865.8214942023
 21
1706.5963884577
 31
0.0
  0
LINE
  5
114
330
1F
100
AcDbEntity
  8
0
  6
Continuous
 62
     7
370
    25
100
AcDbLine
 10
2865.8214942023
 20
1706.5963884577
 30
0.0
 11
2866.8214942023
 21
1706.5963884577
 31
0.0
  0
LINE
  5
115
330
1F
100
AcDbEntity
  8
0
  6
Continuous
 62
     7
370
    25
100
AcDbLine
 10
2865.8214942023
 20
1707.5963884577
 30
0.0
 11
2865.8214942023
 21
1789.5963884577
 31
0.0
  0
LINE
  5
116
330
1F
100
AcDbEntity
  8
0
  6
Continuous
 62
     7
370
    25
100
AcDbLine
 10
2863.8214942023
 20
1707.5963884577
 30
0.0
 11
2863.8214942023
 21
1789.5963884577
 31
0.0
  0
LINE
  5
117
330
1F
100
AcDbEntity
  8
0
  6
Continuous
 62
     7
370
    25
100
AcDbLine
 10
2869.061046836
 20
1795.3918181146
 30
0.0
 11
2864.8931313732
 21
1791.894521787
 31
0.0
  0
LINE
  5
118
330
1F
100
AcDbEntity
  8
0
  6
Continuous
 62
     7
370
    25
100
AcDbLine
 10
2864.8214942023
 20
1800.4443201968
 30
0.0
 11
2869.061046836
 21
1795.3918181146
 31
0.0
  0
LINE
  5
119
330
1F
100
AcDbEntity
  8
0
  6
Continuous
 62
     7
370
    25
100
AcDbLine
 10
2873.8214942023
 20
1804.5626961158
 30
0.0
 11
2869.7295834995
 21
1804.5626961158
 31
0.0
  0
LINE
  5
11A
330
1F
100
AcDbEntity
  8
0
  6
Continuous
 62
     7
370
    25
100
AcDbLine
 10
2873.8214942023
 20
1796.7754931653
 30
0.0
 11
2873.8214942023
 21
1804.5626961158
 31
0.0
  0
LINE
  5
11B
330
1F
100
AcDbEntity
  8
0
  6
Continuous
 62
     7
370
    25
100
AcDbLine
 10
2873.8214942023
 20
1796.7754931653
 30
0.0
 11
2866.1787065926
 21
1790.3624329008
 31
0.0
  0
LINE
  5
11C
330
1F
100
AcDbEntity
  8
0
  6
Continuous
 62
     7
370
    25
100
AcDbLine
 10
2869.7295834995
 20
1804.5626961158
 30
0.0
 11
2864.8214942023
 21
1800.4443201968
 31
0.0
  0
LINE
  5
11D
330
1F
100
AcDbEntity
  8
0
  6
Continuous
 62
     7
370
    25
100
AcDbLine
 10
3263.8214942023
 20
1704.5963884577
 30
0.0
 11
3263.8214942023
 21
1707.5963884577
 31
0.0
  0
LINE
  5
11E
330
1F
100
AcDbEntity
  8
0
  6
Continuous
 62
     7
370
    25
100
AcDbLine
 10
3260.8214942023
 20
1704.5963884577
 30
0.0
 11
3263.8214942023
 21
1704.5963884577
 31
0.0
  0
LINE
  5
11F
330
1F
100
AcDbEntity
  8
0
  6
Continuous
 62
     7
370
    25
100
AcDbLine
 10
3260.8214942023
 20
1706.5963884577
 30
0.0
 11
3261.8214942023
 21
1706.5963884577
 31
0.0
  0
LINE
  5
120
330
1F
100
AcDbEntity
  8
0
  6
Continuous
 62
     7
370
    25
100
AcDbLine
 10
3261.8214942023
 20
1706.5963884577
 30
0.0
 11
3261.8214942023
 21
1707.5963884577
 31
0.0
  0
LINE
  5
121
330
1F
100
AcDbEntity
  8
0
  6
Continuous
 62
     7
370
    25
100
AcDbLine
 10
3260.8214942023
 20
1706.5963884577
 30
0.0
 11
2866.8214942023
 21
1706.5963884577
 31
0.0
  0
LINE
  5
122
330
1F
100
AcDbEntity
  8
0
  6
Continuous
 62
     7
370
    25
100
AcDbLine
 10
3260.8214942023
 20
1704.5963884577
 30
0.0
 11
2866.8214942023
 21
1704.5963884577
 31
0.0
  0
LINE
  5
123
330
1F
100
AcDbEntity
  8
0
  6
Continuous
 62
     7
370
    25
100
AcDbLine
 10
3253.8214942023
 20
1796.7754931653
 30
0.0
 11
3261.464281812
 21
1790.3624329008
 31
0.0
  0
LINE
  5
124
330
1F
100
AcDbEntity
  8
0
  6
Continuous
 62
     7
370
    25
100
AcDbLine
 10
3253.8214942023
 20
1796.7754931653
 30
0.0
 11
3253.8214942023
 21
1804.5626961158
 31
0.0
  0
LINE
  5
125
330
1F
100
AcDbEntity
  8
0
  6
Continuous
 62
     7
370
    25
100
AcDbLine
 10
3257.9134049051
 20
1804.5626961158
 30
0.0
 11
3253.8214942023
 21
1804.5626961158
 31
0.0
  0
LINE
  5
126
330
1F
100
AcDbEntity
  8
0
  6
Continuous
 62
     7
370
    25
100
AcDbLine
 10
3257.9134049051
 20
1804.5626961158
 30
0.0
 11
3262.8214942023
 21
1800.4443201968
 31
0.0
  0
LINE
  5
127
330
1F
100
AcDbEntity
  8
0
  6
Continuous
 62
     7
370
    25
100
AcDbLine
 10
3258.5819415686
 20
1795.3918181146
 30
0.0
 11
3262.7498570314
 21
1791.894521787
 31
0.0
  0
LINE
  5
128
330
1F
100
AcDbEntity
  8
0
  6
Continuous
 62
     7
370
    25
100
AcDbLine
 10
3262.8214942023
 20
1800.4443201968
 30
0.0
 11
3258.5819415686
 21
1795.3918181146
 31
0.0
  0
LINE
  5
129
330
1F
100
AcDbEntity
  8
0
  6
Continuous
 62
     7
370
    25
100
AcDbLine
 10
3263.8214942023
 20
1789.5963884577
 30
0.0
 11
3263.8214942023
 21
1707.5963884577
 31
0.0
  0
LINE
  5
12A
330
1F
100
AcDbEntity
  8
0
  6
Continuous
 62
     7
370
    25
100
AcDbLine
 10
3261.8214942023
 20
1789.5963884577
 30
0.0
 11
3261.8214942023
 21
1707.5963884577
 31
0.0
  0
LINE
  5
12B
330
1F
100
AcDbEntity
  8
0
  6
Continuous
 62
     7
370
    25
100
AcDbLine
 10
3263.8214942023
 20
1790.9953114322
 30
0.0
 11
3262.7498570314
 21
1791.894521787
 31
0.0
  0
LINE
  5
12C
330
1F
100
AcDbEntity
  8
0
  6
Continuous
 62
     7
370
    25
100
AcDbLine
 10
3261.8214942023
 20
1790.0626961158
 30
0.0
 11
3261.464281812
 21
1790.3624329008
 31
0.0
  0
LINE
  5
12D
330
1F
100
AcDbEntity
  8
0
  6
Continuous
 62
     7
370
    25
100
AcDbLine
 10
3263.8214942023
 20
1789.5963884577
 30
0.0
 11
3263.8214942023
 21
1790.9953114322
 31
0.0
  0
LINE
  5
12E
330
1F
100
AcDbEntity
  8
0
  6
Continuous
 62
     7
370
    25
100
AcDbLine
 10
3261.8214942023
 20
1789.5963884577
 30
0.0
 11
3261.8214942023
 21
1790.0626961158
 31
0.0
  0
LINE
  5
12F
330
1F
100
AcDbEntity
  8
0
  6
Continuous
 62
     7
370
    25
100
AcDbLine
 10
1288.3789894935
 20
266.7235314268
 30
0.0
 11
1291.8495327182
 21
261.3572074523
 31
0.0
  0
LINE
  5
130
330
1F
100
AcDbEntity
  8
0
  6
Continuous
 62
     7
370
    25
100
AcDbLine
 10
3056.1459424598
 20
1287.2336712052
 30
0.0
 11
1288.3789894935
 21
266.7235314268
 31
0.0
  0
LINE
  5
131
330
1F
100
AcDbEntity
  8
0
  6
Continuous
 62
     7
370
    25
100
AcDbLine
 10
3059.6164856845
 20
1281.8673472307
 30
0.0
 11
3056.1459424598
 21
1287.2336712052
 31
0.0
  0
LINE
  5
132
330
1F
100
AcDbEntity
  8
0
  6
Continuous
 62
     7
370
    25
100
AcDbLine
 10
1291.8495327182
 20
261.3572074523
 30
0.0
 11
3059.6164856845
 21
1281.8673472307
 31
0.0
  0
LINE
  5
133
330
1F
100
AcDbEntity
  8
0
  6
Continuous
 62
     7
370
    25
100
AcDbLine
 10
1285.4855716875
 20
262.0352969525
 30
0.0
 11
1290.8898386335
 21
253.6789546168
 31
0.0
  0
LINE
  5
134
330
1F
100
AcDbEntity
  8
0
  6
Continuous
 62
     7
370
    25
100
AcDbLine
 10
1285.4855716875
 20
262.0352969525
 30
0.0
 11
1285.4855716875
 21
268.3938659721
 31
0.0
  0
LINE
  5
135
330
1F
100
AcDbEntity
  8
0
  6
Continuous
 62
     7
370
    25
100
AcDbLine
 10
1288.3789894935
 20
266.7235314268
 30
0.0
 11
1285.4855716875
 21
268.3938659721
 31
0.0
  0
LINE
  5
136
330
1F
100
AcDbEntity
  8
0
  6
Continuous
 62
     7
370
    25
100
AcDbLine
 10
1291.8495327182
 20
261.3572074523
 30
0.0
 11
1288.8517163017
 21
258.9622358804
 31
0.0
  0
LINE
  5
137
330
1F
100
AcDbEntity
  8
0
  6
Continuous
 62
     7
370
    25
100
AcDbLine
 10
1288.8517163017
 20
258.9622358804
 30
0.0
 11
1291.7988775888
 21
254.4051907011
 31
0.0
  0
LINE
  5
138
330
1F
100
AcDbEntity
  8
0
  6
Continuous
 62
     7
370
    25
100
AcDbLine
 10
3059.6164856845
 20
1281.8673472307
 30
0.0
 11
3056.6186692681
 21
1279.4723756588
 31
0.0
  0
LINE
  5
139
330
1F
100
AcDbEntity
  8
0
  6
Continuous
 62
     7
370
    25
100
AcDbLine
 10
1288.8517163017
 20
258.9622358804
 30
0.0
 11
3056.6186692681
 21
1279.4723756588
 31
0.0
  0
LINE
  5
13A
330
1F
100
AcDbEntity
  8
0
  6
Continuous
 62
     7
370
    25
100
AcDbLine
 10
3056.1459424598
 20
1287.2336712052
 30
0.0
 11
3053.2525246539
 21
1288.9040057505
 31
0.0
  0
LINE
  5
13B
330
1F
100
AcDbEntity
  8
0
  6
Continuous
 62
     7
370
    25
100
AcDbLine
 10
3053.2525246539
 20
1288.9040057505
 30
0.0
 11
1285.4855716875
 21
268.3938659721
 31
0.0
  0
LINE
  5
13C
330
1F
100
AcDbEntity
  8
0
  6
Continuous
 62
     7
370
    25
100
AcDbLine
 10
3059.5658305552
 20
1274.9153304795
 30
0.0
 11
3056.6186692681
 21
1279.4723756588
 31
0.0
  0
LINE
  5
13D
330
1F
100
AcDbEntity
  8
0
  6
Continuous
 62
     7
370
    25
100
AcDbLine
 10
3060.3235924657
 20
1273.7436418866
 30
0.0
 11
3059.5658305552
 21
1274.9153304795
 31
0.0
  0
LINE
  5
13E
330
1F
100
AcDbEntity
  8
0
  6
Continuous
 62
     7
370
    25
100
AcDbLine
 10
3060.3235924657
 20
1273.7436418866
 30
0.0
 11
1292.5566394994
 21
253.2335021082
 31
0.0
  0
LINE
  5
13F
330
1F
100
AcDbEntity
  8
0
  6
Continuous
 62
     7
370
    25
100
AcDbLine
 10
1292.5566394994
 20
253.2335021082
 30
0.0
 11
1291.7988775888
 21
254.4051907011
 31
0.0
  0
LINE
  5
140
330
1F
100
AcDbEntity
  8
0
  6
Continuous
 62
     7
370
    25
100
AcDbLine
 10
1292.5566394994
 20
252.0912244069
 30
0.0
 11
1292.5566394994
 21
253.2335021082
 31
0.0
  0
LINE
  5
141
330
1F
100
AcDbEntity
  8
0
  6
Continuous
 62
     7
370
    25
100
AcDbLine
 10
1291.142425937
 20
252.9076325187
 30
0.0
 11
1291.142425937
 21
253.2883917525
 31
0.0
  0
LINE
  5
142
330
1F
100
AcDbEntity
  8
0
  6
Continuous
 62
     7
370
    25
100
AcDbLine
 10
1291.142425937
 20
253.2883917525
 30
0.0
 11
1290.8898386335
 21
253.6789546168
 31
0.0
  0
LINE
  5
143
330
1F
100
AcDbEntity
  8
0
  6
Continuous
 62
     7
370
    25
100
AcDbLine
 10
3060.3235924657
 20
1272.6013641852
 30
0.0
 11
3060.3235924657
 21
1273.7436418866
 31
0.0
  0
LINE
  5
144
330
1F
100
AcDbEntity
  8
0
  6
Continuous
 62
     7
370
    25
100
AcDbLine
 10
3060.3235924657
 20
1272.6013641852
 30
0.0
 11
3060.3235924657
 21
1205.6450176106
 31
0.0
  0
LINE
  5
145
330
1F
100
AcDbEntity
  8
0
  6
Continuous
 62
     7
370
    25
100
AcDbLine
 10
3060.3235924657
 20
1203.195395175
 30
0.0
 11
3060.3235924657
 21
1205.6450176106
 31
0.0
  0
LINE
  5
146
330
1F
100
AcDbEntity
  8
0
  6
Continuous
 62
     7
370
    25
100
AcDbLine
 10
3060.3235924657
 20
1203.195395175
 30
0.0
 11
1292.5566394994
 21
182.6852553966
 31
0.0
  0
LINE
  5
147
330
1F
100
AcDbEntity
  8
0
  6
Continuous
 62
     7
370
    25
100
AcDbLine
 10
1292.5566394994
 20
182.6852553966
 30
0.0
 11
1292.5566394994
 21
185.1348778322
 31
0.0
  0
LINE
  5
148
330
1F
100
AcDbEntity
  8
0
  6
Continuous
 62
     7
370
    25
100
AcDbLine
 10
1292.5566394994
 20
252.0912244069
 30
0.0
 11
1292.5566394994
 21
185.1348778322
 31
0.0
  0
LWPOLYLINE
  5
149
330
1F
100
AcDbEntity
  8
0
  6
Continuous
 62
     7
370
    25
100
AcDbPolyline
 90
       10
 70
   128
 43
0.0
 10
1351.953609119
 20
228.8142378655
 10
1352.8000657883
 20
229.4752389268
 10
1353.5444272909
 20
230.4012175595
 10
1354.096912644
 20
231.4804870745
 10
1354.3908839601
 20
232.5828716399
 10
1354.3908839601
 20
233.5754074077
 10
1354.096912644
 20
234.3383799161
 10
1353.5444272909
 20
234.7797634202
 10
1352.8000657883
 20
234.8463205553
 10
1351.953609119
 20
234.5300235487
  0
LINE
  5
14A
330
1F
100
AcDbEntity
  8
0
  6
Continuous
 62
     7
370
    25
100
AcDbLine
 10
1351.953609119
 20
234.5300235487
 30
0.0
 11
1339.2256870577
 21
227.1823505423
 31
0.0
  0
LWPOLYLINE
  5
14B
330
1F
100
AcDbEntity
  8
0
  6
Continuous
 62
     7
370
    25
100
AcDbPolyline
 90
       10
 70
   128
 43
0.0
 10
1339.2256870577
 20
227.1823505423
 10
1338.3792303884
 20
226.5213494809
 10
1337.6348688858
 20
225.5953708482
 10
1337.0823835327
 20
224.5161013333
 10
1336.7884122165
 20
223.4137167678
 10
1336.7884122165
 20
222.421181
 10
1337.0823835327
 20
221.6582084917
 10
1337.6348688858
 20
221.2168249876
 10
1338.3792303884
 20
221.1502678524
 10
1339.2256870577
 20
221.4665648591
  0
LINE
  5
14C
330
1F
100
AcDbEntity
  8
0
  6
Continuous
 62
     7
370
    25
100
AcDbLine
 10
1339.2256870577
 20
221.4665648591
 30
0.0
 11
1351.953609119
 21
228.8142378655
 31
0.0
  0
LWPOLYLINE
  5
14D
330
1F
100
AcDbEntity
  8
0
  6
Continuous
 62
     7
370
    25
100
AcDbPolyline
 90
       10
 70
   128
 43
0.0
 10
3036.2819619054
 20
1206.8720847295
 10
3035.4355052361
 20
1206.2110836682
 10
3034.6911437335
 20
1205.2851050355
 10
3034.1386583805
 20
1204.2058355205
 10
3033.8446870643
 20
1203.1034509551
 10
3033.8446870643
 20
1202.1109151872
 10
3034.1386583805
 20
1201.3479426789
 10
3034.6911437335
 20
1200.9065591748
 10
3035.4355052361
 20
1200.8400020397
 10
3036.2819619054
 20
1201.1562990463
  0
LINE
  5
14E
330
1F
100
AcDbEntity
  8
0
  6
Continuous
 62
     7
370
    25
100
AcDbLine
 10
3036.2819619054
 20
1201.1562990463
 30
0.0
 11
3049.0098839667
 21
1208.5039720527
 31
0.0
  0
LWPOLYLINE
  5
14F
330
1F
100
AcDbEntity
  8
0
  6
Continuous
 62
     7
370
    25
100
AcDbPolyline
 90
       10
 70
   128
 43
0.0
 10
3049.0098839667
 20
1208.5039720527
 10
3049.856340636
 20
1209.1649731141
 10
3050.6007021386
 20
1210.0909517468
 10
3051.1531874917
 20
1211.1702212617
 10
3051.4471588079
 20
1212.2726058272
 10
3051.4471588079
 20
1213.265141595
 10
3051.1531874917
 20
1214.0281141033
 10
3050.6007021386
 20
1214.4694976074
 10
3049.856340636
 20
1214.5360547425
 10
3049.0098839667
 20
1214.2197577359
  0
LINE
  5
150
330
1F
100
AcDbEntity
  8
0
  6
Continuous
 62
     7
370
    25
100
AcDbLine
 10
3049.0098839667
 20
1214.2197577359
 30
0.0
 11
3036.2819619054
 21
1206.8720847295
 31
0.0
  0
LWPOLYLINE
  5
151
330
1F
100
AcDbEntity
  8
0
  6
Continuous
 62
     7
370
    25
100
AcDbPolyline
 90
       10
 70
   128
 43
0.0
 10
3000.9266228461
 20
1186.4618819339
 10
3000.0801661768
 20
1185.8008808726
 10
2999.3358046742
 20
1184.8749022399
 10
2998.7833193211
 20
1183.7956327249
 10
2998.4893480049
 20
1182.6932481595
 10
2998.4893480049
 20
1181.7007123917
 10
2998.7833193211
 20
1180.9377398833
 10
2999.3358046742
 20
1180.4963563792
 10
3000.0801661768
 20
1180.4297992441
 10
3000.9266228461
 20
1180.7460962507
  0
LINE
  5
152
330
1F
100
AcDbEntity
  8
0
  6
Continuous
 62
     7
370
    25
100
AcDbLine
 10
3000.9266228461
 20
1180.7460962507
 30
0.0
 11
3013.6545449074
 21
1188.0937692572
 31
0.0
  0
LWPOLYLINE
  5
153
330
1F
100
AcDbEntity
  8
0
  6
Continuous
 62
     7
370
    25
100
AcDbPolyline
 90
       10
 70
   128
 43
0.0
 10
3013.6545449074
 20
1188.0937692572
 10
3014.5010015767
 20
1188.7547703185
 10
3015.2453630793
 20
1189.6807489512
 10
3015.7978484324
 20
1190.7600184662
 10
3016.0918197485
 20
1191.8624030316
 10
3016.0918197485
 20
1192.8549387994
 10
3015.7978484324
 20
1193.6179113078
 10
3015.2453630793
 20
1194.0592948119
 10
3014.5010015767
 20
1194.125851947
 10
3013.6545449074
 20
1193.8095549404
  0
LINE
  5
154
330
1F
100
AcDbEntity
  8
0
  6
Continuous
 62
     7
370
    25
100
AcDbLine
 10
3013.6545449074
 20
1193.8095549404
 30
0.0
 11
3000.9266228461
 21
1186.4618819339
 31
0.0
  0
LWPOLYLINE
  5
155
330
1F
100
AcDbEntity
  8
0
  6
Continuous
 62
     7
370
    25
100
AcDbPolyline
 90
       10
 70
   128
 43
0.0
 10
1316.5982700597
 20
208.4040350699
 10
1317.444726729
 20
209.0650361312
 10
1318.1890882316
 20
209.9910147639
 10
1318.7415735846
 20
211.0702842789
 10
1319.0355449008
 20
212.1726688443
 10
1319.0355449008
 20
213.1652046122
 10
1318.7415735846
 20
213.9281771205
 10
1318.1890882316
 20
214.3695606246
 10
1317.444726729
 20
214.4361177597
 10
1316.5982700597
 20
214.1198207531
  0
LINE
  5
156
330
1F
100
AcDbEntity
  8
0
  6
Continuous
 62
     7
370
    25
100
AcDbLine
 10
1316.5982700597
 20
214.1198207531
 30
0.0
 11
1303.8703479983
 21
206.7721477467
 31
0.0
  0
LWPOLYLINE
  5
157
330
1F
100
AcDbEntity
  8
0
  6
Continuous
 62
     7
370
    25
100
AcDbPolyline
 90
       10
 70
   128
 43
0.0
 10
1303.8703479983
 20
206.7721477467
 10
1303.0238913291
 20
206.1111466854
 10
1302.2795298265
 20
205.1851680527
 10
1301.7270444734
 20
204.1058985377
 10
1301.4330731572
 20
203.0035139723
 10
1301.4330731572
 20
202.0109782044
 10
1301.7270444734
 20
201.2480056961
 10
1302.2795298265
 20
200.806622192
 10
1303.0238913291
 20
200.7400650569
 10
1303.8703479983
 20
201.0563620635
  0
LINE
  5
158
330
1F
100
AcDbEntity
  8
0
  6
Continuous
 62
     7
370
    25
100
AcDbLine
 10
1303.8703479983
 20
201.0563620635
 30
0.0
 11
1316.5982700597
 21
208.4040350699
 31
0.0
  0
LWPOLYLINE
  5
159
330
1F
100
AcDbEntity
  8
0
  6
Continuous
 62
     7
370
    25
100
AcDbPolyline
 90
       10
 70
   128
 43
0.0
 10
1351.953609119
 20
257.3931662815
 10
1352.8000657883
 20
258.0541673428
 10
1353.5444272909
 20
258.9801459755
 10
1354.096912644
 20
260.0594154905
 10
1354.3908839601
 20
261.1618000559
 10
1354.3908839601
 20
262.1543358237
 10
1354.096912644
 20
262.9173083321
 10
1353.5444272909
 20
263.3586918362
 10
1352.8000657883
 20
263.4252489713
 10
1351.953609119
 20
263.1089519647
  0
LINE
  5
15A
330
1F
100
AcDbEntity
  8
0
  6
Continuous
 62
     7
370
    25
100
AcDbLine
 10
1351.953609119
 20
263.1089519647
 30
0.0
 11
1339.2256870577
 21
255.7612789583
 31
0.0
  0
LWPOLYLINE
  5
15B
330
1F
100
AcDbEntity
  8
0
  6
Continuous
 62
     7
370
    25
100
AcDbPolyline
 90
       10
 70
   128
 43
0.0
 10
1339.2256870577
 20
255.7612789583
 10
1338.3792303884
 20
255.1002778969
 10
1337.6348688858
 20
254.1742992642
 10
1337.0823835327
 20
253.0950297493
 10
1336.7884122165
 20
251.9926451838
 10
1336.7884122165
 20
251.000109416
 10
1337.0823835327
 20
250.2371369077
 10
1337.6348688858
 20
249.7957534036
 10
1338.3792303884
 20
249.7291962684
 10
1339.2256870577
 20
250.0454932751
  0
LINE
  5
15C
330
1F
100
AcDbEntity
  8
0
  6
Continuous
 62
     7
370
    25
100
AcDbLine
 10
1339.2256870577
 20
250.0454932751
 30
0.0
 11
1351.953609119
 21
257.3931662815
 31
0.0
  0
LWPOLYLINE
  5
15D
330
1F
100
AcDbEntity
  8
0
  6
Continuous
 62
     7
370
    25
100
AcDbPolyline
 90
       10
 70
   128
 43
0.0
 10
3036.2819619054
 20
1235.4510131455
 10
3035.4355052361
 20
1234.7900120842
 10
3034.6911437335
 20
1233.8640334515
 10
3034.1386583805
 20
1232.7847639365
 10
3033.8446870643
 20
1231.6823793711
 10
3033.8446870643
 20
1230.6898436033
 10
3034.1386583805
 20
1229.9268710949
 10
3034.6911437335
 20
1229.4854875908
 10
3035.4355052361
 20
1229.4189304557
 10
3036.2819619054
 20
1229.7352274623
  0
LINE
  5
15E
330
1F
100
AcDbEntity
  8
0
  6
Continuous
 62
     7
370
    25
100
AcDbLine
 10
3036.2819619054
 20
1229.7352274623
 30
0.0
 11
3049.0098839667
 21
1237.0829004687
 31
0.0
  0
LWPOLYLINE
  5
15F
330
1F
100
AcDbEntity
  8
0
  6
Continuous
 62
     7
370
    25
100
AcDbPolyline
 90
       10
 70
   128
 43
0.0
 10
3049.0098839667
 20
1237.0829004687
 10
3049.856340636
 20
1237.7439015301
 10
3050.6007021386
 20
1238.6698801628
 10
3051.1531874917
 20
1239.7491496777
 10
3051.4471588079
 20
1240.8515342432
 10
3051.4471588079
 20
1241.844070011
 10
3051.1531874917
 20
1242.6070425193
 10
3050.6007021386
 20
1243.0484260234
 10
3049.856340636
 20
1243.1149831585
 10
3049.0098839667
 20
1242.7986861519
  0
LINE
  5
160
330
1F
100
AcDbEntity
  8
0
  6
Continuous
 62
     7
370
    25
100
AcDbLine
 10
3049.0098839667
 20
1242.7986861519
 30
0.0
 11
3036.2819619054
 21
1235.4510131455
 31
0.0
  0
LWPOLYLINE
  5
161
330
1F
100
AcDbEntity
  8
0
  6
Continuous
 62
     7
370
    25
100
AcDbPolyline
 90
       10
 70
   128
 43
0.0
 10
3000.9266228461
 20
1215.0408103499
 10
3000.0801661768
 20
1214.3798092886
 10
2999.3358046742
 20
1213.4538306559
 10
2998.7833193211
 20
1212.3745611409
 10
2998.4893480049
 20
1211.2721765755
 10
2998.4893480049
 20
1210.2796408077
 10
2998.7833193211
 20
1209.5166682993
 10
2999.3358046742
 20
1209.0752847952
 10
3000.0801661768
 20
1209.0087276601
 10
3000.9266228461
 20
1209.3250246667
  0
LINE
  5
162
330
1F
100
AcDbEntity
  8
0
  6
Continuous
 62
     7
370
    25
100
AcDbLine
 10
3000.9266228461
 20
1209.3250246667
 30
0.0
 11
3013.6545449074
 21
1216.6726976732
 31
0.0
  0
LWPOLYLINE
  5
163
330
1F
100
AcDbEntity
  8
0
  6
Continuous
 62
     7
370
    25
100
AcDbPolyline
 90
       10
 70
   128
 43
0.0
 10
3013.6545449074
 20
1216.6726976732
 10
3014.5010015767
 20
1217.3336987345
 10
3015.2453630793
 20
1218.2596773672
 10
3015.7978484324
 20
1219.3389468822
 10
3016.0918197485
 20
1220.4413314476
 10
3016.0918197485
 20
1221.4338672154
 10
3015.7978484324
 20
1222.1968397238
 10
3015.2453630793
 20
1222.6382232279
 10
3014.5010015767
 20
1222.704780363
 10
3013.6545449074
 20
1222.3884833564
  0
LINE
  5
164
330
1F
100
AcDbEntity
  8
0
  6
Continuous
 62
     7
370
    25
100
AcDbLine
 10
3013.6545449074
 20
1222.3884833564
 30
0.0
 11
3000.9266228461
 21
1215.0408103499
 31
0.0
  0
LWPOLYLINE
  5
165
330
1F
100
AcDbEntity
  8
0
  6
Continuous
 62
     7
370
    25
100
AcDbPolyline
 90
       10
 70
   128
 43
0.0
 10
1316.5982700597
 20
236.9829634859
 10
1317.444726729
 20
237.6439645472
 10
1318.1890882316
 20
238.5699431799
 10
1318.7415735846
 20
239.6492126949
 10
1319.0355449008
 20
240.7515972603
 10
1319.0355449008
 20
241.7441330282
 10
1318.7415735846
 20
242.5071055365
 10
1318.1890882316
 20
242.9484890406
 10
1317.444726729
 20
243.0150461757
 10
1316.5982700597
 20
242.6987491691
  0
LINE
  5
166
330
1F
100
AcDbEntity
  8
0
  6
Continuous
 62
     7
370
    25
100
AcDbLine
 10
1316.5982700597
 20
242.6987491691
 30
0.0
 11
1303.8703479983
 21
235.3510761627
 31
0.0
  0
LWPOLYLINE
  5
167
330
1F
100
AcDbEntity
  8
0
  6
Continuous
 62
     7
370
    25
100
AcDbPolyline
 90
       10
 70
   128
 43
0.0
 10
1303.8703479983
 20
235.3510761627
 10
1303.0238913291
 20
234.6900751014
 10
1302.2795298265
 20
233.7640964687
 10
1301.7270444734
 20
232.6848269537
 10
1301.4330731572
 20
231.5824423883
 10
1301.4330731572
 20
230.5899066204
 10
1301.7270444734
 20
229.8269341121
 10
1302.2795298265
 20
229.385550608
 10
1303.0238913291
 20
229.3189934729
 10
1303.8703479983
 20
229.6352904795
  0
LINE
  5
168
330
1F
100
AcDbEntity
  8
0
  6
Continuous
 62
     7
370
    25
100
AcDbLine
 10
1303.8703479983
 20
229.6352904795
 30
0.0
 11
1316.5982700597
 21
236.9829634859
 31
0.0
  0
LINE
  5
169
330
1F
100
AcDbEntity
  8
0
  6
Continuous
 62
     7
370
    25
100
AcDbLine
 10
1291.142425937
 20
252.9076325187
 30
0.0
 11
1291.142425937
 21
185.9512859441
 31
0.0
  0
LWPOLYLINE
  5
16A
330
1F
100
AcDbEntity
  8
0
  6
Continuous
 62
     7
370
    25
100
AcDbPolyline
 90
        3
 70
   128
 43
0.0
 10
1302.456134436
 20
230.4516985913
 10
1301.6096777667
 20
230.1354015847
 10
1301.5625648728
 20
230.1286341886
  0
LINE
  5
16B
330
1F
100
AcDbEntity
  8
0
  6
Continuous
 62
     7
370
    25
100
AcDbLine
 10
1315.1840564973
 20
237.7993715977
 30
0.0
 11
1302.456134436
 21
230.4516985913
 31
0.0
  0
ARC
  5
16C
330
1F
100
AcDbEntity
  8
0
  6
Continuous
 62
     7
370
    25
100
AcDbCircle
 10
1312.881398068
 20
241.9380327715
 30
0.0
 40
4.736111501404728
100
AcDbArc
 50
299.0905834166
 51
13.2284026252
  0
LWPOLYLINE
  5
16D
330
1F
100
AcDbEntity
  8
0
  6
Continuous
 62
     7
370
    25
100
AcDbPolyline
 90
        3
 70
   128
 43
0.0
 10
1302.456134436
 20
201.8727701753
 10
1301.6096777667
 20
201.5564731687
 10
1301.5625648728
 20
201.5497057725
  0
LINE
  5
16E
330
1F
100
AcDbEntity
  8
0
  6
Continuous
 62
     7
370
    25
100
AcDbLine
 10
1290.4353191558
 20
183.9098675643
 30
0.0
 11
1292.5566394994
 21
182.6852553966
 31
0.0
  0
LINE
  5
16F
330
1F
100
AcDbEntity
  8
0
  6
Continuous
 62
     7
370
    25
100
AcDbLine
 10
1290.4353191558
 20
185.5429491881
 30
0.0
 11
1291.142425937
 21
185.1347451322
 31
0.0
  0
LINE
  5
170
330
1F
100
AcDbEntity
  8
0
  6
Continuous
 62
     7
370
    25
100
AcDbLine
 10
1291.142425937
 20
185.1347451322
 30
0.0
 11
1291.142425937
 21
185.9512859441
 31
0.0
  0
LINE
  5
171
330
1F
100
AcDbEntity
  8
0
  6
Continuous
 62
     7
370
    25
100
AcDbLine
 10
1011.1281405871
 20
346.7835512731
 30
0.0
 11
1011.8352473683
 21
346.3753472172
 31
0.0
  0
LINE
  5
172
330
1F
100
AcDbEntity
  8
0
  6
Continuous
 62
     7
370
    25
100
AcDbLine
 10
2778.8950935535
 20
1367.2936910514
 30
0.0
 11
1011.1281405871
 21
346.7835512731
 31
0.0
  0
LINE
  5
173
330
1F
100
AcDbEntity
  8
0
  6
Continuous
 62
     7
370
    25
100
AcDbLine
 10
2778.8950935535
 20
1367.2936910514
 30
0.0
 11
2779.6022003347
 21
1366.8854869955
 31
0.0
  0
LINE
  5
174
330
1F
100
AcDbEntity
  8
0
  6
Continuous
 62
     7
370
    25
100
AcDbLine
 10
3049.344893046
 20
1211.1663450684
 30
0.0
 11
3046.5327690181
 21
1212.7897497146
 31
0.0
  0
LINE
  5
175
330
1F
100
AcDbEntity
  8
0
  6
Continuous
 62
     7
370
    25
100
AcDbLine
 10
2983.9686245136
 20
1248.9072615542
 30
0.0
 11
2779.6022003347
 21
1366.8854869955
 31
0.0
  0
LINE
  5
176
330
1F
100
AcDbEntity
  8
0
  6
Continuous
 62
     7
370
    25
100
AcDbLine
 10
1290.4353191558
 20
185.5429491881
 30
0.0
 11
1011.8352473683
 21
346.3753472172
 31
0.0
  0
ARC
  5
177
330
1F
100
AcDbEntity
  8
0
  6
Continuous
 62
     7
370
    25
100
AcDbCircle
 10
2900.6723869444
 20
1279.5298190305
 30
0.0
 40
0.4366153168342842
100
AcDbArc
 50
110.7834207994
 51
249.2165792006
  0
LINE
  5
178
330
1F
100
AcDbEntity
  8
0
  6
Continuous
 62
     7
370
    25
100
AcDbLine
 10
2900.5174599176
 20
1279.1216149746
 30
0.0
 11
2906.1743141671
 21
1275.8559825273
 31
0.0
  0
ARC
  5
179
330
1F
100
AcDbEntity
  8
0
  6
Continuous
 62
     7
370
    25
100
AcDbCircle
 10
2906.8814209482
 20
1277.2206936123
 30
0.0
 40
1.53702190791142
100
AcDbArc
 50
242.6096722366
 51
297.3903277634
  0
LINE
  5
17A
330
1F
100
AcDbEntity
  8
0
  6
Continuous
 62
     7
370
    25
100
AcDbLine
 10
2907.5885277294
 20
1275.8559825273
 30
0.0
 11
2911.1240616354
 21
1277.8970028069
 31
0.0
  0
ARC
  5
17B
330
1F
100
AcDbEntity
  8
0
  6
Continuous
 62
     7
370
    25
100
AcDbCircle
 10
2910.9691346086
 20
1278.3052068628
 30
0.0
 40
0.436615316833859
100
AcDbArc
 50
290.7834207994
 51
69.2165792006
  0
LINE
  5
17C
330
1F
100
AcDbEntity
  8
0
  6
Continuous
 62
     7
370
    25
100
AcDbLine
 10
2911.1240616354
 20
1278.7134109187
 30
0.0
 11
2905.4672073859
 21
1281.979043366
 31
0.0
  0
ARC
  5
17D
330
1F
100
AcDbEntity
  8
0
  6
Continuous
 62
     7
370
    25
100
AcDbCircle
 10
2904.7601006047
 20
1280.614332281
 30
0.0
 40
1.537021907911831
100
AcDbArc
 50
62.6096722366
 51
117.3903277634
  0
LINE
  5
17E
330
1F
100
AcDbEntity
  8
0
  6
Continuous
 62
     7
370
    25
100
AcDbLine
 10
2904.0529938235
 20
1281.979043366
 30
0.0
 11
2900.5174599176
 21
1279.9380230864
 31
0.0
  0
ARC
  5
17F
330
1F
100
AcDbEntity
  8
0
  6
Continuous
 62
     7
370
    25
100
AcDbCircle
 10
1159.0683848819
 20
274.1232293208
 30
0.0
 40
0.4366153168342585
100
AcDbArc
 50
110.7834207995
 51
249.2165792005
  0
LINE
  5
180
330
1F
100
AcDbEntity
  8
0
  6
Continuous
 62
     7
370
    25
100
AcDbLine
 10
1158.9134578551
 20
273.7150252649
 30
0.0
 11
1164.5703121046
 21
270.4493928176
 31
0.0
  0
ARC
  5
181
330
1F
100
AcDbEntity
  8
0
  6
Continuous
 62
     7
370
    25
100
AcDbCircle
 10
1165.2774188858
 20
271.8141039026
 30
0.0
 40
1.537021907911268
100
AcDbArc
 50
242.6096722366
 51
297.3903277634
  0
LINE
  5
182
330
1F
100
AcDbEntity
  8
0
  6
Continuous
 62
     7
370
    25
100
AcDbLine
 10
1165.984525667
 20
270.4493928176
 30
0.0
 11
1169.5200595729
 21
272.4904130972
 31
0.0
  0
ARC
  5
183
330
1F
100
AcDbEntity
  8
0
  6
Continuous
 62
     7
370
    25
100
AcDbCircle
 10
1169.3651325461
 20
272.8986171531
 30
0.0
 40
0.4366153168343392
100
AcDbArc
 50
290.7834207995
 51
69.2165792005
  0
LINE
  5
184
330
1F
100
AcDbEntity
  8
0
  6
Continuous
 62
     7
370
    25
100
AcDbLine
 10
1169.5200595729
 20
273.306821209
 30
0.0
 11
1163.8632053234
 21
276.5724536563
 31
0.0
  0
ARC
  5
185
330
1F
100
AcDbEntity
  8
0
  6
Continuous
 62
     7
370
    25
100
AcDbCircle
 10
1163.1560985422
 20
275.2077425714
 30
0.0
 40
1.537021907910962
100
AcDbArc
 50
62.6096722366
 51
117.3903277634
  0
LINE
  5
186
330
1F
100
AcDbEntity
  8
0
  6
Continuous
 62
     7
370
    25
100
AcDbLine
 10
1162.448991761
 20
276.5724536563
 30
0.0
 11
1158.9134578551
 21
274.5314333768
 31
0.0
  0
LINE
  5
187
330
1F
100
AcDbEntity
  8
0
  6
Continuous
 62
     7
370
    25
100
AcDbLine
 10
1032.3413440227
 20
347.5999593849
 30
0.0
 11
1045.0692660841
 21
354.9476323913
 31
0.0
  0
LWPOLYLINE
  5
188
330
1F
100
AcDbEntity
  8
0
  6
Continuous
 62
     7
370
    25
100
AcDbPolyline
 90
       10
 70
   128
 43
0.0
 10
1045.0692660841
 20
354.9476323913
 10
1045.7664696045
 20
355.5224434341
 10
1046.0810737932
 20
356.2002477993
 10
1045.9751327419
 20
356.8992922773
 10
1045.4614245049
 20
357.5352617872
 10
1044.6019098771
 20
358.0314490202
 10
1043.5002590078
 20
358.328006473
 10
1042.2893472503
 20
358.3891649402
 10
1041.1152284338
 20
358.2075478079
 10
1040.1195186158
 20
357.8050607827
  0
LINE
  5
189
330
1F
100
AcDbEntity
  8
0
  6
Continuous
 62
     7
370
    25
100
AcDbLine
 10
1040.1195186158
 20
357.8050607827
 30
0.0
 11
1027.3915965544
 21
350.4573877763
 31
0.0
  0
LWPOLYLINE
  5
18A
330
1F
100
AcDbEntity
  8
0
  6
Continuous
 62
     7
370
    25
100
AcDbPolyline
 90
       10
 70
   128
 43
0.0
 10
1027.3915965544
 20
350.4573877763
 10
1026.6943930339
 20
349.8825767335
 10
1026.3797888452
 20
349.2047723682
 10
1026.4857298965
 20
348.5057278902
 10
1026.9994381335
 20
347.8697583803
 10
1027.8589527613
 20
347.3735711473
 10
1028.9606036307
 20
347.0770136945
 10
1030.1715153882
 20
347.0158552274
 10
1031.3456342046
 20
347.1974723597
 10
1032.3413440227
 20
347.5999593849
  0
LINE
  5
18B
330
1F
100
AcDbEntity
  8
0
  6
Continuous
 62
     7
370
    25
100
AcDbLine
 10
2737.1757934635
 20
1337.4947949699
 30
0.0
 11
2724.4478714021
 21
1330.1471219635
 31
0.0
  0
LWPOLYLINE
  5
18C
330
1F
100
AcDbEntity
  8
0
  6
Continuous
 62
     7
370
    25
100
AcDbPolyline
 90
       10
 70
   128
 43
0.0
 10
2724.4478714021
 20
1330.1471219635
 10
2723.7506678816
 20
1329.5723109207
 10
2723.436063693
 20
1328.8945065555
 10
2723.5420047443
 20
1328.1954620775
 10
2724.0557129813
 20
1327.5594925676
 10
2724.915227609
 20
1327.0633053346
 10
2726.0168784784
 20
1326.7667478818
 10
2727.2277902359
 20
1326.7055894146
 10
2728.4019090524
 20
1326.8872065469
 10
2729.3976188704
 20
1327.2896935721
  0
LINE
  5
18D
330
1F
100
AcDbEntity
  8
0
  6
Continuous
 62
     7
370
    25
100
AcDbLine
 10
2729.3976188704
 20
1327.2896935721
 30
0.0
 11
2742.1255409318
 21
1334.6373665785
 31
0.0
  0
LWPOLYLINE
  5
18E
330
1F
100
AcDbEntity
  8
0
  6
Continuous
 62
     7
370
    25
100
AcDbPolyline
 90
       10
 70
   128
 43
0.0
 10
2742.1255409318
 20
1334.6373665785
 10
2742.8227444523
 20
1335.2121776213
 10
2743.137348641
 20
1335.8899819866
 10
2743.0314075896
 20
1336.5890264646
 10
2742.5176993526
 20
1337.2249959745
 10
2741.6581847249
 20
1337.7211832075
 10
2740.5565338555
 20
1338.0177406603
 10
2739.345622098
 20
1338.0788991274
 10
2738.1715032815
 20
1337.8972819951
 10
2737.1757934635
 20
1337.4947949699
  0
LINE
  5
18F
330
1F
100
AcDbEntity
  8
0
  6
Continuous
 62
     7
370
    25
100
AcDbLine
 10
3037.6961754678
 20
1204.8284767987
 30
0.0
 11
3033.8070888542
 21
1202.5833548855
 31
0.0
  0
ARC
  5
190
330
1F
100
AcDbEntity
  8
0
  6
Continuous
 62
     7
370
    25
100
AcDbCircle
 10
3040.1516406833
 20
1200.0877869461
 30
0.0
 40
5.338862210587545
100
AcDbArc
 50
83.1824446664
 51
117.3821352113
  0
LINE
  5
191
330
1F
100
AcDbEntity
  8
0
  6
Continuous
 62
     7
370
    25
100
AcDbLine
 10
3002.3408364084
 20
1184.4182740032
 30
0.0
 11
2998.4517497949
 21
1182.1731520899
 31
0.0
  0
ARC
  5
192
330
1F
100
AcDbEntity
  8
0
  6
Continuous
 62
     7
370
    25
100
AcDbCircle
 10
3004.7963016239
 20
1179.6775841505
 30
0.0
 40
5.338862210588856
100
AcDbArc
 50
83.1824446664
 51
117.3821352113
  0
LINE
  5
193
330
1F
100
AcDbEntity
  8
0
  6
Continuous
 62
     7
370
    25
100
AcDbLine
 10
1067.696683082
 20
368.0101621805
 30
0.0
 11
1080.4246051434
 21
375.3578351869
 31
0.0
  0
LWPOLYLINE
  5
194
330
1F
100
AcDbEntity
  8
0
  6
Continuous
 62
     7
370
    25
100
AcDbPolyline
 90
       10
 70
   128
 43
0.0
 10
1080.4246051434
 20
375.3578351869
 10
1081.1218086639
 20
375.9326462296
 10
1081.4364128526
 20
376.6104505949
 10
1081.3304718013
 20
377.3094950729
 10
1080.8167635643
 20
377.9454645828
 10
1079.9572489365
 20
378.4416518158
 10
1078.8555980671
 20
378.7382092686
 10
1077.6446863096
 20
378.7993677357
 10
1076.4705674931
 20
378.6177506034
 10
1075.4748576751
 20
378.2152635782
  0
LINE
  5
195
330
1F
100
AcDbEntity
  8
0
  6
Continuous
 62
     7
370
    25
100
AcDbLine
 10
1075.4748576751
 20
378.2152635782
 30
0.0
 11
1062.7469356137
 21
370.8675905718
 31
0.0
  0
LWPOLYLINE
  5
196
330
1F
100
AcDbEntity
  8
0
  6
Continuous
 62
     7
370
    25
100
AcDbPolyline
 90
       10
 70
   128
 43
0.0
 10
1062.7469356137
 20
370.8675905718
 10
1062.0497320933
 20
370.2927795291
 10
1061.7351279046
 20
369.6149751638
 10
1061.8410689559
 20
368.9159306858
 10
1062.3547771929
 20
368.2799611759
 10
1063.2142918207
 20
367.7837739429
 10
1064.31594269
 20
367.4872164901
 10
1065.5268544475
 20
367.426058023
 10
1066.700973264
 20
367.6076751553
 10
1067.696683082
 20
368.0101621805
  0
ARC
  5
197
330
1F
100
AcDbEntity
  8
0
  6
Continuous
 62
     7
370
    25
100
AcDbCircle
 10
1307.7400267762
 20
199.9878499633
 30
0.0
 40
5.338862210588632
100
AcDbArc
 50
83.1824446664
 51
117.3821352113
  0
LINE
  5
198
330
1F
100
AcDbEntity
  8
0
  6
Continuous
 62
     7
370
    25
100
AcDbLine
 10
1305.2845615607
 20
204.7285398159
 30
0.0
 11
1301.3954749472
 21
202.4834179027
 31
0.0
  0
ARC
  5
199
330
1F
100
AcDbEntity
  8
0
  6
Continuous
 62
     7
370
    25
100
AcDbCircle
 10
1343.0953658356
 20
220.3980527588
 30
0.0
 40
5.338862210589982
100
AcDbArc
 50
83.1824446664
 51
117.3821352113
  0
LINE
  5
19A
330
1F
100
AcDbEntity
  8
0
  6
Continuous
 62
     7
370
    25
100
AcDbLine
 10
1340.63990062
 20
225.1387426115
 30
0.0
 11
1336.7508140065
 21
222.8936206982
 31
0.0
  0
LINE
  5
19B
330
1F
100
AcDbEntity
  8
0
  6
Continuous
 62
     7
370
    25
100
AcDbLine
 10
2772.5311325228
 20
1357.9049977655
 30
0.0
 11
2759.8032104614
 21
1350.5573247591
 31
0.0
  0
LWPOLYLINE
  5
19C
330
1F
100
AcDbEntity
  8
0
  6
Continuous
 62
     7
370
    25
100
AcDbPolyline
 90
       10
 70
   128
 43
0.0
 10
2759.8032104614
 20
1350.5573247591
 10
2759.106006941
 20
1349.9825137163
 10
2758.7914027523
 20
1349.304709351
 10
2758.8973438036
 20
1348.605664873
 10
2759.4110520406
 20
1347.9696953631
 10
2760.2705666684
 20
1347.4735081302
 10
2761.3722175377
 20
1347.1769506773
 10
2762.5831292952
 20
1347.1157922102
 10
2763.7572481117
 20
1347.2974093425
 10
2764.7529579298
 20
1347.6998963677
  0
LINE
  5
19D
330
1F
100
AcDbEntity
  8
0
  6
Continuous
 62
     7
370
    25
100
AcDbLine
 10
2764.7529579298
 20
1347.6998963677
 30
0.0
 11
2777.4808799911
 21
1355.0475693741
 31
0.0
  0
LWPOLYLINE
  5
19E
330
1F
100
AcDbEntity
  8
0
  6
Continuous
 62
     7
370
    25
100
AcDbPolyline
 90
       10
 70
   128
 43
0.0
 10
2777.4808799911
 20
1355.0475693741
 10
2778.1780835116
 20
1355.6223804169
 10
2778.4926877003
 20
1356.3001847822
 10
2778.386746649
 20
1356.9992292602
 10
2777.873038412
 20
1357.6351987701
 10
2777.0135237842
 20
1358.131386003
 10
2775.9118729148
 20
1358.4279434559
 10
2774.7009611573
 20
1358.489101923
 10
2773.5268423409
 20
1358.3074847907
 10
2772.5311325228
 20
1357.9049977655
  0
ARC
  5
19F
330
1F
100
AcDbEntity
  8
0
  6
Continuous
 62
     7
370
    25
100
AcDbCircle
 10
2829.9617088257
 20
1320.3502246216
 30
0.0
 40
0.4366153168344967
100
AcDbArc
 50
110.7834207994
 51
249.2165792006
  0
LINE
  5
1A0
330
1F
100
AcDbEntity
  8
0
  6
Continuous
 62
     7
370
    25
100
AcDbLine
 10
2829.8067817989
 20
1319.9420205657
 30
0.0
 11
2835.4636360484
 21
1316.6763881184
 31
0.0
  0
ARC
  5
1A1
330
1F
100
AcDbEntity
  8
0
  6
Continuous
 62
     7
370
    25
100
AcDbCircle
 10
2836.1707428296
 20
1318.0410992034
 30
0.0
 40
1.537021907914044
100
AcDbArc
 50
242.6096722366
 51
297.3903277634
  0
LINE
  5
1A2
330
1F
100
AcDbEntity
  8
0
  6
Continuous
 62
     7
370
    25
100
AcDbLine
 10
2836.8778496108
 20
1316.6763881184
 30
0.0
 11
2840.4133835167
 21
1318.717408398
 31
0.0
  0
ARC
  5
1A3
330
1F
100
AcDbEntity
  8
0
  6
Continuous
 62
     7
370
    25
100
AcDbCircle
 10
2840.2584564899
 20
1319.1256124539
 30
0.0
 40
0.4366153168344455
100
AcDbArc
 50
290.7834207995
 51
69.2165792005
  0
LINE
  5
1A4
330
1F
100
AcDbEntity
  8
0
  6
Continuous
 62
     7
370
    25
100
AcDbLine
 10
2840.4133835167
 20
1319.5338165098
 30
0.0
 11
2834.7565292672
 21
1322.7994489571
 31
0.0
  0
ARC
  5
1A5
330
1F
100
AcDbEntity
  8
0
  6
Continuous
 62
     7
370
    25
100
AcDbCircle
 10
2834.049422486
 20
1321.4347378722
 30
0.0
 40
1.537021907910605
100
AcDbArc
 50
62.6096722366
 51
117.3903277634
  0
LINE
  5
1A6
330
1F
100
AcDbEntity
  8
0
  6
Continuous
 62
     7
370
    25
100
AcDbLine
 10
2833.3423157048
 20
1322.7994489571
 30
0.0
 11
2829.8067817989
 21
1320.7584286776
 31
0.0
  0
ARC
  5
1A7
330
1F
100
AcDbEntity
  8
0
  6
Continuous
 62
     7
370
    25
100
AcDbCircle
 10
1092.4454204236
 20
316.0281481625
 30
0.0
 40
1.537021907911265
100
AcDbArc
 50
62.6096722366
 51
117.3903277634
  0
LINE
  5
1A8
330
1F
100
AcDbEntity
  8
0
  6
Continuous
 62
     7
370
    25
100
AcDbLine
 10
1091.7383136424
 20
317.3928592474
 30
0.0
 11
1088.2027797364
 21
315.3518389679
 31
0.0
  0
ARC
  5
1A9
330
1F
100
AcDbEntity
  8
0
  6
Continuous
 62
     7
370
    25
100
AcDbCircle
 10
1088.3577067632
 20
314.943634912
 30
0.0
 40
0.4366153168344199
100
AcDbArc
 50
110.7834207995
 51
249.2165792005
  0
LINE
  5
1AA
330
1F
100
AcDbEntity
  8
0
  6
Continuous
 62
     7
370
    25
100
AcDbLine
 10
1088.2027797364
 20
314.5354308561
 30
0.0
 11
1093.8596339859
 21
311.2697984088
 31
0.0
  0
ARC
  5
1AB
330
1F
100
AcDbEntity
  8
0
  6
Continuous
 62
     7
370
    25
100
AcDbCircle
 10
1094.5667407671
 20
312.6345094937
 30
0.0
 40
1.537021907911568
100
AcDbArc
 50
242.6096722366
 51
297.3903277634
  0
LINE
  5
1AC
330
1F
100
AcDbEntity
  8
0
  6
Continuous
 62
     7
370
    25
100
AcDbLine
 10
1095.2738475483
 20
311.2697984088
 30
0.0
 11
1098.8093814542
 21
313.3108186883
 31
0.0
  0
ARC
  5
1AD
330
1F
100
AcDbEntity
  8
0
  6
Continuous
 62
     7
370
    25
100
AcDbCircle
 10
1098.6544544274
 20
313.7190227442
 30
0.0
 40
0.4366153168342585
100
AcDbArc
 50
290.7834207995
 51
69.2165792005
  0
LINE
  5
1AE
330
1F
100
AcDbEntity
  8
0
  6
Continuous
 62
     7
370
    25
100
AcDbLine
 10
1098.8093814542
 20
314.1272268002
 30
0.0
 11
1093.1525272048
 21
317.3928592474
 31
0.0
  0
ARC
  5
1AF
330
1F
100
AcDbEntity
  8
0
  6
Continuous
 62
     7
370
    25
100
AcDbCircle
 10
1233.8667766609
 20
234.3873369802
 30
0.0
 40
1.53702190791071
100
AcDbArc
 50
62.6096722366
 51
117.3903277634
  0
LINE
  5
1B0
330
1F
100
AcDbEntity
  8
0
  6
Continuous
 62
     7
370
    25
100
AcDbLine
 10
1233.1596698797
 20
235.7520480652
 30
0.0
 11
1229.6241359738
 21
233.7110277856
 31
0.0
  0
ARC
  5
1B1
330
1F
100
AcDbEntity
  8
0
  6
Continuous
 62
     7
370
    25
100
AcDbCircle
 10
1229.7790630006
 20
233.3028237297
 30
0.0
 40
0.4366153168342585
100
AcDbArc
 50
110.7834207995
 51
249.2165792005
  0
LINE
  5
1B2
330
1F
100
AcDbEntity
  8
0
  6
Continuous
 62
     7
370
    25
100
AcDbLine
 10
1229.6241359738
 20
232.8946196738
 30
0.0
 11
1235.2809902232
 21
229.6289872265
 31
0.0
  0
ARC
  5
1B3
330
1F
100
AcDbEntity
  8
0
  6
Continuous
 62
     7
370
    25
100
AcDbCircle
 10
1235.9880970044
 20
230.9936983115
 30
0.0
 40
1.537021907910987
100
AcDbArc
 50
242.6096722366
 51
297.3903277634
  0
LINE
  5
1B4
330
1F
100
AcDbEntity
  8
0
  6
Continuous
 62
     7
370
    25
100
AcDbLine
 10
1236.6952037856
 20
229.6289872265
 30
0.0
 11
1240.2307376916
 21
231.6700075061
 31
0.0
  0
ARC
  5
1B5
330
1F
100
AcDbEntity
  8
0
  6
Continuous
 62
     7
370
    25
100
AcDbCircle
 10
1240.0758106648
 20
232.078211562
 30
0.0
 40
0.4366153168341779
100
AcDbArc
 50
290.7834207994
 51
69.2165792006
  0
LINE
  5
1B6
330
1F
100
AcDbEntity
  8
0
  6
Continuous
 62
     7
370
    25
100
AcDbLine
 10
1240.2307376916
 20
232.4864156179
 30
0.0
 11
1234.5738834421
 21
235.7520480652
 31
0.0
  0
LINE
  5
1B7
330
1F
100
AcDbEntity
  8
0
  6
Continuous
 62
     7
370
    25
100
AcDbLine
 10
1290.4353191558
 20
183.9098675643
 30
0.0
 11
1011.8352473683
 21
344.7422655934
 31
0.0
  0
LINE
  5
1B8
330
1F
100
AcDbEntity
  8
0
  6
Continuous
 62
     7
370
    25
100
AcDbLine
 10
1315.1840564973
 20
209.2204431817
 30
0.0
 11
1302.456134436
 21
201.8727701753
 31
0.0
  0
LWPOLYLINE
  5
1B9
330
1F
100
AcDbEntity
  8
0
  6
Continuous
 62
     7
370
    25
100
AcDbPolyline
 90
        3
 70
   128
 43
0.0
 10
1337.8114734953
 20
250.8619013869
 10
1336.965016826
 20
250.5456043803
 10
1336.9179039321
 20
250.5388369841
  0
ARC
  5
1BA
330
1F
100
AcDbEntity
  8
0
  6
Continuous
 62
     7
370
    25
100
AcDbCircle
 10
1312.881398068
 20
213.3591043555
 30
0.0
 40
4.736111501395121
100
AcDbArc
 50
299.0905834166
 51
13.2284026255
  0
LINE
  5
1BB
330
1F
100
AcDbEntity
  8
0
  6
Continuous
 62
     7
370
    25
100
AcDbLine
 10
1350.5393955567
 20
258.2095743933
 30
0.0
 11
1337.8114734953
 21
250.8619013869
 31
0.0
  0
ARC
  5
1BC
330
1F
100
AcDbEntity
  8
0
  6
Continuous
 62
     7
370
    25
100
AcDbCircle
 10
1348.2367371273
 20
262.3482355671
 30
0.0
 40
4.736111501409359
100
AcDbArc
 50
299.0905834167
 51
13.2284026251
  0
LWPOLYLINE
  5
1BD
330
1F
100
AcDbEntity
  8
0
  6
Continuous
 62
     7
370
    25
100
AcDbPolyline
 90
        3
 70
   128
 43
0.0
 10
1337.8114734953
 20
222.2829729709
 10
1336.965016826
 20
221.9666759643
 10
1336.9179039322
 20
221.9599085681
  0
LINE
  5
1BE
330
1F
100
AcDbEntity
  8
0
  6
Continuous
 62
     7
370
    25
100
AcDbLine
 10
1350.5393955567
 20
229.6306459773
 30
0.0
 11
1337.8114734953
 21
222.2829729709
 31
0.0
  0
ARC
  5
1BF
330
1F
100
AcDbEntity
  8
0
  6
Continuous
 62
     7
370
    25
100
AcDbCircle
 10
1348.2367371273
 20
233.7693071511
 30
0.0
 40
4.736111501411554
100
AcDbArc
 50
299.0905834167
 51
13.228402625
  0
LINE
  5
1C0
330
1F
100
AcDbEntity
  8
0
  6
Continuous
 62
     7
370
    25
100
AcDbLine
 10
1239.5234010422
 20
231.2616707501
 30
0.0
 11
1234.5738834421
 21
234.1189664414
 31
0.0
  0
LINE
  5
1C1
330
1F
100
AcDbEntity
  8
0
  6
Continuous
 62
     7
370
    25
100
AcDbLine
 10
1233.1596698797
 20
234.1189664414
 30
0.0
 11
1230.3314726231
 21
232.4862829178
 31
0.0
  0
ARC
  5
1C2
330
1F
100
AcDbEntity
  8
0
  6
Continuous
 62
     7
370
    25
100
AcDbCircle
 10
1233.8667766609
 20
232.7542553564
 30
0.0
 40
1.537021907911088
100
AcDbArc
 50
62.6096722366
 51
117.3903277634
  0
LINE
  5
1C3
330
1F
100
AcDbEntity
  8
0
  6
Continuous
 62
     7
370
    25
100
AcDbLine
 10
1168.8127229236
 20
272.0820763412
 30
0.0
 11
1163.8632053234
 21
274.9393720325
 31
0.0
  0
LINE
  5
1C4
330
1F
100
AcDbEntity
  8
0
  6
Continuous
 62
     7
370
    25
100
AcDbLine
 10
1162.448991761
 20
274.9393720325
 30
0.0
 11
1159.6207945044
 21
273.306688509
 31
0.0
  0
ARC
  5
1C5
330
1F
100
AcDbEntity
  8
0
  6
Continuous
 62
     7
370
    25
100
AcDbCircle
 10
1163.1560985422
 20
273.5746609476
 30
0.0
 40
1.537021907910962
100
AcDbArc
 50
62.6096722366
 51
117.3903277634
  0
LINE
  5
1C6
330
1F
100
AcDbEntity
  8
0
  6
Continuous
 62
     7
370
    25
100
AcDbLine
 10
2784.551947803
 20
1437.6629779772
 30
0.0
 11
1016.7849948366
 21
417.1528381988
 31
0.0
  0
LINE
  5
1C7
330
1F
100
AcDbEntity
  8
0
  6
Continuous
 62
     7
370
    25
100
AcDbLine
 10
1016.7849948366
 20
417.1528381988
 30
0.0
 11
1016.7849948366
 21
423.5114072184
 31
0.0
  0
LINE
  5
1C8
330
1F
100
AcDbEntity
  8
0
  6
Continuous
 62
     7
370
    25
100
AcDbLine
 10
2784.551947803
 20
1444.0215469968
 30
0.0
 11
1016.7849948366
 21
423.5114072184
 31
0.0
  0
LINE
  5
1C9
330
1F
100
AcDbEntity
  8
0
  6
Continuous
 62
     7
370
    25
100
AcDbLine
 10
2784.551947803
 20
1444.0215469968
 30
0.0
 11
2784.551947803
 21
1437.6629779772
 31
0.0
  0
LINE
  5
1CA
330
1F
100
AcDbEntity
  8
0
  6
Continuous
 62
     7
370
    25
100
AcDbLine
 10
1013.4188502224
 20
417.9662449725
 30
0.0
 11
1010.4716889353
 21
416.8119197863
 31
0.0
  0
LINE
  5
1CB
330
1F
100
AcDbEntity
  8
0
  6
Continuous
 62
     7
370
    25
100
AcDbLine
 10
1010.4210338059
 20
423.822421705
 30
0.0
 11
1013.4188502224
 21
417.9662449725
 31
0.0
  0
LINE
  5
1CC
330
1F
100
AcDbEntity
  8
0
  6
Continuous
 62
     7
370
    25
100
AcDbLine
 10
1013.8915770306
 20
425.1817417637
 30
0.0
 11
1010.4210338059
 21
423.822421705
 31
0.0
  0
LINE
  5
1CD
330
1F
100
AcDbEntity
  8
0
  6
Continuous
 62
     7
370
    25
100
AcDbLine
 10
1016.7849948366
 20
423.5114072184
 30
0.0
 11
1013.8915770306
 21
425.1817417637
 31
0.0
  0
LINE
  5
1CE
330
1F
100
AcDbEntity
  8
0
  6
Continuous
 62
     7
370
    25
100
AcDbLine
 10
1016.7849948366
 20
417.1528381988
 30
0.0
 11
1011.3807278906
 21
415.0361296646
 31
0.0
  0
LINE
  5
1CF
330
1F
100
AcDbEntity
  8
0
  6
Continuous
 62
     7
370
    25
100
AcDbLine
 10
2781.658529997
 20
1445.6918815421
 30
0.0
 11
1013.8915770306
 21
425.1817417637
 31
0.0
  0
LINE
  5
1D0
330
1F
100
AcDbEntity
  8
0
  6
Continuous
 62
     7
370
    25
100
AcDbLine
 10
2784.551947803
 20
1444.0215469968
 30
0.0
 11
2781.658529997
 21
1445.6918815421
 31
0.0
  0
LINE
  5
1D1
330
1F
100
AcDbEntity
  8
0
  6
Continuous
 62
     7
370
    25
100
AcDbLine
 10
2778.1879867723
 20
1444.3325614834
 30
0.0
 11
2781.658529997
 21
1445.6918815421
 31
0.0
  0
LINE
  5
1D2
330
1F
100
AcDbEntity
  8
0
  6
Continuous
 62
     7
370
    25
100
AcDbLine
 10
1010.4210338059
 20
423.822421705
 30
0.0
 11
2778.1879867723
 21
1444.3325614834
 31
0.0
  0
LINE
  5
1D3
330
1F
100
AcDbEntity
  8
0
  6
Continuous
 62
     7
370
    25
100
AcDbLine
 10
1010.4716889353
 20
416.8119197863
 30
0.0
 11
1009.7139270247
 21
416.5151244727
 31
0.0
  0
LINE
  5
1D4
330
1F
100
AcDbEntity
  8
0
  6
Continuous
 62
     7
370
    25
100
AcDbLine
 10
1013.1471200581
 20
418.4970646241
 30
0.0
 11
1009.7139270247
 21
416.5151244727
 31
0.0
  0
LINE
  5
1D5
330
1F
100
AcDbEntity
  8
0
  6
Continuous
 62
     7
370
    25
100
AcDbLine
 10
1009.7139270247
 20
416.5151244727
 30
0.0
 11
1009.7139270247
 21
415.3728467714
 31
0.0
  0
LINE
  5
1D6
330
1F
100
AcDbEntity
  8
0
  6
Continuous
 62
     7
370
    25
100
AcDbLine
 10
1011.1281405871
 20
414.9371978934
 30
0.0
 11
1011.1281405871
 21
414.5564386596
 31
0.0
  0
LINE
  5
1D7
330
1F
100
AcDbEntity
  8
0
  6
Continuous
 62
     7
370
    25
100
AcDbLine
 10
1011.3807278906
 20
415.0361296646
 30
0.0
 11
1011.1281405871
 21
414.9371978934
 31
0.0
  0
LINE
  5
1D8
330
1F
100
AcDbEntity
  8
0
  6
Continuous
 62
     7
370
    25
100
AcDbLine
 10
2778.8950935535
 20
1368.1102318633
 30
0.0
 11
2778.8950935535
 21
1434.3973455299
 31
0.0
  0
LINE
  5
1D9
330
1F
100
AcDbEntity
  8
0
  6
Continuous
 62
     7
370
    25
100
AcDbLine
 10
2778.8950935535
 20
1368.1102318633
 30
0.0
 11
2778.8950935535
 21
1367.2936910514
 31
0.0
  0
LINE
  5
1DA
330
1F
100
AcDbEntity
  8
0
  6
Continuous
 62
     7
370
    25
100
AcDbLine
 10
1011.1281405871
 20
347.6000920849
 30
0.0
 11
1011.1281405871
 21
346.7835512731
 31
0.0
  0
LINE
  5
1DB
330
1F
100
AcDbEntity
  8
0
  6
Continuous
 62
     7
370
    25
100
AcDbLine
 10
1011.1281405871
 20
347.6000920849
 30
0.0
 11
1011.1281405871
 21
414.5564386596
 31
0.0
  0
LINE
  5
1DC
330
1F
100
AcDbEntity
  8
0
  6
Continuous
 62
     7
370
    25
100
AcDbLine
 10
1057.7971881454
 20
383.9317791118
 30
0.0
 11
1070.5251102068
 21
391.2794521182
 31
0.0
  0
LWPOLYLINE
  5
1DD
330
1F
100
AcDbEntity
  8
0
  6
Continuous
 62
     7
370
    25
100
AcDbPolyline
 90
       10
 70
   128
 43
0.0
 10
1070.5251102068
 20
391.2794521182
 10
1071.371566876
 20
391.9404531795
 10
1072.1159283786
 20
392.8664318122
 10
1072.6684137317
 20
393.9457013272
 10
1072.9623850479
 20
395.0480858926
 10
1072.9623850479
 20
396.0406216605
 10
1072.6684137317
 20
396.8035941688
 10
1072.1159283786
 20
397.2449776729
 10
1071.371566876
 20
397.311534808
 10
1070.5251102068
 20
396.9952378014
  0
LINE
  5
1DE
330
1F
100
AcDbEntity
  8
0
  6
Continuous
 62
     7
370
    25
100
AcDbLine
 10
1070.5251102068
 20
396.9952378014
 30
0.0
 11
1057.7971881454
 21
389.647564795
 31
0.0
  0
LWPOLYLINE
  5
1DF
330
1F
100
AcDbEntity
  8
0
  6
Continuous
 62
     7
370
    25
100
AcDbPolyline
 90
       10
 70
   128
 43
0.0
 10
1057.7971881454
 20
389.647564795
 10
1056.9507314762
 20
388.9865637337
 10
1056.2063699736
 20
388.0605851009
 10
1055.6538846205
 20
386.981315586
 10
1055.3599133043
 20
385.8789310205
 10
1055.3599133043
 20
384.8863952527
 10
1055.6538846205
 20
384.1234227444
 10
1056.2063699736
 20
383.6820392403
 10
1056.9507314762
 20
383.6154821052
 10
1057.7971881454
 20
383.9317791118
  0
LINE
  5
1E0
330
1F
100
AcDbEntity
  8
0
  6
Continuous
 62
     7
370
    25
100
AcDbLine
 10
2767.5813850545
 20
1376.6849719886
 30
0.0
 11
2754.8534629931
 21
1369.3372989822
 31
0.0
  0
LWPOLYLINE
  5
1E1
330
1F
100
AcDbEntity
  8
0
  6
Continuous
 62
     7
370
    25
100
AcDbPolyline
 90
       10
 70
   128
 43
0.0
 10
2754.8534629931
 20
1369.3372989822
 10
2754.0070063239
 20
1368.6762979209
 10
2753.2626448213
 20
1367.7503192882
 10
2752.7101594682
 20
1366.6710497732
 10
2752.416188152
 20
1365.5686652078
 10
2752.416188152
 20
1364.57612944
 10
2752.7101594682
 20
1363.8131569316
 10
2753.2626448213
 20
1363.3717734275
 10
2754.0070063239
 20
1363.3052162924
 10
2754.8534629931
 20
1363.621513299
  0
LINE
  5
1E2
330
1F
100
AcDbEntity
  8
0
  6
Continuous
 62
     7
370
    25
100
AcDbLine
 10
2754.8534629931
 20
1363.621513299
 30
0.0
 11
2767.5813850545
 21
1370.9691863054
 31
0.0
  0
LWPOLYLINE
  5
1E3
330
1F
100
AcDbEntity
  8
0
  6
Continuous
 62
     7
370
    25
100
AcDbPolyline
 90
       10
 70
   128
 43
0.0
 10
2767.5813850545
 20
1370.9691863054
 10
2768.4278417238
 20
1371.6301873668
 10
2769.1722032264
 20
1372.5561659995
 10
2769.7246885794
 20
1373.6354355145
 10
2770.0186598956
 20
1374.7378200799
 10
2770.0186598956
 20
1375.7303558477
 10
2769.7246885794
 20
1376.4933283561
 10
2769.1722032264
 20
1376.9347118601
 10
2768.4278417238
 20
1377.0012689953
 10
2767.5813850545
 20
1376.6849719886
  0
LINE
  5
1E4
330
1F
100
AcDbEntity
  8
0
  6
Continuous
 62
     7
370
    25
100
AcDbLine
 10
2732.2260459952
 20
1356.2747691931
 30
0.0
 11
2719.4981239338
 21
1348.9270961867
 31
0.0
  0
LWPOLYLINE
  5
1E5
330
1F
100
AcDbEntity
  8
0
  6
Continuous
 62
     7
370
    25
100
AcDbPolyline
 90
       10
 70
   128
 43
0.0
 10
2719.4981239338
 20
1348.9270961867
 10
2718.6516672645
 20
1348.2660951253
 10
2717.907305762
 20
1347.3401164926
 10
2717.3548204089
 20
1346.2608469777
 10
2717.0608490927
 20
1345.1584624122
 10
2717.0608490927
 20
1344.1659266444
 10
2717.3548204089
 20
1343.4029541361
 10
2717.907305762
 20
1342.961570632
 10
2718.6516672645
 20
1342.8950134968
 10
2719.4981239338
 20
1343.2113105035
  0
LINE
  5
1E6
330
1F
100
AcDbEntity
  8
0
  6
Continuous
 62
     7
370
    25
100
AcDbLine
 10
2719.4981239338
 20
1343.2113105035
 30
0.0
 11
2732.2260459952
 21
1350.5589835099
 31
0.0
  0
LWPOLYLINE
  5
1E7
330
1F
100
AcDbEntity
  8
0
  6
Continuous
 62
     7
370
    25
100
AcDbPolyline
 90
       10
 70
   128
 43
0.0
 10
2732.2260459952
 20
1350.5589835099
 10
2733.0725026644
 20
1351.2199845712
 10
2733.816864167
 20
1352.1459632039
 10
2734.3693495201
 20
1353.2252327189
 10
2734.6633208363
 20
1354.3276172843
 10
2734.6633208363
 20
1355.3201530521
 10
2734.3693495201
 20
1356.0831255605
 10
2733.816864167
 20
1356.5245090646
 10
2733.0725026644
 20
1356.5910661997
 10
2732.2260459952
 20
1356.2747691931
  0
LINE
  5
1E8
330
1F
100
AcDbEntity
  8
0
  6
Continuous
 62
     7
370
    25
100
AcDbLine
 10
1022.4418490861
 20
363.5215763162
 30
0.0
 11
1035.1697711475
 21
370.8692493226
 31
0.0
  0
LWPOLYLINE
  5
1E9
330
1F
100
AcDbEntity
  8
0
  6
Continuous
 62
     7
370
    25
100
AcDbPolyline
 90
       10
 70
   128
 43
0.0
 10
1035.1697711475
 20
370.8692493226
 10
1036.0162278167
 20
371.530250384
 10
1036.7605893193
 20
372.4562290167
 10
1037.3130746724
 20
373.5354985316
 10
1037.6070459886
 20
374.6378830971
 10
1037.6070459886
 20
375.6304188649
 10
1037.3130746724
 20
376.3933913732
 10
1036.7605893193
 20
376.8347748773
 10
1036.0162278167
 20
376.9013320125
 10
1035.1697711475
 20
376.5850350058
  0
LINE
  5
1EA
330
1F
100
AcDbEntity
  8
0
  6
Continuous
 62
     7
370
    25
100
AcDbLine
 10
1035.1697711475
 20
376.5850350058
 30
0.0
 11
1022.4418490861
 21
369.2373619994
 31
0.0
  0
LWPOLYLINE
  5
1EB
330
1F
100
AcDbEntity
  8
0
  6
Continuous
 62
     7
370
    25
100
AcDbPolyline
 90
       10
 70
   128
 43
0.0
 10
1022.4418490861
 20
369.2373619994
 10
1021.5953924168
 20
368.5763609381
 10
1020.8510309142
 20
367.6503823054
 10
1020.2985455612
 20
366.5711127904
 10
1020.004574245
 20
365.468728225
 10
1020.004574245
 20
364.4761924572
 10
1020.2985455612
 20
363.7132199488
 10
1020.8510309142
 20
363.2718364447
 10
1021.5953924168
 20
363.2052793096
 10
1022.4418490861
 20
363.5215763162
  0
LINE
  5
1EC
330
1F
100
AcDbEntity
  8
0
  6
Continuous
 62
     7
370
    25
100
AcDbLine
 10
1057.7971881454
 20
412.5107075278
 30
0.0
 11
1070.5251102068
 21
419.8583805342
 31
0.0
  0
LWPOLYLINE
  5
1ED
330
1F
100
AcDbEntity
  8
0
  6
Continuous
 62
     7
370
    25
100
AcDbPolyline
 90
       10
 70
   128
 43
0.0
 10
1070.5251102068
 20
419.8583805342
 10
1071.371566876
 20
420.5193815955
 10
1072.1159283786
 20
421.4453602282
 10
1072.6684137317
 20
422.5246297432
 10
1072.9623850479
 20
423.6270143086
 10
1072.9623850479
 20
424.6195500765
 10
1072.6684137317
 20
425.3825225848
 10
1072.1159283786
 20
425.8239060889
 10
1071.371566876
 20
425.890463224
 10
1070.5251102068
 20
425.5741662174
  0
LINE
  5
1EE
330
1F
100
AcDbEntity
  8
0
  6
Continuous
 62
     7
370
    25
100
AcDbLine
 10
1070.5251102068
 20
425.5741662174
 30
0.0
 11
1057.7971881454
 21
418.226493211
 31
0.0
  0
LWPOLYLINE
  5
1EF
330
1F
100
AcDbEntity
  8
0
  6
Continuous
 62
     7
370
    25
100
AcDbPolyline
 90
       10
 70
   128
 43
0.0
 10
1057.7971881454
 20
418.226493211
 10
1056.9507314762
 20
417.5654921497
 10
1056.2063699736
 20
416.639513517
 10
1055.6538846205
 20
415.560244002
 10
1055.3599133043
 20
414.4578594365
 10
1055.3599133043
 20
413.4653236687
 10
1055.6538846205
 20
412.7023511604
 10
1056.2063699736
 20
412.2609676563
 10
1056.9507314762
 20
412.1944105212
 10
1057.7971881454
 20
412.5107075278
  0
LINE
  5
1F0
330
1F
100
AcDbEntity
  8
0
  6
Continuous
 62
     7
370
    25
100
AcDbLine
 10
2767.5813850545
 20
1405.2639004046
 30
0.0
 11
2754.8534629931
 21
1397.9162273982
 31
0.0
  0
LWPOLYLINE
  5
1F1
330
1F
100
AcDbEntity
  8
0
  6
Continuous
 62
     7
370
    25
100
AcDbPolyline
 90
       10
 70
   128
 43
0.0
 10
2754.8534629931
 20
1397.9162273982
 10
2754.0070063239
 20
1397.2552263369
 10
2753.2626448213
 20
1396.3292477042
 10
2752.7101594682
 20
1395.2499781892
 10
2752.416188152
 20
1394.1475936238
 10
2752.416188152
 20
1393.155057856
 10
2752.7101594682
 20
1392.3920853476
 10
2753.2626448213
 20
1391.9507018435
 10
2754.0070063239
 20
1391.8841447084
 10
2754.8534629931
 20
1392.200441715
  0
LINE
  5
1F2
330
1F
100
AcDbEntity
  8
0
  6
Continuous
 62
     7
370
    25
100
AcDbLine
 10
2754.8534629931
 20
1392.200441715
 30
0.0
 11
2767.5813850545
 21
1399.5481147214
 31
0.0
  0
LWPOLYLINE
  5
1F3
330
1F
100
AcDbEntity
  8
0
  6
Continuous
 62
     7
370
    25
100
AcDbPolyline
 90
       10
 70
   128
 43
0.0
 10
2767.5813850545
 20
1399.5481147214
 10
2768.4278417238
 20
1400.2091157828
 10
2769.1722032264
 20
1401.1350944155
 10
2769.7246885794
 20
1402.2143639305
 10
2770.0186598956
 20
1403.3167484959
 10
2770.0186598956
 20
1404.3092842637
 10
2769.7246885794
 20
1405.0722567721
 10
2769.1722032264
 20
1405.5136402761
 10
2768.4278417238
 20
1405.5801974113
 10
2767.5813850545
 20
1405.2639004046
  0
LINE
  5
1F4
330
1F
100
AcDbEntity
  8
0
  6
Continuous
 62
     7
370
    25
100
AcDbLine
 10
2732.2260459952
 20
1384.8536976091
 30
0.0
 11
2719.4981239338
 21
1377.5060246027
 31
0.0
  0
LWPOLYLINE
  5
1F5
330
1F
100
AcDbEntity
  8
0
  6
Continuous
 62
     7
370
    25
100
AcDbPolyline
 90
       10
 70
   128
 43
0.0
 10
2719.4981239338
 20
1377.5060246027
 10
2718.6516672645
 20
1376.8450235413
 10
2717.907305762
 20
1375.9190449086
 10
2717.3548204089
 20
1374.8397753937
 10
2717.0608490927
 20
1373.7373908282
 10
2717.0608490927
 20
1372.7448550604
 10
2717.3548204089
 20
1371.9818825521
 10
2717.907305762
 20
1371.540499048
 10
2718.6516672645
 20
1371.4739419128
 10
2719.4981239338
 20
1371.7902389195
  0
LINE
  5
1F6
330
1F
100
AcDbEntity
  8
0
  6
Continuous
 62
     7
370
    25
100
AcDbLine
 10
2719.4981239338
 20
1371.7902389195
 30
0.0
 11
2732.2260459952
 21
1379.1379119259
 31
0.0
  0
LWPOLYLINE
  5
1F7
330
1F
100
AcDbEntity
  8
0
  6
Continuous
 62
     7
370
    25
100
AcDbPolyline
 90
       10
 70
   128
 43
0.0
 10
2732.2260459952
 20
1379.1379119259
 10
2733.0725026644
 20
1379.7989129872
 10
2733.816864167
 20
1380.7248916199
 10
2734.3693495201
 20
1381.8041611349
 10
2734.6633208363
 20
1382.9065457003
 10
2734.6633208363
 20
1383.8990814681
 10
2734.3693495201
 20
1384.6620539765
 10
2733.816864167
 20
1385.1034374806
 10
2733.0725026644
 20
1385.1699946157
 10
2732.2260459952
 20
1384.8536976091
  0
LINE
  5
1F8
330
1F
100
AcDbEntity
  8
0
  6
Continuous
 62
     7
370
    25
100
AcDbLine
 10
1022.4418490861
 20
392.1005047322
 30
0.0
 11
1035.1697711475
 21
399.4481777386
 31
0.0
  0
LWPOLYLINE
  5
1F9
330
1F
100
AcDbEntity
  8
0
  6
Continuous
 62
     7
370
    25
100
AcDbPolyline
 90
       10
 70
   128
 43
0.0
 10
1035.1697711475
 20
399.4481777386
 10
1036.0162278167
 20
400.1091788
 10
1036.7605893193
 20
401.0351574327
 10
1037.3130746724
 20
402.1144269476
 10
1037.6070459886
 20
403.2168115131
 10
1037.6070459886
 20
404.2093472809
 10
1037.3130746724
 20
404.9723197892
 10
1036.7605893193
 20
405.4137032933
 10
1036.0162278167
 20
405.4802604285
 10
1035.1697711475
 20
405.1639634218
  0
LINE
  5
1FA
330
1F
100
AcDbEntity
  8
0
  6
Continuous
 62
     7
370
    25
100
AcDbLine
 10
1035.1697711475
 20
405.1639634218
 30
0.0
 11
1022.4418490861
 21
397.8162904154
 31
0.0
  0
LWPOLYLINE
  5
1FB
330
1F
100
AcDbEntity
  8
0
  6
Continuous
 62
     7
370
    25
100
AcDbPolyline
 90
       10
 70
   128
 43
0.0
 10
1022.4418490861
 20
397.8162904154
 10
1021.5953924168
 20
397.1552893541
 10
1020.8510309142
 20
396.2293107214
 10
1020.2985455612
 20
395.1500412064
 10
1020.004574245
 20
394.047656641
 10
1020.004574245
 20
393.0551208732
 10
1020.2985455612
 20
392.2921483648
 10
1020.8510309142
 20
391.8507648607
 10
1021.5953924168
 20
391.7842077256
 10
1022.4418490861
 20
392.1005047322
  0
LINE
  5
1FC
330
1F
100
AcDbEntity
  8
0
  6
Continuous
 62
     7
370
    25
100
AcDbLine
 10
1009.7139270247
 20
348.4165001968
 30
0.0
 11
1009.7139270247
 21
415.3728467714
 31
0.0
  0
LINE
  5
1FD
330
1F
100
AcDbEntity
  8
0
  6
Continuous
 62
     7
370
    25
100
AcDbLine
 10
1098.1020448049
 20
312.9024819324
 30
0.0
 11
1093.1525272048
 21
315.7597776237
 31
0.0
  0
LINE
  5
1FE
330
1F
100
AcDbEntity
  8
0
  6
Continuous
 62
     7
370
    25
100
AcDbLine
 10
1091.7383136424
 20
315.7597776237
 30
0.0
 11
1088.9101163858
 21
314.1270941001
 31
0.0
  0
ARC
  5
1FF
330
1F
100
AcDbEntity
  8
0
  6
Continuous
 62
     7
370
    25
100
AcDbCircle
 10
1092.4454204236
 20
314.3950665387
 30
0.0
 40
1.53702190791177
100
AcDbArc
 50
62.6096722366
 51
117.3903277634
  0
LWPOLYLINE
  5
200
330
1F
100
AcDbEntity
  8
0
  6
Continuous
 62
     7
370
    25
100
AcDbPolyline
 90
        3
 70
   128
 43
0.0
 10
1020.1340659606
 20
392.5938484413
 10
1020.1811788545
 20
392.6006158374
 10
1021.0276355237
 20
392.916912844
  0
LINE
  5
201
330
1F
100
AcDbEntity
  8
0
  6
Continuous
 62
     7
370
    25
100
AcDbLine
 10
1021.0276355237
 20
392.916912844
 30
0.0
 11
1033.7555575851
 21
400.2645858504
 31
0.0
  0
ARC
  5
202
330
1F
100
AcDbEntity
  8
0
  6
Continuous
 62
     7
370
    25
100
AcDbCircle
 10
1031.4528991558
 20
404.4032470243
 30
0.0
 40
4.736111501389402
100
AcDbArc
 50
299.0905834166
 51
13.2284026257
  0
LWPOLYLINE
  5
203
330
1F
100
AcDbEntity
  8
0
  6
Continuous
 62
     7
370
    25
100
AcDbPolyline
 90
        3
 70
   128
 43
0.0
 10
1020.1340659605
 20
364.0149200253
 10
1020.1811788545
 20
364.0216874214
 10
1021.0276355237
 20
364.337984428
  0
LINE
  5
204
330
1F
100
AcDbEntity
  8
0
  6
Continuous
 62
     7
370
    25
100
AcDbLine
 10
1009.7139270247
 20
348.4165001968
 30
0.0
 11
1009.7139270247
 21
345.9668777611
 31
0.0
  0
LINE
  5
205
330
1F
100
AcDbEntity
  8
0
  6
Continuous
 62
     7
370
    25
100
AcDbLine
 10
1009.7139270247
 20
345.9668777611
 30
0.0
 11
1011.8352473683
 21
344.7422655934
 31
0.0
  0
LWPOLYLINE
  5
206
330
1F
100
AcDbEntity
  8
0
  6
Continuous
 62
     7
370
    25
100
AcDbPolyline
 90
        3
 70
   128
 43
0.0
 10
1027.3915965544
 20
348.8243061525
 10
1026.6943930339
 20
348.2494951097
 10
1026.6650097185
 20
348.2121327687
  0
LINE
  5
207
330
1F
100
AcDbEntity
  8
0
  6
Continuous
 62
     7
370
    25
100
AcDbLine
 10
1021.0276355237
 20
364.337984428
 30
0.0
 11
1033.7555575851
 21
371.6856574344
 31
0.0
  0
LWPOLYLINE
  5
208
330
1F
100
AcDbEntity
  8
0
  6
Continuous
 62
     7
370
    25
100
AcDbPolyline
 90
        3
 70
   128
 43
0.0
 10
1055.4894050198
 20
413.0040512368
 10
1055.5365179138
 20
413.010818633
 10
1056.3829745831
 20
413.3271156396
  0
LINE
  5
209
330
1F
100
AcDbEntity
  8
0
  6
Continuous
 62
     7
370
    25
100
AcDbLine
 10
1040.1195186158
 20
356.1719791589
 30
0.0
 11
1027.3915965544
 21
348.8243061525
 31
0.0
  0
ARC
  5
20A
330
1F
100
AcDbEntity
  8
0
  6
Continuous
 62
     7
370
    25
100
AcDbCircle
 10
1031.4528991558
 20
375.8243186082
 30
0.0
 40
4.736111501379257
100
AcDbArc
 50
299.0905834165
 51
13.228402626
  0
LINE
  5
20B
330
1F
100
AcDbEntity
  8
0
  6
Continuous
 62
     7
370
    25
100
AcDbLine
 10
1056.3829745831
 20
413.3271156396
 30
0.0
 11
1069.1108966444
 21
420.674788646
 31
0.0
  0
ARC
  5
20C
330
1F
100
AcDbEntity
  8
0
  6
Continuous
 62
     7
370
    25
100
AcDbCircle
 10
1042.552382814
 20
352.1077495594
 30
0.0
 40
4.73674893198654
100
AcDbArc
 50
46.784361557
 51
120.9049089464
  0
ARC
  5
20D
330
1F
100
AcDbEntity
  8
0
  6
Continuous
 62
     7
370
    25
100
AcDbCircle
 10
1066.808238215
 20
424.8134498199
 30
0.0
 40
4.736111501470647
100
AcDbArc
 50
299.090583417
 51
13.2284026231
  0
LWPOLYLINE
  5
20E
330
1F
100
AcDbEntity
  8
0
  6
Continuous
 62
     7
370
    25
100
AcDbPolyline
 90
        3
 70
   128
 43
0.0
 10
1055.4894050199
 20
384.4251228208
 10
1055.5365179138
 20
384.431890217
 10
1056.3829745831
 20
384.7481872236
  0
LWPOLYLINE
  5
20F
330
1F
100
AcDbEntity
  8
0
  6
Continuous
 62
     7
370
    25
100
AcDbPolyline
 90
        3
 70
   128
 43
0.0
 10
1062.7469356137
 20
369.2345089481
 10
1062.0497320933
 20
368.6596979053
 10
1062.0203487778
 20
368.6223355643
  0
LINE
  5
210
330
1F
100
AcDbEntity
  8
0
  6
Continuous
 62
     7
370
    25
100
AcDbLine
 10
1056.3829745831
 20
384.7481872236
 30
0.0
 11
1069.1108966444
 21
392.09586023
 31
0.0
  0
LINE
  5
211
330
1F
100
AcDbEntity
  8
0
  6
Continuous
 62
     7
370
    25
100
AcDbLine
 10
1075.4748576751
 20
376.5821819545
 30
0.0
 11
1062.7469356137
 21
369.2345089481
 31
0.0
  0
ARC
  5
212
330
1F
100
AcDbEntity
  8
0
  6
Continuous
 62
     7
370
    25
100
AcDbCircle
 10
1066.8082382151
 20
396.2345214038
 30
0.0
 40
4.73611150137067
100
AcDbArc
 50
299.0905834164
 51
13.2284026263
  0
ARC
  5
213
330
1F
100
AcDbEntity
  8
0
  6
Continuous
 62
     7
370
    25
100
AcDbCircle
 10
1077.9077218734
 20
372.517952355
 30
0.0
 40
4.736748931996243
100
AcDbArc
 50
46.7843615573
 51
120.9049089464
  0
LWPOLYLINE
  5
214
330
1F
100
AcDbEntity
  8
0
  6
Continuous
 62
     7
370
    25
100
AcDbPolyline
 90
        3
 70
   128
 43
0.0
 10
2999.5124092837
 20
1210.1414327786
 10
2998.6659526144
 20
1209.8251357719
 10
2998.6188397206
 20
1209.8183683758
  0
LINE
  5
215
330
1F
100
AcDbEntity
  8
0
  6
Continuous
 62
     7
370
    25
100
AcDbLine
 10
3012.240331345
 20
1217.489105785
 30
0.0
 11
2999.5124092837
 21
1210.1414327786
 31
0.0
  0
ARC
  5
216
330
1F
100
AcDbEntity
  8
0
  6
Continuous
 62
     7
370
    25
100
AcDbCircle
 10
3009.9376729157
 20
1221.6277669588
 30
0.0
 40
4.736111501418933
100
AcDbArc
 50
299.0905834167
 51
13.2284026248
  0
LWPOLYLINE
  5
217
330
1F
100
AcDbEntity
  8
0
  6
Continuous
 62
     7
370
    25
100
AcDbPolyline
 90
        3
 70
   128
 43
0.0
 10
2999.5124092837
 20
1181.5625043626
 10
2998.6659526144
 20
1181.2462073559
 10
2998.6188397204
 20
1181.2394399598
  0
LINE
  5
218
330
1F
100
AcDbEntity
  8
0
  6
Continuous
 62
     7
370
    25
100
AcDbLine
 10
3012.240331345
 20
1188.910177369
 30
0.0
 11
2999.5124092837
 21
1181.5625043626
 31
0.0
  0
LWPOLYLINE
  5
219
330
1F
100
AcDbEntity
  8
0
  6
Continuous
 62
     7
370
    25
100
AcDbPolyline
 90
        3
 70
   128
 43
0.0
 10
3034.867748343
 20
1230.5516355741
 10
3034.0212916737
 20
1230.2353385675
 10
3033.9741787799
 20
1230.2285711714
  0
ARC
  5
21A
330
1F
100
AcDbEntity
  8
0
  6
Continuous
 62
     7
370
    25
100
AcDbCircle
 10
3009.9376729157
 20
1193.0488385428
 30
0.0
 40
4.736111501493236
100
AcDbArc
 50
299.0905834171
 51
13.2284026225
  0
LINE
  5
21B
330
1F
100
AcDbEntity
  8
0
  6
Continuous
 62
     7
370
    25
100
AcDbLine
 10
3047.5956704044
 20
1237.8993085805
 30
0.0
 11
3034.867748343
 21
1230.5516355741
 31
0.0
  0
ARC
  5
21C
330
1F
100
AcDbEntity
  8
0
  6
Continuous
 62
     7
370
    25
100
AcDbCircle
 10
3045.293011975
 20
1242.0379697544
 30
0.0
 40
4.736111501431629
100
AcDbArc
 50
299.0905834168
 51
13.2284026244
  0
LWPOLYLINE
  5
21D
330
1F
100
AcDbEntity
  8
0
  6
Continuous
 62
     7
370
    25
100
AcDbPolyline
 90
        3
 70
   128
 43
0.0
 10
3034.867748343
 20
1201.9727071581
 10
3034.0212916737
 20
1201.6564101515
 10
3033.9741787798
 20
1201.6496427554
  0
LINE
  5
21E
330
1F
100
AcDbEntity
  8
0
  6
Continuous
 62
     7
370
    25
100
AcDbLine
 10
3047.5956704044
 20
1209.3203801645
 30
0.0
 11
3034.867748343
 21
1201.9727071581
 31
0.0
  0
ARC
  5
21F
330
1F
100
AcDbEntity
  8
0
  6
Continuous
 62
     7
370
    25
100
AcDbCircle
 10
3045.2930119751
 20
1213.4590413383
 30
0.0
 40
4.736111501384517
100
AcDbArc
 50
299.0905834165
 51
13.2284026258
  0
LINE
  5
220
330
1F
100
AcDbEntity
  8
0
  6
Continuous
 62
     7
370
    25
100
AcDbLine
 10
2910.416724986
 20
1277.4886660509
 30
0.0
 11
2905.4672073859
 21
1280.3459617422
 31
0.0
  0
LINE
  5
221
330
1F
100
AcDbEntity
  8
0
  6
Continuous
 62
     7
370
    25
100
AcDbLine
 10
2904.0529938235
 20
1280.3459617422
 30
0.0
 11
2901.2247965669
 21
1278.7132782186
 31
0.0
  0
ARC
  5
222
330
1F
100
AcDbEntity
  8
0
  6
Continuous
 62
     7
370
    25
100
AcDbCircle
 10
2904.7601006047
 20
1278.9812506572
 30
0.0
 40
1.537021907915061
100
AcDbArc
 50
62.6096722366
 51
117.3903277633
  0
LWPOLYLINE
  5
223
330
1F
100
AcDbEntity
  8
0
  6
Continuous
 62
     7
370
    25
100
AcDbPolyline
 90
        3
 70
   128
 43
0.0
 10
2717.1903408082
 20
1372.2835826285
 10
2717.2374537022
 20
1372.2903500247
 10
2718.0839103714
 20
1372.6066470313
  0
LINE
  5
224
330
1F
100
AcDbEntity
  8
0
  6
Continuous
 62
     7
370
    25
100
AcDbLine
 10
2718.0839103714
 20
1372.6066470313
 30
0.0
 11
2730.8118324328
 21
1379.9543200377
 31
0.0
  0
ARC
  5
225
330
1F
100
AcDbEntity
  8
0
  6
Continuous
 62
     7
370
    25
100
AcDbCircle
 10
2728.5091740035
 20
1384.0929812115
 30
0.0
 40
4.736111501414619
100
AcDbArc
 50
299.0905834167
 51
13.2284026249
  0
LINE
  5
226
330
1F
100
AcDbEntity
  8
0
  6
Continuous
 62
     7
370
    25
100
AcDbLine
 10
2839.7060468674
 20
1318.309071642
 30
0.0
 11
2834.7565292672
 21
1321.1663673333
 31
0.0
  0
LINE
  5
227
330
1F
100
AcDbEntity
  8
0
  6
Continuous
 62
     7
370
    25
100
AcDbLine
 10
2833.3423157048
 20
1321.1663673333
 30
0.0
 11
2830.5141184483
 21
1319.5336838098
 31
0.0
  0
ARC
  5
228
330
1F
100
AcDbEntity
  8
0
  6
Continuous
 62
     7
370
    25
100
AcDbCircle
 10
2834.049422486
 20
1319.8016562484
 30
0.0
 40
1.537021907911211
100
AcDbArc
 50
62.6096722366
 51
117.3903277634
  0
LWPOLYLINE
  5
229
330
1F
100
AcDbEntity
  8
0
  6
Continuous
 62
     7
370
    25
100
AcDbPolyline
 90
        3
 70
   128
 43
0.0
 10
2717.1903408083
 20
1343.7046542125
 10
2717.2374537022
 20
1343.7114216087
 10
2718.0839103714
 20
1344.0277186153
  0
LWPOLYLINE
  5
22A
330
1F
100
AcDbEntity
  8
0
  6
Continuous
 62
     7
370
    25
100
AcDbPolyline
 90
        3
 70
   128
 43
0.0
 10
2724.4478714021
 20
1328.5140403397
 10
2723.7506678816
 20
1327.939229297
 10
2723.7212845662
 20
1327.9018669559
  0
LINE
  5
22B
330
1F
100
AcDbEntity
  8
0
  6
Continuous
 62
     7
370
    25
100
AcDbLine
 10
2718.0839103714
 20
1344.0277186153
 30
0.0
 11
2730.8118324328
 21
1351.3753916217
 31
0.0
  0
LWPOLYLINE
  5
22C
330
1F
100
AcDbEntity
  8
0
  6
Continuous
 62
     7
370
    25
100
AcDbPolyline
 90
        3
 70
   128
 43
0.0
 10
2752.5456798676
 20
1392.6937854241
 10
2752.5927927615
 20
1392.7005528202
 10
2753.4392494308
 20
1393.0168498269
  0
LINE
  5
22D
330
1F
100
AcDbEntity
  8
0
  6
Continuous
 62
     7
370
    25
100
AcDbLine
 10
2737.1757934635
 20
1335.8617133461
 30
0.0
 11
2724.4478714021
 21
1328.5140403397
 31
0.0
  0
ARC
  5
22E
330
1F
100
AcDbEntity
  8
0
  6
Continuous
 62
     7
370
    25
100
AcDbCircle
 10
2728.5091740035
 20
1355.5140527955
 30
0.0
 40
4.73611150138345
100
AcDbArc
 50
299.0905834165
 51
13.2284026259
  0
LINE
  5
22F
330
1F
100
AcDbEntity
  8
0
  6
Continuous
 62
     7
370
    25
100
AcDbLine
 10
2753.4392494308
 20
1393.0168498269
 30
0.0
 11
2766.1671714921
 21
1400.3645228333
 31
0.0
  0
ARC
  5
230
330
1F
100
AcDbEntity
  8
0
  6
Continuous
 62
     7
370
    25
100
AcDbCircle
 10
2739.6086576617
 20
1331.7974837467
 30
0.0
 40
4.736748931962444
100
AcDbArc
 50
46.7843615562
 51
120.9049089465
  0
ARC
  5
231
330
1F
100
AcDbEntity
  8
0
  6
Continuous
 62
     7
370
    25
100
AcDbCircle
 10
2763.8645130628
 20
1404.5031840071
 30
0.0
 40
4.736111501412565
100
AcDbArc
 50
299.0905834167
 51
13.2284026249
  0
LWPOLYLINE
  5
232
330
1F
100
AcDbEntity
  8
0
  6
Continuous
 62
     7
370
    25
100
AcDbPolyline
 90
        3
 70
   128
 43
0.0
 10
2752.5456798676
 20
1364.1148570081
 10
2752.5927927615
 20
1364.1216244042
 10
2753.4392494308
 20
1364.4379214109
  0
LWPOLYLINE
  5
233
330
1F
100
AcDbEntity
  8
0
  6
Continuous
 62
     7
370
    25
100
AcDbPolyline
 90
        3
 70
   128
 43
0.0
 10
2759.8032104614
 20
1348.9242431353
 10
2759.106006941
 20
1348.3494320925
 10
2759.0766236255
 20
1348.3120697515
  0
LINE
  5
234
330
1F
100
AcDbEntity
  8
0
  6
Continuous
 62
     7
370
    25
100
AcDbLine
 10
2753.4392494308
 20
1364.4379214109
 30
0.0
 11
2766.1671714921
 21
1371.7855944173
 31
0.0
  0
LINE
  5
235
330
1F
100
AcDbEntity
  8
0
  6
Continuous
 62
     7
370
    25
100
AcDbLine
 10
2772.5311325228
 20
1356.2719161417
 30
0.0
 11
2759.8032104614
 21
1348.9242431353
 31
0.0
  0
ARC
  5
236
330
1F
100
AcDbEntity
  8
0
  6
Continuous
 62
     7
370
    25
100
AcDbCircle
 10
2763.8645130628
 20
1375.9242555911
 30
0.0
 40
4.736111501384986
100
AcDbArc
 50
299.0905834165
 51
13.2284026258
  0
ARC
  5
237
330
1F
100
AcDbEntity
  8
0
  6
Continuous
 62
     7
370
    25
100
AcDbCircle
 10
2774.9639967211
 20
1352.2076865422
 30
0.0
 40
4.736748931973132
100
AcDbArc
 50
46.7843615566
 51
120.9049089465
  0
ENDSEC
  0
SECTION
  2
OBJECTS
  0
DICTIONARY
  5
C
330
0
100
AcDbDictionary
281
     1
  3
ACAD_GROUP
350
D
  3
ACAD_LAYOUT
350
1A
  3
ACAD_MLINESTYLE
350
17
  3
ACAD_PLOTSETTINGS
350
19
  3
ACAD_PLOTSTYLENAME
350
E
  3
ACAD_SCALELIST
350
47
  0
DICTIONARY
  5
D
102
{ACAD_REACTORS
330
C
102
}
330
C
100
AcDbDictionary
281
     1
  0
DICTIONARY
  5
1A
102
{ACAD_REACTORS
330
C
102
}
330
C
100
AcDbDictionary
281
     1
  3
Layout1
350
1E
  3
Layout2
350
26
  3
Model
350
22
  0
DICTIONARY
  5
17
102
{ACAD_REACTORS
330
C
102
}
330
C
100
AcDbDictionary
281
     1
  3
Standard
350
18
  0
DICTIONARY
  5
19
102
{ACAD_REACTORS
330
C
102
}
330
C
100
AcDbDictionary
281
     1
  0
ACDBDICTIONARYWDFLT
  5
E
102
{ACAD_REACTORS
330
C
102
}
330
C
100
AcDbDictionary
281
     1
  3
Normal
350
F
100
AcDbDictionaryWithDefault
340
F
  0
DICTIONARY
  5
47
102
{ACAD_REACTORS
330
C
102
}
330
C
100
AcDbDictionary
281
     1
  3
A0
350
48
  3
A1
350
49
  3
A2
350
4A
  3
A3
350
4B
  3
A4
350
4C
  3
A5
350
4D
  3
A6
350
4E
  3
A7
350
4F
  3
A8
350
50
  3
A9
350
51
  3
B0
350
52
  3
B1
350
53
  3
B2
350
54
  3
B3
350
55
  3
B4
350
56
  3
B5
350
57
  3
B6
350
58
  3
B7
350
59
  3
B8
350
5A
  3
B9
350
5B
  3
C0
350
5C
  3
C1
350
5D
  3
C2
350
5E
  3
C3
350
5F
  3
C4
350
60
  3
C5
350
61
  3
C6
350
62
  3
C7
350
63
  3
C8
350
64
  3
C9
350
65
  3
D0
350
66
  3
D1
350
67
  3
D2
350
68
  0
LAYOUT
  5
1E
102
{ACAD_REACTORS
330
1A
102
}
330
1A
100
AcDbPlotSettings
  1

  2
none_device
  4

  6

 40
0.0
 41
0.0
 42
0.0
 43
0.0
 44
0.0
 45
0.0
 46
0.0
 47
0.0
 48
0.0
 49
0.0
140
0.0
141
0.0
142
1.0
143
1.0
 70
   688
 72
     1
 73
     0
 74
     5
  7

 75
    16
147
1.0
148
0.0
149
0.0
100
AcDbLayout
  1
Layout1
 70
     1
 71
     1
 10
0.0
 20
0.0
 11
420.0
 21
297.0
 12
0.0
 22
0.0
 32
0.0
 14
1.0000000000E+20
 24
1.0000000000E+20
 34
1.0000000000E+20
 15
-1.0000000000E+20
 25
-1.0000000000E+20
 35
-1.0000000000E+20
146
0.0
 13
0.0
 23
0.0
 33
0.0
 16
1.0
 26
0.0
 36
0.0
 17
0.0
 27
1.0
 37
0.0
 76
     0
330
1B
  0
LAYOUT
  5
26
102
{ACAD_REACTORS
330
1A
102
}
330
1A
100
AcDbPlotSettings
  1

  2
none_device
  4

  6

 40
0.0
 41
0.0
 42
0.0
 43
0.0
 44
0.0
 45
0.0
 46
0.0
 47
0.0
 48
0.0
 49
0.0
140
0.0
141
0.0
142
1.0
143
1.0
 70
   688
 72
     1
 73
     0
 74
     5
  7

 75
    16
147
1.0
148
0.0
149
0.0
100
AcDbLayout
  1
Layout2
 70
     1
 71
     2
 10
0.0
 20
0.0
 11
0.0
 21
0.0
 12
0.0
 22
0.0
 32
0.0
 14
0.0
 24
0.0
 34
0.0
 15
0.0
 25
0.0
 35
0.0
146
0.0
 13
0.0
 23
0.0
 33
0.0
 16
1.0
 26
0.0
 36
0.0
 17
0.0
 27
1.0
 37
0.0
 76
     0
330
23
  0
LAYOUT
  5
22
102
{ACAD_REACTORS
330
1A
102
}
330
1A
100
AcDbPlotSettings
  1

  2
none_device
  4
Letter_(8.50_x_11.00_Inches)
  6

 40
6.35
 41
6.35
 42
6.35000508
 43
6.35000508
 44
215.9
 45
279.4
 46
0.0
 47
0.0
 48
0.0
 49
0.0
140
0.0
141
0.0
142
1.0
143
1.0
 70
  1712
 72
     1
 73
     0
 74
     0
  7

 75
     0
147
1.0
148
0.0
149
0.0
100
AcDbLayout
  1
Model
 70
     1
 71
     0
 10
0.0
 20
0.0
 11
3500.0
 21
3000.0
 12
0.0
 22
0.0
 32
0.0
 14
0.0
 24
0.0
 34
0.0
 15
3500.0
 25
3000.0
 35
0.0
146
0.0
 13
0.0
 23
0.0
 33
0.0
 16
1.0
 26
0.0
 36
0.0
 17
0.0
 27
1.0
 37
0.0
 76
     0
330
1F
331
29
  0
MLINESTYLE
  5
18
102
{ACAD_REACTORS
330
17
102
}
330
17
100
AcDbMlineStyle
  2
Standard
 70
     0
  3

 62
   256
 51
90.0
 52
90.0
 71
     2
 49
0.5
 62
   256
  6
BYLAYER
 49
-0.5
 62
   256
  6
BYLAYER
  0
ACDBPLACEHOLDER
  5
F
102
{ACAD_REACTORS
330
E
102
}
330
E
  0
SCALE
  5
48
102
{ACAD_REACTORS
330
47
102
}
330
47
100
AcDbScale
 70
     0
300
1:1
140
1.0
141
1.0
290
     1
  0
SCALE
  5
49
102
{ACAD_REACTORS
330
47
102
}
330
47
100
AcDbScale
 70
     0
300
1:2
140
1.0
141
2.0
290
     0
  0
SCALE
  5
4A
102
{ACAD_REACTORS
330
47
102
}
330
47
100
AcDbScale
 70
     0
300
1:4
140
1.0
141
4.0
290
     0
  0
SCALE
  5
4B
102
{ACAD_REACTORS
330
47
102
}
330
47
100
AcDbScale
 70
     0
300
1:5
140
1.0
141
5.0
290
     0
  0
SCALE
  5
4C
102
{ACAD_REACTORS
330
47
102
}
330
47
100
AcDbScale
 70
     0
300
1:8
140
1.0
141
8.0
290
     0
  0
SCALE
  5
4D
102
{ACAD_REACTORS
330
47
102
}
330
47
100
AcDbScale
 70
     0
300
1:10
140
1.0
141
10.0
290
     0
  0
SCALE
  5
4E
102
{ACAD_REACTORS
330
47
102
}
330
47
100
AcDbScale
 70
     0
300
1:16
140
1.0
141
16.0
290
     0
  0
SCALE
  5
4F
102
{ACAD_REACTORS
330
47
102
}
330
47
100
AcDbScale
 70
     0
300
1:20
140
1.0
141
20.0
290
     0
  0
SCALE
  5
50
102
{ACAD_REACTORS
330
47
102
}
330
47
100
AcDbScale
 70
     0
300
1:30
140
1.0
141
30.0
290
     0
  0
SCALE
  5
51
102
{ACAD_REACTORS
330
47
102
}
330
47
100
AcDbScale
 70
     0
300
1:40
140
1.0
141
40.0
290
     0
  0
SCALE
  5
52
102
{ACAD_REACTORS
330
47
102
}
330
47
100
AcDbScale
 70
     0
300
1:50
140
1.0
141
50.0
290
     0
  0
SCALE
  5
53
102
{ACAD_REACTORS
330
47
102
}
330
47
100
AcDbScale
 70
     0
300
1:100
140
1.0
141
100.0
290
     0
  0
SCALE
  5
54
102
{ACAD_REACTORS
330
47
102
}
330
47
100
AcDbScale
 70
     0
300
2:1
140
2.0
141
1.0
290
     0
  0
SCALE
  5
55
102
{ACAD_REACTORS
330
47
102
}
330
47
100
AcDbScale
 70
     0
300
4:1
140
4.0
141
1.0
290
     0
  0
SCALE
  5
56
102
{ACAD_REACTORS
330
47
102
}
330
47
100
AcDbScale
 70
     0
300
8:1
140
8.0
141
1.0
290
     0
  0
SCALE
  5
57
102
{ACAD_REACTORS
330
47
102
}
330
47
100
AcDbScale
 70
     0
300
10:1
140
10.0
141
1.0
290
     0
  0
SCALE
  5
58
102
{ACAD_REACTORS
330
47
102
}
330
47
100
AcDbScale
 70
     0
300
100:1
140
100.0
141
1.0
290
     0
  0
SCALE
  5
59
102
{ACAD_REACTORS
330
47
102
}
330
47
100
AcDbScale
 70
     0
300
1/128" = 1'-0"
140
0.0078125
141
12.0
290
     0
  0
SCALE
  5
5A
102
{ACAD_REACTORS
330
47
102
}
330
47
100
AcDbScale
 70
     0
300
1/64" = 1'-0"
140
0.015625
141
12.0
290
     0
  0
SCALE
  5
5B
102
{ACAD_REACTORS
330
47
102
}
330
47
100
AcDbScale
 70
     0
300
1/32" = 1'-0"
140
0.03125
141
12.0
290
     0
  0
SCALE
  5
5C
102
{ACAD_REACTORS
330
47
102
}
330
47
100
AcDbScale
 70
     0
300
1/16" = 1'-0"
140
0.0625
141
12.0
290
     0
  0
SCALE
  5
5D
102
{ACAD_REACTORS
330
47
102
}
330
47
100
AcDbScale
 70
     0
300
3/32" = 1'-0"
140
0.09375
141
12.0
290
     0
  0
SCALE
  5
5E
102
{ACAD_REACTORS
330
47
102
}
330
47
100
AcDbScale
 70
     0
300
1/8" = 1'-0"
140
0.125
141
12.0
290
     0
  0
SCALE
  5
5F
102
{ACAD_REACTORS
330
47
102
}
330
47
100
AcDbScale
 70
     0
300
3/16" = 1'-0"
140
0.1875
141
12.0
290
     0
  0
SCALE
  5
60
102
{ACAD_REACTORS
330
47
102
}
330
47
100
AcDbScale
 70
     0
300
1/4" = 1'-0"
140
0.25
141
12.0
290
     0
  0
SCALE
  5
61
102
{ACAD_REACTORS
330
47
102
}
330
47
100
AcDbScale
 70
     0
300
3/8" = 1'-0"
140
0.375
141
12.0
290
     0
  0
SCALE
  5
62
102
{ACAD_REACTORS
330
47
102
}
330
47
100
AcDbScale
 70
     0
300
1/2" = 1'-0"
140
0.5
141
12.0
290
     0
  0
SCALE
  5
63
102
{ACAD_REACTORS
330
47
102
}
330
47
100
AcDbScale
 70
     0
300
3/4" = 1'-0"
140
0.75
141
12.0
290
     0
  0
SCALE
  5
64
102
{ACAD_REACTORS
330
47
102
}
330
47
100
AcDbScale
 70
     0
300
1" = 1'-0"
140
1.0
141
12.0
290
     0
  0
SCALE
  5
65
102
{ACAD_REACTORS
330
47
102
}
330
47
100
AcDbScale
 70
     0
300
1-1/2" = 1'-0"
140
1.5
141
12.0
290
     0
  0
SCALE
  5
66
102
{ACAD_REACTORS
330
47
102
}
330
47
100
AcDbScale
 70
     0
300
3" = 1'-0"
140
3.0
141
12.0
290
     0
  0
SCALE
  5
67
102
{ACAD_REACTORS
330
47
102
}
330
47
100
AcDbScale
 70
     0
300
6" = 1'-0"
140
6.0
141
12.0
290
     0
  0
SCALE
  5
68
102
{ACAD_REACTORS
330
47
102
}
330
47
100
AcDbScale
 70
     0
300
1'-0" = 1'-0"
140
12.0
141
12.0
290
     0
  0
ENDSEC
  0
EOF
