  0
SECTION
  2
HEADER
  9
$ACADVER
  1
AC1015
  9
$ACADMAINTVER
 70
     6
  9
$DWGCODEPAGE
  3
ANSI_1251
  9
$INSBASE
 10
0.0
 20
0.0
 30
0.0
  9
$EXTMIN
 10
0.0
 20
0.0
 30
0.0
  9
$EXTMAX
 10
3000.0
 20
2500.0
 30
0.0
  9
$LIMMIN
 10
0.0
 20
0.0
  9
$LIMMAX
 10
3000.0
 20
2500.0
  9
$ORTHOMODE
 70
     0
  9
$REGENMODE
 70
     1
  9
$FILLMODE
 70
     1
  9
$QTEXTMODE
 70
     0
  9
$MIRRTEXT
 70
     1
  9
$LTSCALE
 40
1.0
  9
$ATTMODE
 70
     1
  9
$TEXTSIZE
 40
3.5
  9
$TRACEWID
 40
1.0
  9
$TEXTSTYLE
  7
Standard
  9
$CLAYER
  8
0
  9
$CELTYPE
  6
ByLayer
  9
$CECOLOR
 62
   256
  9
$CELTSCALE
 40
1.0
  9
$DISPSILH
 70
     0
  9
$DIMSCALE
 40
1.0
  9
$DIMASZ
 40
3.302
  9
$DIMEXO
 40
0.0
  9
$DIMDLI
 40
3.75
  9
$DIMRND
 40
0.0
  9
$DIMDLE
 40
0.0
  9
$DIMEXE
 40
1.0
  9
$DIMTP
 40
0.0
  9
$DIMTM
 40
0.0
  9
$DIMTXT
 40
3.5
  9
$DIMCEN
 40
2.5
  9
$DIMTSZ
 40
0.0
  9
$DIMTOL
 70
     0
  9
$DIMLIM
 70
     0
  9
$DIMTIH
 70
     1
  9
$DIMTOH
 70
     1
  9
$DIMSE1
 70
     0
  9
$DIMSE2
 70
     0
  9
$DIMTAD
 70
     1
  9
$DIMZIN
 70
     0
  9
$DIMBLK
  1

  9
$DIMASO
 70
     1
  9
$DIMSHO
 70
     1
  9
$DIMPOST
  1

  9
$DIMAPOST
  1

  9
$DIMALT
 70
     0
  9
$DIMALTD
 70
     3
  9
$DIMALTF
 40
0.0393700787
  9
$DIMLFAC
 40
1.0
  9
$DIMTOFL
 70
     1
  9
$DIMTVP
 40
0.0
  9
$DIMTIX
 70
     0
  9
$DIMSOXD
 70
     0
  9
$DIMSAH
 70
     0
  9
$DIMBLK1
  1

  9
$DIMBLK2
  1

  9
$DIMSTYLE
  2
ISO-25
  9
$DIMCLRD
 70
     0
  9
$DIMCLRE
 70
     0
  9
$DIMCLRT
 70
     0
  9
$DIMTFAC
 40
1.0
  9
$DIMGAP
 40
1.524
  9
$DIMJUST
 70
     0
  9
$DIMSD1
 70
     0
  9
$DIMSD2
 70
     0
  9
$DIMTOLJ
 70
     0
  9
$DIMTZIN
 70
     0
  9
$DIMALTZ
 70
     0
  9
$DIMALTTZ
 70
     0
  9
$DIMUPT
 70
     0
  9
$DIMDEC
 70
     2
  9
$DIMTDEC
 70
     2
  9
$DIMALTU
 70
     2
  9
$DIMALTTD
 70
     3
  9
$DIMTXSTY
  7
Standard
  9
$DIMAUNIT
 70
     0
  9
$DIMADEC
 70
     2
  9
$DIMALTRND
 40
0.0
  9
$DIMAZIN
 70
     0
  9
$DIMDSEP
 70
    44
  9
$DIMATFIT
 70
     3
  9
$DIMFRAC
 70
     0
  9
$DIMLDRBLK
  1

  9
$DIMLUNIT
 70
     2
  9
$DIMLWD
 70
    -2
  9
$DIMLWE
 70
    -2
  9
$DIMTMOVE
 70
     0
  9
$LUNITS
 70
     2
  9
$LUPREC
 70
     1
  9
$SKETCHINC
 40
1.0
  9
$FILLETRAD
 40
10.0
  9
$AUNITS
 70
     1
  9
$AUPREC
 70
     2
  9
$MENU
  1
.
  9
$ELEVATION
 40
0.0
  9
$PELEVATION
 40
0.0
  9
$THICKNESS
 40
0.0
  9
$LIMCHECK
 70
     0
  9
$CHAMFERA
 40
0.0
  9
$CHAMFERB
 40
0.0
  9
$CHAMFERC
 40
0.0
  9
$CHAMFERD
 40
0.0
  9
$SKPOLY
 70
     0
  9
$TDCREATE
 40
2459491.620760579
  9
$TDUCREATE
 40
2459491.495760579
  9
$TDUPDATE
 40
2459491.620764398
  9
$TDUUPDATE
 40
2459491.495764398
  9
$TDINDWG
 40
0.0000000116
  9
$TDUSRTIMER
 40
0.0000000116
  9
$USRTIMER
 70
     1
  9
$ANGBASE
 50
0.0
  9
$ANGDIR
 70
     0
  9
$PDMODE
 70
     0
  9
$PDSIZE
 40
-1.0
  9
$PLINEWID
 40
0.0
  9
$SPLFRAME
 70
     0
  9
$SPLINETYPE
 70
     6
  9
$SPLINESEGS
 70
     8
  9
$HANDSEED
  5
1EC
  9
$SURFTAB1
 70
     6
  9
$SURFTAB2
 70
     6
  9
$SURFTYPE
 70
     6
  9
$SURFU
 70
     6
  9
$SURFV
 70
     6
  9
$UCSBASE
  2

  9
$UCSNAME
  2

  9
$UCSORG
 10
0.0
 20
0.0
 30
0.0
  9
$UCSXDIR
 10
1.0
 20
0.0
 30
0.0
  9
$UCSYDIR
 10
0.0
 20
1.0
 30
0.0
  9
$UCSORTHOREF
  2

  9
$UCSORTHOVIEW
 70
     0
  9
$UCSORGTOP
 10
0.0
 20
0.0
 30
0.0
  9
$UCSORGBOTTOM
 10
0.0
 20
0.0
 30
0.0
  9
$UCSORGLEFT
 10
0.0
 20
0.0
 30
0.0
  9
$UCSORGRIGHT
 10
0.0
 20
0.0
 30
0.0
  9
$UCSORGFRONT
 10
0.0
 20
0.0
 30
0.0
  9
$UCSORGBACK
 10
0.0
 20
0.0
 30
0.0
  9
$PUCSBASE
  2

  9
$PUCSNAME
  2

  9
$PUCSORG
 10
0.0
 20
0.0
 30
0.0
  9
$PUCSXDIR
 10
1.0
 20
0.0
 30
0.0
  9
$PUCSYDIR
 10
0.0
 20
1.0
 30
0.0
  9
$PUCSORTHOREF
  2

  9
$PUCSORTHOVIEW
 70
     0
  9
$PUCSORGTOP
 10
0.0
 20
0.0
 30
0.0
  9
$PUCSORGBOTTOM
 10
0.0
 20
0.0
 30
0.0
  9
$PUCSORGLEFT
 10
0.0
 20
0.0
 30
0.0
  9
$PUCSORGRIGHT
 10
0.0
 20
0.0
 30
0.0
  9
$PUCSORGFRONT
 10
0.0
 20
0.0
 30
0.0
  9
$PUCSORGBACK
 10
0.0
 20
0.0
 30
0.0
  9
$USERI1
 70
     0
  9
$USERI2
 70
     0
  9
$USERI3
 70
     0
  9
$USERI4
 70
     0
  9
$USERI5
 70
     0
  9
$USERR1
 40
0.0
  9
$USERR2
 40
0.0
  9
$USERR3
 40
0.0
  9
$USERR4
 40
0.0
  9
$USERR5
 40
0.0
  9
$WORLDVIEW
 70
     1
  9
$SHADEDGE
 70
     3
  9
$SHADEDIF
 70
    70
  9
$TILEMODE
 70
     1
  9
$MAXACTVP
 70
    64
  9
$PINSBASE
 10
0.0
 20
0.0
 30
0.0
  9
$PLIMCHECK
 70
     0
  9
$PEXTMIN
 10
1.0000000000E+20
 20
1.0000000000E+20
 30
1.0000000000E+20
  9
$PEXTMAX
 10
-1.0000000000E+20
 20
-1.0000000000E+20
 30
-1.0000000000E+20
  9
$PLIMMIN
 10
0.0
 20
0.0
  9
$PLIMMAX
 10
420.0
 20
297.0
  9
$UNITMODE
 70
     0
  9
$VISRETAIN
 70
     1
  9
$PLINEGEN
 70
     0
  9
$PSLTSCALE
 70
     1
  9
$TREEDEPTH
 70
  3020
  9
$CMLSTYLE
  2
Standard
  9
$CMLJUST
 70
     0
  9
$CMLSCALE
 40
20.0
  9
$PROXYGRAPHICS
 70
     1
  9
$MEASUREMENT
 70
     1
  9
$CELWEIGHT
370
    -1
  9
$ENDCAPS
280
     0
  9
$JOINSTYLE
280
     0
  9
$LWDISPLAY
290
     1
  9
$INSUNITS
 70
     4
  9
$HYPERLINKBASE
  1

  9
$STYLESHEET
  1

  9
$XEDIT
290
     1
  9
$CEPSNTYPE
380
     0
  9
$PSTYLEMODE
290
     1
  9
$FINGERPRINTGUID
  2
{E7AAC768-0C0B-4F34-9EC3-2144B5B4E3B6}
  9
$VERSIONGUID
  2
{FAEB1C32-E019-11D5-929B-00C0DF256EC4}
  9
$EXTNAMES
290
     1
  9
$PSVPSCALE
 40
0.0
  9
$OLESTARTUP
290
     0
  0
ENDSEC
  0
SECTION
  2
CLASSES
  0
CLASS
  1
ACDBDICTIONARYWDFLT
  2
AcDbDictionaryWithDefault
  3
ObjectDBX Classes
 90
        0
280
     0
281
     0
  0
CLASS
  1
VISUALSTYLE
  2
AcDbVisualStyle
  3
ObjectDBX Classes
 90
     4095
280
     0
281
     0
  0
CLASS
  1
MATERIAL
  2
AcDbMaterial
  3
ObjectDBX Classes
 90
     1153
280
     0
281
     0
  0
CLASS
  1
SCALE
  2
AcDbScale
  3
ObjectDBX Classes
 90
     1153
280
     0
281
     0
  0
CLASS
  1
TABLESTYLE
  2
AcDbTableStyle
  3
ObjectDBX Classes
 90
     4095
280
     0
281
     0
  0
CLASS
  1
MLEADERSTYLE
  2
AcDbMLeaderStyle
  3
ACDB_MLEADERSTYLE_CLASS
 90
     4095
280
     0
281
     0
  0
CLASS
  1
SUN
  2
AcDbSun
  3
SCENEOE
 90
     1153
280
     0
281
     0
  0
CLASS
  1
ACDBPLACEHOLDER
  2
AcDbPlaceHolder
  3
ObjectDBX Classes
 90
        0
280
     0
281
     0
  0
CLASS
  1
LAYOUT
  2
AcDbLayout
  3
ObjectDBX Classes
 90
        0
280
     0
281
     0
  0
ENDSEC
  0
SECTION
  2
TABLES
  0
TABLE
  2
VPORT
  5
8
330
0
100
AcDbSymbolTable
 70
     1
  0
VPORT
  5
29
330
8
100
AcDbSymbolTableRecord
100
AcDbViewportTableRecord
  2
*Active
 70
     0
 10
0.0
 20
0.0
 11
1.0
 21
1.0
 12
1500.0
 22
1250.0
 13
0.0
 23
0.0
 14
10.0
 24
10.0
 15
10.0
 25
10.0
 16
0.0
 26
0.0
 36
1.0
 17
0.0
 27
0.0
 37
0.0
 40
2500.0
 41
1.2
 42
50.0
 43
0.0
 44
0.0
 50
0.0
 51
0.0
 71
     0
 72
  2000
 73
     1
 74
     3
 75
     0
 76
     0
 77
     0
 78
     0
281
     0
 65
     1
110
0.0
120
0.0
130
0.0
111
1.0
121
0.0
131
0.0
112
0.0
122
1.0
132
0.0
 79
     0
146
0.0
  0
ENDTAB
  0
TABLE
  2
LTYPE
  5
5
330
0
100
AcDbSymbolTable
 70
     6
  0
LTYPE
  5
14
330
5
100
AcDbSymbolTableRecord
100
AcDbLinetypeTableRecord
  2
ByBlock
 70
     0
  3

 72
    65
 73
     0
 40
0.0
  0
LTYPE
  5
15
330
5
100
AcDbSymbolTableRecord
100
AcDbLinetypeTableRecord
  2
ByLayer
 70
     0
  3

 72
    65
 73
     0
 40
0.0
  0
LTYPE
  5
16
330
5
100
AcDbSymbolTableRecord
100
AcDbLinetypeTableRecord
  2
Continuous
 70
     0
  3
Solid line
 72
    65
 73
     0
 40
0.0
  0
LTYPE
  5
6E
330
5
100
AcDbSymbolTableRecord
100
AcDbLinetypeTableRecord
  2
HIDDEN
 70
     0
  3
Hidden __ __ __ __ __ __ __ __ __ __ __ __ __ __
 72
    65
 73
     2
 40
1.905
 49
1.27
 74
     0
 49
-0.635
 74
     0
  0
LTYPE
  5
6F
330
5
100
AcDbSymbolTableRecord
100
AcDbLinetypeTableRecord
  2
PHANTOM
 70
     0
  3
Phantom ______  __  __  ______  __  __  ______
 72
    65
 73
     6
 40
12.7
 49
6.35
 74
     0
 49
-1.27
 74
     0
 49
1.27
 74
     0
 49
-1.27
 74
     0
 49
1.27
 74
     0
 49
-1.27
 74
     0
  0
LTYPE
  5
70
330
5
100
AcDbSymbolTableRecord
100
AcDbLinetypeTableRecord
  2
CENTER
 70
     0
  3
Center ____ _ ____ _ ____ _ ____ _ ____ _ ____
 72
    65
 73
     4
 40
10.16
 49
6.35
 74
     0
 49
-1.27
 74
     0
 49
1.27
 74
     0
 49
-1.27
 74
     0
  0
LTYPE
  5
71
330
5
100
AcDbSymbolTableRecord
100
AcDbLinetypeTableRecord
  2
CENTERX2
 70
     0
  3
Center (2x) ________  __  ________  __  _____
 72
    65
 73
     4
 40
20.32
 49
12.7
 74
     0
 49
-2.54
 74
     0
 49
2.54
 74
     0
 49
-2.54
 74
     0
  0
LTYPE
  5
72
330
5
100
AcDbSymbolTableRecord
100
AcDbLinetypeTableRecord
  2
DOT2
 70
     0
  3
Dot (.5x) ........................................
 72
    65
 73
     2
 40
0.635
 49
0.0
 74
     0
 49
-0.635
 74
     0
  0
ENDTAB
  0
TABLE
  2
LAYER
  5
2
330
0
100
AcDbSymbolTable
 70
     8
  0
LAYER
  5
10
330
2
100
AcDbSymbolTableRecord
100
AcDbLayerTableRecord
  2
0
 70
     0
 62
     7
  6
Continuous
370
    -3
390
F
  0
LAYER
  5
73
330
2
100
AcDbSymbolTableRecord
100
AcDbLayerTableRecord
  2
SLD-0
 70
     0
 62
     7
  6
Continuous
370
    25
390
F
  0
LAYER
  5
74
330
2
100
AcDbSymbolTableRecord
100
AcDbLayerTableRecord
  2
OSNOVA
 70
     0
 62
     5
  6
Continuous
370
    -3
390
F
  0
LAYER
  5
75
330
2
100
AcDbSymbolTableRecord
100
AcDbLayerTableRecord
  2
THIN_LINE
 70
     0
 62
     7
  6
Continuous
370
    25
390
F
  0
LAYER
  5
76
330
2
100
AcDbSymbolTableRecord
100
AcDbLayerTableRecord
  2
THICK_LINE
 70
     0
 62
     7
  6
Continuous
370
    25
390
F
  0
LAYER
  5
77
330
2
100
AcDbSymbolTableRecord
100
AcDbLayerTableRecord
  2
THIN_LIONE
 70
     0
 62
     7
  6
Continuous
370
    -3
390
F
  0
LAYER
  5
78
330
2
100
AcDbSymbolTableRecord
100
AcDbLayerTableRecord
  2
THICK_LIONE
 70
     0
 62
     7
  6
Continuous
370
    25
390
F
  0
LAYER
  5
79
330
2
100
AcDbSymbolTableRecord
100
AcDbLayerTableRecord
  2
ИЗМЕН_РАЗМЕР
 70
     0
 62
     1
  6
Continuous
370
    -3
390
F
  0
ENDTAB
  0
TABLE
  2
STYLE
  5
3
330
0
100
AcDbSymbolTable
 70
     1
  0
STYLE
  5
11
330
3
100
AcDbSymbolTableRecord
100
AcDbTextStyleTableRecord
  2
Standard
 70
     0
 40
0.0
 41
1.0
 50
0.0
 71
     0
 42
3.5
  3
txt
  4

  0
ENDTAB
  0
TABLE
  2
VIEW
  5
6
330
0
100
AcDbSymbolTable
 70
     0
  0
ENDTAB
  0
TABLE
  2
UCS
  5
7
330
0
100
AcDbSymbolTable
 70
     0
  0
ENDTAB
  0
TABLE
  2
APPID
  5
9
330
0
100
AcDbSymbolTable
 70
     1
  0
APPID
  5
12
330
9
100
AcDbSymbolTableRecord
100
AcDbRegAppTableRecord
  2
ACAD
 70
     0
  0
ENDTAB
  0
TABLE
  2
DIMSTYLE
  5
A
330
0
100
AcDbSymbolTable
 70
     1
100
AcDbDimStyleTable
  0
DIMSTYLE
105
27
330
A
100
AcDbSymbolTableRecord
100
AcDbDimStyleTableRecord
  2
ISO-25
 70
     0
 41
2.5
 42
0.625
 43
3.75
 44
1.25
 73
     0
 74
     0
 77
     1
 78
     8
140
2.5
141
2.5
143
0.0393700787
147
0.625
171
     3
172
     1
178
     0
271
     2
272
     2
274
     3
278
    44
283
     0
284
     8
340
11
  0
ENDTAB
  0
TABLE
  2
BLOCK_RECORD
  5
1
330
0
100
AcDbSymbolTable
 70
     1
  0
BLOCK_RECORD
  5
1F
330
1
100
AcDbSymbolTableRecord
100
AcDbBlockTableRecord
  2
*Model_Space
340
22
  0
BLOCK_RECORD
  5
1B
330
1
100
AcDbSymbolTableRecord
100
AcDbBlockTableRecord
  2
*Paper_Space
340
1E
  0
BLOCK_RECORD
  5
23
330
1
100
AcDbSymbolTableRecord
100
AcDbBlockTableRecord
  2
*Paper_Space0
340
26
  0
ENDTAB
  0
ENDSEC
  0
SECTION
  2
BLOCKS
  0
BLOCK
  5
20
330
1F
100
AcDbEntity
  8
0
100
AcDbBlockBegin
  2
*Model_Space
 70
     0
 10
0.0
 20
0.0
 30
0.0
  3
*Model_Space
  1

  0
ENDBLK
  5
21
330
1F
100
AcDbEntity
  8
0
100
AcDbBlockEnd
  0
BLOCK
  5
1C
330
1B
100
AcDbEntity
 67
     1
  8
0
100
AcDbBlockBegin
  2
*Paper_Space
 70
     0
 10
0.0
 20
0.0
 30
0.0
  3
*Paper_Space
  1

  0
ENDBLK
  5
1D
330
1B
100
AcDbEntity
 67
     1
  8
0
100
AcDbBlockEnd
  0
BLOCK
  5
24
330
23
100
AcDbEntity
  8
0
100
AcDbBlockBegin
  2
*Paper_Space0
 70
     0
 10
0.0
 20
0.0
 30
0.0
  3
*Paper_Space0
  1

  0
ENDBLK
  5
25
330
23
100
AcDbEntity
  8
0
100
AcDbBlockEnd
  0
ENDSEC
  0
SECTION
  2
ENTITIES
  0
LINE
  5
7A
330
1F
100
AcDbEntity
  8
0
  6
Continuous
 62
     7
370
    25
100
AcDbLine
 10
120.9319913136
 20
1409.3115657532
 30
0.0
 11
120.9319913136
 21
1410.7104887277
 31
0.0
  0
LINE
  5
7B
330
1F
100
AcDbEntity
  8
0
  6
Continuous
 62
     7
370
    25
100
AcDbLine
 10
2120.9319913136
 20
1410.7104887277
 30
0.0
 11
120.9319913136
 21
1410.7104887277
 31
0.0
  0
LINE
  5
7C
330
1F
100
AcDbEntity
  8
0
  6
Continuous
 62
     7
370
    25
100
AcDbLine
 10
2120.9319913136
 20
1409.3115657532
 30
0.0
 11
2120.9319913136
 21
1410.7104887277
 31
0.0
  0
LINE
  5
7D
330
1F
100
AcDbEntity
  8
0
  6
Continuous
 62
     7
370
    25
100
AcDbLine
 10
2120.9319913136
 20
1344.3115657532
 30
0.0
 11
120.9319913136
 21
1344.3115657532
 31
0.0
  0
LINE
  5
7E
330
1F
100
AcDbEntity
  8
0
  6
Continuous
 62
     7
370
    25
100
AcDbLine
 10
120.9319913136
 20
1409.3115657532
 30
0.0
 11
120.9319913136
 21
1347.3115657532
 31
0.0
  0
LINE
  5
7F
330
1F
100
AcDbEntity
  8
0
  6
Continuous
 62
     7
370
    25
100
AcDbLine
 10
186.9319913136
 20
1358.8115657532
 30
0.0
 11
204.9319913136
 21
1358.8115657532
 31
0.0
  0
ARC
  5
80
330
1F
100
AcDbEntity
  8
0
  6
Continuous
 62
     7
370
    25
100
AcDbCircle
 10
2086.9319913136
 20
1362.3115657532
 30
0.0
 40
3.5
100
AcDbArc
 50
90.0
 51
270.0
  0
LINE
  5
81
330
1F
100
AcDbEntity
  8
0
  6
Continuous
 62
     7
370
    25
100
AcDbLine
 10
2104.9319913136
 20
1365.8115657532
 30
0.0
 11
2086.9319913136
 21
1365.8115657532
 31
0.0
  0
ARC
  5
82
330
1F
100
AcDbEntity
  8
0
  6
Continuous
 62
     7
370
    25
100
AcDbCircle
 10
2036.9319913136
 20
1362.3115657532
 30
0.0
 40
3.499999999999773
100
AcDbArc
 50
90.0
 51
270.0
  0
LINE
  5
83
330
1F
100
AcDbEntity
  8
0
  6
Continuous
 62
     7
370
    25
100
AcDbLine
 10
2036.9319913136
 20
1358.8115657532
 30
0.0
 11
2054.9319913136
 21
1358.8115657532
 31
0.0
  0
ARC
  5
84
330
1F
100
AcDbEntity
  8
0
  6
Continuous
 62
     7
370
    25
100
AcDbCircle
 10
2054.9319913136
 20
1362.3115657532
 30
0.0
 40
3.499999999999773
100
AcDbArc
 50
270.0
 51
90.0
  0
LINE
  5
85
330
1F
100
AcDbEntity
  8
0
  6
Continuous
 62
     7
370
    25
100
AcDbLine
 10
2054.9319913136
 20
1365.8115657532
 30
0.0
 11
2036.9319913136
 21
1365.8115657532
 31
0.0
  0
ARC
  5
86
330
1F
100
AcDbEntity
  8
0
  6
Continuous
 62
     7
370
    25
100
AcDbCircle
 10
154.9319913136
 20
1362.3115657532
 30
0.0
 40
3.5
100
AcDbArc
 50
270.0
 51
90.0
  0
LINE
  5
87
330
1F
100
AcDbEntity
  8
0
  6
Continuous
 62
     7
370
    25
100
AcDbLine
 10
154.9319913136
 20
1365.8115657532
 30
0.0
 11
136.9319913136
 21
1365.8115657532
 31
0.0
  0
ARC
  5
88
330
1F
100
AcDbEntity
  8
0
  6
Continuous
 62
     7
370
    25
100
AcDbCircle
 10
136.9319913136
 20
1362.3115657532
 30
0.0
 40
3.5
100
AcDbArc
 50
90.0
 51
270.0
  0
LINE
  5
89
330
1F
100
AcDbEntity
  8
0
  6
Continuous
 62
     7
370
    25
100
AcDbLine
 10
136.9319913136
 20
1358.8115657532
 30
0.0
 11
154.9319913136
 21
1358.8115657532
 31
0.0
  0
LINE
  5
8A
330
1F
100
AcDbEntity
  8
0
  6
Continuous
 62
     7
370
    25
100
AcDbLine
 10
204.9319913136
 20
1390.8115657532
 30
0.0
 11
186.9319913136
 21
1390.8115657532
 31
0.0
  0
ARC
  5
8B
330
1F
100
AcDbEntity
  8
0
  6
Continuous
 62
     7
370
    25
100
AcDbCircle
 10
186.9319913136
 20
1387.3115657532
 30
0.0
 40
3.5
100
AcDbArc
 50
90.0
 51
270.0
  0
LINE
  5
8C
330
1F
100
AcDbEntity
  8
0
  6
Continuous
 62
     7
370
    25
100
AcDbLine
 10
186.9319913136
 20
1383.8115657532
 30
0.0
 11
204.9319913136
 21
1383.8115657532
 31
0.0
  0
ARC
  5
8D
330
1F
100
AcDbEntity
  8
0
  6
Continuous
 62
     7
370
    25
100
AcDbCircle
 10
2086.9319913136
 20
1387.3115657532
 30
0.0
 40
3.5
100
AcDbArc
 50
90.0
 51
270.0
  0
LINE
  5
8E
330
1F
100
AcDbEntity
  8
0
  6
Continuous
 62
     7
370
    25
100
AcDbLine
 10
2086.9319913136
 20
1383.8115657532
 30
0.0
 11
2104.9319913136
 21
1383.8115657532
 31
0.0
  0
ARC
  5
8F
330
1F
100
AcDbEntity
  8
0
  6
Continuous
 62
     7
370
    25
100
AcDbCircle
 10
2104.9319913136
 20
1387.3115657532
 30
0.0
 40
3.500000000000227
100
AcDbArc
 50
270.0
 51
90.0
  0
LINE
  5
90
330
1F
100
AcDbEntity
  8
0
  6
Continuous
 62
     7
370
    25
100
AcDbLine
 10
2104.9319913136
 20
1390.8115657532
 30
0.0
 11
2086.9319913136
 21
1390.8115657532
 31
0.0
  0
ARC
  5
91
330
1F
100
AcDbEntity
  8
0
  6
Continuous
 62
     7
370
    25
100
AcDbCircle
 10
2054.9319913136
 20
1387.3115657532
 30
0.0
 40
3.5
100
AcDbArc
 50
270.0
 51
90.0
  0
LINE
  5
92
330
1F
100
AcDbEntity
  8
0
  6
Continuous
 62
     7
370
    25
100
AcDbLine
 10
2054.9319913136
 20
1390.8115657532
 30
0.0
 11
2036.9319913136
 21
1390.8115657532
 31
0.0
  0
ARC
  5
93
330
1F
100
AcDbEntity
  8
0
  6
Continuous
 62
     7
370
    25
100
AcDbCircle
 10
154.9319913136
 20
1387.3115657532
 30
0.0
 40
3.5
100
AcDbArc
 50
270.0
 51
90.0
  0
LINE
  5
94
330
1F
100
AcDbEntity
  8
0
  6
Continuous
 62
     7
370
    25
100
AcDbLine
 10
154.9319913136
 20
1390.8115657532
 30
0.0
 11
136.9319913136
 21
1390.8115657532
 31
0.0
  0
ARC
  5
95
330
1F
100
AcDbEntity
  8
0
  6
Continuous
 62
     7
370
    25
100
AcDbCircle
 10
136.9319913136
 20
1387.3115657532
 30
0.0
 40
3.500000000000227
100
AcDbArc
 50
90.0
 51
270.0
  0
LINE
  5
96
330
1F
100
AcDbEntity
  8
0
  6
Continuous
 62
     7
370
    25
100
AcDbLine
 10
136.9319913136
 20
1383.8115657532
 30
0.0
 11
154.9319913136
 21
1383.8115657532
 31
0.0
  0
LINE
  5
97
330
1F
100
AcDbEntity
  8
0
  6
Continuous
 62
     7
370
    25
100
AcDbLine
 10
2086.9319913136
 20
1358.8115657532
 30
0.0
 11
2104.9319913136
 21
1358.8115657532
 31
0.0
  0
ARC
  5
98
330
1F
100
AcDbEntity
  8
0
  6
Continuous
 62
     7
370
    25
100
AcDbCircle
 10
2104.9319913136
 20
1362.3115657532
 30
0.0
 40
3.5
100
AcDbArc
 50
270.0
 51
90.0
  0
ARC
  5
99
330
1F
100
AcDbEntity
  8
0
  6
Continuous
 62
     7
370
    25
100
AcDbCircle
 10
2036.9319913136
 20
1387.3115657532
 30
0.0
 40
3.5
100
AcDbArc
 50
90.0
 51
270.0
  0
LINE
  5
9A
330
1F
100
AcDbEntity
  8
0
  6
Continuous
 62
     7
370
    25
100
AcDbLine
 10
2036.9319913136
 20
1383.8115657532
 30
0.0
 11
2054.9319913136
 21
1383.8115657532
 31
0.0
  0
LINE
  5
9B
330
1F
100
AcDbEntity
  8
0
  6
Continuous
 62
     7
370
    25
100
AcDbLine
 10
120.9319913136
 20
1344.3115657532
 30
0.0
 11
120.9319913136
 21
1347.3115657532
 31
0.0
  0
LINE
  5
9C
330
1F
100
AcDbEntity
  8
0
  6
Continuous
 62
     7
370
    25
100
AcDbLine
 10
2120.9319913136
 20
1409.3115657532
 30
0.0
 11
2120.9319913136
 21
1347.3115657532
 31
0.0
  0
LINE
  5
9D
330
1F
100
AcDbEntity
  8
0
  6
Continuous
 62
     7
370
    25
100
AcDbLine
 10
2120.9319913136
 20
1344.3115657532
 30
0.0
 11
2120.9319913136
 21
1347.3115657532
 31
0.0
  0
ARC
  5
9E
330
1F
100
AcDbEntity
  8
0
  6
Continuous
 62
     7
370
    25
100
AcDbCircle
 10
204.9319913136
 20
1362.3115657532
 30
0.0
 40
3.499999999999773
100
AcDbArc
 50
270.0
 51
90.0
  0
LINE
  5
9F
330
1F
100
AcDbEntity
  8
0
  6
Continuous
 62
     7
370
    25
100
AcDbLine
 10
204.9319913136
 20
1365.8115657532
 30
0.0
 11
186.9319913136
 21
1365.8115657532
 31
0.0
  0
ARC
  5
A0
330
1F
100
AcDbEntity
  8
0
  6
Continuous
 62
     7
370
    25
100
AcDbCircle
 10
186.9319913136
 20
1362.3115657532
 30
0.0
 40
3.499999999999773
100
AcDbArc
 50
90.0
 51
270.0
  0
ARC
  5
A1
330
1F
100
AcDbEntity
  8
0
  6
Continuous
 62
     7
370
    25
100
AcDbCircle
 10
204.9319913136
 20
1387.3115657532
 30
0.0
 40
3.5
100
AcDbArc
 50
270.0
 51
90.0
  0
LINE
  5
A2
330
1F
100
AcDbEntity
  8
0
  6
Continuous
 62
     7
370
    25
100
AcDbLine
 10
2120.9319913136
 20
1411.6096990826
 30
0.0
 11
2120.9319913136
 21
1415.1069954101
 31
0.0
  0
LINE
  5
A3
330
1F
100
AcDbEntity
  8
0
  6
Continuous
 62
     7
370
    25
100
AcDbLine
 10
2120.9319913136
 20
1410.7104887277
 30
0.0
 11
2120.9319913136
 21
1411.6096990826
 31
0.0
  0
LINE
  5
A4
330
1F
100
AcDbEntity
  8
0
  6
Continuous
 62
     7
370
    25
100
AcDbLine
 10
120.9319913136
 20
1415.1069954101
 30
0.0
 11
120.9319913136
 21
1411.6096990826
 31
0.0
  0
LINE
  5
A5
330
1F
100
AcDbEntity
  8
0
  6
Continuous
 62
     7
370
    25
100
AcDbLine
 10
120.9319913136
 20
1415.1069954101
 30
0.0
 11
2120.9319913136
 21
1415.1069954101
 31
0.0
  0
LINE
  5
A6
330
1F
100
AcDbEntity
  8
0
  6
Continuous
 62
     7
370
    25
100
AcDbLine
 10
120.9319913136
 20
1410.7104887277
 30
0.0
 11
120.9319913136
 21
1411.6096990826
 31
0.0
  0
LINE
  5
A7
330
1F
100
AcDbEntity
  8
0
  6
Continuous
 62
     7
370
    25
100
AcDbLine
 10
120.9319913136
 20
1424.2778734114
 30
0.0
 11
120.9319913136
 21
1420.1594974923
 31
0.0
  0
LINE
  5
A8
330
1F
100
AcDbEntity
  8
0
  6
Continuous
 62
     7
370
    25
100
AcDbLine
 10
2120.9319913136
 20
1424.2778734114
 30
0.0
 11
120.9319913136
 21
1424.2778734114
 31
0.0
  0
LINE
  5
A9
330
1F
100
AcDbEntity
  8
0
  6
Continuous
 62
     7
370
    25
100
AcDbLine
 10
2120.9319913136
 20
1420.1594974923
 30
0.0
 11
2120.9319913136
 21
1424.2778734114
 31
0.0
  0
LINE
  5
AA
330
1F
100
AcDbEntity
  8
0
  6
Continuous
 62
     7
370
    25
100
AcDbLine
 10
120.9319913136
 20
1420.1594974923
 30
0.0
 11
2120.9319913136
 21
1420.1594974923
 31
0.0
  0
LINE
  5
AB
330
1F
100
AcDbEntity
  8
0
  6
Continuous
 62
     7
370
    25
100
AcDbLine
 10
120.9319913136
 20
1420.1594974923
 30
0.0
 11
120.9319913136
 21
1415.1069954101
 31
0.0
  0
LINE
  5
AC
330
1F
100
AcDbEntity
  8
0
  6
Continuous
 62
     7
370
    25
100
AcDbLine
 10
2120.9319913136
 20
1420.1594974923
 30
0.0
 11
2120.9319913136
 21
1415.1069954101
 31
0.0
  0
LINE
  5
AD
330
1F
100
AcDbEntity
  8
0
  6
Continuous
 62
     7
370
    25
100
AcDbLine
 10
120.9319913136
 20
1983.3121672365
 30
0.0
 11
120.9319913136
 21
1986.3121672365
 31
0.0
  0
LINE
  5
AE
330
1F
100
AcDbEntity
  8
0
  6
Continuous
 62
     7
370
    25
100
AcDbLine
 10
2120.9319913136
 20
1986.3121672365
 30
0.0
 11
120.9319913136
 21
1986.3121672365
 31
0.0
  0
LINE
  5
AF
330
1F
100
AcDbEntity
  8
0
  6
Continuous
 62
     7
370
    25
100
AcDbLine
 10
2120.9319913136
 20
1983.3121672365
 30
0.0
 11
2120.9319913136
 21
1986.3121672365
 31
0.0
  0
LINE
  5
B0
330
1F
100
AcDbEntity
  8
0
  6
Continuous
 62
     7
370
    25
100
AcDbLine
 10
2120.9319913136
 20
1983.3121672365
 30
0.0
 11
2120.9319913136
 21
1839.3121672365
 31
0.0
  0
LINE
  5
B1
330
1F
100
AcDbEntity
  8
0
  6
Continuous
 62
     7
370
    25
100
AcDbLine
 10
2120.9319913136
 20
1836.3121672365
 30
0.0
 11
120.9319913136
 21
1836.3121672365
 31
0.0
  0
LINE
  5
B2
330
1F
100
AcDbEntity
  8
0
  6
Continuous
 62
     7
370
    25
100
AcDbLine
 10
120.9319913136
 20
1836.3121672365
 30
0.0
 11
120.9319913136
 21
1839.3121672365
 31
0.0
  0
LINE
  5
B3
330
1F
100
AcDbEntity
  8
0
  6
Continuous
 62
     7
370
    25
100
AcDbLine
 10
120.9319913136
 20
1983.3121672365
 30
0.0
 11
120.9319913136
 21
1839.3121672365
 31
0.0
  0
ARC
  5
B4
330
1F
100
AcDbEntity
  8
0
  6
Continuous
 62
     7
370
    25
100
AcDbCircle
 10
2099.9319913136
 20
1915.3121672365
 30
0.0
 40
1.000000000000227
100
AcDbArc
 50
90.0
 51
180.0
  0
LINE
  5
B5
330
1F
100
AcDbEntity
  8
0
  6
Continuous
 62
     7
370
    25
100
AcDbLine
 10
2098.9319913136
 20
1907.3121672365
 30
0.0
 11
2098.9319913136
 21
1915.3121672365
 31
0.0
  0
ARC
  5
B6
330
1F
100
AcDbEntity
  8
0
  6
Continuous
 62
     7
370
    25
100
AcDbCircle
 10
2099.9319913136
 20
1907.3121672365
 30
0.0
 40
1.0
100
AcDbArc
 50
180.0
 51
270.0
  0
LINE
  5
B7
330
1F
100
AcDbEntity
  8
0
  6
Continuous
 62
     7
370
    25
100
AcDbLine
 10
2104.9319913136
 20
1906.3121672365
 30
0.0
 11
2099.9319913136
 21
1906.3121672365
 31
0.0
  0
ARC
  5
B8
330
1F
100
AcDbEntity
  8
0
  6
Continuous
 62
     7
370
    25
100
AcDbCircle
 10
2104.9319913136
 20
1907.3121672365
 30
0.0
 40
1.000000000000455
100
AcDbArc
 50
270.0
 51
0.0
  0
LINE
  5
B9
330
1F
100
AcDbEntity
  8
0
  6
Continuous
 62
     7
370
    25
100
AcDbLine
 10
2105.9319913136
 20
1915.3121672365
 30
0.0
 11
2105.9319913136
 21
1907.3121672365
 31
0.0
  0
ARC
  5
BA
330
1F
100
AcDbEntity
  8
0
  6
Continuous
 62
     7
370
    25
100
AcDbCircle
 10
2104.9319913136
 20
1915.3121672365
 30
0.0
 40
1.000000000000455
100
AcDbArc
 50
0.0
 51
90.0
  0
LINE
  5
BB
330
1F
100
AcDbEntity
  8
0
  6
Continuous
 62
     7
370
    25
100
AcDbLine
 10
2099.9319913136
 20
1916.3121672365
 30
0.0
 11
2104.9319913136
 21
1916.3121672365
 31
0.0
  0
ARC
  5
BC
330
1F
100
AcDbEntity
  8
0
  6
Continuous
 62
     7
370
    25
100
AcDbCircle
 10
136.9319913136
 20
1915.3121672365
 30
0.0
 40
1.000000000000227
100
AcDbArc
 50
90.0
 51
180.0
  0
LINE
  5
BD
330
1F
100
AcDbEntity
  8
0
  6
Continuous
 62
     7
370
    25
100
AcDbLine
 10
135.9319913136
 20
1907.3121672365
 30
0.0
 11
135.9319913136
 21
1915.3121672365
 31
0.0
  0
ARC
  5
BE
330
1F
100
AcDbEntity
  8
0
  6
Continuous
 62
     7
370
    25
100
AcDbCircle
 10
136.9319913136
 20
1907.3121672365
 30
0.0
 40
1.0
100
AcDbArc
 50
180.0
 51
270.0
  0
LINE
  5
BF
330
1F
100
AcDbEntity
  8
0
  6
Continuous
 62
     7
370
    25
100
AcDbLine
 10
141.9319913136
 20
1906.3121672365
 30
0.0
 11
136.9319913136
 21
1906.3121672365
 31
0.0
  0
ARC
  5
C0
330
1F
100
AcDbEntity
  8
0
  6
Continuous
 62
     7
370
    25
100
AcDbCircle
 10
141.9319913136
 20
1907.3121672365
 30
0.0
 40
1.0
100
AcDbArc
 50
270.0
 51
0.0
  0
LINE
  5
C1
330
1F
100
AcDbEntity
  8
0
  6
Continuous
 62
     7
370
    25
100
AcDbLine
 10
142.9319913136
 20
1915.3121672365
 30
0.0
 11
142.9319913136
 21
1907.3121672365
 31
0.0
  0
ARC
  5
C2
330
1F
100
AcDbEntity
  8
0
  6
Continuous
 62
     7
370
    25
100
AcDbCircle
 10
141.9319913136
 20
1915.3121672365
 30
0.0
 40
1.000000000000227
100
AcDbArc
 50
0.0
 51
90.0
  0
LINE
  5
C3
330
1F
100
AcDbEntity
  8
0
  6
Continuous
 62
     7
370
    25
100
AcDbLine
 10
136.9319913136
 20
1916.3121672365
 30
0.0
 11
141.9319913136
 21
1916.3121672365
 31
0.0
  0
ARC
  5
C4
330
1F
100
AcDbEntity
  8
0
  6
Continuous
 62
     7
370
    25
100
AcDbCircle
 10
154.9319913136
 20
1848.8121672365
 30
0.0
 40
3.5
100
AcDbArc
 50
270.0
 51
90.0
  0
LINE
  5
C5
330
1F
100
AcDbEntity
  8
0
  6
Continuous
 62
     7
370
    25
100
AcDbLine
 10
136.9319913136
 20
1852.3121672365
 30
0.0
 11
154.9319913136
 21
1852.3121672365
 31
0.0
  0
ARC
  5
C6
330
1F
100
AcDbEntity
  8
0
  6
Continuous
 62
     7
370
    25
100
AcDbCircle
 10
136.9319913136
 20
1848.8121672365
 30
0.0
 40
3.5
100
AcDbArc
 50
90.0
 51
270.0
  0
LINE
  5
C7
330
1F
100
AcDbEntity
  8
0
  6
Continuous
 62
     7
370
    25
100
AcDbLine
 10
154.9319913136
 20
1845.3121672365
 30
0.0
 11
136.9319913136
 21
1845.3121672365
 31
0.0
  0
ARC
  5
C8
330
1F
100
AcDbEntity
  8
0
  6
Continuous
 62
     7
370
    25
100
AcDbCircle
 10
2086.9319913136
 20
1973.8121672365
 30
0.0
 40
3.5
100
AcDbArc
 50
90.0
 51
270.0
  0
LINE
  5
C9
330
1F
100
AcDbEntity
  8
0
  6
Continuous
 62
     7
370
    25
100
AcDbLine
 10
2104.9319913136
 20
1970.3121672365
 30
0.0
 11
2086.9319913136
 21
1970.3121672365
 31
0.0
  0
ARC
  5
CA
330
1F
100
AcDbEntity
  8
0
  6
Continuous
 62
     7
370
    25
100
AcDbCircle
 10
2104.9319913136
 20
1973.8121672365
 30
0.0
 40
3.5
100
AcDbArc
 50
270.0
 51
90.0
  0
LINE
  5
CB
330
1F
100
AcDbEntity
  8
0
  6
Continuous
 62
     7
370
    25
100
AcDbLine
 10
2086.9319913136
 20
1977.3121672365
 30
0.0
 11
2104.9319913136
 21
1977.3121672365
 31
0.0
  0
ARC
  5
CC
330
1F
100
AcDbEntity
  8
0
  6
Continuous
 62
     7
370
    25
100
AcDbCircle
 10
2036.9319913136
 20
1973.8121672365
 30
0.0
 40
3.500000000000227
100
AcDbArc
 50
90.0
 51
270.0
  0
LINE
  5
CD
330
1F
100
AcDbEntity
  8
0
  6
Continuous
 62
     7
370
    25
100
AcDbLine
 10
2054.9319913136
 20
1970.3121672365
 30
0.0
 11
2036.9319913136
 21
1970.3121672365
 31
0.0
  0
ARC
  5
CE
330
1F
100
AcDbEntity
  8
0
  6
Continuous
 62
     7
370
    25
100
AcDbCircle
 10
2054.9319913136
 20
1973.8121672365
 30
0.0
 40
3.500000000000227
100
AcDbArc
 50
270.0
 51
90.0
  0
LINE
  5
CF
330
1F
100
AcDbEntity
  8
0
  6
Continuous
 62
     7
370
    25
100
AcDbLine
 10
2036.9319913136
 20
1977.3121672365
 30
0.0
 11
2054.9319913136
 21
1977.3121672365
 31
0.0
  0
ARC
  5
D0
330
1F
100
AcDbEntity
  8
0
  6
Continuous
 62
     7
370
    25
100
AcDbCircle
 10
2036.9319913136
 20
1848.8121672365
 30
0.0
 40
3.500000000000227
100
AcDbArc
 50
90.0
 51
270.0
  0
LINE
  5
D1
330
1F
100
AcDbEntity
  8
0
  6
Continuous
 62
     7
370
    25
100
AcDbLine
 10
2054.9319913136
 20
1845.3121672365
 30
0.0
 11
2036.9319913136
 21
1845.3121672365
 31
0.0
  0
ARC
  5
D2
330
1F
100
AcDbEntity
  8
0
  6
Continuous
 62
     7
370
    25
100
AcDbCircle
 10
2054.9319913136
 20
1848.8121672365
 30
0.0
 40
3.500000000000227
100
AcDbArc
 50
270.0
 51
90.0
  0
LINE
  5
D3
330
1F
100
AcDbEntity
  8
0
  6
Continuous
 62
     7
370
    25
100
AcDbLine
 10
2036.9319913136
 20
1852.3121672365
 30
0.0
 11
2054.9319913136
 21
1852.3121672365
 31
0.0
  0
ARC
  5
D4
330
1F
100
AcDbEntity
  8
0
  6
Continuous
 62
     7
370
    25
100
AcDbCircle
 10
204.9319913136
 20
1848.8121672365
 30
0.0
 40
3.500000000000227
100
AcDbArc
 50
270.0
 51
90.0
  0
LINE
  5
D5
330
1F
100
AcDbEntity
  8
0
  6
Continuous
 62
     7
370
    25
100
AcDbLine
 10
186.9319913136
 20
1852.3121672365
 30
0.0
 11
204.9319913136
 21
1852.3121672365
 31
0.0
  0
ARC
  5
D6
330
1F
100
AcDbEntity
  8
0
  6
Continuous
 62
     7
370
    25
100
AcDbCircle
 10
186.9319913136
 20
1848.8121672365
 30
0.0
 40
3.500000000000227
100
AcDbArc
 50
90.0
 51
270.0
  0
LINE
  5
D7
330
1F
100
AcDbEntity
  8
0
  6
Continuous
 62
     7
370
    25
100
AcDbLine
 10
204.9319913136
 20
1845.3121672365
 30
0.0
 11
186.9319913136
 21
1845.3121672365
 31
0.0
  0
ARC
  5
D8
330
1F
100
AcDbEntity
  8
0
  6
Continuous
 62
     7
370
    25
100
AcDbCircle
 10
204.9319913136
 20
1973.8121672365
 30
0.0
 40
3.500000000000227
100
AcDbArc
 50
270.0
 51
90.0
  0
LINE
  5
D9
330
1F
100
AcDbEntity
  8
0
  6
Continuous
 62
     7
370
    25
100
AcDbLine
 10
186.9319913136
 20
1977.3121672365
 30
0.0
 11
204.9319913136
 21
1977.3121672365
 31
0.0
  0
ARC
  5
DA
330
1F
100
AcDbEntity
  8
0
  6
Continuous
 62
     7
370
    25
100
AcDbCircle
 10
186.9319913136
 20
1973.8121672365
 30
0.0
 40
3.500000000000227
100
AcDbArc
 50
90.0
 51
270.0
  0
LINE
  5
DB
330
1F
100
AcDbEntity
  8
0
  6
Continuous
 62
     7
370
    25
100
AcDbLine
 10
204.9319913136
 20
1970.3121672365
 30
0.0
 11
186.9319913136
 21
1970.3121672365
 31
0.0
  0
ARC
  5
DC
330
1F
100
AcDbEntity
  8
0
  6
Continuous
 62
     7
370
    25
100
AcDbCircle
 10
154.9319913136
 20
1973.8121672365
 30
0.0
 40
3.5
100
AcDbArc
 50
270.0
 51
90.0
  0
LINE
  5
DD
330
1F
100
AcDbEntity
  8
0
  6
Continuous
 62
     7
370
    25
100
AcDbLine
 10
136.9319913136
 20
1977.3121672365
 30
0.0
 11
154.9319913136
 21
1977.3121672365
 31
0.0
  0
ARC
  5
DE
330
1F
100
AcDbEntity
  8
0
  6
Continuous
 62
     7
370
    25
100
AcDbCircle
 10
136.9319913136
 20
1973.8121672365
 30
0.0
 40
3.5
100
AcDbArc
 50
90.0
 51
270.0
  0
LINE
  5
DF
330
1F
100
AcDbEntity
  8
0
  6
Continuous
 62
     7
370
    25
100
AcDbLine
 10
154.9319913136
 20
1970.3121672365
 30
0.0
 11
136.9319913136
 21
1970.3121672365
 31
0.0
  0
ARC
  5
E0
330
1F
100
AcDbEntity
  8
0
  6
Continuous
 62
     7
370
    25
100
AcDbCircle
 10
2086.9319913136
 20
1848.8121672365
 30
0.0
 40
3.5
100
AcDbArc
 50
90.0
 51
270.0
  0
LINE
  5
E1
330
1F
100
AcDbEntity
  8
0
  6
Continuous
 62
     7
370
    25
100
AcDbLine
 10
2104.9319913136
 20
1845.3121672365
 30
0.0
 11
2086.9319913136
 21
1845.3121672365
 31
0.0
  0
ARC
  5
E2
330
1F
100
AcDbEntity
  8
0
  6
Continuous
 62
     7
370
    25
100
AcDbCircle
 10
2104.9319913136
 20
1848.8121672365
 30
0.0
 40
3.5
100
AcDbArc
 50
270.0
 51
90.0
  0
LINE
  5
E3
330
1F
100
AcDbEntity
  8
0
  6
Continuous
 62
     7
370
    25
100
AcDbLine
 10
2086.9319913136
 20
1852.3121672365
 30
0.0
 11
2104.9319913136
 21
1852.3121672365
 31
0.0
  0
LINE
  5
E4
330
1F
100
AcDbEntity
  8
0
  6
Continuous
 62
     7
370
    25
100
AcDbLine
 10
2120.9319913136
 20
1836.3121672365
 30
0.0
 11
2120.9319913136
 21
1839.3121672365
 31
0.0
  0
LINE
  5
E5
330
1F
100
AcDbEntity
  8
0
  6
Continuous
 62
     7
370
    25
100
AcDbLine
 10
2107.3814810564
 20
1846.3121672365
 30
0.0
 11
2084.4825015708
 21
1846.3121672365
 31
0.0
  0
LINE
  5
E6
330
1F
100
AcDbEntity
  8
0
  6
Continuous
 62
     7
370
    25
100
AcDbLine
 10
2057.3814810564
 20
1846.3121672365
 30
0.0
 11
2034.4825015708
 21
1846.3121672365
 31
0.0
  0
LINE
  5
E7
330
1F
100
AcDbEntity
  8
0
  6
Continuous
 62
     7
370
    25
100
AcDbLine
 10
207.3814810564
 20
1846.3121672365
 30
0.0
 11
184.4825015708
 21
1846.3121672365
 31
0.0
  0
LINE
  5
E8
330
1F
100
AcDbEntity
  8
0
  6
Continuous
 62
     7
370
    25
100
AcDbLine
 10
157.3814810564
 20
1846.3121672365
 30
0.0
 11
134.4825015708
 21
1846.3121672365
 31
0.0
  0
LINE
  5
E9
330
1F
100
AcDbEntity
  8
0
  6
Continuous
 62
     7
370
    25
100
AcDbLine
 10
2107.3814810564
 20
1976.3121672365
 30
0.0
 11
2084.4825015708
 21
1976.3121672365
 31
0.0
  0
LINE
  5
EA
330
1F
100
AcDbEntity
  8
0
  6
Continuous
 62
     7
370
    25
100
AcDbLine
 10
2057.3814810564
 20
1976.3121672365
 30
0.0
 11
2034.4825015708
 21
1976.3121672365
 31
0.0
  0
LINE
  5
EB
330
1F
100
AcDbEntity
  8
0
  6
Continuous
 62
     7
370
    25
100
AcDbLine
 10
207.3814810564
 20
1976.3121672365
 30
0.0
 11
184.4825015708
 21
1976.3121672365
 31
0.0
  0
LINE
  5
EC
330
1F
100
AcDbEntity
  8
0
  6
Continuous
 62
     7
370
    25
100
AcDbLine
 10
157.3814810564
 20
1976.3121672365
 30
0.0
 11
134.4825015708
 21
1976.3121672365
 31
0.0
  0
LINE
  5
ED
330
1F
100
AcDbEntity
  8
0
  6
Continuous
 62
     7
370
    25
100
AcDbLine
 10
2484.2120495373
 20
1344.3115657532
 30
0.0
 11
2487.2120495373
 21
1344.3115657532
 31
0.0
  0
LINE
  5
EE
330
1F
100
AcDbEntity
  8
0
  6
Continuous
 62
     7
370
    25
100
AcDbLine
 10
2484.2120495373
 20
1347.3115657532
 30
0.0
 11
2484.2120495373
 21
1344.3115657532
 31
0.0
  0
LINE
  5
EF
330
1F
100
AcDbEntity
  8
0
  6
Continuous
 62
     7
370
    25
100
AcDbLine
 10
2486.2120495373
 20
1347.3115657532
 30
0.0
 11
2486.2120495373
 21
1346.3115657532
 31
0.0
  0
LINE
  5
F0
330
1F
100
AcDbEntity
  8
0
  6
Continuous
 62
     7
370
    25
100
AcDbLine
 10
2486.2120495373
 20
1346.3115657532
 30
0.0
 11
2487.2120495373
 21
1346.3115657532
 31
0.0
  0
LINE
  5
F1
330
1F
100
AcDbEntity
  8
0
  6
Continuous
 62
     7
370
    25
100
AcDbLine
 10
2486.2120495373
 20
1347.3115657532
 30
0.0
 11
2486.2120495373
 21
1409.3115657532
 31
0.0
  0
LINE
  5
F2
330
1F
100
AcDbEntity
  8
0
  6
Continuous
 62
     7
370
    25
100
AcDbLine
 10
2484.2120495373
 20
1347.3115657532
 30
0.0
 11
2484.2120495373
 21
1409.3115657532
 31
0.0
  0
LINE
  5
F3
330
1F
100
AcDbEntity
  8
0
  6
Continuous
 62
     7
370
    25
100
AcDbLine
 10
2484.2120495373
 20
1410.7104887277
 30
0.0
 11
2484.2120495373
 21
1409.3115657532
 31
0.0
  0
LINE
  5
F4
330
1F
100
AcDbEntity
  8
0
  6
Continuous
 62
     7
370
    25
100
AcDbLine
 10
2486.5692619276
 20
1410.0776101964
 30
0.0
 11
2486.2120495373
 21
1409.7778734114
 31
0.0
  0
LINE
  5
F5
330
1F
100
AcDbEntity
  8
0
  6
Continuous
 62
     7
370
    25
100
AcDbLine
 10
2486.2120495373
 20
1409.7778734114
 30
0.0
 11
2486.2120495373
 21
1409.3115657532
 31
0.0
  0
LINE
  5
F6
330
1F
100
AcDbEntity
  8
0
  6
Continuous
 62
     7
370
    25
100
AcDbLine
 10
2485.2836867082
 20
1411.6096990826
 30
0.0
 11
2484.2120495373
 21
1410.7104887277
 31
0.0
  0
LINE
  5
F7
330
1F
100
AcDbEntity
  8
0
  6
Continuous
 62
     7
370
    25
100
AcDbLine
 10
2634.2120495373
 20
1344.3115657532
 30
0.0
 11
2634.2120495373
 21
1347.3115657532
 31
0.0
  0
LINE
  5
F8
330
1F
100
AcDbEntity
  8
0
  6
Continuous
 62
     7
370
    25
100
AcDbLine
 10
2631.2120495373
 20
1344.3115657532
 30
0.0
 11
2634.2120495373
 21
1344.3115657532
 31
0.0
  0
LINE
  5
F9
330
1F
100
AcDbEntity
  8
0
  6
Continuous
 62
     7
370
    25
100
AcDbLine
 10
2631.2120495373
 20
1346.3115657532
 30
0.0
 11
2632.2120495373
 21
1346.3115657532
 31
0.0
  0
LINE
  5
FA
330
1F
100
AcDbEntity
  8
0
  6
Continuous
 62
     7
370
    25
100
AcDbLine
 10
2632.2120495373
 20
1346.3115657532
 30
0.0
 11
2632.2120495373
 21
1347.3115657532
 31
0.0
  0
LINE
  5
FB
330
1F
100
AcDbEntity
  8
0
  6
Continuous
 62
     7
370
    25
100
AcDbLine
 10
2631.2120495373
 20
1346.3115657532
 30
0.0
 11
2487.2120495373
 21
1346.3115657532
 31
0.0
  0
LINE
  5
FC
330
1F
100
AcDbEntity
  8
0
  6
Continuous
 62
     7
370
    25
100
AcDbLine
 10
2631.2120495373
 20
1344.3115657532
 30
0.0
 11
2487.2120495373
 21
1344.3115657532
 31
0.0
  0
LINE
  5
FD
330
1F
100
AcDbEntity
  8
0
  6
Continuous
 62
     7
370
    25
100
AcDbLine
 10
2634.2120495373
 20
1410.7104887277
 30
0.0
 11
2633.1404123663
 21
1411.6096990826
 31
0.0
  0
LINE
  5
FE
330
1F
100
AcDbEntity
  8
0
  6
Continuous
 62
     7
370
    25
100
AcDbLine
 10
2632.2120495373
 20
1409.7778734114
 30
0.0
 11
2631.854837147
 21
1410.0776101964
 31
0.0
  0
LINE
  5
FF
330
1F
100
AcDbEntity
  8
0
  6
Continuous
 62
     7
370
    25
100
AcDbLine
 10
2634.2120495373
 20
1409.3115657532
 30
0.0
 11
2634.2120495373
 21
1410.7104887277
 31
0.0
  0
LINE
  5
100
330
1F
100
AcDbEntity
  8
0
  6
Continuous
 62
     7
370
    25
100
AcDbLine
 10
2632.2120495373
 20
1409.3115657532
 30
0.0
 11
2632.2120495373
 21
1409.7778734114
 31
0.0
  0
LINE
  5
101
330
1F
100
AcDbEntity
  8
0
  6
Continuous
 62
     7
370
    25
100
AcDbLine
 10
2634.2120495373
 20
1409.3115657532
 30
0.0
 11
2634.2120495373
 21
1347.3115657532
 31
0.0
  0
LINE
  5
102
330
1F
100
AcDbEntity
  8
0
  6
Continuous
 62
     7
370
    25
100
AcDbLine
 10
2632.2120495373
 20
1409.3115657532
 30
0.0
 11
2632.2120495373
 21
1347.3115657532
 31
0.0
  0
LINE
  5
103
330
1F
100
AcDbEntity
  8
0
  6
Continuous
 62
     7
370
    25
100
AcDbLine
 10
2485.2120495373
 20
1420.1594974923
 30
0.0
 11
2489.451602171
 21
1415.1069954101
 31
0.0
  0
LINE
  5
104
330
1F
100
AcDbEntity
  8
0
  6
Continuous
 62
     7
370
    25
100
AcDbLine
 10
2494.2120495373
 20
1416.4906704608
 30
0.0
 11
2494.2120495373
 21
1424.2778734114
 31
0.0
  0
LINE
  5
105
330
1F
100
AcDbEntity
  8
0
  6
Continuous
 62
     7
370
    25
100
AcDbLine
 10
2494.2120495373
 20
1416.4906704608
 30
0.0
 11
2486.5692619276
 21
1410.0776101964
 31
0.0
  0
LINE
  5
106
330
1F
100
AcDbEntity
  8
0
  6
Continuous
 62
     7
370
    25
100
AcDbLine
 10
2490.1201388345
 20
1424.2778734114
 30
0.0
 11
2485.2120495373
 21
1420.1594974923
 31
0.0
  0
LINE
  5
107
330
1F
100
AcDbEntity
  8
0
  6
Continuous
 62
     7
370
    25
100
AcDbLine
 10
2489.451602171
 20
1415.1069954101
 30
0.0
 11
2485.2836867082
 21
1411.6096990826
 31
0.0
  0
LINE
  5
108
330
1F
100
AcDbEntity
  8
0
  6
Continuous
 62
     7
370
    25
100
AcDbLine
 10
2494.2120495373
 20
1424.2778734114
 30
0.0
 11
2490.1201388345
 21
1424.2778734114
 31
0.0
  0
LINE
  5
109
330
1F
100
AcDbEntity
  8
0
  6
Continuous
 62
     7
370
    25
100
AcDbLine
 10
2624.2120495373
 20
1416.4906704608
 30
0.0
 11
2631.854837147
 21
1410.0776101964
 31
0.0
  0
LINE
  5
10A
330
1F
100
AcDbEntity
  8
0
  6
Continuous
 62
     7
370
    25
100
AcDbLine
 10
2624.2120495373
 20
1416.4906704608
 30
0.0
 11
2624.2120495373
 21
1424.2778734114
 31
0.0
  0
LINE
  5
10B
330
1F
100
AcDbEntity
  8
0
  6
Continuous
 62
     7
370
    25
100
AcDbLine
 10
2628.3039602401
 20
1424.2778734114
 30
0.0
 11
2624.2120495373
 21
1424.2778734114
 31
0.0
  0
LINE
  5
10C
330
1F
100
AcDbEntity
  8
0
  6
Continuous
 62
     7
370
    25
100
AcDbLine
 10
2633.2120495373
 20
1420.1594974923
 30
0.0
 11
2628.9724969036
 21
1415.1069954101
 31
0.0
  0
LINE
  5
10D
330
1F
100
AcDbEntity
  8
0
  6
Continuous
 62
     7
370
    25
100
AcDbLine
 10
2628.9724969036
 20
1415.1069954101
 30
0.0
 11
2633.1404123663
 21
1411.6096990826
 31
0.0
  0
LINE
  5
10E
330
1F
100
AcDbEntity
  8
0
  6
Continuous
 62
     7
370
    25
100
AcDbLine
 10
2628.3039602401
 20
1424.2778734114
 30
0.0
 11
2633.2120495373
 21
1420.1594974923
 31
0.0
  0
LINE
  5
10F
330
1F
100
AcDbEntity
  8
0
  6
Continuous
 62
     7
370
    25
100
AcDbLine
 10
1277.2149519208
 20
204.3644657139
 30
0.0
 11
1280.6854951455
 21
198.9981417394
 31
0.0
  0
LINE
  5
110
330
1F
100
AcDbEntity
  8
0
  6
Continuous
 62
     7
370
    25
100
AcDbLine
 10
2691.4285142939
 20
1020.7725775366
 30
0.0
 11
1277.2149519208
 21
204.3644657139
 31
0.0
  0
LINE
  5
111
330
1F
100
AcDbEntity
  8
0
  6
Continuous
 62
     7
370
    25
100
AcDbLine
 10
2694.8990575186
 20
1015.4062535621
 30
0.0
 11
2691.4285142939
 21
1020.7725775366
 31
0.0
  0
LINE
  5
112
330
1F
100
AcDbEntity
  8
0
  6
Continuous
 62
     7
370
    25
100
AcDbLine
 10
1280.6854951455
 20
198.9981417394
 30
0.0
 11
2694.8990575186
 21
1015.4062535621
 31
0.0
  0
LINE
  5
113
330
1F
100
AcDbEntity
  8
0
  6
Continuous
 62
     7
370
    25
100
AcDbLine
 10
1274.3215341148
 20
199.6762312396
 30
0.0
 11
1279.7258010608
 21
191.3198889039
 31
0.0
  0
LINE
  5
114
330
1F
100
AcDbEntity
  8
0
  6
Continuous
 62
     7
370
    25
100
AcDbLine
 10
1274.3215341148
 20
199.6762312396
 30
0.0
 11
1274.3215341148
 21
206.0348002592
 31
0.0
  0
LINE
  5
115
330
1F
100
AcDbEntity
  8
0
  6
Continuous
 62
     7
370
    25
100
AcDbLine
 10
1277.2149519208
 20
204.3644657139
 30
0.0
 11
1274.3215341148
 21
206.0348002592
 31
0.0
  0
LINE
  5
116
330
1F
100
AcDbEntity
  8
0
  6
Continuous
 62
     7
370
    25
100
AcDbLine
 10
1280.6854951455
 20
198.9981417394
 30
0.0
 11
1277.6876787291
 21
196.6031701675
 31
0.0
  0
LINE
  5
117
330
1F
100
AcDbEntity
  8
0
  6
Continuous
 62
     7
370
    25
100
AcDbLine
 10
1277.6876787291
 20
196.6031701675
 30
0.0
 11
1280.6348400162
 21
192.0461249882
 31
0.0
  0
LINE
  5
118
330
1F
100
AcDbEntity
  8
0
  6
Continuous
 62
     7
370
    25
100
AcDbLine
 10
2694.8990575186
 20
1015.4062535621
 30
0.0
 11
2691.9012411022
 21
1013.0112819902
 31
0.0
  0
LINE
  5
119
330
1F
100
AcDbEntity
  8
0
  6
Continuous
 62
     7
370
    25
100
AcDbLine
 10
1277.6876787291
 20
196.6031701675
 30
0.0
 11
2691.9012411022
 21
1013.0112819902
 31
0.0
  0
LINE
  5
11A
330
1F
100
AcDbEntity
  8
0
  6
Continuous
 62
     7
370
    25
100
AcDbLine
 10
2691.4285142939
 20
1020.7725775366
 30
0.0
 11
2688.5350964879
 21
1022.4429120819
 31
0.0
  0
LINE
  5
11B
330
1F
100
AcDbEntity
  8
0
  6
Continuous
 62
     7
370
    25
100
AcDbLine
 10
2688.5350964879
 20
1022.4429120819
 30
0.0
 11
1274.3215341148
 21
206.0348002592
 31
0.0
  0
LINE
  5
11C
330
1F
100
AcDbEntity
  8
0
  6
Continuous
 62
     7
370
    25
100
AcDbLine
 10
2694.8484023893
 20
1008.4542368109
 30
0.0
 11
2691.9012411022
 21
1013.0112819902
 31
0.0
  0
LINE
  5
11D
330
1F
100
AcDbEntity
  8
0
  6
Continuous
 62
     7
370
    25
100
AcDbLine
 10
2695.6061642998
 20
1007.282548218
 30
0.0
 11
2694.8484023893
 21
1008.4542368109
 31
0.0
  0
LINE
  5
11E
330
1F
100
AcDbEntity
  8
0
  6
Continuous
 62
     7
370
    25
100
AcDbLine
 10
2695.6061642998
 20
1007.282548218
 30
0.0
 11
1281.3926019267
 21
190.8744363953
 31
0.0
  0
LINE
  5
11F
330
1F
100
AcDbEntity
  8
0
  6
Continuous
 62
     7
370
    25
100
AcDbLine
 10
1281.3926019267
 20
190.8744363953
 30
0.0
 11
1280.6348400162
 21
192.0461249882
 31
0.0
  0
LINE
  5
120
330
1F
100
AcDbEntity
  8
0
  6
Continuous
 62
     7
370
    25
100
AcDbLine
 10
1281.3926019267
 20
189.732158694
 30
0.0
 11
1281.3926019267
 21
190.8744363953
 31
0.0
  0
LINE
  5
121
330
1F
100
AcDbEntity
  8
0
  6
Continuous
 62
     7
370
    25
100
AcDbLine
 10
1279.9783883643
 20
190.5485668058
 30
0.0
 11
1279.9783883643
 21
190.9293260396
 31
0.0
  0
LINE
  5
122
330
1F
100
AcDbEntity
  8
0
  6
Continuous
 62
     7
370
    25
100
AcDbLine
 10
1279.9783883643
 20
190.9293260396
 30
0.0
 11
1279.7258010608
 21
191.3198889039
 31
0.0
  0
LINE
  5
123
330
1F
100
AcDbEntity
  8
0
  6
Continuous
 62
     7
370
    25
100
AcDbLine
 10
2695.6061642998
 20
1006.1402705167
 30
0.0
 11
2695.6061642998
 21
1007.282548218
 31
0.0
  0
LINE
  5
124
330
1F
100
AcDbEntity
  8
0
  6
Continuous
 62
     7
370
    25
100
AcDbLine
 10
2695.6061642998
 20
1006.1402705167
 30
0.0
 11
2695.6061642998
 21
955.5147401798
 31
0.0
  0
LINE
  5
125
330
1F
100
AcDbEntity
  8
0
  6
Continuous
 62
     7
370
    25
100
AcDbLine
 10
2695.6061642998
 20
953.0651177441
 30
0.0
 11
2695.6061642998
 21
955.5147401798
 31
0.0
  0
LINE
  5
126
330
1F
100
AcDbEntity
  8
0
  6
Continuous
 62
     7
370
    25
100
AcDbLine
 10
2695.6061642998
 20
953.0651177441
 30
0.0
 11
1281.3926019267
 21
136.6570059214
 31
0.0
  0
LINE
  5
127
330
1F
100
AcDbEntity
  8
0
  6
Continuous
 62
     7
370
    25
100
AcDbLine
 10
1281.3926019267
 20
136.6570059214
 30
0.0
 11
1281.3926019267
 21
139.1066283571
 31
0.0
  0
LINE
  5
128
330
1F
100
AcDbEntity
  8
0
  6
Continuous
 62
     7
370
    25
100
AcDbLine
 10
1281.3926019267
 20
189.732158694
 30
0.0
 11
1281.3926019267
 21
139.1066283571
 31
0.0
  0
LWPOLYLINE
  5
129
330
1F
100
AcDbEntity
  8
0
  6
Continuous
 62
     7
370
    25
100
AcDbPolyline
 90
       10
 70
   128
 43
0.0
 10
1340.7895715464
 20
182.7859883903
 10
1341.6360282156
 20
183.4469894516
 10
1342.3803897182
 20
184.3729680843
 10
1342.9328750713
 20
185.4522375993
 10
1343.2268463875
 20
186.5546221647
 10
1343.2268463875
 20
187.5471579326
 10
1342.9328750713
 20
188.3101304409
 10
1342.3803897182
 20
188.751513945
 10
1341.6360282156
 20
188.8180710801
 10
1340.7895715464
 20
188.5017740735
  0
LINE
  5
12A
330
1F
100
AcDbEntity
  8
0
  6
Continuous
 62
     7
370
    25
100
AcDbLine
 10
1340.7895715464
 20
188.5017740735
 30
0.0
 11
1328.061649485
 21
181.1541010671
 31
0.0
  0
LWPOLYLINE
  5
12B
330
1F
100
AcDbEntity
  8
0
  6
Continuous
 62
     7
370
    25
100
AcDbPolyline
 90
       10
 70
   128
 43
0.0
 10
1328.061649485
 20
181.1541010671
 10
1327.2151928158
 20
180.4931000058
 10
1326.4708313132
 20
179.5671213731
 10
1325.9183459601
 20
178.4878518581
 10
1325.6243746439
 20
177.3854672926
 10
1325.6243746439
 20
176.3929315248
 10
1325.9183459601
 20
175.6299590165
 10
1326.4708313132
 20
175.1885755124
 10
1327.2151928158
 20
175.1220183773
 10
1328.061649485
 20
175.4383153839
  0
LINE
  5
12C
330
1F
100
AcDbEntity
  8
0
  6
Continuous
 62
     7
370
    25
100
AcDbLine
 10
1328.061649485
 20
175.4383153839
 30
0.0
 11
1340.7895715464
 21
182.7859883903
 31
0.0
  0
LWPOLYLINE
  5
12D
330
1F
100
AcDbEntity
  8
0
  6
Continuous
 62
     7
370
    25
100
AcDbPolyline
 90
       10
 70
   128
 43
0.0
 10
2671.5645337395
 20
956.7418072987
 10
2670.7180770702
 20
956.0808062373
 10
2669.9737155676
 20
955.1548276046
 10
2669.4212302145
 20
954.0755580896
 10
2669.1272588983
 20
952.9731735242
 10
2669.1272588983
 20
951.9806377564
 10
2669.4212302145
 20
951.217665248
 10
2669.9737155676
 20
950.776281744
 10
2670.7180770702
 20
950.7097246088
 10
2671.5645337395
 20
951.0260216155
  0
LINE
  5
12E
330
1F
100
AcDbEntity
  8
0
  6
Continuous
 62
     7
370
    25
100
AcDbLine
 10
2671.5645337395
 20
951.0260216155
 30
0.0
 11
2684.2924558008
 21
958.3736946219
 31
0.0
  0
LWPOLYLINE
  5
12F
330
1F
100
AcDbEntity
  8
0
  6
Continuous
 62
     7
370
    25
100
AcDbPolyline
 90
       10
 70
   128
 43
0.0
 10
2684.2924558008
 20
958.3736946219
 10
2685.1389124701
 20
959.0346956832
 10
2685.8832739727
 20
959.9606743159
 10
2686.4357593258
 20
961.0399438309
 10
2686.7297306419
 20
962.1423283963
 10
2686.7297306419
 20
963.1348641641
 10
2686.4357593258
 20
963.8978366725
 10
2685.8832739727
 20
964.3392201766
 10
2685.1389124701
 20
964.4057773117
 10
2684.2924558008
 20
964.0894803051
  0
LINE
  5
130
330
1F
100
AcDbEntity
  8
0
  6
Continuous
 62
     7
370
    25
100
AcDbLine
 10
2684.2924558008
 20
964.0894803051
 30
0.0
 11
2671.5645337395
 21
956.7418072987
 31
0.0
  0
LWPOLYLINE
  5
131
330
1F
100
AcDbEntity
  8
0
  6
Continuous
 62
     7
370
    25
100
AcDbPolyline
 90
       10
 70
   128
 43
0.0
 10
2636.2091946801
 20
936.3316045031
 10
2635.3627380109
 20
935.6706034418
 10
2634.6183765083
 20
934.7446248091
 10
2634.0658911552
 20
933.6653552941
 10
2633.771919839
 20
932.5629707287
 10
2633.771919839
 20
931.5704349608
 10
2634.0658911552
 20
930.8074624525
 10
2634.6183765083
 20
930.3660789484
 10
2635.3627380109
 20
930.2995218133
 10
2636.2091946801
 20
930.6158188199
  0
LINE
  5
132
330
1F
100
AcDbEntity
  8
0
  6
Continuous
 62
     7
370
    25
100
AcDbLine
 10
2636.2091946801
 20
930.6158188199
 30
0.0
 11
2648.9371167415
 21
937.9634918263
 31
0.0
  0
LWPOLYLINE
  5
133
330
1F
100
AcDbEntity
  8
0
  6
Continuous
 62
     7
370
    25
100
AcDbPolyline
 90
       10
 70
   128
 43
0.0
 10
2648.9371167415
 20
937.9634918263
 10
2649.7835734108
 20
938.6244928876
 10
2650.5279349133
 20
939.5504715203
 10
2651.0804202664
 20
940.6297410353
 10
2651.3743915826
 20
941.7321256007
 10
2651.3743915826
 20
942.7246613686
 10
2651.0804202664
 20
943.4876338769
 10
2650.5279349133
 20
943.929017381
 10
2649.7835734108
 20
943.9955745161
 10
2648.9371167415
 20
943.6792775095
  0
LINE
  5
134
330
1F
100
AcDbEntity
  8
0
  6
Continuous
 62
     7
370
    25
100
AcDbLine
 10
2648.9371167415
 20
943.6792775095
 30
0.0
 11
2636.2091946801
 21
936.3316045031
 31
0.0
  0
LWPOLYLINE
  5
135
330
1F
100
AcDbEntity
  8
0
  6
Continuous
 62
     7
370
    25
100
AcDbPolyline
 90
       10
 70
   128
 43
0.0
 10
1305.4342324871
 20
162.3757855947
 10
1306.2806891563
 20
163.0367866561
 10
1307.0250506589
 20
163.9627652888
 10
1307.577536012
 20
165.0420348037
 10
1307.8715073282
 20
166.1444193692
 10
1307.8715073282
 20
167.136955137
 10
1307.577536012
 20
167.8999276453
 10
1307.0250506589
 20
168.3413111494
 10
1306.2806891563
 20
168.4078682846
 10
1305.4342324871
 20
168.0915712779
  0
LINE
  5
136
330
1F
100
AcDbEntity
  8
0
  6
Continuous
 62
     7
370
    25
100
AcDbLine
 10
1305.4342324871
 20
168.0915712779
 30
0.0
 11
1292.7063104257
 21
160.7438982715
 31
0.0
  0
LWPOLYLINE
  5
137
330
1F
100
AcDbEntity
  8
0
  6
Continuous
 62
     7
370
    25
100
AcDbPolyline
 90
       10
 70
   128
 43
0.0
 10
1292.7063104257
 20
160.7438982715
 10
1291.8598537564
 20
160.0828972102
 10
1291.1154922538
 20
159.1569185775
 10
1290.5630069008
 20
158.0776490625
 10
1290.2690355846
 20
156.9752644971
 10
1290.2690355846
 20
155.9827287293
 10
1290.5630069008
 20
155.2197562209
 10
1291.1154922538
 20
154.7783727168
 10
1291.8598537564
 20
154.7118155817
 10
1292.7063104257
 20
155.0281125883
  0
LINE
  5
138
330
1F
100
AcDbEntity
  8
0
  6
Continuous
 62
     7
370
    25
100
AcDbLine
 10
1292.7063104257
 20
155.0281125883
 30
0.0
 11
1305.4342324871
 21
162.3757855947
 31
0.0
  0
LWPOLYLINE
  5
139
330
1F
100
AcDbEntity
  8
0
  6
Continuous
 62
     7
370
    25
100
AcDbPolyline
 90
       10
 70
   128
 43
0.0
 10
1340.7895715464
 20
203.1995086874
 10
1341.6360282156
 20
203.8605097488
 10
1342.3803897182
 20
204.7864883815
 10
1342.9328750713
 20
205.8657578965
 10
1343.2268463875
 20
206.9681424619
 10
1343.2268463875
 20
207.9606782297
 10
1342.9328750713
 20
208.7236507381
 10
1342.3803897182
 20
209.1650342421
 10
1341.6360282156
 20
209.2315913773
 10
1340.7895715464
 20
208.9152943706
  0
LINE
  5
13A
330
1F
100
AcDbEntity
  8
0
  6
Continuous
 62
     7
370
    25
100
AcDbLine
 10
1340.7895715464
 20
208.9152943706
 30
0.0
 11
1328.061649485
 21
201.5676213642
 31
0.0
  0
LWPOLYLINE
  5
13B
330
1F
100
AcDbEntity
  8
0
  6
Continuous
 62
     7
370
    25
100
AcDbPolyline
 90
       10
 70
   128
 43
0.0
 10
1328.061649485
 20
201.5676213642
 10
1327.2151928158
 20
200.9066203029
 10
1326.4708313132
 20
199.9806416702
 10
1325.9183459601
 20
198.9013721552
 10
1325.6243746439
 20
197.7989875898
 10
1325.6243746439
 20
196.806451822
 10
1325.9183459601
 20
196.0434793136
 10
1326.4708313132
 20
195.6020958095
 10
1327.2151928158
 20
195.5355386744
 10
1328.061649485
 20
195.851835681
  0
LINE
  5
13C
330
1F
100
AcDbEntity
  8
0
  6
Continuous
 62
     7
370
    25
100
AcDbLine
 10
1328.061649485
 20
195.851835681
 30
0.0
 11
1340.7895715464
 21
203.1995086874
 31
0.0
  0
LWPOLYLINE
  5
13D
330
1F
100
AcDbEntity
  8
0
  6
Continuous
 62
     7
370
    25
100
AcDbPolyline
 90
       10
 70
   128
 43
0.0
 10
2671.5645337395
 20
977.1553275958
 10
2670.7180770702
 20
976.4943265345
 10
2669.9737155676
 20
975.5683479018
 10
2669.4212302145
 20
974.4890783868
 10
2669.1272588983
 20
973.3866938214
 10
2669.1272588983
 20
972.3941580535
 10
2669.4212302145
 20
971.6311855452
 10
2669.9737155676
 20
971.1898020411
 10
2670.7180770702
 20
971.123244906
 10
2671.5645337395
 20
971.4395419126
  0
LINE
  5
13E
330
1F
100
AcDbEntity
  8
0
  6
Continuous
 62
     7
370
    25
100
AcDbLine
 10
2671.5645337395
 20
971.4395419126
 30
0.0
 11
2684.2924558008
 21
978.787214919
 31
0.0
  0
LWPOLYLINE
  5
13F
330
1F
100
AcDbEntity
  8
0
  6
Continuous
 62
     7
370
    25
100
AcDbPolyline
 90
       10
 70
   128
 43
0.0
 10
2684.2924558008
 20
978.787214919
 10
2685.1389124701
 20
979.4482159803
 10
2685.8832739727
 20
980.374194613
 10
2686.4357593258
 20
981.453464128
 10
2686.7297306419
 20
982.5558486935
 10
2686.7297306419
 20
983.5483844613
 10
2686.4357593258
 20
984.3113569696
 10
2685.8832739727
 20
984.7527404737
 10
2685.1389124701
 20
984.8192976088
 10
2684.2924558008
 20
984.5030006022
  0
LINE
  5
140
330
1F
100
AcDbEntity
  8
0
  6
Continuous
 62
     7
370
    25
100
AcDbLine
 10
2684.2924558008
 20
984.5030006022
 30
0.0
 11
2671.5645337395
 21
977.1553275958
 31
0.0
  0
LWPOLYLINE
  5
141
330
1F
100
AcDbEntity
  8
0
  6
Continuous
 62
     7
370
    25
100
AcDbPolyline
 90
       10
 70
   128
 43
0.0
 10
2636.2091946801
 20
956.7451248002
 10
2635.3627380109
 20
956.0841237389
 10
2634.6183765083
 20
955.1581451062
 10
2634.0658911552
 20
954.0788755912
 10
2633.771919839
 20
952.9764910258
 10
2633.771919839
 20
951.983955258
 10
2634.0658911552
 20
951.2209827496
 10
2634.6183765083
 20
950.7795992455
 10
2635.3627380109
 20
950.7130421104
 10
2636.2091946801
 20
951.029339117
  0
LINE
  5
142
330
1F
100
AcDbEntity
  8
0
  6
Continuous
 62
     7
370
    25
100
AcDbLine
 10
2636.2091946801
 20
951.029339117
 30
0.0
 11
2648.9371167415
 21
958.3770121234
 31
0.0
  0
LWPOLYLINE
  5
143
330
1F
100
AcDbEntity
  8
0
  6
Continuous
 62
     7
370
    25
100
AcDbPolyline
 90
       10
 70
   128
 43
0.0
 10
2648.9371167415
 20
958.3770121234
 10
2649.7835734108
 20
959.0380131848
 10
2650.5279349133
 20
959.9639918175
 10
2651.0804202664
 20
961.0432613325
 10
2651.3743915826
 20
962.1456458979
 10
2651.3743915826
 20
963.1381816657
 10
2651.0804202664
 20
963.9011541741
 10
2650.5279349133
 20
964.3425376782
 10
2649.7835734108
 20
964.4090948133
 10
2648.9371167415
 20
964.0927978066
  0
LINE
  5
144
330
1F
100
AcDbEntity
  8
0
  6
Continuous
 62
     7
370
    25
100
AcDbLine
 10
2648.9371167415
 20
964.0927978066
 30
0.0
 11
2636.2091946801
 21
956.7451248002
 31
0.0
  0
LWPOLYLINE
  5
145
330
1F
100
AcDbEntity
  8
0
  6
Continuous
 62
     7
370
    25
100
AcDbPolyline
 90
       10
 70
   128
 43
0.0
 10
1305.4342324871
 20
182.7893058919
 10
1306.2806891563
 20
183.4503069532
 10
1307.0250506589
 20
184.3762855859
 10
1307.577536012
 20
185.4555551009
 10
1307.8715073282
 20
186.5579396663
 10
1307.8715073282
 20
187.5504754341
 10
1307.577536012
 20
188.3134479425
 10
1307.0250506589
 20
188.7548314466
 10
1306.2806891563
 20
188.8213885817
 10
1305.4342324871
 20
188.5050915751
  0
LINE
  5
146
330
1F
100
AcDbEntity
  8
0
  6
Continuous
 62
     7
370
    25
100
AcDbLine
 10
1305.4342324871
 20
188.5050915751
 30
0.0
 11
1292.7063104257
 21
181.1574185687
 31
0.0
  0
LWPOLYLINE
  5
147
330
1F
100
AcDbEntity
  8
0
  6
Continuous
 62
     7
370
    25
100
AcDbPolyline
 90
       10
 70
   128
 43
0.0
 10
1292.7063104257
 20
181.1574185687
 10
1291.8598537564
 20
180.4964175073
 10
1291.1154922538
 20
179.5704388746
 10
1290.5630069008
 20
178.4911693597
 10
1290.2690355846
 20
177.3887847942
 10
1290.2690355846
 20
176.3962490264
 10
1290.5630069008
 20
175.6332765181
 10
1291.1154922538
 20
175.191893014
 10
1291.8598537564
 20
175.1253358788
 10
1292.7063104257
 20
175.4416328855
  0
LINE
  5
148
330
1F
100
AcDbEntity
  8
0
  6
Continuous
 62
     7
370
    25
100
AcDbLine
 10
1292.7063104257
 20
175.4416328855
 30
0.0
 11
1305.4342324871
 21
182.7893058919
 31
0.0
  0
LINE
  5
149
330
1F
100
AcDbEntity
  8
0
  6
Continuous
 62
     7
370
    25
100
AcDbLine
 10
1279.9783883643
 20
190.5485668058
 30
0.0
 11
1279.9783883643
 21
139.9230364689
 31
0.0
  0
LWPOLYLINE
  5
14A
330
1F
100
AcDbEntity
  8
0
  6
Continuous
 62
     7
370
    25
100
AcDbPolyline
 90
        3
 70
   128
 43
0.0
 10
1291.2920968633
 20
176.2580409973
 10
1290.4456401941
 20
175.9417439907
 10
1290.3985273002
 20
175.9349765945
  0
LINE
  5
14B
330
1F
100
AcDbEntity
  8
0
  6
Continuous
 62
     7
370
    25
100
AcDbLine
 10
1304.0200189247
 20
183.6057140037
 30
0.0
 11
1291.2920968633
 21
176.2580409973
 31
0.0
  0
ARC
  5
14C
330
1F
100
AcDbEntity
  8
0
  6
Continuous
 62
     7
370
    25
100
AcDbCircle
 10
1301.7173604954
 20
187.7443751775
 30
0.0
 40
4.736111501393695
100
AcDbArc
 50
299.0905834166
 51
13.2284026256
  0
LWPOLYLINE
  5
14D
330
1F
100
AcDbEntity
  8
0
  6
Continuous
 62
     7
370
    25
100
AcDbPolyline
 90
        3
 70
   128
 43
0.0
 10
1291.2920968633
 20
155.8445207001
 10
1290.4456401941
 20
155.5282236935
 10
1290.3985273001
 20
155.5214562974
  0
LINE
  5
14E
330
1F
100
AcDbEntity
  8
0
  6
Continuous
 62
     7
370
    25
100
AcDbLine
 10
1279.2712815831
 20
137.8816180891
 30
0.0
 11
1281.3926019267
 21
136.6570059214
 31
0.0
  0
LINE
  5
14F
330
1F
100
AcDbEntity
  8
0
  6
Continuous
 62
     7
370
    25
100
AcDbLine
 10
1279.2712815831
 20
139.5146997129
 30
0.0
 11
1279.9783883643
 21
139.106495657
 31
0.0
  0
LINE
  5
150
330
1F
100
AcDbEntity
  8
0
  6
Continuous
 62
     7
370
    25
100
AcDbLine
 10
1279.9783883643
 20
139.106495657
 30
0.0
 11
1279.9783883643
 21
139.9230364689
 31
0.0
  0
LINE
  5
151
330
1F
100
AcDbEntity
  8
0
  6
Continuous
 62
     7
370
    25
100
AcDbLine
 10
1176.7407983111
 20
198.70428782
 30
0.0
 11
1177.4479050923
 21
198.2960837641
 31
0.0
  0
LINE
  5
152
330
1F
100
AcDbEntity
  8
0
  6
Continuous
 62
     7
370
    25
100
AcDbLine
 10
2590.9543606842
 20
1015.1123996428
 30
0.0
 11
1176.7407983111
 21
198.70428782
 31
0.0
  0
LINE
  5
153
330
1F
100
AcDbEntity
  8
0
  6
Continuous
 62
     7
370
    25
100
AcDbLine
 10
2590.9543606842
 20
1015.1123996428
 30
0.0
 11
2591.6614674654
 21
1014.7041955868
 31
0.0
  0
LINE
  5
154
330
1F
100
AcDbEntity
  8
0
  6
Continuous
 62
     7
370
    25
100
AcDbLine
 10
2684.6274648801
 20
961.0360676376
 30
0.0
 11
2681.8153408521
 21
962.6594722838
 31
0.0
  0
LINE
  5
155
330
1F
100
AcDbEntity
  8
0
  6
Continuous
 62
     7
370
    25
100
AcDbLine
 10
2633.395630653
 20
990.6115760045
 30
0.0
 11
2591.6614674654
 21
1014.7041955868
 31
0.0
  0
LINE
  5
156
330
1F
100
AcDbEntity
  8
0
  6
Continuous
 62
     7
370
    25
100
AcDbLine
 10
1279.2712815831
 20
139.5146997129
 30
0.0
 11
1177.4479050923
 21
198.2960837641
 31
0.0
  0
ARC
  5
157
330
1F
100
AcDbEntity
  8
0
  6
Continuous
 62
     7
370
    25
100
AcDbCircle
 10
1236.2926949576
 20
177.0694728567
 30
0.0
 40
0.4366153168342319
100
AcDbArc
 50
110.7834207995
 51
249.2165792005
  0
LINE
  5
158
330
1F
100
AcDbEntity
  8
0
  6
Continuous
 62
     7
370
    25
100
AcDbLine
 10
1236.1377679308
 20
176.6612688008
 30
0.0
 11
1241.7946221803
 21
173.3956363535
 31
0.0
  0
ARC
  5
159
330
1F
100
AcDbEntity
  8
0
  6
Continuous
 62
     7
370
    25
100
AcDbCircle
 10
1242.5017289614
 20
174.7603474385
 30
0.0
 40
1.537021907911647
100
AcDbArc
 50
242.6096722366
 51
297.3903277634
  0
LINE
  5
15A
330
1F
100
AcDbEntity
  8
0
  6
Continuous
 62
     7
370
    25
100
AcDbLine
 10
1243.2088357426
 20
173.3956363535
 30
0.0
 11
1246.7443696486
 21
175.4366566331
 31
0.0
  0
ARC
  5
15B
330
1F
100
AcDbEntity
  8
0
  6
Continuous
 62
     7
370
    25
100
AcDbCircle
 10
1246.5894426218
 20
175.844860689
 30
0.0
 40
0.4366153168341779
100
AcDbArc
 50
290.7834207994
 51
69.2165792006
  0
LINE
  5
15C
330
1F
100
AcDbEntity
  8
0
  6
Continuous
 62
     7
370
    25
100
AcDbLine
 10
1246.7443696486
 20
176.2530647449
 30
0.0
 11
1241.0875153991
 21
179.5186971922
 31
0.0
  0
ARC
  5
15D
330
1F
100
AcDbEntity
  8
0
  6
Continuous
 62
     7
370
    25
100
AcDbCircle
 10
1240.3804086179
 20
178.1539861073
 30
0.0
 40
1.537021907912051
100
AcDbArc
 50
62.6096722366
 51
117.3903277634
  0
LINE
  5
15E
330
1F
100
AcDbEntity
  8
0
  6
Continuous
 62
     7
370
    25
100
AcDbLine
 10
1239.6733018367
 20
179.5186971922
 30
0.0
 11
1236.1377679308
 21
177.4776769127
 31
0.0
  0
LINE
  5
15F
330
1F
100
AcDbEntity
  8
0
  6
Continuous
 62
     7
370
    25
100
AcDbLine
 10
1197.9540017467
 20
199.5206959319
 30
0.0
 11
1210.6819238081
 21
206.8683689383
 31
0.0
  0
LWPOLYLINE
  5
160
330
1F
100
AcDbEntity
  8
0
  6
Continuous
 62
     7
370
    25
100
AcDbPolyline
 90
       10
 70
   128
 43
0.0
 10
1210.6819238081
 20
206.8683689383
 10
1211.3791273285
 20
207.443179981
 10
1211.6937315172
 20
208.1209843463
 10
1211.5877904659
 20
208.8200288243
 10
1211.0740822289
 20
209.4559983342
 10
1210.2145676011
 20
209.9521855672
 10
1209.1129167318
 20
210.24874302
 10
1207.9020049743
 20
210.3099014872
 10
1206.7278861578
 20
210.1282843548
 10
1205.7321763397
 20
209.7257973297
  0
LINE
  5
161
330
1F
100
AcDbEntity
  8
0
  6
Continuous
 62
     7
370
    25
100
AcDbLine
 10
1205.7321763397
 20
209.7257973297
 30
0.0
 11
1193.0042542784
 21
202.3781243233
 31
0.0
  0
LWPOLYLINE
  5
162
330
1F
100
AcDbEntity
  8
0
  6
Continuous
 62
     7
370
    25
100
AcDbPolyline
 90
       10
 70
   128
 43
0.0
 10
1193.0042542784
 20
202.3781243233
 10
1192.3070507579
 20
201.8033132805
 10
1191.9924465692
 20
201.1255089152
 10
1192.0983876205
 20
200.4264644372
 10
1192.6120958575
 20
199.7904949273
 10
1193.4716104853
 20
199.2943076943
 10
1194.5732613547
 20
198.9977502415
 10
1195.7841731122
 20
198.9365917744
 10
1196.9582919286
 20
199.1182089067
 10
1197.9540017467
 20
199.5206959319
  0
LINE
  5
163
330
1F
100
AcDbEntity
  8
0
  6
Continuous
 62
     7
370
    25
100
AcDbLine
 10
2672.9787473018
 20
954.6981993679
 30
0.0
 11
2669.0896606883
 21
952.4530774546
 31
0.0
  0
ARC
  5
164
330
1F
100
AcDbEntity
  8
0
  6
Continuous
 62
     7
370
    25
100
AcDbCircle
 10
2675.4342125174
 20
949.9575095152
 30
0.0
 40
5.338862210589066
100
AcDbArc
 50
83.1824446664
 51
117.3821352113
  0
LINE
  5
165
330
1F
100
AcDbEntity
  8
0
  6
Continuous
 62
     7
370
    25
100
AcDbLine
 10
2637.6234082425
 20
934.2879965723
 30
0.0
 11
2633.734321629
 21
932.0428746591
 31
0.0
  0
ARC
  5
166
330
1F
100
AcDbEntity
  8
0
  6
Continuous
 62
     7
370
    25
100
AcDbCircle
 10
2640.078873458
 20
929.5473067197
 30
0.0
 40
5.338862210589975
100
AcDbArc
 50
83.1824446664
 51
117.3821352113
  0
LINE
  5
167
330
1F
100
AcDbEntity
  8
0
  6
Continuous
 62
     7
370
    25
100
AcDbLine
 10
2549.2350605942
 20
985.3135035612
 30
0.0
 11
2536.5071385328
 21
977.9658305548
 31
0.0
  0
LWPOLYLINE
  5
168
330
1F
100
AcDbEntity
  8
0
  6
Continuous
 62
     7
370
    25
100
AcDbPolyline
 90
       10
 70
   128
 43
0.0
 10
2536.5071385328
 20
977.9658305548
 10
2535.8099350124
 20
977.3910195121
 10
2535.4953308237
 20
976.7132151468
 10
2535.601271875
 20
976.0141706688
 10
2536.114980112
 20
975.3782011589
 10
2536.9744947398
 20
974.8820139259
 10
2538.0761456091
 20
974.5854564731
 10
2539.2870573666
 20
974.5242980059
 10
2540.4611761831
 20
974.7059151383
 10
2541.4568860011
 20
975.1084021634
  0
LINE
  5
169
330
1F
100
AcDbEntity
  8
0
  6
Continuous
 62
     7
370
    25
100
AcDbLine
 10
2541.4568860011
 20
975.1084021634
 30
0.0
 11
2554.1848080625
 21
982.4560751698
 31
0.0
  0
LWPOLYLINE
  5
16A
330
1F
100
AcDbEntity
  8
0
  6
Continuous
 62
     7
370
    25
100
AcDbPolyline
 90
       10
 70
   128
 43
0.0
 10
2554.1848080625
 20
982.4560751698
 10
2554.882011583
 20
983.0308862126
 10
2555.1966157717
 20
983.7086905779
 10
2555.0906747204
 20
984.4077350559
 10
2554.5769664834
 20
985.0437045658
 10
2553.7174518556
 20
985.5398917988
 10
2552.6158009862
 20
985.8364492516
 10
2551.4048892287
 20
985.8976077187
 10
2550.2307704123
 20
985.7159905864
 10
2549.2350605942
 20
985.3135035612
  0
LINE
  5
16B
330
1F
100
AcDbEntity
  8
0
  6
Continuous
 62
     7
370
    25
100
AcDbLine
 10
1233.309340806
 20
219.9308987274
 30
0.0
 11
1246.0372628674
 21
227.2785717338
 31
0.0
  0
LWPOLYLINE
  5
16C
330
1F
100
AcDbEntity
  8
0
  6
Continuous
 62
     7
370
    25
100
AcDbPolyline
 90
       10
 70
   128
 43
0.0
 10
1246.0372628674
 20
227.2785717338
 10
1246.7344663879
 20
227.8533827766
 10
1247.0490705766
 20
228.5311871419
 10
1246.9431295252
 20
229.2302316199
 10
1246.4294212882
 20
229.8662011298
 10
1245.5699066605
 20
230.3623883628
 10
1244.4682557911
 20
230.6589458156
 10
1243.2573440336
 20
230.7201042827
 10
1242.0832252171
 20
230.5384871504
 10
1241.0875153991
 20
230.1360001252
  0
LINE
  5
16D
330
1F
100
AcDbEntity
  8
0
  6
Continuous
 62
     7
370
    25
100
AcDbLine
 10
1241.0875153991
 20
230.1360001252
 30
0.0
 11
1228.3595933377
 21
222.7883271188
 31
0.0
  0
LWPOLYLINE
  5
16E
330
1F
100
AcDbEntity
  8
0
  6
Continuous
 62
     7
370
    25
100
AcDbPolyline
 90
       10
 70
   128
 43
0.0
 10
1228.3595933377
 20
222.7883271188
 10
1227.6623898172
 20
222.213516076
 10
1227.3477856286
 20
221.5357117108
 10
1227.4537266799
 20
220.8366672328
 10
1227.9674349169
 20
220.2006977229
 10
1228.8269495446
 20
219.7045104899
 10
1229.928600414
 20
219.4079530371
 10
1231.1395121715
 20
219.3467945699
 10
1232.313630988
 20
219.5284117022
 10
1233.309340806
 20
219.9308987274
  0
ARC
  5
16F
330
1F
100
AcDbEntity
  8
0
  6
Continuous
 62
     7
370
    25
100
AcDbCircle
 10
1331.9313282629
 20
174.3698032836
 30
0.0
 40
5.338862210590551
100
AcDbArc
 50
83.1824446664
 51
117.3821352113
  0
LINE
  5
170
330
1F
100
AcDbEntity
  8
0
  6
Continuous
 62
     7
370
    25
100
AcDbLine
 10
1329.4758630474
 20
179.1104931363
 30
0.0
 11
1325.5867764339
 21
176.8653712231
 31
0.0
  0
ARC
  5
171
330
1F
100
AcDbEntity
  8
0
  6
Continuous
 62
     7
370
    25
100
AcDbCircle
 10
1296.5759892036
 20
153.9596004881
 30
0.0
 40
5.338862210588579
100
AcDbArc
 50
83.1824446664
 51
117.3821352113
  0
LINE
  5
172
330
1F
100
AcDbEntity
  8
0
  6
Continuous
 62
     7
370
    25
100
AcDbLine
 10
1294.1205239881
 20
158.7002903407
 30
0.0
 11
1290.2314373745
 21
156.4551684275
 31
0.0
  0
LINE
  5
173
330
1F
100
AcDbEntity
  8
0
  6
Continuous
 62
     7
370
    25
100
AcDbLine
 10
2584.5903996535
 20
1005.7237063568
 30
0.0
 11
2571.8624775922
 21
998.3760333504
 31
0.0
  0
LWPOLYLINE
  5
174
330
1F
100
AcDbEntity
  8
0
  6
Continuous
 62
     7
370
    25
100
AcDbPolyline
 90
       10
 70
   128
 43
0.0
 10
2571.8624775922
 20
998.3760333504
 10
2571.1652740717
 20
997.8012223076
 10
2570.850669883
 20
997.1234179423
 10
2570.9566109343
 20
996.4243734643
 10
2571.4703191713
 20
995.7884039544
 10
2572.3298337991
 20
995.2922167215
 10
2573.4314846685
 20
994.9956592686
 10
2574.6423964259
 20
994.9345008015
 10
2575.8165152424
 20
995.1161179338
 10
2576.8122250605
 20
995.518604959
  0
LINE
  5
175
330
1F
100
AcDbEntity
  8
0
  6
Continuous
 62
     7
370
    25
100
AcDbLine
 10
2576.8122250605
 20
995.518604959
 30
0.0
 11
2589.5401471218
 21
1002.8662779654
 31
0.0
  0
LWPOLYLINE
  5
176
330
1F
100
AcDbEntity
  8
0
  6
Continuous
 62
     7
370
    25
100
AcDbPolyline
 90
       10
 70
   128
 43
0.0
 10
2589.5401471218
 20
1002.8662779654
 10
2590.2373506423
 20
1003.4410890082
 10
2590.551954831
 20
1004.1188933735
 10
2590.4460137797
 20
1004.8179378515
 10
2589.9323055427
 20
1005.4539073614
 10
2589.0727909149
 20
1005.9500945943
 10
2587.9711400455
 20
1006.2466520472
 10
2586.7602282881
 20
1006.3078105143
 10
2585.5861094716
 20
1006.126193382
 10
2584.5903996535
 20
1005.7237063568
  0
LINE
  5
177
330
1F
100
AcDbEntity
  8
0
  6
Continuous
 62
     7
370
    25
100
AcDbLine
 10
1279.2712815831
 20
137.8816180891
 30
0.0
 11
1177.4479050923
 21
196.6630021404
 31
0.0
  0
LINE
  5
178
330
1F
100
AcDbEntity
  8
0
  6
Continuous
 62
     7
370
    25
100
AcDbLine
 10
1304.0200189247
 20
163.1921937065
 30
0.0
 11
1291.2920968633
 21
155.8445207001
 31
0.0
  0
ARC
  5
179
330
1F
100
AcDbEntity
  8
0
  6
Continuous
 62
     7
370
    25
100
AcDbCircle
 10
1301.7173604954
 20
167.3308548804
 30
0.0
 40
4.736111501415142
100
AcDbArc
 50
299.0905834167
 51
13.2284026249
  0
LWPOLYLINE
  5
17A
330
1F
100
AcDbEntity
  8
0
  6
Continuous
 62
     7
370
    25
100
AcDbPolyline
 90
        3
 70
   128
 43
0.0
 10
1326.6474359226
 20
196.6682437929
 10
1325.8009792534
 20
196.3519467862
 10
1325.7538663595
 20
196.3451793901
  0
LINE
  5
17B
330
1F
100
AcDbEntity
  8
0
  6
Continuous
 62
     7
370
    25
100
AcDbLine
 10
1339.375357984
 20
204.0159167993
 30
0.0
 11
1326.6474359226
 21
196.6682437929
 31
0.0
  0
ARC
  5
17C
330
1F
100
AcDbEntity
  8
0
  6
Continuous
 62
     7
370
    25
100
AcDbCircle
 10
1337.0726995547
 20
208.1545779731
 30
0.0
 40
4.736111501399146
100
AcDbArc
 50
299.0905834166
 51
13.2284026254
  0
LWPOLYLINE
  5
17D
330
1F
100
AcDbEntity
  8
0
  6
Continuous
 62
     7
370
    25
100
AcDbPolyline
 90
        3
 70
   128
 43
0.0
 10
1326.6474359226
 20
176.2547234957
 10
1325.8009792534
 20
175.9384264891
 10
1325.7538663595
 20
175.9316590929
  0
LINE
  5
17E
330
1F
100
AcDbEntity
  8
0
  6
Continuous
 62
     7
370
    25
100
AcDbLine
 10
1339.375357984
 20
183.6023965021
 30
0.0
 11
1326.6474359226
 21
176.2547234957
 31
0.0
  0
LINE
  5
17F
330
1F
100
AcDbEntity
  8
0
  6
Continuous
 62
     7
370
    25
100
AcDbLine
 10
2596.6112149337
 20
1075.5094393504
 30
0.0
 11
1182.3976525606
 21
259.1013275277
 31
0.0
  0
LINE
  5
180
330
1F
100
AcDbEntity
  8
0
  6
Continuous
 62
     7
370
    25
100
AcDbLine
 10
1182.3976525606
 20
259.1013275277
 30
0.0
 11
1179.5042347546
 21
260.771662073
 31
0.0
  0
LINE
  5
181
330
1F
100
AcDbEntity
  8
0
  6
Continuous
 62
     7
370
    25
100
AcDbLine
 10
2593.7177971277
 20
1077.1797738957
 30
0.0
 11
1179.5042347546
 21
260.771662073
 31
0.0
  0
LINE
  5
182
330
1F
100
AcDbEntity
  8
0
  6
Continuous
 62
     7
370
    25
100
AcDbLine
 10
2596.6112149337
 20
1075.5094393504
 30
0.0
 11
2593.7177971277
 21
1077.1797738957
 31
0.0
  0
LINE
  5
183
330
1F
100
AcDbEntity
  8
0
  6
Continuous
 62
     7
370
    25
100
AcDbLine
 10
1179.0315079464
 20
253.5561652817
 30
0.0
 11
1176.0843466593
 21
252.4018400956
 31
0.0
  0
LINE
  5
184
330
1F
100
AcDbEntity
  8
0
  6
Continuous
 62
     7
370
    25
100
AcDbLine
 10
1176.0336915299
 20
259.4123420143
 30
0.0
 11
1179.0315079464
 21
253.5561652817
 31
0.0
  0
LINE
  5
185
330
1F
100
AcDbEntity
  8
0
  6
Continuous
 62
     7
370
    25
100
AcDbLine
 10
1179.5042347546
 20
260.771662073
 30
0.0
 11
1176.0336915299
 21
259.4123420143
 31
0.0
  0
LINE
  5
186
330
1F
100
AcDbEntity
  8
0
  6
Continuous
 62
     7
370
    25
100
AcDbLine
 10
1182.3976525606
 20
252.7427585081
 30
0.0
 11
1182.3976525606
 21
259.1013275277
 31
0.0
  0
LINE
  5
187
330
1F
100
AcDbEntity
  8
0
  6
Continuous
 62
     7
370
    25
100
AcDbLine
 10
1182.3976525606
 20
252.7427585081
 30
0.0
 11
1176.9933856146
 21
250.6260499738
 31
0.0
  0
LINE
  5
188
330
1F
100
AcDbEntity
  8
0
  6
Continuous
 62
     7
370
    25
100
AcDbLine
 10
2596.6112149337
 20
1069.1508703308
 30
0.0
 11
1182.3976525606
 21
252.7427585081
 31
0.0
  0
LINE
  5
189
330
1F
100
AcDbEntity
  8
0
  6
Continuous
 62
     7
370
    25
100
AcDbLine
 10
2596.6112149337
 20
1075.5094393504
 30
0.0
 11
2596.6112149337
 21
1069.1508703308
 31
0.0
  0
ARC
  5
18A
330
1F
100
AcDbEntity
  8
0
  6
Continuous
 62
     7
370
    25
100
AcDbCircle
 10
1337.0726995547
 20
187.7410576759
 30
0.0
 40
4.736111501420262
100
AcDbArc
 50
299.0905834167
 51
13.2284026247
  0
LINE
  5
18B
330
1F
100
AcDbEntity
  8
0
  6
Continuous
 62
     7
370
    25
100
AcDbLine
 10
2590.247253903
 20
1075.820453837
 30
0.0
 11
2593.7177971277
 21
1077.1797738957
 31
0.0
  0
LINE
  5
18C
330
1F
100
AcDbEntity
  8
0
  6
Continuous
 62
     7
370
    25
100
AcDbLine
 10
1176.0336915299
 20
259.4123420143
 30
0.0
 11
2590.247253903
 21
1075.820453837
 31
0.0
  0
LINE
  5
18D
330
1F
100
AcDbEntity
  8
0
  6
Continuous
 62
     7
370
    25
100
AcDbLine
 10
1176.0843466593
 20
252.4018400956
 30
0.0
 11
1175.3265847487
 21
252.105044782
 31
0.0
  0
LINE
  5
18E
330
1F
100
AcDbEntity
  8
0
  6
Continuous
 62
     7
370
    25
100
AcDbLine
 10
1178.7597777821
 20
254.0869849334
 30
0.0
 11
1175.3265847487
 21
252.105044782
 31
0.0
  0
LINE
  5
18F
330
1F
100
AcDbEntity
  8
0
  6
Continuous
 62
     7
370
    25
100
AcDbLine
 10
1175.3265847487
 20
252.105044782
 30
0.0
 11
1175.3265847487
 21
250.9627670807
 31
0.0
  0
LINE
  5
190
330
1F
100
AcDbEntity
  8
0
  6
Continuous
 62
     7
370
    25
100
AcDbLine
 10
1176.7407983111
 20
250.5271182026
 30
0.0
 11
1176.7407983111
 21
250.1463589689
 31
0.0
  0
LINE
  5
191
330
1F
100
AcDbEntity
  8
0
  6
Continuous
 62
     7
370
    25
100
AcDbLine
 10
1176.9933856146
 20
250.6260499738
 30
0.0
 11
1176.7407983111
 21
250.5271182026
 31
0.0
  0
LINE
  5
192
330
1F
100
AcDbEntity
  8
0
  6
Continuous
 62
     7
370
    25
100
AcDbLine
 10
2590.9543606842
 20
1015.9289404546
 30
0.0
 11
2590.9543606842
 21
1065.8852378835
 31
0.0
  0
LINE
  5
193
330
1F
100
AcDbEntity
  8
0
  6
Continuous
 62
     7
370
    25
100
AcDbLine
 10
2590.9543606842
 20
1015.9289404546
 30
0.0
 11
2590.9543606842
 21
1015.1123996428
 31
0.0
  0
LINE
  5
194
330
1F
100
AcDbEntity
  8
0
  6
Continuous
 62
     7
370
    25
100
AcDbLine
 10
1176.7407983111
 20
199.5208286319
 30
0.0
 11
1176.7407983111
 21
198.70428782
 31
0.0
  0
LINE
  5
195
330
1F
100
AcDbEntity
  8
0
  6
Continuous
 62
     7
370
    25
100
AcDbLine
 10
1176.7407983111
 20
199.5208286319
 30
0.0
 11
1176.7407983111
 21
250.1463589689
 31
0.0
  0
LINE
  5
196
330
1F
100
AcDbEntity
  8
0
  6
Continuous
 62
     7
370
    25
100
AcDbLine
 10
1223.4098458694
 20
235.8525156588
 30
0.0
 11
1236.1377679308
 21
243.2001886652
 31
0.0
  0
LWPOLYLINE
  5
197
330
1F
100
AcDbEntity
  8
0
  6
Continuous
 62
     7
370
    25
100
AcDbPolyline
 90
       10
 70
   128
 43
0.0
 10
1236.1377679308
 20
243.2001886652
 10
1236.9842246
 20
243.8611897265
 10
1237.7285861026
 20
244.7871683592
 10
1238.2810714557
 20
245.8664378742
 10
1238.5750427719
 20
246.9688224396
 10
1238.5750427719
 20
247.9613582074
 10
1238.2810714557
 20
248.7243307158
 10
1237.7285861026
 20
249.1657142199
 10
1236.9842246
 20
249.232271355
 10
1236.1377679308
 20
248.9159743484
  0
LINE
  5
198
330
1F
100
AcDbEntity
  8
0
  6
Continuous
 62
     7
370
    25
100
AcDbLine
 10
1236.1377679308
 20
248.9159743484
 30
0.0
 11
1223.4098458694
 21
241.568301342
 31
0.0
  0
LWPOLYLINE
  5
199
330
1F
100
AcDbEntity
  8
0
  6
Continuous
 62
     7
370
    25
100
AcDbPolyline
 90
       10
 70
   128
 43
0.0
 10
1223.4098458694
 20
241.568301342
 10
1222.5633892001
 20
240.9073002806
 10
1221.8190276976
 20
239.9813216479
 10
1221.2665423445
 20
238.902052133
 10
1220.9725710283
 20
237.7996675675
 10
1220.9725710283
 20
236.8071317997
 10
1221.2665423445
 20
236.0441592914
 10
1221.8190276976
 20
235.6027757873
 10
1222.5633892001
 20
235.5362186521
 10
1223.4098458694
 20
235.8525156588
  0
LINE
  5
19A
330
1F
100
AcDbEntity
  8
0
  6
Continuous
 62
     7
370
    25
100
AcDbLine
 10
2579.6406521852
 20
1024.5036805799
 30
0.0
 11
2566.9127301239
 21
1017.1560075735
 31
0.0
  0
LWPOLYLINE
  5
19B
330
1F
100
AcDbEntity
  8
0
  6
Continuous
 62
     7
370
    25
100
AcDbPolyline
 90
       10
 70
   128
 43
0.0
 10
2566.9127301239
 20
1017.1560075735
 10
2566.0662734546
 20
1016.4950065122
 10
2565.321911952
 20
1015.5690278795
 10
2564.7694265989
 20
1014.4897583645
 10
2564.4754552827
 20
1013.3873737991
 10
2564.4754552827
 20
1012.3948380313
 10
2564.7694265989
 20
1011.6318655229
 10
2565.321911952
 20
1011.1904820188
 10
2566.0662734546
 20
1011.1239248837
 10
2566.9127301239
 20
1011.4402218903
  0
LINE
  5
19C
330
1F
100
AcDbEntity
  8
0
  6
Continuous
 62
     7
370
    25
100
AcDbLine
 10
2566.9127301239
 20
1011.4402218903
 30
0.0
 11
2579.6406521852
 21
1018.7878948967
 31
0.0
  0
LWPOLYLINE
  5
19D
330
1F
100
AcDbEntity
  8
0
  6
Continuous
 62
     7
370
    25
100
AcDbPolyline
 90
       10
 70
   128
 43
0.0
 10
2579.6406521852
 20
1018.7878948967
 10
2580.4871088545
 20
1019.4488959581
 10
2581.2314703571
 20
1020.3748745908
 10
2581.7839557101
 20
1021.4541441058
 10
2582.0779270263
 20
1022.5565286712
 10
2582.0779270263
 20
1023.549064439
 10
2581.7839557101
 20
1024.3120369474
 10
2581.2314703571
 20
1024.7534204515
 10
2580.4871088545
 20
1024.8199775866
 10
2579.6406521852
 20
1024.5036805799
  0
LINE
  5
19E
330
1F
100
AcDbEntity
  8
0
  6
Continuous
 62
     7
370
    25
100
AcDbLine
 10
2544.2853131259
 20
1004.0934777844
 30
0.0
 11
2531.5573910645
 21
996.745804778
 31
0.0
  0
LWPOLYLINE
  5
19F
330
1F
100
AcDbEntity
  8
0
  6
Continuous
 62
     7
370
    25
100
AcDbPolyline
 90
       10
 70
   128
 43
0.0
 10
2531.5573910645
 20
996.745804778
 10
2530.7109343953
 20
996.0848037166
 10
2529.9665728927
 20
995.1588250839
 10
2529.4140875396
 20
994.079555569
 10
2529.1201162234
 20
992.9771710035
 10
2529.1201162234
 20
991.9846352357
 10
2529.4140875396
 20
991.2216627274
 10
2529.9665728927
 20
990.7802792233
 10
2530.7109343953
 20
990.7137220881
 10
2531.5573910645
 20
991.0300190948
  0
LINE
  5
1A0
330
1F
100
AcDbEntity
  8
0
  6
Continuous
 62
     7
370
    25
100
AcDbLine
 10
2531.5573910645
 20
991.0300190948
 30
0.0
 11
2544.2853131259
 21
998.3776921012
 31
0.0
  0
LWPOLYLINE
  5
1A1
330
1F
100
AcDbEntity
  8
0
  6
Continuous
 62
     7
370
    25
100
AcDbPolyline
 90
       10
 70
   128
 43
0.0
 10
2544.2853131259
 20
998.3776921012
 10
2545.1317697952
 20
999.0386931625
 10
2545.8761312977
 20
999.9646717952
 10
2546.4286166508
 20
1001.0439413102
 10
2546.722587967
 20
1002.1463258756
 10
2546.722587967
 20
1003.1388616434
 10
2546.4286166508
 20
1003.9018341518
 10
2545.8761312977
 20
1004.3432176559
 10
2545.1317697952
 20
1004.409774791
 10
2544.2853131259
 20
1004.0934777844
  0
LINE
  5
1A2
330
1F
100
AcDbEntity
  8
0
  6
Continuous
 62
     7
370
    25
100
AcDbLine
 10
1188.0545068101
 20
215.4423128632
 30
0.0
 11
1200.7824288714
 21
222.7899858696
 31
0.0
  0
LWPOLYLINE
  5
1A3
330
1F
100
AcDbEntity
  8
0
  6
Continuous
 62
     7
370
    25
100
AcDbPolyline
 90
       10
 70
   128
 43
0.0
 10
1200.7824288714
 20
222.7899858696
 10
1201.6288855407
 20
223.4509869309
 10
1202.3732470433
 20
224.3769655636
 10
1202.9257323964
 20
225.4562350786
 10
1203.2197037126
 20
226.558619644
 10
1203.2197037126
 20
227.5511554119
 10
1202.9257323964
 20
228.3141279202
 10
1202.3732470433
 20
228.7555114243
 10
1201.6288855407
 20
228.8220685594
 10
1200.7824288714
 20
228.5057715528
  0
LINE
  5
1A4
330
1F
100
AcDbEntity
  8
0
  6
Continuous
 62
     7
370
    25
100
AcDbLine
 10
1200.7824288714
 20
228.5057715528
 30
0.0
 11
1188.0545068101
 21
221.1580985464
 31
0.0
  0
LWPOLYLINE
  5
1A5
330
1F
100
AcDbEntity
  8
0
  6
Continuous
 62
     7
370
    25
100
AcDbPolyline
 90
       10
 70
   128
 43
0.0
 10
1188.0545068101
 20
221.1580985464
 10
1187.2080501408
 20
220.4970974851
 10
1186.4636886382
 20
219.5711188524
 10
1185.9112032851
 20
218.4918493374
 10
1185.617231969
 20
217.389464772
 10
1185.617231969
 20
216.3969290041
 10
1185.9112032851
 20
215.6339564958
 10
1186.4636886382
 20
215.1925729917
 10
1187.2080501408
 20
215.1260158566
 10
1188.0545068101
 20
215.4423128632
  0
LINE
  5
1A6
330
1F
100
AcDbEntity
  8
0
  6
Continuous
 62
     7
370
    25
100
AcDbLine
 10
1223.4098458694
 20
256.2660359559
 30
0.0
 11
1236.1377679308
 21
263.6137089623
 31
0.0
  0
LWPOLYLINE
  5
1A7
330
1F
100
AcDbEntity
  8
0
  6
Continuous
 62
     7
370
    25
100
AcDbPolyline
 90
       10
 70
   128
 43
0.0
 10
1236.1377679308
 20
263.6137089623
 10
1236.9842246
 20
264.2747100237
 10
1237.7285861026
 20
265.2006886564
 10
1238.2810714557
 20
266.2799581713
 10
1238.5750427719
 20
267.3823427368
 10
1238.5750427719
 20
268.3748785046
 10
1238.2810714557
 20
269.1378510129
 10
1237.7285861026
 20
269.579234517
 10
1236.9842246
 20
269.6457916521
 10
1236.1377679308
 20
269.3294946455
  0
LINE
  5
1A8
330
1F
100
AcDbEntity
  8
0
  6
Continuous
 62
     7
370
    25
100
AcDbLine
 10
1236.1377679308
 20
269.3294946455
 30
0.0
 11
1223.4098458694
 21
261.9818216391
 31
0.0
  0
LWPOLYLINE
  5
1A9
330
1F
100
AcDbEntity
  8
0
  6
Continuous
 62
     7
370
    25
100
AcDbPolyline
 90
       10
 70
   128
 43
0.0
 10
1223.4098458694
 20
261.9818216391
 10
1222.5633892001
 20
261.3208205778
 10
1221.8190276976
 20
260.3948419451
 10
1221.2665423445
 20
259.3155724301
 10
1220.9725710283
 20
258.2131878647
 10
1220.9725710283
 20
257.2206520968
 10
1221.2665423445
 20
256.4576795885
 10
1221.8190276976
 20
256.0162960844
 10
1222.5633892001
 20
255.9497389493
 10
1223.4098458694
 20
256.2660359559
  0
LINE
  5
1AA
330
1F
100
AcDbEntity
  8
0
  6
Continuous
 62
     7
370
    25
100
AcDbLine
 10
2579.6406521852
 20
1044.9172008771
 30
0.0
 11
2566.9127301239
 21
1037.5695278707
 31
0.0
  0
LWPOLYLINE
  5
1AB
330
1F
100
AcDbEntity
  8
0
  6
Continuous
 62
     7
370
    25
100
AcDbPolyline
 90
       10
 70
   128
 43
0.0
 10
2566.9127301239
 20
1037.5695278707
 10
2566.0662734546
 20
1036.9085268094
 10
2565.321911952
 20
1035.9825481767
 10
2564.7694265989
 20
1034.9032786617
 10
2564.4754552827
 20
1033.8008940962
 10
2564.4754552827
 20
1032.8083583284
 10
2564.7694265989
 20
1032.0453858201
 10
2565.321911952
 20
1031.604002316
 10
2566.0662734546
 20
1031.5374451809
 10
2566.9127301239
 20
1031.8537421875
  0
LINE
  5
1AC
330
1F
100
AcDbEntity
  8
0
  6
Continuous
 62
     7
370
    25
100
AcDbLine
 10
2566.9127301239
 20
1031.8537421875
 30
0.0
 11
2579.6406521852
 21
1039.2014151939
 31
0.0
  0
LWPOLYLINE
  5
1AD
330
1F
100
AcDbEntity
  8
0
  6
Continuous
 62
     7
370
    25
100
AcDbPolyline
 90
       10
 70
   128
 43
0.0
 10
2579.6406521852
 20
1039.2014151939
 10
2580.4871088545
 20
1039.8624162552
 10
2581.2314703571
 20
1040.7883948879
 10
2581.7839557101
 20
1041.8676644029
 10
2582.0779270263
 20
1042.9700489683
 10
2582.0779270263
 20
1043.9625847362
 10
2581.7839557101
 20
1044.7255572445
 10
2581.2314703571
 20
1045.1669407486
 10
2580.4871088545
 20
1045.2334978837
 10
2579.6406521852
 20
1044.9172008771
  0
LINE
  5
1AE
330
1F
100
AcDbEntity
  8
0
  6
Continuous
 62
     7
370
    25
100
AcDbLine
 10
2544.2853131259
 20
1024.5069980815
 30
0.0
 11
2531.5573910645
 21
1017.1593250751
 31
0.0
  0
LWPOLYLINE
  5
1AF
330
1F
100
AcDbEntity
  8
0
  6
Continuous
 62
     7
370
    25
100
AcDbPolyline
 90
       10
 70
   128
 43
0.0
 10
2531.5573910645
 20
1017.1593250751
 10
2530.7109343953
 20
1016.4983240138
 10
2529.9665728927
 20
1015.5723453811
 10
2529.4140875396
 20
1014.4930758661
 10
2529.1201162234
 20
1013.3906913007
 10
2529.1201162234
 20
1012.3981555329
 10
2529.4140875396
 20
1011.6351830245
 10
2529.9665728927
 20
1011.1937995204
 10
2530.7109343953
 20
1011.1272423853
 10
2531.5573910645
 20
1011.4435393919
  0
LINE
  5
1B0
330
1F
100
AcDbEntity
  8
0
  6
Continuous
 62
     7
370
    25
100
AcDbLine
 10
2531.5573910645
 20
1011.4435393919
 30
0.0
 11
2544.2853131259
 21
1018.7912123983
 31
0.0
  0
LWPOLYLINE
  5
1B1
330
1F
100
AcDbEntity
  8
0
  6
Continuous
 62
     7
370
    25
100
AcDbPolyline
 90
       10
 70
   128
 43
0.0
 10
2544.2853131259
 20
1018.7912123983
 10
2545.1317697952
 20
1019.4522134597
 10
2545.8761312977
 20
1020.3781920924
 10
2546.4286166508
 20
1021.4574616073
 10
2546.722587967
 20
1022.5598461728
 10
2546.722587967
 20
1023.5523819406
 10
2546.4286166508
 20
1024.3153544489
 10
2545.8761312977
 20
1024.756737953
 10
2545.1317697952
 20
1024.8232950882
 10
2544.2853131259
 20
1024.5069980815
  0
LINE
  5
1B2
330
1F
100
AcDbEntity
  8
0
  6
Continuous
 62
     7
370
    25
100
AcDbLine
 10
1188.0545068101
 20
235.8558331603
 30
0.0
 11
1200.7824288714
 21
243.2035061668
 31
0.0
  0
LWPOLYLINE
  5
1B3
330
1F
100
AcDbEntity
  8
0
  6
Continuous
 62
     7
370
    25
100
AcDbPolyline
 90
       10
 70
   128
 43
0.0
 10
1200.7824288714
 20
243.2035061668
 10
1201.6288855407
 20
243.8645072281
 10
1202.3732470433
 20
244.7904858608
 10
1202.9257323964
 20
245.8697553758
 10
1203.2197037126
 20
246.9721399412
 10
1203.2197037126
 20
247.964675709
 10
1202.9257323964
 20
248.7276482174
 10
1202.3732470433
 20
249.1690317215
 10
1201.6288855407
 20
249.2355888566
 10
1200.7824288714
 20
248.91929185
  0
LINE
  5
1B4
330
1F
100
AcDbEntity
  8
0
  6
Continuous
 62
     7
370
    25
100
AcDbLine
 10
1200.7824288714
 20
248.91929185
 30
0.0
 11
1188.0545068101
 21
241.5716188435
 31
0.0
  0
LWPOLYLINE
  5
1B5
330
1F
100
AcDbEntity
  8
0
  6
Continuous
 62
     7
370
    25
100
AcDbPolyline
 90
       10
 70
   128
 43
0.0
 10
1188.0545068101
 20
241.5716188435
 10
1187.2080501408
 20
240.9106177822
 10
1186.4636886382
 20
239.9846391495
 10
1185.9112032851
 20
238.9053696345
 10
1185.617231969
 20
237.8029850691
 10
1185.617231969
 20
236.8104493013
 10
1185.9112032851
 20
236.0474767929
 10
1186.4636886382
 20
235.6060932888
 10
1187.2080501408
 20
235.5395361537
 10
1188.0545068101
 20
235.8558331603
  0
LINE
  5
1B6
330
1F
100
AcDbEntity
  8
0
  6
Continuous
 62
     7
370
    25
100
AcDbLine
 10
1175.3265847487
 20
200.3372367438
 30
0.0
 11
1175.3265847487
 21
250.9627670807
 31
0.0
  0
LINE
  5
1B7
330
1F
100
AcDbEntity
  8
0
  6
Continuous
 62
     7
370
    25
100
AcDbLine
 10
1246.0370329992
 20
175.0283198771
 30
0.0
 11
1241.0875153991
 21
177.8856155684
 31
0.0
  0
LINE
  5
1B8
330
1F
100
AcDbEntity
  8
0
  6
Continuous
 62
     7
370
    25
100
AcDbLine
 10
1239.6733018367
 20
177.8856155684
 30
0.0
 11
1236.8451045801
 21
176.2529320449
 31
0.0
  0
ARC
  5
1B9
330
1F
100
AcDbEntity
  8
0
  6
Continuous
 62
     7
370
    25
100
AcDbCircle
 10
1240.3804086179
 20
176.5209044835
 30
0.0
 40
1.537021907912051
100
AcDbArc
 50
62.6096722366
 51
117.3903277634
  0
LWPOLYLINE
  5
1BA
330
1F
100
AcDbEntity
  8
0
  6
Continuous
 62
     7
370
    25
100
AcDbPolyline
 90
        3
 70
   128
 43
0.0
 10
1185.7467236845
 20
236.3491768694
 10
1185.7938365784
 20
236.3559442655
 10
1186.6402932477
 20
236.6722412722
  0
LINE
  5
1BB
330
1F
100
AcDbEntity
  8
0
  6
Continuous
 62
     7
370
    25
100
AcDbLine
 10
1186.6402932477
 20
236.6722412722
 30
0.0
 11
1199.3682153091
 21
244.0199142786
 31
0.0
  0
ARC
  5
1BC
330
1F
100
AcDbEntity
  8
0
  6
Continuous
 62
     7
370
    25
100
AcDbCircle
 10
1197.0655568798
 20
248.1585754524
 30
0.0
 40
4.736111501394072
100
AcDbArc
 50
299.0905834166
 51
13.2284026255
  0
LWPOLYLINE
  5
1BD
330
1F
100
AcDbEntity
  8
0
  6
Continuous
 62
     7
370
    25
100
AcDbPolyline
 90
        3
 70
   128
 43
0.0
 10
1185.7467236846
 20
215.9356565723
 10
1185.7938365784
 20
215.9424239684
 10
1186.6402932477
 20
216.258720975
  0
LINE
  5
1BE
330
1F
100
AcDbEntity
  8
0
  6
Continuous
 62
     7
370
    25
100
AcDbLine
 10
1175.3265847487
 20
200.3372367438
 30
0.0
 11
1175.3265847487
 21
197.8876143081
 31
0.0
  0
LINE
  5
1BF
330
1F
100
AcDbEntity
  8
0
  6
Continuous
 62
     7
370
    25
100
AcDbLine
 10
1175.3265847487
 20
197.8876143081
 30
0.0
 11
1177.4479050923
 21
196.6630021404
 31
0.0
  0
LWPOLYLINE
  5
1C0
330
1F
100
AcDbEntity
  8
0
  6
Continuous
 62
     7
370
    25
100
AcDbPolyline
 90
        3
 70
   128
 43
0.0
 10
1193.0042542784
 20
200.7450426995
 10
1192.3070507579
 20
200.1702316567
 10
1192.2776674425
 20
200.1328693157
  0
LINE
  5
1C1
330
1F
100
AcDbEntity
  8
0
  6
Continuous
 62
     7
370
    25
100
AcDbLine
 10
1186.6402932477
 20
216.258720975
 30
0.0
 11
1199.3682153091
 21
223.6063939814
 31
0.0
  0
LINE
  5
1C2
330
1F
100
AcDbEntity
  8
0
  6
Continuous
 62
     7
370
    25
100
AcDbLine
 10
1205.7321763397
 20
208.0927157059
 30
0.0
 11
1193.0042542784
 21
200.7450426995
 31
0.0
  0
ARC
  5
1C3
330
1F
100
AcDbEntity
  8
0
  6
Continuous
 62
     7
370
    25
100
AcDbCircle
 10
1197.0655568798
 20
227.7450551552
 30
0.0
 40
4.736111501398117
100
AcDbArc
 50
299.0905834166
 51
13.2284026254
  0
LWPOLYLINE
  5
1C4
330
1F
100
AcDbEntity
  8
0
  6
Continuous
 62
     7
370
    25
100
AcDbPolyline
 90
        3
 70
   128
 43
0.0
 10
1221.1020627439
 20
256.759379665
 10
1221.1491756378
 20
256.7661470611
 10
1221.995632307
 20
257.0824440677
  0
ARC
  5
1C5
330
1F
100
AcDbEntity
  8
0
  6
Continuous
 62
     7
370
    25
100
AcDbCircle
 10
1208.165040538
 20
204.0284861064
 30
0.0
 40
4.736748931932322
100
AcDbArc
 50
46.7843615553
 51
120.9049089467
  0
LINE
  5
1C6
330
1F
100
AcDbEntity
  8
0
  6
Continuous
 62
     7
370
    25
100
AcDbLine
 10
1221.995632307
 20
257.0824440677
 30
0.0
 11
1234.7235543684
 21
264.4301170741
 31
0.0
  0
ARC
  5
1C7
330
1F
100
AcDbEntity
  8
0
  6
Continuous
 62
     7
370
    25
100
AcDbCircle
 10
1232.4208959391
 20
268.568778248
 30
0.0
 40
4.736111501429134
100
AcDbArc
 50
299.0905834168
 51
13.2284026244
  0
LWPOLYLINE
  5
1C8
330
1F
100
AcDbEntity
  8
0
  6
Continuous
 62
     7
370
    25
100
AcDbPolyline
 90
        3
 70
   128
 43
0.0
 10
1221.1020627439
 20
236.3458593678
 10
1221.1491756378
 20
236.352626764
 10
1221.995632307
 20
236.6689237706
  0
LWPOLYLINE
  5
1C9
330
1F
100
AcDbEntity
  8
0
  6
Continuous
 62
     7
370
    25
100
AcDbPolyline
 90
        3
 70
   128
 43
0.0
 10
1228.3595933377
 20
221.155245495
 10
1227.6623898172
 20
220.5804344523
 10
1227.6330065018
 20
220.5430721113
  0
LINE
  5
1CA
330
1F
100
AcDbEntity
  8
0
  6
Continuous
 62
     7
370
    25
100
AcDbLine
 10
1221.995632307
 20
236.6689237706
 30
0.0
 11
1234.7235543684
 21
244.016596777
 31
0.0
  0
LINE
  5
1CB
330
1F
100
AcDbEntity
  8
0
  6
Continuous
 62
     7
370
    25
100
AcDbLine
 10
1241.0875153991
 20
228.5029185015
 30
0.0
 11
1228.3595933377
 21
221.155245495
 31
0.0
  0
ARC
  5
1CC
330
1F
100
AcDbEntity
  8
0
  6
Continuous
 62
     7
370
    25
100
AcDbCircle
 10
1232.4208959391
 20
248.1552579508
 30
0.0
 40
4.73611150142594
100
AcDbArc
 50
299.0905834167
 51
13.2284026245
  0
ARC
  5
1CD
330
1F
100
AcDbEntity
  8
0
  6
Continuous
 62
     7
370
    25
100
AcDbCircle
 10
1243.5203795973
 20
224.438688902
 30
0.0
 40
4.736748931967718
100
AcDbArc
 50
46.7843615564
 51
120.9049089465
  0
LWPOLYLINE
  5
1CE
330
1F
100
AcDbEntity
  8
0
  6
Continuous
 62
     7
370
    25
100
AcDbPolyline
 90
        3
 70
   128
 43
0.0
 10
2634.7949811178
 20
951.8457472289
 10
2633.9485244485
 20
951.5294502222
 10
2633.9014115546
 20
951.5226828261
  0
LINE
  5
1CF
330
1F
100
AcDbEntity
  8
0
  6
Continuous
 62
     7
370
    25
100
AcDbLine
 10
2647.5229031791
 20
959.1934202353
 30
0.0
 11
2634.7949811178
 21
951.8457472289
 31
0.0
  0
ARC
  5
1D0
330
1F
100
AcDbEntity
  8
0
  6
Continuous
 62
     7
370
    25
100
AcDbCircle
 10
2645.2202447498
 20
963.3320814091
 30
0.0
 40
4.736111501390685
100
AcDbArc
 50
299.0905834166
 51
13.2284026257
  0
LWPOLYLINE
  5
1D1
330
1F
100
AcDbEntity
  8
0
  6
Continuous
 62
     7
370
    25
100
AcDbPolyline
 90
        3
 70
   128
 43
0.0
 10
2634.7949811178
 20
931.4322269317
 10
2633.9485244485
 20
931.1159299251
 10
2633.9014115546
 20
931.1091625289
  0
LINE
  5
1D2
330
1F
100
AcDbEntity
  8
0
  6
Continuous
 62
     7
370
    25
100
AcDbLine
 10
2647.5229031791
 20
938.7798999381
 30
0.0
 11
2634.7949811178
 21
931.4322269317
 31
0.0
  0
ARC
  5
1D3
330
1F
100
AcDbEntity
  8
0
  6
Continuous
 62
     7
370
    25
100
AcDbCircle
 10
2645.2202447498
 20
942.9185611119
 30
0.0
 40
4.736111501390486
100
AcDbArc
 50
299.0905834166
 51
13.2284026257
  0
LWPOLYLINE
  5
1D4
330
1F
100
AcDbEntity
  8
0
  6
Continuous
 62
     7
370
    25
100
AcDbPolyline
 90
        3
 70
   128
 43
0.0
 10
2670.1503201771
 20
972.2559500244
 10
2669.3038635078
 20
971.9396530178
 10
2669.2567506139
 20
971.9328856217
  0
LINE
  5
1D5
330
1F
100
AcDbEntity
  8
0
  6
Continuous
 62
     7
370
    25
100
AcDbLine
 10
2682.8782422384
 20
979.6036230308
 30
0.0
 11
2670.1503201771
 21
972.2559500244
 31
0.0
  0
ARC
  5
1D6
330
1F
100
AcDbEntity
  8
0
  6
Continuous
 62
     7
370
    25
100
AcDbCircle
 10
2680.5755838091
 20
983.7422842047
 30
0.0
 40
4.736111501412962
100
AcDbArc
 50
299.0905834167
 51
13.228402625
  0
LWPOLYLINE
  5
1D7
330
1F
100
AcDbEntity
  8
0
  6
Continuous
 62
     7
370
    25
100
AcDbPolyline
 90
        3
 70
   128
 43
0.0
 10
2670.1503201771
 20
951.8424297273
 10
2669.3038635078
 20
951.5261327207
 10
2669.256750614
 20
951.5193653245
  0
LINE
  5
1D8
330
1F
100
AcDbEntity
  8
0
  6
Continuous
 62
     7
370
    25
100
AcDbLine
 10
2682.8782422384
 20
959.1901027337
 30
0.0
 11
2670.1503201771
 21
951.8424297273
 31
0.0
  0
ARC
  5
1D9
330
1F
100
AcDbEntity
  8
0
  6
Continuous
 62
     7
370
    25
100
AcDbCircle
 10
2680.5755838091
 20
963.3287639075
 30
0.0
 40
4.736111501395095
100
AcDbArc
 50
299.0905834166
 51
13.2284026255
  0
LWPOLYLINE
  5
1DA
330
1F
100
AcDbEntity
  8
0
  6
Continuous
 62
     7
370
    25
100
AcDbPolyline
 90
        3
 70
   128
 43
0.0
 10
2529.249607939
 20
1011.936883101
 10
2529.2967208329
 20
1011.9436504971
 10
2530.1431775022
 20
1012.2599475037
  0
LINE
  5
1DB
330
1F
100
AcDbEntity
  8
0
  6
Continuous
 62
     7
370
    25
100
AcDbLine
 10
2530.1431775022
 20
1012.2599475037
 30
0.0
 11
2542.8710995635
 21
1019.6076205101
 31
0.0
  0
ARC
  5
1DC
330
1F
100
AcDbEntity
  8
0
  6
Continuous
 62
     7
370
    25
100
AcDbCircle
 10
2540.5684411342
 20
1023.746281684
 30
0.0
 40
4.736111501407027
100
AcDbArc
 50
299.0905834166
 51
13.2284026251
  0
LWPOLYLINE
  5
1DD
330
1F
100
AcDbEntity
  8
0
  6
Continuous
 62
     7
370
    25
100
AcDbPolyline
 90
        3
 70
   128
 43
0.0
 10
2529.249607939
 20
991.5233628038
 10
2529.2967208329
 20
991.5301302
 10
2530.1431775022
 20
991.8464272066
  0
LWPOLYLINE
  5
1DE
330
1F
100
AcDbEntity
  8
0
  6
Continuous
 62
     7
370
    25
100
AcDbPolyline
 90
        3
 70
   128
 43
0.0
 10
2536.5071385328
 20
976.3327489311
 10
2535.8099350124
 20
975.7579378883
 10
2535.7805516969
 20
975.7205755472
  0
LINE
  5
1DF
330
1F
100
AcDbEntity
  8
0
  6
Continuous
 62
     7
370
    25
100
AcDbLine
 10
2530.1431775022
 20
991.8464272066
 30
0.0
 11
2542.8710995635
 21
999.194100213
 31
0.0
  0
LINE
  5
1E0
330
1F
100
AcDbEntity
  8
0
  6
Continuous
 62
     7
370
    25
100
AcDbLine
 10
2549.2350605942
 20
983.6804219375
 30
0.0
 11
2536.5071385328
 21
976.3327489311
 31
0.0
  0
ARC
  5
1E1
330
1F
100
AcDbEntity
  8
0
  6
Continuous
 62
     7
370
    25
100
AcDbCircle
 10
2540.5684411342
 20
1003.3327613868
 30
0.0
 40
4.73611150140536
100
AcDbArc
 50
299.0905834166
 51
13.2284026252
  0
LWPOLYLINE
  5
1E2
330
1F
100
AcDbEntity
  8
0
  6
Continuous
 62
     7
370
    25
100
AcDbPolyline
 90
        3
 70
   128
 43
0.0
 10
2564.6049469983
 20
1032.3470858965
 10
2564.6520598922
 20
1032.3538532927
 10
2565.4985165615
 20
1032.6701502993
  0
ARC
  5
1E3
330
1F
100
AcDbEntity
  8
0
  6
Continuous
 62
     7
370
    25
100
AcDbCircle
 10
2551.6679247925
 20
979.616192338
 30
0.0
 40
4.736748931990673
100
AcDbArc
 50
46.7843615571
 51
120.9049089464
  0
LINE
  5
1E4
330
1F
100
AcDbEntity
  8
0
  6
Continuous
 62
     7
370
    25
100
AcDbLine
 10
2565.4985165615
 20
1032.6701502993
 30
0.0
 11
2578.2264386228
 21
1040.0178233057
 31
0.0
  0
ARC
  5
1E5
330
1F
100
AcDbEntity
  8
0
  6
Continuous
 62
     7
370
    25
100
AcDbCircle
 10
2575.9237801935
 20
1044.1564844795
 30
0.0
 40
4.736111501406909
100
AcDbArc
 50
299.0905834166
 51
13.2284026251
  0
LWPOLYLINE
  5
1E6
330
1F
100
AcDbEntity
  8
0
  6
Continuous
 62
     7
370
    25
100
AcDbPolyline
 90
        3
 70
   128
 43
0.0
 10
2564.6049469983
 20
1011.9335655994
 10
2564.6520598922
 20
1011.9403329955
 10
2565.4985165615
 20
1012.2566300022
  0
LWPOLYLINE
  5
1E7
330
1F
100
AcDbEntity
  8
0
  6
Continuous
 62
     7
370
    25
100
AcDbPolyline
 90
        3
 70
   128
 43
0.0
 10
2571.8624775922
 20
996.7429517266
 10
2571.1652740717
 20
996.1681406838
 10
2571.1358907562
 20
996.1307783428
  0
LINE
  5
1E8
330
1F
100
AcDbEntity
  8
0
  6
Continuous
 62
     7
370
    25
100
AcDbLine
 10
2565.4985165615
 20
1012.2566300022
 30
0.0
 11
2578.2264386228
 21
1019.6043030086
 31
0.0
  0
LINE
  5
1E9
330
1F
100
AcDbEntity
  8
0
  6
Continuous
 62
     7
370
    25
100
AcDbLine
 10
2584.5903996535
 20
1004.090624733
 30
0.0
 11
2571.8624775922
 21
996.7429517266
 31
0.0
  0
ARC
  5
1EA
330
1F
100
AcDbEntity
  8
0
  6
Continuous
 62
     7
370
    25
100
AcDbCircle
 10
2575.9237801935
 20
1023.7429641824
 30
0.0
 40
4.736111501439308
100
AcDbArc
 50
299.0905834168
 51
13.2284026241
  0
ARC
  5
1EB
330
1F
100
AcDbEntity
  8
0
  6
Continuous
 62
     7
370
    25
100
AcDbCircle
 10
2587.0232638518
 20
1000.0263951336
 30
0.0
 40
4.736748931959572
100
AcDbArc
 50
46.7843615561
 51
120.9049089466
  0
ENDSEC
  0
SECTION
  2
OBJECTS
  0
DICTIONARY
  5
C
330
0
100
AcDbDictionary
281
     1
  3
ACAD_GROUP
350
D
  3
ACAD_LAYOUT
350
1A
  3
ACAD_MLINESTYLE
350
17
  3
ACAD_PLOTSETTINGS
350
19
  3
ACAD_PLOTSTYLENAME
350
E
  3
ACAD_SCALELIST
350
47
  0
DICTIONARY
  5
D
102
{ACAD_REACTORS
330
C
102
}
330
C
100
AcDbDictionary
281
     1
  0
DICTIONARY
  5
1A
102
{ACAD_REACTORS
330
C
102
}
330
C
100
AcDbDictionary
281
     1
  3
Layout1
350
1E
  3
Layout2
350
26
  3
Model
350
22
  0
DICTIONARY
  5
17
102
{ACAD_REACTORS
330
C
102
}
330
C
100
AcDbDictionary
281
     1
  3
Standard
350
18
  0
DICTIONARY
  5
19
102
{ACAD_REACTORS
330
C
102
}
330
C
100
AcDbDictionary
281
     1
  0
ACDBDICTIONARYWDFLT
  5
E
102
{ACAD_REACTORS
330
C
102
}
330
C
100
AcDbDictionary
281
     1
  3
Normal
350
F
100
AcDbDictionaryWithDefault
340
F
  0
DICTIONARY
  5
47
102
{ACAD_REACTORS
330
C
102
}
330
C
100
AcDbDictionary
281
     1
  3
A0
350
48
  3
A1
350
49
  3
A2
350
4A
  3
A3
350
4B
  3
A4
350
4C
  3
A5
350
4D
  3
A6
350
4E
  3
A7
350
4F
  3
A8
350
50
  3
A9
350
51
  3
B0
350
52
  3
B1
350
53
  3
B2
350
54
  3
B3
350
55
  3
B4
350
56
  3
B5
350
57
  3
B6
350
58
  3
B7
350
59
  3
B8
350
5A
  3
B9
350
5B
  3
C0
350
5C
  3
C1
350
5D
  3
C2
350
5E
  3
C3
350
5F
  3
C4
350
60
  3
C5
350
61
  3
C6
350
62
  3
C7
350
63
  3
C8
350
64
  3
C9
350
65
  3
D0
350
66
  3
D1
350
67
  3
D2
350
68
  0
LAYOUT
  5
1E
102
{ACAD_REACTORS
330
1A
102
}
330
1A
100
AcDbPlotSettings
  1

  2
none_device
  4

  6

 40
0.0
 41
0.0
 42
0.0
 43
0.0
 44
0.0
 45
0.0
 46
0.0
 47
0.0
 48
0.0
 49
0.0
140
0.0
141
0.0
142
1.0
143
1.0
 70
   688
 72
     1
 73
     0
 74
     5
  7

 75
    16
147
1.0
148
0.0
149
0.0
100
AcDbLayout
  1
Layout1
 70
     1
 71
     1
 10
0.0
 20
0.0
 11
420.0
 21
297.0
 12
0.0
 22
0.0
 32
0.0
 14
1.0000000000E+20
 24
1.0000000000E+20
 34
1.0000000000E+20
 15
-1.0000000000E+20
 25
-1.0000000000E+20
 35
-1.0000000000E+20
146
0.0
 13
0.0
 23
0.0
 33
0.0
 16
1.0
 26
0.0
 36
0.0
 17
0.0
 27
1.0
 37
0.0
 76
     0
330
1B
  0
LAYOUT
  5
26
102
{ACAD_REACTORS
330
1A
102
}
330
1A
100
AcDbPlotSettings
  1

  2
none_device
  4

  6

 40
0.0
 41
0.0
 42
0.0
 43
0.0
 44
0.0
 45
0.0
 46
0.0
 47
0.0
 48
0.0
 49
0.0
140
0.0
141
0.0
142
1.0
143
1.0
 70
   688
 72
     1
 73
     0
 74
     5
  7

 75
    16
147
1.0
148
0.0
149
0.0
100
AcDbLayout
  1
Layout2
 70
     1
 71
     2
 10
0.0
 20
0.0
 11
0.0
 21
0.0
 12
0.0
 22
0.0
 32
0.0
 14
0.0
 24
0.0
 34
0.0
 15
0.0
 25
0.0
 35
0.0
146
0.0
 13
0.0
 23
0.0
 33
0.0
 16
1.0
 26
0.0
 36
0.0
 17
0.0
 27
1.0
 37
0.0
 76
     0
330
23
  0
LAYOUT
  5
22
102
{ACAD_REACTORS
330
1A
102
}
330
1A
100
AcDbPlotSettings
  1

  2
none_device
  4
Letter_(8.50_x_11.00_Inches)
  6

 40
6.35
 41
6.35
 42
6.35000508
 43
6.35000508
 44
215.9
 45
279.4
 46
0.0
 47
0.0
 48
0.0
 49
0.0
140
0.0
141
0.0
142
1.0
143
1.0
 70
  1712
 72
     1
 73
     0
 74
     0
  7

 75
     0
147
1.0
148
0.0
149
0.0
100
AcDbLayout
  1
Model
 70
     1
 71
     0
 10
0.0
 20
0.0
 11
3000.0
 21
2500.0
 12
0.0
 22
0.0
 32
0.0
 14
0.0
 24
0.0
 34
0.0
 15
3000.0
 25
2500.0
 35
0.0
146
0.0
 13
0.0
 23
0.0
 33
0.0
 16
1.0
 26
0.0
 36
0.0
 17
0.0
 27
1.0
 37
0.0
 76
     0
330
1F
331
29
  0
MLINESTYLE
  5
18
102
{ACAD_REACTORS
330
17
102
}
330
17
100
AcDbMlineStyle
  2
Standard
 70
     0
  3

 62
   256
 51
90.0
 52
90.0
 71
     2
 49
0.5
 62
   256
  6
BYLAYER
 49
-0.5
 62
   256
  6
BYLAYER
  0
ACDBPLACEHOLDER
  5
F
102
{ACAD_REACTORS
330
E
102
}
330
E
  0
SCALE
  5
48
102
{ACAD_REACTORS
330
47
102
}
330
47
100
AcDbScale
 70
     0
300
1:1
140
1.0
141
1.0
290
     1
  0
SCALE
  5
49
102
{ACAD_REACTORS
330
47
102
}
330
47
100
AcDbScale
 70
     0
300
1:2
140
1.0
141
2.0
290
     0
  0
SCALE
  5
4A
102
{ACAD_REACTORS
330
47
102
}
330
47
100
AcDbScale
 70
     0
300
1:4
140
1.0
141
4.0
290
     0
  0
SCALE
  5
4B
102
{ACAD_REACTORS
330
47
102
}
330
47
100
AcDbScale
 70
     0
300
1:5
140
1.0
141
5.0
290
     0
  0
SCALE
  5
4C
102
{ACAD_REACTORS
330
47
102
}
330
47
100
AcDbScale
 70
     0
300
1:8
140
1.0
141
8.0
290
     0
  0
SCALE
  5
4D
102
{ACAD_REACTORS
330
47
102
}
330
47
100
AcDbScale
 70
     0
300
1:10
140
1.0
141
10.0
290
     0
  0
SCALE
  5
4E
102
{ACAD_REACTORS
330
47
102
}
330
47
100
AcDbScale
 70
     0
300
1:16
140
1.0
141
16.0
290
     0
  0
SCALE
  5
4F
102
{ACAD_REACTORS
330
47
102
}
330
47
100
AcDbScale
 70
     0
300
1:20
140
1.0
141
20.0
290
     0
  0
SCALE
  5
50
102
{ACAD_REACTORS
330
47
102
}
330
47
100
AcDbScale
 70
     0
300
1:30
140
1.0
141
30.0
290
     0
  0
SCALE
  5
51
102
{ACAD_REACTORS
330
47
102
}
330
47
100
AcDbScale
 70
     0
300
1:40
140
1.0
141
40.0
290
     0
  0
SCALE
  5
52
102
{ACAD_REACTORS
330
47
102
}
330
47
100
AcDbScale
 70
     0
300
1:50
140
1.0
141
50.0
290
     0
  0
SCALE
  5
53
102
{ACAD_REACTORS
330
47
102
}
330
47
100
AcDbScale
 70
     0
300
1:100
140
1.0
141
100.0
290
     0
  0
SCALE
  5
54
102
{ACAD_REACTORS
330
47
102
}
330
47
100
AcDbScale
 70
     0
300
2:1
140
2.0
141
1.0
290
     0
  0
SCALE
  5
55
102
{ACAD_REACTORS
330
47
102
}
330
47
100
AcDbScale
 70
     0
300
4:1
140
4.0
141
1.0
290
     0
  0
SCALE
  5
56
102
{ACAD_REACTORS
330
47
102
}
330
47
100
AcDbScale
 70
     0
300
8:1
140
8.0
141
1.0
290
     0
  0
SCALE
  5
57
102
{ACAD_REACTORS
330
47
102
}
330
47
100
AcDbScale
 70
     0
300
10:1
140
10.0
141
1.0
290
     0
  0
SCALE
  5
58
102
{ACAD_REACTORS
330
47
102
}
330
47
100
AcDbScale
 70
     0
300
100:1
140
100.0
141
1.0
290
     0
  0
SCALE
  5
59
102
{ACAD_REACTORS
330
47
102
}
330
47
100
AcDbScale
 70
     0
300
1/128" = 1'-0"
140
0.0078125
141
12.0
290
     0
  0
SCALE
  5
5A
102
{ACAD_REACTORS
330
47
102
}
330
47
100
AcDbScale
 70
     0
300
1/64" = 1'-0"
140
0.015625
141
12.0
290
     0
  0
SCALE
  5
5B
102
{ACAD_REACTORS
330
47
102
}
330
47
100
AcDbScale
 70
     0
300
1/32" = 1'-0"
140
0.03125
141
12.0
290
     0
  0
SCALE
  5
5C
102
{ACAD_REACTORS
330
47
102
}
330
47
100
AcDbScale
 70
     0
300
1/16" = 1'-0"
140
0.0625
141
12.0
290
     0
  0
SCALE
  5
5D
102
{ACAD_REACTORS
330
47
102
}
330
47
100
AcDbScale
 70
     0
300
3/32" = 1'-0"
140
0.09375
141
12.0
290
     0
  0
SCALE
  5
5E
102
{ACAD_REACTORS
330
47
102
}
330
47
100
AcDbScale
 70
     0
300
1/8" = 1'-0"
140
0.125
141
12.0
290
     0
  0
SCALE
  5
5F
102
{ACAD_REACTORS
330
47
102
}
330
47
100
AcDbScale
 70
     0
300
3/16" = 1'-0"
140
0.1875
141
12.0
290
     0
  0
SCALE
  5
60
102
{ACAD_REACTORS
330
47
102
}
330
47
100
AcDbScale
 70
     0
300
1/4" = 1'-0"
140
0.25
141
12.0
290
     0
  0
SCALE
  5
61
102
{ACAD_REACTORS
330
47
102
}
330
47
100
AcDbScale
 70
     0
300
3/8" = 1'-0"
140
0.375
141
12.0
290
     0
  0
SCALE
  5
62
102
{ACAD_REACTORS
330
47
102
}
330
47
100
AcDbScale
 70
     0
300
1/2" = 1'-0"
140
0.5
141
12.0
290
     0
  0
SCALE
  5
63
102
{ACAD_REACTORS
330
47
102
}
330
47
100
AcDbScale
 70
     0
300
3/4" = 1'-0"
140
0.75
141
12.0
290
     0
  0
SCALE
  5
64
102
{ACAD_REACTORS
330
47
102
}
330
47
100
AcDbScale
 70
     0
300
1" = 1'-0"
140
1.0
141
12.0
290
     0
  0
SCALE
  5
65
102
{ACAD_REACTORS
330
47
102
}
330
47
100
AcDbScale
 70
     0
300
1-1/2" = 1'-0"
140
1.5
141
12.0
290
     0
  0
SCALE
  5
66
102
{ACAD_REACTORS
330
47
102
}
330
47
100
AcDbScale
 70
     0
300
3" = 1'-0"
140
3.0
141
12.0
290
     0
  0
SCALE
  5
67
102
{ACAD_REACTORS
330
47
102
}
330
47
100
AcDbScale
 70
     0
300
6" = 1'-0"
140
6.0
141
12.0
290
     0
  0
SCALE
  5
68
102
{ACAD_REACTORS
330
47
102
}
330
47
100
AcDbScale
 70
     0
300
1'-0" = 1'-0"
140
12.0
141
12.0
290
     0
  0
ENDSEC
  0
EOF
