  0
SECTION
  2
HEADER
  9
$ACADVER
  1
AC1015
  9
$ACADMAINTVER
 70
     6
  9
$DWGCODEPAGE
  3
ANSI_1251
  9
$INSBASE
 10
0.0
 20
0.0
 30
0.0
  9
$EXTMIN
 10
0.0
 20
0.0
 30
0.0
  9
$EXTMAX
 10
210.0
 20
148.0
 30
0.0
  9
$LIMMIN
 10
0.0
 20
0.0
  9
$LIMMAX
 10
210.0
 20
148.0
  9
$ORTHOMODE
 70
     0
  9
$REGENMODE
 70
     1
  9
$FILLMODE
 70
     1
  9
$QTEXTMODE
 70
     0
  9
$MIRRTEXT
 70
     1
  9
$LTSCALE
 40
1.0
  9
$ATTMODE
 70
     1
  9
$TEXTSIZE
 40
3.5
  9
$TRACEWID
 40
1.0
  9
$TEXTSTYLE
  7
Standard
  9
$CLAYER
  8
0
  9
$CELTYPE
  6
ByLayer
  9
$CECOLOR
 62
   256
  9
$CELTSCALE
 40
1.0
  9
$DISPSILH
 70
     0
  9
$DIMSCALE
 40
1.0
  9
$DIMASZ
 40
3.302
  9
$DIMEXO
 40
0.0
  9
$DIMDLI
 40
3.75
  9
$DIMRND
 40
0.0
  9
$DIMDLE
 40
0.0
  9
$DIMEXE
 40
1.0
  9
$DIMTP
 40
0.0
  9
$DIMTM
 40
0.0
  9
$DIMTXT
 40
3.5
  9
$DIMCEN
 40
2.5
  9
$DIMTSZ
 40
0.0
  9
$DIMTOL
 70
     0
  9
$DIMLIM
 70
     0
  9
$DIMTIH
 70
     1
  9
$DIMTOH
 70
     1
  9
$DIMSE1
 70
     0
  9
$DIMSE2
 70
     0
  9
$DIMTAD
 70
     1
  9
$DIMZIN
 70
     1
  9
$DIMBLK
  1

  9
$DIMASO
 70
     1
  9
$DIMSHO
 70
     1
  9
$DIMPOST
  1

  9
$DIMAPOST
  1

  9
$DIMALT
 70
     0
  9
$DIMALTD
 70
     3
  9
$DIMALTF
 40
0.0393700787
  9
$DIMLFAC
 40
1.0
  9
$DIMTOFL
 70
     1
  9
$DIMTVP
 40
0.0
  9
$DIMTIX
 70
     0
  9
$DIMSOXD
 70
     0
  9
$DIMSAH
 70
     0
  9
$DIMBLK1
  1

  9
$DIMBLK2
  1

  9
$DIMSTYLE
  2
ISO-25
  9
$DIMCLRD
 70
     0
  9
$DIMCLRE
 70
     0
  9
$DIMCLRT
 70
     0
  9
$DIMTFAC
 40
1.0
  9
$DIMGAP
 40
1.524
  9
$DIMJUST
 70
     0
  9
$DIMSD1
 70
     0
  9
$DIMSD2
 70
     0
  9
$DIMTOLJ
 70
     0
  9
$DIMTZIN
 70
     1
  9
$DIMALTZ
 70
     0
  9
$DIMALTTZ
 70
     0
  9
$DIMUPT
 70
     0
  9
$DIMDEC
 70
     2
  9
$DIMTDEC
 70
     2
  9
$DIMALTU
 70
     2
  9
$DIMALTTD
 70
     3
  9
$DIMTXSTY
  7
Standard
  9
$DIMAUNIT
 70
     0
  9
$DIMADEC
 70
     2
  9
$DIMALTRND
 40
0.0
  9
$DIMAZIN
 70
     0
  9
$DIMDSEP
 70
    44
  9
$DIMATFIT
 70
     3
  9
$DIMFRAC
 70
     0
  9
$DIMLDRBLK
  1

  9
$DIMLUNIT
 70
     2
  9
$DIMLWD
 70
    -2
  9
$DIMLWE
 70
    -2
  9
$DIMTMOVE
 70
     0
  9
$LUNITS
 70
     2
  9
$LUPREC
 70
     2
  9
$SKETCHINC
 40
1.0
  9
$FILLETRAD
 40
0.0
  9
$AUNITS
 70
     0
  9
$AUPREC
 70
     2
  9
$MENU
  1
.
  9
$ELEVATION
 40
0.0
  9
$PELEVATION
 40
0.0
  9
$THICKNESS
 40
0.0
  9
$LIMCHECK
 70
     0
  9
$CHAMFERA
 40
0.0
  9
$CHAMFERB
 40
0.0
  9
$CHAMFERC
 40
0.0
  9
$CHAMFERD
 40
0.0
  9
$SKPOLY
 70
     0
  9
$TDCREATE
 40
2459912.59728662
  9
$TDUCREATE
 40
2459912.47228662
  9
$TDUPDATE
 40
2459912.597287338
  9
$TDUUPDATE
 40
2459912.472287338
  9
$TDINDWG
 40
0.0000000116
  9
$TDUSRTIMER
 40
0.0000000116
  9
$USRTIMER
 70
     1
  9
$ANGBASE
 50
0.0
  9
$ANGDIR
 70
     0
  9
$PDMODE
 70
     0
  9
$PDSIZE
 40
-1.0
  9
$PLINEWID
 40
0.0
  9
$SPLFRAME
 70
     0
  9
$SPLINETYPE
 70
     6
  9
$SPLINESEGS
 70
     8
  9
$HANDSEED
  5
19C
  9
$SURFTAB1
 70
     6
  9
$SURFTAB2
 70
     6
  9
$SURFTYPE
 70
     6
  9
$SURFU
 70
     6
  9
$SURFV
 70
     6
  9
$UCSBASE
  2

  9
$UCSNAME
  2

  9
$UCSORG
 10
0.0
 20
0.0
 30
0.0
  9
$UCSXDIR
 10
1.0
 20
0.0
 30
0.0
  9
$UCSYDIR
 10
0.0
 20
1.0
 30
0.0
  9
$UCSORTHOREF
  2

  9
$UCSORTHOVIEW
 70
     0
  9
$UCSORGTOP
 10
0.0
 20
0.0
 30
0.0
  9
$UCSORGBOTTOM
 10
0.0
 20
0.0
 30
0.0
  9
$UCSORGLEFT
 10
0.0
 20
0.0
 30
0.0
  9
$UCSORGRIGHT
 10
0.0
 20
0.0
 30
0.0
  9
$UCSORGFRONT
 10
0.0
 20
0.0
 30
0.0
  9
$UCSORGBACK
 10
0.0
 20
0.0
 30
0.0
  9
$PUCSBASE
  2

  9
$PUCSNAME
  2

  9
$PUCSORG
 10
0.0
 20
0.0
 30
0.0
  9
$PUCSXDIR
 10
1.0
 20
0.0
 30
0.0
  9
$PUCSYDIR
 10
0.0
 20
1.0
 30
0.0
  9
$PUCSORTHOREF
  2

  9
$PUCSORTHOVIEW
 70
     0
  9
$PUCSORGTOP
 10
0.0
 20
0.0
 30
0.0
  9
$PUCSORGBOTTOM
 10
0.0
 20
0.0
 30
0.0
  9
$PUCSORGLEFT
 10
0.0
 20
0.0
 30
0.0
  9
$PUCSORGRIGHT
 10
0.0
 20
0.0
 30
0.0
  9
$PUCSORGFRONT
 10
0.0
 20
0.0
 30
0.0
  9
$PUCSORGBACK
 10
0.0
 20
0.0
 30
0.0
  9
$USERI1
 70
     0
  9
$USERI2
 70
     0
  9
$USERI3
 70
     0
  9
$USERI4
 70
     0
  9
$USERI5
 70
     0
  9
$USERR1
 40
0.0
  9
$USERR2
 40
0.0
  9
$USERR3
 40
0.0
  9
$USERR4
 40
0.0
  9
$USERR5
 40
0.0
  9
$WORLDVIEW
 70
     1
  9
$SHADEDGE
 70
     3
  9
$SHADEDIF
 70
    70
  9
$TILEMODE
 70
     1
  9
$MAXACTVP
 70
    64
  9
$PINSBASE
 10
0.0
 20
0.0
 30
0.0
  9
$PLIMCHECK
 70
     0
  9
$PEXTMIN
 10
1.0000000000E+20
 20
1.0000000000E+20
 30
1.0000000000E+20
  9
$PEXTMAX
 10
-1.0000000000E+20
 20
-1.0000000000E+20
 30
-1.0000000000E+20
  9
$PLIMMIN
 10
0.0
 20
0.0
  9
$PLIMMAX
 10
420.0
 20
297.0
  9
$UNITMODE
 70
     0
  9
$VISRETAIN
 70
     1
  9
$PLINEGEN
 70
     0
  9
$PSLTSCALE
 70
     1
  9
$TREEDEPTH
 70
  3020
  9
$CMLSTYLE
  2
Standard
  9
$CMLJUST
 70
     0
  9
$CMLSCALE
 40
20.0
  9
$PROXYGRAPHICS
 70
     1
  9
$MEASUREMENT
 70
     1
  9
$CELWEIGHT
370
    -1
  9
$ENDCAPS
280
     0
  9
$JOINSTYLE
280
     0
  9
$LWDISPLAY
290
     1
  9
$INSUNITS
 70
     4
  9
$HYPERLINKBASE
  1

  9
$STYLESHEET
  1

  9
$XEDIT
290
     1
  9
$CEPSNTYPE
380
     0
  9
$PSTYLEMODE
290
     1
  9
$FINGERPRINTGUID
  2
{addd94b1-6ece-44d2-9e3a-63cdc293df77}
  9
$VERSIONGUID
  2
{FAEB1C32-E019-11D5-929B-00C0DF256EC4}
  9
$EXTNAMES
290
     1
  9
$PSVPSCALE
 40
0.0
  9
$OLESTARTUP
290
     0
  0
ENDSEC
  0
SECTION
  2
CLASSES
  0
CLASS
  1
ACDBDICTIONARYWDFLT
  2
AcDbDictionaryWithDefault
  3
ObjectDBX Classes
 90
        0
280
     0
281
     0
  0
CLASS
  1
VISUALSTYLE
  2
AcDbVisualStyle
  3
ObjectDBX Classes
 90
     4095
280
     0
281
     0
  0
CLASS
  1
MATERIAL
  2
AcDbMaterial
  3
ObjectDBX Classes
 90
     1153
280
     0
281
     0
  0
CLASS
  1
SCALE
  2
AcDbScale
  3
ObjectDBX Classes
 90
     1153
280
     0
281
     0
  0
CLASS
  1
TABLESTYLE
  2
AcDbTableStyle
  3
ObjectDBX Classes
 90
     4095
280
     0
281
     0
  0
CLASS
  1
MLEADERSTYLE
  2
AcDbMLeaderStyle
  3
ACDB_MLEADERSTYLE_CLASS
 90
     4095
280
     0
281
     0
  0
CLASS
  1
SUN
  2
AcDbSun
  3
SCENEOE
 90
     1153
280
     0
281
     0
  0
CLASS
  1
ACDBPLACEHOLDER
  2
AcDbPlaceHolder
  3
ObjectDBX Classes
 90
        0
280
     0
281
     0
  0
CLASS
  1
LAYOUT
  2
AcDbLayout
  3
ObjectDBX Classes
 90
        0
280
     0
281
     0
  0
ENDSEC
  0
SECTION
  2
TABLES
  0
TABLE
  2
VPORT
  5
8
330
0
100
AcDbSymbolTable
 70
     1
  0
VPORT
  5
29
330
8
100
AcDbSymbolTableRecord
100
AcDbViewportTableRecord
  2
*Active
 70
     0
 10
0.0
 20
0.0
 11
1.0
 21
1.0
 12
105.0
 22
74.0
 13
0.0
 23
0.0
 14
10.0
 24
10.0
 15
10.0
 25
10.0
 16
0.0
 26
0.0
 36
1.0
 17
0.0
 27
0.0
 37
0.0
 40
148.0
 41
1.4189189189
 42
50.0
 43
0.0
 44
0.0
 50
0.0
 51
0.0
 71
     0
 72
  2000
 73
     1
 74
     3
 75
     0
 76
     0
 77
     0
 78
     0
281
     0
 65
     1
110
0.0
120
0.0
130
0.0
111
1.0
121
0.0
131
0.0
112
0.0
122
1.0
132
0.0
 79
     0
146
0.0
  0
ENDTAB
  0
TABLE
  2
LTYPE
  5
5
330
0
100
AcDbSymbolTable
 70
     6
  0
LTYPE
  5
14
330
5
100
AcDbSymbolTableRecord
100
AcDbLinetypeTableRecord
  2
ByBlock
 70
     0
  3

 72
    65
 73
     0
 40
0.0
  0
LTYPE
  5
15
330
5
100
AcDbSymbolTableRecord
100
AcDbLinetypeTableRecord
  2
ByLayer
 70
     0
  3

 72
    65
 73
     0
 40
0.0
  0
LTYPE
  5
16
330
5
100
AcDbSymbolTableRecord
100
AcDbLinetypeTableRecord
  2
Continuous
 70
     0
  3
Solid line
 72
    65
 73
     0
 40
0.0
  0
LTYPE
  5
5E
330
5
100
AcDbSymbolTableRecord
100
AcDbLinetypeTableRecord
  2
HIDDEN
 70
     0
  3
Hidden __ __ __ __ __ __ __ __ __ __ __ __ __ __
 72
    65
 73
     2
 40
1.905
 49
1.27
 74
     0
 49
-0.635
 74
     0
  0
LTYPE
  5
5F
330
5
100
AcDbSymbolTableRecord
100
AcDbLinetypeTableRecord
  2
PHANTOM
 70
     0
  3
Phantom ______  __  __  ______  __  __  ______
 72
    65
 73
     6
 40
12.7
 49
6.35
 74
     0
 49
-1.27
 74
     0
 49
1.27
 74
     0
 49
-1.27
 74
     0
 49
1.27
 74
     0
 49
-1.27
 74
     0
  0
LTYPE
  5
60
330
5
100
AcDbSymbolTableRecord
100
AcDbLinetypeTableRecord
  2
CENTER
 70
     0
  3
Center ____ _ ____ _ ____ _ ____ _ ____ _ ____
 72
    65
 73
     4
 40
10.16
 49
6.35
 74
     0
 49
-1.27
 74
     0
 49
1.27
 74
     0
 49
-1.27
 74
     0
  0
LTYPE
  5
61
330
5
100
AcDbSymbolTableRecord
100
AcDbLinetypeTableRecord
  2
CENTERX2
 70
     0
  3
Center (2x) ________  __  ________  __  _____
 72
    65
 73
     4
 40
20.32
 49
12.7
 74
     0
 49
-2.54
 74
     0
 49
2.54
 74
     0
 49
-2.54
 74
     0
  0
LTYPE
  5
62
330
5
100
AcDbSymbolTableRecord
100
AcDbLinetypeTableRecord
  2
DOT2
 70
     0
  3
Dot (.5x) ........................................
 72
    65
 73
     2
 40
0.635
 49
0.0
 74
     0
 49
-0.635
 74
     0
  0
ENDTAB
  0
TABLE
  2
LAYER
  5
2
330
0
100
AcDbSymbolTable
 70
     1
  0
LAYER
  5
10
330
2
100
AcDbSymbolTableRecord
100
AcDbLayerTableRecord
  2
0
 70
     0
 62
     7
  6
Continuous
370
    -3
390
F
  0
ENDTAB
  0
TABLE
  2
STYLE
  5
3
330
0
100
AcDbSymbolTable
 70
     1
  0
STYLE
  5
11
330
3
100
AcDbSymbolTableRecord
100
AcDbTextStyleTableRecord
  2
Standard
 70
     0
 40
0.0
 41
1.0
 50
0.0
 71
     0
 42
3.5
  3
txt
  4

  0
ENDTAB
  0
TABLE
  2
VIEW
  5
6
330
0
100
AcDbSymbolTable
 70
     0
  0
ENDTAB
  0
TABLE
  2
UCS
  5
7
330
0
100
AcDbSymbolTable
 70
     0
  0
ENDTAB
  0
TABLE
  2
APPID
  5
9
330
0
100
AcDbSymbolTable
 70
     1
  0
APPID
  5
12
330
9
100
AcDbSymbolTableRecord
100
AcDbRegAppTableRecord
  2
ACAD
 70
     0
  0
ENDTAB
  0
TABLE
  2
DIMSTYLE
  5
A
330
0
100
AcDbSymbolTable
 70
     1
100
AcDbDimStyleTable
  0
DIMSTYLE
105
27
330
A
100
AcDbSymbolTableRecord
100
AcDbDimStyleTableRecord
  2
ISO-25
 70
     0
 41
2.5
 42
0.625
 43
3.75
 44
1.25
 73
     0
 74
     0
 77
     1
 78
     8
140
2.5
141
2.5
143
0.0393700787
147
0.625
171
     3
172
     1
178
     0
271
     2
272
     2
274
     3
278
    44
283
     0
284
     8
340
11
  0
ENDTAB
  0
TABLE
  2
BLOCK_RECORD
  5
1
330
0
100
AcDbSymbolTable
 70
     3
  0
BLOCK_RECORD
  5
1F
330
1
100
AcDbSymbolTableRecord
100
AcDbBlockTableRecord
  2
*Model_Space
340
22
  0
BLOCK_RECORD
  5
1B
330
1
100
AcDbSymbolTableRecord
100
AcDbBlockTableRecord
  2
*Paper_Space
340
1E
  0
BLOCK_RECORD
  5
23
330
1
100
AcDbSymbolTableRecord
100
AcDbBlockTableRecord
  2
*Paper_Space0
340
26
  0
BLOCK_RECORD
  5
C2
330
1
100
AcDbSymbolTableRecord
100
AcDbBlockTableRecord
  2
SW_CENTERMARKSYMBOL_0
340
0
102
{BLKREFS
331
CD
102
}
  0
BLOCK_RECORD
  5
124
330
1
100
AcDbSymbolTableRecord
100
AcDbBlockTableRecord
  2
SW_CENTERMARKSYMBOL_1
340
0
102
{BLKREFS
331
12F
102
}
  0
ENDTAB
  0
ENDSEC
  0
SECTION
  2
BLOCKS
  0
BLOCK
  5
20
330
1F
100
AcDbEntity
  8
0
100
AcDbBlockBegin
  2
*Model_Space
 70
     0
 10
0.0
 20
0.0
 30
0.0
  3
*Model_Space
  1

  0
ENDBLK
  5
21
330
1F
100
AcDbEntity
  8
0
100
AcDbBlockEnd
  0
BLOCK
  5
1C
330
1B
100
AcDbEntity
 67
     1
  8
0
100
AcDbBlockBegin
  2
*Paper_Space
 70
     0
 10
0.0
 20
0.0
 30
0.0
  3
*Paper_Space
  1

  0
ENDBLK
  5
1D
330
1B
100
AcDbEntity
 67
     1
  8
0
100
AcDbBlockEnd
  0
BLOCK
  5
24
330
23
100
AcDbEntity
  8
0
100
AcDbBlockBegin
  2
*Paper_Space0
 70
     0
 10
0.0
 20
0.0
 30
0.0
  3
*Paper_Space0
  1

  0
ENDBLK
  5
25
330
23
100
AcDbEntity
  8
0
100
AcDbBlockEnd
  0
BLOCK
  5
C3
330
C2
100
AcDbEntity
  8
0
100
AcDbBlockBegin
  2
SW_CENTERMARKSYMBOL_0
 70
     0
 10
0.0
 20
0.0
 30
0.0
  3
SW_CENTERMARKSYMBOL_0
  1

  0
LINE
  5
C5
330
C2
100
AcDbEntity
  8
0
  6
Continuous
 62
     0
370
    18
100
AcDbLine
 10
0.0
 20
0.0
 30
0.0
 11
0.0
 21
2.5
 31
0.0
  0
LINE
  5
C6
330
C2
100
AcDbEntity
  8
0
  6
Continuous
 62
     0
370
    18
100
AcDbLine
 10
0.0
 20
0.0
 30
0.0
 11
-2.5
 21
0.0
 31
0.0
  0
LINE
  5
C7
330
C2
100
AcDbEntity
  8
0
  6
Continuous
 62
     0
370
    18
100
AcDbLine
 10
0.0
 20
0.0
 30
0.0
 11
0.0
 21
-2.5
 31
0.0
  0
LINE
  5
C8
330
C2
100
AcDbEntity
  8
0
  6
Continuous
 62
     0
370
    18
100
AcDbLine
 10
0.0
 20
0.0
 30
0.0
 11
2.5
 21
0.0
 31
0.0
  0
LINE
  5
C9
330
C2
100
AcDbEntity
  8
0
  6
Continuous
 62
     0
370
    18
100
AcDbLine
 10
0.0
 20
2.5
 30
0.0
 11
0.0
 21
4.5
 31
0.0
  0
LINE
  5
CA
330
C2
100
AcDbEntity
  8
0
  6
Continuous
 62
     0
370
    18
100
AcDbLine
 10
-2.5
 20
0.0
 30
0.0
 11
-4.5
 21
0.0
 31
0.0
  0
LINE
  5
CB
330
C2
100
AcDbEntity
  8
0
  6
Continuous
 62
     0
370
    18
100
AcDbLine
 10
0.0
 20
-2.5
 30
0.0
 11
0.0
 21
-4.5
 31
0.0
  0
LINE
  5
CC
330
C2
100
AcDbEntity
  8
0
  6
Continuous
 62
     0
370
    18
100
AcDbLine
 10
2.5
 20
0.0
 30
0.0
 11
4.5
 21
0.0
 31
0.0
  0
ENDBLK
  5
C4
330
C2
100
AcDbEntity
  8
0
100
AcDbBlockEnd
  0
BLOCK
  5
125
330
124
100
AcDbEntity
  8
0
100
AcDbBlockBegin
  2
SW_CENTERMARKSYMBOL_1
 70
     0
 10
0.0
 20
0.0
 30
0.0
  3
SW_CENTERMARKSYMBOL_1
  1

  0
LINE
  5
127
330
124
100
AcDbEntity
  8
0
  6
Continuous
 62
     0
370
    18
100
AcDbLine
 10
0.0
 20
0.0
 30
0.0
 11
0.0
 21
2.5
 31
0.0
  0
LINE
  5
128
330
124
100
AcDbEntity
  8
0
  6
Continuous
 62
     0
370
    18
100
AcDbLine
 10
0.0
 20
0.0
 30
0.0
 11
-2.5
 21
0.0
 31
0.0
  0
LINE
  5
129
330
124
100
AcDbEntity
  8
0
  6
Continuous
 62
     0
370
    18
100
AcDbLine
 10
0.0
 20
0.0
 30
0.0
 11
0.0
 21
-2.5
 31
0.0
  0
LINE
  5
12A
330
124
100
AcDbEntity
  8
0
  6
Continuous
 62
     0
370
    18
100
AcDbLine
 10
0.0
 20
0.0
 30
0.0
 11
2.5
 21
0.0
 31
0.0
  0
LINE
  5
12B
330
124
100
AcDbEntity
  8
0
  6
Continuous
 62
     0
370
    18
100
AcDbLine
 10
0.0
 20
2.5
 30
0.0
 11
0.0
 21
4.5
 31
0.0
  0
LINE
  5
12C
330
124
100
AcDbEntity
  8
0
  6
Continuous
 62
     0
370
    18
100
AcDbLine
 10
-2.5
 20
0.0
 30
0.0
 11
-4.5
 21
0.0
 31
0.0
  0
LINE
  5
12D
330
124
100
AcDbEntity
  8
0
  6
Continuous
 62
     0
370
    18
100
AcDbLine
 10
0.0
 20
-2.5
 30
0.0
 11
0.0
 21
-4.5
 31
0.0
  0
LINE
  5
12E
330
124
100
AcDbEntity
  8
0
  6
Continuous
 62
     0
370
    18
100
AcDbLine
 10
2.5
 20
0.0
 30
0.0
 11
4.5
 21
0.0
 31
0.0
  0
ENDBLK
  5
126
330
124
100
AcDbEntity
  8
0
100
AcDbBlockEnd
  0
ENDSEC
  0
SECTION
  2
ENTITIES
  0
LINE
  5
63
330
1F
100
AcDbEntity
  8
0
  6
Continuous
 62
     7
370
    25
100
AcDbLine
 10
86.5246694848
 20
73.0932066522
 30
0.0
 11
86.5246694848
 21
74.9932066522
 31
0.0
  0
LINE
  5
64
330
1F
100
AcDbEntity
  8
0
  6
Continuous
 62
     7
370
    25
100
AcDbLine
 10
64.5246694848
 20
73.0932066522
 30
0.0
 11
62.1246694848
 21
73.4782066522
 31
0.0
  0
LINE
  5
65
330
1F
100
AcDbEntity
  8
0
  6
Continuous
 62
     7
370
    25
100
AcDbLine
 10
70.0246694848
 20
74.9932066522
 30
0.0
 11
64.5246694848
 21
74.9932066522
 31
0.0
  0
LINE
  5
66
330
1F
100
AcDbEntity
  8
0
  6
Continuous
 62
     7
370
    25
100
AcDbLine
 10
64.5246694848
 20
70.7932066522
 30
0.0
 11
64.5246694848
 21
64.9932066522
 31
0.0
  0
LINE
  5
67
330
1F
100
AcDbEntity
  8
0
  6
Continuous
 62
     7
370
    25
100
AcDbLine
 10
62.1246694848
 20
70.4094682096
 30
0.0
 11
64.5246694848
 21
70.7932066522
 31
0.0
  0
LINE
  5
68
330
1F
100
AcDbEntity
  8
0
  6
Continuous
 62
     7
370
    25
100
AcDbLine
 10
84.0246694848
 20
73.4932066522
 30
0.0
 11
86.5246694848
 21
73.0932066522
 31
0.0
  0
LINE
  5
69
330
1F
100
AcDbEntity
  8
0
  6
Continuous
 62
     7
370
    25
100
AcDbLine
 10
84.0246694848
 20
70.3932066522
 30
0.0
 11
84.0246694848
 21
73.4932066522
 31
0.0
  0
LINE
  5
6A
330
1F
100
AcDbEntity
  8
0
  6
Continuous
 62
     7
370
    25
100
AcDbLine
 10
86.5246694848
 20
70.7932066522
 30
0.0
 11
84.0246694848
 21
70.3932066522
 31
0.0
  0
LINE
  5
6B
330
1F
100
AcDbEntity
  8
0
  6
Continuous
 62
     7
370
    25
100
AcDbLine
 10
86.5246694848
 20
64.9932066522
 30
0.0
 11
86.5246694848
 21
70.7932066522
 31
0.0
  0
LINE
  5
6C
330
1F
100
AcDbEntity
  8
0
  6
Continuous
 62
     7
370
    25
100
AcDbLine
 10
64.5246694848
 20
74.9932066522
 30
0.0
 11
64.5246694848
 21
73.0932066522
 31
0.0
  0
LINE
  5
6D
330
1F
100
AcDbEntity
  8
0
  6
Continuous
 62
     7
370
    25
100
AcDbLine
 10
62.1246694848
 20
73.4782066522
 30
0.0
 11
62.1246694848
 21
70.4094682096
 31
0.0
  0
LINE
  5
6E
330
1F
100
AcDbEntity
  8
0
  6
Continuous
 62
     7
370
    25
100
AcDbLine
 10
81.0246694848
 20
70.9932066522
 30
0.0
 11
81.0246694848
 21
74.9932066522
 31
0.0
  0
LINE
  5
6F
330
1F
100
AcDbEntity
  8
0
  6
Continuous
 62
     7
370
    25
100
AcDbLine
 10
70.0246694848
 20
70.9932066522
 30
0.0
 11
70.0246694848
 21
74.9932066522
 31
0.0
  0
LINE
  5
70
330
1F
100
AcDbEntity
  8
0
  6
Continuous
 62
     7
370
    25
100
AcDbLine
 10
64.5246694848
 20
64.9932066522
 30
0.0
 11
86.5246694848
 21
64.9932066522
 31
0.0
  0
LINE
  5
71
330
1F
100
AcDbEntity
  8
0
  6
Continuous
 62
     7
370
    25
100
AcDbLine
 10
70.0246694848
 20
70.9932066522
 30
0.0
 11
81.0246694848
 21
70.9932066522
 31
0.0
  0
LINE
  5
72
330
1F
100
AcDbEntity
  8
0
  6
Continuous
 62
     7
370
    25
100
AcDbLine
 10
86.5246694848
 20
74.9932066522
 30
0.0
 11
81.0246694848
 21
74.9932066522
 31
0.0
  0
LINE
  5
73
330
1F
100
AcDbEntity
  8
0
  6
Continuous
 62
     7
370
    25
100
AcDbLine
 10
67.0393881105
 20
85.9932066522
 30
0.0
 11
68.6508059423
 21
85.9932066522
 31
0.0
  0
SPLINE
  5
74
330
1F
100
AcDbEntity
  8
0
  6
Continuous
 62
     7
370
    25
100
AcDbSpline
210
0.0
220
0.0
230
1.0
 70
     8
 71
     3
 72
    20
 73
    16
 74
     0
 42
0.00000001
 43
0.00000001
 40
0.0
 40
0.0
 40
0.0
 40
0.0
 40
0.1250000000000001
 40
0.1250000000000001
 40
0.2500000000000002
 40
0.2500000000000002
 40
0.3750000000000002
 40
0.3750000000000002
 40
0.5000000000000003
 40
0.5000000000000003
 40
0.7500000000000004
 40
0.7500000000000004
 40
0.8750000000000002
 40
0.8750000000000002
 40
1.0
 40
1.0
 40
1.0
 40
1.0
 10
68.02466948476022
 20
82.99320665215144
 30
0.0
 10
68.02466948476024
 20
83.19283487713521
 30
0.0
 10
68.032719717628
 20
83.39093574999656
 30
0.0
 10
68.06322715226284
 20
83.77702937912574
 30
0.0
 10
68.08605419706663
 20
83.96824544361887
 30
0.0
 10
68.14266304915382
 20
84.33099550987185
 30
0.0
 10
68.17622211754212
 20
84.50249965602126
 30
0.0
 10
68.2503265558796
 20
84.82666759619943
 30
0.0
 10
68.29081638865395
 20
84.97857437793334
 30
0.0
 10
68.4118026453611
 20
85.3886998822542
 30
0.0
 10
68.49443852755327
 20
85.6108392048099
 30
0.0
 10
68.58395407298181
 20
85.83626951564983
 30
0.0
 10
68.60861818314734
 20
85.89493893975754
 30
0.0
 10
68.64203744353743
 20
85.97333954526381
 30
0.0
 10
68.65080594232647
 20
85.99320665215144
 30
0.0
 10
68.65080594232647
 20
85.99320665215144
 30
0.0
  0
LINE
  5
75
330
1F
100
AcDbEntity
  8
0
  6
Continuous
 62
     7
370
    25
100
AcDbLine
 10
66.5246694848
 20
82.9932066522
 30
0.0
 11
68.0246694848
 21
82.9932066522
 31
0.0
  0
SPLINE
  5
76
330
1F
100
AcDbEntity
  8
0
  6
Continuous
 62
     7
370
    25
100
AcDbSpline
210
0.0
220
0.0
230
1.0
 70
     8
 71
     3
 72
    20
 73
    16
 74
     0
 42
0.00000001
 43
0.00000001
 40
0.0
 40
0.0
 40
0.0
 40
0.0
 40
0.1250000000000002
 40
0.1250000000000002
 40
0.2500000000000003
 40
0.2500000000000003
 40
0.3750000000000005
 40
0.3750000000000005
 40
0.5000000000000008
 40
0.5000000000000008
 40
0.7500000000000001
 40
0.7500000000000001
 40
0.875
 40
0.875
 40
1.0
 40
1.0
 40
1.0
 40
1.0
 10
66.52466948476024
 20
82.99320665215144
 30
0.0
 10
66.52466948476024
 20
83.19283656482074
 30
0.0
 10
66.53129889402159
 20
83.3888587778769
 30
0.0
 10
66.55653061035542
 20
83.77406535661912
 30
0.0
 10
66.57545454840597
 20
83.9652993298617
 30
0.0
 10
66.62230463326296
 20
84.32786473643745
 30
0.0
 10
66.65009081715958
 20
84.49958935560578
 30
0.0
 10
66.71140588549504
 20
84.82452314761744
 30
0.0
 10
66.74493096086118
 20
84.97717565281947
 30
0.0
 10
66.84477929749741
 20
85.3888845335985
 30
0.0
 10
66.91255665793908
 20
85.61168562504714
 30
0.0
 10
66.98540025288091
 20
85.83699125261396
 30
0.0
 10
67.00534688551811
 20
85.8954209372967
 30
0.0
 10
67.03233792084242
 20
85.97347675993434
 30
0.0
 10
67.03938811052167
 20
85.99320665215144
 30
0.0
 10
67.03938811052167
 20
85.99320665215144
 30
0.0
  0
SPLINE
  5
77
330
1F
100
AcDbEntity
  8
0
  6
Continuous
 62
     7
370
    25
100
AcDbSpline
210
0.0
220
0.0
230
1.0
 70
     8
 71
     3
 72
    20
 73
    16
 74
     0
 42
0.00000001
 43
0.00000001
 40
0.0
 40
0.0
 40
0.0
 40
0.0
 40
0.1250000000000002
 40
0.1250000000000002
 40
0.2500000000000003
 40
0.2500000000000003
 40
0.3750000000000005
 40
0.3750000000000005
 40
0.5000000000000008
 40
0.5000000000000008
 40
0.7500000000000001
 40
0.7500000000000001
 40
0.875
 40
0.875
 40
1.0
 40
1.0
 40
1.0
 40
1.0
 10
84.52466948476022
 20
82.99320665215144
 30
0.0
 10
84.52466948476022
 20
83.19283656482074
 30
0.0
 10
84.51804007549887
 20
83.3888587778769
 30
0.0
 10
84.49280835916505
 20
83.77406535661912
 30
0.0
 10
84.4738844211145
 20
83.9652993298617
 30
0.0
 10
84.4270343362575
 20
84.32786473643745
 30
0.0
 10
84.39924815236088
 20
84.49958935560578
 30
0.0
 10
84.33793308402542
 20
84.82452314761744
 30
0.0
 10
84.3044080086593
 20
84.97717565281947
 30
0.0
 10
84.20455967202307
 20
85.3888845335985
 30
0.0
 10
84.1367823115814
 20
85.61168562504714
 30
0.0
 10
84.06393871663956
 20
85.83699125261396
 30
0.0
 10
84.04399208400235
 20
85.8954209372967
 30
0.0
 10
84.01700104867804
 20
85.97347675993434
 30
0.0
 10
84.0099508589988
 20
85.99320665215144
 30
0.0
 10
84.0099508589988
 20
85.99320665215144
 30
0.0
  0
LINE
  5
78
330
1F
100
AcDbEntity
  8
0
  6
Continuous
 62
     7
370
    25
100
AcDbLine
 10
83.0246694848
 20
82.9932066522
 30
0.0
 11
84.5246694848
 21
82.9932066522
 31
0.0
  0
LINE
  5
79
330
1F
100
AcDbEntity
  8
0
  6
Continuous
 62
     7
370
    25
100
AcDbLine
 10
84.009950859
 20
85.9932066522
 30
0.0
 11
82.3985330272
 21
85.9932066522
 31
0.0
  0
SPLINE
  5
7A
330
1F
100
AcDbEntity
  8
0
  6
Continuous
 62
     7
370
    25
100
AcDbSpline
210
0.0
220
0.0
230
1.0
 70
     8
 71
     3
 72
    20
 73
    16
 74
     0
 42
0.00000001
 43
0.00000001
 40
0.0
 40
0.0
 40
0.0
 40
0.0
 40
0.1250000000000002
 40
0.1250000000000002
 40
0.2500000000000004
 40
0.2500000000000004
 40
0.3750000000000006
 40
0.3750000000000006
 40
0.5000000000000006
 40
0.5000000000000006
 40
0.7500000000000007
 40
0.7500000000000007
 40
0.8750000000000003
 40
0.8750000000000003
 40
1.0
 40
1.0
 40
1.0
 40
1.0
 10
83.02466948476024
 20
82.99320665215144
 30
0.0
 10
83.02466948476024
 20
83.19283487713521
 30
0.0
 10
83.01661925189248
 20
83.39093574999656
 30
0.0
 10
82.98611181725762
 20
83.77702937912572
 30
0.0
 10
82.96328477245383
 20
83.96824544361886
 30
0.0
 10
82.90667592036664
 20
84.33099550987185
 30
0.0
 10
82.87311685197835
 20
84.50249965602124
 30
0.0
 10
82.79901241364088
 20
84.82666759619943
 30
0.0
 10
82.75852258086653
 20
84.97857437793334
 30
0.0
 10
82.63753632415937
 20
85.38869988225419
 30
0.0
 10
82.5549004419672
 20
85.6108392048099
 30
0.0
 10
82.46538489653865
 20
85.83626951564983
 30
0.0
 10
82.44072078637313
 20
85.89493893975754
 30
0.0
 10
82.40730152598304
 20
85.97333954526381
 30
0.0
 10
82.39853302719399
 20
85.99320665215144
 30
0.0
 10
82.39853302719399
 20
85.99320665215144
 30
0.0
  0
LINE
  5
7B
330
1F
100
AcDbEntity
  8
0
  6
Continuous
 62
     7
370
    25
100
AcDbLine
 10
82.5593141146
 20
90.8620486002
 30
0.0
 11
81.8753438775
 21
86.9830606291
 31
0.0
  0
LINE
  5
7C
330
1F
100
AcDbEntity
  8
0
  6
Continuous
 62
     7
370
    25
100
AcDbLine
 10
83.4477226779
 20
87.2623082086
 30
0.0
 11
84.0365257441
 21
90.6015763337
 31
0.0
  0
LINE
  5
7D
330
1F
100
AcDbEntity
  8
0
  6
Continuous
 62
     7
370
    25
100
AcDbLine
 10
84.0365257441
 20
90.6015763337
 30
0.0
 11
82.5593141146
 21
90.8620486002
 31
0.0
  0
ARC
  5
7E
330
1F
100
AcDbEntity
  8
0
  6
Continuous
 62
     7
370
    25
100
AcDbCircle
 10
75.5246694848
 20
82.9932066522
 30
0.0
 40
8.999999999999998
100
AcDbArc
 50
19.4712206345
 51
28.316686707
  0
ARC
  5
7F
330
1F
100
AcDbEntity
  8
0
  6
Continuous
 62
     7
370
    25
100
AcDbCircle
 10
75.5246694848
 20
82.9932066522
 30
0.0
 40
7.499999999999998
100
AcDbArc
 50
23.5781784782
 51
32.1393691994
  0
LINE
  5
80
330
1F
100
AcDbEntity
  8
0
  6
Continuous
 62
     7
370
    25
100
AcDbLine
 10
68.4900248549
 20
90.8620486002
 30
0.0
 11
67.0128132254
 21
90.6015763337
 31
0.0
  0
LINE
  5
81
330
1F
100
AcDbEntity
  8
0
  6
Continuous
 62
     7
370
    25
100
AcDbLine
 10
67.0128132254
 20
90.6015763337
 30
0.0
 11
67.6016162917
 21
87.2623082086
 31
0.0
  0
LINE
  5
82
330
1F
100
AcDbEntity
  8
0
  6
Continuous
 62
     7
370
    25
100
AcDbLine
 10
69.173995092
 20
86.9830606291
 30
0.0
 11
68.4900248549
 21
90.8620486002
 31
0.0
  0
ARC
  5
83
330
1F
100
AcDbEntity
  8
0
  6
Continuous
 62
     7
370
    25
100
AcDbCircle
 10
75.5246694848
 20
82.9932066522
 30
0.0
 40
9.000000000000007
100
AcDbArc
 50
151.683313293
 51
160.5287793655
  0
ARC
  5
84
330
1F
100
AcDbEntity
  8
0
  6
Continuous
 62
     7
370
    25
100
AcDbCircle
 10
75.5246694848
 20
82.9932066522
 30
0.0
 40
7.500000000000006
100
AcDbArc
 50
147.8606308006
 51
156.4218215218
  0
LINE
  5
85
330
1F
100
AcDbEntity
  8
0
  6
Continuous
 62
     7
370
    25
100
AcDbLine
 10
84.5246694848
 20
74.9932066522
 30
0.0
 11
84.5246694848
 21
82.9932066522
 31
0.0
  0
LINE
  5
86
330
1F
100
AcDbEntity
  8
0
  6
Continuous
 62
     7
370
    25
100
AcDbLine
 10
82.5246694848
 20
74.9932066522
 30
0.0
 11
82.5246694848
 21
80.3006242486
 31
0.0
  0
ARC
  5
87
330
1F
100
AcDbEntity
  8
0
  6
Continuous
 62
     7
370
    25
100
AcDbCircle
 10
75.5246694848
 20
82.9932066522
 30
0.0
 40
7.499999999999997
100
AcDbArc
 50
338.9605302187
 51
0.0
  0
LINE
  5
88
330
1F
100
AcDbEntity
  8
0
  6
Continuous
 62
     7
370
    25
100
AcDbLine
 10
66.5246694848
 20
74.9932066522
 30
0.0
 11
66.5246694848
 21
82.9932066522
 31
0.0
  0
LINE
  5
89
330
1F
100
AcDbEntity
  8
0
  6
Continuous
 62
     7
370
    25
100
AcDbLine
 10
68.5246694848
 20
74.9932066522
 30
0.0
 11
68.5246694848
 21
80.3006242486
 31
0.0
  0
ARC
  5
8A
330
1F
100
AcDbEntity
  8
0
  6
Continuous
 62
     7
370
    25
100
AcDbCircle
 10
75.5246694848
 20
82.9932066522
 30
0.0
 40
7.500000000000011
100
AcDbArc
 50
180.0
 51
201.0394697813
  0
LINE
  5
8B
330
1F
100
AcDbEntity
  8
0
  6
Continuous
 62
     7
370
    25
100
AcDbLine
 10
85.5246694848
 20
78.0815014992
 30
0.0
 11
84.4343817857
 21
84.2648303053
 31
0.0
  0
LINE
  5
8C
330
1F
100
AcDbEntity
  8
0
  6
Continuous
 62
     7
370
    25
100
AcDbLine
 10
85.5246694848
 20
74.9932066522
 30
0.0
 11
85.5246694848
 21
78.0815014992
 31
0.0
  0
LINE
  5
8D
330
1F
100
AcDbEntity
  8
0
  6
Continuous
 62
     7
370
    25
100
AcDbLine
 10
66.6149571839
 20
84.2648303053
 30
0.0
 11
65.5246694848
 21
78.0815014992
 31
0.0
  0
LINE
  5
8E
330
1F
100
AcDbEntity
  8
0
  6
Continuous
 62
     7
370
    25
100
AcDbLine
 10
65.5246694848
 20
78.0815014992
 30
0.0
 11
65.5246694848
 21
74.9932066522
 31
0.0
  0
LINE
  5
8F
330
1F
100
AcDbEntity
  8
0
  6
Continuous
 62
     7
370
    25
100
AcDbLine
 10
88.9246694848
 20
70.4094682096
 30
0.0
 11
88.9246694848
 21
73.4782066522
 31
0.0
  0
LINE
  5
90
330
1F
100
AcDbEntity
  8
0
  6
Continuous
 62
     7
370
    25
100
AcDbLine
 10
86.5246694848
 20
70.7932066522
 30
0.0
 11
88.9246694848
 21
70.4094682096
 31
0.0
  0
LINE
  5
91
330
1F
100
AcDbEntity
  8
0
  6
Continuous
 62
     7
370
    25
100
AcDbLine
 10
88.9246694848
 20
73.4782066522
 30
0.0
 11
86.5246694848
 21
73.0932066522
 31
0.0
  0
LINE
  5
92
330
1F
100
AcDbEntity
  8
0
  6
Continuous
 62
     7
370
    25
100
AcDbLine
 10
78.0246694848
 20
74.9932066522
 30
0.0
 11
73.0246694848
 21
74.9932066522
 31
0.0
  0
LINE
  5
93
330
1F
100
AcDbEntity
  8
0
  6
Continuous
 62
     7
370
    25
100
AcDbLine
 10
78.0246694848
 20
70.9932066522
 30
0.0
 11
78.0246694848
 21
74.9932066522
 31
0.0
  0
LINE
  5
94
330
1F
100
AcDbEntity
  8
0
  6
Continuous
 62
     7
370
    25
100
AcDbLine
 10
73.0246694848
 20
70.9932066522
 30
0.0
 11
73.0246694848
 21
74.9932066522
 31
0.0
  0
LINE
  5
95
330
1F
100
AcDbEntity
  8
0
  6
Continuous
 62
     7
370
    25
100
AcDbLine
 10
114.5517034932
 20
70.4094682096
 30
0.0
 11
114.5517034932
 21
73.4782066522
 31
0.0
  0
LINE
  5
96
330
1F
100
AcDbEntity
  8
0
  6
Continuous
 62
     7
370
    25
100
AcDbLine
 10
114.5517034932
 20
73.4782066522
 30
0.0
 11
121.5517034932
 21
73.4782066522
 31
0.0
  0
LINE
  5
97
330
1F
100
AcDbEntity
  8
0
  6
Continuous
 62
     7
370
    25
100
AcDbLine
 10
121.5517034932
 20
73.4782066522
 30
0.0
 11
121.5517034932
 21
70.4094682096
 31
0.0
  0
LINE
  5
98
330
1F
100
AcDbEntity
  8
0
  6
Continuous
 62
     7
370
    25
100
AcDbLine
 10
114.5517034932
 20
70.4094682096
 30
0.0
 11
121.5517034932
 21
70.4094682096
 31
0.0
  0
LINE
  5
99
330
1F
100
AcDbEntity
  8
0
  6
Continuous
 62
     7
370
    25
100
AcDbLine
 10
121.5517034932
 20
64.9932066522
 30
0.0
 11
107.5517034932
 21
64.9932066522
 31
0.0
  0
LINE
  5
9A
330
1F
100
AcDbEntity
  8
0
  6
Continuous
 62
     7
370
    25
100
AcDbLine
 10
107.5517034932
 20
64.9932066522
 30
0.0
 11
107.5517034932
 21
70.7932066522
 31
0.0
  0
LINE
  5
9B
330
1F
100
AcDbEntity
  8
0
  6
Continuous
 62
     7
370
    25
100
AcDbLine
 10
107.5517034932
 20
70.7932066522
 30
0.0
 11
114.5517034932
 21
70.7932066522
 31
0.0
  0
LINE
  5
9C
330
1F
100
AcDbEntity
  8
0
  6
Continuous
 62
     7
370
    25
100
AcDbLine
 10
121.5517034932
 20
70.4094682096
 30
0.0
 11
121.5517034932
 21
64.9932066522
 31
0.0
  0
LINE
  5
9D
330
1F
100
AcDbEntity
  8
0
  6
Continuous
 62
     7
370
    25
100
AcDbLine
 10
107.5517034932
 20
73.0932066522
 30
0.0
 11
107.5517034932
 21
74.9932066522
 31
0.0
  0
LINE
  5
9E
330
1F
100
AcDbEntity
  8
0
  6
Continuous
 62
     7
370
    25
100
AcDbLine
 10
107.5517034932
 20
73.0932066522
 30
0.0
 11
114.5517034932
 21
73.0932066522
 31
0.0
  0
LINE
  5
9F
330
1F
100
AcDbEntity
  8
0
  6
Continuous
 62
     7
370
    25
100
AcDbLine
 10
121.5517034932
 20
74.9932066522
 30
0.0
 11
107.5517034932
 21
74.9932066522
 31
0.0
  0
LINE
  5
A0
330
1F
100
AcDbEntity
  8
0
  6
Continuous
 62
     7
370
    25
100
AcDbLine
 10
121.5517034932
 20
74.9932066522
 30
0.0
 11
121.5517034932
 21
73.4782066522
 31
0.0
  0
LINE
  5
A1
330
1F
100
AcDbEntity
  8
0
  6
Continuous
 62
     7
370
    25
100
AcDbLine
 10
115.5517034932
 20
74.9932066522
 30
0.0
 11
115.5517034932
 21
78.0815014992
 31
0.0
  0
LINE
  5
A2
330
1F
100
AcDbEntity
  8
0
  6
Continuous
 62
     7
370
    25
100
AcDbLine
 10
113.5517034932
 20
74.9932066522
 30
0.0
 11
113.5517034932
 21
78.0815014992
 31
0.0
  0
LINE
  5
A3
330
1F
100
AcDbEntity
  8
0
  6
Continuous
 62
     7
370
    25
100
AcDbLine
 10
115.5517034932
 20
78.0815014992
 30
0.0
 11
113.5517034932
 21
78.0815014992
 31
0.0
  0
LINE
  5
A4
330
1F
100
AcDbEntity
  8
0
  6
Continuous
 62
     7
370
    25
100
AcDbLine
 10
113.5517034932
 20
78.0815014992
 30
0.0
 11
113.5517034932
 21
84.2648303053
 31
0.0
  0
LINE
  5
A5
330
1F
100
AcDbEntity
  8
0
  6
Continuous
 62
     7
370
    25
100
AcDbLine
 10
115.5517034932
 20
84.2648303053
 30
0.0
 11
113.5517034932
 21
84.2648303053
 31
0.0
  0
LINE
  5
A6
330
1F
100
AcDbEntity
  8
0
  6
Continuous
 62
     7
370
    25
100
AcDbLine
 10
115.5517034932
 20
78.0815014992
 30
0.0
 11
115.5517034932
 21
84.2648303053
 31
0.0
  0
LINE
  5
A7
330
1F
100
AcDbEntity
  8
0
  6
Continuous
 62
     7
370
    25
100
AcDbLine
 10
108.0517034932
 20
85.9932066522
 30
0.0
 11
108.0517034932
 21
87.2623082086
 31
0.0
  0
LINE
  5
A8
330
1F
100
AcDbEntity
  8
0
  6
Continuous
 62
     7
370
    25
100
AcDbLine
 10
121.0517034932
 20
87.2623082086
 30
0.0
 11
108.0517034932
 21
87.2623082086
 31
0.0
  0
LINE
  5
A9
330
1F
100
AcDbEntity
  8
0
  6
Continuous
 62
     7
370
    25
100
AcDbLine
 10
121.0517034932
 20
85.9932066522
 30
0.0
 11
121.0517034932
 21
87.2623082086
 31
0.0
  0
LINE
  5
AA
330
1F
100
AcDbEntity
  8
0
  6
Continuous
 62
     7
370
    25
100
AcDbLine
 10
118.0517034932
 20
82.9932066522
 30
0.0
 11
115.5517034932
 21
82.9932066522
 31
0.0
  0
LINE
  5
AB
330
1F
100
AcDbEntity
  8
0
  6
Continuous
 62
     7
370
    25
100
AcDbLine
 10
113.5517034932
 20
82.9932066522
 30
0.0
 11
111.0517034932
 21
82.9932066522
 31
0.0
  0
SPLINE
  5
AC
330
1F
100
AcDbEntity
  8
0
  6
Continuous
 62
     7
370
    25
100
AcDbSpline
210
0.0
220
0.0
230
1.0
 70
     8
 71
     3
 72
    20
 73
    16
 74
     0
 42
0.00000001
 43
0.00000001
 40
0.0
 40
0.0
 40
0.0
 40
0.0
 40
0.1250000000000002
 40
0.1250000000000002
 40
0.2500000000000003
 40
0.2500000000000003
 40
0.3750000000000005
 40
0.3750000000000005
 40
0.5000000000000008
 40
0.5000000000000008
 40
0.7500000000000001
 40
0.7500000000000001
 40
0.875
 40
0.875
 40
1.0
 40
1.0
 40
1.0
 40
1.0
 10
111.0517034932426
 20
82.99320665215144
 30
0.0
 10
111.0517034932426
 20
83.19283656482074
 30
0.0
 10
111.031978442941
 20
83.3888587778769
 30
0.0
 10
110.9549497907599
 20
83.77406535661912
 30
0.0
 10
110.8966286657171
 20
83.9652993298617
 30
0.0
 10
110.7456320760166
 20
84.32786473643745
 30
0.0
 10
110.6534404273619
 20
84.49958935560578
 30
0.0
 10
110.4359232434043
 20
84.82452314761744
 30
0.0
 10
110.3103602887107
 20
84.97717565281947
 30
0.0
 10
109.8986960621633
 20
85.3888845335985
 30
0.0
 10
109.5668716266623
 20
85.61168562504714
 30
0.0
 10
109.0268602996995
 20
85.83699125261396
 30
0.0
 10
108.8368285063548
 20
85.8954209372967
 30
0.0
 10
108.4482626033023
 20
85.97347675993434
 30
0.0
 10
108.2513414683734
 20
85.99320665215144
 30
0.0
 10
108.0517034932426
 20
85.99320665215144
 30
0.0
  0
SPLINE
  5
AD
330
1F
100
AcDbEntity
  8
0
  6
Continuous
 62
     7
370
    25
100
AcDbSpline
210
0.0
220
0.0
230
1.0
 70
     8
 71
     3
 72
    20
 73
    16
 74
     0
 42
0.00000001
 43
0.00000001
 40
0.0
 40
0.0
 40
0.0
 40
0.0
 40
0.1249999999999996
 40
0.1249999999999996
 40
0.2499999999999992
 40
0.2499999999999992
 40
0.3749999999999988
 40
0.3749999999999988
 40
0.4999999999999984
 40
0.4999999999999984
 40
0.7499999999999992
 40
0.7499999999999992
 40
0.8749999999999996
 40
0.8749999999999996
 40
1.0
 40
1.0
 40
1.0
 40
1.0
 10
121.0517034932426
 20
85.99320665215144
 30
0.0
 10
120.8520605166153
 20
85.99320665215144
 30
0.0
 10
120.6560613925122
 20
85.9734797005662
 30
0.0
 10
120.2709495044588
 20
85.89647779415249
 30
0.0
 10
120.0797943672775
 20
85.83818630257721
 30
0.0
 10
119.7174336902182
 20
85.68731887201315
 30
0.0
 10
119.5457946636853
 20
85.5952123192551
 30
0.0
 10
119.220939529173
 20
85.37784461260631
 30
0.0
 10
119.0683405206625
 20
85.25239414284728
 30
0.0
 10
118.6565557028318
 20
84.8408793121657
 30
0.0
 10
118.4334715206814
 20
84.50886153383206
 30
0.0
 10
118.2079752728204
 20
83.96855115744181
 30
0.0
 10
118.1495076186457
 20
83.77840884961806
 30
0.0
 10
118.0714319578527
 20
83.3897731166667
 30
0.0
 10
118.0517034932426
 20
83.1928352905795
 30
0.0
 10
118.0517034932426
 20
82.99320665215144
 30
0.0
  0
LINE
  5
AE
330
1F
100
AcDbEntity
  8
0
  6
Continuous
 62
     7
370
    25
100
AcDbLine
 10
118.0517034932
 20
74.9932066522
 30
0.0
 11
118.0517034932
 21
82.9932066522
 31
0.0
  0
LINE
  5
AF
330
1F
100
AcDbEntity
  8
0
  6
Continuous
 62
     7
370
    25
100
AcDbLine
 10
111.0517034932
 20
74.9932066522
 30
0.0
 11
111.0517034932
 21
82.9932066522
 31
0.0
  0
LINE
  5
B0
330
1F
100
AcDbEntity
  8
0
  6
Continuous
 62
     7
370
    25
100
AcDbLine
 10
108.0517034932
 20
87.2623082086
 30
0.0
 11
108.0517034932
 21
90.6015763337
 31
0.0
  0
LINE
  5
B1
330
1F
100
AcDbEntity
  8
0
  6
Continuous
 62
     7
370
    25
100
AcDbLine
 10
121.0517034932
 20
90.6015763337
 30
0.0
 11
108.0517034932
 21
90.6015763337
 31
0.0
  0
LINE
  5
B2
330
1F
100
AcDbEntity
  8
0
  6
Continuous
 62
     7
370
    25
100
AcDbLine
 10
121.0517034932
 20
87.2623082086
 30
0.0
 11
121.0517034932
 21
90.6015763337
 31
0.0
  0
LINE
  5
B3
330
1F
100
AcDbEntity
  8
0
  6
Continuous
 62
     7
370
    25
100
AcDbLine
 10
121.0517034932
 20
90.8620486002
 30
0.0
 11
108.0517034932
 21
90.8620486002
 31
0.0
  0
LINE
  5
B4
330
1F
100
AcDbEntity
  8
0
  6
Continuous
 62
     7
370
    25
100
AcDbLine
 10
108.0517034932
 20
90.6015763337
 30
0.0
 11
108.0517034932
 21
90.8620486002
 31
0.0
  0
LINE
  5
B5
330
1F
100
AcDbEntity
  8
0
  6
Continuous
 62
     7
370
    25
100
AcDbLine
 10
121.0517034932
 20
90.8620486002
 30
0.0
 11
121.0517034932
 21
90.6015763337
 31
0.0
  0
LINE
  5
B6
330
1F
100
AcDbEntity
  8
0
  6
Continuous
 62
     7
370
    25
100
AcDbLine
 10
107.5517034932
 20
70.7932066522
 30
0.0
 11
107.5517034932
 21
73.0932066522
 31
0.0
  0
LINE
  5
B7
330
1F
100
AcDbEntity
  8
0
  6
Continuous
 62
     7
370
    25
100
AcDbLine
 10
64.5246694848
 20
52.0125210324
 30
0.0
 11
86.5246694848
 21
52.0125210324
 31
0.0
  0
LINE
  5
B8
330
1F
100
AcDbEntity
  8
0
  6
Continuous
 62
     7
370
    25
100
AcDbLine
 10
86.5246694848
 20
38.0125210324
 30
0.0
 11
86.5246694848
 21
52.0125210324
 31
0.0
  0
LINE
  5
B9
330
1F
100
AcDbEntity
  8
0
  6
Continuous
 62
     7
370
    25
100
AcDbLine
 10
86.5246694848
 20
38.0125210324
 30
0.0
 11
64.5246694848
 21
38.0125210324
 31
0.0
  0
LINE
  5
BA
330
1F
100
AcDbEntity
  8
0
  6
Continuous
 62
     7
370
    25
100
AcDbLine
 10
64.5246694848
 20
38.0125210324
 30
0.0
 11
64.5246694848
 21
52.0125210324
 31
0.0
  0
CIRCLE
  5
BB
330
1F
100
AcDbEntity
  8
0
  6
Continuous
 62
     7
370
    25
100
AcDbCircle
 10
75.5246694848
 20
45.0125210324
 30
0.0
 40
2.0
  0
LINE
  5
BC
330
1F
100
AcDbEntity
  8
0
  6
Continuous
 62
     7
370
    25
100
AcDbLine
 10
88.9246694848
 20
45.0125210324
 30
0.0
 11
88.9246694848
 21
38.0125210324
 31
0.0
  0
LINE
  5
BD
330
1F
100
AcDbEntity
  8
0
  6
Continuous
 62
     7
370
    25
100
AcDbLine
 10
86.5246694848
 20
45.0125210324
 30
0.0
 11
88.9246694848
 21
45.0125210324
 31
0.0
  0
LINE
  5
BE
330
1F
100
AcDbEntity
  8
0
  6
Continuous
 62
     7
370
    25
100
AcDbLine
 10
88.9246694848
 20
38.0125210324
 30
0.0
 11
86.5246694848
 21
38.0125210324
 31
0.0
  0
LINE
  5
BF
330
1F
100
AcDbEntity
  8
0
  6
Continuous
 62
     7
370
    25
100
AcDbLine
 10
62.1246694848
 20
45.0125210324
 30
0.0
 11
62.1246694848
 21
52.0125210324
 31
0.0
  0
LINE
  5
C0
330
1F
100
AcDbEntity
  8
0
  6
Continuous
 62
     7
370
    25
100
AcDbLine
 10
62.1246694848
 20
45.0125210324
 30
0.0
 11
64.5246694848
 21
45.0125210324
 31
0.0
  0
LINE
  5
C1
330
1F
100
AcDbEntity
  8
0
  6
Continuous
 62
     7
370
    25
100
AcDbLine
 10
62.1246694848
 20
52.0125210324
 30
0.0
 11
64.5246694848
 21
52.0125210324
 31
0.0
  0
INSERT
  5
CD
330
1F
100
AcDbEntity
  8
0
  6
Continuous
 62
     7
370
    18
100
AcDbBlockReference
  2
SW_CENTERMARKSYMBOL_0
 10
75.5246694848
 20
45.0125210324
 30
0.0
  0
LINE
  5
CE
330
1F
100
AcDbEntity
  8
0
  6
Continuous
 62
     7
370
    25
100
AcDbLine
 10
46.3701735892
 20
73.4782066522
 30
0.0
 11
46.3701735892
 21
70.4094682096
 31
0.0
  0
LINE
  5
CF
330
1F
100
AcDbEntity
  8
0
  6
Continuous
 62
     7
370
    25
100
AcDbLine
 10
39.3701735892
 20
70.4094682096
 30
0.0
 11
46.3701735892
 21
70.4094682096
 31
0.0
  0
LINE
  5
D0
330
1F
100
AcDbEntity
  8
0
  6
Continuous
 62
     7
370
    25
100
AcDbLine
 10
39.3701735892
 20
73.4782066522
 30
0.0
 11
39.3701735892
 21
70.4094682096
 31
0.0
  0
LINE
  5
D1
330
1F
100
AcDbEntity
  8
0
  6
Continuous
 62
     7
370
    25
100
AcDbLine
 10
39.3701735892
 20
73.4782066522
 30
0.0
 11
46.3701735892
 21
73.4782066522
 31
0.0
  0
LINE
  5
D2
330
1F
100
AcDbEntity
  8
0
  6
Continuous
 62
     7
370
    25
100
AcDbLine
 10
32.3701735892
 20
73.0932066522
 30
0.0
 11
32.3701735892
 21
74.9932066522
 31
0.0
  0
LINE
  5
D3
330
1F
100
AcDbEntity
  8
0
  6
Continuous
 62
     7
370
    25
100
AcDbLine
 10
39.3701735892
 20
73.0932066522
 30
0.0
 11
32.3701735892
 21
73.0932066522
 31
0.0
  0
LINE
  5
D4
330
1F
100
AcDbEntity
  8
0
  6
Continuous
 62
     7
370
    25
100
AcDbLine
 10
32.3701735892
 20
74.9932066522
 30
0.0
 11
46.3701735892
 21
74.9932066522
 31
0.0
  0
LINE
  5
D5
330
1F
100
AcDbEntity
  8
0
  6
Continuous
 62
     7
370
    25
100
AcDbLine
 10
46.3701735892
 20
74.9932066522
 30
0.0
 11
46.3701735892
 21
73.4782066522
 31
0.0
  0
LINE
  5
D6
330
1F
100
AcDbEntity
  8
0
  6
Continuous
 62
     7
370
    25
100
AcDbLine
 10
32.3701735892
 20
64.9932066522
 30
0.0
 11
46.3701735892
 21
64.9932066522
 31
0.0
  0
LINE
  5
D7
330
1F
100
AcDbEntity
  8
0
  6
Continuous
 62
     7
370
    25
100
AcDbLine
 10
32.3701735892
 20
64.9932066522
 30
0.0
 11
32.3701735892
 21
70.7932066522
 31
0.0
  0
LINE
  5
D8
330
1F
100
AcDbEntity
  8
0
  6
Continuous
 62
     7
370
    25
100
AcDbLine
 10
39.3701735892
 20
70.7932066522
 30
0.0
 11
32.3701735892
 21
70.7932066522
 31
0.0
  0
LINE
  5
D9
330
1F
100
AcDbEntity
  8
0
  6
Continuous
 62
     7
370
    25
100
AcDbLine
 10
46.3701735892
 20
70.4094682096
 30
0.0
 11
46.3701735892
 21
64.9932066522
 31
0.0
  0
LINE
  5
DA
330
1F
100
AcDbEntity
  8
0
  6
Continuous
 62
     7
370
    25
100
AcDbLine
 10
38.3701735892
 20
78.0815014992
 30
0.0
 11
38.3701735892
 21
74.9932066522
 31
0.0
  0
LINE
  5
DB
330
1F
100
AcDbEntity
  8
0
  6
Continuous
 62
     7
370
    25
100
AcDbLine
 10
38.3701735892
 20
78.0815014992
 30
0.0
 11
40.3701735892
 21
78.0815014992
 31
0.0
  0
LINE
  5
DC
330
1F
100
AcDbEntity
  8
0
  6
Continuous
 62
     7
370
    25
100
AcDbLine
 10
40.3701735892
 20
78.0815014992
 30
0.0
 11
40.3701735892
 21
74.9932066522
 31
0.0
  0
LINE
  5
DD
330
1F
100
AcDbEntity
  8
0
  6
Continuous
 62
     7
370
    25
100
AcDbLine
 10
38.3701735892
 20
84.2648303053
 30
0.0
 11
40.3701735892
 21
84.2648303053
 31
0.0
  0
LINE
  5
DE
330
1F
100
AcDbEntity
  8
0
  6
Continuous
 62
     7
370
    25
100
AcDbLine
 10
40.3701735892
 20
84.2648303053
 30
0.0
 11
40.3701735892
 21
78.0815014992
 31
0.0
  0
LINE
  5
DF
330
1F
100
AcDbEntity
  8
0
  6
Continuous
 62
     7
370
    25
100
AcDbLine
 10
38.3701735892
 20
84.2648303053
 30
0.0
 11
38.3701735892
 21
78.0815014992
 31
0.0
  0
LINE
  5
E0
330
1F
100
AcDbEntity
  8
0
  6
Continuous
 62
     7
370
    25
100
AcDbLine
 10
35.8701735892
 20
82.9932066522
 30
0.0
 11
38.3701735892
 21
82.9932066522
 31
0.0
  0
SPLINE
  5
E1
330
1F
100
AcDbEntity
  8
0
  6
Continuous
 62
     7
370
    25
100
AcDbSpline
210
0.0
220
0.0
230
1.0
 70
     8
 71
     3
 72
    20
 73
    16
 74
     0
 42
0.00000001
 43
0.00000001
 40
0.0
 40
0.0
 40
0.0
 40
0.0
 40
0.1249999999999996
 40
0.1249999999999996
 40
0.2499999999999992
 40
0.2499999999999992
 40
0.3749999999999988
 40
0.3749999999999988
 40
0.4999999999999984
 40
0.4999999999999984
 40
0.7499999999999992
 40
0.7499999999999992
 40
0.8749999999999996
 40
0.8749999999999996
 40
1.0
 40
1.0
 40
1.0
 40
1.0
 10
32.87017358915125
 20
85.99320665215144
 30
0.0
 10
33.06981656577862
 20
85.99320665215144
 30
0.0
 10
33.26581568988166
 20
85.9734797005662
 30
0.0
 10
33.65092757793504
 20
85.89647779415249
 30
0.0
 10
33.84208271511635
 20
85.83818630257721
 30
0.0
 10
34.20444339217565
 20
85.68731887201315
 30
0.0
 10
34.37608241870855
 20
85.5952123192551
 30
0.0
 10
34.70093755322085
 20
85.37784461260631
 30
0.0
 10
34.85353656173139
 20
85.25239414284728
 30
0.0
 10
35.2653213795621
 20
84.8408793121657
 30
0.0
 10
35.48840556171248
 20
84.50886153383206
 30
0.0
 10
35.71390180957351
 20
83.96855115744181
 30
0.0
 10
35.77236946374816
 20
83.77840884961806
 30
0.0
 10
35.8504451245412
 20
83.3897731166667
 30
0.0
 10
35.87017358915126
 20
83.1928352905795
 30
0.0
 10
35.87017358915125
 20
82.99320665215144
 30
0.0
  0
LINE
  5
E2
330
1F
100
AcDbEntity
  8
0
  6
Continuous
 62
     7
370
    25
100
AcDbLine
 10
32.8701735892
 20
87.2623082086
 30
0.0
 11
32.8701735892
 21
85.9932066522
 31
0.0
  0
LINE
  5
E3
330
1F
100
AcDbEntity
  8
0
  6
Continuous
 62
     7
370
    25
100
AcDbLine
 10
32.8701735892
 20
87.2623082086
 30
0.0
 11
45.8701735892
 21
87.2623082086
 31
0.0
  0
LINE
  5
E4
330
1F
100
AcDbEntity
  8
0
  6
Continuous
 62
     7
370
    25
100
AcDbLine
 10
45.8701735892
 20
87.2623082086
 30
0.0
 11
45.8701735892
 21
85.9932066522
 31
0.0
  0
SPLINE
  5
E5
330
1F
100
AcDbEntity
  8
0
  6
Continuous
 62
     7
370
    25
100
AcDbSpline
210
0.0
220
0.0
230
1.0
 70
     8
 71
     3
 72
    20
 73
    16
 74
     0
 42
0.00000001
 43
0.00000001
 40
0.0
 40
0.0
 40
0.0
 40
0.0
 40
0.1250000000000002
 40
0.1250000000000002
 40
0.2500000000000003
 40
0.2500000000000003
 40
0.3750000000000005
 40
0.3750000000000005
 40
0.5000000000000008
 40
0.5000000000000008
 40
0.7500000000000001
 40
0.7500000000000001
 40
0.875
 40
0.875
 40
1.0
 40
1.0
 40
1.0
 40
1.0
 10
42.87017358915125
 20
82.99320665215144
 30
0.0
 10
42.87017358915125
 20
83.19283656482074
 30
0.0
 10
42.88989863945286
 20
83.3888587778769
 30
0.0
 10
42.96692729163396
 20
83.77406535661912
 30
0.0
 10
43.0252484166768
 20
83.9652993298617
 30
0.0
 10
43.17624500637726
 20
84.32786473643745
 30
0.0
 10
43.26843665503193
 20
84.49958935560578
 30
0.0
 10
43.48595383898956
 20
84.82452314761744
 30
0.0
 10
43.61151679368321
 20
84.97717565281947
 30
0.0
 10
44.0231810202306
 20
85.3888845335985
 30
0.0
 10
44.3550054557316
 20
85.61168562504714
 30
0.0
 10
44.89501678269442
 20
85.83699125261396
 30
0.0
 10
45.08504857603908
 20
85.8954209372967
 30
0.0
 10
45.47361447909155
 20
85.97347675993434
 30
0.0
 10
45.67053561402045
 20
85.99320665215144
 30
0.0
 10
45.87017358915125
 20
85.99320665215144
 30
0.0
  0
LINE
  5
E6
330
1F
100
AcDbEntity
  8
0
  6
Continuous
 62
     7
370
    25
100
AcDbLine
 10
40.3701735892
 20
82.9932066522
 30
0.0
 11
42.8701735892
 21
82.9932066522
 31
0.0
  0
LINE
  5
E7
330
1F
100
AcDbEntity
  8
0
  6
Continuous
 62
     7
370
    25
100
AcDbLine
 10
35.8701735892
 20
74.9932066522
 30
0.0
 11
35.8701735892
 21
82.9932066522
 31
0.0
  0
LINE
  5
E8
330
1F
100
AcDbEntity
  8
0
  6
Continuous
 62
     7
370
    25
100
AcDbLine
 10
42.8701735892
 20
74.9932066522
 30
0.0
 11
42.8701735892
 21
82.9932066522
 31
0.0
  0
LINE
  5
E9
330
1F
100
AcDbEntity
  8
0
  6
Continuous
 62
     7
370
    25
100
AcDbLine
 10
32.8701735892
 20
90.6015763337
 30
0.0
 11
45.8701735892
 21
90.6015763337
 31
0.0
  0
LINE
  5
EA
330
1F
100
AcDbEntity
  8
0
  6
Continuous
 62
     7
370
    25
100
AcDbLine
 10
45.8701735892
 20
90.6015763337
 30
0.0
 11
45.8701735892
 21
87.2623082086
 31
0.0
  0
LINE
  5
EB
330
1F
100
AcDbEntity
  8
0
  6
Continuous
 62
     7
370
    25
100
AcDbLine
 10
32.8701735892
 20
90.6015763337
 30
0.0
 11
32.8701735892
 21
87.2623082086
 31
0.0
  0
LINE
  5
EC
330
1F
100
AcDbEntity
  8
0
  6
Continuous
 62
     7
370
    25
100
AcDbLine
 10
45.8701735892
 20
90.8620486002
 30
0.0
 11
45.8701735892
 21
90.6015763337
 31
0.0
  0
LINE
  5
ED
330
1F
100
AcDbEntity
  8
0
  6
Continuous
 62
     7
370
    25
100
AcDbLine
 10
32.8701735892
 20
90.8620486002
 30
0.0
 11
45.8701735892
 21
90.8620486002
 31
0.0
  0
LINE
  5
EE
330
1F
100
AcDbEntity
  8
0
  6
Continuous
 62
     7
370
    25
100
AcDbLine
 10
32.8701735892
 20
90.6015763337
 30
0.0
 11
32.8701735892
 21
90.8620486002
 31
0.0
  0
LINE
  5
EF
330
1F
100
AcDbEntity
  8
0
  6
Continuous
 62
     7
370
    25
100
AcDbLine
 10
32.3701735892
 20
70.7932066522
 30
0.0
 11
32.3701735892
 21
73.0932066522
 31
0.0
  0
LINE
  5
F0
330
1F
100
AcDbEntity
  8
0
  6
Continuous
 62
     7
370
    25
100
AcDbLine
 10
82.5593141146
 20
118.4425253141
 30
0.0
 11
82.5593141146
 21
105.4425253141
 31
0.0
  0
LINE
  5
F1
330
1F
100
AcDbEntity
  8
0
  6
Continuous
 62
     7
370
    25
100
AcDbLine
 10
82.5593141146
 20
105.4425253141
 30
0.0
 11
81.8753438775
 21
105.4425253141
 31
0.0
  0
LINE
  5
F2
330
1F
100
AcDbEntity
  8
0
  6
Continuous
 62
     7
370
    25
100
AcDbLine
 10
81.8753438775
 20
118.4425253141
 30
0.0
 11
81.8753438775
 21
105.4425253141
 31
0.0
  0
LINE
  5
F3
330
1F
100
AcDbEntity
  8
0
  6
Continuous
 62
     7
370
    25
100
AcDbLine
 10
82.5593141146
 20
118.4425253141
 30
0.0
 11
81.8753438775
 21
118.4425253141
 31
0.0
  0
LINE
  5
F4
330
1F
100
AcDbEntity
  8
0
  6
Continuous
 62
     7
370
    25
100
AcDbLine
 10
84.0365257441
 20
118.4425253141
 30
0.0
 11
84.0365257441
 21
105.4425253141
 31
0.0
  0
LINE
  5
F5
330
1F
100
AcDbEntity
  8
0
  6
Continuous
 62
     7
370
    25
100
AcDbLine
 10
84.0365257441
 20
105.4425253141
 30
0.0
 11
82.5593141146
 21
105.4425253141
 31
0.0
  0
LINE
  5
F6
330
1F
100
AcDbEntity
  8
0
  6
Continuous
 62
     7
370
    25
100
AcDbLine
 10
82.5593141146
 20
118.4425253141
 30
0.0
 11
84.0365257441
 21
118.4425253141
 31
0.0
  0
LINE
  5
F7
330
1F
100
AcDbEntity
  8
0
  6
Continuous
 62
     7
370
    25
100
AcDbLine
 10
68.4900248549
 20
105.4425253141
 30
0.0
 11
67.0128132254
 21
105.4425253141
 31
0.0
  0
LINE
  5
F8
330
1F
100
AcDbEntity
  8
0
  6
Continuous
 62
     7
370
    25
100
AcDbLine
 10
67.0128132254
 20
118.4425253141
 30
0.0
 11
67.0128132254
 21
105.4425253141
 31
0.0
  0
LINE
  5
F9
330
1F
100
AcDbEntity
  8
0
  6
Continuous
 62
     7
370
    25
100
AcDbLine
 10
67.0128132254
 20
118.4425253141
 30
0.0
 11
68.4900248549
 21
118.4425253141
 31
0.0
  0
LINE
  5
FA
330
1F
100
AcDbEntity
  8
0
  6
Continuous
 62
     7
370
    25
100
AcDbLine
 10
68.4900248549
 20
118.4425253141
 30
0.0
 11
68.4900248549
 21
105.4425253141
 31
0.0
  0
LINE
  5
FB
330
1F
100
AcDbEntity
  8
0
  6
Continuous
 62
     7
370
    25
100
AcDbLine
 10
69.173995092
 20
118.4425253141
 30
0.0
 11
69.173995092
 21
105.4425253141
 31
0.0
  0
LINE
  5
FC
330
1F
100
AcDbEntity
  8
0
  6
Continuous
 62
     7
370
    25
100
AcDbLine
 10
69.173995092
 20
105.4425253141
 30
0.0
 11
68.4900248549
 21
105.4425253141
 31
0.0
  0
LINE
  5
FD
330
1F
100
AcDbEntity
  8
0
  6
Continuous
 62
     7
370
    25
100
AcDbLine
 10
69.173995092
 20
118.4425253141
 30
0.0
 11
68.4900248549
 21
118.4425253141
 31
0.0
  0
SPLINE
  5
FE
330
1F
100
AcDbEntity
  8
0
  6
Continuous
 62
     7
370
    25
100
AcDbSpline
210
0.0
220
0.0
230
1.0
 70
     8
 71
     3
 72
    16
 73
    12
 74
     0
 42
0.00000001
 43
0.00000001
 40
0.0
 40
0.0
 40
0.0
 40
0.0
 40
0.082522346779146
 40
0.2001191574573974
 40
0.3209084131148497
 40
0.4426846612653342
 40
0.567808595173515
 40
0.6925388707081842
 40
0.8211365476322338
 40
0.9098329386086366
 40
1.0
 40
1.0
 40
1.0
 40
1.0
 10
84.03652574413415
 20
117.8085888487572
 30
0.0
 10
84.04482781376515
 20
117.6984654110598
 30
0.0
 10
84.06496058076162
 20
117.4314127831541
 30
0.0
 10
84.12358230107043
 20
117.0319836675603
 30
0.0
 10
84.20053048738566
 20
116.6196510878453
 30
0.0
 10
84.28669496428151
 20
116.2495706168074
 30
0.0
 10
84.37108948091739
 20
115.9358020994592
 30
0.0
 10
84.44546077420438
 20
115.686899997643
 30
0.0
 10
84.49397024476794
 20
115.5353633467861
 30
0.0
 10
84.52027256846118
 20
115.4556688327399
 30
0.0
 10
84.52319583399724
 20
115.4469304369355
 30
0.0
 10
84.52466948476022
 20
115.442525314142
 30
0.0
  0
LINE
  5
FF
330
1F
100
AcDbEntity
  8
0
  6
Continuous
 62
     7
370
    25
100
AcDbLine
 10
84.5246694848
 20
115.4425253141
 30
0.0
 11
84.5246694848
 21
112.9425253141
 31
0.0
  0
LINE
  5
100
330
1F
100
AcDbEntity
  8
0
  6
Continuous
 62
     7
370
    25
100
AcDbLine
 10
84.4343817857
 20
112.9425253141
 30
0.0
 11
84.4343817857
 21
110.9425253141
 31
0.0
  0
LINE
  5
101
330
1F
100
AcDbEntity
  8
0
  6
Continuous
 62
     7
370
    25
100
AcDbLine
 10
84.5246694848
 20
110.9425253141
 30
0.0
 11
84.5246694848
 21
108.4425253141
 31
0.0
  0
SPLINE
  5
102
330
1F
100
AcDbEntity
  8
0
  6
Continuous
 62
     7
370
    25
100
AcDbSpline
210
0.0
220
0.0
230
1.0
 70
     8
 71
     3
 72
    16
 73
    12
 74
     0
 42
0.00000001
 43
0.00000001
 40
0.0
 40
0.0
 40
0.0
 40
0.0
 40
0.1185130045111645
 40
0.2405747855396419
 40
0.3590582978631233
 40
0.4807847505858974
 40
0.6029927137059228
 40
0.7285450689237133
 40
0.8540417755653587
 40
0.9834181098154992
 40
1.0
 40
1.0
 40
1.0
 40
1.0
 10
84.52466948476022
 20
108.442525314142
 30
0.0
 10
84.52214004142073
 20
108.4349795100921
 30
0.0
 10
84.51700541259711
 20
108.4196619489644
 30
0.0
 10
84.47673640677408
 20
108.2968188483518
 30
0.0
 10
84.41659037280577
 20
108.1036299815151
 30
0.0
 10
84.34053442657226
 20
107.8398758212662
 30
0.0
 10
84.25530761286022
 20
107.5074219567815
 30
0.0
 10
84.16945021712505
 20
107.1144837179476
 30
0.0
 10
84.0943606713749
 20
106.6635040799748
 30
0.0
 10
84.04994584264101
 20
106.3173828586053
 30
0.0
 10
84.03789482523901
 20
106.1223716890269
 30
0.0
 10
84.03652574413415
 20
106.1002170361376
 30
0.0
  0
LINE
  5
103
330
1F
100
AcDbEntity
  8
0
  6
Continuous
 62
     7
370
    25
100
AcDbLine
 10
66.6149571839
 20
112.9425253141
 30
0.0
 11
66.6149571839
 21
110.9425253141
 31
0.0
  0
LINE
  5
104
330
1F
100
AcDbEntity
  8
0
  6
Continuous
 62
     7
370
    25
100
AcDbLine
 10
66.5246694848
 20
115.4425253141
 30
0.0
 11
66.5246694848
 21
112.9425253141
 31
0.0
  0
SPLINE
  5
105
330
1F
100
AcDbEntity
  8
0
  6
Continuous
 62
     7
370
    25
100
AcDbSpline
210
0.0
220
0.0
230
1.0
 70
     8
 71
     3
 72
    16
 73
    12
 74
     0
 42
0.00000001
 43
0.00000001
 40
0.0
 40
0.0
 40
0.0
 40
0.0
 40
0.0825223467791794
 40
0.2001191574574265
 40
0.3209084131148745
 40
0.4426846612653546
 40
0.5678085951735308
 40
0.6925388707081954
 40
0.8211365476322403
 40
0.9098329386086399
 40
1.0
 40
1.0
 40
1.0
 40
1.0
 10
67.01281322538632
 20
117.8085888487574
 30
0.0
 10
67.00451115575532
 20
117.6984654110599
 30
0.0
 10
66.98437838875886
 20
117.4314127831541
 30
0.0
 10
66.92575666845005
 20
117.0319836675603
 30
0.0
 10
66.8488084821348
 20
116.6196510878453
 30
0.0
 10
66.76264400523895
 20
116.2495706168074
 30
0.0
 10
66.67824948860309
 20
115.9358020994592
 30
0.0
 10
66.60387819531607
 20
115.686899997643
 30
0.0
 10
66.55536872475254
 20
115.5353633467861
 30
0.0
 10
66.52906640105928
 20
115.4556688327399
 30
0.0
 10
66.52614313552323
 20
115.4469304369355
 30
0.0
 10
66.52466948476024
 20
115.442525314142
 30
0.0
  0
SPLINE
  5
106
330
1F
100
AcDbEntity
  8
0
  6
Continuous
 62
     7
370
    25
100
AcDbSpline
210
0.0
220
0.0
230
1.0
 70
     8
 71
     3
 72
    16
 73
    12
 74
     0
 42
0.00000001
 43
0.00000001
 40
0.0
 40
0.0
 40
0.0
 40
0.0
 40
0.118513004511159
 40
0.2405747855396305
 40
0.3590582978631064
 40
0.4807847505858747
 40
0.6029927137058942
 40
0.7285450689236789
 40
0.8540417755653184
 40
0.9834181098154527
 40
1.0
 40
1.0
 40
1.0
 40
1.0
 10
66.52466948476024
 20
108.442525314142
 30
0.0
 10
66.52719892809975
 20
108.4349795100921
 30
0.0
 10
66.53233355692335
 20
108.4196619489644
 30
0.0
 10
66.5726025627464
 20
108.2968188483518
 30
0.0
 10
66.63274859671469
 20
108.1036299815151
 30
0.0
 10
66.70880454294822
 20
107.8398758212662
 30
0.0
 10
66.79403135666024
 20
107.5074219567815
 30
0.0
 10
66.8798887523954
 20
107.1144837179476
 30
0.0
 10
66.95497829814555
 20
106.6635040799748
 30
0.0
 10
66.99939312687947
 20
106.3173828586053
 30
0.0
 10
67.01144414428147
 20
106.1223716890268
 30
0.0
 10
67.01281322538632
 20
106.1002170361374
 30
0.0
  0
LINE
  5
107
330
1F
100
AcDbEntity
  8
0
  6
Continuous
 62
     7
370
    25
100
AcDbLine
 10
66.5246694848
 20
110.9425253141
 30
0.0
 11
66.5246694848
 21
108.4425253141
 31
0.0
  0
LINE
  5
108
330
1F
100
AcDbEntity
  8
0
  6
Continuous
 62
     7
370
    25
100
AcDbLine
 10
66.6149571839
 20
112.9425253141
 30
0.0
 11
65.5246694848
 21
112.9425253141
 31
0.0
  0
LINE
  5
109
330
1F
100
AcDbEntity
  8
0
  6
Continuous
 62
     7
370
    25
100
AcDbLine
 10
66.6149571839
 20
110.9425253141
 30
0.0
 11
65.5246694848
 21
110.9425253141
 31
0.0
  0
LINE
  5
10A
330
1F
100
AcDbEntity
  8
0
  6
Continuous
 62
     7
370
    25
100
AcDbLine
 10
65.5246694848
 20
112.9425253141
 30
0.0
 11
65.5246694848
 21
110.9425253141
 31
0.0
  0
LINE
  5
10B
330
1F
100
AcDbEntity
  8
0
  6
Continuous
 62
     7
370
    25
100
AcDbLine
 10
85.5246694848
 20
112.9425253141
 30
0.0
 11
85.5246694848
 21
110.9425253141
 31
0.0
  0
LINE
  5
10C
330
1F
100
AcDbEntity
  8
0
  6
Continuous
 62
     7
370
    25
100
AcDbLine
 10
85.5246694848
 20
110.9425253141
 30
0.0
 11
84.4343817857
 21
110.9425253141
 31
0.0
  0
LINE
  5
10D
330
1F
100
AcDbEntity
  8
0
  6
Continuous
 62
     7
370
    25
100
AcDbLine
 10
85.5246694848
 20
112.9425253141
 30
0.0
 11
84.4343817857
 21
112.9425253141
 31
0.0
  0
LINE
  5
10E
330
1F
100
AcDbEntity
  8
0
  6
Continuous
 62
     7
370
    25
100
AcDbLine
 10
70.0246694848
 20
104.9425253141
 30
0.0
 11
64.5246694848
 21
104.9425253141
 31
0.0
  0
LINE
  5
10F
330
1F
100
AcDbEntity
  8
0
  6
Continuous
 62
     7
370
    25
100
AcDbLine
 10
64.5246694848
 20
118.9425253141
 30
0.0
 11
64.5246694848
 21
104.9425253141
 31
0.0
  0
LINE
  5
110
330
1F
100
AcDbEntity
  8
0
  6
Continuous
 62
     7
370
    25
100
AcDbLine
 10
64.5246694848
 20
118.9425253141
 30
0.0
 11
70.0246694848
 21
118.9425253141
 31
0.0
  0
LINE
  5
111
330
1F
100
AcDbEntity
  8
0
  6
Continuous
 62
     7
370
    25
100
AcDbLine
 10
70.0246694848
 20
118.9425253141
 30
0.0
 11
70.0246694848
 21
104.9425253141
 31
0.0
  0
LINE
  5
112
330
1F
100
AcDbEntity
  8
0
  6
Continuous
 62
     7
370
    25
100
AcDbLine
 10
86.5246694848
 20
104.9425253141
 30
0.0
 11
81.0246694848
 21
104.9425253141
 31
0.0
  0
LINE
  5
113
330
1F
100
AcDbEntity
  8
0
  6
Continuous
 62
     7
370
    25
100
AcDbLine
 10
81.0246694848
 20
118.9425253141
 30
0.0
 11
81.0246694848
 21
104.9425253141
 31
0.0
  0
LINE
  5
114
330
1F
100
AcDbEntity
  8
0
  6
Continuous
 62
     7
370
    25
100
AcDbLine
 10
81.0246694848
 20
118.9425253141
 30
0.0
 11
86.5246694848
 21
118.9425253141
 31
0.0
  0
LINE
  5
115
330
1F
100
AcDbEntity
  8
0
  6
Continuous
 62
     7
370
    25
100
AcDbLine
 10
86.5246694848
 20
118.9425253141
 30
0.0
 11
86.5246694848
 21
104.9425253141
 31
0.0
  0
LINE
  5
116
330
1F
100
AcDbEntity
  8
0
  6
Continuous
 62
     7
370
    25
100
AcDbLine
 10
78.0246694848
 20
117.4425253141
 30
0.0
 11
73.0246694848
 21
117.4425253141
 31
0.0
  0
LINE
  5
117
330
1F
100
AcDbEntity
  8
0
  6
Continuous
 62
     7
370
    25
100
AcDbLine
 10
73.0246694848
 20
117.4425253141
 30
0.0
 11
73.0246694848
 21
118.9425253141
 31
0.0
  0
LINE
  5
118
330
1F
100
AcDbEntity
  8
0
  6
Continuous
 62
     7
370
    25
100
AcDbLine
 10
78.0246694848
 20
118.9425253141
 30
0.0
 11
73.0246694848
 21
118.9425253141
 31
0.0
  0
LINE
  5
119
330
1F
100
AcDbEntity
  8
0
  6
Continuous
 62
     7
370
    25
100
AcDbLine
 10
78.0246694848
 20
118.9425253141
 30
0.0
 11
78.0246694848
 21
117.4425253141
 31
0.0
  0
LINE
  5
11A
330
1F
100
AcDbEntity
  8
0
  6
Continuous
 62
     7
370
    25
100
AcDbLine
 10
88.9246694848
 20
111.9425253141
 30
0.0
 11
88.9246694848
 21
118.9425253141
 31
0.0
  0
LINE
  5
11B
330
1F
100
AcDbEntity
  8
0
  6
Continuous
 62
     7
370
    25
100
AcDbLine
 10
88.9246694848
 20
111.9425253141
 30
0.0
 11
86.5246694848
 21
111.9425253141
 31
0.0
  0
LINE
  5
11C
330
1F
100
AcDbEntity
  8
0
  6
Continuous
 62
     7
370
    25
100
AcDbLine
 10
86.5246694848
 20
118.9425253141
 30
0.0
 11
88.9246694848
 21
118.9425253141
 31
0.0
  0
LINE
  5
11D
330
1F
100
AcDbEntity
  8
0
  6
Continuous
 62
     7
370
    25
100
AcDbLine
 10
62.1246694848
 20
111.9425253141
 30
0.0
 11
62.1246694848
 21
104.9425253141
 31
0.0
  0
LINE
  5
11E
330
1F
100
AcDbEntity
  8
0
  6
Continuous
 62
     7
370
    25
100
AcDbLine
 10
64.5246694848
 20
111.9425253141
 30
0.0
 11
62.1246694848
 21
111.9425253141
 31
0.0
  0
LINE
  5
11F
330
1F
100
AcDbEntity
  8
0
  6
Continuous
 62
     7
370
    25
100
AcDbLine
 10
64.5246694848
 20
104.9425253141
 30
0.0
 11
62.1246694848
 21
104.9425253141
 31
0.0
  0
CIRCLE
  5
120
330
1F
100
AcDbEntity
  8
0
  6
Continuous
 62
     7
370
    25
100
AcDbCircle
 10
75.5246694848
 20
111.9425253141
 30
0.0
 40
2.0
  0
LINE
  5
121
330
1F
100
AcDbEntity
  8
0
  6
Continuous
 62
     7
370
    25
100
AcDbLine
 10
70.0246694848
 20
104.9425253141
 30
0.0
 11
81.0246694848
 21
104.9425253141
 31
0.0
  0
LINE
  5
122
330
1F
100
AcDbEntity
  8
0
  6
Continuous
 62
     7
370
    25
100
AcDbLine
 10
78.0246694848
 20
118.9425253141
 30
0.0
 11
81.0246694848
 21
118.9425253141
 31
0.0
  0
LINE
  5
123
330
1F
100
AcDbEntity
  8
0
  6
Continuous
 62
     7
370
    25
100
AcDbLine
 10
70.0246694848
 20
118.9425253141
 30
0.0
 11
73.0246694848
 21
118.9425253141
 31
0.0
  0
INSERT
  5
12F
330
1F
100
AcDbEntity
  8
0
  6
Continuous
 62
     7
370
    18
100
AcDbBlockReference
  2
SW_CENTERMARKSYMBOL_1
 10
75.5246694848
 20
111.9425253141
 30
0.0
  0
LINE
  5
130
330
1F
100
AcDbEntity
  8
0
  6
Continuous
 62
     7
370
    25
100
AcDbLine
 10
136.110799639
 20
131.9699174271
 30
0.0
 11
126.9184114836
 21
126.6632647002
 31
0.0
  0
LINE
  5
131
330
1F
100
AcDbEntity
  8
0
  6
Continuous
 62
     7
370
    25
100
AcDbLine
 10
136.110799639
 20
131.9699174271
 30
0.0
 11
137.1553459995
 21
131.1542274125
 31
0.0
  0
LINE
  5
132
330
1F
100
AcDbEntity
  8
0
  6
Continuous
 62
     7
370
    25
100
AcDbLine
 10
137.1553459995
 20
131.1542274125
 30
0.0
 11
127.9629578441
 21
125.8475746857
 31
0.0
  0
LINE
  5
133
330
1F
100
AcDbEntity
  8
0
  6
Continuous
 62
     7
370
    25
100
AcDbLine
 10
127.9629578441
 20
125.8475746857
 30
0.0
 11
126.9184114836
 21
126.6632647002
 31
0.0
  0
ARC
  5
134
330
1F
100
AcDbEntity
  8
0
  6
Continuous
 62
     7
370
    25
100
AcDbCircle
 10
114.7891682999
 20
118.6590984041
 30
0.0
 40
13.59642748326751
100
AcDbArc
 50
14.6398903858
 51
20.2330400236
  0
LINE
  5
135
330
1F
100
AcDbEntity
  8
0
  6
Continuous
 62
     7
370
    25
100
AcDbLine
 10
127.9441665626
 20
122.0955007404
 30
0.0
 11
126.8047220864
 21
122.7532880351
 31
0.0
  0
ARC
  5
136
330
1F
100
AcDbEntity
  8
0
  6
Continuous
 62
     7
370
    25
100
AcDbCircle
 10
115.4743247602
 20
119.2290089946
 30
0.0
 40
11.86585211119512
100
AcDbArc
 50
17.2781166414
 51
22.527379631
  0
LINE
  5
137
330
1F
100
AcDbEntity
  8
0
  6
Continuous
 62
     7
370
    25
100
AcDbLine
 10
126.9184114836
 20
126.6632647002
 30
0.0
 11
126.4347714908
 21
123.775112138
 31
0.0
  0
LINE
  5
138
330
1F
100
AcDbEntity
  8
0
  6
Continuous
 62
     7
370
    25
100
AcDbLine
 10
127.5466112031
 20
123.3612777795
 30
0.0
 11
127.9629578441
 21
125.8475746857
 31
0.0
  0
LINE
  5
139
330
1F
100
AcDbEntity
  8
0
  6
Continuous
 62
     7
370
    25
100
AcDbLine
 10
136.7389993586
 20
128.6679305064
 30
0.0
 11
127.5466112031
 21
123.3612777795
 31
0.0
  0
LINE
  5
13A
330
1F
100
AcDbEntity
  8
0
  6
Continuous
 62
     7
370
    25
100
AcDbLine
 10
136.7389993586
 20
128.6679305064
 30
0.0
 11
137.1553459995
 21
131.1542274125
 31
0.0
  0
ARC
  5
13B
330
1F
100
AcDbEntity
  8
0
  6
Continuous
 62
     7
370
    25
100
AcDbCircle
 10
123.9815564553
 20
123.9657511309
 30
0.0
 40
13.59642748327922
100
AcDbArc
 50
14.6398903858
 51
20.2330400236
  0
SPLINE
  5
13C
330
1F
100
AcDbEntity
  8
0
  6
Continuous
 62
     7
370
    25
100
AcDbSpline
210
0.0
220
0.0
230
1.0
 70
     8
 71
     3
 72
    20
 73
    16
 74
     0
 42
0.00000001
 43
0.00000001
 40
0.0
 40
0.0
 40
0.0
 40
0.0
 40
0.1249999999999996
 40
0.1249999999999996
 40
0.2499999999999992
 40
0.2499999999999992
 40
0.3749999999999988
 40
0.3749999999999988
 40
0.4999999999999984
 40
0.4999999999999984
 40
0.7499999999999992
 40
0.7499999999999992
 40
0.8749999999999996
 40
0.8749999999999996
 40
1.0
 40
1.0
 40
1.0
 40
1.0
 10
137.1365547180163
 20
127.4021534672155
 30
0.0
 10
136.9953858154268
 20
127.3206583944219
 30
0.0
 10
136.8617761116268
 20
127.2216664987498
 30
0.0
 10
136.6082925313412
 20
126.9907157863181
 30
0.0
 10
136.4872071855251
 20
126.8569588821031
 30
0.0
 10
136.2654818982737
 20
126.5659345554952
 30
0.0
 10
136.1644317206963
 20
126.4089333283789
 30
0.0
 10
135.9790399788257
 20
126.0732537322351
 30
0.0
 10
135.8951115403683
 20
125.8946860916185
 30
0.0
 10
135.6745344162113
 20
125.3498194354113
 30
0.0
 10
135.5635095016872
 20
124.9606789520934
 30
0.0
 10
135.4535185476736
 20
124.3988929389388
 30
0.0
 10
135.4255823021871
 20
124.2120277686283
 30
0.0
 10
135.3884556090874
 20
123.8523820126258
 30
0.0
 10
135.3791954051356
 20
123.6808135636329
 30
0.0
 10
135.3791954051356
 20
123.5178086331352
 30
0.0
  0
LINE
  5
13D
330
1F
100
AcDbEntity
  8
0
  6
Continuous
 62
     7
370
    25
100
AcDbLine
 10
133.5475854079
 20
123.5724869084
 30
0.0
 11
132.1333718455
 21
122.7560787966
 31
0.0
  0
ARC
  5
13E
330
1F
100
AcDbEntity
  8
0
  6
Continuous
 62
     7
370
    25
100
AcDbCircle
 10
122.8030814031
 20
121.662570756
 30
0.0
 40
9.39415134930837
100
AcDbArc
 50
0.1117331253
 51
6.6845584914
  0
LINE
  5
13F
330
1F
100
AcDbEntity
  8
0
  6
Continuous
 62
     7
370
    25
100
AcDbLine
 10
132.1972148898
 20
121.6808903815
 30
0.0
 11
130.4294479368
 21
120.6603802418
 31
0.0
  0
SPLINE
  5
140
330
1F
100
AcDbEntity
  8
0
  6
Continuous
 62
     7
370
    25
100
AcDbSpline
210
0.0
220
0.0
230
1.0
 70
     8
 71
     3
 72
    20
 73
    16
 74
     0
 42
0.00000001
 43
0.00000001
 40
0.0
 40
0.0
 40
0.0
 40
0.0
 40
0.1250000000000002
 40
0.1250000000000002
 40
0.2500000000000003
 40
0.2500000000000003
 40
0.3750000000000005
 40
0.3750000000000005
 40
0.5000000000000008
 40
0.5000000000000008
 40
0.7500000000000001
 40
0.7500000000000001
 40
0.875
 40
0.875
 40
1.0
 40
1.0
 40
1.0
 40
1.0
 10
130.4294479368297
 20
120.6603802417557
 30
0.0
 10
130.4294479368297
 20
120.8233862127234
 30
0.0
 10
130.4108125197583
 20
120.9781006559325
 30
0.0
 10
130.3385035197347
 20
121.2714938291858
 30
0.0
 10
130.2838830118082
 20
121.4115620814356
 30
0.0
 10
130.1439842865934
 20
121.6650985071966
 30
0.0
 10
130.0591471476043
 20
121.779028095216
 30
0.0
 10
129.8619829711944
 20
121.9805874604154
 30
0.0
 10
129.7494907463335
 20
122.0676642253105
 30
0.0
 10
129.3877967442442
 20
122.2765568181231
 30
0.0
 10
129.1052356045589
 20
122.3506979152328
 30
0.0
 10
128.6718817333965
 20
122.3439693922868
 30
0.0
 10
128.5234045644819
 20
122.3222501620047
 30
0.0
 10
128.2295614353865
 20
122.2383895992714
 30
0.0
 10
128.0853319285885
 20
122.1769937715302
 30
0.0
 10
127.9441665625912
 20
122.0955007403678
 30
0.0
  0
LINE
  5
141
330
1F
100
AcDbEntity
  8
0
  6
Continuous
 62
     7
370
    25
100
AcDbLine
 10
129.368787765
 20
121.2726863256
 30
0.0
 11
130.4294479368
 21
120.6603802418
 31
0.0
  0
SPLINE
  5
142
330
1F
100
AcDbEntity
  8
0
  6
Continuous
 62
     7
370
    25
100
AcDbSpline
210
0.0
220
0.0
230
1.0
 70
     8
 71
     3
 72
    11
 73
     7
 74
     0
 42
0.00000001
 43
0.00000001
 40
0.0
 40
0.0
 40
0.0
 40
0.0
 40
0.0374654897923197
 40
0.3590601331477735
 40
0.690016161344622
 40
1.0
 40
1.0
 40
1.0
 40
1.0
 10
129.3687877650499
 20
121.2726863256227
 30
0.0
 10
129.3686836724823
 20
121.2875174565552
 30
0.0
 10
129.3676860746554
 20
121.4296554047544
 30
0.0
 10
129.3341233025781
 20
121.6945224084534
 30
0.0
 10
129.2219062651194
 20
122.0376344590512
 30
0.0
 10
129.0938269903817
 20
122.2305856375116
 30
0.0
 10
129.0318827936034
 20
122.3239044495649
 30
0.0
  0
LINE
  5
143
330
1F
100
AcDbEntity
  8
0
  6
Continuous
 62
     7
370
    25
100
AcDbLine
 10
132.1972148898
 20
121.6808903815
 30
0.0
 11
132.1972148898
 21
115.1485638864
 31
0.0
  0
LINE
  5
144
330
1F
100
AcDbEntity
  8
0
  6
Continuous
 62
     7
370
    25
100
AcDbLine
 10
132.1972148898
 20
115.1485638864
 30
0.0
 11
130.4294479368
 21
114.1280537467
 31
0.0
  0
LINE
  5
145
330
1F
100
AcDbEntity
  8
0
  6
Continuous
 62
     7
370
    25
100
AcDbLine
 10
130.4294479368
 20
114.1280537467
 30
0.0
 11
130.4294479368
 21
120.6603802418
 31
0.0
  0
LINE
  5
146
330
1F
100
AcDbEntity
  8
0
  6
Continuous
 62
     7
370
    25
100
AcDbLine
 10
129.0152343745
 20
114.9444618585
 30
0.0
 11
130.4294479368
 21
114.1280537467
 31
0.0
  0
LINE
  5
147
330
1F
100
AcDbEntity
  8
0
  6
Continuous
 62
     7
370
    25
100
AcDbLine
 10
129.0152343745
 20
114.9444618585
 30
0.0
 11
129.0152343745
 21
119.2781849317
 31
0.0
  0
ARC
  5
148
330
1F
100
AcDbEntity
  8
0
  6
Continuous
 62
     7
370
    25
100
AcDbCircle
 10
124.1194157643
 20
121.1746244058
 30
0.0
 40
5.25028785328406
100
AcDbArc
 50
338.8256740963
 51
1.0702005327
  0
LINE
  5
149
330
1F
100
AcDbEntity
  8
0
  6
Continuous
 62
     7
370
    25
100
AcDbLine
 10
134.3185352334
 20
118.0784867241
 30
0.0
 11
133.5475854079
 21
123.5724869084
 31
0.0
  0
LINE
  5
14A
330
1F
100
AcDbEntity
  8
0
  6
Continuous
 62
     7
370
    25
100
AcDbLine
 10
134.3185352334
 20
118.0784867241
 30
0.0
 11
132.904321671
 21
117.2620786123
 31
0.0
  0
LINE
  5
14B
330
1F
100
AcDbEntity
  8
0
  6
Continuous
 62
     7
370
    25
100
AcDbLine
 10
132.904321671
 20
117.2620786123
 30
0.0
 11
132.1333718455
 21
122.7560787966
 31
0.0
  0
LINE
  5
14C
330
1F
100
AcDbEntity
  8
0
  6
Continuous
 62
     7
370
    25
100
AcDbLine
 10
132.904321671
 20
114.7403598305
 30
0.0
 11
132.904321671
 21
117.2620786123
 31
0.0
  0
LINE
  5
14D
330
1F
100
AcDbEntity
  8
0
  6
Continuous
 62
     7
370
    25
100
AcDbLine
 10
132.1972148898
 20
115.1485638864
 30
0.0
 11
132.904321671
 21
114.7403598305
 31
0.0
  0
LINE
  5
14E
330
1F
100
AcDbEntity
  8
0
  6
Continuous
 62
     7
370
    25
100
AcDbLine
 10
117.7015258755
 20
118.6182983617
 30
0.0
 11
113.8124385789
 21
120.8634206692
 31
0.0
  0
LINE
  5
14F
330
1F
100
AcDbEntity
  8
0
  6
Continuous
 62
     7
370
    25
100
AcDbLine
 10
117.7015258755
 20
115.3521351142
 30
0.0
 11
117.7015258755
 21
118.6182983617
 31
0.0
  0
LINE
  5
150
330
1F
100
AcDbEntity
  8
0
  6
Continuous
 62
     7
370
    25
100
AcDbLine
 10
117.7015258755
 20
115.3521351142
 30
0.0
 11
125.4797004685
 21
110.8618904991
 31
0.0
  0
LINE
  5
151
330
1F
100
AcDbEntity
  8
0
  6
Continuous
 62
     7
370
    25
100
AcDbLine
 10
125.4797004685
 20
110.8618904991
 30
0.0
 11
125.4797004685
 21
114.1280537467
 31
0.0
  0
LINE
  5
152
330
1F
100
AcDbEntity
  8
0
  6
Continuous
 62
     7
370
    25
100
AcDbLine
 10
129.368787765
 20
111.8829314392
 30
0.0
 11
125.4797004685
 21
114.1280537467
 31
0.0
  0
LINE
  5
153
330
1F
100
AcDbEntity
  8
0
  6
Continuous
 62
     7
370
    25
100
AcDbLine
 10
129.368787765
 20
110.3315038966
 30
0.0
 11
129.368787765
 21
111.8829314392
 31
0.0
  0
LINE
  5
154
330
1F
100
AcDbEntity
  8
0
  6
Continuous
 62
     7
370
    25
100
AcDbLine
 10
127.6010208121
 20
111.6786303611
 30
0.0
 11
129.368787765
 21
110.3315038966
 31
0.0
  0
LINE
  5
155
330
1F
100
AcDbEntity
  8
0
  6
Continuous
 62
     7
370
    25
100
AcDbLine
 10
127.6010208121
 20
109.1473538443
 30
0.0
 11
127.6010208121
 21
111.6786303611
 31
0.0
  0
LINE
  5
156
330
1F
100
AcDbEntity
  8
0
  6
Continuous
 62
     7
370
    25
100
AcDbLine
 10
129.368787765
 20
108.4534600292
 30
0.0
 11
127.6010208121
 21
109.1473538443
 31
0.0
  0
LINE
  5
157
330
1F
100
AcDbEntity
  8
0
  6
Continuous
 62
     7
370
    25
100
AcDbLine
 10
129.368787765
 20
103.7175233203
 30
0.0
 11
129.368787765
 21
108.4534600292
 31
0.0
  0
LINE
  5
158
330
1F
100
AcDbEntity
  8
0
  6
Continuous
 62
     7
370
    25
100
AcDbLine
 10
113.8124385789
 20
112.6980125503
 30
0.0
 11
129.368787765
 21
103.7175233203
 31
0.0
  0
LINE
  5
159
330
1F
100
AcDbEntity
  8
0
  6
Continuous
 62
     7
370
    25
100
AcDbLine
 10
113.8124385789
 20
117.4339492593
 30
0.0
 11
113.8124385789
 21
112.6980125503
 31
0.0
  0
LINE
  5
15A
330
1F
100
AcDbEntity
  8
0
  6
Continuous
 62
     7
370
    25
100
AcDbLine
 10
112.1153823041
 20
118.1003008941
 30
0.0
 11
113.8124385789
 21
117.4339492593
 31
0.0
  0
LINE
  5
15B
330
1F
100
AcDbEntity
  8
0
  6
Continuous
 62
     7
370
    25
100
AcDbLine
 10
112.1153823041
 20
120.6060510734
 30
0.0
 11
112.1153823041
 21
118.1003008941
 31
0.0
  0
LINE
  5
15C
330
1F
100
AcDbEntity
  8
0
  6
Continuous
 62
     7
370
    25
100
AcDbLine
 10
113.8124385789
 20
119.3119931266
 30
0.0
 11
112.1153823041
 21
120.6060510734
 31
0.0
  0
LINE
  5
15D
330
1F
100
AcDbEntity
  8
0
  6
Continuous
 62
     7
370
    25
100
AcDbLine
 10
113.8124385789
 20
120.8634206692
 30
0.0
 11
113.8124385789
 21
119.3119931266
 31
0.0
  0
LINE
  5
15E
330
1F
100
AcDbEntity
  8
0
  6
Continuous
 62
     7
370
    25
100
AcDbLine
 10
139.2682827017
 20
117.5977882219
 30
0.0
 11
129.368787765
 21
111.8829314392
 31
0.0
  0
LINE
  5
15F
330
1F
100
AcDbEntity
  8
0
  6
Continuous
 62
     7
370
    25
100
AcDbLine
 10
139.2682827017
 20
117.5977882219
 30
0.0
 11
139.2682827017
 21
116.0463606793
 31
0.0
  0
LINE
  5
160
330
1F
100
AcDbEntity
  8
0
  6
Continuous
 62
     7
370
    25
100
AcDbLine
 10
139.2682827017
 20
116.0463606793
 30
0.0
 11
134.3185352334
 21
113.188932288
 31
0.0
  0
LINE
  5
161
330
1F
100
AcDbEntity
  8
0
  6
Continuous
 62
     7
370
    25
100
AcDbLine
 10
129.368787765
 20
110.3315038966
 30
0.0
 11
134.3185352334
 21
113.188932288
 31
0.0
  0
LINE
  5
162
330
1F
100
AcDbEntity
  8
0
  6
Continuous
 62
     7
370
    25
100
AcDbLine
 10
129.0152343745
 20
116.1690740262
 30
0.0
 11
125.4797004685
 21
114.1280537467
 31
0.0
  0
LINE
  5
163
330
1F
100
AcDbEntity
  8
0
  6
Continuous
 62
     7
370
    25
100
AcDbLine
 10
135.3791954051
 20
119.8429105294
 30
0.0
 11
139.2682827017
 21
117.5977882219
 31
0.0
  0
LINE
  5
164
330
1F
100
AcDbEntity
  8
0
  6
Continuous
 62
     7
370
    25
100
AcDbLine
 10
134.3185352334
 20
115.5567679424
 30
0.0
 11
132.904321671
 21
114.7403598305
 31
0.0
  0
LINE
  5
165
330
1F
100
AcDbEntity
  8
0
  6
Continuous
 62
     7
370
    25
100
AcDbLine
 10
134.3185352334
 20
116.3731760542
 30
0.0
 11
135.3791954051
 21
116.985482138
 31
0.0
  0
ARC
  5
166
330
1F
100
AcDbEntity
  8
0
  6
Continuous
 62
     7
370
    25
100
AcDbCircle
 10
119.9564667965
 20
126.9904020784
 30
0.0
 40
3.184851019898311
100
AcDbArc
 50
141.801979229
 51
154.4272229594
  0
LINE
  5
167
330
1F
100
AcDbEntity
  8
0
  6
Continuous
 62
     7
370
    25
100
AcDbLine
 10
115.9441665626
 20
129.0229532854
 30
0.0
 11
117.0836110388
 21
128.3651659907
 31
0.0
  0
ARC
  5
168
330
1F
100
AcDbEntity
  8
0
  6
Continuous
 62
     7
370
    25
100
AcDbCircle
 10
119.9298080251
 20
127.5602681866
 30
0.0
 40
4.245560689270058
100
AcDbArc
 50
147.686760636
 51
159.847437333
  0
LINE
  5
169
330
1F
100
AcDbEntity
  8
0
  6
Continuous
 62
     7
370
    25
100
AcDbLine
 10
115.9253752811
 20
132.7967231825
 30
0.0
 11
116.341721922
 21
129.8297226768
 31
0.0
  0
LINE
  5
16A
330
1F
100
AcDbEntity
  8
0
  6
Continuous
 62
     7
370
    25
100
AcDbLine
 10
116.9699216416
 20
132.4064056399
 30
0.0
 11
115.9253752811
 21
132.7967231825
 31
0.0
  0
LINE
  5
16B
330
1F
100
AcDbEntity
  8
0
  6
Continuous
 62
     7
370
    25
100
AcDbLine
 10
117.4535616344
 20
128.9598542278
 30
0.0
 11
116.9699216416
 21
132.4064056399
 31
0.0
  0
LINE
  5
16C
330
1F
100
AcDbEntity
  8
0
  6
Continuous
 62
     7
370
    25
100
AcDbLine
 10
126.6459497898
 20
134.2665069546
 30
0.0
 11
117.4535616344
 21
128.9598542278
 31
0.0
  0
LINE
  5
16D
330
1F
100
AcDbEntity
  8
0
  6
Continuous
 62
     7
370
    25
100
AcDbLine
 10
126.162309797
 20
137.7130583667
 30
0.0
 11
116.9699216416
 21
132.4064056399
 31
0.0
  0
LINE
  5
16E
330
1F
100
AcDbEntity
  8
0
  6
Continuous
 62
     7
370
    25
100
AcDbLine
 10
126.6459497898
 20
134.2665069546
 30
0.0
 11
126.162309797
 21
137.7130583667
 31
0.0
  0
LINE
  5
16F
330
1F
100
AcDbEntity
  8
0
  6
Continuous
 62
     7
370
    25
100
AcDbLine
 10
135.3791954051
 20
116.985482138
 30
0.0
 11
135.3791954051
 21
123.5178086331
 31
0.0
  0
LINE
  5
170
330
1F
100
AcDbEntity
  8
0
  6
Continuous
 62
     7
370
    25
100
AcDbLine
 10
125.1177634365
 20
138.1033759093
 30
0.0
 11
115.9253752811
 21
132.7967231825
 31
0.0
  0
LINE
  5
171
330
1F
100
AcDbEntity
  8
0
  6
Continuous
 62
     7
370
    25
100
AcDbLine
 10
125.1177634365
 20
138.1033759093
 30
0.0
 11
126.162309797
 21
137.7130583667
 31
0.0
  0
LINE
  5
172
330
1F
100
AcDbEntity
  8
0
  6
Continuous
 62
     7
370
    25
100
AcDbLine
 10
134.3185352334
 20
115.5567679424
 30
0.0
 11
134.3185352334
 21
118.0784867241
 31
0.0
  0
LINE
  5
173
330
1F
100
AcDbEntity
  8
0
  6
Continuous
 62
     7
370
    25
100
AcDbLine
 10
132.5507682804
 20
112.1684221482
 30
0.0
 11
132.5507682804
 21
112.0047822356
 31
0.0
  0
LINE
  5
174
330
1F
100
AcDbEntity
  8
0
  6
Continuous
 62
     7
370
    25
100
AcDbLine
 10
127.6010208121
 20
109.1473538443
 30
0.0
 11
132.5507682804
 21
112.0047822356
 31
0.0
  0
LINE
  5
175
330
1F
100
AcDbEntity
  8
0
  6
Continuous
 62
     7
370
    25
100
AcDbLine
 10
132.5507682804
 20
112.0047822356
 30
0.0
 11
134.3185352334
 21
111.3108884206
 31
0.0
  0
LINE
  5
176
330
1F
100
AcDbEntity
  8
0
  6
Continuous
 62
     7
370
    25
100
AcDbLine
 10
129.368787765
 20
108.4534600292
 30
0.0
 11
134.3185352334
 21
111.3108884206
 31
0.0
  0
LINE
  5
177
330
1F
100
AcDbEntity
  8
0
  6
Continuous
 62
     7
370
    25
100
AcDbLine
 10
139.2682827017
 20
111.8955992442
 30
0.0
 11
139.2682827017
 21
109.4323801031
 31
0.0
  0
LINE
  5
178
330
1F
100
AcDbEntity
  8
0
  6
Continuous
 62
     7
370
    25
100
AcDbLine
 10
139.2682827017
 20
109.4323801031
 30
0.0
 11
129.368787765
 21
103.7175233203
 31
0.0
  0
SPLINE
  5
179
330
1F
100
AcDbEntity
  8
0
  6
Continuous
 62
     7
370
    25
100
AcDbSpline
210
0.0
220
0.0
230
1.0
 70
     8
 71
     3
 72
    20
 73
    16
 74
     0
 42
0.00000001
 43
0.00000001
 40
0.0
 40
0.0
 40
0.0
 40
0.0
 40
0.1250000000000005
 40
0.1250000000000005
 40
0.250000000000001
 40
0.250000000000001
 40
0.3750000000000015
 40
0.3750000000000015
 40
0.500000000000002
 40
0.500000000000002
 40
0.7500000000000011
 40
0.7500000000000011
 40
0.8750000000000006
 40
0.8750000000000006
 40
1.0
 40
1.0
 40
1.0
 40
1.0
 10
126.2759991942104
 20
133.6718187175314
 30
0.0
 10
126.1341684762404
 20
133.589941586851
 30
0.0
 10
125.9888325707965
 20
133.4969557855283
 30
0.0
 10
125.6922754569085
 20
133.2894217801701
 30
0.0
 10
125.5393394565184
 20
133.1733650971408
 30
0.0
 10
125.2407250784481
 20
132.926486234464
 30
0.0
 10
125.0945500789925
 20
132.7955523853227
 30
0.0
 10
124.8108894767271
 20
132.5166526286624
 30
0.0
 10
124.6745085753498
 20
132.3694497857725
 30
0.0
 10
124.2986014267729
 20
131.9158867877469
 30
0.0
 10
124.0847558222758
 20
131.5869552471741
 30
0.0
 10
123.8655899405676
 20
131.0875144078662
 30
0.0
 10
123.8078708459534
 20
130.9165732858201
 30
0.0
 10
123.7312417597912
 20
130.5800399805971
 30
0.0
 10
123.7119335155575
 20
130.415050411674
 30
0.0
 10
123.7119335155576
 20
130.2531755556724
 30
0.0
  0
ARC
  5
17A
330
1F
100
AcDbEntity
  8
0
  6
Continuous
 62
     7
370
    25
100
AcDbCircle
 10
132.719307857
 20
130.3512279405
 30
0.0
 40
9.007908014424016
100
AcDbArc
 50
180.6236851844
 51
196.1180936455
  0
LINE
  5
17B
330
1F
100
AcDbEntity
  8
0
  6
Continuous
 62
     7
370
    25
100
AcDbLine
 10
124.0654869062
 20
127.8504701058
 30
0.0
 11
119.1157394378
 21
124.9930417145
 31
0.0
  0
ARC
  5
17C
330
1F
100
AcDbEntity
  8
0
  6
Continuous
 62
     7
370
    25
100
AcDbCircle
 10
127.7695603888
 20
127.4937995491
 30
0.0
 40
9.007908014526315
100
AcDbArc
 50
180.6236851845
 51
196.1180936453
  0
SPLINE
  5
17D
330
1F
100
AcDbEntity
  8
0
  6
Continuous
 62
     7
370
    25
100
AcDbSpline
210
0.0
220
0.0
230
1.0
 70
     8
 71
     3
 72
    20
 73
    16
 74
     0
 42
0.00000001
 43
0.00000001
 40
0.0
 40
0.0
 40
0.0
 40
0.0
 40
0.1250000000000001
 40
0.1250000000000001
 40
0.2500000000000002
 40
0.2500000000000002
 40
0.3750000000000002
 40
0.3750000000000002
 40
0.5000000000000003
 40
0.5000000000000003
 40
0.7500000000000004
 40
0.7500000000000004
 40
0.8750000000000002
 40
0.8750000000000002
 40
1.0
 40
1.0
 40
1.0
 40
1.0
 10
118.7621860472517
 20
127.3957471642931
 30
0.0
 10
118.7621860472517
 20
127.5587517571966
 30
0.0
 10
118.7537578957037
 20
127.7090714610185
 30
0.0
 10
118.7204936697635
 20
127.9802231204175
 30
0.0
 10
118.6952333846286
 20
128.1031402042054
 30
0.0
 10
118.6281063387974
 20
128.3143728930633
 30
0.0
 10
118.5865249512834
 20
128.4030107080812
 30
0.0
 10
118.4851424796743
 20
128.5486807414801
 30
0.0
 10
118.425261738986
 20
128.6050941846547
 30
0.0
 10
118.2206026343029
 20
128.7230570492332
 30
0.0
 10
118.0453890625047
 20
128.7358296254855
 30
0.0
 10
117.7273378519515
 20
128.6632144014341
 30
0.0
 10
117.6102691651285
 20
128.6234020866449
 30
0.0
 10
117.3586749393617
 20
128.5148933704769
 30
0.0
 10
117.2252754991964
 20
128.4469471429183
 30
0.0
 10
117.0836110387853
 20
128.3651659906837
 30
0.0
  0
ARC
  5
17E
330
1F
100
AcDbEntity
  8
0
  6
Continuous
 62
     7
370
    25
100
AcDbCircle
 10
129.1488549519
 20
132.2970548053
 30
0.0
 40
3.18485101989884
100
AcDbArc
 50
141.801979229
 51
154.4272229594
  0
LINE
  5
17F
330
1F
100
AcDbEntity
  8
0
  6
Continuous
 62
     7
370
    25
100
AcDbLine
 10
136.0155915082
 20
110.017860587
 30
0.0
 11
136.0155915082
 21
112.5236107663
 31
0.0
  0
LINE
  5
180
330
1F
100
AcDbEntity
  8
0
  6
Continuous
 62
     7
370
    25
100
AcDbLine
 10
134.3185352334
 20
111.3108884206
 30
0.0
 11
136.0155915082
 21
110.017860587
 31
0.0
  0
LINE
  5
181
330
1F
100
AcDbEntity
  8
0
  6
Continuous
 62
     7
370
    25
100
AcDbLine
 10
136.0155915082
 20
112.5236107663
 30
0.0
 11
134.3185352334
 21
113.188932288
 31
0.0
  0
LINE
  5
182
330
1F
100
AcDbEntity
  8
0
  6
Continuous
 62
     7
370
    25
100
AcDbLine
 10
139.2682827017
 20
116.0463606793
 30
0.0
 11
140.9653389765
 21
115.3810391577
 31
0.0
  0
LINE
  5
183
330
1F
100
AcDbEntity
  8
0
  6
Continuous
 62
     7
370
    25
100
AcDbLine
 10
136.0155915082
 20
112.5236107663
 30
0.0
 11
140.9653389765
 21
115.3810391577
 31
0.0
  0
LINE
  5
184
330
1F
100
AcDbEntity
  8
0
  6
Continuous
 62
     7
370
    25
100
AcDbLine
 10
140.9653389765
 20
115.3810391577
 30
0.0
 11
140.9653389765
 21
112.8752889784
 31
0.0
  0
LINE
  5
185
330
1F
100
AcDbEntity
  8
0
  6
Continuous
 62
     7
370
    25
100
AcDbLine
 10
136.0155915082
 20
110.017860587
 30
0.0
 11
140.9653389765
 21
112.8752889784
 31
0.0
  0
LINE
  5
186
330
1F
100
AcDbEntity
  8
0
  6
Continuous
 62
     7
370
    25
100
AcDbLine
 10
117.7015258755
 20
128.0080532482
 30
0.0
 11
118.7621860473
 21
127.3957471643
 31
0.0
  0
SPLINE
  5
187
330
1F
100
AcDbEntity
  8
0
  6
Continuous
 62
     7
370
    25
100
AcDbSpline
210
0.0
220
0.0
230
1.0
 70
     8
 71
     3
 72
     9
 73
     5
 74
     0
 42
0.00000001
 43
0.00000001
 40
0.0
 40
0.0
 40
0.0
 40
0.0
 40
0.5733117518220667
 40
1.0
 40
1.0
 40
1.0
 40
1.0
 10
117.7015258754719
 20
128.0080532481601
 30
0.0
 10
117.6987780175732
 20
128.138827077513
 30
0.0
 10
117.6939850617512
 20
128.3669295521916
 30
0.0
 10
117.6563565816055
 20
128.5483333375411
 30
0.0
 10
117.6403009513306
 20
128.6257362009247
 30
0.0
  0
LINE
  5
188
330
1F
100
AcDbEntity
  8
0
  6
Continuous
 62
     7
370
    25
100
AcDbLine
 10
127.6010208121
 20
121.0669918969
 30
0.0
 11
117.7015258755
 21
115.3521351142
 31
0.0
  0
LINE
  5
189
330
1F
100
AcDbEntity
  8
0
  6
Continuous
 62
     7
370
    25
100
AcDbLine
 10
127.6010208121
 20
121.0669918969
 30
0.0
 11
128.6616809839
 21
120.454685813
 31
0.0
  0
LINE
  5
18A
330
1F
100
AcDbEntity
  8
0
  6
Continuous
 62
     7
370
    25
100
AcDbLine
 10
129.0152343745
 20
119.0259716174
 30
0.0
 11
128.6616809839
 21
119.2300736453
 31
0.0
  0
LWPOLYLINE
  5
18B
330
1F
100
AcDbEntity
  8
0
  6
Continuous
 62
     7
370
    25
100
AcDbPolyline
 90
       35
 70
   128
 43
0.0
 10
127.9545742027
 20
116.7808493098
 10
127.7773844511
 20
116.8716781958
 10
127.5828295968
 20
116.9497714631
 10
127.3736407634
 20
117.0140328533
 10
127.1527545038
 20
117.0635602774
 10
126.9232715766
 20
117.0976584789
 10
126.6884134193
 20
117.1158487938
 10
126.4514769254
 20
117.11787587
 10
126.2157881641
 20
117.1037112517
 10
125.9846556889
 20
117.0735537793
 10
125.7613240931
 20
117.0278267974
 10
125.5489284627
 20
116.9671722126
 10
125.3504503669
 20
116.8924414824
 10
125.168676003
 20
116.8046836624
 10
125.0061570846
 20
116.7051306801
 10
124.8651750212
 20
116.595180041
 10
124.7477088917
 20
116.4763752112
 10
124.6554076633
 20
116.35038395
 10
124.5895670428
 20
116.2189748986
 10
124.5511112883
 20
116.0839927519
 10
124.5405802341
 20
115.9473323635
 10
124.5581217133
 20
115.8109121456
 10
124.6034894819
 20
115.6766471391
 10
124.6760466758
 20
115.5464221303
 10
124.7747747513
 20
115.422065193
 10
124.8982877823
 20
115.3053220258
 10
125.0448519169
 20
115.197831447
 10
125.2124097157
 20
115.1011023887
 10
125.3986090346
 20
115.0164927148
 10
125.6008360433
 20
114.9451901596
 10
125.8162519179
 20
114.8881956549
 10
126.0418326916
 20
114.8463092784
 10
126.274411705
 20
114.820119023
 10
126.5107240585
 20
114.8099925427
 10
126.6646256952
 20
114.8120965198
  0
ARC
  5
18C
330
1F
100
AcDbEntity
  8
0
  6
Continuous
 62
     7
370
    25
100
AcDbCircle
 10
127.587433968
 20
115.9055816504
 30
0.0
 40
0.9491498446014627
100
AcDbArc
 50
359.2226427604
 51
67.24387395
  0
LINE
  5
18D
330
1F
100
AcDbEntity
  8
0
  6
Continuous
 62
     7
370
    25
100
AcDbLine
 10
119.1157394378
 20
120.6593186413
 30
0.0
 11
119.1157394378
 21
124.9930417145
 31
0.0
  0
LINE
  5
18E
330
1F
100
AcDbEntity
  8
0
  6
Continuous
 62
     7
370
    25
100
AcDbLine
 10
119.1157394378
 20
120.6593186413
 30
0.0
 11
117.7015258755
 21
121.4757267531
 31
0.0
  0
LINE
  5
18F
330
1F
100
AcDbEntity
  8
0
  6
Continuous
 62
     7
370
    25
100
AcDbLine
 10
117.7015258755
 20
121.4757267531
 30
0.0
 11
117.7015258755
 21
128.0080532482
 31
0.0
  0
LINE
  5
190
330
1F
100
AcDbEntity
  8
0
  6
Continuous
 62
     7
370
    25
100
AcDbLine
 10
124.0654869062
 20
123.5167470326
 30
0.0
 11
124.0654869062
 21
127.8504701058
 31
0.0
  0
LINE
  5
191
330
1F
100
AcDbEntity
  8
0
  6
Continuous
 62
     7
370
    25
100
AcDbLine
 10
124.0654869062
 20
123.5167470326
 30
0.0
 11
119.1157394378
 21
120.6593186413
 31
0.0
  0
LINE
  5
192
330
1F
100
AcDbEntity
  8
0
  6
Continuous
 62
     7
370
    25
100
AcDbLine
 10
117.7015258755
 20
123.1085429767
 30
0.0
 11
113.8124385789
 21
120.8634206692
 31
0.0
  0
LINE
  5
193
330
1F
100
AcDbEntity
  8
0
  6
Continuous
 62
     7
370
    25
100
AcDbLine
 10
126.4729130199
 20
123.6819123781
 30
0.0
 11
117.7015258755
 21
118.6182983617
 31
0.0
  0
LINE
  5
194
330
1F
100
AcDbEntity
  8
0
  6
Continuous
 62
     7
370
    25
100
AcDbLine
 10
124.0654869062
 20
126.374175424
 30
0.0
 11
126.6227859767
 21
124.8978780945
 31
0.0
  0
LINE
  5
195
330
1F
100
AcDbEntity
  8
0
  6
Continuous
 62
     7
370
    25
100
AcDbLine
 10
127.6010208121
 20
122.2935945656
 30
0.0
 11
127.6010208121
 21
121.0669918969
 31
0.0
  0
LINE
  5
196
330
1F
100
AcDbEntity
  8
0
  6
Continuous
 62
     7
370
    25
100
AcDbLine
 10
129.07000045
 20
122.2605190825
 30
0.0
 11
128.9393439916
 21
122.3359454504
 31
0.0
  0
LINE
  5
197
330
1F
100
AcDbEntity
  8
0
  6
Continuous
 62
     7
370
    25
100
AcDbLine
 10
128.6616809839
 20
119.2300736453
 30
0.0
 11
128.6616809839
 21
122.3250928934
 31
0.0
  0
LINE
  5
198
330
1F
100
AcDbEntity
  8
0
  6
Continuous
 62
     7
370
    25
100
AcDbLine
 10
117.0651297724
 20
123.4634794648
 30
0.0
 11
112.1153823041
 21
120.6060510734
 31
0.0
  0
LINE
  5
199
330
1F
100
AcDbEntity
  8
0
  6
Continuous
 62
     7
370
    25
100
AcDbLine
 10
117.6042476057
 20
123.0523854269
 30
0.0
 11
117.0651297724
 21
123.4634794648
 31
0.0
  0
LINE
  5
19A
330
1F
100
AcDbEntity
  8
0
  6
Continuous
 62
     7
370
    25
100
AcDbLine
 10
135.3791954051
 20
123.5178086331
 30
0.0
 11
133.6919399507
 21
122.5437767921
 31
0.0
  0
ENDSEC
  0
SECTION
  2
OBJECTS
  0
DICTIONARY
  5
C
330
0
100
AcDbDictionary
281
     1
  3
ACAD_GROUP
350
D
  3
ACAD_LAYOUT
350
1A
  3
ACAD_MLINESTYLE
350
17
  3
ACAD_PLOTSETTINGS
350
19
  3
ACAD_PLOTSTYLENAME
350
E
  3
ACAD_SCALELIST
350
47
  3
DWGPROPS
350
19B
  0
DICTIONARY
  5
D
102
{ACAD_REACTORS
330
C
102
}
330
C
100
AcDbDictionary
281
     1
  0
DICTIONARY
  5
1A
102
{ACAD_REACTORS
330
C
102
}
330
C
100
AcDbDictionary
281
     1
  3
Layout1
350
1E
  3
Layout2
350
26
  3
Model
350
22
  0
DICTIONARY
  5
17
102
{ACAD_REACTORS
330
C
102
}
330
C
100
AcDbDictionary
281
     1
  3
Standard
350
18
  0
DICTIONARY
  5
19
102
{ACAD_REACTORS
330
C
102
}
330
C
100
AcDbDictionary
281
     1
  0
ACDBDICTIONARYWDFLT
  5
E
102
{ACAD_REACTORS
330
C
102
}
330
C
100
AcDbDictionary
281
     1
  3
Normal
350
F
100
AcDbDictionaryWithDefault
340
F
  0
DICTIONARY
  5
47
102
{ACAD_REACTORS
330
C
102
}
330
C
100
AcDbDictionary
281
     1
  3
A0
350
48
  3
A1
350
49
  3
A2
350
4A
  3
A3
350
4B
  3
A4
350
4C
  3
A5
350
4D
  3
A6
350
4E
  3
A7
350
4F
  3
A8
350
50
  3
A9
350
51
  3
B0
350
52
  3
B1
350
53
  3
B2
350
54
  3
B3
350
55
  3
B4
350
56
  3
B5
350
57
  3
B6
350
58
  0
XRECORD
  5
19B
102
{ACAD_REACTORS
330
C
102
}
330
C
100
AcDbXrecord
280
     1
  1
DWGPROPS COOKIE
  2

  3

  4

  6

  7

  8
grigorievsin
  9

300
=
301
=
302
=
303
=
304
=
305
=
306
=
307
=
308
=
309
=
 40
0.0
 41
2459912.47228662
 42
2459912.472287338
  1

 90
        0
  0
LAYOUT
  5
1E
102
{ACAD_REACTORS
330
1A
102
}
330
1A
100
AcDbPlotSettings
  1

  2
none_device
  4

  6

 40
0.0
 41
0.0
 42
0.0
 43
0.0
 44
0.0
 45
0.0
 46
0.0
 47
0.0
 48
0.0
 49
0.0
140
0.0
141
0.0
142
1.0
143
1.0
 70
   688
 72
     1
 73
     0
 74
     5
  7

 75
    16
147
1.0
148
0.0
149
0.0
100
AcDbLayout
  1
Layout1
 70
     1
 71
     1
 10
0.0
 20
0.0
 11
420.0
 21
297.0
 12
0.0
 22
0.0
 32
0.0
 14
1.0000000000E+20
 24
1.0000000000E+20
 34
1.0000000000E+20
 15
-1.0000000000E+20
 25
-1.0000000000E+20
 35
-1.0000000000E+20
146
0.0
 13
0.0
 23
0.0
 33
0.0
 16
1.0
 26
0.0
 36
0.0
 17
0.0
 27
1.0
 37
0.0
 76
     0
330
1B
  0
LAYOUT
  5
26
102
{ACAD_REACTORS
330
1A
102
}
330
1A
100
AcDbPlotSettings
  1

  2
none_device
  4

  6

 40
0.0
 41
0.0
 42
0.0
 43
0.0
 44
0.0
 45
0.0
 46
0.0
 47
0.0
 48
0.0
 49
0.0
140
0.0
141
0.0
142
1.0
143
1.0
 70
   688
 72
     1
 73
     0
 74
     5
  7

 75
    16
147
1.0
148
0.0
149
0.0
100
AcDbLayout
  1
Layout2
 70
     1
 71
     2
 10
0.0
 20
0.0
 11
0.0
 21
0.0
 12
0.0
 22
0.0
 32
0.0
 14
0.0
 24
0.0
 34
0.0
 15
0.0
 25
0.0
 35
0.0
146
0.0
 13
0.0
 23
0.0
 33
0.0
 16
1.0
 26
0.0
 36
0.0
 17
0.0
 27
1.0
 37
0.0
 76
     0
330
23
  0
LAYOUT
  5
22
102
{ACAD_REACTORS
330
1A
102
}
330
1A
100
AcDbPlotSettings
  1

  2
none_device
  4
Letter_(8.50_x_11.00_Inches)
  6

 40
6.35
 41
6.35
 42
6.35000508
 43
6.35000508
 44
215.9
 45
279.4
 46
0.0
 47
0.0
 48
0.0
 49
0.0
140
0.0
141
0.0
142
1.0
143
1.0
 70
  1712
 72
     1
 73
     0
 74
     0
  7

 75
     0
147
1.0
148
0.0
149
0.0
100
AcDbLayout
  1
Model
 70
     1
 71
     0
 10
0.0
 20
0.0
 11
210.0
 21
148.0
 12
0.0
 22
0.0
 32
0.0
 14
0.0
 24
0.0
 34
0.0
 15
210.0
 25
148.0
 35
0.0
146
0.0
 13
0.0
 23
0.0
 33
0.0
 16
1.0
 26
0.0
 36
0.0
 17
0.0
 27
1.0
 37
0.0
 76
     0
330
1F
331
29
  0
MLINESTYLE
  5
18
102
{ACAD_REACTORS
330
17
102
}
330
17
100
AcDbMlineStyle
  2
Standard
 70
     0
  3

 62
   256
 51
90.0
 52
90.0
 71
     2
 49
0.5
 62
   256
  6
BYLAYER
 49
-0.5
 62
   256
  6
BYLAYER
  0
ACDBPLACEHOLDER
  5
F
102
{ACAD_REACTORS
330
E
102
}
330
E
  0
SCALE
  5
48
102
{ACAD_REACTORS
330
47
102
}
330
47
100
AcDbScale
 70
     0
300
1:1
140
1.0
141
1.0
290
     1
  0
SCALE
  5
49
102
{ACAD_REACTORS
330
47
102
}
330
47
100
AcDbScale
 70
     0
300
1:2
140
1.0
141
2.0
290
     0
  0
SCALE
  5
4A
102
{ACAD_REACTORS
330
47
102
}
330
47
100
AcDbScale
 70
     0
300
1:4
140
1.0
141
4.0
290
     0
  0
SCALE
  5
4B
102
{ACAD_REACTORS
330
47
102
}
330
47
100
AcDbScale
 70
     0
300
1:5
140
1.0
141
5.0
290
     0
  0
SCALE
  5
4C
102
{ACAD_REACTORS
330
47
102
}
330
47
100
AcDbScale
 70
     0
300
1:8
140
1.0
141
8.0
290
     0
  0
SCALE
  5
4D
102
{ACAD_REACTORS
330
47
102
}
330
47
100
AcDbScale
 70
     0
300
1:10
140
1.0
141
10.0
290
     0
  0
SCALE
  5
4E
102
{ACAD_REACTORS
330
47
102
}
330
47
100
AcDbScale
 70
     0
300
1:16
140
1.0
141
16.0
290
     0
  0
SCALE
  5
4F
102
{ACAD_REACTORS
330
47
102
}
330
47
100
AcDbScale
 70
     0
300
1:20
140
1.0
141
20.0
290
     0
  0
SCALE
  5
50
102
{ACAD_REACTORS
330
47
102
}
330
47
100
AcDbScale
 70
     0
300
1:30
140
1.0
141
30.0
290
     0
  0
SCALE
  5
51
102
{ACAD_REACTORS
330
47
102
}
330
47
100
AcDbScale
 70
     0
300
1:40
140
1.0
141
40.0
290
     0
  0
SCALE
  5
52
102
{ACAD_REACTORS
330
47
102
}
330
47
100
AcDbScale
 70
     0
300
1:50
140
1.0
141
50.0
290
     0
  0
SCALE
  5
53
102
{ACAD_REACTORS
330
47
102
}
330
47
100
AcDbScale
 70
     0
300
1:100
140
1.0
141
100.0
290
     0
  0
SCALE
  5
54
102
{ACAD_REACTORS
330
47
102
}
330
47
100
AcDbScale
 70
     0
300
2:1
140
2.0
141
1.0
290
     0
  0
SCALE
  5
55
102
{ACAD_REACTORS
330
47
102
}
330
47
100
AcDbScale
 70
     0
300
4:1
140
4.0
141
1.0
290
     0
  0
SCALE
  5
56
102
{ACAD_REACTORS
330
47
102
}
330
47
100
AcDbScale
 70
     0
300
8:1
140
8.0
141
1.0
290
     0
  0
SCALE
  5
57
102
{ACAD_REACTORS
330
47
102
}
330
47
100
AcDbScale
 70
     0
300
10:1
140
10.0
141
1.0
290
     0
  0
SCALE
  5
58
102
{ACAD_REACTORS
330
47
102
}
330
47
100
AcDbScale
 70
     0
300
100:1
140
100.0
141
1.0
290
     0
  0
ENDSEC
  0
EOF
