  0
SECTION
  2
HEADER
  9
$ACADVER
  1
AC1015
  9
$ACADMAINTVER
 70
     6
  9
$DWGCODEPAGE
  3
ANSI_1251
  9
$INSBASE
 10
0.0
 20
0.0
 30
0.0
  9
$EXTMIN
 10
0.0
 20
0.0
 30
0.0
  9
$EXTMAX
 10
841.0
 20
594.0
 30
0.0
  9
$LIMMIN
 10
0.0
 20
0.0
  9
$LIMMAX
 10
841.0
 20
594.0
  9
$ORTHOMODE
 70
     0
  9
$REGENMODE
 70
     1
  9
$FILLMODE
 70
     1
  9
$QTEXTMODE
 70
     0
  9
$MIRRTEXT
 70
     1
  9
$LTSCALE
 40
1.0
  9
$ATTMODE
 70
     1
  9
$TEXTSIZE
 40
3.5
  9
$TRACEWID
 40
1.0
  9
$TEXTSTYLE
  7
Standard
  9
$CLAYER
  8
0
  9
$CELTYPE
  6
ByLayer
  9
$CECOLOR
 62
   256
  9
$CELTSCALE
 40
1.0
  9
$DISPSILH
 70
     0
  9
$DIMSCALE
 40
1.0
  9
$DIMASZ
 40
3.5
  9
$DIMEXO
 40
0.01
  9
$DIMDLI
 40
3.75
  9
$DIMRND
 40
0.0
  9
$DIMDLE
 40
0.0
  9
$DIMEXE
 40
1.0
  9
$DIMTP
 40
0.0
  9
$DIMTM
 40
0.0
  9
$DIMTXT
 40
3.5
  9
$DIMCEN
 40
2.5
  9
$DIMTSZ
 40
0.0
  9
$DIMTOL
 70
     0
  9
$DIMLIM
 70
     0
  9
$DIMTIH
 70
     1
  9
$DIMTOH
 70
     1
  9
$DIMSE1
 70
     0
  9
$DIMSE2
 70
     0
  9
$DIMTAD
 70
     1
  9
$DIMZIN
 70
     0
  9
$DIMBLK
  1

  9
$DIMASO
 70
     1
  9
$DIMSHO
 70
     1
  9
$DIMPOST
  1

  9
$DIMAPOST
  1

  9
$DIMALT
 70
     0
  9
$DIMALTD
 70
     3
  9
$DIMALTF
 40
0.0393700787
  9
$DIMLFAC
 40
1.0
  9
$DIMTOFL
 70
     1
  9
$DIMTVP
 40
0.0
  9
$DIMTIX
 70
     0
  9
$DIMSOXD
 70
     0
  9
$DIMSAH
 70
     0
  9
$DIMBLK1
  1

  9
$DIMBLK2
  1

  9
$DIMSTYLE
  2
ISO-25
  9
$DIMCLRD
 70
     0
  9
$DIMCLRE
 70
     0
  9
$DIMCLRT
 70
     0
  9
$DIMTFAC
 40
1.0
  9
$DIMGAP
 40
3.0
  9
$DIMJUST
 70
     0
  9
$DIMSD1
 70
     0
  9
$DIMSD2
 70
     0
  9
$DIMTOLJ
 70
     0
  9
$DIMTZIN
 70
     0
  9
$DIMALTZ
 70
     0
  9
$DIMALTTZ
 70
     0
  9
$DIMUPT
 70
     0
  9
$DIMDEC
 70
     2
  9
$DIMTDEC
 70
     3
  9
$DIMALTU
 70
     2
  9
$DIMALTTD
 70
     3
  9
$DIMTXSTY
  7
Standard
  9
$DIMAUNIT
 70
     0
  9
$DIMADEC
 70
     2
  9
$DIMALTRND
 40
0.0
  9
$DIMAZIN
 70
     0
  9
$DIMDSEP
 70
    44
  9
$DIMATFIT
 70
     3
  9
$DIMFRAC
 70
     0
  9
$DIMLDRBLK
  1

  9
$DIMLUNIT
 70
     2
  9
$DIMLWD
 70
    -2
  9
$DIMLWE
 70
    -2
  9
$DIMTMOVE
 70
     0
  9
$LUNITS
 70
     2
  9
$LUPREC
 70
     2
  9
$SKETCHINC
 40
1.0
  9
$FILLETRAD
 40
10.0
  9
$AUNITS
 70
     0
  9
$AUPREC
 70
     2
  9
$MENU
  1
.
  9
$ELEVATION
 40
0.0
  9
$PELEVATION
 40
0.0
  9
$THICKNESS
 40
0.0
  9
$LIMCHECK
 70
     0
  9
$CHAMFERA
 40
0.0
  9
$CHAMFERB
 40
0.0
  9
$CHAMFERC
 40
0.0
  9
$CHAMFERD
 40
0.0
  9
$SKPOLY
 70
     0
  9
$TDCREATE
 40
2459732.502505509
  9
$TDUCREATE
 40
2459732.377505509
  9
$TDUPDATE
 40
2459732.502507072
  9
$TDUUPDATE
 40
2459732.377507072
  9
$TDINDWG
 40
0.0000000116
  9
$TDUSRTIMER
 40
0.0000000116
  9
$USRTIMER
 70
     1
  9
$ANGBASE
 50
0.0
  9
$ANGDIR
 70
     0
  9
$PDMODE
 70
     0
  9
$PDSIZE
 40
-1.0
  9
$PLINEWID
 40
0.0
  9
$SPLFRAME
 70
     0
  9
$SPLINETYPE
 70
     6
  9
$SPLINESEGS
 70
     8
  9
$HANDSEED
  5
467
  9
$SURFTAB1
 70
     6
  9
$SURFTAB2
 70
     6
  9
$SURFTYPE
 70
     6
  9
$SURFU
 70
     6
  9
$SURFV
 70
     6
  9
$UCSBASE
  2

  9
$UCSNAME
  2

  9
$UCSORG
 10
0.0
 20
0.0
 30
0.0
  9
$UCSXDIR
 10
1.0
 20
0.0
 30
0.0
  9
$UCSYDIR
 10
0.0
 20
1.0
 30
0.0
  9
$UCSORTHOREF
  2

  9
$UCSORTHOVIEW
 70
     0
  9
$UCSORGTOP
 10
0.0
 20
0.0
 30
0.0
  9
$UCSORGBOTTOM
 10
0.0
 20
0.0
 30
0.0
  9
$UCSORGLEFT
 10
0.0
 20
0.0
 30
0.0
  9
$UCSORGRIGHT
 10
0.0
 20
0.0
 30
0.0
  9
$UCSORGFRONT
 10
0.0
 20
0.0
 30
0.0
  9
$UCSORGBACK
 10
0.0
 20
0.0
 30
0.0
  9
$PUCSBASE
  2

  9
$PUCSNAME
  2

  9
$PUCSORG
 10
0.0
 20
0.0
 30
0.0
  9
$PUCSXDIR
 10
1.0
 20
0.0
 30
0.0
  9
$PUCSYDIR
 10
0.0
 20
1.0
 30
0.0
  9
$PUCSORTHOREF
  2

  9
$PUCSORTHOVIEW
 70
     0
  9
$PUCSORGTOP
 10
0.0
 20
0.0
 30
0.0
  9
$PUCSORGBOTTOM
 10
0.0
 20
0.0
 30
0.0
  9
$PUCSORGLEFT
 10
0.0
 20
0.0
 30
0.0
  9
$PUCSORGRIGHT
 10
0.0
 20
0.0
 30
0.0
  9
$PUCSORGFRONT
 10
0.0
 20
0.0
 30
0.0
  9
$PUCSORGBACK
 10
0.0
 20
0.0
 30
0.0
  9
$USERI1
 70
     0
  9
$USERI2
 70
     0
  9
$USERI3
 70
     0
  9
$USERI4
 70
     0
  9
$USERI5
 70
     0
  9
$USERR1
 40
0.0
  9
$USERR2
 40
0.0
  9
$USERR3
 40
0.0
  9
$USERR4
 40
0.0
  9
$USERR5
 40
0.0
  9
$WORLDVIEW
 70
     1
  9
$SHADEDGE
 70
     3
  9
$SHADEDIF
 70
    70
  9
$TILEMODE
 70
     1
  9
$MAXACTVP
 70
    64
  9
$PINSBASE
 10
0.0
 20
0.0
 30
0.0
  9
$PLIMCHECK
 70
     0
  9
$PEXTMIN
 10
1.0000000000E+20
 20
1.0000000000E+20
 30
1.0000000000E+20
  9
$PEXTMAX
 10
-1.0000000000E+20
 20
-1.0000000000E+20
 30
-1.0000000000E+20
  9
$PLIMMIN
 10
0.0
 20
0.0
  9
$PLIMMAX
 10
420.0
 20
297.0
  9
$UNITMODE
 70
     0
  9
$VISRETAIN
 70
     1
  9
$PLINEGEN
 70
     0
  9
$PSLTSCALE
 70
     1
  9
$TREEDEPTH
 70
  3020
  9
$CMLSTYLE
  2
Standard
  9
$CMLJUST
 70
     0
  9
$CMLSCALE
 40
20.0
  9
$PROXYGRAPHICS
 70
     1
  9
$MEASUREMENT
 70
     1
  9
$CELWEIGHT
370
    -1
  9
$ENDCAPS
280
     0
  9
$JOINSTYLE
280
     0
  9
$LWDISPLAY
290
     1
  9
$INSUNITS
 70
     4
  9
$HYPERLINKBASE
  1

  9
$STYLESHEET
  1

  9
$XEDIT
290
     1
  9
$CEPSNTYPE
380
     0
  9
$PSTYLEMODE
290
     1
  9
$FINGERPRINTGUID
  2
{76DE9CE0-861D-470F-928D-DDD36FB5FF62}
  9
$VERSIONGUID
  2
{FAEB1C32-E019-11D5-929B-00C0DF256EC4}
  9
$EXTNAMES
290
     1
  9
$PSVPSCALE
 40
0.0
  9
$OLESTARTUP
290
     0
  0
ENDSEC
  0
SECTION
  2
CLASSES
  0
CLASS
  1
ACDBDICTIONARYWDFLT
  2
AcDbDictionaryWithDefault
  3
ObjectDBX Classes
 90
        0
280
     0
281
     0
  0
CLASS
  1
VISUALSTYLE
  2
AcDbVisualStyle
  3
ObjectDBX Classes
 90
     4095
280
     0
281
     0
  0
CLASS
  1
MATERIAL
  2
AcDbMaterial
  3
ObjectDBX Classes
 90
     1153
280
     0
281
     0
  0
CLASS
  1
SCALE
  2
AcDbScale
  3
ObjectDBX Classes
 90
     1153
280
     0
281
     0
  0
CLASS
  1
TABLESTYLE
  2
AcDbTableStyle
  3
ObjectDBX Classes
 90
     4095
280
     0
281
     0
  0
CLASS
  1
MLEADERSTYLE
  2
AcDbMLeaderStyle
  3
ACDB_MLEADERSTYLE_CLASS
 90
     4095
280
     0
281
     0
  0
CLASS
  1
SUN
  2
AcDbSun
  3
SCENEOE
 90
     1153
280
     0
281
     0
  0
CLASS
  1
ACDBPLACEHOLDER
  2
AcDbPlaceHolder
  3
ObjectDBX Classes
 90
        0
280
     0
281
     0
  0
CLASS
  1
LAYOUT
  2
AcDbLayout
  3
ObjectDBX Classes
 90
        0
280
     0
281
     0
  0
ENDSEC
  0
SECTION
  2
TABLES
  0
TABLE
  2
VPORT
  5
8
330
0
100
AcDbSymbolTable
 70
     1
  0
VPORT
  5
29
330
8
100
AcDbSymbolTableRecord
100
AcDbViewportTableRecord
  2
*Active
 70
     0
 10
0.0
 20
0.0
 11
1.0
 21
1.0
 12
420.5
 22
297.0
 13
0.0
 23
0.0
 14
10.0
 24
10.0
 15
10.0
 25
10.0
 16
0.0
 26
0.0
 36
1.0
 17
0.0
 27
0.0
 37
0.0
 40
594.0
 41
1.4158249158
 42
50.0
 43
0.0
 44
0.0
 50
0.0
 51
0.0
 71
     0
 72
  2000
 73
     1
 74
     3
 75
     0
 76
     0
 77
     0
 78
     0
281
     0
 65
     1
110
0.0
120
0.0
130
0.0
111
1.0
121
0.0
131
0.0
112
0.0
122
1.0
132
0.0
 79
     0
146
0.0
  0
ENDTAB
  0
TABLE
  2
LTYPE
  5
5
330
0
100
AcDbSymbolTable
 70
     6
  0
LTYPE
  5
14
330
5
100
AcDbSymbolTableRecord
100
AcDbLinetypeTableRecord
  2
ByBlock
 70
     0
  3

 72
    65
 73
     0
 40
0.0
  0
LTYPE
  5
15
330
5
100
AcDbSymbolTableRecord
100
AcDbLinetypeTableRecord
  2
ByLayer
 70
     0
  3

 72
    65
 73
     0
 40
0.0
  0
LTYPE
  5
16
330
5
100
AcDbSymbolTableRecord
100
AcDbLinetypeTableRecord
  2
Continuous
 70
     0
  3
Solid line
 72
    65
 73
     0
 40
0.0
  0
LTYPE
  5
6E
330
5
100
AcDbSymbolTableRecord
100
AcDbLinetypeTableRecord
  2
HIDDEN
 70
     0
  3
Hidden __ __ __ __ __ __ __ __ __ __ __ __ __ __
 72
    65
 73
     2
 40
1.905
 49
1.27
 74
     0
 49
-0.635
 74
     0
  0
LTYPE
  5
6F
330
5
100
AcDbSymbolTableRecord
100
AcDbLinetypeTableRecord
  2
PHANTOM
 70
     0
  3
Phantom ______  __  __  ______  __  __  ______
 72
    65
 73
     6
 40
12.7
 49
6.35
 74
     0
 49
-1.27
 74
     0
 49
1.27
 74
     0
 49
-1.27
 74
     0
 49
1.27
 74
     0
 49
-1.27
 74
     0
  0
LTYPE
  5
70
330
5
100
AcDbSymbolTableRecord
100
AcDbLinetypeTableRecord
  2
CENTER
 70
     0
  3
Center ____ _ ____ _ ____ _ ____ _ ____ _ ____
 72
    65
 73
     4
 40
10.16
 49
6.35
 74
     0
 49
-1.27
 74
     0
 49
1.27
 74
     0
 49
-1.27
 74
     0
  0
LTYPE
  5
71
330
5
100
AcDbSymbolTableRecord
100
AcDbLinetypeTableRecord
  2
CENTERX2
 70
     0
  3
Center (2x) ________  __  ________  __  _____
 72
    65
 73
     4
 40
20.32
 49
12.7
 74
     0
 49
-2.54
 74
     0
 49
2.54
 74
     0
 49
-2.54
 74
     0
  0
LTYPE
  5
72
330
5
100
AcDbSymbolTableRecord
100
AcDbLinetypeTableRecord
  2
DOT2
 70
     0
  3
Dot (.5x) ........................................
 72
    65
 73
     2
 40
0.635
 49
0.0
 74
     0
 49
-0.635
 74
     0
  0
ENDTAB
  0
TABLE
  2
LAYER
  5
2
330
0
100
AcDbSymbolTable
 70
     1
  0
LAYER
  5
10
330
2
100
AcDbSymbolTableRecord
100
AcDbLayerTableRecord
  2
0
 70
     0
 62
     7
  6
Continuous
370
    -3
390
F
  0
ENDTAB
  0
TABLE
  2
STYLE
  5
3
330
0
100
AcDbSymbolTable
 70
     1
  0
STYLE
  5
11
330
3
100
AcDbSymbolTableRecord
100
AcDbTextStyleTableRecord
  2
Standard
 70
     0
 40
0.0
 41
1.0
 50
0.0
 71
     0
 42
3.5
  3
txt
  4

  0
ENDTAB
  0
TABLE
  2
VIEW
  5
6
330
0
100
AcDbSymbolTable
 70
     0
  0
ENDTAB
  0
TABLE
  2
UCS
  5
7
330
0
100
AcDbSymbolTable
 70
     0
  0
ENDTAB
  0
TABLE
  2
APPID
  5
9
330
0
100
AcDbSymbolTable
 70
     1
  0
APPID
  5
12
330
9
100
AcDbSymbolTableRecord
100
AcDbRegAppTableRecord
  2
ACAD
 70
     0
  0
ENDTAB
  0
TABLE
  2
DIMSTYLE
  5
A
330
0
100
AcDbSymbolTable
 70
     1
100
AcDbDimStyleTable
  0
DIMSTYLE
105
27
330
A
100
AcDbSymbolTableRecord
100
AcDbDimStyleTableRecord
  2
ISO-25
 70
     0
 41
2.5
 42
0.625
 43
3.75
 44
1.25
 73
     0
 74
     0
 77
     1
 78
     8
140
2.5
141
2.5
143
0.0393700787
147
0.625
171
     3
172
     1
178
     0
271
     2
272
     2
274
     3
278
    44
283
     0
284
     8
340
11
  0
ENDTAB
  0
TABLE
  2
BLOCK_RECORD
  5
1
330
0
100
AcDbSymbolTable
 70
     1
  0
BLOCK_RECORD
  5
1F
330
1
100
AcDbSymbolTableRecord
100
AcDbBlockTableRecord
  2
*Model_Space
340
22
  0
BLOCK_RECORD
  5
1B
330
1
100
AcDbSymbolTableRecord
100
AcDbBlockTableRecord
  2
*Paper_Space
340
1E
  0
BLOCK_RECORD
  5
23
330
1
100
AcDbSymbolTableRecord
100
AcDbBlockTableRecord
  2
*Paper_Space0
340
26
  0
ENDTAB
  0
ENDSEC
  0
SECTION
  2
BLOCKS
  0
BLOCK
  5
20
330
1F
100
AcDbEntity
  8
0
100
AcDbBlockBegin
  2
*Model_Space
 70
     0
 10
0.0
 20
0.0
 30
0.0
  3
*Model_Space
  1

  0
ENDBLK
  5
21
330
1F
100
AcDbEntity
  8
0
100
AcDbBlockEnd
  0
BLOCK
  5
1C
330
1B
100
AcDbEntity
 67
     1
  8
0
100
AcDbBlockBegin
  2
*Paper_Space
 70
     0
 10
0.0
 20
0.0
 30
0.0
  3
*Paper_Space
  1

  0
ENDBLK
  5
1D
330
1B
100
AcDbEntity
 67
     1
  8
0
100
AcDbBlockEnd
  0
BLOCK
  5
24
330
23
100
AcDbEntity
  8
0
100
AcDbBlockBegin
  2
*Paper_Space0
 70
     0
 10
0.0
 20
0.0
 30
0.0
  3
*Paper_Space0
  1

  0
ENDBLK
  5
25
330
23
100
AcDbEntity
  8
0
100
AcDbBlockEnd
  0
ENDSEC
  0
SECTION
  2
ENTITIES
  0
ARC
  5
73
330
1F
100
AcDbEntity
  8
0
  6
Continuous
 62
     7
370
    25
100
AcDbCircle
 10
664.4433501725
 20
338.028893827
 30
0.0
 40
0.5
100
AcDbArc
 50
180.0
 51
0.0
  0
ARC
  5
74
330
1F
100
AcDbEntity
  8
0
  6
Continuous
 62
     7
370
    25
100
AcDbCircle
 10
664.4433501725
 20
349.6288938272
 30
0.0
 40
0.5000000000001137
100
AcDbArc
 50
0.0
 51
180.0
  0
LINE
  5
75
330
1F
100
AcDbEntity
  8
0
  6
Continuous
 62
     7
370
    25
100
AcDbLine
 10
659.9433501725
 20
338.8288938271
 30
0.0
 11
660.1539292275
 21
338.4641602049
 31
0.0
  0
LINE
  5
76
330
1F
100
AcDbEntity
  8
0
  6
Continuous
 62
     7
370
    25
100
AcDbLine
 10
674.4021001725
 20
346.8288938271
 30
0.0
 11
665.7433501725
 21
346.8288938271
 31
0.0
  0
LINE
  5
77
330
1F
100
AcDbEntity
  8
0
  6
Continuous
 62
     7
370
    25
100
AcDbLine
 10
665.7433501725
 20
340.8288938271
 30
0.0
 11
674.4021001725
 21
340.8288938271
 31
0.0
  0
LINE
  5
78
330
1F
100
AcDbEntity
  8
0
  6
Continuous
 62
     7
370
    25
100
AcDbLine
 10
674.4021001725
 20
340.8288938271
 30
0.0
 11
674.9433501725
 21
341.3701438271
 31
0.0
  0
LINE
  5
79
330
1F
100
AcDbEntity
  8
0
  6
Continuous
 62
     7
370
    25
100
AcDbLine
 10
674.9433501725
 20
346.2876438271
 30
0.0
 11
674.4021001725
 21
346.8288938271
 31
0.0
  0
LINE
  5
7A
330
1F
100
AcDbEntity
  8
0
  6
Continuous
 62
     7
370
    25
100
AcDbLine
 10
660.1539292275
 20
349.1936274493
 30
0.0
 11
659.9433501725
 21
348.8288938271
 31
0.0
  0
ARC
  5
7B
330
1F
100
AcDbEntity
  8
0
  6
Continuous
 62
     7
370
    25
100
AcDbCircle
 10
664.4433501725
 20
324.6288938272
 30
0.0
 40
0.5000000000000661
100
AcDbArc
 50
0.0
 51
113.5781784782
  0
LINE
  5
7C
330
1F
100
AcDbEntity
  8
0
  6
Continuous
 62
     7
370
    25
100
AcDbLine
 10
674.4021001725
 20
321.8288938271
 30
0.0
 11
665.7433501725
 21
321.8288938271
 31
0.0
  0
LINE
  5
7D
330
1F
100
AcDbEntity
  8
0
  6
Continuous
 62
     7
370
    25
100
AcDbLine
 10
674.4021001725
 20
315.8288938271
 30
0.0
 11
674.9433501725
 21
316.3701438271
 31
0.0
  0
LINE
  5
7E
330
1F
100
AcDbEntity
  8
0
  6
Continuous
 62
     7
370
    25
100
AcDbLine
 10
674.9433501725
 20
321.2876438271
 30
0.0
 11
674.4021001725
 21
321.8288938271
 31
0.0
  0
ARC
  5
7F
330
1F
100
AcDbEntity
  8
0
  6
Continuous
 62
     7
370
    25
100
AcDbCircle
 10
161.0433501725
 20
324.6288938272
 30
0.0
 40
0.5
100
AcDbArc
 50
66.4218215218
 51
180.0
  0
LINE
  5
80
330
1F
100
AcDbEntity
  8
0
  6
Continuous
 62
     7
370
    25
100
AcDbLine
 10
159.7433501725
 20
321.8288938271
 30
0.0
 11
151.0846001725
 21
321.8288938271
 31
0.0
  0
LINE
  5
81
330
1F
100
AcDbEntity
  8
0
  6
Continuous
 62
     7
370
    25
100
AcDbLine
 10
151.0846001725
 20
321.8288938271
 30
0.0
 11
150.5433501725
 21
321.2876438271
 31
0.0
  0
LINE
  5
82
330
1F
100
AcDbEntity
  8
0
  6
Continuous
 62
     7
370
    25
100
AcDbLine
 10
150.5433501725
 20
316.3701438271
 30
0.0
 11
151.0846001725
 21
315.8288938271
 31
0.0
  0
ARC
  5
83
330
1F
100
AcDbEntity
  8
0
  6
Continuous
 62
     7
370
    25
100
AcDbCircle
 10
161.0433501725
 20
349.6288938272
 30
0.0
 40
0.5
100
AcDbArc
 50
0.0
 51
180.0
  0
ARC
  5
84
330
1F
100
AcDbEntity
  8
0
  6
Continuous
 62
     7
370
    25
100
AcDbCircle
 10
161.0433501725
 20
338.028893827
 30
0.0
 40
0.5
100
AcDbArc
 50
180.0
 51
360.0
  0
LINE
  5
85
330
1F
100
AcDbEntity
  8
0
  6
Continuous
 62
     7
370
    25
100
AcDbLine
 10
151.0846001725
 20
346.8288938271
 30
0.0
 11
150.5433501725
 21
346.2876438271
 31
0.0
  0
LINE
  5
86
330
1F
100
AcDbEntity
  8
0
  6
Continuous
 62
     7
370
    25
100
AcDbLine
 10
150.5433501725
 20
341.3701438271
 30
0.0
 11
151.0846001725
 21
340.8288938271
 31
0.0
  0
LINE
  5
87
330
1F
100
AcDbEntity
  8
0
  6
Continuous
 62
     7
370
    25
100
AcDbLine
 10
151.0846001725
 20
340.8288938271
 30
0.0
 11
159.7433501725
 21
340.8288938271
 31
0.0
  0
LINE
  5
88
330
1F
100
AcDbEntity
  8
0
  6
Continuous
 62
     7
370
    25
100
AcDbLine
 10
159.7433501725
 20
346.8288938271
 30
0.0
 11
151.0846001725
 21
346.8288938271
 31
0.0
  0
SPLINE
  5
89
330
1F
100
AcDbEntity
  8
0
  6
Continuous
 62
     7
370
    25
100
AcDbSpline
210
0.0
220
0.0
230
1.0
 70
    24
 71
     3
 72
    16
 73
    12
 74
     0
 42
0.000000001
 43
0.00000001
 40
0.0
 40
0.0
 40
0.0
 40
0.0
 40
0.1658292928977499
 40
0.2550981074401235
 40
0.3462613343064167
 40
0.4374245611727106
 40
0.5266933757150837
 40
0.6925226686128337
 40
0.8583519615105838
 40
0.9476207760529565
 40
1.0
 40
1.0
 40
1.0
 40
1.0
 10
663.9433501724773
 20
347.5545834517299
 30
0.0
 10
663.9433501724773
 20
346.9456756540549
 30
0.0
 10
663.9433501724772
 20
346.0089821177193
 30
0.0
 10
663.9433501724773
 20
344.5091834264833
 30
0.0
 10
663.9433501724774
 20
343.3172263466682
 30
0.0
 10
663.9433501724772
 20
342.1427980724619
 30
0.0
 10
663.9433501724773
 20
340.7391847791746
 30
0.0
 10
663.9433501724774
 20
339.2718416983925
 30
0.0
 10
663.9433501724773
 20
338.3726543475718
 30
0.0
 10
663.9433501724772
 20
338.0448230204574
 30
0.0
 10
663.9433501724773
 20
338.0552134358978
 30
0.0
 10
663.9433501724773
 20
338.0590556486319
 30
0.0
  0
LINE
  5
8A
330
1F
100
AcDbEntity
  8
0
  6
Continuous
 62
     7
370
    25
100
AcDbLine
 10
659.9433501725
 20
344.6943883977
 30
0.0
 11
659.9433501725
 21
339.9968797637
 31
0.0
  0
SPLINE
  5
8B
330
1F
100
AcDbEntity
  8
0
  6
Continuous
 62
     7
370
    25
100
AcDbSpline
210
0.0
220
0.0
230
1.0
 70
     8
 71
     3
 72
     8
 73
     4
 74
     0
 42
0.000000001
 43
0.00000001
 40
0.0
 40
0.0
 40
0.0
 40
0.0
 40
1.0
 40
1.0
 40
1.0
 40
1.0
 10
659.9433501724844
 20
344.6943883977132
 30
0.0
 10
659.9433501724844
 20
343.723982461823
 30
0.0
 10
660.1176654728639
 20
342.7801361198919
 30
0.0
 10
660.3899321598757
 20
341.8512141652653
 30
0.0
  0
SPLINE
  5
8C
330
1F
100
AcDbEntity
  8
0
  6
Continuous
 62
     7
370
    25
100
AcDbSpline
210
0.0
220
0.0
230
1.0
 70
     8
 71
     3
 72
     8
 73
     4
 74
     0
 42
0.000000001
 43
0.00000001
 40
0.0
 40
0.0
 40
0.0
 40
0.0
 40
1.0
 40
1.0
 40
1.0
 40
1.0
 10
660.3899321598757
 20
341.8512141652589
 30
0.0
 10
660.1176654728645
 20
341.2453659843278
 30
0.0
 10
659.9433501724845
 20
340.6297840331288
 30
0.0
 10
659.9433501724845
 20
339.9968797637275
 30
0.0
  0
SPLINE
  5
8D
330
1F
100
AcDbEntity
  8
0
  6
Continuous
 62
     7
370
    25
100
AcDbSpline
210
0.0
220
0.0
230
1.0
 70
     8
 71
     3
 72
     8
 73
     4
 74
     0
 42
0.000000001
 43
0.00000001
 40
0.0
 40
0.0
 40
0.0
 40
0.0
 40
1.0
 40
1.0
 40
1.0
 40
1.0
 10
660.3899321598757
 20
347.5375626301612
 30
0.0
 10
660.1176654728644
 20
346.6086406755362
 30
0.0
 10
659.9433501724844
 20
345.6647943336017
 30
0.0
 10
659.9433501724844
 20
344.6943883977132
 30
0.0
  0
LINE
  5
8E
330
1F
100
AcDbEntity
  8
0
  6
Continuous
 62
     7
370
    25
100
AcDbLine
 10
663.9433501725
 20
347.5375626302
 30
0.0
 11
660.3899321599
 21
347.5375626302
 31
0.0
  0
LINE
  5
8F
330
1F
100
AcDbEntity
  8
0
  6
Continuous
 62
     7
370
    25
100
AcDbLine
 10
663.9433501725
 20
341.8512141653
 30
0.0
 11
660.3899321599
 21
341.8512141653
 31
0.0
  0
SPLINE
  5
90
330
1F
100
AcDbEntity
  8
0
  6
Continuous
 62
     7
370
    25
100
AcDbSpline
210
0.0
220
0.0
230
1.0
 70
     8
 71
     3
 72
     8
 73
     4
 74
     0
 42
0.000000001
 43
0.00000001
 40
0.0
 40
0.0
 40
0.0
 40
0.0
 40
1.0
 40
1.0
 40
1.0
 40
1.0
 10
659.9433501724845
 20
339.9968797637275
 30
0.0
 10
659.9433501724845
 20
339.3639754943251
 30
0.0
 10
660.1176654728639
 20
338.7483935431284
 30
0.0
 10
660.3899321598757
 20
338.1425453621961
 30
0.0
  0
LINE
  5
91
330
1F
100
AcDbEntity
  8
0
  6
Continuous
 62
     7
370
    25
100
AcDbLine
 10
663.9433501725
 20
338.1425453622
 30
0.0
 11
660.3899321599
 21
338.1425453622
 31
0.0
  0
LINE
  5
92
330
1F
100
AcDbEntity
  8
0
  6
Continuous
 62
     7
370
    25
100
AcDbLine
 10
659.9433501725
 20
348.5264024611
 30
0.0
 11
659.9433501725
 21
344.6943883977
 31
0.0
  0
SPLINE
  5
93
330
1F
100
AcDbEntity
  8
0
  6
Continuous
 62
     7
370
    25
100
AcDbSpline
210
0.0
220
0.0
230
1.0
 70
     8
 71
     3
 72
     8
 73
     4
 74
     0
 42
0.000000001
 43
0.00000001
 40
0.0
 40
0.0
 40
0.0
 40
0.0
 40
1.0
 40
1.0
 40
1.0
 40
1.0
 10
659.9433501724843
 20
348.5264024610827
 30
0.0
 10
659.9433501724843
 20
348.188900794595
 30
0.0
 10
660.1176654728638
 20
347.8606364038607
 30
0.0
 10
660.3899321598756
 20
347.5375626301663
 30
0.0
  0
SPLINE
  5
94
330
1F
100
AcDbEntity
  8
0
  6
Continuous
 62
     7
370
    25
100
AcDbSpline
210
0.0
220
0.0
230
1.0
 70
     8
 71
     3
 72
     8
 73
     4
 74
     0
 42
0.000000001
 43
0.00000001
 40
0.0
 40
0.0
 40
0.0
 40
0.0
 40
1.0
 40
1.0
 40
1.0
 40
1.0
 10
660.3899321598756
 20
349.5152422919991
 30
0.0
 10
660.1176654728642
 20
349.1921685183054
 30
0.0
 10
659.9433501724843
 20
348.8639041275698
 30
0.0
 10
659.9433501724843
 20
348.5264024610827
 30
0.0
  0
LINE
  5
95
330
1F
100
AcDbEntity
  8
0
  6
Continuous
 62
     7
370
    25
100
AcDbLine
 10
663.9433501725
 20
349.515242292
 30
0.0
 11
660.3899321599
 21
349.515242292
 31
0.0
  0
LINE
  5
96
330
1F
100
AcDbEntity
  8
0
  6
Continuous
 62
     7
370
    25
100
AcDbLine
 10
660.3899321599
 20
338.1425453622
 30
0.0
 11
660.2259141247
 21
338.5057207047
 31
0.0
  0
LINE
  5
97
330
1F
100
AcDbEntity
  8
0
  6
Continuous
 62
     7
370
    25
100
AcDbLine
 10
659.9433501725
 20
339.9968797637
 30
0.0
 11
659.9433501725
 21
338.8288938271
 31
0.0
  0
LINE
  5
98
330
1F
100
AcDbEntity
  8
0
  6
Continuous
 62
     7
370
    25
100
AcDbLine
 10
674.4021001725
 20
340.8288938271
 30
0.0
 11
674.4021001725
 21
346.8288938271
 31
0.0
  0
LINE
  5
99
330
1F
100
AcDbEntity
  8
0
  6
Continuous
 62
     7
370
    25
100
AcDbLine
 10
674.9433501725
 20
341.9445009114
 30
0.0
 11
674.9433501725
 21
346.2876438271
 31
0.0
  0
LINE
  5
9A
330
1F
100
AcDbEntity
  8
0
  6
Continuous
 62
     7
370
    25
100
AcDbLine
 10
674.9433501725
 20
341.3701438271
 30
0.0
 11
674.9433501725
 21
341.9445009114
 31
0.0
  0
LINE
  5
9B
330
1F
100
AcDbEntity
  8
0
  6
Continuous
 62
     7
370
    25
100
AcDbLine
 10
659.9433501725
 20
348.8288938271
 30
0.0
 11
659.9433501725
 21
348.5264024611
 31
0.0
  0
CIRCLE
  5
9C
330
1F
100
AcDbEntity
  8
0
  6
Continuous
 62
     7
370
    25
100
AcDbCircle
 10
215.2433501725
 20
290.8288938271
 30
0.0
 40
0.5000000000000284
  0
SPLINE
  5
9D
330
1F
100
AcDbEntity
  8
0
  6
Continuous
 62
     7
370
    25
100
AcDbSpline
210
0.0
220
0.0
230
1.0
 70
     8
 71
     3
 72
    20
 73
    16
 74
     0
 42
0.000000001
 43
0.00000001
 40
0.0
 40
0.0
 40
0.0
 40
0.0
 40
0.1250000000000005
 40
0.1250000000000005
 40
0.2500000000000008
 40
0.2500000000000008
 40
0.3750000000000011
 40
0.3750000000000011
 40
0.5000000000000013
 40
0.5000000000000013
 40
0.7500000000000007
 40
0.7500000000000007
 40
0.8750000000000004
 40
0.8750000000000004
 40
1.0
 40
1.0
 40
1.0
 40
1.0
 10
115.2433501724775
 20
314.358183148975
 30
0.0
 10
115.2433501724774
 20
314.3191424181205
 30
0.0
 10
115.2588867329523
 20
314.2806237139207
 30
0.0
 10
115.320205084913
 20
314.2032169626127
 30
0.0
 10
115.3666288304997
 20
314.164072544626
 30
0.0
 10
115.486579700654
 20
314.0869217907108
 30
0.0
 10
115.5601843449375
 20
314.0485942089698
 30
0.0
 10
115.7349147110331
 20
313.9710478884932
 30
0.0
 10
115.8357653399345
 20
313.9320716808246
 30
0.0
 10
116.1670506199183
 20
313.8165768243795
 30
0.0
 10
116.4347307813023
 20
313.7386643807095
 30
0.0
 10
116.8674048073579
 20
313.6231844553085
 30
0.0
 10
117.0189228942088
 20
313.5843186594435
 30
0.0
 10
117.3283486515949
 20
313.506544325775
 30
0.0
 10
117.4849709812888
 20
313.4679345588203
 30
0.0
 10
117.6433501724775
 20
313.4288938270936
 30
0.0
  0
LINE
  5
9E
330
1F
100
AcDbEntity
  8
0
  6
Continuous
 62
     7
370
    25
100
AcDbLine
 10
115.2433501725
 20
314.358183149
 30
0.0
 11
116.6433501725
 21
314.358183149
 31
0.0
  0
SPLINE
  5
9F
330
1F
100
AcDbEntity
  8
0
  6
Continuous
 62
     7
370
    25
100
AcDbSpline
210
0.0
220
0.0
230
1.0
 70
     8
 71
     3
 72
    14
 73
    10
 74
     0
 42
0.000000001
 43
0.00000001
 40
0.0
 40
0.0
 40
0.0
 40
0.0
 40
0.25
 40
0.25
 40
0.5
 40
0.5
 40
0.75
 40
0.75
 40
1.0
 40
1.0
 40
1.0
 40
1.0
 10
116.6433501724775
 20
314.358183148975
 30
0.0
 10
116.6433501724775
 20
314.2799817339533
 30
0.0
 10
116.6689088371578
 20
314.2042717866564
 30
0.0
 10
116.7690368657546
 20
314.0489913750094
 30
0.0
 10
116.8426010450588
 20
313.9719815254264
 30
0.0
 10
117.0281386807507
 20
313.8165580393989
 30
0.0
 10
117.1383036017101
 20
313.7396083224805
 30
0.0
 10
117.3809153583995
 20
313.5841783432313
 30
0.0
 10
117.5111647692226
 20
313.5070952346587
 30
0.0
 10
117.6433501724775
 20
313.4288938270936
 30
0.0
  0
SPLINE
  5
A0
330
1F
100
AcDbEntity
  8
0
  6
Continuous
 62
     7
370
    25
100
AcDbSpline
210
0.0
220
0.0
230
1.0
 70
     8
 71
     3
 72
    20
 73
    16
 74
     0
 42
0.000000001
 43
0.00000001
 40
0.0
 40
0.0
 40
0.0
 40
0.0
 40
0.1250000000000089
 40
0.1250000000000089
 40
0.2500000000000179
 40
0.2500000000000179
 40
0.3750000000000268
 40
0.3750000000000268
 40
0.5000000000000357
 40
0.5000000000000357
 40
0.7500000000000252
 40
0.7500000000000252
 40
0.8750000000000125
 40
0.8750000000000125
 40
1.0
 40
1.0
 40
1.0
 40
1.0
 10
117.6433501724775
 20
222.2288938270935
 30
0.0
 10
117.4849709848269
 20
222.189853096239
 30
0.0
 10
117.3287252601352
 20
222.1513343920392
 30
0.0
 10
117.0207334107186
 20
222.0739276407313
 30
0.0
 10
116.8680893032473
 20
222.0347832227445
 30
0.0
 10
116.5790050140603
 20
221.9576324688294
 30
0.0
 10
116.4412004758762
 20
221.9193048870884
 30
0.0
 10
116.1795818002374
 20
221.8417585666118
 30
0.0
 10
116.0568354935546
 20
221.8027823589431
 30
0.0
 10
115.725511116607
 20
221.6872875024981
 30
0.0
 10
115.5464999925788
 20
221.609375058828
 30
0.0
 10
115.3668848931979
 20
221.4938951334271
 30
0.0
 10
115.3206405443301
 20
221.4550293375621
 30
0.0
 10
115.2588872383188
 20
221.3772550038936
 30
0.0
 10
115.2433501724776
 20
221.3386452369388
 30
0.0
 10
115.2433501724775
 20
221.2996045052122
 30
0.0
  0
LINE
  5
A1
330
1F
100
AcDbEntity
  8
0
  6
Continuous
 62
     7
370
    25
100
AcDbLine
 10
115.2433501725
 20
314.358183149
 30
0.0
 11
115.2433501725
 21
221.2996045052
 31
0.0
  0
SPLINE
  5
A2
330
1F
100
AcDbEntity
  8
0
  6
Continuous
 62
     7
370
    25
100
AcDbSpline
210
0.0
220
0.0
230
1.0
 70
     8
 71
     3
 72
    20
 73
    16
 74
     0
 42
0.000000001
 43
0.00000001
 40
0.0
 40
0.0
 40
0.0
 40
0.0
 40
0.1249999999999984
 40
0.1249999999999984
 40
0.2499999999999967
 40
0.2499999999999967
 40
0.3749999999999951
 40
0.3749999999999951
 40
0.4999999999999934
 40
0.4999999999999934
 40
0.7499999999999967
 40
0.7499999999999967
 40
0.8749999999999983
 40
0.8749999999999983
 40
1.0
 40
1.0
 40
1.0
 40
1.0
 10
117.6433501724775
 20
313.4288938270936
 30
0.0
 10
117.6043094416229
 20
313.5872730147443
 30
0.0
 10
117.5657907374231
 20
313.743518739436
 30
0.0
 10
117.4883839861153
 20
314.0515105888526
 30
0.0
 10
117.4492395681284
 20
314.2041546963237
 30
0.0
 10
117.3720888142133
 20
314.4932389855108
 30
0.0
 10
117.3337612324722
 20
314.6310435236949
 30
0.0
 10
117.2562149119957
 20
314.8926621993338
 30
0.0
 10
117.217238704327
 20
315.0154085060165
 30
0.0
 10
117.1017438478822
 20
315.3467328829641
 30
0.0
 10
117.023831404212
 20
315.5257440069923
 30
0.0
 10
116.9083514788111
 20
315.7053591063732
 30
0.0
 10
116.869485682946
 20
315.751603455241
 30
0.0
 10
116.7917113492776
 20
315.8133567612522
 30
0.0
 10
116.7531015823228
 20
315.8288938270936
 30
0.0
 10
116.7140608505962
 20
315.8288938270936
 30
0.0
  0
LINE
  5
A3
330
1F
100
AcDbEntity
  8
0
  6
Continuous
 62
     7
370
    25
100
AcDbLine
 10
708.7726394944
 20
315.8288938271
 30
0.0
 11
116.7140608506
 21
315.8288938271
 31
0.0
  0
SPLINE
  5
A4
330
1F
100
AcDbEntity
  8
0
  6
Continuous
 62
     7
370
    25
100
AcDbSpline
210
0.0
220
0.0
230
1.0
 70
     8
 71
     3
 72
    20
 73
    16
 74
     0
 42
0.000000001
 43
0.00000001
 40
0.0
 40
0.0
 40
0.0
 40
0.0
 40
0.1249999999999966
 40
0.1249999999999966
 40
0.2499999999999931
 40
0.2499999999999931
 40
0.3749999999999895
 40
0.3749999999999895
 40
0.499999999999986
 40
0.499999999999986
 40
0.749999999999993
 40
0.749999999999993
 40
0.8749999999999964
 40
0.8749999999999964
 40
1.0
 40
1.0
 40
1.0
 40
1.0
 10
708.7726394943587
 20
315.8288938270936
 30
0.0
 10
708.7335987635042
 20
315.8288938270936
 30
0.0
 10
708.6950800593046
 20
315.8133572666188
 30
0.0
 10
708.6176733079965
 20
315.7520389146582
 30
0.0
 10
708.5785288900099
 20
315.7056151690713
 30
0.0
 10
708.5013781360947
 20
315.5856642989172
 30
0.0
 10
708.4630505543537
 20
315.5120596546338
 30
0.0
 10
708.3855042338771
 20
315.3373292885382
 30
0.0
 10
708.3465280262084
 20
315.2364786596366
 30
0.0
 10
708.2310331697632
 20
314.9051933796527
 30
0.0
 10
708.1531207260931
 20
314.6375132182689
 30
0.0
 10
708.0376408006923
 20
314.2048391922134
 30
0.0
 10
707.9987750048273
 20
314.0533211053623
 30
0.0
 10
707.9210006711589
 20
313.7438953479763
 30
0.0
 10
707.882390904204
 20
313.5872730182824
 30
0.0
 10
707.8433501724775
 20
313.4288938270937
 30
0.0
  0
SPLINE
  5
A5
330
1F
100
AcDbEntity
  8
0
  6
Continuous
 62
     7
370
    25
100
AcDbSpline
210
0.0
220
0.0
230
1.0
 70
     8
 71
     3
 72
    20
 73
    16
 74
     0
 42
0.000000001
 43
0.00000001
 40
0.0
 40
0.0
 40
0.0
 40
0.0
 40
0.1249999999999964
 40
0.1249999999999964
 40
0.2499999999999928
 40
0.2499999999999928
 40
0.3749999999999892
 40
0.3749999999999892
 40
0.4999999999999857
 40
0.4999999999999857
 40
0.7499999999999888
 40
0.7499999999999888
 40
0.8749999999999944
 40
0.8749999999999944
 40
1.0
 40
1.0
 40
1.0
 40
1.0
 10
707.8433501724775
 20
222.2288938270938
 30
0.0
 10
707.8823909033321
 20
222.0705146394431
 30
0.0
 10
707.9209096075318
 20
221.9142689147514
 30
0.0
 10
707.9983163588397
 20
221.6062770653348
 30
0.0
 10
708.0374607768265
 20
221.4536329578636
 30
0.0
 10
708.1146115307417
 20
221.1645486686765
 30
0.0
 10
708.1529391124827
 20
221.0267441304925
 30
0.0
 10
708.2304854329592
 20
220.7651254548536
 30
0.0
 10
708.269461640628
 20
220.642379148171
 30
0.0
 10
708.3849564970728
 20
220.3110547712232
 30
0.0
 10
708.4628689407431
 20
220.132043647195
 30
0.0
 10
708.5783488661439
 20
219.952428547814
 30
0.0
 10
708.6172146620089
 20
219.9061841989464
 30
0.0
 10
708.6949889956774
 20
219.8444308929352
 30
0.0
 10
708.7335987626323
 20
219.8288938270937
 30
0.0
 10
708.7726394943587
 20
219.8288938270937
 30
0.0
  0
LINE
  5
A6
330
1F
100
AcDbEntity
  8
0
  6
Continuous
 62
     7
370
    25
100
AcDbLine
 10
116.7140608506
 20
219.8288938271
 30
0.0
 11
708.7726394944
 21
219.8288938271
 31
0.0
  0
SPLINE
  5
A7
330
1F
100
AcDbEntity
  8
0
  6
Continuous
 62
     7
370
    25
100
AcDbSpline
210
0.0
220
0.0
230
1.0
 70
     8
 71
     3
 72
    20
 73
    16
 74
     0
 42
0.000000001
 43
0.00000001
 40
0.0
 40
0.0
 40
0.0
 40
0.0
 40
0.1250000000000032
 40
0.1250000000000032
 40
0.2500000000000064
 40
0.2500000000000064
 40
0.3750000000000095
 40
0.3750000000000095
 40
0.5000000000000128
 40
0.5000000000000128
 40
0.7500000000000088
 40
0.7500000000000088
 40
0.8750000000000044
 40
0.8750000000000044
 40
1.0
 40
1.0
 40
1.0
 40
1.0
 10
116.7140608505962
 20
219.8288938270937
 30
0.0
 10
116.7531015814507
 20
219.8288938270937
 30
0.0
 10
116.7916202856504
 20
219.8444303875685
 30
0.0
 10
116.8690270369586
 20
219.9057487395291
 30
0.0
 10
116.908171454945
 20
219.952172485116
 30
0.0
 10
116.9853222088602
 20
220.07212335527
 30
0.0
 10
117.0236497906013
 20
220.1457279995535
 30
0.0
 10
117.1011961110778
 20
220.3204583656491
 30
0.0
 10
117.1401723187463
 20
220.4213089945506
 30
0.0
 10
117.2556671751914
 20
220.7525942745345
 30
0.0
 10
117.3335796188616
 20
221.0202744359183
 30
0.0
 10
117.4490595442624
 20
221.4529484619737
 30
0.0
 10
117.4879253401276
 20
221.6044665488249
 30
0.0
 10
117.565699673796
 20
221.913892306211
 30
0.0
 10
117.6043094407508
 20
222.0705146359047
 30
0.0
 10
117.6433501724775
 20
222.2288938270934
 30
0.0
  0
SPLINE
  5
A8
330
1F
100
AcDbEntity
  8
0
  6
Continuous
 62
     7
370
    25
100
AcDbSpline
210
0.0
220
0.0
230
1.0
 70
     8
 71
     3
 72
    20
 73
    16
 74
     0
 42
0.000000001
 43
0.00000001
 40
0.0
 40
0.0
 40
0.0
 40
0.0
 40
0.1249999999999944
 40
0.1249999999999944
 40
0.2499999999999888
 40
0.2499999999999888
 40
0.3749999999999832
 40
0.3749999999999832
 40
0.4999999999999777
 40
0.4999999999999777
 40
0.7499999999999961
 40
0.7499999999999961
 40
0.8749999999999981
 40
0.8749999999999981
 40
1.0
 40
1.0
 40
1.0
 40
1.0
 10
707.8433501724775
 20
313.4288938270936
 30
0.0
 10
708.0017293601281
 20
313.4679345579482
 30
0.0
 10
708.1579750848199
 20
313.506453262148
 30
0.0
 10
708.4659669342366
 20
313.5838600134559
 30
0.0
 10
708.6186110417076
 20
313.6230044314427
 30
0.0
 10
708.9076953308949
 20
313.7001551853578
 30
0.0
 10
709.0454998690788
 20
313.7384827670988
 30
0.0
 10
709.3071185447176
 20
313.8160290875753
 30
0.0
 10
709.4298648514003
 20
313.8550052952441
 30
0.0
 10
709.7611892283481
 20
313.9705001516891
 30
0.0
 10
709.9402003523762
 20
314.0484125953592
 30
0.0
 10
710.1198154517572
 20
314.16389252076
 30
0.0
 10
710.166059800625
 20
314.2027583166251
 30
0.0
 10
710.2278131066362
 20
314.2805326502936
 30
0.0
 10
710.2433501724777
 20
314.3191424172484
 30
0.0
 10
710.2433501724774
 20
314.358183148975
 30
0.0
  0
SPLINE
  5
A9
330
1F
100
AcDbEntity
  8
0
  6
Continuous
 62
     7
370
    25
100
AcDbSpline
210
0.0
220
0.0
230
1.0
 70
     8
 71
     3
 72
    14
 73
    10
 74
     0
 42
0.000000001
 43
0.00000001
 40
0.0
 40
0.0
 40
0.0
 40
0.0
 40
0.25
 40
0.25
 40
0.5
 40
0.5
 40
0.75
 40
0.75
 40
1.0
 40
1.0
 40
1.0
 40
1.0
 10
707.8433501724775
 20
313.4288938270936
 30
0.0
 10
707.9755355883365
 20
313.5070952421153
 30
0.0
 10
708.10351760687
 20
313.5828051894123
 30
0.0
 10
708.3461416318173
 20
313.7380856010593
 30
0.0
 10
708.4565838962271
 20
313.8150954506422
 30
0.0
 10
708.6425807934205
 20
313.9705189366697
 30
0.0
 10
708.716381772259
 20
314.0474686535881
 30
0.0
 10
708.817200356654
 20
314.2028986328373
 30
0.0
 10
708.8433501724775
 20
314.27998174141
 30
0.0
 10
708.8433501724775
 20
314.358183148975
 30
0.0
  0
LINE
  5
AA
330
1F
100
AcDbEntity
  8
0
  6
Continuous
 62
     7
370
    25
100
AcDbLine
 10
710.2433501725
 20
314.358183149
 30
0.0
 11
708.8433501725
 21
314.358183149
 31
0.0
  0
SPLINE
  5
AB
330
1F
100
AcDbEntity
  8
0
  6
Continuous
 62
     7
370
    25
100
AcDbSpline
210
0.0
220
0.0
230
1.0
 70
     8
 71
     3
 72
    20
 73
    16
 74
     0
 42
0.000000001
 43
0.00000001
 40
0.0
 40
0.0
 40
0.0
 40
0.0
 40
0.1249999999999999
 40
0.1249999999999999
 40
0.2499999999999999
 40
0.2499999999999999
 40
0.375
 40
0.375
 40
0.5
 40
0.5
 40
0.75
 40
0.75
 40
0.875
 40
0.875
 40
1.0
 40
1.0
 40
1.0
 40
1.0
 10
710.2433501724774
 20
221.2996045052124
 30
0.0
 10
710.2433501724776
 20
221.3386452360669
 30
0.0
 10
710.2278136120026
 20
221.3771639402667
 30
0.0
 10
710.166495260042
 20
221.4545706915746
 30
0.0
 10
710.1200715144552
 20
221.4937151095613
 30
0.0
 10
710.000120644301
 20
221.5708658634765
 30
0.0
 10
709.9265160000176
 20
221.6091934452175
 30
0.0
 10
709.751785633922
 20
221.6867397656941
 30
0.0
 10
709.6509350050204
 20
221.7257159733627
 30
0.0
 10
709.3196497250365
 20
221.8412108298077
 30
0.0
 10
709.0519695636527
 20
221.9191232734779
 30
0.0
 10
708.6192955375972
 20
222.0346031988787
 30
0.0
 10
708.4677774507462
 20
222.0734689947437
 30
0.0
 10
708.1583516933599
 20
222.1512433284123
 30
0.0
 10
708.0017293636662
 20
222.189853095367
 30
0.0
 10
707.8433501724775
 20
222.2288938270937
 30
0.0
  0
LINE
  5
AC
330
1F
100
AcDbEntity
  8
0
  6
Continuous
 62
     7
370
    25
100
AcDbLine
 10
710.2433501725
 20
221.2996045052
 30
0.0
 11
708.8433501725
 21
221.2996045052
 31
0.0
  0
SPLINE
  5
AD
330
1F
100
AcDbEntity
  8
0
  6
Continuous
 62
     7
370
    25
100
AcDbSpline
210
0.0
220
0.0
230
1.0
 70
     8
 71
     3
 72
    14
 73
    10
 74
     0
 42
0.000000001
 43
0.00000001
 40
0.0
 40
0.0
 40
0.0
 40
0.0
 40
0.25
 40
0.25
 40
0.5
 40
0.5
 40
0.75
 40
0.75
 40
1.0
 40
1.0
 40
1.0
 40
1.0
 10
708.8433501724775
 20
221.2996045052124
 30
0.0
 10
708.8433501724776
 20
221.377805920234
 30
0.0
 10
708.8177915077971
 20
221.4535158675309
 30
0.0
 10
708.7176634792004
 20
221.6087962791779
 30
0.0
 10
708.6440992998961
 20
221.6858061287609
 30
0.0
 10
708.4585616642042
 20
221.8412296147883
 30
0.0
 10
708.3483967432448
 20
221.9181793317068
 30
0.0
 10
708.1057849865555
 20
222.0736093109559
 30
0.0
 10
707.9755355757325
 20
222.1506924195287
 30
0.0
 10
707.8433501724775
 20
222.2288938270937
 30
0.0
  0
SPLINE
  5
AE
330
1F
100
AcDbEntity
  8
0
  6
Continuous
 62
     7
370
    25
100
AcDbSpline
210
0.0
220
0.0
230
1.0
 70
     8
 71
     3
 72
    14
 73
    10
 74
     0
 42
0.000000001
 43
0.00000001
 40
0.0
 40
0.0
 40
0.0
 40
0.0
 40
0.25
 40
0.25
 40
0.5
 40
0.5
 40
0.75
 40
0.75
 40
1.0
 40
1.0
 40
1.0
 40
1.0
 10
117.6433501724775
 20
313.4288938270936
 30
0.0
 10
117.5651487574559
 20
313.5610792429526
 30
0.0
 10
117.4894388101588
 20
313.6890612614861
 30
0.0
 10
117.334158398512
 20
313.9316852864335
 30
0.0
 10
117.2571485489288
 20
314.0421275508434
 30
0.0
 10
117.1017250629014
 20
314.2281244480368
 30
0.0
 10
117.0247753459829
 20
314.3019254268751
 30
0.0
 10
116.869345366734
 20
314.4027440112702
 30
0.0
 10
116.7922622581611
 20
314.4288938270936
 30
0.0
 10
116.7140608505962
 20
314.4288938270936
 30
0.0
  0
LINE
  5
AF
330
1F
100
AcDbEntity
  8
0
  6
Continuous
 62
     7
370
    25
100
AcDbLine
 10
116.7140608506
 20
315.8288938271
 30
0.0
 11
116.7140608506
 21
314.4288938271
 31
0.0
  0
LINE
  5
B0
330
1F
100
AcDbEntity
  8
0
  6
Continuous
 62
     7
370
    25
100
AcDbLine
 10
710.2433501725
 20
221.2996045052
 30
0.0
 11
710.2433501725
 21
314.358183149
 31
0.0
  0
SPLINE
  5
B1
330
1F
100
AcDbEntity
  8
0
  6
Continuous
 62
     7
370
    25
100
AcDbSpline
210
0.0
220
0.0
230
1.0
 70
     8
 71
     3
 72
    14
 73
    10
 74
     0
 42
0.000000001
 43
0.00000001
 40
0.0
 40
0.0
 40
0.0
 40
0.0
 40
0.2500000000000001
 40
0.2500000000000001
 40
0.5000000000000001
 40
0.5000000000000001
 40
0.7500000000000002
 40
0.7500000000000002
 40
1.0
 40
1.0
 40
1.0
 40
1.0
 10
707.8433501724775
 20
222.2288938270937
 30
0.0
 10
707.9215515874992
 20
222.0967084112347
 30
0.0
 10
707.9972615347963
 20
221.9687263927012
 30
0.0
 10
708.1525419464431
 20
221.7261023677538
 30
0.0
 10
708.2295517960262
 20
221.6156601033439
 30
0.0
 10
708.3849752820536
 20
221.4296632061506
 30
0.0
 10
708.4619249989721
 20
221.3558622273122
 30
0.0
 10
708.6173549782211
 20
221.2550436429171
 30
0.0
 10
708.6944380867938
 20
221.2288938270937
 30
0.0
 10
708.7726394943587
 20
221.2288938270937
 30
0.0
  0
LINE
  5
B2
330
1F
100
AcDbEntity
  8
0
  6
Continuous
 62
     7
370
    25
100
AcDbLine
 10
708.7726394944
 20
219.8288938271
 30
0.0
 11
708.7726394944
 21
221.2288938271
 31
0.0
  0
SPLINE
  5
B3
330
1F
100
AcDbEntity
  8
0
  6
Continuous
 62
     7
370
    25
100
AcDbSpline
210
0.0
220
0.0
230
1.0
 70
     8
 71
     3
 72
    14
 73
    10
 74
     0
 42
0.000000001
 43
0.00000001
 40
0.0
 40
0.0
 40
0.0
 40
0.0
 40
0.2500000000000001
 40
0.2500000000000001
 40
0.5000000000000001
 40
0.5000000000000001
 40
0.7500000000000002
 40
0.7500000000000002
 40
1.0
 40
1.0
 40
1.0
 40
1.0
 10
117.6433501724775
 20
222.2288938270935
 30
0.0
 10
117.5111647566185
 20
222.1506924120719
 30
0.0
 10
117.383182738085
 20
222.0749824647749
 30
0.0
 10
117.1405587131376
 20
221.9197020531279
 30
0.0
 10
117.0301164487276
 20
221.842692203545
 30
0.0
 10
116.8441195515341
 20
221.6872687175175
 30
0.0
 10
116.770318572696
 20
221.610319000599
 30
0.0
 10
116.6694999883009
 20
221.4548890213499
 30
0.0
 10
116.6433501724775
 20
221.3778059127772
 30
0.0
 10
116.6433501724775
 20
221.2996045052122
 30
0.0
  0
LINE
  5
B4
330
1F
100
AcDbEntity
  8
0
  6
Continuous
 62
     7
370
    25
100
AcDbLine
 10
115.2433501725
 20
221.2996045052
 30
0.0
 11
116.6433501725
 21
221.2996045052
 31
0.0
  0
LINE
  5
B5
330
1F
100
AcDbEntity
  8
0
  6
Continuous
 62
     7
370
    25
100
AcDbLine
 10
708.7726394944
 20
315.8288938271
 30
0.0
 11
708.7726394944
 21
314.4288938271
 31
0.0
  0
SPLINE
  5
B6
330
1F
100
AcDbEntity
  8
0
  6
Continuous
 62
     7
370
    25
100
AcDbSpline
210
0.0
220
0.0
230
1.0
 70
     8
 71
     3
 72
    14
 73
    10
 74
     0
 42
0.000000001
 43
0.00000001
 40
0.0
 40
0.0
 40
0.0
 40
0.0
 40
0.25
 40
0.25
 40
0.5
 40
0.5
 40
0.75
 40
0.75
 40
1.0
 40
1.0
 40
1.0
 40
1.0
 10
708.7726394943587
 20
314.4288938270936
 30
0.0
 10
708.6944380793371
 20
314.4288938270936
 30
0.0
 10
708.6187281320401
 20
314.4033351624134
 30
0.0
 10
708.4634477203932
 20
314.3032071338167
 30
0.0
 10
708.3864378708103
 20
314.2296429545123
 30
0.0
 10
708.2310143847827
 20
314.0441053188204
 30
0.0
 10
708.1540646678643
 20
313.933940397861
 30
0.0
 10
707.9986346886153
 20
313.6913286411716
 30
0.0
 10
707.9215515800425
 20
313.5610792303486
 30
0.0
 10
707.8433501724775
 20
313.4288938270936
 30
0.0
  0
LINE
  5
B7
330
1F
100
AcDbEntity
  8
0
  6
Continuous
 62
     7
370
    25
100
AcDbLine
 10
116.7140608506
 20
219.8288938271
 30
0.0
 11
116.7140608506
 21
221.2288938271
 31
0.0
  0
SPLINE
  5
B8
330
1F
100
AcDbEntity
  8
0
  6
Continuous
 62
     7
370
    25
100
AcDbSpline
210
0.0
220
0.0
230
1.0
 70
     8
 71
     3
 72
    14
 73
    10
 74
     0
 42
0.000000001
 43
0.00000001
 40
0.0
 40
0.0
 40
0.0
 40
0.0
 40
0.2500000000000002
 40
0.2500000000000002
 40
0.5000000000000001
 40
0.5000000000000001
 40
0.7500000000000001
 40
0.7500000000000001
 40
1.0
 40
1.0
 40
1.0
 40
1.0
 10
116.7140608505962
 20
221.2288938270937
 30
0.0
 10
116.7922622656177
 20
221.2288938270937
 30
0.0
 10
116.8679722129147
 20
221.2544524917739
 30
0.0
 10
117.0232526245619
 20
221.3545805203706
 30
0.0
 10
117.1002624741446
 20
221.428144699675
 30
0.0
 10
117.2556859601722
 20
221.6136823353668
 30
0.0
 10
117.3326356770906
 20
221.7238472563262
 30
0.0
 10
117.4880656563398
 20
221.9664590130156
 30
0.0
 10
117.5651487649125
 20
222.0967084238386
 30
0.0
 10
117.6433501724775
 20
222.2288938270935
 30
0.0
  0
CIRCLE
  5
B9
330
1F
100
AcDbEntity
  8
0
  6
Continuous
 62
     7
370
    25
100
AcDbCircle
 10
171.2433501725
 20
267.8288938271
 30
0.0
 40
5.500000000000071
  0
ARC
  5
BA
330
1F
100
AcDbEntity
  8
0
  6
Continuous
 62
     7
370
    25
100
AcDbCircle
 10
173.4233600741
 20
268.8858299419
 30
0.0
 40
0.505099462733478
100
AcDbArc
 50
298.8005827702
 51
112.9304972368
  0
ARC
  5
BB
330
1F
100
AcDbEntity
  8
0
  6
Continuous
 62
     7
370
    25
100
AcDbCircle
 10
171.2433501725
 20
267.8288938271
 30
0.0
 40
2.499999999999994
100
AcDbArc
 50
37.506301084
 51
74.2247789229
  0
ARC
  5
BC
330
1F
100
AcDbEntity
  8
0
  6
Continuous
 62
     7
370
    25
100
AcDbCircle
 10
171.4180215977
 20
270.2453058398
 30
0.0
 40
0.5050994627349352
100
AcDbArc
 50
358.800582771
 51
172.930497236
  0
ARC
  5
BD
330
1F
100
AcDbEntity
  8
0
  6
Continuous
 62
     7
370
    25
100
AcDbCircle
 10
171.2433501725
 20
267.8288938271
 30
0.0
 40
2.499999999999999
100
AcDbArc
 50
97.5063010841
 51
134.2247789229
  0
ARC
  5
BE
330
1F
100
AcDbEntity
  8
0
  6
Continuous
 62
     7
370
    25
100
AcDbCircle
 10
169.2380116961
 20
269.188369725
 30
0.0
 40
0.5050994627351638
100
AcDbArc
 50
58.8005827697
 51
232.9304972372
  0
ARC
  5
BF
330
1F
100
AcDbEntity
  8
0
  6
Continuous
 62
     7
370
    25
100
AcDbCircle
 10
171.2433501725
 20
267.8288938271
 30
0.0
 40
2.499999999999954
100
AcDbArc
 50
157.5063010841
 51
194.2247789229
  0
ARC
  5
C0
330
1F
100
AcDbEntity
  8
0
  6
Continuous
 62
     7
370
    25
100
AcDbCircle
 10
169.0633402709
 20
266.7719577123
 30
0.0
 40
0.5050994627332729
100
AcDbArc
 50
118.8005827707
 51
292.9304972361
  0
ARC
  5
C1
330
1F
100
AcDbEntity
  8
0
  6
Continuous
 62
     7
370
    25
100
AcDbCircle
 10
171.2433501725
 20
267.8288938271
 30
0.0
 40
2.499999999999956
100
AcDbArc
 50
217.506301084
 51
254.2247789229
  0
ARC
  5
C2
330
1F
100
AcDbEntity
  8
0
  6
Continuous
 62
     7
370
    25
100
AcDbCircle
 10
171.0686787473
 20
265.4124818144
 30
0.0
 40
0.5050994627366077
100
AcDbArc
 50
178.8005827716
 51
352.9304972354
  0
ARC
  5
C3
330
1F
100
AcDbEntity
  8
0
  6
Continuous
 62
     7
370
    25
100
AcDbCircle
 10
171.2433501725
 20
267.8288938271
 30
0.0
 40
2.49999999999994
100
AcDbArc
 50
277.5063010841
 51
314.2247789229
  0
ARC
  5
C4
330
1F
100
AcDbEntity
  8
0
  6
Continuous
 62
     7
370
    25
100
AcDbCircle
 10
173.2486886489
 20
266.4694179292
 30
0.0
 40
0.5050994627355284
100
AcDbArc
 50
238.8005827701
 51
52.9304972368
  0
ARC
  5
C5
330
1F
100
AcDbEntity
  8
0
  6
Continuous
 62
     7
370
    25
100
AcDbCircle
 10
171.2433501725
 20
267.8288938271
 30
0.0
 40
2.499999999999943
100
AcDbArc
 50
337.5063010841
 51
14.2247789229
  0
CIRCLE
  5
C6
330
1F
100
AcDbEntity
  8
0
  6
Continuous
 62
     7
370
    25
100
AcDbCircle
 10
654.2433501725
 20
267.8288938271
 30
0.0
 40
5.500000000000139
  0
ARC
  5
C7
330
1F
100
AcDbEntity
  8
0
  6
Continuous
 62
     7
370
    25
100
AcDbCircle
 10
654.27601703
 20
270.2513904728
 30
0.0
 40
0.5050994627336001
100
AcDbArc
 50
2.1624680629
 51
176.2923825295
  0
ARC
  5
C8
330
1F
100
AcDbEntity
  8
0
  6
Continuous
 62
     7
370
    25
100
AcDbCircle
 10
654.2433501725
 20
267.8288938271
 30
0.0
 40
2.50000000000002
100
AcDbArc
 50
100.8681863767
 51
137.5866642156
  0
ARC
  5
C9
330
1F
100
AcDbEntity
  8
0
  6
Continuous
 62
     7
370
    25
100
AcDbCircle
 10
652.129073108
 20
266.6459358327
 30
0.0
 40
0.5050994627351878
100
AcDbArc
 50
122.1624680624
 51
296.2923825299
  0
ARC
  5
CA
330
1F
100
AcDbEntity
  8
0
  6
Continuous
 62
     7
370
    25
100
AcDbCircle
 10
654.2433501725
 20
267.8288938271
 30
0.0
 40
2.499999999999949
100
AcDbArc
 50
220.8681863768
 51
257.5866642156
  0
ARC
  5
CB
330
1F
100
AcDbEntity
  8
0
  6
Continuous
 62
     7
370
    25
100
AcDbCircle
 10
654.210683315
 20
265.4063971814
 30
0.0
 40
0.5050994627333343
100
AcDbArc
 50
182.1624680634
 51
356.2923825288
  0
ARC
  5
CC
330
1F
100
AcDbEntity
  8
0
  6
Continuous
 62
     7
370
    25
100
AcDbCircle
 10
654.2433501725
 20
267.8288938271
 30
0.0
 40
2.499999999999913
100
AcDbArc
 50
280.8681863767
 51
317.5866642156
  0
ARC
  5
CD
330
1F
100
AcDbEntity
  8
0
  6
Continuous
 62
     7
370
    25
100
AcDbCircle
 10
656.3249603795
 20
266.5893551758
 30
0.0
 40
0.505099462736639
100
AcDbArc
 50
242.1624680643
 51
56.2923825281
  0
ARC
  5
CE
330
1F
100
AcDbEntity
  8
0
  6
Continuous
 62
     7
370
    25
100
AcDbCircle
 10
654.2433501725
 20
267.8288938271
 30
0.0
 40
2.49999999999998
100
AcDbArc
 50
340.8681863768
 51
17.5866642156
  0
ARC
  5
CF
330
1F
100
AcDbEntity
  8
0
  6
Continuous
 62
     7
370
    25
100
AcDbCircle
 10
656.357627237
 20
269.0118518215
 30
0.0
 40
0.5050994627355602
100
AcDbArc
 50
302.1624680628
 51
116.2923825295
  0
ARC
  5
D0
330
1F
100
AcDbEntity
  8
0
  6
Continuous
 62
     7
370
    25
100
AcDbCircle
 10
654.2433501725
 20
267.8288938271
 30
0.0
 40
2.499999999999985
100
AcDbArc
 50
40.8681863768
 51
77.5866642156
  0
ARC
  5
D1
330
1F
100
AcDbEntity
  8
0
  6
Continuous
 62
     7
370
    25
100
AcDbCircle
 10
654.2433501725
 20
267.8288938271
 30
0.0
 40
2.499999999999925
100
AcDbArc
 50
160.8681863768
 51
197.5866642156
  0
ARC
  5
D2
330
1F
100
AcDbEntity
  8
0
  6
Continuous
 62
     7
370
    25
100
AcDbCircle
 10
652.1617399655
 20
269.0684324784
 30
0.0
 40
0.5050994627349845
100
AcDbArc
 50
62.1624680637
 51
236.2923825287
  0
LINE
  5
D3
330
1F
100
AcDbEntity
  8
0
  6
Continuous
 62
     7
370
    25
100
AcDbLine
 10
159.7433501725
 20
350.3288938271
 30
0.0
 11
160.5433501725
 21
350.3288938271
 31
0.0
  0
LINE
  5
D4
330
1F
100
AcDbEntity
  8
0
  6
Continuous
 62
     7
370
    25
100
AcDbLine
 10
160.5433501725
 20
350.3288938271
 30
0.0
 11
160.5433501725
 21
347.3288938271
 31
0.0
  0
LINE
  5
D5
330
1F
100
AcDbEntity
  8
0
  6
Continuous
 62
     7
370
    25
100
AcDbLine
 10
159.7433501725
 20
347.3288938271
 30
0.0
 11
159.7433501725
 21
350.3288938271
 31
0.0
  0
LINE
  5
D6
330
1F
100
AcDbEntity
  8
0
  6
Continuous
 62
     7
370
    25
100
AcDbLine
 10
159.7433501725
 20
330.3288938271
 30
0.0
 11
160.5433501725
 21
330.3288938271
 31
0.0
  0
LINE
  5
D7
330
1F
100
AcDbEntity
  8
0
  6
Continuous
 62
     7
370
    25
100
AcDbLine
 10
159.7433501725
 20
330.3288938271
 30
0.0
 11
159.7433501725
 21
347.3288938271
 31
0.0
  0
LINE
  5
D8
330
1F
100
AcDbEntity
  8
0
  6
Continuous
 62
     7
370
    25
100
AcDbLine
 10
160.5433501725
 20
330.3288938271
 30
0.0
 11
160.5433501725
 21
347.3288938271
 31
0.0
  0
LINE
  5
D9
330
1F
100
AcDbEntity
  8
0
  6
Continuous
 62
     7
370
    25
100
AcDbLine
 10
664.9433501725
 20
347.3288938271
 30
0.0
 11
664.9433501725
 21
350.3288938271
 31
0.0
  0
LINE
  5
DA
330
1F
100
AcDbEntity
  8
0
  6
Continuous
 62
     7
370
    25
100
AcDbLine
 10
664.9433501725
 20
350.3288938271
 30
0.0
 11
665.7433501725
 21
350.3288938271
 31
0.0
  0
LINE
  5
DB
330
1F
100
AcDbEntity
  8
0
  6
Continuous
 62
     7
370
    25
100
AcDbLine
 10
665.7433501725
 20
350.3288938271
 30
0.0
 11
665.7433501725
 21
347.3288938271
 31
0.0
  0
LINE
  5
DC
330
1F
100
AcDbEntity
  8
0
  6
Continuous
 62
     7
370
    25
100
AcDbLine
 10
664.9433501725
 20
347.3288938271
 30
0.0
 11
664.9433501725
 21
330.3288938271
 31
0.0
  0
LINE
  5
DD
330
1F
100
AcDbEntity
  8
0
  6
Continuous
 62
     7
370
    25
100
AcDbLine
 10
665.7433501725
 20
347.3288938271
 30
0.0
 11
665.7433501725
 21
330.3288938271
 31
0.0
  0
LINE
  5
DE
330
1F
100
AcDbEntity
  8
0
  6
Continuous
 62
     7
370
    25
100
AcDbLine
 10
665.7433501725
 20
330.3288938271
 30
0.0
 11
664.9433501725
 21
330.3288938271
 31
0.0
  0
LINE
  5
DF
330
1F
100
AcDbEntity
  8
0
  6
Continuous
 62
     7
370
    25
100
AcDbLine
 10
160.5433501725
 20
315.8288938271
 30
0.0
 11
160.5433501725
 21
327.1288938271
 31
0.0
  0
LINE
  5
E0
330
1F
100
AcDbEntity
  8
0
  6
Continuous
 62
     7
370
    25
100
AcDbLine
 10
160.5433501725
 20
328.8288938271
 30
0.0
 11
160.5433501725
 21
330.3288938271
 31
0.0
  0
LINE
  5
E1
330
1F
100
AcDbEntity
  8
0
  6
Continuous
 62
     7
370
    25
100
AcDbLine
 10
159.7433501725
 20
315.8288938271
 30
0.0
 11
159.7433501725
 21
330.3288938271
 31
0.0
  0
LINE
  5
E2
330
1F
100
AcDbEntity
  8
0
  6
Continuous
 62
     7
370
    25
100
AcDbLine
 10
665.7433501725
 20
330.3288938271
 30
0.0
 11
665.7433501725
 21
315.8288938271
 31
0.0
  0
LINE
  5
E3
330
1F
100
AcDbEntity
  8
0
  6
Continuous
 62
     7
370
    25
100
AcDbLine
 10
664.9433501725
 20
330.3288938271
 30
0.0
 11
664.9433501725
 21
328.8288938271
 31
0.0
  0
LINE
  5
E4
330
1F
100
AcDbEntity
  8
0
  6
Continuous
 62
     7
370
    25
100
AcDbLine
 10
664.9433501725
 20
327.1288938271
 30
0.0
 11
664.9433501725
 21
315.8288938271
 31
0.0
  0
LINE
  5
E5
330
1F
100
AcDbEntity
  8
0
  6
Continuous
 62
     7
370
    25
100
AcDbLine
 10
674.4021001725
 20
315.8288938271
 30
0.0
 11
674.4021001725
 21
321.8288938271
 31
0.0
  0
LINE
  5
E6
330
1F
100
AcDbEntity
  8
0
  6
Continuous
 62
     7
370
    25
100
AcDbLine
 10
674.9433501725
 20
316.9445009114
 30
0.0
 11
674.9433501725
 21
321.2876438271
 31
0.0
  0
LINE
  5
E7
330
1F
100
AcDbEntity
  8
0
  6
Continuous
 62
     7
370
    25
100
AcDbLine
 10
674.9433501725
 20
316.3701438271
 30
0.0
 11
674.9433501725
 21
316.9445009114
 31
0.0
  0
LINE
  5
E8
330
1F
100
AcDbEntity
  8
0
  6
Continuous
 62
     7
370
    25
100
AcDbLine
 10
160.3224199399
 20
328.8288938271
 30
0.0
 11
665.164280405
 21
328.8288938271
 31
0.0
  0
LINE
  5
E9
330
1F
100
AcDbEntity
  8
0
  6
Continuous
 62
     7
370
    25
100
AcDbLine
 10
160.3224199399
 20
327.1288938271
 30
0.0
 11
665.164280405
 21
327.1288938271
 31
0.0
  0
ELLIPSE
  5
EA
330
1F
100
AcDbEntity
  8
0
  6
Continuous
 62
     7
370
    25
100
AcDbEllipse
 10
160.3224199399
 20
327.9788938271
 30
0.0
 11
0.0
 21
0.8500000000000227
 31
0.0
210
0.0
220
0.0
230
1.0
 40
0.0930232558
 41
0.0
 42
3.141592653589076
  0
ELLIPSE
  5
EB
330
1F
100
AcDbEntity
  8
0
  6
Continuous
 62
     7
370
    25
100
AcDbEllipse
 10
665.164280405
 20
327.9788938271
 30
0.0
 11
0.0
 21
0.8499999999999658
 31
0.0
210
0.0
220
0.0
230
1.0
 40
0.0930232558
 41
3.141592653589792
 42
6.283185307179586
  0
LINE
  5
EC
330
1F
100
AcDbEntity
  8
0
  6
Continuous
 62
     7
370
    25
100
AcDbLine
 10
161.2433501725
 20
327.1288938271
 30
0.0
 11
161.2433501725
 21
327.0288938271
 31
0.0
  0
LINE
  5
ED
330
1F
100
AcDbEntity
  8
0
  6
Continuous
 62
     7
370
    25
100
AcDbLine
 10
664.2433501725
 20
327.0288938271
 30
0.0
 11
664.2433501725
 21
327.1288938271
 31
0.0
  0
LINE
  5
EE
330
1F
100
AcDbEntity
  8
0
  6
Continuous
 62
     7
370
    25
100
AcDbLine
 10
161.2433501725
 20
327.0288938271
 30
0.0
 11
161.2433501725
 21
315.8288938271
 31
0.0
  0
LINE
  5
EF
330
1F
100
AcDbEntity
  8
0
  6
Continuous
 62
     7
370
    25
100
AcDbLine
 10
664.2433501725
 20
315.8288938271
 30
0.0
 11
664.2433501725
 21
327.0288938271
 31
0.0
  0
LINE
  5
F0
330
1F
100
AcDbEntity
  8
0
  6
Continuous
 62
     7
370
    25
100
AcDbLine
 10
151.0846001725
 20
320.1252596734
 30
0.0
 11
151.0846001725
 21
315.8288938271
 31
0.0
  0
LINE
  5
F1
330
1F
100
AcDbEntity
  8
0
  6
Continuous
 62
     7
370
    25
100
AcDbLine
 10
151.0846001725
 20
321.8288938271
 30
0.0
 11
151.0846001725
 21
320.1252596734
 31
0.0
  0
LINE
  5
F2
330
1F
100
AcDbEntity
  8
0
  6
Continuous
 62
     7
370
    25
100
AcDbLine
 10
150.5433501725
 20
321.2876438271
 30
0.0
 11
150.5433501725
 21
316.3701438271
 31
0.0
  0
ARC
  5
F3
330
1F
100
AcDbEntity
  8
0
  6
Continuous
 62
     7
370
    25
100
AcDbCircle
 10
654.0688164875
 20
320.4051078377
 30
0.0
 40
12.03669752932628
100
AcDbArc
 50
186.2565722693
 51
191.9710500657
  0
LINE
  5
F4
330
1F
100
AcDbEntity
  8
0
  6
Continuous
 62
     7
370
    25
100
AcDbLine
 10
643.7459624275
 20
318.1414307872
 30
0.0
 11
643.9789062927
 21
316.6893550633
 31
0.0
  0
ARC
  5
F5
330
1F
100
AcDbEntity
  8
0
  6
Continuous
 62
     7
370
    25
100
AcDbCircle
 10
642.6671361618
 20
328.6543601421
 30
0.0
 40
12.03669752932067
100
AcDbArc
 50
276.2565722693
 51
281.9710500657
  0
LINE
  5
F6
330
1F
100
AcDbEntity
  8
0
  6
Continuous
 62
     7
370
    25
100
AcDbLine
 10
644.9308132123
 20
318.3315060821
 30
0.0
 11
645.1637570775
 21
316.8794303582
 31
0.0
  0
ARC
  5
F7
330
1F
100
AcDbEntity
  8
0
  6
Continuous
 62
     7
370
    25
100
AcDbCircle
 10
634.4178838574
 20
317.2526798164
 30
0.0
 40
12.03669752940437
100
AcDbArc
 50
6.2565722694
 51
11.9710500657
  0
ARC
  5
F8
330
1F
100
AcDbEntity
  8
0
  6
Continuous
 62
     7
370
    25
100
AcDbCircle
 10
645.8195641831
 20
309.003427512
 30
0.0
 40
12.03669752935532
100
AcDbArc
 50
96.2565722694
 51
101.9710500657
  0
ARC
  5
F9
330
1F
100
AcDbEntity
  8
0
  6
Continuous
 62
     7
370
    25
100
AcDbCircle
 10
644.2433501725
 20
318.8288938271
 30
0.0
 40
4.000000000000049
100
AcDbArc
 50
311.4096221093
 51
99.1138111675
  0
ARC
  5
FA
330
1F
100
AcDbEntity
  8
0
  6
Continuous
 62
     7
370
    25
100
AcDbCircle
 10
644.2433501725
 20
318.8288938271
 30
0.0
 40
4.000000000000016
100
AcDbArc
 50
99.1138111675
 51
228.5903778907
  0
LINE
  5
FB
330
1F
100
AcDbEntity
  8
0
  6
Continuous
 62
     7
370
    25
100
AcDbLine
 10
644.9308132123
 20
318.3315060821
 30
0.0
 11
646.3828889363
 21
318.5644499473
 31
0.0
  0
LINE
  5
FC
330
1F
100
AcDbEntity
  8
0
  6
Continuous
 62
     7
370
    25
100
AcDbLine
 10
642.1038114087
 20
319.0933377069
 30
0.0
 11
643.5558871326
 21
319.326281572
 31
0.0
  0
LINE
  5
FD
330
1F
100
AcDbEntity
  8
0
  6
Continuous
 62
     7
370
    25
100
AcDbLine
 10
642.2938867036
 20
317.9084869221
 30
0.0
 11
643.7459624275
 21
318.1414307872
 31
0.0
  0
LINE
  5
FE
330
1F
100
AcDbEntity
  8
0
  6
Continuous
 62
     7
370
    25
100
AcDbLine
 10
644.7407379174
 20
319.516356867
 30
0.0
 11
646.1928136414
 21
319.7493007321
 31
0.0
  0
LINE
  5
FF
330
1F
100
AcDbEntity
  8
0
  6
Continuous
 62
     7
370
    25
100
AcDbLine
 10
643.3229432674
 20
320.778357296
 30
0.0
 11
643.5558871326
 21
319.326281572
 31
0.0
  0
LINE
  5
100
330
1F
100
AcDbEntity
  8
0
  6
Continuous
 62
     7
370
    25
100
AcDbLine
 10
644.5077940522
 20
320.9684325909
 30
0.0
 11
644.7407379174
 21
319.516356867
 31
0.0
  0
LINE
  5
101
330
1F
100
AcDbEntity
  8
0
  6
Continuous
 62
     7
370
    25
100
AcDbLine
 10
644.8888442655
 20
319.5401162788
 30
0.0
 11
645.0789195604
 21
318.355265494
 31
0.0
  0
LINE
  5
102
330
1F
100
AcDbEntity
  8
0
  6
Continuous
 62
     7
370
    25
100
AcDbLine
 10
644.7169785056
 20
319.6644632151
 30
0.0
 11
643.5321277208
 21
319.4743879201
 31
0.0
  0
LINE
  5
103
330
1F
100
AcDbEntity
  8
0
  6
Continuous
 62
     7
370
    25
100
AcDbLine
 10
644.9545726242
 20
318.183399734
 30
0.0
 11
643.7697218394
 21
317.9933244391
 31
0.0
  0
LINE
  5
104
330
1F
100
AcDbEntity
  8
0
  6
Continuous
 62
     7
370
    25
100
AcDbLine
 10
643.4077807845
 20
319.3025221602
 30
0.0
 11
643.5978560794
 21
318.1176713754
 31
0.0
  0
ARC
  5
105
330
1F
100
AcDbEntity
  8
0
  6
Continuous
 62
     7
370
    25
100
AcDbCircle
 10
341.0688164875
 20
320.4051078377
 30
0.0
 40
12.03669752931169
100
AcDbArc
 50
186.2565722693
 51
191.9710500657
  0
ARC
  5
106
330
1F
100
AcDbEntity
  8
0
  6
Continuous
 62
     7
370
    25
100
AcDbCircle
 10
329.6671361618
 20
328.6543601421
 30
0.0
 40
12.03669752933938
100
AcDbArc
 50
276.2565722693
 51
281.9710500657
  0
ARC
  5
107
330
1F
100
AcDbEntity
  8
0
  6
Continuous
 62
     7
370
    25
100
AcDbCircle
 10
321.4178838575
 20
317.2526798165
 30
0.0
 40
12.03669752932293
100
AcDbArc
 50
6.2565722693
 51
11.9710500657
  0
ARC
  5
108
330
1F
100
AcDbEntity
  8
0
  6
Continuous
 62
     7
370
    25
100
AcDbCircle
 10
332.8195641831
 20
309.0034275121
 30
0.0
 40
12.03669752932876
100
AcDbArc
 50
96.2565722693
 51
101.9710500657
  0
ARC
  5
109
330
1F
100
AcDbEntity
  8
0
  6
Continuous
 62
     7
370
    25
100
AcDbCircle
 10
331.2433501725
 20
318.8288938271
 30
0.0
 40
4.000000000000012
100
AcDbArc
 50
311.4096221093
 51
99.1138111675
  0
ARC
  5
10A
330
1F
100
AcDbEntity
  8
0
  6
Continuous
 62
     7
370
    25
100
AcDbCircle
 10
331.2433501725
 20
318.8288938271
 30
0.0
 40
4.000000000000007
100
AcDbArc
 50
99.1138111675
 51
228.5903778907
  0
LINE
  5
10B
330
1F
100
AcDbEntity
  8
0
  6
Continuous
 62
     7
370
    25
100
AcDbLine
 10
330.3229432674
 20
320.778357296
 30
0.0
 11
330.5558871326
 21
319.326281572
 31
0.0
  0
LINE
  5
10C
330
1F
100
AcDbEntity
  8
0
  6
Continuous
 62
     7
370
    25
100
AcDbLine
 10
329.1038114087
 20
319.0933377069
 30
0.0
 11
330.5558871326
 21
319.326281572
 31
0.0
  0
LINE
  5
10D
330
1F
100
AcDbEntity
  8
0
  6
Continuous
 62
     7
370
    25
100
AcDbLine
 10
331.9308132123
 20
318.3315060821
 30
0.0
 11
332.1637570775
 21
316.8794303582
 31
0.0
  0
LINE
  5
10E
330
1F
100
AcDbEntity
  8
0
  6
Continuous
 62
     7
370
    25
100
AcDbLine
 10
331.7407379174
 20
319.516356867
 30
0.0
 11
333.1928136414
 21
319.7493007321
 31
0.0
  0
LINE
  5
10F
330
1F
100
AcDbEntity
  8
0
  6
Continuous
 62
     7
370
    25
100
AcDbLine
 10
329.2938867036
 20
317.9084869221
 30
0.0
 11
330.7459624275
 21
318.1414307872
 31
0.0
  0
LINE
  5
110
330
1F
100
AcDbEntity
  8
0
  6
Continuous
 62
     7
370
    25
100
AcDbLine
 10
331.9308132123
 20
318.3315060821
 30
0.0
 11
333.3828889363
 21
318.5644499473
 31
0.0
  0
LINE
  5
111
330
1F
100
AcDbEntity
  8
0
  6
Continuous
 62
     7
370
    25
100
AcDbLine
 10
331.5077940522
 20
320.9684325909
 30
0.0
 11
331.7407379174
 21
319.516356867
 31
0.0
  0
LINE
  5
112
330
1F
100
AcDbEntity
  8
0
  6
Continuous
 62
     7
370
    25
100
AcDbLine
 10
330.7459624275
 20
318.1414307872
 30
0.0
 11
330.9789062927
 21
316.6893550633
 31
0.0
  0
LINE
  5
113
330
1F
100
AcDbEntity
  8
0
  6
Continuous
 62
     7
370
    25
100
AcDbLine
 10
331.8888442655
 20
319.5401162788
 30
0.0
 11
332.0789195604
 21
318.355265494
 31
0.0
  0
LINE
  5
114
330
1F
100
AcDbEntity
  8
0
  6
Continuous
 62
     7
370
    25
100
AcDbLine
 10
331.9545726242
 20
318.183399734
 30
0.0
 11
330.7697218394
 21
317.9933244391
 31
0.0
  0
LINE
  5
115
330
1F
100
AcDbEntity
  8
0
  6
Continuous
 62
     7
370
    25
100
AcDbLine
 10
331.7169785056
 20
319.6644632151
 30
0.0
 11
330.5321277208
 21
319.4743879201
 31
0.0
  0
LINE
  5
116
330
1F
100
AcDbEntity
  8
0
  6
Continuous
 62
     7
370
    25
100
AcDbLine
 10
330.4077807845
 20
319.3025221602
 30
0.0
 11
330.5978560794
 21
318.1176713754
 31
0.0
  0
ARC
  5
117
330
1F
100
AcDbEntity
  8
0
  6
Continuous
 62
     7
370
    25
100
AcDbCircle
 10
504.0688164875
 20
320.4051078377
 30
0.0
 40
12.03669752933572
100
AcDbArc
 50
186.2565722693
 51
191.9710500657
  0
LINE
  5
118
330
1F
100
AcDbEntity
  8
0
  6
Continuous
 62
     7
370
    25
100
AcDbLine
 10
492.2938867036
 20
317.9084869221
 30
0.0
 11
493.7459624275
 21
318.1414307872
 31
0.0
  0
LINE
  5
119
330
1F
100
AcDbEntity
  8
0
  6
Continuous
 62
     7
370
    25
100
AcDbLine
 10
493.7459624275
 20
318.1414307872
 30
0.0
 11
493.9789062927
 21
316.6893550633
 31
0.0
  0
ARC
  5
11A
330
1F
100
AcDbEntity
  8
0
  6
Continuous
 62
     7
370
    25
100
AcDbCircle
 10
492.6671361618
 20
328.6543601421
 30
0.0
 40
12.03669752932636
100
AcDbArc
 50
276.2565722693
 51
281.9710500657
  0
LINE
  5
11B
330
1F
100
AcDbEntity
  8
0
  6
Continuous
 62
     7
370
    25
100
AcDbLine
 10
494.9308132123
 20
318.3315060821
 30
0.0
 11
495.1637570775
 21
316.8794303582
 31
0.0
  0
LINE
  5
11C
330
1F
100
AcDbEntity
  8
0
  6
Continuous
 62
     7
370
    25
100
AcDbLine
 10
494.9308132123
 20
318.3315060821
 30
0.0
 11
496.3828889363
 21
318.5644499473
 31
0.0
  0
ARC
  5
11D
330
1F
100
AcDbEntity
  8
0
  6
Continuous
 62
     7
370
    25
100
AcDbCircle
 10
484.4178838575
 20
317.2526798165
 30
0.0
 40
12.03669752929845
100
AcDbArc
 50
6.2565722693
 51
11.9710500657
  0
LINE
  5
11E
330
1F
100
AcDbEntity
  8
0
  6
Continuous
 62
     7
370
    25
100
AcDbLine
 10
494.7407379174
 20
319.516356867
 30
0.0
 11
496.1928136414
 21
319.7493007321
 31
0.0
  0
ARC
  5
11F
330
1F
100
AcDbEntity
  8
0
  6
Continuous
 62
     7
370
    25
100
AcDbCircle
 10
495.8195641831
 20
309.003427512
 30
0.0
 40
12.03669752935457
100
AcDbArc
 50
96.2565722694
 51
101.9710500657
  0
ARC
  5
120
330
1F
100
AcDbEntity
  8
0
  6
Continuous
 62
     7
370
    25
100
AcDbCircle
 10
494.2433501725
 20
318.8288938271
 30
0.0
 40
4.000000000000012
100
AcDbArc
 50
311.4096221093
 51
99.1138111675
  0
ARC
  5
121
330
1F
100
AcDbEntity
  8
0
  6
Continuous
 62
     7
370
    25
100
AcDbCircle
 10
494.2433501725
 20
318.8288938271
 30
0.0
 40
4.000000000000012
100
AcDbArc
 50
99.1138111675
 51
228.5903778907
  0
LINE
  5
122
330
1F
100
AcDbEntity
  8
0
  6
Continuous
 62
     7
370
    25
100
AcDbLine
 10
492.1038114087
 20
319.0933377069
 30
0.0
 11
493.5558871326
 21
319.326281572
 31
0.0
  0
LINE
  5
123
330
1F
100
AcDbEntity
  8
0
  6
Continuous
 62
     7
370
    25
100
AcDbLine
 10
494.5077940522
 20
320.9684325909
 30
0.0
 11
494.7407379174
 21
319.516356867
 31
0.0
  0
LINE
  5
124
330
1F
100
AcDbEntity
  8
0
  6
Continuous
 62
     7
370
    25
100
AcDbLine
 10
493.3229432674
 20
320.778357296
 30
0.0
 11
493.5558871326
 21
319.326281572
 31
0.0
  0
LINE
  5
125
330
1F
100
AcDbEntity
  8
0
  6
Continuous
 62
     7
370
    25
100
AcDbLine
 10
494.8888442655
 20
319.5401162788
 30
0.0
 11
495.0789195604
 21
318.355265494
 31
0.0
  0
LINE
  5
126
330
1F
100
AcDbEntity
  8
0
  6
Continuous
 62
     7
370
    25
100
AcDbLine
 10
494.7169785056
 20
319.6644632151
 30
0.0
 11
493.5321277208
 21
319.4743879201
 31
0.0
  0
LINE
  5
127
330
1F
100
AcDbEntity
  8
0
  6
Continuous
 62
     7
370
    25
100
AcDbLine
 10
494.9545726242
 20
318.183399734
 30
0.0
 11
493.7697218394
 21
317.9933244391
 31
0.0
  0
LINE
  5
128
330
1F
100
AcDbEntity
  8
0
  6
Continuous
 62
     7
370
    25
100
AcDbLine
 10
493.4077807845
 20
319.3025221602
 30
0.0
 11
493.5978560794
 21
318.1176713754
 31
0.0
  0
LINE
  5
129
330
1F
100
AcDbEntity
  8
0
  6
Continuous
 62
     7
370
    25
100
AcDbLine
 10
180.3229432674
 20
320.778357296
 30
0.0
 11
180.5558871326
 21
319.326281572
 31
0.0
  0
LINE
  5
12A
330
1F
100
AcDbEntity
  8
0
  6
Continuous
 62
     7
370
    25
100
AcDbLine
 10
179.1038114087
 20
319.0933377069
 30
0.0
 11
180.5558871326
 21
319.326281572
 31
0.0
  0
ARC
  5
12B
330
1F
100
AcDbEntity
  8
0
  6
Continuous
 62
     7
370
    25
100
AcDbCircle
 10
191.0688164875
 20
320.4051078377
 30
0.0
 40
12.03669752933661
100
AcDbArc
 50
186.2565722694
 51
191.9710500657
  0
LINE
  5
12C
330
1F
100
AcDbEntity
  8
0
  6
Continuous
 62
     7
370
    25
100
AcDbLine
 10
179.2938867036
 20
317.9084869221
 30
0.0
 11
180.7459624275
 21
318.1414307872
 31
0.0
  0
LINE
  5
12D
330
1F
100
AcDbEntity
  8
0
  6
Continuous
 62
     7
370
    25
100
AcDbLine
 10
180.7459624275
 20
318.1414307872
 30
0.0
 11
180.9789062927
 21
316.6893550633
 31
0.0
  0
ARC
  5
12E
330
1F
100
AcDbEntity
  8
0
  6
Continuous
 62
     7
370
    25
100
AcDbCircle
 10
179.6671361618
 20
328.6543601421
 30
0.0
 40
12.03669752934813
100
AcDbArc
 50
276.2565722694
 51
281.9710500657
  0
LINE
  5
12F
330
1F
100
AcDbEntity
  8
0
  6
Continuous
 62
     7
370
    25
100
AcDbLine
 10
181.9308132123
 20
318.3315060821
 30
0.0
 11
182.1637570775
 21
316.8794303582
 31
0.0
  0
LINE
  5
130
330
1F
100
AcDbEntity
  8
0
  6
Continuous
 62
     7
370
    25
100
AcDbLine
 10
181.9308132123
 20
318.3315060821
 30
0.0
 11
183.3828889363
 21
318.5644499473
 31
0.0
  0
ARC
  5
131
330
1F
100
AcDbEntity
  8
0
  6
Continuous
 62
     7
370
    25
100
AcDbCircle
 10
171.4178838574
 20
317.2526798165
 30
0.0
 40
12.03669752935314
100
AcDbArc
 50
6.2565722694
 51
11.9710500657
  0
LINE
  5
132
330
1F
100
AcDbEntity
  8
0
  6
Continuous
 62
     7
370
    25
100
AcDbLine
 10
181.7407379174
 20
319.516356867
 30
0.0
 11
183.1928136414
 21
319.7493007321
 31
0.0
  0
LINE
  5
133
330
1F
100
AcDbEntity
  8
0
  6
Continuous
 62
     7
370
    25
100
AcDbLine
 10
181.5077940522
 20
320.9684325909
 30
0.0
 11
181.7407379174
 21
319.516356867
 31
0.0
  0
ARC
  5
134
330
1F
100
AcDbEntity
  8
0
  6
Continuous
 62
     7
370
    25
100
AcDbCircle
 10
182.8195641831
 20
309.003427512
 30
0.0
 40
12.03669752935433
100
AcDbArc
 50
96.2565722694
 51
101.9710500657
  0
ARC
  5
135
330
1F
100
AcDbEntity
  8
0
  6
Continuous
 62
     7
370
    25
100
AcDbCircle
 10
181.2433501725
 20
318.8288938271
 30
0.0
 40
4.000000000000012
100
AcDbArc
 50
311.4096221093
 51
99.1138111675
  0
ARC
  5
136
330
1F
100
AcDbEntity
  8
0
  6
Continuous
 62
     7
370
    25
100
AcDbCircle
 10
181.2433501725
 20
318.8288938271
 30
0.0
 40
4.000000000000012
100
AcDbArc
 50
99.1138111675
 51
228.5903778907
  0
LINE
  5
137
330
1F
100
AcDbEntity
  8
0
  6
Continuous
 62
     7
370
    25
100
AcDbLine
 10
181.8888442655
 20
319.5401162788
 30
0.0
 11
182.0789195604
 21
318.355265494
 31
0.0
  0
LINE
  5
138
330
1F
100
AcDbEntity
  8
0
  6
Continuous
 62
     7
370
    25
100
AcDbLine
 10
181.9545726242
 20
318.183399734
 30
0.0
 11
180.7697218394
 21
317.9933244391
 31
0.0
  0
LINE
  5
139
330
1F
100
AcDbEntity
  8
0
  6
Continuous
 62
     7
370
    25
100
AcDbLine
 10
181.7169785056
 20
319.6644632151
 30
0.0
 11
180.5321277208
 21
319.4743879201
 31
0.0
  0
LINE
  5
13A
330
1F
100
AcDbEntity
  8
0
  6
Continuous
 62
     7
370
    25
100
AcDbLine
 10
180.4077807845
 20
319.3025221602
 30
0.0
 11
180.5978560794
 21
318.1176713754
 31
0.0
  0
SPLINE
  5
13B
330
1F
100
AcDbEntity
  8
0
  6
Continuous
 62
     7
370
    25
100
AcDbSpline
210
0.0
220
0.0
230
1.0
 70
    24
 71
     3
 72
    18
 73
    14
 74
     0
 42
0.000000001
 43
0.00000001
 40
0.0
 40
0.0
 40
0.0
 40
0.0
 40
0.1395442450004753
 40
0.2146633576115611
 40
0.2913766055701589
 40
0.3680898535287572
 40
0.4432089661398435
 40
0.5827532111403179
 40
0.7222974561407929
 40
0.797416568751879
 40
0.874129816710477
 40
0.950843064669075
 40
1.0
 40
1.0
 40
1.0
 40
1.0
 10
161.5433501724774
 20
338.5983657703271
 30
0.0
 10
161.5433501724774
 20
338.9834966622527
 30
0.0
 10
161.5433501724773
 20
339.5759502627607
 30
0.0
 10
161.5433501724774
 20
340.8118644441457
 30
0.0
 10
161.5433501724775
 20
341.8878940565005
 30
0.0
 10
161.5433501724773
 20
343.0514221770494
 30
0.0
 10
161.5433501724776
 20
344.5718693680675
 30
0.0
 10
161.5433501724773
 20
346.3960593660743
 30
0.0
 10
161.5433501724775
 20
347.9112943206667
 30
0.0
 10
161.5433501724774
 20
348.8290416190966
 30
0.0
 10
161.5433501724774
 20
349.3326584374503
 30
0.0
 10
161.5433501724773
 20
349.6047955621902
 30
0.0
 10
161.5433501724774
 20
349.6028877193043
 30
0.0
 10
161.5433501724773
 20
349.6021426364982
 30
0.0
  0
SPLINE
  5
13C
330
1F
100
AcDbEntity
  8
0
  6
Continuous
 62
     7
370
    25
100
AcDbSpline
210
0.0
220
0.0
230
1.0
 70
     8
 71
     3
 72
     8
 73
     4
 74
     0
 42
0.000000001
 43
0.00000001
 40
0.0
 40
0.0
 40
0.0
 40
0.0
 40
1.0
 40
1.0
 40
1.0
 40
1.0
 10
165.5433501724703
 20
341.0042244159611
 30
0.0
 10
165.5433501724703
 20
341.8172139876662
 30
0.0
 10
165.3690348720911
 20
342.607952383734
 30
0.0
 10
165.096768185079
 20
343.3861873822108
 30
0.0
  0
SPLINE
  5
13D
330
1F
100
AcDbEntity
  8
0
  6
Continuous
 62
     7
370
    25
100
AcDbSpline
210
0.0
220
0.0
230
1.0
 70
     8
 71
     3
 72
     8
 73
     4
 74
     0
 42
0.000000001
 43
0.00000001
 40
0.0
 40
0.0
 40
0.0
 40
0.0
 40
1.0
 40
1.0
 40
1.0
 40
1.0
 10
165.0967681850789
 20
338.6222614497113
 30
0.0
 10
165.3690348720903
 20
339.4004964481862
 30
0.0
 10
165.5433501724703
 20
340.191234844258
 30
0.0
 10
165.5433501724703
 20
341.0042244159611
 30
0.0
  0
LINE
  5
13E
330
1F
100
AcDbEntity
  8
0
  6
Continuous
 62
     7
370
    25
100
AcDbLine
 10
161.5433501725
 20
338.6222614497
 30
0.0
 11
165.0967681851
 21
338.6222614497
 31
0.0
  0
LINE
  5
13F
330
1F
100
AcDbEntity
  8
0
  6
Continuous
 62
     7
370
    25
100
AcDbLine
 10
165.0967681851
 20
343.3861873822
 30
0.0
 11
161.5433501725
 21
343.3861873822
 31
0.0
  0
SPLINE
  5
140
330
1F
100
AcDbEntity
  8
0
  6
Continuous
 62
     7
370
    25
100
AcDbSpline
210
0.0
220
0.0
230
1.0
 70
     8
 71
     3
 72
     8
 73
     4
 74
     0
 42
0.000000001
 43
0.00000001
 40
0.0
 40
0.0
 40
0.0
 40
0.0
 40
1.0
 40
1.0
 40
1.0
 40
1.0
 10
165.5433501724702
 20
345.9895035709076
 30
0.0
 10
165.5433501724702
 20
346.8780433774634
 30
0.0
 10
165.3690348720909
 20
347.7422642308824
 30
0.0
 10
165.096768185079
 20
348.5928197595975
 30
0.0
  0
SPLINE
  5
141
330
1F
100
AcDbEntity
  8
0
  6
Continuous
 62
     7
370
    25
100
AcDbSpline
210
0.0
220
0.0
230
1.0
 70
     8
 71
     3
 72
     8
 73
     4
 74
     0
 42
0.000000001
 43
0.00000001
 40
0.0
 40
0.0
 40
0.0
 40
0.0
 40
1.0
 40
1.0
 40
1.0
 40
1.0
 10
165.096768185079
 20
343.3861873822175
 30
0.0
 10
165.3690348720904
 20
344.2367429109314
 30
0.0
 10
165.5433501724702
 20
345.1009637643531
 30
0.0
 10
165.5433501724702
 20
345.9895035709076
 30
0.0
  0
LINE
  5
142
330
1F
100
AcDbEntity
  8
0
  6
Continuous
 62
     7
370
    25
100
AcDbLine
 10
161.5433501725
 20
348.5928197596
 30
0.0
 11
165.0967681851
 21
348.5928197596
 31
0.0
  0
LINE
  5
143
330
1F
100
AcDbEntity
  8
0
  6
Continuous
 62
     7
370
    25
100
AcDbLine
 10
165.5433501725
 20
341.004224416
 30
0.0
 11
165.5433501725
 21
345.9895035709
 31
0.0
  0
SPLINE
  5
144
330
1F
100
AcDbEntity
  8
0
  6
Continuous
 62
     7
370
    25
100
AcDbSpline
210
0.0
220
0.0
230
1.0
 70
     8
 71
     3
 72
     8
 73
     4
 74
     0
 42
0.000000001
 43
0.00000001
 40
0.0
 40
0.0
 40
0.0
 40
0.0
 40
1.0
 40
1.0
 40
1.0
 40
1.0
 10
165.096768185079
 20
348.5928197596012
 30
0.0
 10
165.3690348720905
 20
348.6651402898401
 30
0.0
 10
165.5433501724704
 20
348.7386227471905
 30
0.0
 10
165.5433501724704
 20
348.8141729820417
 30
0.0
  0
LINE
  5
145
330
1F
100
AcDbEntity
  8
0
  6
Continuous
 62
     7
370
    25
100
AcDbLine
 10
165.5433501725
 20
345.9895035709
 30
0.0
 11
165.5433501725
 21
348.814172982
 31
0.0
  0
SPLINE
  5
146
330
1F
100
AcDbEntity
  8
0
  6
Continuous
 62
     7
370
    25
100
AcDbSpline
210
0.0
220
0.0
230
1.0
 70
     8
 71
     3
 72
     8
 73
     4
 74
     0
 42
0.000000001
 43
0.00000001
 40
0.0
 40
0.0
 40
0.0
 40
0.0
 40
1.0
 40
1.0
 40
1.0
 40
1.0
 10
165.5433501724704
 20
338.843614672149
 30
0.0
 10
165.5433501724704
 20
338.7680644372977
 30
0.0
 10
165.369034872091
 20
338.6945819799475
 30
0.0
 10
165.096768185079
 20
338.6222614497085
 30
0.0
  0
LINE
  5
147
330
1F
100
AcDbEntity
  8
0
  6
Continuous
 62
     7
370
    25
100
AcDbLine
 10
165.5433501725
 20
341.004224416
 30
0.0
 11
165.5433501725
 21
338.8362213333
 31
0.0
  0
SPLINE
  5
148
330
1F
100
AcDbEntity
  8
0
  6
Continuous
 62
     7
370
    25
100
AcDbSpline
210
0.0
220
0.0
230
1.0
 70
     8
 71
     3
 72
     8
 73
     4
 74
     0
 42
0.000000001
 43
0.00000001
 40
0.0
 40
0.0
 40
0.0
 40
0.0
 40
1.0
 40
1.0
 40
1.0
 40
1.0
 10
165.5433501724704
 20
348.8141729820417
 30
0.0
 10
165.5433501724704
 20
348.8897232168931
 30
0.0
 10
165.369034872091
 20
348.9632056742432
 30
0.0
 10
165.096768185079
 20
349.0355262044822
 30
0.0
  0
LINE
  5
149
330
1F
100
AcDbEntity
  8
0
  6
Continuous
 62
     7
370
    25
100
AcDbLine
 10
161.5433501725
 20
349.0355262045
 30
0.0
 11
165.0967681851
 21
349.0355262045
 31
0.0
  0
LINE
  5
14A
330
1F
100
AcDbEntity
  8
0
  6
Continuous
 62
     7
370
    25
100
AcDbLine
 10
150.5433501725
 20
346.2876438271
 30
0.0
 11
150.5433501725
 21
341.3701438271
 31
0.0
  0
LINE
  5
14B
330
1F
100
AcDbEntity
  8
0
  6
Continuous
 62
     7
370
    25
100
AcDbLine
 10
151.0846001725
 20
345.1252596734
 30
0.0
 11
151.0846001725
 21
340.8288938271
 31
0.0
  0
LINE
  5
14C
330
1F
100
AcDbEntity
  8
0
  6
Continuous
 62
     7
370
    25
100
AcDbLine
 10
151.0846001725
 20
346.8288938271
 30
0.0
 11
151.0846001725
 21
345.1252596734
 31
0.0
  0
LINE
  5
14D
330
1F
100
AcDbEntity
  8
0
  6
Continuous
 62
     7
370
    25
100
AcDbLine
 10
790.2361775376
 20
315.050267155
 30
0.0
 11
790.5991153159
 21
315.6788938271
 31
0.0
  0
LINE
  5
14E
330
1F
100
AcDbEntity
  8
0
  6
Continuous
 62
     7
370
    25
100
AcDbLine
 10
790.5991153159
 20
321.9788938271
 30
0.0
 11
790.2361775376
 21
322.6075204992
 31
0.0
  0
ARC
  5
14F
330
1F
100
AcDbEntity
  8
0
  6
Continuous
 62
     7
370
    25
100
AcDbCircle
 10
787.3709120857
 20
318.8288938271
 30
0.0
 40
8.000000000000066
100
AcDbArc
 50
330.0
 51
344.7252520003
  0
ARC
  5
150
330
1F
100
AcDbEntity
  8
0
  6
Continuous
 62
     7
370
    25
100
AcDbCircle
 10
787.3709120857
 20
318.8288938271
 30
0.0
 40
8.000000000000044
100
AcDbArc
 50
15.2747479997
 51
30.0
  0
LINE
  5
151
330
1F
100
AcDbEntity
  8
0
  6
Continuous
 62
     7
370
    25
100
AcDbLine
 10
792.2991153159
 20
314.8288938271
 30
0.0
 11
794.2991153159
 21
314.8288938271
 31
0.0
  0
LINE
  5
152
330
1F
100
AcDbEntity
  8
0
  6
Continuous
 62
     7
370
    25
100
AcDbLine
 10
794.2991153159
 20
322.8288938271
 30
0.0
 11
792.2991153159
 21
322.8288938271
 31
0.0
  0
LINE
  5
153
330
1F
100
AcDbEntity
  8
0
  6
Continuous
 62
     7
370
    25
100
AcDbLine
 10
790.5991153159
 20
316.8288938271
 30
0.0
 11
790.6991153159
 21
316.8288938271
 31
0.0
  0
LINE
  5
154
330
1F
100
AcDbEntity
  8
0
  6
Continuous
 62
     7
370
    25
100
AcDbLine
 10
790.6991153159
 20
320.8288938271
 30
0.0
 11
790.5991153159
 21
320.8288938271
 31
0.0
  0
LINE
  5
155
330
1F
100
AcDbEntity
  8
0
  6
Continuous
 62
     7
370
    25
100
AcDbLine
 10
797.5991153159
 20
314.358183149
 30
0.0
 11
797.5991153159
 21
221.2996045052
 31
0.0
  0
LINE
  5
156
330
1F
100
AcDbEntity
  8
0
  6
Continuous
 62
     7
370
    25
100
AcDbLine
 10
807.1991153159
 20
221.2996045052
 30
0.0
 11
797.5991153159
 21
221.2996045052
 31
0.0
  0
LINE
  5
157
330
1F
100
AcDbEntity
  8
0
  6
Continuous
 62
     7
370
    25
100
AcDbLine
 10
807.1991153159
 20
314.358183149
 30
0.0
 11
797.5991153159
 21
314.358183149
 31
0.0
  0
SPLINE
  5
158
330
1F
100
AcDbEntity
  8
0
  6
Continuous
 62
     7
370
    25
100
AcDbSpline
210
0.0
220
0.0
230
1.0
 70
     8
 71
     3
 72
    20
 73
    16
 74
     0
 42
0.000000001
 43
0.00000001
 40
0.0
 40
0.0
 40
0.0
 40
0.0
 40
0.1250000000000005
 40
0.1250000000000005
 40
0.2500000000000008
 40
0.2500000000000008
 40
0.3750000000000011
 40
0.3750000000000011
 40
0.5000000000000013
 40
0.5000000000000013
 40
0.7500000000000007
 40
0.7500000000000007
 40
0.8750000000000004
 40
0.8750000000000004
 40
1.0
 40
1.0
 40
1.0
 40
1.0
 10
807.199115315934
 20
314.358183148975
 30
0.0
 10
807.3574945035847
 20
314.3191424181205
 30
0.0
 10
807.5137402282763
 20
314.2806237139207
 30
0.0
 10
807.821732077693
 20
314.2032169626127
 30
0.0
 10
807.9743761851641
 20
314.164072544626
 30
0.0
 10
808.2634604743513
 20
314.0869217907108
 30
0.0
 10
808.4012650125353
 20
314.0485942089698
 30
0.0
 10
808.6628836881741
 20
313.9710478884932
 30
0.0
 10
808.7856299948568
 20
313.9320716808246
 30
0.0
 10
809.1169543718046
 20
313.8165768243795
 30
0.0
 10
809.2959654958327
 20
313.7386643807095
 30
0.0
 10
809.4755805952136
 20
313.6231844553085
 30
0.0
 10
809.5218249440813
 20
313.5843186594435
 30
0.0
 10
809.5835782500925
 20
313.506544325775
 30
0.0
 10
809.599115315934
 20
313.4679345588203
 30
0.0
 10
809.599115315934
 20
313.4288938270936
 30
0.0
  0
LINE
  5
159
330
1F
100
AcDbEntity
  8
0
  6
Continuous
 62
     7
370
    25
100
AcDbLine
 10
809.5991153159
 20
313.4288938271
 30
0.0
 11
809.5991153159
 21
222.2288938271
 31
0.0
  0
SPLINE
  5
15A
330
1F
100
AcDbEntity
  8
0
  6
Continuous
 62
     7
370
    25
100
AcDbSpline
210
0.0
220
0.0
230
1.0
 70
     8
 71
     3
 72
    20
 73
    16
 74
     0
 42
0.000000001
 43
0.00000001
 40
0.0
 40
0.0
 40
0.0
 40
0.0
 40
0.1250000000000089
 40
0.1250000000000089
 40
0.2500000000000179
 40
0.2500000000000179
 40
0.3750000000000268
 40
0.3750000000000268
 40
0.5000000000000357
 40
0.5000000000000357
 40
0.7500000000000252
 40
0.7500000000000252
 40
0.8750000000000125
 40
0.8750000000000125
 40
1.0
 40
1.0
 40
1.0
 40
1.0
 10
809.599115315934
 20
222.2288938270935
 30
0.0
 10
809.599115315934
 20
222.189853096239
 30
0.0
 10
809.5835787554591
 20
222.1513343920392
 30
0.0
 10
809.5222604034985
 20
222.0739276407313
 30
0.0
 10
809.4758366579118
 20
222.0347832227445
 30
0.0
 10
809.3558857877576
 20
221.9576324688294
 30
0.0
 10
809.2822811434743
 20
221.9193048870884
 30
0.0
 10
809.1075507773785
 20
221.8417585666118
 30
0.0
 10
809.006700148477
 20
221.8027823589431
 30
0.0
 10
808.675414868493
 20
221.6872875024981
 30
0.0
 10
808.4077347071092
 20
221.609375058828
 30
0.0
 10
807.9750606810537
 20
221.4938951334271
 30
0.0
 10
807.8235425942026
 20
221.4550293375621
 30
0.0
 10
807.5141168368165
 20
221.3772550038936
 30
0.0
 10
807.3574945071229
 20
221.3386452369388
 30
0.0
 10
807.199115315934
 20
221.2996045052122
 30
0.0
  0
LINE
  5
15B
330
1F
100
AcDbEntity
  8
0
  6
Continuous
 62
     7
370
    25
100
AcDbLine
 10
807.1991153159
 20
219.8288938271
 30
0.0
 11
807.1991153159
 21
221.2288938271
 31
0.0
  0
SPLINE
  5
15C
330
1F
100
AcDbEntity
  8
0
  6
Continuous
 62
     7
370
    25
100
AcDbSpline
210
0.0
220
0.0
230
1.0
 70
     8
 71
     3
 72
     9
 73
     5
 74
     0
 42
0.000000001
 43
0.00000001
 40
0.0
 40
0.0
 40
0.0
 40
0.0
 40
0.7329379507270691
 40
1.0
 40
1.0
 40
1.0
 40
1.0
 10
807.199115315934
 20
221.2288938270937
 30
0.0
 10
807.3505039575899
 20
221.2406484766114
 30
0.0
 10
807.5570543777252
 20
221.2566861909992
 30
0.0
 10
807.7124147198438
 20
221.3850234974931
 30
0.0
 10
807.7539055711857
 20
221.4192975215635
 30
0.0
  0
SPLINE
  5
15D
330
1F
100
AcDbEntity
  8
0
  6
Continuous
 62
     7
370
    25
100
AcDbSpline
210
0.0
220
0.0
230
1.0
 70
     8
 71
     3
 72
    20
 73
    16
 74
     0
 42
0.000000001
 43
0.00000001
 40
0.0
 40
0.0
 40
0.0
 40
0.0
 40
0.1250000000000032
 40
0.1250000000000032
 40
0.2500000000000064
 40
0.2500000000000064
 40
0.3750000000000095
 40
0.3750000000000095
 40
0.5000000000000128
 40
0.5000000000000128
 40
0.7500000000000088
 40
0.7500000000000088
 40
0.8750000000000044
 40
0.8750000000000044
 40
1.0
 40
1.0
 40
1.0
 40
1.0
 10
807.199115315934
 20
219.8288938270937
 30
0.0
 10
807.3574945035847
 20
219.8288938270937
 30
0.0
 10
807.5137402282763
 20
219.8444303875685
 30
0.0
 10
807.821732077693
 20
219.9057487395291
 30
0.0
 10
807.9743761851641
 20
219.952172485116
 30
0.0
 10
808.2634604743512
 20
220.07212335527
 30
0.0
 10
808.4012650125352
 20
220.1457279995535
 30
0.0
 10
808.662883688174
 20
220.3204583656491
 30
0.0
 10
808.7856299948567
 20
220.4213089945506
 30
0.0
 10
809.1169543718045
 20
220.7525942745345
 30
0.0
 10
809.2959654958325
 20
221.0202744359183
 30
0.0
 10
809.4755805952135
 20
221.4529484619737
 30
0.0
 10
809.5218249440812
 20
221.6044665488249
 30
0.0
 10
809.5835782500925
 20
221.913892306211
 30
0.0
 10
809.599115315934
 20
222.0705146359047
 30
0.0
 10
809.599115315934
 20
222.2288938270934
 30
0.0
  0
SPLINE
  5
15E
330
1F
100
AcDbEntity
  8
0
  6
Continuous
 62
     7
370
    25
100
AcDbSpline
210
0.0
220
0.0
230
1.0
 70
     8
 71
     3
 72
    20
 73
    16
 74
     0
 42
0.000000001
 43
0.00000001
 40
0.0
 40
0.0
 40
0.0
 40
0.0
 40
0.1249999999999984
 40
0.1249999999999984
 40
0.2499999999999967
 40
0.2499999999999967
 40
0.3749999999999951
 40
0.3749999999999951
 40
0.4999999999999934
 40
0.4999999999999934
 40
0.7499999999999967
 40
0.7499999999999967
 40
0.8749999999999983
 40
0.8749999999999983
 40
1.0
 40
1.0
 40
1.0
 40
1.0
 10
809.599115315934
 20
313.4288938270936
 30
0.0
 10
809.599115315934
 20
313.5872730147443
 30
0.0
 10
809.5835787554591
 20
313.743518739436
 30
0.0
 10
809.5222604034986
 20
314.0515105888526
 30
0.0
 10
809.4758366579118
 20
314.2041546963237
 30
0.0
 10
809.3558857877576
 20
314.4932389855108
 30
0.0
 10
809.2822811434743
 20
314.6310435236949
 30
0.0
 10
809.1075507773786
 20
314.8926621993338
 30
0.0
 10
809.0067001484771
 20
315.0154085060165
 30
0.0
 10
808.675414868493
 20
315.3467328829641
 30
0.0
 10
808.4077347071093
 20
315.5257440069923
 30
0.0
 10
807.9750606810538
 20
315.7053591063732
 30
0.0
 10
807.8235425942026
 20
315.751603455241
 30
0.0
 10
807.5141168368165
 20
315.8133567612522
 30
0.0
 10
807.3574945071229
 20
315.8288938270936
 30
0.0
 10
807.199115315934
 20
315.8288938270936
 30
0.0
  0
SPLINE
  5
15F
330
1F
100
AcDbEntity
  8
0
  6
Continuous
 62
     7
370
    25
100
AcDbSpline
210
0.0
220
0.0
230
1.0
 70
     8
 71
     3
 72
     9
 73
     5
 74
     0
 42
0.000000001
 43
0.00000001
 40
0.0
 40
0.0
 40
0.0
 40
0.0
 40
0.4825784287290996
 40
1.0
 40
1.0
 40
1.0
 40
1.0
 10
807.811655055112
 20
314.20506405904
 30
0.0
 10
807.7235207137957
 20
314.2688722521014
 30
0.0
 10
807.5408885527427
 20
314.4010957193406
 30
0.0
 10
807.3156556686982
 20
314.4194150237972
 30
0.0
 10
807.199115315934
 20
314.4288938270936
 30
0.0
  0
LINE
  5
160
330
1F
100
AcDbEntity
  8
0
  6
Continuous
 62
     7
370
    25
100
AcDbLine
 10
807.1991153159
 20
315.8288938271
 30
0.0
 11
807.1991153159
 21
314.4288938271
 31
0.0
  0
LINE
  5
161
330
1F
100
AcDbEntity
  8
0
  6
Continuous
 62
     7
370
    25
100
AcDbLine
 10
797.5991153159
 20
315.8288938271
 30
0.0
 11
797.5991153159
 21
314.4288938271
 31
0.0
  0
LINE
  5
162
330
1F
100
AcDbEntity
  8
0
  6
Continuous
 62
     7
370
    25
100
AcDbLine
 10
807.1991153159
 20
315.8288938271
 30
0.0
 11
797.5991153159
 21
315.8288938271
 31
0.0
  0
LINE
  5
163
330
1F
100
AcDbEntity
  8
0
  6
Continuous
 62
     7
370
    25
100
AcDbLine
 10
807.1991153159
 20
314.4288938271
 30
0.0
 11
797.5991153159
 21
314.4288938271
 31
0.0
  0
LINE
  5
164
330
1F
100
AcDbEntity
  8
0
  6
Continuous
 62
     7
370
    25
100
AcDbLine
 10
807.1991153159
 20
219.8288938271
 30
0.0
 11
797.5991153159
 21
219.8288938271
 31
0.0
  0
LINE
  5
165
330
1F
100
AcDbEntity
  8
0
  6
Continuous
 62
     7
370
    25
100
AcDbLine
 10
797.5991153159
 20
219.8288938271
 30
0.0
 11
797.5991153159
 21
221.2288938271
 31
0.0
  0
LINE
  5
166
330
1F
100
AcDbEntity
  8
0
  6
Continuous
 62
     7
370
    25
100
AcDbLine
 10
807.1991153159
 20
221.2288938271
 30
0.0
 11
797.5991153159
 21
221.2288938271
 31
0.0
  0
LINE
  5
167
330
1F
100
AcDbEntity
  8
0
  6
Continuous
 62
     7
370
    25
100
AcDbLine
 10
789.4991153159
 20
330.3288938271
 30
0.0
 11
793.4991153159
 21
330.3288938271
 31
0.0
  0
LINE
  5
168
330
1F
100
AcDbEntity
  8
0
  6
Continuous
 62
     7
370
    25
100
AcDbLine
 10
789.4991153159
 20
313.1288938271
 30
0.0
 11
789.4991153159
 21
330.3288938271
 31
0.0
  0
LINE
  5
169
330
1F
100
AcDbEntity
  8
0
  6
Continuous
 62
     7
370
    25
100
AcDbLine
 10
770.4991153159
 20
347.3288938271
 30
0.0
 11
770.4991153159
 21
313.1288938271
 31
0.0
  0
ARC
  5
16A
330
1F
100
AcDbEntity
  8
0
  6
Continuous
 62
     7
370
    25
100
AcDbCircle
 10
773.4991153159
 20
347.3288938271
 30
0.0
 40
3.0
100
AcDbArc
 50
90.0
 51
180.0
  0
LINE
  5
16B
330
1F
100
AcDbEntity
  8
0
  6
Continuous
 62
     7
370
    25
100
AcDbLine
 10
790.4991153159
 20
350.3288938271
 30
0.0
 11
773.4991153159
 21
350.3288938271
 31
0.0
  0
ARC
  5
16C
330
1F
100
AcDbEntity
  8
0
  6
Continuous
 62
     7
370
    25
100
AcDbCircle
 10
790.4991153159
 20
347.3288938271
 30
0.0
 40
3.0
100
AcDbArc
 50
0.0
 51
90.0
  0
LINE
  5
16D
330
1F
100
AcDbEntity
  8
0
  6
Continuous
 62
     7
370
    25
100
AcDbLine
 10
793.4991153159
 20
330.3288938271
 30
0.0
 11
793.4991153159
 21
347.3288938271
 31
0.0
  0
CIRCLE
  5
16E
330
1F
100
AcDbEntity
  8
0
  6
Continuous
 62
     7
370
    25
100
AcDbCircle
 10
778.9991153159
 20
343.8288938271
 30
0.0
 40
3.249999999999943
  0
CIRCLE
  5
16F
330
1F
100
AcDbEntity
  8
0
  6
Continuous
 62
     7
370
    25
100
AcDbCircle
 10
778.9991153159
 20
318.8288938271
 30
0.0
 40
3.250000000000057
  0
LINE
  5
170
330
1F
100
AcDbEntity
  8
0
  6
Continuous
 62
     7
370
    25
100
AcDbLine
 10
770.4991153159
 20
311.3288938271
 30
0.0
 11
770.4991153159
 21
313.1288938271
 31
0.0
  0
LINE
  5
171
330
1F
100
AcDbEntity
  8
0
  6
Continuous
 62
     7
370
    25
100
AcDbLine
 10
789.4991153159
 20
313.1288938271
 30
0.0
 11
789.4991153159
 21
311.3288938271
 31
0.0
  0
LINE
  5
172
330
1F
100
AcDbEntity
  8
0
  6
Continuous
 62
     7
370
    25
100
AcDbLine
 10
789.4991153159
 20
311.3288938271
 30
0.0
 11
770.4991153159
 21
311.3288938271
 31
0.0
  0
LINE
  5
173
330
1F
100
AcDbEntity
  8
0
  6
Continuous
 62
     7
370
    25
100
AcDbLine
 10
789.4991153159
 20
312.1288938271
 30
0.0
 11
789.6991153159
 21
312.1288938271
 31
0.0
  0
LINE
  5
174
330
1F
100
AcDbEntity
  8
0
  6
Continuous
 62
     7
370
    25
100
AcDbLine
 10
789.4991153159
 20
311.3288938271
 30
0.0
 11
789.6991153159
 21
311.3288938271
 31
0.0
  0
ARC
  5
175
330
1F
100
AcDbEntity
  8
0
  6
Continuous
 62
     7
370
    25
100
AcDbCircle
 10
789.6991153159
 20
313.1288938271
 30
0.0
 40
1.800000000000068
100
AcDbArc
 50
270.0
 51
0.0
  0
ARC
  5
176
330
1F
100
AcDbEntity
  8
0
  6
Continuous
 62
     7
370
    25
100
AcDbCircle
 10
789.6991153159
 20
313.1288938271
 30
0.0
 40
1.0
100
AcDbArc
 50
270.0
 51
0.0
  0
LINE
  5
177
330
1F
100
AcDbEntity
  8
0
  6
Continuous
 62
     7
370
    25
100
AcDbLine
 10
790.6991153159
 20
323.3288938271
 30
0.0
 11
790.6991153159
 21
313.1288938271
 31
0.0
  0
LINE
  5
178
330
1F
100
AcDbEntity
  8
0
  6
Continuous
 62
     7
370
    25
100
AcDbLine
 10
791.4991153159
 20
323.3288938271
 30
0.0
 11
790.6991153159
 21
323.3288938271
 31
0.0
  0
LINE
  5
179
330
1F
100
AcDbEntity
  8
0
  6
Continuous
 62
     7
370
    25
100
AcDbLine
 10
746.4991153159
 20
311.3288938271
 30
0.0
 11
746.4991153159
 21
312.1288938271
 31
0.0
  0
LINE
  5
17A
330
1F
100
AcDbEntity
  8
0
  6
Continuous
 62
     7
370
    25
100
AcDbLine
 10
746.4991153159
 20
312.1288938271
 30
0.0
 11
749.4991153159
 21
312.1288938271
 31
0.0
  0
LINE
  5
17B
330
1F
100
AcDbEntity
  8
0
  6
Continuous
 62
     7
370
    25
100
AcDbLine
 10
749.4991153159
 20
311.3288938271
 30
0.0
 11
746.4991153159
 21
311.3288938271
 31
0.0
  0
LINE
  5
17C
330
1F
100
AcDbEntity
  8
0
  6
Continuous
 62
     7
370
    25
100
AcDbLine
 10
749.4991153159
 20
312.1288938271
 30
0.0
 11
770.4991153159
 21
312.1288938271
 31
0.0
  0
LINE
  5
17D
330
1F
100
AcDbEntity
  8
0
  6
Continuous
 62
     7
370
    25
100
AcDbLine
 10
749.4991153159
 20
311.3288938271
 30
0.0
 11
770.4991153159
 21
311.3288938271
 31
0.0
  0
LINE
  5
17E
330
1F
100
AcDbEntity
  8
0
  6
Continuous
 62
     7
370
    25
100
AcDbLine
 10
750.5945019241
 20
315.5288938271
 30
0.0
 11
747.5945019241
 21
315.5288938271
 31
0.0
  0
LINE
  5
17F
330
1F
100
AcDbEntity
  8
0
  6
Continuous
 62
     7
370
    25
100
AcDbLine
 10
747.5945019241
 20
315.5288938271
 30
0.0
 11
747.5945019241
 21
316.3288938271
 31
0.0
  0
LINE
  5
180
330
1F
100
AcDbEntity
  8
0
  6
Continuous
 62
     7
370
    25
100
AcDbLine
 10
747.5945019241
 20
316.3288938271
 30
0.0
 11
750.5945019241
 21
316.3288938271
 31
0.0
  0
ARC
  5
181
330
1F
100
AcDbEntity
  8
0
  6
Continuous
 62
     7
370
    25
100
AcDbCircle
 10
757.1121933778
 20
314.5288938271
 30
0.0
 40
0.9999999999999836
100
AcDbArc
 50
60.0
 51
90.0
  0
ARC
  5
182
330
1F
100
AcDbEntity
  8
0
  6
Continuous
 62
     7
370
    25
100
AcDbCircle
 10
757.1121933778
 20
314.5288938271
 30
0.0
 40
1.799999999999969
100
AcDbArc
 50
60.0
 51
90.0
  0
LINE
  5
183
330
1F
100
AcDbEntity
  8
0
  6
Continuous
 62
     7
370
    25
100
AcDbLine
 10
764.6370645084
 20
312.2628684233
 30
0.0
 11
758.0121933778
 21
316.0877395539
 31
0.0
  0
LINE
  5
184
330
1F
100
AcDbEntity
  8
0
  6
Continuous
 62
     7
370
    25
100
AcDbLine
 10
763.2691153159
 20
312.1288938271
 30
0.0
 11
757.6121933778
 21
315.3949192309
 31
0.0
  0
LINE
  5
185
330
1F
100
AcDbEntity
  8
0
  6
Continuous
 62
     7
370
    25
100
AcDbLine
 10
750.5945019241
 20
316.3288938271
 30
0.0
 11
757.1121933778
 21
316.3288938271
 31
0.0
  0
LINE
  5
186
330
1F
100
AcDbEntity
  8
0
  6
Continuous
 62
     7
370
    25
100
AcDbLine
 10
750.5945019241
 20
315.5288938271
 30
0.0
 11
757.1121933778
 21
315.5288938271
 31
0.0
  0
ARC
  5
187
330
1F
100
AcDbEntity
  8
0
  6
Continuous
 62
     7
370
    25
100
AcDbCircle
 10
765.1370645084
 20
313.1288938271
 30
0.0
 40
1.000000000000033
100
AcDbArc
 50
240.0
 51
270.0
  0
SPLINE
  5
188
330
1F
100
AcDbEntity
  8
0
  6
Continuous
 62
     7
370
    25
100
AcDbSpline
210
0.0
220
0.0
230
1.0
 70
     8
 71
     3
 72
    12
 73
     8
 74
     0
 42
0.000000001
 43
0.00000001
 40
0.0
 40
0.0
 40
0.0
 40
0.0
 40
0.5000000000000103
 40
0.5000000000000103
 40
0.7500000000000051
 40
0.7500000000000051
 40
1.0
 40
1.0
 40
1.0
 40
1.0
 10
790.0844353305489
 20
314.8384626296668
 30
0.0
 10
790.2749296199725
 20
315.0737224221098
 30
0.0
 10
790.3966040330348
 20
315.3125071149603
 30
0.0
 10
790.397260223566
 20
315.6799986475173
 30
0.0
 10
790.3674262217717
 20
315.8023708421667
 30
0.0
 10
790.2584963516641
 20
316.0427545273262
 30
0.0
 10
790.1798011646013
 20
316.1615154743878
 30
0.0
 10
790.0844353305486
 20
316.2792919515373
 30
0.0
  0
SPLINE
  5
189
330
1F
100
AcDbEntity
  8
0
  6
Continuous
 62
     7
370
    25
100
AcDbSpline
210
0.0
220
0.0
230
1.0
 70
     8
 71
     3
 72
    14
 73
    10
 74
     0
 42
0.000000001
 43
0.00000001
 40
0.0
 40
0.0
 40
0.0
 40
0.0
 40
0.25
 40
0.25
 40
0.5
 40
0.5
 40
0.75
 40
0.75
 40
1.0
 40
1.0
 40
1.0
 40
1.0
 10
790.084435330548
 20
320.2697231489642
 30
0.0
 10
790.1793099398586
 20
319.9452169196755
 30
0.0
 10
790.2589148647343
 20
319.6127576972812
 30
0.0
 10
790.3677514796286
 20
318.946187782373
 30
0.0
 10
790.3970750853191
 20
318.6111115250977
 30
0.0
 10
790.3970103035734
 20
317.93676805487
 30
0.0
 10
790.3668541102471
 20
317.5949886341911
 30
0.0
 10
790.2572689088813
 20
316.9285747145864
 30
0.0
 10
790.1787259350792
 20
316.6018006686336
 30
0.0
 10
790.084435330548
 20
316.2792919515373
 30
0.0
  0
SPLINE
  5
18A
330
1F
100
AcDbEntity
  8
0
  6
Continuous
 62
     7
370
    25
100
AcDbSpline
210
0.0
220
0.0
230
1.0
 70
     8
 71
     3
 72
    12
 73
     8
 74
     0
 42
0.000000001
 43
0.00000001
 40
0.0
 40
0.0
 40
0.0
 40
0.0
 40
0.4999999999999938
 40
0.4999999999999938
 40
0.7499999999999969
 40
0.7499999999999969
 40
1.0
 40
1.0
 40
1.0
 40
1.0
 10
790.0844353305489
 20
320.2697231489641
 30
0.0
 10
790.2749296199725
 20
320.6860242326186
 30
0.0
 10
790.3966040330348
 20
321.1085627606071
 30
0.0
 10
790.397260223566
 20
321.7588529000679
 30
0.0
 10
790.3674262217717
 20
321.9753951179823
 30
0.0
 10
790.2584963516641
 20
322.4007631232226
 30
0.0
 10
790.1798011646011
 20
322.6109151022079
 30
0.0
 10
790.0844353305486
 20
322.8193250245206
 30
0.0
  0
LINE
  5
18B
330
1F
100
AcDbEntity
  8
0
  6
Continuous
 62
     7
370
    25
100
AcDbLine
 10
790.0844353305
 20
322.8193250245
 30
0.0
 11
790.1823103678
 21
322.5764202742
 31
0.0
  0
LINE
  5
18C
330
1F
100
AcDbEntity
  8
0
  6
Continuous
 62
     7
370
    25
100
AcDbLine
 10
790.5991153159
 20
318.3299461779
 30
0.0
 11
790.5991153159
 21
315.6788938271
 31
0.0
  0
LINE
  5
18D
330
1F
100
AcDbEntity
  8
0
  6
Continuous
 62
     7
370
    25
100
AcDbLine
 10
790.5991153159
 20
321.9788938271
 30
0.0
 11
790.5991153159
 21
318.3299461779
 31
0.0
  0
LINE
  5
18E
330
1F
100
AcDbEntity
  8
0
  6
Continuous
 62
     7
370
    25
100
AcDbLine
 10
789.4991153159
 20
320.269723149
 30
0.0
 11
790.0844353305
 21
320.269723149
 31
0.0
  0
LINE
  5
18F
330
1F
100
AcDbEntity
  8
0
  6
Continuous
 62
     7
370
    25
100
AcDbLine
 10
789.4991153159
 20
316.2792919515
 30
0.0
 11
790.0844353305
 21
316.2792919515
 31
0.0
  0
LINE
  5
190
330
1F
100
AcDbEntity
  8
0
  6
Continuous
 62
     7
370
    25
100
AcDbLine
 10
789.4991153159
 20
322.8193250245
 30
0.0
 11
790.0844353305
 21
322.8193250245
 31
0.0
  0
LINE
  5
191
330
1F
100
AcDbEntity
  8
0
  6
Continuous
 62
     7
370
    25
100
AcDbLine
 10
789.4991153159
 20
314.8384626297
 30
0.0
 11
790.0844353305
 21
314.8384626297
 31
0.0
  0
LINE
  5
192
330
1F
100
AcDbEntity
  8
0
  6
Continuous
 62
     7
370
    25
100
AcDbLine
 10
793.2991153159
 20
308.8288938271
 30
0.0
 11
793.2991153159
 21
309.6288938271
 31
0.0
  0
LINE
  5
193
330
1F
100
AcDbEntity
  8
0
  6
Continuous
 62
     7
370
    25
100
AcDbLine
 10
797.5991153159
 20
309.6288938271
 30
0.0
 11
793.2991153159
 21
309.6288938271
 31
0.0
  0
LINE
  5
194
330
1F
100
AcDbEntity
  8
0
  6
Continuous
 62
     7
370
    25
100
AcDbLine
 10
797.5991153159
 20
308.8288938271
 30
0.0
 11
793.2991153159
 21
308.8288938271
 31
0.0
  0
LINE
  5
195
330
1F
100
AcDbEntity
  8
0
  6
Continuous
 62
     7
370
    25
100
AcDbLine
 10
798.0491153159
 20
327.1288938271
 30
0.0
 11
803.1991153159
 21
327.1288938271
 31
0.0
  0
LINE
  5
196
330
1F
100
AcDbEntity
  8
0
  6
Continuous
 62
     7
370
    25
100
AcDbLine
 10
798.0491153159
 20
327.9288938271
 30
0.0
 11
798.0491153159
 21
327.1288938271
 31
0.0
  0
LINE
  5
197
330
1F
100
AcDbEntity
  8
0
  6
Continuous
 62
     7
370
    25
100
AcDbLine
 10
798.0491153159
 20
327.9288938271
 30
0.0
 11
803.1991153159
 21
327.9288938271
 31
0.0
  0
LINE
  5
198
330
1F
100
AcDbEntity
  8
0
  6
Continuous
 62
     7
370
    25
100
AcDbLine
 10
803.1991153159
 20
327.9288938271
 30
0.0
 11
803.1991153159
 21
328.0288938271
 31
0.0
  0
LINE
  5
199
330
1F
100
AcDbEntity
  8
0
  6
Continuous
 62
     7
370
    25
100
AcDbLine
 10
793.2991153159
 20
328.0288938271
 30
0.0
 11
803.1991153159
 21
328.0288938271
 31
0.0
  0
LINE
  5
19A
330
1F
100
AcDbEntity
  8
0
  6
Continuous
 62
     7
370
    25
100
AcDbLine
 10
793.2991153159
 20
328.0288938271
 30
0.0
 11
793.2991153159
 21
328.8288938271
 31
0.0
  0
LINE
  5
19B
330
1F
100
AcDbEntity
  8
0
  6
Continuous
 62
     7
370
    25
100
AcDbLine
 10
803.1991153159
 20
328.8288938271
 30
0.0
 11
793.2991153159
 21
328.8288938271
 31
0.0
  0
ARC
  5
19C
330
1F
100
AcDbEntity
  8
0
  6
Continuous
 62
     7
370
    25
100
AcDbCircle
 10
803.1991153159
 20
327.9788938271
 30
0.0
 40
0.8500000000000227
100
AcDbArc
 50
270.0
 51
90.0
  0
LINE
  5
19D
330
1F
100
AcDbEntity
  8
0
  6
Continuous
 62
     7
370
    25
100
AcDbLine
 10
791.4991153159
 20
310.6288938271
 30
0.0
 11
791.4991153159
 21
327.0288938271
 31
0.0
  0
ARC
  5
19E
330
1F
100
AcDbEntity
  8
0
  6
Continuous
 62
     7
370
    25
100
AcDbCircle
 10
793.2991153159
 20
327.0288938271
 30
0.0
 40
1.800000000000068
100
AcDbArc
 50
90.0
 51
180.0
  0
ARC
  5
19F
330
1F
100
AcDbEntity
  8
0
  6
Continuous
 62
     7
370
    25
100
AcDbCircle
 10
793.2991153159
 20
310.6288938271
 30
0.0
 40
1.000000000000057
100
AcDbArc
 50
180.0
 51
270.0
  0
ARC
  5
1A0
330
1F
100
AcDbEntity
  8
0
  6
Continuous
 62
     7
370
    25
100
AcDbCircle
 10
793.2991153159
 20
310.6288938271
 30
0.0
 40
1.800000000000182
100
AcDbArc
 50
180.0
 51
270.0
  0
ARC
  5
1A1
330
1F
100
AcDbEntity
  8
0
  6
Continuous
 62
     7
370
    25
100
AcDbCircle
 10
793.2991153159
 20
327.0288938271
 30
0.0
 40
1.000000000000114
100
AcDbArc
 50
90.0
 51
180.0
  0
LINE
  5
1A2
330
1F
100
AcDbEntity
  8
0
  6
Continuous
 62
     7
370
    25
100
AcDbLine
 10
792.2991153159
 20
327.0288938271
 30
0.0
 11
792.2991153159
 21
310.6288938271
 31
0.0
  0
CIRCLE
  5
1A3
330
1F
100
AcDbEntity
  8
0
  6
Continuous
 62
     7
370
    25
100
AcDbCircle
 10
778.9991153159
 20
318.8288938271
 30
0.0
 40
2.458750000016678
  0
CIRCLE
  5
1A4
330
1F
100
AcDbEntity
  8
0
  6
Continuous
 62
     7
370
    25
100
AcDbCircle
 10
778.9991153159
 20
318.8288938271
 30
0.0
 40
3.000000000000039
  0
ARC
  5
1A5
330
1F
100
AcDbEntity
  8
0
  6
Continuous
 62
     7
370
    25
100
AcDbCircle
 10
787.5621354182
 20
318.7329558072
 30
0.0
 40
7.786288415100391
100
AcDbArc
 50
4.3702527064
 51
15.2299003794
  0
ARC
  5
1A6
330
1F
100
AcDbEntity
  8
0
  6
Continuous
 62
     7
370
    25
100
AcDbCircle
 10
794.8013918818
 20
319.6394094095
 30
0.0
 40
0.6107675350080195
100
AcDbArc
 50
296.6101963367
 51
329.1575418587
  0
ARC
  5
1A7
330
1F
100
AcDbEntity
  8
0
  6
Continuous
 62
     7
370
    25
100
AcDbCircle
 10
785.9953297403
 20
318.5009123145
 30
0.0
 40
9.098942710246993
100
AcDbArc
 50
356.2668736478
 51
3.7331263522
  0
ARC
  5
1A8
330
1F
100
AcDbEntity
  8
0
  6
Continuous
 62
     7
370
    25
100
AcDbCircle
 10
794.8013918818
 20
318.4545586247
 30
0.0
 40
0.6107675350077074
100
AcDbArc
 50
296.6101963366
 51
329.1575418587
  0
ARC
  5
1A9
330
1F
100
AcDbEntity
  8
0
  6
Continuous
 62
     7
370
    25
100
AcDbCircle
 10
787.5621354182
 20
318.734756552
 30
0.0
 40
7.786288415101221
100
AcDbArc
 50
344.7700996206
 51
355.6297472936
  0
ARC
  5
1AA
330
1F
100
AcDbEntity
  8
0
  6
Continuous
 62
     7
370
    25
100
AcDbCircle
 10
794.9418815373
 20
316.7632914503
 30
0.0
 40
0.1522432420612372
100
AcDbArc
 50
330.9451665855
 51
359.1449116559
  0
LWPOLYLINE
  5
1AB
330
1F
100
AcDbEntity
  8
0
  6
Continuous
 62
     7
370
    25
100
AcDbPolyline
 90
        3
 70
   128
 43
0.0
 10
795.3257848062
 20
318.3315060821
 10
795.3095599575
 20
318.1478077533
 10
795.3089178145
 20
318.1414307872
  0
ARC
  5
1AC
330
1F
100
AcDbEntity
  8
0
  6
Continuous
 62
     7
370
    25
100
AcDbCircle
 10
794.8013918818
 20
318.0183782446
 30
0.0
 40
0.610767535008216
100
AcDbArc
 50
30.8424581413
 51
63.3898036633
  0
ARC
  5
1AD
330
1F
100
AcDbEntity
  8
0
  6
Continuous
 62
     7
370
    25
100
AcDbCircle
 10
785.9184579596
 20
319.159891196
 30
0.0
 40
9.17581504437369
100
AcDbArc
 50
357.932732127
 51
359.6562101046
  0
ARC
  5
1AE
330
1F
100
AcDbEntity
  8
0
  6
Continuous
 62
     7
370
    25
100
AcDbCircle
 10
787.5621354182
 20
318.9230311022
 30
0.0
 40
7.786288415098468
100
AcDbArc
 50
4.3702527064
 51
15.2299003794
  0
ARC
  5
1AF
330
1F
100
AcDbEntity
  8
0
  6
Continuous
 62
     7
370
    25
100
AcDbCircle
 10
794.8538437509
 20
320.8733949434
 30
0.0
 40
0.2406805056722237
100
AcDbArc
 50
336.7420981705
 51
23.2579018296
  0
LINE
  5
1B0
330
1F
100
AcDbEntity
  8
0
  6
Continuous
 62
     7
370
    25
100
AcDbLine
 10
794.2991153159
 20
322.7783964431
 30
0.0
 11
794.2991153159
 21
322.8288938271
 31
0.0
  0
LINE
  5
1B1
330
1F
100
AcDbEntity
  8
0
  6
Continuous
 62
     7
370
    25
100
AcDbLine
 10
794.2991153159
 20
314.8288938271
 30
0.0
 11
794.2991153159
 21
322.7783964431
 31
0.0
  0
LINE
  5
1B2
330
1F
100
AcDbEntity
  8
0
  6
Continuous
 62
     7
370
    25
100
AcDbLine
 10
795.3257848062
 20
318.1414307872
 30
0.0
 11
795.0872291483
 21
318.1414307872
 31
0.0
  0
LINE
  5
1B3
330
1F
100
AcDbEntity
  8
0
  6
Continuous
 62
     7
370
    25
100
AcDbLine
 10
795.3257848062
 20
319.516356867
 30
0.0
 11
795.3089178145
 21
319.516356867
 31
0.0
  0
LINE
  5
1B4
330
1F
100
AcDbEntity
  8
0
  6
Continuous
 62
     7
370
    25
100
AcDbLine
 10
795.3257848062
 20
318.3315060821
 30
0.0
 11
795.0927344898
 21
318.3315060821
 31
0.0
  0
ARC
  5
1B5
330
1F
100
AcDbEntity
  8
0
  6
Continuous
 62
     7
370
    25
100
AcDbCircle
 10
773.0406264267
 20
255.0843670035
 30
0.0
 40
1.942508566655161
100
AcDbArc
 50
181.8362067977
 51
271.7254354149
  0
LINE
  5
1B6
330
1F
100
AcDbEntity
  8
0
  6
Continuous
 62
     7
370
    25
100
AcDbLine
 10
771.0991153159
 20
255.0221244276
 30
0.0
 11
771.0991153159
 21
260.1632006645
 31
0.0
  0
LINE
  5
1B7
330
1F
100
AcDbEntity
  8
0
  6
Continuous
 62
     7
370
    25
100
AcDbLine
 10
787.0991153159
 20
260.1632006645
 30
0.0
 11
787.0991153159
 21
255.0221244276
 31
0.0
  0
ARC
  5
1B8
330
1F
100
AcDbEntity
  8
0
  6
Continuous
 62
     7
370
    25
100
AcDbCircle
 10
785.1576042052
 20
255.0843670035
 30
0.0
 40
1.942508566654937
100
AcDbArc
 50
268.2745645851
 51
358.1637932024
  0
LINE
  5
1B9
330
1F
100
AcDbEntity
  8
0
  6
Continuous
 62
     7
370
    25
100
AcDbLine
 10
785.0991153159
 20
253.142739186
 30
0.0
 11
773.0991153159
 21
253.142739186
 31
0.0
  0
LINE
  5
1BA
330
1F
100
AcDbEntity
  8
0
  6
Continuous
 62
     7
370
    25
100
AcDbLine
 10
785.0991153159
 20
252.4586988994
 30
0.0
 11
773.0991153159
 21
252.4586988994
 31
0.0
  0
LINE
  5
1BB
330
1F
100
AcDbEntity
  8
0
  6
Continuous
 62
     7
370
    25
100
AcDbLine
 10
771.0991153159
 20
254.338084141
 30
0.0
 11
771.0991153159
 21
255.0221244276
 31
0.0
  0
ARC
  5
1BC
330
1F
100
AcDbEntity
  8
0
  6
Continuous
 62
     7
370
    25
100
AcDbCircle
 10
773.0406264267
 20
254.4003267168
 30
0.0
 40
1.942508566655476
100
AcDbArc
 50
181.8362067977
 51
271.7254354149
  0
LINE
  5
1BD
330
1F
100
AcDbEntity
  8
0
  6
Continuous
 62
     7
370
    25
100
AcDbLine
 10
787.0991153159
 20
255.0221244276
 30
0.0
 11
787.0991153159
 21
254.338084141
 31
0.0
  0
ARC
  5
1BE
330
1F
100
AcDbEntity
  8
0
  6
Continuous
 62
     7
370
    25
100
AcDbCircle
 10
785.1576042052
 20
254.4003267168
 30
0.0
 40
1.942508566654892
100
AcDbArc
 50
268.2745645851
 51
358.1637932024
  0
LINE
  5
1BF
330
1F
100
AcDbEntity
  8
0
  6
Continuous
 62
     7
370
    25
100
AcDbLine
 10
787.0991153159
 20
260.1632006645
 30
0.0
 11
787.0991153159
 21
260.5052208078
 31
0.0
  0
LINE
  5
1C0
330
1F
100
AcDbEntity
  8
0
  6
Continuous
 62
     7
370
    25
100
AcDbLine
 10
771.0991153159
 20
260.5052208078
 30
0.0
 11
771.0991153159
 21
260.1632006645
 31
0.0
  0
LINE
  5
1C1
330
1F
100
AcDbEntity
  8
0
  6
Continuous
 62
     7
370
    25
100
AcDbLine
 10
787.0991153159
 20
260.3288938271
 30
0.0
 11
797.5991153159
 21
260.3288938271
 31
0.0
  0
LINE
  5
1C2
330
1F
100
AcDbEntity
  8
0
  6
Continuous
 62
     7
370
    25
100
AcDbLine
 10
771.0991153159
 20
273.3288938271
 30
0.0
 11
771.0991153159
 21
260.5052208078
 31
0.0
  0
ARC
  5
1C3
330
1F
100
AcDbEntity
  8
0
  6
Continuous
 62
     7
370
    25
100
AcDbCircle
 10
773.0991153159
 20
273.3288938271
 30
0.0
 40
2.0
100
AcDbArc
 50
90.0
 51
180.0
  0
LINE
  5
1C4
330
1F
100
AcDbEntity
  8
0
  6
Continuous
 62
     7
370
    25
100
AcDbLine
 10
797.5991153159
 20
275.3288938271
 30
0.0
 11
773.0991153159
 21
275.3288938271
 31
0.0
  0
CIRCLE
  5
1C5
330
1F
100
AcDbEntity
  8
0
  6
Continuous
 62
     7
370
    25
100
AcDbCircle
 10
778.9991153159
 20
267.8288938271
 30
0.0
 40
3.5
  0
CIRCLE
  5
1C6
330
1F
100
AcDbEntity
  8
0
  6
Continuous
 62
     7
370
    25
100
AcDbCircle
 10
778.9991153159
 20
343.8288938271
 30
0.0
 40
2.458750000016702
  0
CIRCLE
  5
1C7
330
1F
100
AcDbEntity
  8
0
  6
Continuous
 62
     7
370
    25
100
AcDbCircle
 10
778.9991153159
 20
343.8288938271
 30
0.0
 40
2.99999999999999
  0
CIRCLE
  5
1C8
330
1F
100
AcDbEntity
  8
0
  6
Continuous
 62
     7
370
    25
100
AcDbCircle
 10
778.9991153159
 20
267.8288938271
 30
0.0
 40
2.458750000016702
  0
CIRCLE
  5
1C9
330
1F
100
AcDbEntity
  8
0
  6
Continuous
 62
     7
370
    25
100
AcDbCircle
 10
778.9991153159
 20
267.8288938271
 30
0.0
 40
2.999999999999912
  0
LINE
  5
1CA
330
1F
100
AcDbEntity
  8
0
  6
Continuous
 62
     7
370
    25
100
AcDbLine
 10
173.5812351183
 20
427.7260857561
 30
0.0
 11
174.0812351183
 21
428.226085756
 31
0.0
  0
LINE
  5
1CB
330
1F
100
AcDbEntity
  8
0
  6
Continuous
 62
     7
370
    25
100
AcDbLine
 10
174.0812351183
 20
428.226085756
 30
0.0
 11
174.0812351183
 21
432.2260857561
 31
0.0
  0
LINE
  5
1CC
330
1F
100
AcDbEntity
  8
0
  6
Continuous
 62
     7
370
    25
100
AcDbLine
 10
168.351690434
 20
428.226085756
 30
0.0
 11
168.851690434
 21
427.7260857561
 31
0.0
  0
LINE
  5
1CD
330
1F
100
AcDbEntity
  8
0
  6
Continuous
 62
     7
370
    25
100
AcDbLine
 10
168.351690434
 20
432.2260857561
 30
0.0
 11
168.351690434
 21
428.226085756
 31
0.0
  0
LINE
  5
1CE
330
1F
100
AcDbEntity
  8
0
  6
Continuous
 62
     7
370
    25
100
AcDbLine
 10
651.3748974581
 20
428.226085756
 30
0.0
 11
651.8748974581
 21
427.7260857561
 31
0.0
  0
LINE
  5
1CF
330
1F
100
AcDbEntity
  8
0
  6
Continuous
 62
     7
370
    25
100
AcDbLine
 10
651.3748974581
 20
432.2260857561
 30
0.0
 11
651.3748974581
 21
428.226085756
 31
0.0
  0
LINE
  5
1D0
330
1F
100
AcDbEntity
  8
0
  6
Continuous
 62
     7
370
    25
100
AcDbLine
 10
656.6069276822
 20
427.7260857561
 30
0.0
 11
657.1069276822
 21
428.226085756
 31
0.0
  0
LINE
  5
1D1
330
1F
100
AcDbEntity
  8
0
  6
Continuous
 62
     7
370
    25
100
AcDbLine
 10
657.1069276822
 20
428.226085756
 30
0.0
 11
657.1069276822
 21
432.2260857561
 31
0.0
  0
LINE
  5
1D2
330
1F
100
AcDbEntity
  8
0
  6
Continuous
 62
     7
370
    25
100
AcDbLine
 10
674.4021001725
 20
417.1260857561
 30
0.0
 11
674.2021001725
 21
417.1260857561
 31
0.0
  0
LINE
  5
1D3
330
1F
100
AcDbEntity
  8
0
  6
Continuous
 62
     7
370
    25
100
AcDbLine
 10
674.2021001725
 20
411.1260857561
 30
0.0
 11
674.4021001725
 21
411.1260857561
 31
0.0
  0
LINE
  5
1D4
330
1F
100
AcDbEntity
  8
0
  6
Continuous
 62
     7
370
    25
100
AcDbLine
 10
674.4021001725
 20
411.126085756
 30
0.0
 11
674.9433501725
 21
411.667335756
 31
0.0
  0
LINE
  5
1D5
330
1F
100
AcDbEntity
  8
0
  6
Continuous
 62
     7
370
    25
100
AcDbLine
 10
674.9433501725
 20
416.5848357561
 30
0.0
 11
674.4021001725
 21
417.1260857561
 31
0.0
  0
LINE
  5
1D6
330
1F
100
AcDbEntity
  8
0
  6
Continuous
 62
     7
370
    25
100
AcDbLine
 10
151.0846001725
 20
417.1260857561
 30
0.0
 11
150.5433501725
 21
416.5848357561
 31
0.0
  0
LINE
  5
1D7
330
1F
100
AcDbEntity
  8
0
  6
Continuous
 62
     7
370
    25
100
AcDbLine
 10
150.5433501725
 20
411.667335756
 30
0.0
 11
151.0846001725
 21
411.126085756
 31
0.0
  0
LINE
  5
1D8
330
1F
100
AcDbEntity
  8
0
  6
Continuous
 62
     7
370
    25
100
AcDbLine
 10
151.0846001725
 20
411.1260857561
 30
0.0
 11
151.2846001725
 21
411.1260857561
 31
0.0
  0
LINE
  5
1D9
330
1F
100
AcDbEntity
  8
0
  6
Continuous
 62
     7
370
    25
100
AcDbLine
 10
151.2846001725
 20
417.1260857561
 30
0.0
 11
151.0846001725
 21
417.1260857561
 31
0.0
  0
ARC
  5
1DA
330
1F
100
AcDbEntity
  8
0
  6
Continuous
 62
     7
370
    25
100
AcDbCircle
 10
664.2433501725
 20
408.326085756
 30
0.0
 40
0.5
100
AcDbArc
 50
180.0
 51
0.0
  0
ARC
  5
1DB
330
1F
100
AcDbEntity
  8
0
  6
Continuous
 62
     7
370
    25
100
AcDbCircle
 10
664.2433501725
 20
419.9260857561
 30
0.0
 40
0.5
100
AcDbArc
 50
0.0
 51
180.0
  0
LINE
  5
1DC
330
1F
100
AcDbEntity
  8
0
  6
Continuous
 62
     7
370
    25
100
AcDbLine
 10
659.9709316097
 20
419.5202683681
 30
0.0
 11
659.7433501725
 21
419.126085756
 31
0.0
  0
LINE
  5
1DD
330
1F
100
AcDbEntity
  8
0
  6
Continuous
 62
     7
370
    25
100
AcDbLine
 10
674.2021001725
 20
417.1260857561
 30
0.0
 11
669.3588965607
 21
417.1260857561
 31
0.0
  0
LINE
  5
1DE
330
1F
100
AcDbEntity
  8
0
  6
Continuous
 62
     7
370
    25
100
AcDbLine
 10
669.3588965607
 20
411.1260857561
 30
0.0
 11
674.2021001725
 21
411.1260857561
 31
0.0
  0
LINE
  5
1DF
330
1F
100
AcDbEntity
  8
0
  6
Continuous
 62
     7
370
    25
100
AcDbLine
 10
674.2021001725
 20
411.126085756
 30
0.0
 11
674.7433501725
 21
411.667335756
 31
0.0
  0
LINE
  5
1E0
330
1F
100
AcDbEntity
  8
0
  6
Continuous
 62
     7
370
    25
100
AcDbLine
 10
674.7433501725
 20
416.5848357561
 30
0.0
 11
674.2021001725
 21
417.1260857561
 31
0.0
  0
LINE
  5
1E1
330
1F
100
AcDbEntity
  8
0
  6
Continuous
 62
     7
370
    25
100
AcDbLine
 10
659.7433501725
 20
409.1260857561
 30
0.0
 11
659.9709316097
 21
408.731903144
 31
0.0
  0
LINE
  5
1E2
330
1F
100
AcDbEntity
  8
0
  6
Continuous
 62
     7
370
    25
100
AcDbLine
 10
158.2433501725
 20
437.3260857561
 30
0.0
 11
161.1827378638
 21
437.3260857561
 31
0.0
  0
LINE
  5
1E3
330
1F
100
AcDbEntity
  8
0
  6
Continuous
 62
     7
370
    25
100
AcDbLine
 10
664.3039624811
 20
437.3260857561
 30
0.0
 11
667.2433501725
 21
437.3260857561
 31
0.0
  0
LINE
  5
1E4
330
1F
100
AcDbEntity
  8
0
  6
Continuous
 62
     7
370
    25
100
AcDbLine
 10
152.2433501725
 20
437.3260857561
 30
0.0
 11
158.2433501725
 21
437.3260857561
 31
0.0
  0
LINE
  5
1E5
330
1F
100
AcDbEntity
  8
0
  6
Continuous
 62
     7
370
    25
100
AcDbLine
 10
667.2433501725
 20
437.3260857561
 30
0.0
 11
673.2433501725
 21
437.3260857561
 31
0.0
  0
ARC
  5
1E6
330
1F
100
AcDbEntity
  8
0
  6
Continuous
 62
     7
370
    25
100
AcDbCircle
 10
161.2433501725
 20
419.9260857561
 30
0.0
 40
0.5
100
AcDbArc
 50
360.0
 51
180.0
  0
ARC
  5
1E7
330
1F
100
AcDbEntity
  8
0
  6
Continuous
 62
     7
370
    25
100
AcDbCircle
 10
161.2433501725
 20
408.326085756
 30
0.0
 40
0.5
100
AcDbArc
 50
180.0
 51
0.0
  0
LINE
  5
1E8
330
1F
100
AcDbEntity
  8
0
  6
Continuous
 62
     7
370
    25
100
AcDbLine
 10
151.2846001725
 20
411.1260857561
 30
0.0
 11
156.1278037843
 21
411.126085756
 31
0.0
  0
LINE
  5
1E9
330
1F
100
AcDbEntity
  8
0
  6
Continuous
 62
     7
370
    25
100
AcDbLine
 10
156.1278037843
 20
417.126085756
 30
0.0
 11
151.2846001725
 21
417.126085756
 31
0.0
  0
LINE
  5
1EA
330
1F
100
AcDbEntity
  8
0
  6
Continuous
 62
     7
370
    25
100
AcDbLine
 10
151.2846001725
 20
417.1260857561
 30
0.0
 11
150.7433501725
 21
416.5848357561
 31
0.0
  0
LINE
  5
1EB
330
1F
100
AcDbEntity
  8
0
  6
Continuous
 62
     7
370
    25
100
AcDbLine
 10
150.7433501725
 20
411.667335756
 30
0.0
 11
151.2846001725
 21
411.126085756
 31
0.0
  0
LINE
  5
1EC
330
1F
100
AcDbEntity
  8
0
  6
Continuous
 62
     7
370
    25
100
AcDbLine
 10
165.7433501725
 20
419.126085756
 30
0.0
 11
165.4138670767
 21
419.6967672181
 31
0.0
  0
LINE
  5
1ED
330
1F
100
AcDbEntity
  8
0
  6
Continuous
 62
     7
370
    25
100
AcDbLine
 10
165.4138670767
 20
408.555404294
 30
0.0
 11
165.7433501725
 21
409.1260857561
 31
0.0
  0
ARC
  5
1EE
330
1F
100
AcDbEntity
  8
0
  6
Continuous
 62
     7
370
    25
100
AcDbCircle
 10
158.2433501725
 20
436.7260857561
 30
0.0
 40
3.0
100
AcDbArc
 50
0.0
 51
90.0
  0
LINE
  5
1EF
330
1F
100
AcDbEntity
  8
0
  6
Continuous
 62
     7
370
    25
100
AcDbLine
 10
146.2433501725
 20
439.7260857561
 30
0.0
 11
158.2433501725
 21
439.7260857561
 31
0.0
  0
ARC
  5
1F0
330
1F
100
AcDbEntity
  8
0
  6
Continuous
 62
     7
370
    25
100
AcDbCircle
 10
146.2433501725
 20
436.7260857561
 30
0.0
 40
3.0
100
AcDbArc
 50
90.0
 51
180.0
  0
LINE
  5
1F1
330
1F
100
AcDbEntity
  8
0
  6
Continuous
 62
     7
370
    25
100
AcDbLine
 10
143.2433501725
 20
435.7260857561
 30
0.0
 11
143.2433501725
 21
436.7260857561
 31
0.0
  0
ARC
  5
1F2
330
1F
100
AcDbEntity
  8
0
  6
Continuous
 62
     7
370
    25
100
AcDbCircle
 10
140.2433501725
 20
435.7260857561
 30
0.0
 40
3.0
100
AcDbArc
 50
270.0
 51
0.0
  0
LINE
  5
1F3
330
1F
100
AcDbEntity
  8
0
  6
Continuous
 62
     7
370
    25
100
AcDbLine
 10
116.7140608506
 20
432.7260857561
 30
0.0
 11
140.2433501725
 21
432.7260857561
 31
0.0
  0
LINE
  5
1F4
330
1F
100
AcDbEntity
  8
0
  6
Continuous
 62
     7
370
    25
100
AcDbLine
 10
116.7140608506
 20
442.3260857561
 30
0.0
 11
116.7140608506
 21
432.7260857561
 31
0.0
  0
LINE
  5
1F5
330
1F
100
AcDbEntity
  8
0
  6
Continuous
 62
     7
370
    25
100
AcDbLine
 10
708.7726394944
 20
442.3260857561
 30
0.0
 11
708.7726394944
 21
432.7260857561
 31
0.0
  0
LINE
  5
1F6
330
1F
100
AcDbEntity
  8
0
  6
Continuous
 62
     7
370
    25
100
AcDbLine
 10
685.2433501725
 20
432.7260857561
 30
0.0
 11
708.7726394944
 21
432.7260857561
 31
0.0
  0
ARC
  5
1F7
330
1F
100
AcDbEntity
  8
0
  6
Continuous
 62
     7
370
    25
100
AcDbCircle
 10
685.2433501725
 20
435.7260857561
 30
0.0
 40
3.0
100
AcDbArc
 50
180.0
 51
270.0
  0
LINE
  5
1F8
330
1F
100
AcDbEntity
  8
0
  6
Continuous
 62
     7
370
    25
100
AcDbLine
 10
682.2433501725
 20
435.7260857561
 30
0.0
 11
682.2433501725
 21
436.7260857561
 31
0.0
  0
ARC
  5
1F9
330
1F
100
AcDbEntity
  8
0
  6
Continuous
 62
     7
370
    25
100
AcDbCircle
 10
679.2433501725
 20
436.7260857561
 30
0.0
 40
3.0
100
AcDbArc
 50
0.0
 51
90.0
  0
LINE
  5
1FA
330
1F
100
AcDbEntity
  8
0
  6
Continuous
 62
     7
370
    25
100
AcDbLine
 10
679.2433501725
 20
439.7260857561
 30
0.0
 11
667.2433501725
 21
439.7260857561
 31
0.0
  0
ARC
  5
1FB
330
1F
100
AcDbEntity
  8
0
  6
Continuous
 62
     7
370
    25
100
AcDbCircle
 10
667.2433501725
 20
436.7260857561
 30
0.0
 40
3.0
100
AcDbArc
 50
90.0
 51
180.0
  0
LINE
  5
1FC
330
1F
100
AcDbEntity
  8
0
  6
Continuous
 62
     7
370
    25
100
AcDbLine
 10
664.2433501725
 20
435.7260857561
 30
0.0
 11
664.2433501725
 21
436.7260857561
 31
0.0
  0
ARC
  5
1FD
330
1F
100
AcDbEntity
  8
0
  6
Continuous
 62
     7
370
    25
100
AcDbCircle
 10
661.2433501725
 20
435.7260857561
 30
0.0
 40
3.0
100
AcDbArc
 50
270.0
 51
0.0
  0
LINE
  5
1FE
330
1F
100
AcDbEntity
  8
0
  6
Continuous
 62
     7
370
    25
100
AcDbLine
 10
164.2433501725
 20
432.7260857561
 30
0.0
 11
661.2433501725
 21
432.7260857561
 31
0.0
  0
ARC
  5
1FF
330
1F
100
AcDbEntity
  8
0
  6
Continuous
 62
     7
370
    25
100
AcDbCircle
 10
164.2433501725
 20
435.7260857561
 30
0.0
 40
3.0
100
AcDbArc
 50
180.0
 51
270.0
  0
LINE
  5
200
330
1F
100
AcDbEntity
  8
0
  6
Continuous
 62
     7
370
    25
100
AcDbLine
 10
161.2433501725
 20
435.7260857561
 30
0.0
 11
161.2433501725
 21
436.7260857561
 31
0.0
  0
SPLINE
  5
201
330
1F
100
AcDbEntity
  8
0
  6
Continuous
 62
     7
370
    25
100
AcDbSpline
210
0.0
220
0.0
230
1.0
 70
     8
 71
     3
 72
    20
 73
    16
 74
     0
 42
0.000000001
 43
0.00000001
 40
0.0
 40
0.0
 40
0.0
 40
0.0
 40
0.1249999999999964
 40
0.1249999999999964
 40
0.2499999999999928
 40
0.2499999999999928
 40
0.3749999999999892
 40
0.3749999999999892
 40
0.4999999999999857
 40
0.4999999999999857
 40
0.7499999999999888
 40
0.7499999999999888
 40
0.8749999999999944
 40
0.8749999999999944
 40
1.0
 40
1.0
 40
1.0
 40
1.0
 10
707.8433501724775
 20
444.7260857560509
 30
0.0
 10
707.8823909033321
 20
444.7260857560509
 30
0.0
 10
707.9209096075318
 20
444.710549195576
 30
0.0
 10
707.9983163588397
 20
444.6492308436154
 30
0.0
 10
708.0374607768265
 20
444.6028070980286
 30
0.0
 10
708.1146115307417
 20
444.4828562278745
 30
0.0
 10
708.1529391124827
 20
444.4092515835911
 30
0.0
 10
708.2304854329592
 20
444.2345212174955
 30
0.0
 10
708.269461640628
 20
444.1336705885939
 30
0.0
 10
708.3849564970728
 20
443.80238530861
 30
0.0
 10
708.4628689407431
 20
443.5347051472261
 30
0.0
 10
708.5783488661439
 20
443.1020311211707
 30
0.0
 10
708.6172146620089
 20
442.9505130343196
 30
0.0
 10
708.6949889956774
 20
442.6410872769335
 30
0.0
 10
708.7335987626323
 20
442.4844649472397
 30
0.0
 10
708.7726394943587
 20
442.3260857560509
 30
0.0
  0
SPLINE
  5
202
330
1F
100
AcDbEntity
  8
0
  6
Continuous
 62
     7
370
    25
100
AcDbSpline
210
0.0
220
0.0
230
1.0
 70
     8
 71
     3
 72
    20
 73
    16
 74
     0
 42
0.000000001
 43
0.00000001
 40
0.0
 40
0.0
 40
0.0
 40
0.0
 40
0.1250000000000032
 40
0.1250000000000032
 40
0.2500000000000064
 40
0.2500000000000064
 40
0.3750000000000095
 40
0.3750000000000095
 40
0.5000000000000128
 40
0.5000000000000128
 40
0.7500000000000088
 40
0.7500000000000088
 40
0.8750000000000044
 40
0.8750000000000044
 40
1.0
 40
1.0
 40
1.0
 40
1.0
 10
116.7140608505962
 20
442.3260857560509
 30
0.0
 10
116.7531015814507
 20
442.4844649437017
 30
0.0
 10
116.7916202856504
 20
442.6407106683934
 30
0.0
 10
116.8690270369586
 20
442.9487025178099
 30
0.0
 10
116.908171454945
 20
443.1013466252811
 30
0.0
 10
116.9853222088602
 20
443.3904309144681
 30
0.0
 10
117.0236497906013
 20
443.5282354526522
 30
0.0
 10
117.1011961110778
 20
443.789854128291
 30
0.0
 10
117.1401723187463
 20
443.9126004349736
 30
0.0
 10
117.2556671751914
 20
444.2439248119213
 30
0.0
 10
117.3335796188616
 20
444.4229359359496
 30
0.0
 10
117.4490595442624
 20
444.6025510353304
 30
0.0
 10
117.4879253401276
 20
444.6487953841981
 30
0.0
 10
117.565699673796
 20
444.7105486902094
 30
0.0
 10
117.6043094407508
 20
444.7260857560508
 30
0.0
 10
117.6433501724775
 20
444.7260857560509
 30
0.0
  0
LINE
  5
203
330
1F
100
AcDbEntity
  8
0
  6
Continuous
 62
     7
370
    25
100
AcDbLine
 10
117.6433501725
 20
444.7260857561
 30
0.0
 11
707.8433501725
 21
444.7260857561
 31
0.0
  0
SPLINE
  5
204
330
1F
100
AcDbEntity
  8
0
  6
Continuous
 62
     7
370
    25
100
AcDbSpline
210
0.0
220
0.0
230
1.0
 70
     8
 71
     3
 72
     9
 73
     5
 74
     0
 42
0.000000001
 43
0.00000001
 40
0.0
 40
0.0
 40
0.0
 40
0.0
 40
0.482578428729335
 40
1.0
 40
1.0
 40
1.0
 40
1.0
 10
116.8671799405311
 20
442.9386254952291
 30
0.0
 10
116.8033717474697
 20
442.8504911539127
 30
0.0
 10
116.6711482802304
 20
442.6678589928596
 30
0.0
 10
116.652828975774
 20
442.4426261088151
 30
0.0
 10
116.6433501724775
 20
442.3260857560509
 30
0.0
  0
LINE
  5
205
330
1F
100
AcDbEntity
  8
0
  6
Continuous
 62
     7
370
    25
100
AcDbLine
 10
115.2433501725
 20
442.3260857561
 30
0.0
 11
116.6433501725
 21
442.3260857561
 31
0.0
  0
SPLINE
  5
206
330
1F
100
AcDbEntity
  8
0
  6
Continuous
 62
     7
370
    25
100
AcDbSpline
210
0.0
220
0.0
230
1.0
 70
     8
 71
     3
 72
    20
 73
    16
 74
     0
 42
0.000000001
 43
0.00000001
 40
0.0
 40
0.0
 40
0.0
 40
0.0
 40
0.1250000000000089
 40
0.1250000000000089
 40
0.2500000000000179
 40
0.2500000000000179
 40
0.3750000000000268
 40
0.3750000000000268
 40
0.5000000000000357
 40
0.5000000000000357
 40
0.7500000000000252
 40
0.7500000000000252
 40
0.8750000000000125
 40
0.8750000000000125
 40
1.0
 40
1.0
 40
1.0
 40
1.0
 10
117.6433501724775
 20
444.726085756051
 30
0.0
 10
117.4849709848269
 20
444.726085756051
 30
0.0
 10
117.3287252601352
 20
444.710549195576
 30
0.0
 10
117.0207334107186
 20
444.6492308436154
 30
0.0
 10
116.8680893032473
 20
444.6028070980287
 30
0.0
 10
116.5790050140603
 20
444.4828562278745
 30
0.0
 10
116.4412004758762
 20
444.4092515835911
 30
0.0
 10
116.1795818002374
 20
444.2345212174955
 30
0.0
 10
116.0568354935546
 20
444.1336705885939
 30
0.0
 10
115.725511116607
 20
443.8023853086099
 30
0.0
 10
115.5464999925788
 20
443.5347051472261
 30
0.0
 10
115.3668848931979
 20
443.1020311211707
 30
0.0
 10
115.3206405443301
 20
442.9505130343196
 30
0.0
 10
115.2588872383188
 20
442.6410872769335
 30
0.0
 10
115.2433501724776
 20
442.4844649472397
 30
0.0
 10
115.2433501724775
 20
442.3260857560509
 30
0.0
  0
LINE
  5
207
330
1F
100
AcDbEntity
  8
0
  6
Continuous
 62
     7
370
    25
100
AcDbLine
 10
710.2433501725
 20
442.3260857561
 30
0.0
 11
708.8433501725
 21
442.3260857561
 31
0.0
  0
SPLINE
  5
208
330
1F
100
AcDbEntity
  8
0
  6
Continuous
 62
     7
370
    25
100
AcDbSpline
210
0.0
220
0.0
230
1.0
 70
     8
 71
     3
 72
     9
 73
     5
 74
     0
 42
0.000000001
 43
0.00000001
 40
0.0
 40
0.0
 40
0.0
 40
0.0
 40
0.6784508005728466
 40
1.0
 40
1.0
 40
1.0
 40
1.0
 10
708.8433501724776
 20
442.3260857560509
 30
0.0
 10
708.8301006020131
 20
442.4767929605042
 30
0.0
 10
708.810571447573
 20
442.6989272763986
 30
0.0
 10
708.6697237939339
 20
442.8657603812879
 30
0.0
 10
708.6244343436651
 20
442.919405432603
 30
0.0
  0
SPLINE
  5
209
330
1F
100
AcDbEntity
  8
0
  6
Continuous
 62
     7
370
    25
100
AcDbSpline
210
0.0
220
0.0
230
1.0
 70
     8
 71
     3
 72
    20
 73
    16
 74
     0
 42
0.000000001
 43
0.00000001
 40
0.0
 40
0.0
 40
0.0
 40
0.0
 40
0.1249999999999999
 40
0.1249999999999999
 40
0.2499999999999999
 40
0.2499999999999999
 40
0.375
 40
0.375
 40
0.5
 40
0.5
 40
0.75
 40
0.75
 40
0.875
 40
0.875
 40
1.0
 40
1.0
 40
1.0
 40
1.0
 10
710.2433501724774
 20
442.3260857560509
 30
0.0
 10
710.2433501724776
 20
442.4844649437017
 30
0.0
 10
710.2278136120026
 20
442.6407106683934
 30
0.0
 10
710.166495260042
 20
442.9487025178099
 30
0.0
 10
710.1200715144552
 20
443.101346625281
 30
0.0
 10
710.000120644301
 20
443.3904309144681
 30
0.0
 10
709.9265160000176
 20
443.5282354526522
 30
0.0
 10
709.751785633922
 20
443.7898541282911
 30
0.0
 10
709.6509350050204
 20
443.9126004349737
 30
0.0
 10
709.3196497250365
 20
444.2439248119214
 30
0.0
 10
709.0519695636527
 20
444.4229359359497
 30
0.0
 10
708.6192955375972
 20
444.6025510353305
 30
0.0
 10
708.4677774507462
 20
444.6487953841983
 30
0.0
 10
708.1583516933599
 20
444.7105486902095
 30
0.0
 10
708.0017293636662
 20
444.726085756051
 30
0.0
 10
707.8433501724775
 20
444.726085756051
 30
0.0
  0
LINE
  5
20A
330
1F
100
AcDbEntity
  8
0
  6
Continuous
 62
     7
370
    25
100
AcDbLine
 10
115.2433501725
 20
432.7260857561
 30
0.0
 11
116.6433501725
 21
432.7260857561
 31
0.0
  0
LINE
  5
20B
330
1F
100
AcDbEntity
  8
0
  6
Continuous
 62
     7
370
    25
100
AcDbLine
 10
115.2433501725
 20
442.3260857561
 30
0.0
 11
115.2433501725
 21
432.7260857561
 31
0.0
  0
LINE
  5
20C
330
1F
100
AcDbEntity
  8
0
  6
Continuous
 62
     7
370
    25
100
AcDbLine
 10
116.6433501725
 20
442.3260857561
 30
0.0
 11
116.6433501725
 21
432.7260857561
 31
0.0
  0
LINE
  5
20D
330
1F
100
AcDbEntity
  8
0
  6
Continuous
 62
     7
370
    25
100
AcDbLine
 10
708.8433501725
 20
442.3260857561
 30
0.0
 11
708.8433501725
 21
432.7260857561
 31
0.0
  0
LINE
  5
20E
330
1F
100
AcDbEntity
  8
0
  6
Continuous
 62
     7
370
    25
100
AcDbLine
 10
710.2433501725
 20
442.3260857561
 30
0.0
 11
710.2433501725
 21
432.7260857561
 31
0.0
  0
LINE
  5
20F
330
1F
100
AcDbEntity
  8
0
  6
Continuous
 62
     7
370
    25
100
AcDbLine
 10
710.2433501725
 20
432.7260857561
 30
0.0
 11
708.8433501725
 21
432.7260857561
 31
0.0
  0
LINE
  5
210
330
1F
100
AcDbEntity
  8
0
  6
Continuous
 62
     7
370
    25
100
AcDbLine
 10
173.5812351183
 20
427.7260857561
 30
0.0
 11
172.0005729294
 21
427.7260857561
 31
0.0
  0
LINE
  5
211
330
1F
100
AcDbEntity
  8
0
  6
Continuous
 62
     7
370
    25
100
AcDbLine
 10
171.9736855331
 20
428.226085756
 30
0.0
 11
174.0812351183
 21
428.226085756
 31
0.0
  0
LINE
  5
212
330
1F
100
AcDbEntity
  8
0
  6
Continuous
 62
     7
370
    25
100
AcDbLine
 10
172.0005729294
 20
427.7260857561
 30
0.0
 11
170.2710282451
 21
427.7260857561
 31
0.0
  0
LINE
  5
213
330
1F
100
AcDbEntity
  8
0
  6
Continuous
 62
     7
370
    25
100
AcDbLine
 10
170.2441408488
 20
428.226085756
 30
0.0
 11
171.9736855331
 21
428.226085756
 31
0.0
  0
LINE
  5
214
330
1F
100
AcDbEntity
  8
0
  6
Continuous
 62
     7
370
    25
100
AcDbLine
 10
170.2710282451
 20
427.7260857561
 30
0.0
 11
168.851690434
 21
427.7260857561
 31
0.0
  0
LINE
  5
215
330
1F
100
AcDbEntity
  8
0
  6
Continuous
 62
     7
370
    25
100
AcDbLine
 10
168.351690434
 20
428.226085756
 30
0.0
 11
170.2441408488
 21
428.226085756
 31
0.0
  0
LINE
  5
216
330
1F
100
AcDbEntity
  8
0
  6
Continuous
 62
     7
370
    25
100
AcDbLine
 10
655.5509044488
 20
427.7260857561
 30
0.0
 11
652.9528591127
 21
427.7260857561
 31
0.0
  0
LINE
  5
217
330
1F
100
AcDbEntity
  8
0
  6
Continuous
 62
     7
370
    25
100
AcDbLine
 10
652.5210703578
 20
428.226085756
 30
0.0
 11
655.985130806
 21
428.226085756
 31
0.0
  0
LINE
  5
218
330
1F
100
AcDbEntity
  8
0
  6
Continuous
 62
     7
370
    25
100
AcDbLine
 10
651.6477424387
 20
428.226085756
 30
0.0
 11
652.5210703578
 21
428.226085756
 31
0.0
  0
LINE
  5
219
330
1F
100
AcDbEntity
  8
0
  6
Continuous
 62
     7
370
    25
100
AcDbLine
 10
652.9528591127
 20
427.7260857561
 30
0.0
 11
652.0795311936
 21
427.7260857561
 31
0.0
  0
LINE
  5
21A
330
1F
100
AcDbEntity
  8
0
  6
Continuous
 62
     7
370
    25
100
AcDbLine
 10
655.985130806
 20
428.226085756
 30
0.0
 11
656.843833111
 21
428.226085756
 31
0.0
  0
LINE
  5
21B
330
1F
100
AcDbEntity
  8
0
  6
Continuous
 62
     7
370
    25
100
AcDbLine
 10
656.4096067538
 20
427.7260857561
 30
0.0
 11
655.5509044488
 21
427.7260857561
 31
0.0
  0
LINE
  5
21C
330
1F
100
AcDbEntity
  8
0
  6
Continuous
 62
     7
370
    25
100
AcDbLine
 10
651.3748974581
 20
428.226085756
 30
0.0
 11
651.6477424387
 21
428.226085756
 31
0.0
  0
LINE
  5
21D
330
1F
100
AcDbEntity
  8
0
  6
Continuous
 62
     7
370
    25
100
AcDbLine
 10
652.0795311936
 20
427.7260857561
 30
0.0
 11
651.8748974581
 21
427.7260857561
 31
0.0
  0
LINE
  5
21E
330
1F
100
AcDbEntity
  8
0
  6
Continuous
 62
     7
370
    25
100
AcDbLine
 10
656.843833111
 20
428.226085756
 30
0.0
 11
657.1069276822
 21
428.226085756
 31
0.0
  0
LINE
  5
21F
330
1F
100
AcDbEntity
  8
0
  6
Continuous
 62
     7
370
    25
100
AcDbLine
 10
656.6069276822
 20
427.7260857561
 30
0.0
 11
656.4096067538
 21
427.7260857561
 31
0.0
  0
LINE
  5
220
330
1F
100
AcDbEntity
  8
0
  6
Continuous
 62
     7
370
    25
100
AcDbLine
 10
662.7433501725
 20
424.6260857561
 30
0.0
 11
663.9433501725
 21
424.6260857561
 31
0.0
  0
LINE
  5
221
330
1F
100
AcDbEntity
  8
0
  6
Continuous
 62
     7
370
    25
100
AcDbLine
 10
663.9433501725
 20
405.6260857561
 30
0.0
 11
660.7433501725
 21
405.6260857561
 31
0.0
  0
LINE
  5
222
330
1F
100
AcDbEntity
  8
0
  6
Continuous
 62
     7
370
    25
100
AcDbLine
 10
660.7433501725
 20
405.6260857561
 30
0.0
 11
660.7433501725
 21
384.6260857561
 31
0.0
  0
LINE
  5
223
330
1F
100
AcDbEntity
  8
0
  6
Continuous
 62
     7
370
    25
100
AcDbLine
 10
657.7433501725
 20
381.6260857561
 30
0.0
 11
613.7433501725
 21
381.6260857561
 31
0.0
  0
LINE
  5
224
330
1F
100
AcDbEntity
  8
0
  6
Continuous
 62
     7
370
    25
100
AcDbLine
 10
610.7433501725
 20
384.6260857561
 30
0.0
 11
610.7433501725
 21
400.7560857561
 31
0.0
  0
LINE
  5
225
330
1F
100
AcDbEntity
  8
0
  6
Continuous
 62
     7
370
    25
100
AcDbLine
 10
610.7433501725
 20
400.7560857561
 30
0.0
 11
608.2433501725
 21
400.7560857561
 31
0.0
  0
LINE
  5
226
330
1F
100
AcDbEntity
  8
0
  6
Continuous
 62
     7
370
    25
100
AcDbLine
 10
608.2433501725
 20
400.2640349485
 30
0.0
 11
608.2433501725
 21
400.7560857561
 31
0.0
  0
LINE
  5
227
330
1F
100
AcDbEntity
  8
0
  6
Continuous
 62
     7
370
    25
100
AcDbLine
 10
458.2433501725
 20
400.2640349485
 30
0.0
 11
458.2433501725
 21
400.7560857561
 31
0.0
  0
LINE
  5
228
330
1F
100
AcDbEntity
  8
0
  6
Continuous
 62
     7
370
    25
100
AcDbLine
 10
458.2433501725
 20
400.7560857561
 30
0.0
 11
455.7433501725
 21
400.7560857561
 31
0.0
  0
LINE
  5
229
330
1F
100
AcDbEntity
  8
0
  6
Continuous
 62
     7
370
    25
100
AcDbLine
 10
455.7433501725
 20
400.7560857561
 30
0.0
 11
455.7433501725
 21
384.6260857561
 31
0.0
  0
LINE
  5
22A
330
1F
100
AcDbEntity
  8
0
  6
Continuous
 62
     7
370
    25
100
AcDbLine
 10
369.7433501725
 20
384.6260857561
 30
0.0
 11
369.7433501725
 21
400.7560857561
 31
0.0
  0
LINE
  5
22B
330
1F
100
AcDbEntity
  8
0
  6
Continuous
 62
     7
370
    25
100
AcDbLine
 10
369.7433501725
 20
400.7560857561
 30
0.0
 11
367.2433501725
 21
400.7560857561
 31
0.0
  0
LINE
  5
22C
330
1F
100
AcDbEntity
  8
0
  6
Continuous
 62
     7
370
    25
100
AcDbLine
 10
367.2433501725
 20
400.2640349485
 30
0.0
 11
367.2433501725
 21
400.7560857561
 31
0.0
  0
LINE
  5
22D
330
1F
100
AcDbEntity
  8
0
  6
Continuous
 62
     7
370
    25
100
AcDbLine
 10
217.2433501725
 20
400.2640349485
 30
0.0
 11
217.2433501725
 21
400.7560857561
 31
0.0
  0
LINE
  5
22E
330
1F
100
AcDbEntity
  8
0
  6
Continuous
 62
     7
370
    25
100
AcDbLine
 10
217.2433501725
 20
400.7560857561
 30
0.0
 11
214.7433501725
 21
400.7560857561
 31
0.0
  0
LINE
  5
22F
330
1F
100
AcDbEntity
  8
0
  6
Continuous
 62
     7
370
    25
100
AcDbLine
 10
214.7433501725
 20
400.7560857561
 30
0.0
 11
214.7433501725
 21
384.6260857561
 31
0.0
  0
ARC
  5
230
330
1F
100
AcDbEntity
  8
0
  6
Continuous
 62
     7
370
    25
100
AcDbCircle
 10
211.7433501725
 20
384.6260857561
 30
0.0
 40
3.0
100
AcDbArc
 50
270.0
 51
0.0
  0
LINE
  5
231
330
1F
100
AcDbEntity
  8
0
  6
Continuous
 62
     7
370
    25
100
AcDbLine
 10
164.7433501725
 20
384.6260857561
 30
0.0
 11
164.7433501725
 21
405.6260857561
 31
0.0
  0
LINE
  5
232
330
1F
100
AcDbEntity
  8
0
  6
Continuous
 62
     7
370
    25
100
AcDbLine
 10
164.7433501725
 20
405.6260857561
 30
0.0
 11
161.5433501725
 21
405.6260857561
 31
0.0
  0
LINE
  5
233
330
1F
100
AcDbEntity
  8
0
  6
Continuous
 62
     7
370
    25
100
AcDbLine
 10
161.5433501725
 20
424.6260857561
 30
0.0
 11
162.7433501725
 21
424.6260857561
 31
0.0
  0
LINE
  5
234
330
1F
100
AcDbEntity
  8
0
  6
Continuous
 62
     7
370
    25
100
AcDbLine
 10
162.7433501725
 20
424.6260857561
 30
0.0
 11
162.7433501725
 21
424.8260857561
 31
0.0
  0
LINE
  5
235
330
1F
100
AcDbEntity
  8
0
  6
Continuous
 62
     7
370
    25
100
AcDbLine
 10
662.7433501725
 20
424.8260857561
 30
0.0
 11
662.7433501725
 21
424.6260857561
 31
0.0
  0
ARC
  5
236
330
1F
100
AcDbEntity
  8
0
  6
Continuous
 62
     7
370
    25
100
AcDbCircle
 10
613.7433501725
 20
384.6260857561
 30
0.0
 40
3.0
100
AcDbArc
 50
180.0
 51
270.0
  0
LINE
  5
237
330
1F
100
AcDbEntity
  8
0
  6
Continuous
 62
     7
370
    25
100
AcDbLine
 10
211.7433501725
 20
381.6260857561
 30
0.0
 11
167.7433501725
 21
381.6260857561
 31
0.0
  0
LINE
  5
238
330
1F
100
AcDbEntity
  8
0
  6
Continuous
 62
     7
370
    25
100
AcDbLine
 10
452.7433501725
 20
381.6260857561
 30
0.0
 11
372.7433501725
 21
381.6260857561
 31
0.0
  0
ARC
  5
239
330
1F
100
AcDbEntity
  8
0
  6
Continuous
 62
     7
370
    25
100
AcDbCircle
 10
372.7433501725
 20
384.6260857561
 30
0.0
 40
3.0
100
AcDbArc
 50
180.0
 51
270.0
  0
ARC
  5
23A
330
1F
100
AcDbEntity
  8
0
  6
Continuous
 62
     7
370
    25
100
AcDbCircle
 10
657.7433501725
 20
384.6260857561
 30
0.0
 40
3.0
100
AcDbArc
 50
270.0
 51
0.0
  0
ARC
  5
23B
330
1F
100
AcDbEntity
  8
0
  6
Continuous
 62
     7
370
    25
100
AcDbCircle
 10
452.7433501725
 20
384.6260857561
 30
0.0
 40
3.0
100
AcDbArc
 50
270.0
 51
0.0
  0
ARC
  5
23C
330
1F
100
AcDbEntity
  8
0
  6
Continuous
 62
     7
370
    25
100
AcDbCircle
 10
167.7433501725
 20
384.6260857561
 30
0.0
 40
3.0
100
AcDbArc
 50
180.0
 51
270.0
  0
LINE
  5
23D
330
1F
100
AcDbEntity
  8
0
  6
Continuous
 62
     7
370
    25
100
AcDbLine
 10
367.2433501725
 20
400.2640349485
 30
0.0
 11
367.2433501725
 21
399.3640349485
 31
0.0
  0
LINE
  5
23E
330
1F
100
AcDbEntity
  8
0
  6
Continuous
 62
     7
370
    25
100
AcDbLine
 10
217.2433501725
 20
399.3640349485
 30
0.0
 11
217.2433501725
 21
400.2640349485
 31
0.0
  0
LINE
  5
23F
330
1F
100
AcDbEntity
  8
0
  6
Continuous
 62
     7
370
    25
100
AcDbLine
 10
458.2433501725
 20
399.3640349485
 30
0.0
 11
458.2433501725
 21
400.2640349485
 31
0.0
  0
LINE
  5
240
330
1F
100
AcDbEntity
  8
0
  6
Continuous
 62
     7
370
    25
100
AcDbLine
 10
608.2433501725
 20
400.2640349485
 30
0.0
 11
608.2433501725
 21
399.3640349485
 31
0.0
  0
LINE
  5
241
330
1F
100
AcDbEntity
  8
0
  6
Continuous
 62
     7
370
    25
100
AcDbLine
 10
663.9433501725
 20
424.6260857561
 30
0.0
 11
664.7433501725
 21
424.6260857561
 31
0.0
  0
LINE
  5
242
330
1F
100
AcDbEntity
  8
0
  6
Continuous
 62
     7
370
    25
100
AcDbLine
 10
665.7433501725
 20
405.6260857561
 30
0.0
 11
665.7433501725
 21
406.2260857561
 31
0.0
  0
LINE
  5
243
330
1F
100
AcDbEntity
  8
0
  6
Continuous
 62
     7
370
    25
100
AcDbLine
 10
665.7433501725
 20
405.6260857561
 30
0.0
 11
663.9433501725
 21
405.6260857561
 31
0.0
  0
LINE
  5
244
330
1F
100
AcDbEntity
  8
0
  6
Continuous
 62
     7
370
    25
100
AcDbLine
 10
161.5433501725
 20
405.6260857561
 30
0.0
 11
159.7433501725
 21
405.6260857561
 31
0.0
  0
LINE
  5
245
330
1F
100
AcDbEntity
  8
0
  6
Continuous
 62
     7
370
    25
100
AcDbLine
 10
159.7433501725
 20
405.6260857561
 30
0.0
 11
159.7433501725
 21
406.2260857561
 31
0.0
  0
LINE
  5
246
330
1F
100
AcDbEntity
  8
0
  6
Continuous
 62
     7
370
    25
100
AcDbLine
 10
160.7433501725
 20
424.6260857561
 30
0.0
 11
161.5433501725
 21
424.6260857561
 31
0.0
  0
LINE
  5
247
330
1F
100
AcDbEntity
  8
0
  6
Continuous
 62
     7
370
    25
100
AcDbLine
 10
162.7433501725
 20
424.8260857561
 30
0.0
 11
162.7433501725
 21
426.6260857561
 31
0.0
  0
LINE
  5
248
330
1F
100
AcDbEntity
  8
0
  6
Continuous
 62
     7
370
    25
100
AcDbLine
 10
662.7433501725
 20
426.6260857561
 30
0.0
 11
662.7433501725
 21
424.8260857561
 31
0.0
  0
LINE
  5
249
330
1F
100
AcDbEntity
  8
0
  6
Continuous
 62
     7
370
    25
100
AcDbLine
 10
458.2433501725
 20
399.3640349485
 30
0.0
 11
458.2433501725
 21
392.7391638179
 31
0.0
  0
LINE
  5
24A
330
1F
100
AcDbEntity
  8
0
  6
Continuous
 62
     7
370
    25
100
AcDbLine
 10
608.2433501725
 20
392.7391638179
 30
0.0
 11
608.2433501725
 21
399.3640349485
 31
0.0
  0
LINE
  5
24B
330
1F
100
AcDbEntity
  8
0
  6
Continuous
 62
     7
370
    25
100
AcDbLine
 10
217.2433501725
 20
399.3640349485
 30
0.0
 11
217.2433501725
 21
392.7391638179
 31
0.0
  0
LINE
  5
24C
330
1F
100
AcDbEntity
  8
0
  6
Continuous
 62
     7
370
    25
100
AcDbLine
 10
367.2433501725
 20
392.7391638179
 30
0.0
 11
367.2433501725
 21
399.3640349485
 31
0.0
  0
LINE
  5
24D
330
1F
100
AcDbEntity
  8
0
  6
Continuous
 62
     7
370
    25
100
AcDbLine
 10
608.2433501725
 20
392.2391638179
 30
0.0
 11
608.2433501725
 21
392.7391638179
 31
0.0
  0
LINE
  5
24E
330
1F
100
AcDbEntity
  8
0
  6
Continuous
 62
     7
370
    25
100
AcDbLine
 10
458.2433501725
 20
392.7391638179
 30
0.0
 11
458.2433501725
 21
392.2391638179
 31
0.0
  0
LINE
  5
24F
330
1F
100
AcDbEntity
  8
0
  6
Continuous
 62
     7
370
    25
100
AcDbLine
 10
367.2433501725
 20
392.2391638179
 30
0.0
 11
367.2433501725
 21
392.7391638179
 31
0.0
  0
LINE
  5
250
330
1F
100
AcDbEntity
  8
0
  6
Continuous
 62
     7
370
    25
100
AcDbLine
 10
217.2433501725
 20
392.7391638179
 30
0.0
 11
217.2433501725
 21
392.2391638179
 31
0.0
  0
ARC
  5
251
330
1F
100
AcDbEntity
  8
0
  6
Continuous
 62
     7
370
    25
100
AcDbCircle
 10
461.2433501725
 20
385.7214723643
 30
0.0
 40
3.0
100
AcDbArc
 50
180.0
 51
270.0
  0
LINE
  5
252
330
1F
100
AcDbEntity
  8
0
  6
Continuous
 62
     7
370
    25
100
AcDbLine
 10
458.2433501725
 20
385.7214723643
 30
0.0
 11
458.2433501725
 21
392.2391638179
 31
0.0
  0
LINE
  5
253
330
1F
100
AcDbEntity
  8
0
  6
Continuous
 62
     7
370
    25
100
AcDbLine
 10
608.2433501725
 20
392.2391638179
 30
0.0
 11
608.2433501725
 21
385.7214723643
 31
0.0
  0
ARC
  5
254
330
1F
100
AcDbEntity
  8
0
  6
Continuous
 62
     7
370
    25
100
AcDbCircle
 10
605.2433501725
 20
385.7214723643
 30
0.0
 40
3.0
100
AcDbArc
 50
270.0
 51
0.0
  0
LINE
  5
255
330
1F
100
AcDbEntity
  8
0
  6
Continuous
 62
     7
370
    25
100
AcDbLine
 10
605.2433501725
 20
382.7214723643
 30
0.0
 11
461.2433501725
 21
382.7214723643
 31
0.0
  0
ARC
  5
256
330
1F
100
AcDbEntity
  8
0
  6
Continuous
 62
     7
370
    25
100
AcDbCircle
 10
220.2433501725
 20
385.7214723643
 30
0.0
 40
3.0
100
AcDbArc
 50
180.0
 51
270.0
  0
LINE
  5
257
330
1F
100
AcDbEntity
  8
0
  6
Continuous
 62
     7
370
    25
100
AcDbLine
 10
217.2433501725
 20
385.7214723643
 30
0.0
 11
217.2433501725
 21
392.2391638179
 31
0.0
  0
LINE
  5
258
330
1F
100
AcDbEntity
  8
0
  6
Continuous
 62
     7
370
    25
100
AcDbLine
 10
367.2433501725
 20
392.2391638179
 30
0.0
 11
367.2433501725
 21
385.7214723643
 31
0.0
  0
ARC
  5
259
330
1F
100
AcDbEntity
  8
0
  6
Continuous
 62
     7
370
    25
100
AcDbCircle
 10
364.2433501725
 20
385.7214723643
 30
0.0
 40
3.000000000000057
100
AcDbArc
 50
270.0
 51
0.0
  0
LINE
  5
25A
330
1F
100
AcDbEntity
  8
0
  6
Continuous
 62
     7
370
    25
100
AcDbLine
 10
364.2433501725
 20
382.7214723643
 30
0.0
 11
220.2433501725
 21
382.7214723643
 31
0.0
  0
LINE
  5
25B
330
1F
100
AcDbEntity
  8
0
  6
Continuous
 62
     7
370
    25
100
AcDbLine
 10
649.4933501725
 20
432.2260857561
 30
0.0
 11
649.4933501725
 21
432.7260857561
 31
0.0
  0
LINE
  5
25C
330
1F
100
AcDbEntity
  8
0
  6
Continuous
 62
     7
370
    25
100
AcDbLine
 10
658.9933501725
 20
432.2260857561
 30
0.0
 11
649.4933501725
 21
432.2260857561
 31
0.0
  0
LINE
  5
25D
330
1F
100
AcDbEntity
  8
0
  6
Continuous
 62
     7
370
    25
100
AcDbLine
 10
658.9933501725
 20
432.7260857561
 30
0.0
 11
658.9933501725
 21
432.2260857561
 31
0.0
  0
ARC
  5
25E
330
1F
100
AcDbEntity
  8
0
  6
Continuous
 62
     7
370
    25
100
AcDbCircle
 10
659.7567501725
 20
433.4626857561
 30
0.0
 40
1.23660000000001
100
AcDbArc
 50
270.0
 51
323.4399088994
  0
LINE
  5
25F
330
1F
100
AcDbEntity
  8
0
  6
Continuous
 62
     7
370
    25
100
AcDbLine
 10
659.7567501725
 20
432.2260857561
 30
0.0
 11
658.9933501725
 21
432.2260857561
 31
0.0
  0
LINE
  5
260
330
1F
100
AcDbEntity
  8
0
  6
Continuous
 62
     7
370
    25
100
AcDbLine
 10
649.4933501725
 20
432.2260857561
 30
0.0
 11
648.7299501725
 21
432.2260857561
 31
0.0
  0
ARC
  5
261
330
1F
100
AcDbEntity
  8
0
  6
Continuous
 62
     7
370
    25
100
AcDbCircle
 10
648.7299501725
 20
433.4626857561
 30
0.0
 40
1.236600000000059
100
AcDbArc
 50
216.5600911006
 51
270.0
  0
LINE
  5
262
330
1F
100
AcDbEntity
  8
0
  6
Continuous
 62
     7
370
    25
100
AcDbLine
 10
166.4933501725
 20
432.2260857561
 30
0.0
 11
166.4933501725
 21
432.7260857561
 31
0.0
  0
LINE
  5
263
330
1F
100
AcDbEntity
  8
0
  6
Continuous
 62
     7
370
    25
100
AcDbLine
 10
175.9933501725
 20
432.7260857561
 30
0.0
 11
175.9933501725
 21
432.2260857561
 31
0.0
  0
LINE
  5
264
330
1F
100
AcDbEntity
  8
0
  6
Continuous
 62
     7
370
    25
100
AcDbLine
 10
175.9933501725
 20
432.2260857561
 30
0.0
 11
166.4933501725
 21
432.2260857561
 31
0.0
  0
ARC
  5
265
330
1F
100
AcDbEntity
  8
0
  6
Continuous
 62
     7
370
    25
100
AcDbCircle
 10
176.7567501725
 20
433.4626857561
 30
0.0
 40
1.23660000000001
100
AcDbArc
 50
270.0
 51
323.4399088994
  0
LINE
  5
266
330
1F
100
AcDbEntity
  8
0
  6
Continuous
 62
     7
370
    25
100
AcDbLine
 10
176.7567501725
 20
432.2260857561
 30
0.0
 11
175.9933501725
 21
432.2260857561
 31
0.0
  0
ARC
  5
267
330
1F
100
AcDbEntity
  8
0
  6
Continuous
 62
     7
370
    25
100
AcDbCircle
 10
165.7299501725
 20
433.4626857561
 30
0.0
 40
1.236600000000067
100
AcDbArc
 50
216.5600911006
 51
270.0
  0
LINE
  5
268
330
1F
100
AcDbEntity
  8
0
  6
Continuous
 62
     7
370
    25
100
AcDbLine
 10
166.4933501725
 20
432.2260857561
 30
0.0
 11
165.7299501725
 21
432.2260857561
 31
0.0
  0
LINE
  5
269
330
1F
100
AcDbEntity
  8
0
  6
Continuous
 62
     7
370
    25
100
AcDbLine
 10
674.4021001725
 20
411.1260857561
 30
0.0
 11
674.4021001725
 21
411.326085756
 31
0.0
  0
LINE
  5
26A
330
1F
100
AcDbEntity
  8
0
  6
Continuous
 62
     7
370
    25
100
AcDbLine
 10
674.4021001725
 20
416.9260857561
 30
0.0
 11
674.4021001725
 21
417.1260857561
 31
0.0
  0
LINE
  5
26B
330
1F
100
AcDbEntity
  8
0
  6
Continuous
 62
     7
370
    25
100
AcDbLine
 10
674.9433501725
 20
415.7054890934
 30
0.0
 11
674.9433501725
 21
416.5848357561
 31
0.0
  0
LINE
  5
26C
330
1F
100
AcDbEntity
  8
0
  6
Continuous
 62
     7
370
    25
100
AcDbLine
 10
674.9433501725
 20
411.667335756
 30
0.0
 11
674.9433501725
 21
415.7054890934
 31
0.0
  0
LINE
  5
26D
330
1F
100
AcDbEntity
  8
0
  6
Continuous
 62
     7
370
    25
100
AcDbLine
 10
664.2433501725
 20
428.4260857561
 30
0.0
 11
664.2433501725
 21
426.6260857561
 31
0.0
  0
LINE
  5
26E
330
1F
100
AcDbEntity
  8
0
  6
Continuous
 62
     7
370
    25
100
AcDbLine
 10
664.2433501725
 20
426.6260857561
 30
0.0
 11
161.2433501725
 21
426.6260857561
 31
0.0
  0
LINE
  5
26F
330
1F
100
AcDbEntity
  8
0
  6
Continuous
 62
     7
370
    25
100
AcDbLine
 10
161.2433501725
 20
426.6260857561
 30
0.0
 11
161.2433501725
 21
428.4260857561
 31
0.0
  0
LINE
  5
270
330
1F
100
AcDbEntity
  8
0
  6
Continuous
 62
     7
370
    25
100
AcDbLine
 10
664.2433501725
 20
428.4260857561
 30
0.0
 11
664.7433501725
 21
433.801085756
 31
0.0
  0
LINE
  5
271
330
1F
100
AcDbEntity
  8
0
  6
Continuous
 62
     7
370
    25
100
AcDbLine
 10
160.7433501725
 20
433.8010857561
 30
0.0
 11
161.2433501725
 21
428.4260857561
 31
0.0
  0
LINE
  5
272
330
1F
100
AcDbEntity
  8
0
  6
Continuous
 62
     7
370
    25
100
AcDbLine
 10
150.5433501725
 20
411.9087476788
 30
0.0
 11
150.5433501725
 21
411.667335756
 31
0.0
  0
LINE
  5
273
330
1F
100
AcDbEntity
  8
0
  6
Continuous
 62
     7
370
    25
100
AcDbLine
 10
150.5433501725
 20
416.5848357561
 30
0.0
 11
150.5433501725
 21
411.9087476788
 31
0.0
  0
LINE
  5
274
330
1F
100
AcDbEntity
  8
0
  6
Continuous
 62
     7
370
    25
100
AcDbLine
 10
151.0846001725
 20
417.1260857561
 30
0.0
 11
151.0846001725
 21
416.9260857561
 31
0.0
  0
LINE
  5
275
330
1F
100
AcDbEntity
  8
0
  6
Continuous
 62
     7
370
    25
100
AcDbLine
 10
151.0846001725
 20
411.326085756
 30
0.0
 11
151.0846001725
 21
411.126085756
 31
0.0
  0
LWPOLYLINE
  5
276
330
1F
100
AcDbEntity
  8
0
  6
Continuous
 62
     7
370
    25
100
AcDbPolyline
 90
        9
 70
   128
 43
0.0
 10
666.7954710324
 20
406.2260857561
 10
666.9289206722
 20
406.2645151952
 10
667.0572419172
 20
406.378326691
 10
667.1755034539
 20
406.5631465314
 10
667.2791605577
 20
406.8118721937
 10
667.3642297444
 20
407.11494529
 10
667.4274418527
 20
407.4607188913
 10
667.4663676768
 20
407.835905112
 10
667.4795113191
 20
408.2260857561
  0
LINE
  5
277
330
1F
100
AcDbEntity
  8
0
  6
Continuous
 62
     7
370
    25
100
AcDbLine
 10
664.9242723101
 20
406.2260857561
 30
0.0
 11
666.7954710324
 21
406.2260857561
 31
0.0
  0
LINE
  5
278
330
1F
100
AcDbEntity
  8
0
  6
Continuous
 62
     7
370
    25
100
AcDbLine
 10
666.7954710324
 20
422.2260857561
 30
0.0
 11
664.9242723101
 21
422.2260857561
 31
0.0
  0
LWPOLYLINE
  5
279
330
1F
100
AcDbEntity
  8
0
  6
Continuous
 62
     7
370
    25
100
AcDbPolyline
 90
        9
 70
   128
 43
0.0
 10
667.4795113191
 20
420.2260857561
 10
667.4663676768
 20
420.6162664001
 10
667.4274418527
 20
420.9914526208
 10
667.3642297444
 20
421.3372262221
 10
667.2791605577
 20
421.6402993184
 10
667.1755034539
 20
421.8890249807
 10
667.0572419172
 20
422.0738448211
 10
666.9289206722
 20
422.1876563169
 10
666.7954710324
 20
422.2260857561
  0
LINE
  5
27A
330
1F
100
AcDbEntity
  8
0
  6
Continuous
 62
     7
370
    25
100
AcDbLine
 10
667.4795113191
 20
408.2260857561
 30
0.0
 11
667.4795113191
 21
420.2260857561
 31
0.0
  0
LWPOLYLINE
  5
27B
330
1F
100
AcDbEntity
  8
0
  6
Continuous
 62
     7
370
    25
100
AcDbPolyline
 90
        9
 70
   128
 43
0.0
 10
669.3588965607
 20
408.2260857561
 10
669.3457529184
 20
407.835905112
 10
669.3068270943
 20
407.4607188913
 10
669.2436149859
 20
407.11494529
 10
669.1585457993
 20
406.8118721937
 10
669.0548886955
 20
406.5631465314
 10
668.9366271588
 20
406.378326691
 10
668.8083059138
 20
406.2645151952
 10
668.674856274
 20
406.2260857561
  0
LINE
  5
27C
330
1F
100
AcDbEntity
  8
0
  6
Continuous
 62
     7
370
    25
100
AcDbLine
 10
668.674856274
 20
406.2260857561
 30
0.0
 11
666.7954710324
 21
406.2260857561
 31
0.0
  0
LINE
  5
27D
330
1F
100
AcDbEntity
  8
0
  6
Continuous
 62
     7
370
    25
100
AcDbLine
 10
669.3588965607
 20
408.2260857561
 30
0.0
 11
669.3588965607
 21
420.2260857561
 31
0.0
  0
LINE
  5
27E
330
1F
100
AcDbEntity
  8
0
  6
Continuous
 62
     7
370
    25
100
AcDbLine
 10
666.7954710324
 20
422.2260857561
 30
0.0
 11
668.674856274
 21
422.2260857561
 31
0.0
  0
LWPOLYLINE
  5
27F
330
1F
100
AcDbEntity
  8
0
  6
Continuous
 62
     7
370
    25
100
AcDbPolyline
 90
        9
 70
   128
 43
0.0
 10
668.674856274
 20
422.2260857561
 10
668.8083059138
 20
422.1876563169
 10
668.9366271588
 20
422.0738448211
 10
669.0548886955
 20
421.8890249807
 10
669.1585457993
 20
421.6402993184
 10
669.2436149859
 20
421.3372262221
 10
669.3068270943
 20
420.9914526208
 10
669.3457529184
 20
420.6162664001
 10
669.3588965607
 20
420.2260857561
  0
LINE
  5
280
330
1F
100
AcDbEntity
  8
0
  6
Continuous
 62
     7
370
    25
100
AcDbLine
 10
664.7485365229
 20
422.2260857561
 30
0.0
 11
664.9242723101
 21
422.2260857561
 31
0.0
  0
LINE
  5
281
330
1F
100
AcDbEntity
  8
0
  6
Continuous
 62
     7
370
    25
100
AcDbLine
 10
664.7433501725
 20
406.2260857561
 30
0.0
 11
664.7433501725
 21
422.2260857561
 31
0.0
  0
LINE
  5
282
330
1F
100
AcDbEntity
  8
0
  6
Continuous
 62
     7
370
    25
100
AcDbLine
 10
664.9242723101
 20
406.2260857561
 30
0.0
 11
664.7433501725
 21
406.2260857561
 31
0.0
  0
LINE
  5
283
330
1F
100
AcDbEntity
  8
0
  6
Continuous
 62
     7
370
    25
100
AcDbLine
 10
664.7485365229
 20
422.2260857561
 30
0.0
 11
664.7433501725
 21
422.2260857561
 31
0.0
  0
LINE
  5
284
330
1F
100
AcDbEntity
  8
0
  6
Continuous
 62
     7
370
    25
100
AcDbLine
 10
664.7433501725
 20
437.2260857561
 30
0.0
 11
664.7433501725
 21
422.2260857561
 31
0.0
  0
LINE
  5
285
330
1F
100
AcDbEntity
  8
0
  6
Continuous
 62
     7
370
    25
100
AcDbLine
 10
666.7433501725
 20
437.2260857561
 30
0.0
 11
666.7433501725
 21
422.2260857561
 31
0.0
  0
LINE
  5
286
330
1F
100
AcDbEntity
  8
0
  6
Continuous
 62
     7
370
    25
100
AcDbLine
 10
664.7433501725
 20
437.2260857561
 30
0.0
 11
664.7383376096
 21
437.3260857561
 31
0.0
  0
LINE
  5
287
330
1F
100
AcDbEntity
  8
0
  6
Continuous
 62
     7
370
    25
100
AcDbLine
 10
666.7433501725
 20
437.2260857561
 30
0.0
 11
666.7416830426
 21
437.3260857561
 31
0.0
  0
LINE
  5
288
330
1F
100
AcDbEntity
  8
0
  6
Continuous
 62
     7
370
    25
100
AcDbLine
 10
158.6912293125
 20
406.2260857561
 30
0.0
 11
156.811844071
 21
406.2260857561
 31
0.0
  0
LWPOLYLINE
  5
289
330
1F
100
AcDbEntity
  8
0
  6
Continuous
 62
     7
370
    25
100
AcDbPolyline
 90
        9
 70
   128
 43
0.0
 10
156.811844071
 20
406.2260857561
 10
156.6783944312
 20
406.2645151952
 10
156.5500731862
 20
406.378326691
 10
156.4318116495
 20
406.5631465314
 10
156.3281545457
 20
406.8118721937
 10
156.243085359
 20
407.11494529
 10
156.1798732507
 20
407.4607188913
 10
156.1409474266
 20
407.835905112
 10
156.1278037843
 20
408.2260857561
  0
LWPOLYLINE
  5
28A
330
1F
100
AcDbEntity
  8
0
  6
Continuous
 62
     7
370
    25
100
AcDbPolyline
 90
        9
 70
   128
 43
0.0
 10
158.0071890259
 20
408.2260857561
 10
158.0203326682
 20
407.835905112
 10
158.0592584923
 20
407.4607188913
 10
158.1224706006
 20
407.11494529
 10
158.2075397872
 20
406.8118721937
 10
158.3111968911
 20
406.5631465314
 10
158.4294584278
 20
406.378326691
 10
158.5577796727
 20
406.2645151952
 10
158.6912293125
 20
406.2260857561
  0
LINE
  5
28B
330
1F
100
AcDbEntity
  8
0
  6
Continuous
 62
     7
370
    25
100
AcDbLine
 10
158.6912293125
 20
406.2260857561
 30
0.0
 11
160.5624280348
 21
406.2260857561
 31
0.0
  0
LINE
  5
28C
330
1F
100
AcDbEntity
  8
0
  6
Continuous
 62
     7
370
    25
100
AcDbLine
 10
158.0071890259
 20
420.2260857561
 30
0.0
 11
158.0071890259
 21
408.2260857561
 31
0.0
  0
LWPOLYLINE
  5
28D
330
1F
100
AcDbEntity
  8
0
  6
Continuous
 62
     7
370
    25
100
AcDbPolyline
 90
        9
 70
   128
 43
0.0
 10
158.6912293125
 20
422.2260857561
 10
158.5577796727
 20
422.1876563169
 10
158.4294584278
 20
422.0738448211
 10
158.3111968911
 20
421.8890249807
 10
158.2075397872
 20
421.6402993184
 10
158.1224706006
 20
421.3372262221
 10
158.0592584923
 20
420.9914526208
 10
158.0203326682
 20
420.6162664001
 10
158.0071890259
 20
420.2260857561
  0
LINE
  5
28E
330
1F
100
AcDbEntity
  8
0
  6
Continuous
 62
     7
370
    25
100
AcDbLine
 10
160.5624280348
 20
422.2260857561
 30
0.0
 11
158.6912293125
 21
422.2260857561
 31
0.0
  0
LINE
  5
28F
330
1F
100
AcDbEntity
  8
0
  6
Continuous
 62
     7
370
    25
100
AcDbLine
 10
156.1278037843
 20
420.2260857561
 30
0.0
 11
156.1278037843
 21
408.2260857561
 31
0.0
  0
LWPOLYLINE
  5
290
330
1F
100
AcDbEntity
  8
0
  6
Continuous
 62
     7
370
    25
100
AcDbPolyline
 90
        9
 70
   128
 43
0.0
 10
156.1278037843
 20
420.2260857561
 10
156.1409474266
 20
420.6162664001
 10
156.1798732507
 20
420.9914526208
 10
156.243085359
 20
421.3372262221
 10
156.3281545457
 20
421.6402993184
 10
156.4318116495
 20
421.8890249807
 10
156.5500731862
 20
422.0738448211
 10
156.6783944312
 20
422.1876563169
 10
156.811844071
 20
422.2260857561
  0
LINE
  5
291
330
1F
100
AcDbEntity
  8
0
  6
Continuous
 62
     7
370
    25
100
AcDbLine
 10
156.811844071
 20
422.2260857561
 30
0.0
 11
158.6912293125
 21
422.2260857561
 31
0.0
  0
LINE
  5
292
330
1F
100
AcDbEntity
  8
0
  6
Continuous
 62
     7
370
    25
100
AcDbLine
 10
160.5624280348
 20
422.2260857561
 30
0.0
 11
160.7381638221
 21
422.2260857561
 31
0.0
  0
LINE
  5
293
330
1F
100
AcDbEntity
  8
0
  6
Continuous
 62
     7
370
    25
100
AcDbLine
 10
160.7433501725
 20
422.2260857561
 30
0.0
 11
160.7433501725
 21
406.2260857561
 31
0.0
  0
LINE
  5
294
330
1F
100
AcDbEntity
  8
0
  6
Continuous
 62
     7
370
    25
100
AcDbLine
 10
160.7433501725
 20
406.2260857561
 30
0.0
 11
160.5624280348
 21
406.2260857561
 31
0.0
  0
LINE
  5
295
330
1F
100
AcDbEntity
  8
0
  6
Continuous
 62
     7
370
    25
100
AcDbLine
 10
160.7381638221
 20
422.2260857561
 30
0.0
 11
160.7433501725
 21
422.2260857561
 31
0.0
  0
LINE
  5
296
330
1F
100
AcDbEntity
  8
0
  6
Continuous
 62
     7
370
    25
100
AcDbLine
 10
160.7433501725
 20
422.2260857561
 30
0.0
 11
160.7433501725
 21
437.2260857561
 31
0.0
  0
LINE
  5
297
330
1F
100
AcDbEntity
  8
0
  6
Continuous
 62
     7
370
    25
100
AcDbLine
 10
158.7433501725
 20
422.2260857561
 30
0.0
 11
158.7433501725
 21
437.2260857561
 31
0.0
  0
LINE
  5
298
330
1F
100
AcDbEntity
  8
0
  6
Continuous
 62
     7
370
    25
100
AcDbLine
 10
160.7483627354
 20
437.3260857561
 30
0.0
 11
160.7433501725
 21
437.2260857561
 31
0.0
  0
LINE
  5
299
330
1F
100
AcDbEntity
  8
0
  6
Continuous
 62
     7
370
    25
100
AcDbLine
 10
158.7450173024
 20
437.3260857561
 30
0.0
 11
158.7433501725
 21
437.2260857561
 31
0.0
  0
SPLINE
  5
29A
330
1F
100
AcDbEntity
  8
0
  6
Continuous
 62
     7
370
    25
100
AcDbSpline
210
0.0
220
0.0
230
1.0
 70
    24
 71
     3
 72
    19
 73
    15
 74
     0
 42
0.000000001
 43
0.00000001
 40
0.0
 40
0.0
 40
0.0
 40
0.0
 40
0.1260638187928848
 40
0.1939261817305607
 40
0.2632286813759842
 40
0.3325311810214078
 40
0.4003935439590837
 40
0.5264573627519685
 40
0.6525211815448532
 40
0.7203835444825295
 40
0.7896860441279527
 40
0.8589885437733762
 40
0.9268509067110523
 40
1.0
 40
1.0
 40
1.0
 40
1.0
 10
663.7433501724774
 20
419.8534741114295
 30
0.0
 10
663.7433501724774
 20
419.6618862004932
 30
0.0
 10
663.7433501724774
 20
419.3671631595019
 30
0.0
 10
663.7433501724774
 20
418.4399086366614
 30
0.0
 10
663.7433501724774
 20
417.5543525961288
 30
0.0
 10
663.7433501724774
 20
416.5179513865936
 30
0.0
 10
663.7433501724773
 20
415.0739980139442
 30
0.0
 10
663.7433501724774
 20
413.1891704312355
 30
0.0
 10
663.7433501724773
 20
411.4161602294089
 30
0.0
 10
663.7433501724774
 20
410.1938566076687
 30
0.0
 10
663.7433501724773
 20
409.3931698924506
 30
0.0
 10
663.7433501724774
 20
408.8076793096776
 30
0.0
 10
663.7433501724772
 20
408.3797931711247
 30
0.0
 10
663.7433501724774
 20
408.4103054230273
 30
0.0
 10
663.7433501724774
 20
408.4261335239533
 30
0.0
  0
SPLINE
  5
29B
330
1F
100
AcDbEntity
  8
0
  6
Continuous
 62
     7
370
    25
100
AcDbSpline
210
0.0
220
0.0
230
1.0
 70
     8
 71
     3
 72
     8
 73
     4
 74
     0
 42
0.000000001
 43
0.00000001
 40
0.0
 40
0.0
 40
0.0
 40
0.0
 40
1.0
 40
1.0
 40
1.0
 40
1.0
 10
659.7433501724845
 20
413.3373879639935
 30
0.0
 10
659.7433501724845
 20
412.3644436482139
 30
0.0
 10
659.9176654728639
 20
411.4181284007613
 30
0.0
 10
660.1899321598759
 20
410.4867765797032
 30
0.0
  0
SPLINE
  5
29C
330
1F
100
AcDbEntity
  8
0
  6
Continuous
 62
     7
370
    25
100
AcDbSpline
210
0.0
220
0.0
230
1.0
 70
     8
 71
     3
 72
     8
 73
     4
 74
     0
 42
0.000000001
 43
0.00000001
 40
0.0
 40
0.0
 40
0.0
 40
0.0
 40
1.0
 40
1.0
 40
1.0
 40
1.0
 10
660.1899321598759
 20
416.1879993482838
 30
0.0
 10
659.9176654728644
 20
415.2566475272274
 30
0.0
 10
659.7433501724845
 20
414.3103322797714
 30
0.0
 10
659.7433501724845
 20
413.3373879639935
 30
0.0
  0
LINE
  5
29D
330
1F
100
AcDbEntity
  8
0
  6
Continuous
 62
     7
370
    25
100
AcDbLine
 10
663.7433501725
 20
416.1879993483
 30
0.0
 11
660.1899321599
 21
416.1879993483
 31
0.0
  0
LINE
  5
29E
330
1F
100
AcDbEntity
  8
0
  6
Continuous
 62
     7
370
    25
100
AcDbLine
 10
663.7433501725
 20
410.4867765797
 30
0.0
 11
660.1899321599
 21
410.4867765797
 31
0.0
  0
LINE
  5
29F
330
1F
100
AcDbEntity
  8
0
  6
Continuous
 62
     7
370
    25
100
AcDbLine
 10
659.7433501725
 20
418.0076539365
 30
0.0
 11
659.7433501725
 21
413.337387964
 31
0.0
  0
SPLINE
  5
2A0
330
1F
100
AcDbEntity
  8
0
  6
Continuous
 62
     7
370
    25
100
AcDbSpline
210
0.0
220
0.0
230
1.0
 70
     8
 71
     3
 72
     8
 73
     4
 74
     0
 42
0.000000001
 43
0.00000001
 40
0.0
 40
0.0
 40
0.0
 40
0.0
 40
1.0
 40
1.0
 40
1.0
 40
1.0
 10
659.7433501724845
 20
418.0076539364632
 30
0.0
 10
659.7433501724845
 20
417.3865862602439
 30
0.0
 10
659.9176654728639
 20
416.7825169397554
 30
0.0
 10
660.1899321598759
 20
416.1879993482901
 30
0.0
  0
SPLINE
  5
2A1
330
1F
100
AcDbEntity
  8
0
  6
Continuous
 62
     7
370
    25
100
AcDbSpline
210
0.0
220
0.0
230
1.0
 70
     8
 71
     3
 72
     8
 73
     4
 74
     0
 42
0.000000001
 43
0.00000001
 40
0.0
 40
0.0
 40
0.0
 40
0.0
 40
1.0
 40
1.0
 40
1.0
 40
1.0
 10
660.1899321598759
 20
419.8273085246362
 30
0.0
 10
659.9176654728644
 20
419.2327909331721
 30
0.0
 10
659.7433501724845
 20
418.6287216126813
 30
0.0
 10
659.7433501724845
 20
418.0076539364632
 30
0.0
  0
LINE
  5
2A2
330
1F
100
AcDbEntity
  8
0
  6
Continuous
 62
     7
370
    25
100
AcDbLine
 10
663.7433501725
 20
419.8273085246
 30
0.0
 11
660.1899321599
 21
419.8273085246
 31
0.0
  0
LINE
  5
2A3
330
1F
100
AcDbEntity
  8
0
  6
Continuous
 62
     7
370
    25
100
AcDbLine
 10
659.7433501725
 20
413.337387964
 30
0.0
 11
659.7433501725
 21
409.4558197836
 31
0.0
  0
SPLINE
  5
2A4
330
1F
100
AcDbEntity
  8
0
  6
Continuous
 62
     7
370
    25
100
AcDbSpline
210
0.0
220
0.0
230
1.0
 70
     8
 71
     3
 72
     8
 73
     4
 74
     0
 42
0.000000001
 43
0.00000001
 40
0.0
 40
0.0
 40
0.0
 40
0.0
 40
1.0
 40
1.0
 40
1.0
 40
1.0
 10
660.1899321598758
 20
410.4867765796981
 30
0.0
 10
659.9176654728643
 20
410.1499423501058
 30
0.0
 10
659.7433501724844
 20
409.8076964231405
 30
0.0
 10
659.7433501724844
 20
409.4558197835806
 30
0.0
  0
SPLINE
  5
2A5
330
1F
100
AcDbEntity
  8
0
  6
Continuous
 62
     7
370
    25
100
AcDbSpline
210
0.0
220
0.0
230
1.0
 70
     8
 71
     3
 72
     8
 73
     4
 74
     0
 42
0.000000001
 43
0.00000001
 40
0.0
 40
0.0
 40
0.0
 40
0.0
 40
1.0
 40
1.0
 40
1.0
 40
1.0
 10
659.7433501724844
 20
409.4558197835806
 30
0.0
 10
659.7433501724844
 20
409.1039431440201
 30
0.0
 10
659.9176654728637
 20
408.7616972170561
 30
0.0
 10
660.1899321598758
 20
408.4248629874631
 30
0.0
  0
LINE
  5
2A6
330
1F
100
AcDbEntity
  8
0
  6
Continuous
 62
     7
370
    25
100
AcDbLine
 10
663.7433501725
 20
408.4248629875
 30
0.0
 11
660.1899321599
 21
408.4248629875
 31
0.0
  0
LINE
  5
2A7
330
1F
100
AcDbEntity
  8
0
  6
Continuous
 62
     7
370
    25
100
AcDbLine
 10
660.0397259296
 20
419.480549949
 30
0.0
 11
660.1899321599
 21
419.8273085246
 31
0.0
  0
LINE
  5
2A8
330
1F
100
AcDbEntity
  8
0
  6
Continuous
 62
     7
370
    25
100
AcDbLine
 10
659.7433501725
 20
419.126085756
 30
0.0
 11
659.7433501725
 21
418.0076539365
 31
0.0
  0
LINE
  5
2A9
330
1F
100
AcDbEntity
  8
0
  6
Continuous
 62
     7
370
    25
100
AcDbLine
 10
674.2021001725
 20
411.1260857561
 30
0.0
 11
674.2021001725
 21
417.1260857561
 31
0.0
  0
LINE
  5
2AA
330
1F
100
AcDbEntity
  8
0
  6
Continuous
 62
     7
370
    25
100
AcDbLine
 10
674.7433501725
 20
413.7382436168
 30
0.0
 11
674.7433501725
 21
416.5848357561
 31
0.0
  0
LINE
  5
2AB
330
1F
100
AcDbEntity
  8
0
  6
Continuous
 62
     7
370
    25
100
AcDbLine
 10
674.7433501725
 20
411.667335756
 30
0.0
 11
674.7433501725
 21
413.7382436168
 31
0.0
  0
LINE
  5
2AC
330
1F
100
AcDbEntity
  8
0
  6
Continuous
 62
     7
370
    25
100
AcDbLine
 10
659.7433501725
 20
409.4558197836
 30
0.0
 11
659.7433501725
 21
409.1260857561
 31
0.0
  0
ARC
  5
2AD
330
1F
100
AcDbEntity
  8
0
  6
Continuous
 62
     7
370
    25
100
AcDbCircle
 10
152.2433501725
 20
443.3260857561
 30
0.0
 40
6.0
100
AcDbArc
 50
216.8698976459
 51
270.0
  0
ARC
  5
2AE
330
1F
100
AcDbEntity
  8
0
  6
Continuous
 62
     7
370
    25
100
AcDbCircle
 10
673.2433501725
 20
443.3260857561
 30
0.0
 40
6.000000000000045
100
AcDbArc
 50
270.0
 51
323.1301023542
  0
SPLINE
  5
2AF
330
1F
100
AcDbEntity
  8
0
  6
Continuous
 62
     7
370
    25
100
AcDbSpline
210
0.0
220
0.0
230
1.0
 70
    24
 71
     3
 72
    15
 73
    11
 74
     0
 42
0.000000001
 43
0.00000001
 40
0.0
 40
0.0
 40
0.0
 40
0.0
 40
0.0346967497918684
 40
0.2211884951269673
 40
0.4076802404620663
 40
0.5080720152630804
 40
0.6105942475634837
 40
0.7131164798638872
 40
0.8135082546649014
 40
1.0
 40
1.0
 40
1.0
 40
1.0
 10
161.7433501724774
 20
408.3528369466471
 30
0.0
 10
161.7433501724774
 20
408.3461158430156
 30
0.0
 10
161.7433501724773
 20
408.3032694436628
 30
0.0
 10
161.7433501724773
 20
408.7913104064214
 30
0.0
 10
161.7433501724774
 20
409.8872214638899
 30
0.0
 10
161.7433501724774
 20
411.1061185963375
 30
0.0
 10
161.7433501724773
 20
412.1862938241944
 30
0.0
 10
161.7433501724773
 20
413.3467707266601
 30
0.0
 10
161.7433501724774
 20
414.8773456217752
 30
0.0
 10
161.7433501724774
 20
415.9409715104252
 30
0.0
 10
161.7433501724774
 20
416.6323930611084
 30
0.0
  0
SPLINE
  5
2B0
330
1F
100
AcDbEntity
  8
0
  6
Continuous
 62
     7
370
    25
100
AcDbSpline
210
0.0
220
0.0
230
1.0
 70
    24
 71
     3
 72
    12
 73
     8
 74
     0
 42
0.000000001
 43
0.00000001
 40
0.0
 40
0.0
 40
0.0
 40
0.0
 40
0.3344405486782636
 40
0.5144757571369877
 40
0.6983315710265378
 40
0.8821873849160877
 40
1.0
 40
1.0
 40
1.0
 40
1.0
 10
161.7433501724774
 20
416.6323930611084
 30
0.0
 10
161.7433501724774
 20
417.2565385966103
 30
0.0
 10
161.7433501724775
 20
418.2166726120878
 30
0.0
 10
161.7433501724772
 20
419.1245835183831
 30
0.0
 10
161.7433501724774
 20
419.6303008562992
 30
0.0
 10
161.7433501724774
 20
419.9019205904374
 30
0.0
 10
161.7433501724774
 20
419.9000608589777
 30
0.0
 10
161.7433501724774
 20
419.8993345654528
 30
0.0
  0
SPLINE
  5
2B1
330
1F
100
AcDbEntity
  8
0
  6
Continuous
 62
     7
370
    25
100
AcDbSpline
210
0.0
220
0.0
230
1.0
 70
     8
 71
     3
 72
     8
 73
     4
 74
     0
 42
0.000000001
 43
0.00000001
 40
0.0
 40
0.0
 40
0.0
 40
0.0
 40
1.0
 40
1.0
 40
1.0
 40
1.0
 10
165.7433501724703
 20
413.7426907283635
 30
0.0
 10
165.7433501724703
 20
414.7250691729362
 30
0.0
 10
165.5690348720909
 20
415.680560341126
 30
0.0
 10
165.296768185079
 20
416.6209429904536
 30
0.0
  0
SPLINE
  5
2B2
330
1F
100
AcDbEntity
  8
0
  6
Continuous
 62
     7
370
    25
100
AcDbSpline
210
0.0
220
0.0
230
1.0
 70
     8
 71
     3
 72
     8
 73
     4
 74
     0
 42
0.000000001
 43
0.00000001
 40
0.0
 40
0.0
 40
0.0
 40
0.0
 40
1.0
 40
1.0
 40
1.0
 40
1.0
 10
165.296768185079
 20
410.8644384662734
 30
0.0
 10
165.5690348720904
 20
411.8048211155993
 30
0.0
 10
165.7433501724703
 20
412.7603122837926
 30
0.0
 10
165.7433501724703
 20
413.7426907283635
 30
0.0
  0
LINE
  5
2B3
330
1F
100
AcDbEntity
  8
0
  6
Continuous
 62
     7
370
    25
100
AcDbLine
 10
161.7433501725
 20
410.8644384663
 30
0.0
 11
165.2967681851
 21
410.8644384663
 31
0.0
  0
LINE
  5
2B4
330
1F
100
AcDbEntity
  8
0
  6
Continuous
 62
     7
370
    25
100
AcDbLine
 10
161.7433501725
 20
416.6209429905
 30
0.0
 11
165.2967681851
 21
416.6209429905
 31
0.0
  0
LINE
  5
2B5
330
1F
100
AcDbEntity
  8
0
  6
Continuous
 62
     7
370
    25
100
AcDbLine
 10
165.7433501725
 20
413.7426907284
 30
0.0
 11
165.7433501725
 21
418.2517666353
 31
0.0
  0
SPLINE
  5
2B6
330
1F
100
AcDbEntity
  8
0
  6
Continuous
 62
     7
370
    25
100
AcDbSpline
210
0.0
220
0.0
230
1.0
 70
     8
 71
     3
 72
     8
 73
     4
 74
     0
 42
0.000000001
 43
0.00000001
 40
0.0
 40
0.0
 40
0.0
 40
0.0
 40
1.0
 40
1.0
 40
1.0
 40
1.0
 10
165.2967681850789
 20
416.6209429904596
 30
0.0
 10
165.5690348720903
 20
417.1537657315245
 30
0.0
 10
165.7433501724703
 20
417.6951489904191
 30
0.0
 10
165.7433501724703
 20
418.2517666353475
 30
0.0
  0
LINE
  5
2B7
330
1F
100
AcDbEntity
  8
0
  6
Continuous
 62
     7
370
    25
100
AcDbLine
 10
165.7433501725
 20
409.6170098491
 30
0.0
 11
165.7433501725
 21
413.7426907284
 31
0.0
  0
SPLINE
  5
2B8
330
1F
100
AcDbEntity
  8
0
  6
Continuous
 62
     7
370
    25
100
AcDbSpline
210
0.0
220
0.0
230
1.0
 70
     8
 71
     3
 72
     8
 73
     4
 74
     0
 42
0.000000001
 43
0.00000001
 40
0.0
 40
0.0
 40
0.0
 40
0.0
 40
1.0
 40
1.0
 40
1.0
 40
1.0
 10
165.7433501724702
 20
409.6170098490659
 30
0.0
 10
165.7433501724702
 20
410.0427706487092
 30
0.0
 10
165.5690348720908
 20
410.4568785580062
 30
0.0
 10
165.2967681850789
 20
410.8644384662679
 30
0.0
  0
SPLINE
  5
2B9
330
1F
100
AcDbEntity
  8
0
  6
Continuous
 62
     7
370
    25
100
AcDbSpline
210
0.0
220
0.0
230
1.0
 70
     8
 71
     3
 72
     8
 73
     4
 74
     0
 42
0.000000001
 43
0.00000001
 40
0.0
 40
0.0
 40
0.0
 40
0.0
 40
1.0
 40
1.0
 40
1.0
 40
1.0
 10
165.7433501724703
 20
418.2517666353475
 30
0.0
 10
165.7433501724703
 20
418.8083842802774
 30
0.0
 10
165.569034872091
 20
419.3497675391692
 30
0.0
 10
165.2967681850789
 20
419.8825902802354
 30
0.0
  0
LINE
  5
2BA
330
1F
100
AcDbEntity
  8
0
  6
Continuous
 62
     7
370
    25
100
AcDbLine
 10
165.2967681851
 20
419.8825902802
 30
0.0
 11
161.7433501725
 21
419.8825902802
 31
0.0
  0
SPLINE
  5
2BB
330
1F
100
AcDbEntity
  8
0
  6
Continuous
 62
     7
370
    25
100
AcDbSpline
210
0.0
220
0.0
230
1.0
 70
     8
 71
     3
 72
     8
 73
     4
 74
     0
 42
0.000000001
 43
0.00000001
 40
0.0
 40
0.0
 40
0.0
 40
0.0
 40
1.0
 40
1.0
 40
1.0
 40
1.0
 10
165.2967681850789
 20
408.3695812318639
 30
0.0
 10
165.5690348720903
 20
408.7771411401249
 30
0.0
 10
165.7433501724702
 20
409.1912490494235
 30
0.0
 10
165.7433501724702
 20
409.6170098490659
 30
0.0
  0
LINE
  5
2BC
330
1F
100
AcDbEntity
  8
0
  6
Continuous
 62
     7
370
    25
100
AcDbLine
 10
161.7433501725
 20
408.3695812319
 30
0.0
 11
165.2967681851
 21
408.3695812319
 31
0.0
  0
LINE
  5
2BD
330
1F
100
AcDbEntity
  8
0
  6
Continuous
 62
     7
370
    25
100
AcDbLine
 10
151.2846001725
 20
417.126085756
 30
0.0
 11
151.2846001725
 21
411.126085756
 31
0.0
  0
LINE
  5
2BE
330
1F
100
AcDbEntity
  8
0
  6
Continuous
 62
     7
370
    25
100
AcDbLine
 10
150.7433501725
 20
411.9087476788
 30
0.0
 11
150.7433501725
 21
411.667335756
 31
0.0
  0
LINE
  5
2BF
330
1F
100
AcDbEntity
  8
0
  6
Continuous
 62
     7
370
    25
100
AcDbLine
 10
150.7433501725
 20
416.5848357561
 30
0.0
 11
150.7433501725
 21
411.9087476788
 31
0.0
  0
LINE
  5
2C0
330
1F
100
AcDbEntity
  8
0
  6
Continuous
 62
     7
370
    25
100
AcDbLine
 10
165.2967681851
 20
419.8825902802
 30
0.0
 11
165.3719559406
 21
419.6725698124
 31
0.0
  0
LINE
  5
2C1
330
1F
100
AcDbEntity
  8
0
  6
Continuous
 62
     7
370
    25
100
AcDbLine
 10
165.7433501725
 20
418.2517666353
 30
0.0
 11
165.7433501725
 21
419.126085756
 31
0.0
  0
LINE
  5
2C2
330
1F
100
AcDbEntity
  8
0
  6
Continuous
 62
     7
370
    25
100
AcDbLine
 10
165.7433501725
 20
409.1260857561
 30
0.0
 11
165.7433501725
 21
409.6170098491
 31
0.0
  0
ARC
  5
2C3
330
1F
100
AcDbEntity
  8
0
  6
Continuous
 62
     7
370
    25
100
AcDbCircle
 10
664.4433501725
 20
107.2463019205
 30
0.0
 40
0.5000000000001137
100
AcDbArc
 50
180.0
 51
0.0
  0
ARC
  5
2C4
330
1F
100
AcDbEntity
  8
0
  6
Continuous
 62
     7
370
    25
100
AcDbCircle
 10
664.4433501725
 20
118.8463019207
 30
0.0
 40
0.5000000000001137
100
AcDbArc
 50
0.0
 51
180.0
  0
LINE
  5
2C5
330
1F
100
AcDbEntity
  8
0
  6
Continuous
 62
     7
370
    25
100
AcDbLine
 10
674.4021001725
 20
110.0463019206
 30
0.0
 11
674.9433501725
 21
110.5875519206
 31
0.0
  0
LINE
  5
2C6
330
1F
100
AcDbEntity
  8
0
  6
Continuous
 62
     7
370
    25
100
AcDbLine
 10
674.9433501725
 20
115.5050519206
 30
0.0
 11
674.4021001725
 21
116.0463019206
 31
0.0
  0
LINE
  5
2C7
330
1F
100
AcDbEntity
  8
0
  6
Continuous
 62
     7
370
    25
100
AcDbLine
 10
674.4021001725
 20
116.0463019206
 30
0.0
 11
665.7433501725
 21
116.0463019206
 31
0.0
  0
LINE
  5
2C8
330
1F
100
AcDbEntity
  8
0
  6
Continuous
 62
     7
370
    25
100
AcDbLine
 10
665.7433501725
 20
110.0463019206
 30
0.0
 11
674.4021001725
 21
110.0463019206
 31
0.0
  0
LINE
  5
2C9
330
1F
100
AcDbEntity
  8
0
  6
Continuous
 62
     7
370
    25
100
AcDbLine
 10
647.7885647581
 20
104.4181246732
 30
0.0
 11
647.3933501725
 21
104.6463019206
 31
0.0
  0
LINE
  5
2CA
330
1F
100
AcDbEntity
  8
0
  6
Continuous
 62
     7
370
    25
100
AcDbLine
 10
641.0933501725
 20
104.6463019206
 30
0.0
 11
640.6628118775
 21
104.3977305201
 31
0.0
  0
LINE
  5
2CB
330
1F
100
AcDbEntity
  8
0
  6
Continuous
 62
     7
370
    25
100
AcDbLine
 10
640.6628118775
 20
101.6948733211
 30
0.0
 11
641.0933501725
 21
101.4463019206
 31
0.0
  0
LINE
  5
2CC
330
1F
100
AcDbEntity
  8
0
  6
Continuous
 62
     7
370
    25
100
AcDbLine
 10
647.3933501725
 20
101.4463019206
 30
0.0
 11
647.7885647581
 21
101.674479168
 31
0.0
  0
LINE
  5
2CD
330
1F
100
AcDbEntity
  8
0
  6
Continuous
 62
     7
370
    25
100
AcDbLine
 10
334.7885647581
 20
104.4181246732
 30
0.0
 11
334.3933501725
 21
104.6463019206
 31
0.0
  0
LINE
  5
2CE
330
1F
100
AcDbEntity
  8
0
  6
Continuous
 62
     7
370
    25
100
AcDbLine
 10
328.0933501725
 20
104.6463019206
 30
0.0
 11
327.6628118775
 21
104.3977305201
 31
0.0
  0
LINE
  5
2CF
330
1F
100
AcDbEntity
  8
0
  6
Continuous
 62
     7
370
    25
100
AcDbLine
 10
327.6628118775
 20
101.6948733211
 30
0.0
 11
328.0933501725
 21
101.4463019206
 31
0.0
  0
LINE
  5
2D0
330
1F
100
AcDbEntity
  8
0
  6
Continuous
 62
     7
370
    25
100
AcDbLine
 10
334.3933501725
 20
101.4463019206
 30
0.0
 11
334.7885647581
 21
101.674479168
 31
0.0
  0
LINE
  5
2D1
330
1F
100
AcDbEntity
  8
0
  6
Continuous
 62
     7
370
    25
100
AcDbLine
 10
497.7885647581
 20
104.4181246732
 30
0.0
 11
497.3933501725
 21
104.6463019206
 31
0.0
  0
LINE
  5
2D2
330
1F
100
AcDbEntity
  8
0
  6
Continuous
 62
     7
370
    25
100
AcDbLine
 10
491.0933501725
 20
104.6463019206
 30
0.0
 11
490.6628118775
 21
104.3977305201
 31
0.0
  0
LINE
  5
2D3
330
1F
100
AcDbEntity
  8
0
  6
Continuous
 62
     7
370
    25
100
AcDbLine
 10
490.6628118775
 20
101.6948733211
 30
0.0
 11
491.0933501725
 21
101.4463019206
 31
0.0
  0
LINE
  5
2D4
330
1F
100
AcDbEntity
  8
0
  6
Continuous
 62
     7
370
    25
100
AcDbLine
 10
497.3933501725
 20
101.4463019206
 30
0.0
 11
497.7885647581
 21
101.674479168
 31
0.0
  0
LINE
  5
2D5
330
1F
100
AcDbEntity
  8
0
  6
Continuous
 62
     7
370
    25
100
AcDbLine
 10
184.7885647581
 20
104.4181246732
 30
0.0
 11
184.3933501725
 21
104.6463019206
 31
0.0
  0
LINE
  5
2D6
330
1F
100
AcDbEntity
  8
0
  6
Continuous
 62
     7
370
    25
100
AcDbLine
 10
178.0933501725
 20
104.6463019206
 30
0.0
 11
177.6628118775
 21
104.3977305201
 31
0.0
  0
LINE
  5
2D7
330
1F
100
AcDbEntity
  8
0
  6
Continuous
 62
     7
370
    25
100
AcDbLine
 10
177.6628118775
 20
101.6948733211
 30
0.0
 11
178.0933501725
 21
101.4463019206
 31
0.0
  0
LINE
  5
2D8
330
1F
100
AcDbEntity
  8
0
  6
Continuous
 62
     7
370
    25
100
AcDbLine
 10
184.3933501725
 20
101.4463019206
 30
0.0
 11
184.7885647581
 21
101.674479168
 31
0.0
  0
LINE
  5
2D9
330
1F
100
AcDbEntity
  8
0
  6
Continuous
 62
     7
370
    25
100
AcDbLine
 10
160.2433501725
 20
87.9963019206
 30
0.0
 11
665.2433501725
 21
87.9963019206
 31
0.0
  0
LINE
  5
2DA
330
1F
100
AcDbEntity
  8
0
  6
Continuous
 62
     7
370
    25
100
AcDbLine
 10
642.2433501725
 20
109.7463019206
 30
0.0
 11
642.2433501725
 21
104.6463019206
 31
0.0
  0
LINE
  5
2DB
330
1F
100
AcDbEntity
  8
0
  6
Continuous
 62
     7
370
    25
100
AcDbLine
 10
642.2433501725
 20
101.4463019206
 30
0.0
 11
642.2433501725
 21
101.3463019206
 31
0.0
  0
LINE
  5
2DC
330
1F
100
AcDbEntity
  8
0
  6
Continuous
 62
     7
370
    25
100
AcDbLine
 10
646.2433501725
 20
101.3463019206
 30
0.0
 11
646.2433501725
 21
101.4463019206
 31
0.0
  0
LINE
  5
2DD
330
1F
100
AcDbEntity
  8
0
  6
Continuous
 62
     7
370
    25
100
AcDbLine
 10
646.2433501725
 20
104.6463019206
 30
0.0
 11
646.2433501725
 21
109.7463019206
 31
0.0
  0
LINE
  5
2DE
330
1F
100
AcDbEntity
  8
0
  6
Continuous
 62
     7
370
    25
100
AcDbLine
 10
329.2433501725
 20
109.7463019206
 30
0.0
 11
329.2433501725
 21
104.6463019206
 31
0.0
  0
LINE
  5
2DF
330
1F
100
AcDbEntity
  8
0
  6
Continuous
 62
     7
370
    25
100
AcDbLine
 10
329.2433501725
 20
101.4463019206
 30
0.0
 11
329.2433501725
 21
101.3463019206
 31
0.0
  0
LINE
  5
2E0
330
1F
100
AcDbEntity
  8
0
  6
Continuous
 62
     7
370
    25
100
AcDbLine
 10
333.2433501725
 20
101.3463019206
 30
0.0
 11
333.2433501725
 21
101.4463019206
 31
0.0
  0
LINE
  5
2E1
330
1F
100
AcDbEntity
  8
0
  6
Continuous
 62
     7
370
    25
100
AcDbLine
 10
333.2433501725
 20
104.6463019206
 30
0.0
 11
333.2433501725
 21
109.7463019206
 31
0.0
  0
LINE
  5
2E2
330
1F
100
AcDbEntity
  8
0
  6
Continuous
 62
     7
370
    25
100
AcDbLine
 10
492.2433501725
 20
109.7463019206
 30
0.0
 11
492.2433501725
 21
104.6463019206
 31
0.0
  0
LINE
  5
2E3
330
1F
100
AcDbEntity
  8
0
  6
Continuous
 62
     7
370
    25
100
AcDbLine
 10
492.2433501725
 20
101.4463019206
 30
0.0
 11
492.2433501725
 21
101.3463019206
 31
0.0
  0
LINE
  5
2E4
330
1F
100
AcDbEntity
  8
0
  6
Continuous
 62
     7
370
    25
100
AcDbLine
 10
496.2433501725
 20
101.3463019206
 30
0.0
 11
496.2433501725
 21
101.4463019206
 31
0.0
  0
LINE
  5
2E5
330
1F
100
AcDbEntity
  8
0
  6
Continuous
 62
     7
370
    25
100
AcDbLine
 10
496.2433501725
 20
104.6463019206
 30
0.0
 11
496.2433501725
 21
109.7463019206
 31
0.0
  0
LINE
  5
2E6
330
1F
100
AcDbEntity
  8
0
  6
Continuous
 62
     7
370
    25
100
AcDbLine
 10
179.2433501725
 20
109.7463019206
 30
0.0
 11
179.2433501725
 21
104.6463019206
 31
0.0
  0
LINE
  5
2E7
330
1F
100
AcDbEntity
  8
0
  6
Continuous
 62
     7
370
    25
100
AcDbLine
 10
179.2433501725
 20
101.4463019206
 30
0.0
 11
179.2433501725
 21
101.3463019206
 31
0.0
  0
LINE
  5
2E8
330
1F
100
AcDbEntity
  8
0
  6
Continuous
 62
     7
370
    25
100
AcDbLine
 10
183.2433501725
 20
101.3463019206
 30
0.0
 11
183.2433501725
 21
101.4463019206
 31
0.0
  0
LINE
  5
2E9
330
1F
100
AcDbEntity
  8
0
  6
Continuous
 62
     7
370
    25
100
AcDbLine
 10
183.2433501725
 20
104.6463019206
 30
0.0
 11
183.2433501725
 21
109.7463019206
 31
0.0
  0
ARC
  5
2EA
330
1F
100
AcDbEntity
  8
0
  6
Continuous
 62
     7
370
    25
100
AcDbCircle
 10
161.0433501725
 20
118.8463019207
 30
0.0
 40
0.5
100
AcDbArc
 50
0.0
 51
180.0
  0
ARC
  5
2EB
330
1F
100
AcDbEntity
  8
0
  6
Continuous
 62
     7
370
    25
100
AcDbCircle
 10
161.0433501725
 20
107.2463019205
 30
0.0
 40
0.5
100
AcDbArc
 50
180.0
 51
0.0
  0
LINE
  5
2EC
330
1F
100
AcDbEntity
  8
0
  6
Continuous
 62
     7
370
    25
100
AcDbLine
 10
151.0846001725
 20
116.0463019206
 30
0.0
 11
150.5433501725
 21
115.5050519206
 31
0.0
  0
LINE
  5
2ED
330
1F
100
AcDbEntity
  8
0
  6
Continuous
 62
     7
370
    25
100
AcDbLine
 10
150.5433501725
 20
110.5875519206
 30
0.0
 11
151.0846001725
 21
110.0463019206
 31
0.0
  0
LINE
  5
2EE
330
1F
100
AcDbEntity
  8
0
  6
Continuous
 62
     7
370
    25
100
AcDbLine
 10
151.0846001725
 20
110.0463019206
 30
0.0
 11
159.7433501725
 21
110.0463019206
 31
0.0
  0
LINE
  5
2EF
330
1F
100
AcDbEntity
  8
0
  6
Continuous
 62
     7
370
    25
100
AcDbLine
 10
159.7433501725
 20
116.0463019206
 30
0.0
 11
151.0846001725
 21
116.0463019206
 31
0.0
  0
LINE
  5
2F0
330
1F
100
AcDbEntity
  8
0
  6
Continuous
 62
     7
370
    25
100
AcDbLine
 10
165.5433501725
 20
118.0463019206
 30
0.0
 11
165.2138670767
 21
118.6169833827
 31
0.0
  0
LINE
  5
2F1
330
1F
100
AcDbEntity
  8
0
  6
Continuous
 62
     7
370
    25
100
AcDbLine
 10
165.2138670767
 20
107.4756204585
 30
0.0
 11
165.5433501725
 21
108.0463019206
 31
0.0
  0
LINE
  5
2F2
330
1F
100
AcDbEntity
  8
0
  6
Continuous
 62
     7
370
    25
100
AcDbLine
 10
158.2433501725
 20
89.8463019206
 30
0.0
 11
152.2433501725
 21
89.8463019206
 31
0.0
  0
LINE
  5
2F3
330
1F
100
AcDbEntity
  8
0
  6
Continuous
 62
     7
370
    25
100
AcDbLine
 10
667.2433501725
 20
89.8463019206
 30
0.0
 11
665.0712571492
 21
89.8463019206
 31
0.0
  0
LINE
  5
2F4
330
1F
100
AcDbEntity
  8
0
  6
Continuous
 62
     7
370
    25
100
AcDbLine
 10
160.4154431957
 20
89.8463019206
 30
0.0
 11
158.2433501725
 21
89.8463019206
 31
0.0
  0
LINE
  5
2F5
330
1F
100
AcDbEntity
  8
0
  6
Continuous
 62
     7
370
    25
100
AcDbLine
 10
673.2433501725
 20
89.8463019206
 30
0.0
 11
667.2433501725
 21
89.8463019206
 31
0.0
  0
SPLINE
  5
2F6
330
1F
100
AcDbEntity
  8
0
  6
Continuous
 62
     7
370
    25
100
AcDbSpline
210
0.0
220
0.0
230
1.0
 70
    24
 71
     3
 72
     9
 73
     5
 74
     0
 42
0.000000001
 43
0.00000001
 40
0.0
 40
0.0
 40
0.0
 40
0.0
 40
0.5153941859635006
 40
1.0
 40
1.0
 40
1.0
 40
1.0
 10
664.9433501724773
 20
118.7213119206162
 30
0.0
 10
664.9433501724773
 20
118.7650537686719
 30
0.0
 10
664.9433501724773
 20
118.8499244351383
 30
0.0
 10
664.9433501724773
 20
118.8271679998949
 30
0.0
 10
664.9433501724773
 20
118.8161400990692
 30
0.0
  0
SPLINE
  5
2F7
330
1F
100
AcDbEntity
  8
0
  6
Continuous
 62
     7
370
    25
100
AcDbSpline
210
0.0
220
0.0
230
1.0
 70
    24
 71
     3
 72
    17
 73
    13
 74
     0
 42
0.000000001
 43
0.00000001
 40
0.0
 40
0.0
 40
0.0
 40
0.0
 40
0.0359921626376355
 40
0.1205930661280429
 40
0.2034359252874598
 40
0.3573281084250902
 40
0.5112202915627202
 40
0.5940631507221374
 40
0.6786640542125453
 40
0.7632649577029527
 40
0.8461078168623697
 40
1.0
 40
1.0
 40
1.0
 40
1.0
 10
663.9433501724773
 20
118.8161400990801
 30
0.0
 10
663.9433501724774
 20
118.8232914861214
 30
0.0
 10
663.9433501724774
 20
118.8472524717132
 30
0.0
 10
663.9433501724773
 20
118.6292475454775
 30
0.0
 10
663.9433501724773
 20
118.0574604483904
 30
0.0
 10
663.9433501724772
 20
116.8604438723001
 30
0.0
 10
663.9433501724774
 20
115.214387112423
 30
0.0
 10
663.9433501724773
 20
113.7291967602092
 30
0.0
 10
663.9433501724773
 20
112.533168635835
 30
0.0
 10
663.9433501724774
 20
111.3634032230456
 30
0.0
 10
663.9433501724772
 20
109.9414560424618
 30
0.0
 10
663.9433501724772
 20
109.1291887626016
 30
0.0
 10
663.9433501724773
 20
108.6011656031401
 30
0.0
  0
SPLINE
  5
2F8
330
1F
100
AcDbEntity
  8
0
  6
Continuous
 62
     7
370
    25
100
AcDbSpline
210
0.0
220
0.0
230
1.0
 70
     8
 71
     3
 72
     8
 73
     4
 74
     0
 42
0.000000001
 43
0.00000001
 40
0.0
 40
0.0
 40
0.0
 40
0.0
 40
1.0
 40
1.0
 40
1.0
 40
1.0
 10
659.9433501724845
 20
116.2581033182947
 30
0.0
 10
659.9433501724845
 20
115.5029825119867
 30
0.0
 10
660.1176654728638
 20
114.7685290380433
 30
0.0
 10
660.3899321598757
 20
114.045688967273
 30
0.0
  0
SPLINE
  5
2F9
330
1F
100
AcDbEntity
  8
0
  6
Continuous
 62
     7
370
    25
100
AcDbSpline
210
0.0
220
0.0
230
1.0
 70
     8
 71
     3
 72
     8
 73
     4
 74
     0
 42
0.000000001
 43
0.00000001
 40
0.0
 40
0.0
 40
0.0
 40
0.0
 40
1.0
 40
1.0
 40
1.0
 40
1.0
 10
660.3899321598757
 20
118.4705176693165
 30
0.0
 10
660.1176654728642
 20
117.7476775985472
 30
0.0
 10
659.9433501724845
 20
117.0132241246015
 30
0.0
 10
659.9433501724845
 20
116.2581033182947
 30
0.0
  0
LINE
  5
2FA
330
1F
100
AcDbEntity
  8
0
  6
Continuous
 62
     7
370
    25
100
AcDbLine
 10
660.3899321599
 20
118.4705176693
 30
0.0
 11
663.9433501725
 21
118.4705176693
 31
0.0
  0
LINE
  5
2FB
330
1F
100
AcDbEntity
  8
0
  6
Continuous
 62
     7
370
    25
100
AcDbLine
 10
663.9433501725
 20
114.0456889673
 30
0.0
 11
660.3899321599
 21
114.0456889673
 31
0.0
  0
SPLINE
  5
2FC
330
1F
100
AcDbEntity
  8
0
  6
Continuous
 62
     7
370
    25
100
AcDbSpline
210
0.0
220
0.0
230
1.0
 70
     8
 71
     3
 72
     8
 73
     4
 74
     0
 42
0.000000001
 43
0.00000001
 40
0.0
 40
0.0
 40
0.0
 40
0.0
 40
1.0
 40
1.0
 40
1.0
 40
1.0
 10
659.9433501724843
 20
111.3335810929177
 30
0.0
 10
659.9433501724843
 20
110.4079095142974
 30
0.0
 10
660.1176654728638
 20
109.5075731694781
 30
0.0
 10
660.3899321598756
 20
108.6214732185689
 30
0.0
  0
SPLINE
  5
2FD
330
1F
100
AcDbEntity
  8
0
  6
Continuous
 62
     7
370
    25
100
AcDbSpline
210
0.0
220
0.0
230
1.0
 70
     8
 71
     3
 72
     8
 73
     4
 74
     0
 42
0.000000001
 43
0.00000001
 40
0.0
 40
0.0
 40
0.0
 40
0.0
 40
1.0
 40
1.0
 40
1.0
 40
1.0
 10
660.3899321598756
 20
114.0456889672664
 30
0.0
 10
660.1176654728642
 20
113.1595890163589
 30
0.0
 10
659.9433501724843
 20
112.2592526715362
 30
0.0
 10
659.9433501724843
 20
111.3335810929177
 30
0.0
  0
LINE
  5
2FE
330
1F
100
AcDbEntity
  8
0
  6
Continuous
 62
     7
370
    25
100
AcDbLine
 10
663.9433501725
 20
108.6214732186
 30
0.0
 11
660.3899321599
 21
108.6214732186
 31
0.0
  0
LINE
  5
2FF
330
1F
100
AcDbEntity
  8
0
  6
Continuous
 62
     7
370
    25
100
AcDbLine
 10
659.9433501725
 20
116.2581033183
 30
0.0
 11
659.9433501725
 21
111.3335810929
 31
0.0
  0
SPLINE
  5
300
330
1F
100
AcDbEntity
  8
0
  6
Continuous
 62
     7
370
    25
100
AcDbSpline
210
0.0
220
0.0
230
1.0
 70
     8
 71
     3
 72
     8
 73
     4
 74
     0
 42
0.000000001
 43
0.00000001
 40
0.0
 40
0.0
 40
0.0
 40
0.0
 40
1.0
 40
1.0
 40
1.0
 40
1.0
 10
660.3899321598757
 20
108.6214732185645
 30
0.0
 10
660.1176654728644
 20
108.4582133384261
 30
0.0
 10
659.9433501724844
 20
108.2923304675497
 30
0.0
 10
659.9433501724844
 20
108.1217796952378
 30
0.0
  0
LINE
  5
301
330
1F
100
AcDbEntity
  8
0
  6
Continuous
 62
     7
370
    25
100
AcDbLine
 10
659.9433501725
 20
111.3335810929
 30
0.0
 11
659.9433501725
 21
108.1217796952
 31
0.0
  0
SPLINE
  5
302
330
1F
100
AcDbEntity
  8
0
  6
Continuous
 62
     7
370
    25
100
AcDbSpline
210
0.0
220
0.0
230
1.0
 70
     8
 71
     3
 72
     8
 73
     4
 74
     0
 42
0.000000001
 43
0.00000001
 40
0.0
 40
0.0
 40
0.0
 40
0.0
 40
1.0
 40
1.0
 40
1.0
 40
1.0
 10
659.9433501724845
 20
117.9708241459921
 30
0.0
 10
659.9433501724845
 20
118.1413749183044
 30
0.0
 10
660.1176654728637
 20
118.30725778918
 30
0.0
 10
660.3899321598757
 20
118.4705176693188
 30
0.0
  0
LINE
  5
303
330
1F
100
AcDbEntity
  8
0
  6
Continuous
 62
     7
370
    25
100
AcDbLine
 10
659.9433501725
 20
116.2581033183
 30
0.0
 11
659.9433501725
 21
118.0416638864
 31
0.0
  0
SPLINE
  5
304
330
1F
100
AcDbEntity
  8
0
  6
Continuous
 62
     7
370
    25
100
AcDbSpline
210
0.0
220
0.0
230
1.0
 70
     8
 71
     3
 72
     8
 73
     4
 74
     0
 42
0.000000001
 43
0.00000001
 40
0.0
 40
0.0
 40
0.0
 40
0.0
 40
1.0
 40
1.0
 40
1.0
 40
1.0
 10
659.9433501724844
 20
108.1217796952378
 30
0.0
 10
659.9433501724844
 20
107.9512289229256
 30
0.0
 10
660.1176654728639
 20
107.7853460520498
 30
0.0
 10
660.3899321598757
 20
107.6220861719111
 30
0.0
  0
LINE
  5
305
330
1F
100
AcDbEntity
  8
0
  6
Continuous
 62
     7
370
    25
100
AcDbLine
 10
663.9433501725
 20
107.6220861719
 30
0.0
 11
660.3899321599
 21
107.6220861719
 31
0.0
  0
LINE
  5
306
330
1F
100
AcDbEntity
  8
0
  6
Continuous
 62
     7
370
    25
100
AcDbLine
 10
674.9433501725
 20
110.5875519206
 30
0.0
 11
674.9433501725
 21
115.5050519206
 31
0.0
  0
LINE
  5
307
330
1F
100
AcDbEntity
  8
0
  6
Continuous
 62
     7
370
    25
100
AcDbLine
 10
674.4021001725
 20
114.9733827592
 30
0.0
 11
674.4021001725
 21
116.0463019206
 31
0.0
  0
LINE
  5
308
330
1F
100
AcDbEntity
  8
0
  6
Continuous
 62
     7
370
    25
100
AcDbLine
 10
674.4021001725
 20
110.0463019206
 30
0.0
 11
674.4021001725
 21
114.9733827592
 31
0.0
  0
ARC
  5
309
330
1F
100
AcDbEntity
  8
0
  6
Continuous
 62
     7
370
    25
100
AcDbCircle
 10
667.2433501725
 20
90.4463019206
 30
0.0
 40
3.0
100
AcDbArc
 50
227.6305369016
 51
270.0
  0
LINE
  5
30A
330
1F
100
AcDbEntity
  8
0
  6
Continuous
 62
     7
370
    25
100
AcDbLine
 10
679.2433501725
 20
87.4463019206
 30
0.0
 11
667.2433501725
 21
87.4463019206
 31
0.0
  0
ARC
  5
30B
330
1F
100
AcDbEntity
  8
0
  6
Continuous
 62
     7
370
    25
100
AcDbCircle
 10
679.2433501725
 20
90.4463019206
 30
0.0
 40
3.0
100
AcDbArc
 50
270.0
 51
0.0
  0
LINE
  5
30C
330
1F
100
AcDbEntity
  8
0
  6
Continuous
 62
     7
370
    25
100
AcDbLine
 10
682.2433501725
 20
91.4463019206
 30
0.0
 11
682.2433501725
 21
90.4463019206
 31
0.0
  0
ARC
  5
30D
330
1F
100
AcDbEntity
  8
0
  6
Continuous
 62
     7
370
    25
100
AcDbCircle
 10
685.2433501725
 20
91.4463019206
 30
0.0
 40
3.0
100
AcDbArc
 50
90.0
 51
180.0
  0
LINE
  5
30E
330
1F
100
AcDbEntity
  8
0
  6
Continuous
 62
     7
370
    25
100
AcDbLine
 10
708.7726394944
 20
94.4463019206
 30
0.0
 11
685.2433501725
 21
94.4463019206
 31
0.0
  0
LINE
  5
30F
330
1F
100
AcDbEntity
  8
0
  6
Continuous
 62
     7
370
    25
100
AcDbLine
 10
708.7726394944
 20
84.8463019206
 30
0.0
 11
708.7726394944
 21
94.4463019206
 31
0.0
  0
LINE
  5
310
330
1F
100
AcDbEntity
  8
0
  6
Continuous
 62
     7
370
    25
100
AcDbLine
 10
116.7140608506
 20
84.8463019206
 30
0.0
 11
116.7140608506
 21
94.4463019206
 31
0.0
  0
LINE
  5
311
330
1F
100
AcDbEntity
  8
0
  6
Continuous
 62
     7
370
    25
100
AcDbLine
 10
140.2433501725
 20
94.4463019206
 30
0.0
 11
116.7140608506
 21
94.4463019206
 31
0.0
  0
ARC
  5
312
330
1F
100
AcDbEntity
  8
0
  6
Continuous
 62
     7
370
    25
100
AcDbCircle
 10
140.2433501725
 20
91.4463019206
 30
0.0
 40
3.0
100
AcDbArc
 50
0.0
 51
90.0
  0
LINE
  5
313
330
1F
100
AcDbEntity
  8
0
  6
Continuous
 62
     7
370
    25
100
AcDbLine
 10
143.2433501725
 20
91.4463019206
 30
0.0
 11
143.2433501725
 21
90.4463019206
 31
0.0
  0
ARC
  5
314
330
1F
100
AcDbEntity
  8
0
  6
Continuous
 62
     7
370
    25
100
AcDbCircle
 10
146.2433501725
 20
90.4463019206
 30
0.0
 40
3.0
100
AcDbArc
 50
180.0
 51
270.0
  0
LINE
  5
315
330
1F
100
AcDbEntity
  8
0
  6
Continuous
 62
     7
370
    25
100
AcDbLine
 10
146.2433501725
 20
87.4463019206
 30
0.0
 11
158.2433501725
 21
87.4463019206
 31
0.0
  0
ARC
  5
316
330
1F
100
AcDbEntity
  8
0
  6
Continuous
 62
     7
370
    25
100
AcDbCircle
 10
158.2433501725
 20
90.4463019206
 30
0.0
 40
3.0
100
AcDbArc
 50
270.0
 51
312.3694630984
  0
SPLINE
  5
317
330
1F
100
AcDbEntity
  8
0
  6
Continuous
 62
     7
370
    25
100
AcDbSpline
210
0.0
220
0.0
230
1.0
 70
     8
 71
     3
 72
    20
 73
    16
 74
     0
 42
0.000000001
 43
0.00000001
 40
0.0
 40
0.0
 40
0.0
 40
0.0
 40
0.1249999999999984
 40
0.1249999999999984
 40
0.2499999999999967
 40
0.2499999999999967
 40
0.3749999999999951
 40
0.3749999999999951
 40
0.4999999999999934
 40
0.4999999999999934
 40
0.7499999999999967
 40
0.7499999999999967
 40
0.8749999999999983
 40
0.8749999999999983
 40
1.0
 40
1.0
 40
1.0
 40
1.0
 10
117.6433501724775
 20
82.4463019206162
 30
0.0
 10
117.6043094416229
 20
82.4463019206162
 30
0.0
 10
117.5657907374231
 20
82.46183848109104
 30
0.0
 10
117.4883839861153
 20
82.52315683305163
 30
0.0
 10
117.4492395681284
 20
82.56958057863844
 30
0.0
 10
117.3720888142133
 20
82.68953144879256
 30
0.0
 10
117.3337612324722
 20
82.76313609307599
 30
0.0
 10
117.2562149119957
 20
82.9378664591716
 30
0.0
 10
117.217238704327
 20
83.03871708807314
 30
0.0
 10
117.1017438478822
 20
83.37000236805713
 30
0.0
 10
117.023831404212
 20
83.63768252944098
 30
0.0
 10
116.9083514788111
 20
84.07035655549639
 30
0.0
 10
116.869485682946
 20
84.22187464234753
 30
0.0
 10
116.7917113492776
 20
84.53130039973365
 30
0.0
 10
116.7531015823228
 20
84.68792272942741
 30
0.0
 10
116.7140608505962
 20
84.84630192061616
 30
0.0
  0
SPLINE
  5
318
330
1F
100
AcDbEntity
  8
0
  6
Continuous
 62
     7
370
    25
100
AcDbSpline
210
0.0
220
0.0
230
1.0
 70
     8
 71
     3
 72
    20
 73
    16
 74
     0
 42
0.000000001
 43
0.00000001
 40
0.0
 40
0.0
 40
0.0
 40
0.0
 40
0.1249999999999966
 40
0.1249999999999966
 40
0.2499999999999931
 40
0.2499999999999931
 40
0.3749999999999895
 40
0.3749999999999895
 40
0.499999999999986
 40
0.499999999999986
 40
0.749999999999993
 40
0.749999999999993
 40
0.8749999999999964
 40
0.8749999999999964
 40
1.0
 40
1.0
 40
1.0
 40
1.0
 10
708.7726394943587
 20
84.84630192061617
 30
0.0
 10
708.7335987635042
 20
84.68792273296546
 30
0.0
 10
708.6950800593046
 20
84.53167700827382
 30
0.0
 10
708.6176733079965
 20
84.2236851588572
 30
0.0
 10
708.5785288900099
 20
84.07104105138606
 30
0.0
 10
708.5013781360947
 20
83.78195676219902
 30
0.0
 10
708.4630505543537
 20
83.64415222401495
 30
0.0
 10
708.3855042338771
 20
83.38253354837603
 30
0.0
 10
708.3465280262084
 20
83.25978724169337
 30
0.0
 10
708.2310331697632
 20
82.92846286474571
 30
0.0
 10
708.1531207260931
 20
82.74945174071748
 30
0.0
 10
708.0376408006923
 20
82.56983664133658
 30
0.0
 10
707.9987750048273
 20
82.52359229246886
 30
0.0
 10
707.9210006711589
 20
82.46183898645765
 30
0.0
 10
707.882390904204
 20
82.4463019206162
 30
0.0
 10
707.8433501724775
 20
82.4463019206162
 30
0.0
  0
LINE
  5
319
330
1F
100
AcDbEntity
  8
0
  6
Continuous
 62
     7
370
    25
100
AcDbLine
 10
707.8433501725
 20
82.4463019206
 30
0.0
 11
117.6433501725
 21
82.4463019206
 31
0.0
  0
SPLINE
  5
31A
330
1F
100
AcDbEntity
  8
0
  6
Continuous
 62
     7
370
    25
100
AcDbSpline
210
0.0
220
0.0
230
1.0
 70
     8
 71
     3
 72
     9
 73
     5
 74
     0
 42
0.000000001
 43
0.00000001
 40
0.0
 40
0.0
 40
0.0
 40
0.0
 40
0.482578428729163
 40
1.0
 40
1.0
 40
1.0
 40
1.0
 10
708.6195204044238
 20
84.23376218143818
 30
0.0
 10
708.6833285974852
 20
84.32189652275456
 30
0.0
 10
708.8155520647246
 20
84.50452868380755
 30
0.0
 10
708.833871369181
 20
84.72976156785202
 30
0.0
 10
708.8433501724775
 20
84.84630192061618
 30
0.0
  0
LINE
  5
31B
330
1F
100
AcDbEntity
  8
0
  6
Continuous
 62
     7
370
    25
100
AcDbLine
 10
710.2433501725
 20
84.8463019206
 30
0.0
 11
708.8433501725
 21
84.8463019206
 31
0.0
  0
SPLINE
  5
31C
330
1F
100
AcDbEntity
  8
0
  6
Continuous
 62
     7
370
    25
100
AcDbSpline
210
0.0
220
0.0
230
1.0
 70
     8
 71
     3
 72
    20
 73
    16
 74
     0
 42
0.000000001
 43
0.00000001
 40
0.0
 40
0.0
 40
0.0
 40
0.0
 40
0.1249999999999944
 40
0.1249999999999944
 40
0.2499999999999888
 40
0.2499999999999888
 40
0.3749999999999832
 40
0.3749999999999832
 40
0.4999999999999777
 40
0.4999999999999777
 40
0.7499999999999961
 40
0.7499999999999961
 40
0.8749999999999981
 40
0.8749999999999981
 40
1.0
 40
1.0
 40
1.0
 40
1.0
 10
707.8433501724775
 20
82.4463019206162
 30
0.0
 10
708.0017293601281
 20
82.4463019206162
 30
0.0
 10
708.1579750848199
 20
82.46183848109104
 30
0.0
 10
708.4659669342366
 20
82.52315683305164
 30
0.0
 10
708.6186110417076
 20
82.56958057863842
 30
0.0
 10
708.9076953308949
 20
82.68953144879255
 30
0.0
 10
709.0454998690788
 20
82.76313609307599
 30
0.0
 10
709.3071185447176
 20
82.93786645917162
 30
0.0
 10
709.4298648514003
 20
83.03871708807313
 30
0.0
 10
709.7611892283481
 20
83.37000236805709
 30
0.0
 10
709.9402003523762
 20
83.63768252944101
 30
0.0
 10
710.1198154517572
 20
84.07035655549643
 30
0.0
 10
710.166059800625
 20
84.22187464234752
 30
0.0
 10
710.2278131066362
 20
84.53130039973364
 30
0.0
 10
710.2433501724777
 20
84.68792272942743
 30
0.0
 10
710.2433501724774
 20
84.84630192061618
 30
0.0
  0
SPLINE
  5
31D
330
1F
100
AcDbEntity
  8
0
  6
Continuous
 62
     7
370
    25
100
AcDbSpline
210
0.0
220
0.0
230
1.0
 70
     8
 71
     3
 72
    20
 73
    16
 74
     0
 42
0.000000001
 43
0.00000001
 40
0.0
 40
0.0
 40
0.0
 40
0.0
 40
0.1250000000000005
 40
0.1250000000000005
 40
0.2500000000000008
 40
0.2500000000000008
 40
0.3750000000000011
 40
0.3750000000000011
 40
0.5000000000000013
 40
0.5000000000000013
 40
0.7500000000000007
 40
0.7500000000000007
 40
0.8750000000000004
 40
0.8750000000000004
 40
1.0
 40
1.0
 40
1.0
 40
1.0
 10
115.2433501724775
 20
84.84630192061618
 30
0.0
 10
115.2433501724774
 20
84.68792273296546
 30
0.0
 10
115.2588867329523
 20
84.5316770082738
 30
0.0
 10
115.320205084913
 20
84.22368515885717
 30
0.0
 10
115.3666288304997
 20
84.07104105138605
 30
0.0
 10
115.486579700654
 20
83.78195676219897
 30
0.0
 10
115.5601843449375
 20
83.64415222401495
 30
0.0
 10
115.7349147110331
 20
83.38253354837603
 30
0.0
 10
115.8357653399345
 20
83.25978724169336
 30
0.0
 10
116.1670506199183
 20
82.92846286474567
 30
0.0
 10
116.4347307813023
 20
82.74945174071743
 30
0.0
 10
116.8674048073579
 20
82.56983664133656
 30
0.0
 10
117.0189228942088
 20
82.52359229246886
 30
0.0
 10
117.3283486515949
 20
82.46183898645765
 30
0.0
 10
117.4849709812888
 20
82.4463019206162
 30
0.0
 10
117.6433501724775
 20
82.4463019206162
 30
0.0
  0
LINE
  5
31E
330
1F
100
AcDbEntity
  8
0
  6
Continuous
 62
     7
370
    25
100
AcDbLine
 10
115.2433501725
 20
84.8463019206
 30
0.0
 11
116.6433501725
 21
84.8463019206
 31
0.0
  0
SPLINE
  5
31F
330
1F
100
AcDbEntity
  8
0
  6
Continuous
 62
     7
370
    25
100
AcDbSpline
210
0.0
220
0.0
230
1.0
 70
     8
 71
     3
 72
     9
 73
     5
 74
     0
 42
0.000000001
 43
0.00000001
 40
0.0
 40
0.0
 40
0.0
 40
0.0
 40
0.6784508005727643
 40
1.0
 40
1.0
 40
1.0
 40
1.0
 10
116.6433501724775
 20
84.84630192061618
 30
0.0
 10
116.6565997429419
 20
84.69559471616287
 30
0.0
 10
116.676128897382
 20
84.47346040026841
 30
0.0
 10
116.816976551021
 20
84.30662729537922
 30
0.0
 10
116.8622660012899
 20
84.25298224406413
 30
0.0
  0
LINE
  5
320
330
1F
100
AcDbEntity
  8
0
  6
Continuous
 62
     7
370
    25
100
AcDbLine
 10
708.8433501725
 20
84.8463019206
 30
0.0
 11
708.8433501725
 21
94.4463019206
 31
0.0
  0
LINE
  5
321
330
1F
100
AcDbEntity
  8
0
  6
Continuous
 62
     7
370
    25
100
AcDbLine
 10
710.2433501725
 20
94.4463019206
 30
0.0
 11
708.8433501725
 21
94.4463019206
 31
0.0
  0
LINE
  5
322
330
1F
100
AcDbEntity
  8
0
  6
Continuous
 62
     7
370
    25
100
AcDbLine
 10
710.2433501725
 20
84.8463019206
 30
0.0
 11
710.2433501725
 21
94.4463019206
 31
0.0
  0
LINE
  5
323
330
1F
100
AcDbEntity
  8
0
  6
Continuous
 62
     7
370
    25
100
AcDbLine
 10
115.2433501725
 20
84.8463019206
 30
0.0
 11
115.2433501725
 21
94.4463019206
 31
0.0
  0
LINE
  5
324
330
1F
100
AcDbEntity
  8
0
  6
Continuous
 62
     7
370
    25
100
AcDbLine
 10
115.2433501725
 20
94.4463019206
 30
0.0
 11
116.6433501725
 21
94.4463019206
 31
0.0
  0
LINE
  5
325
330
1F
100
AcDbEntity
  8
0
  6
Continuous
 62
     7
370
    25
100
AcDbLine
 10
116.6433501725
 20
84.8463019206
 30
0.0
 11
116.6433501725
 21
94.4463019206
 31
0.0
  0
LINE
  5
326
330
1F
100
AcDbEntity
  8
0
  6
Continuous
 62
     7
370
    25
100
AcDbLine
 10
664.9433501725
 20
121.5463019206
 30
0.0
 11
665.7433501725
 21
121.5463019206
 31
0.0
  0
LINE
  5
327
330
1F
100
AcDbEntity
  8
0
  6
Continuous
 62
     7
370
    25
100
AcDbLine
 10
665.7433501725
 20
121.5463019206
 30
0.0
 11
665.7433501725
 21
118.5463019206
 31
0.0
  0
LINE
  5
328
330
1F
100
AcDbEntity
  8
0
  6
Continuous
 62
     7
370
    25
100
AcDbLine
 10
664.9433501725
 20
118.5463019206
 30
0.0
 11
664.9433501725
 21
121.5463019206
 31
0.0
  0
LINE
  5
329
330
1F
100
AcDbEntity
  8
0
  6
Continuous
 62
     7
370
    25
100
AcDbLine
 10
159.7433501725
 20
121.5463019206
 30
0.0
 11
160.5433501725
 21
121.5463019206
 31
0.0
  0
LINE
  5
32A
330
1F
100
AcDbEntity
  8
0
  6
Continuous
 62
     7
370
    25
100
AcDbLine
 10
159.7433501725
 20
118.5463019206
 30
0.0
 11
159.7433501725
 21
121.5463019206
 31
0.0
  0
LINE
  5
32B
330
1F
100
AcDbEntity
  8
0
  6
Continuous
 62
     7
370
    25
100
AcDbLine
 10
160.5433501725
 20
121.5463019206
 30
0.0
 11
160.5433501725
 21
118.5463019206
 31
0.0
  0
LINE
  5
32C
330
1F
100
AcDbEntity
  8
0
  6
Continuous
 62
     7
370
    25
100
AcDbLine
 10
665.7433501725
 20
118.5463019206
 30
0.0
 11
665.7433501725
 21
101.5463019206
 31
0.0
  0
LINE
  5
32D
330
1F
100
AcDbEntity
  8
0
  6
Continuous
 62
     7
370
    25
100
AcDbLine
 10
664.9433501725
 20
118.5463019206
 30
0.0
 11
664.9433501725
 21
101.5463019206
 31
0.0
  0
LINE
  5
32E
330
1F
100
AcDbEntity
  8
0
  6
Continuous
 62
     7
370
    25
100
AcDbLine
 10
159.7433501725
 20
101.5463019206
 30
0.0
 11
159.7433501725
 21
118.5463019206
 31
0.0
  0
LINE
  5
32F
330
1F
100
AcDbEntity
  8
0
  6
Continuous
 62
     7
370
    25
100
AcDbLine
 10
160.5433501725
 20
101.5463019206
 30
0.0
 11
160.5433501725
 21
118.5463019206
 31
0.0
  0
LINE
  5
330
330
1F
100
AcDbEntity
  8
0
  6
Continuous
 62
     7
370
    25
100
AcDbLine
 10
160.5433501725
 20
98.5463019206
 30
0.0
 11
159.7433501725
 21
98.5463019206
 31
0.0
  0
LINE
  5
331
330
1F
100
AcDbEntity
  8
0
  6
Continuous
 62
     7
370
    25
100
AcDbLine
 10
159.7433501725
 20
98.5463019206
 30
0.0
 11
159.7433501725
 21
101.5463019206
 31
0.0
  0
LINE
  5
332
330
1F
100
AcDbEntity
  8
0
  6
Continuous
 62
     7
370
    25
100
AcDbLine
 10
160.5433501725
 20
101.5463019206
 30
0.0
 11
160.5433501725
 21
98.5463019206
 31
0.0
  0
LINE
  5
333
330
1F
100
AcDbEntity
  8
0
  6
Continuous
 62
     7
370
    25
100
AcDbLine
 10
665.7433501725
 20
98.5463019206
 30
0.0
 11
664.9433501725
 21
98.5463019206
 31
0.0
  0
LINE
  5
334
330
1F
100
AcDbEntity
  8
0
  6
Continuous
 62
     7
370
    25
100
AcDbLine
 10
665.7433501725
 20
101.5463019206
 30
0.0
 11
665.7433501725
 21
98.5463019206
 31
0.0
  0
LINE
  5
335
330
1F
100
AcDbEntity
  8
0
  6
Continuous
 62
     7
370
    25
100
AcDbLine
 10
664.9433501725
 20
98.5463019206
 30
0.0
 11
664.9433501725
 21
101.5463019206
 31
0.0
  0
LINE
  5
336
330
1F
100
AcDbEntity
  8
0
  6
Continuous
 62
     7
370
    25
100
AcDbLine
 10
662.7433501725
 20
100.5463019206
 30
0.0
 11
662.7433501725
 21
101.3463019206
 31
0.0
  0
LINE
  5
337
330
1F
100
AcDbEntity
  8
0
  6
Continuous
 62
     7
370
    25
100
AcDbLine
 10
162.7433501725
 20
100.5463019206
 30
0.0
 11
162.7433501725
 21
101.3463019206
 31
0.0
  0
LINE
  5
338
330
1F
100
AcDbEntity
  8
0
  6
Continuous
 62
     7
370
    25
100
AcDbLine
 10
662.7433501725
 20
101.3463019206
 30
0.0
 11
162.7433501725
 21
101.3463019206
 31
0.0
  0
LINE
  5
339
330
1F
100
AcDbEntity
  8
0
  6
Continuous
 62
     7
370
    25
100
AcDbLine
 10
217.2433501725
 20
141.4509153124
 30
0.0
 11
217.2433501725
 21
134.9332238588
 31
0.0
  0
LINE
  5
33A
330
1F
100
AcDbEntity
  8
0
  6
Continuous
 62
     7
370
    25
100
AcDbLine
 10
364.2433501725
 20
144.4509153124
 30
0.0
 11
220.2433501725
 21
144.4509153124
 31
0.0
  0
LINE
  5
33B
330
1F
100
AcDbEntity
  8
0
  6
Continuous
 62
     7
370
    25
100
AcDbLine
 10
367.2433501725
 20
134.9332238588
 30
0.0
 11
367.2433501725
 21
141.4509153124
 31
0.0
  0
ARC
  5
33C
330
1F
100
AcDbEntity
  8
0
  6
Continuous
 62
     7
370
    25
100
AcDbCircle
 10
220.2433501725
 20
141.4509153124
 30
0.0
 40
3.0
100
AcDbArc
 50
90.0
 51
180.0
  0
ARC
  5
33D
330
1F
100
AcDbEntity
  8
0
  6
Continuous
 62
     7
370
    25
100
AcDbCircle
 10
364.2433501725
 20
141.4509153124
 30
0.0
 40
3.000000000000057
100
AcDbArc
 50
0.0
 51
90.0
  0
LINE
  5
33E
330
1F
100
AcDbEntity
  8
0
  6
Continuous
 62
     7
370
    25
100
AcDbLine
 10
458.2433501725
 20
141.4509153124
 30
0.0
 11
458.2433501725
 21
134.9332238588
 31
0.0
  0
LINE
  5
33F
330
1F
100
AcDbEntity
  8
0
  6
Continuous
 62
     7
370
    25
100
AcDbLine
 10
608.2433501725
 20
134.9332238588
 30
0.0
 11
608.2433501725
 21
141.4509153124
 31
0.0
  0
ARC
  5
340
330
1F
100
AcDbEntity
  8
0
  6
Continuous
 62
     7
370
    25
100
AcDbCircle
 10
461.2433501725
 20
141.4509153124
 30
0.0
 40
3.0
100
AcDbArc
 50
90.0
 51
180.0
  0
ARC
  5
341
330
1F
100
AcDbEntity
  8
0
  6
Continuous
 62
     7
370
    25
100
AcDbCircle
 10
605.2433501725
 20
141.4509153124
 30
0.0
 40
3.0
100
AcDbArc
 50
0.0
 51
90.0
  0
LINE
  5
342
330
1F
100
AcDbEntity
  8
0
  6
Continuous
 62
     7
370
    25
100
AcDbLine
 10
605.2433501725
 20
144.4509153124
 30
0.0
 11
461.2433501725
 21
144.4509153124
 31
0.0
  0
LINE
  5
343
330
1F
100
AcDbEntity
  8
0
  6
Continuous
 62
     7
370
    25
100
AcDbLine
 10
217.2433501725
 20
134.0332238588
 30
0.0
 11
217.2433501725
 21
134.9332238588
 31
0.0
  0
LINE
  5
344
330
1F
100
AcDbEntity
  8
0
  6
Continuous
 62
     7
370
    25
100
AcDbLine
 10
367.2433501725
 20
134.9332238588
 30
0.0
 11
367.2433501725
 21
134.0332238588
 31
0.0
  0
LINE
  5
345
330
1F
100
AcDbEntity
  8
0
  6
Continuous
 62
     7
370
    25
100
AcDbLine
 10
608.2433501725
 20
134.9332238588
 30
0.0
 11
608.2433501725
 21
134.0332238588
 31
0.0
  0
LINE
  5
346
330
1F
100
AcDbEntity
  8
0
  6
Continuous
 62
     7
370
    25
100
AcDbLine
 10
458.2433501725
 20
134.0332238588
 30
0.0
 11
458.2433501725
 21
134.9332238588
 31
0.0
  0
LINE
  5
347
330
1F
100
AcDbEntity
  8
0
  6
Continuous
 62
     7
370
    25
100
AcDbLine
 10
608.2433501725
 20
134.0332238588
 30
0.0
 11
608.2433501725
 21
127.4083527282
 31
0.0
  0
LINE
  5
348
330
1F
100
AcDbEntity
  8
0
  6
Continuous
 62
     7
370
    25
100
AcDbLine
 10
458.2433501725
 20
127.4083527282
 30
0.0
 11
458.2433501725
 21
134.0332238588
 31
0.0
  0
LINE
  5
349
330
1F
100
AcDbEntity
  8
0
  6
Continuous
 62
     7
370
    25
100
AcDbLine
 10
367.2433501725
 20
134.0332238588
 30
0.0
 11
367.2433501725
 21
127.4083527282
 31
0.0
  0
LINE
  5
34A
330
1F
100
AcDbEntity
  8
0
  6
Continuous
 62
     7
370
    25
100
AcDbLine
 10
217.2433501725
 20
127.4083527282
 30
0.0
 11
217.2433501725
 21
134.0332238588
 31
0.0
  0
LINE
  5
34B
330
1F
100
AcDbEntity
  8
0
  6
Continuous
 62
     7
370
    25
100
AcDbLine
 10
664.9433501725
 20
121.5463019206
 30
0.0
 11
663.9433501725
 21
121.5463019206
 31
0.0
  0
LINE
  5
34C
330
1F
100
AcDbEntity
  8
0
  6
Continuous
 62
     7
370
    25
100
AcDbLine
 10
663.9433501725
 20
102.5463019206
 30
0.0
 11
664.9433501725
 21
102.5463019206
 31
0.0
  0
LINE
  5
34D
330
1F
100
AcDbEntity
  8
0
  6
Continuous
 62
     7
370
    25
100
AcDbLine
 10
160.5433501725
 20
102.5463019206
 30
0.0
 11
161.5433501725
 21
102.5463019206
 31
0.0
  0
LINE
  5
34E
330
1F
100
AcDbEntity
  8
0
  6
Continuous
 62
     7
370
    25
100
AcDbLine
 10
161.5433501725
 20
121.5463019206
 30
0.0
 11
160.5433501725
 21
121.5463019206
 31
0.0
  0
LINE
  5
34F
330
1F
100
AcDbEntity
  8
0
  6
Continuous
 62
     7
370
    25
100
AcDbLine
 10
162.7433501725
 20
102.3463019206
 30
0.0
 11
162.7433501725
 21
101.3463019206
 31
0.0
  0
LINE
  5
350
330
1F
100
AcDbEntity
  8
0
  6
Continuous
 62
     7
370
    25
100
AcDbLine
 10
662.7433501725
 20
101.3463019206
 30
0.0
 11
662.7433501725
 21
102.3463019206
 31
0.0
  0
LINE
  5
351
330
1F
100
AcDbEntity
  8
0
  6
Continuous
 62
     7
370
    25
100
AcDbLine
 10
367.2433501725
 20
126.9083527282
 30
0.0
 11
367.2433501725
 21
127.4083527282
 31
0.0
  0
LINE
  5
352
330
1F
100
AcDbEntity
  8
0
  6
Continuous
 62
     7
370
    25
100
AcDbLine
 10
217.2433501725
 20
127.4083527282
 30
0.0
 11
217.2433501725
 21
126.9083527282
 31
0.0
  0
LINE
  5
353
330
1F
100
AcDbEntity
  8
0
  6
Continuous
 62
     7
370
    25
100
AcDbLine
 10
608.2433501725
 20
126.9083527282
 30
0.0
 11
608.2433501725
 21
127.4083527282
 31
0.0
  0
LINE
  5
354
330
1F
100
AcDbEntity
  8
0
  6
Continuous
 62
     7
370
    25
100
AcDbLine
 10
458.2433501725
 20
127.4083527282
 30
0.0
 11
458.2433501725
 21
126.9083527282
 31
0.0
  0
LINE
  5
355
330
1F
100
AcDbEntity
  8
0
  6
Continuous
 62
     7
370
    25
100
AcDbLine
 10
162.7433501725
 20
102.5463019206
 30
0.0
 11
162.7433501725
 21
102.3463019206
 31
0.0
  0
LINE
  5
356
330
1F
100
AcDbEntity
  8
0
  6
Continuous
 62
     7
370
    25
100
AcDbLine
 10
161.5433501725
 20
102.5463019206
 30
0.0
 11
162.7433501725
 21
102.5463019206
 31
0.0
  0
LINE
  5
357
330
1F
100
AcDbEntity
  8
0
  6
Continuous
 62
     7
370
    25
100
AcDbLine
 10
164.7433501725
 20
121.5463019206
 30
0.0
 11
161.5433501725
 21
121.5463019206
 31
0.0
  0
LINE
  5
358
330
1F
100
AcDbEntity
  8
0
  6
Continuous
 62
     7
370
    25
100
AcDbLine
 10
164.7433501725
 20
142.5463019206
 30
0.0
 11
164.7433501725
 21
121.5463019206
 31
0.0
  0
ARC
  5
359
330
1F
100
AcDbEntity
  8
0
  6
Continuous
 62
     7
370
    25
100
AcDbCircle
 10
167.7433501725
 20
142.5463019206
 30
0.0
 40
3.0
100
AcDbArc
 50
90.0
 51
180.0
  0
LINE
  5
35A
330
1F
100
AcDbEntity
  8
0
  6
Continuous
 62
     7
370
    25
100
AcDbLine
 10
211.7433501725
 20
145.5463019206
 30
0.0
 11
167.7433501725
 21
145.5463019206
 31
0.0
  0
ARC
  5
35B
330
1F
100
AcDbEntity
  8
0
  6
Continuous
 62
     7
370
    25
100
AcDbCircle
 10
211.7433501725
 20
142.5463019206
 30
0.0
 40
3.0
100
AcDbArc
 50
0.0
 51
90.0
  0
LINE
  5
35C
330
1F
100
AcDbEntity
  8
0
  6
Continuous
 62
     7
370
    25
100
AcDbLine
 10
214.7433501725
 20
142.5463019206
 30
0.0
 11
214.7433501725
 21
126.4163019206
 31
0.0
  0
LINE
  5
35D
330
1F
100
AcDbEntity
  8
0
  6
Continuous
 62
     7
370
    25
100
AcDbLine
 10
214.7433501725
 20
126.4163019206
 30
0.0
 11
217.2433501725
 21
126.4163019206
 31
0.0
  0
LINE
  5
35E
330
1F
100
AcDbEntity
  8
0
  6
Continuous
 62
     7
370
    25
100
AcDbLine
 10
217.2433501725
 20
126.9083527282
 30
0.0
 11
217.2433501725
 21
126.4163019206
 31
0.0
  0
LINE
  5
35F
330
1F
100
AcDbEntity
  8
0
  6
Continuous
 62
     7
370
    25
100
AcDbLine
 10
367.2433501725
 20
126.9083527282
 30
0.0
 11
367.2433501725
 21
126.4163019206
 31
0.0
  0
LINE
  5
360
330
1F
100
AcDbEntity
  8
0
  6
Continuous
 62
     7
370
    25
100
AcDbLine
 10
367.2433501725
 20
126.4163019206
 30
0.0
 11
369.7433501725
 21
126.4163019206
 31
0.0
  0
LINE
  5
361
330
1F
100
AcDbEntity
  8
0
  6
Continuous
 62
     7
370
    25
100
AcDbLine
 10
369.7433501725
 20
126.4163019206
 30
0.0
 11
369.7433501725
 21
142.5463019206
 31
0.0
  0
ARC
  5
362
330
1F
100
AcDbEntity
  8
0
  6
Continuous
 62
     7
370
    25
100
AcDbCircle
 10
372.7433501725
 20
142.5463019206
 30
0.0
 40
3.0
100
AcDbArc
 50
90.0
 51
180.0
  0
LINE
  5
363
330
1F
100
AcDbEntity
  8
0
  6
Continuous
 62
     7
370
    25
100
AcDbLine
 10
452.7433501725
 20
145.5463019206
 30
0.0
 11
372.7433501725
 21
145.5463019206
 31
0.0
  0
ARC
  5
364
330
1F
100
AcDbEntity
  8
0
  6
Continuous
 62
     7
370
    25
100
AcDbCircle
 10
452.7433501725
 20
142.5463019206
 30
0.0
 40
3.0
100
AcDbArc
 50
0.0
 51
90.0
  0
LINE
  5
365
330
1F
100
AcDbEntity
  8
0
  6
Continuous
 62
     7
370
    25
100
AcDbLine
 10
455.7433501725
 20
142.5463019206
 30
0.0
 11
455.7433501725
 21
126.4163019206
 31
0.0
  0
LINE
  5
366
330
1F
100
AcDbEntity
  8
0
  6
Continuous
 62
     7
370
    25
100
AcDbLine
 10
455.7433501725
 20
126.4163019206
 30
0.0
 11
458.2433501725
 21
126.4163019206
 31
0.0
  0
LINE
  5
367
330
1F
100
AcDbEntity
  8
0
  6
Continuous
 62
     7
370
    25
100
AcDbLine
 10
458.2433501725
 20
126.9083527282
 30
0.0
 11
458.2433501725
 21
126.4163019206
 31
0.0
  0
LINE
  5
368
330
1F
100
AcDbEntity
  8
0
  6
Continuous
 62
     7
370
    25
100
AcDbLine
 10
608.2433501725
 20
126.9083527282
 30
0.0
 11
608.2433501725
 21
126.4163019206
 31
0.0
  0
LINE
  5
369
330
1F
100
AcDbEntity
  8
0
  6
Continuous
 62
     7
370
    25
100
AcDbLine
 10
608.2433501725
 20
126.4163019206
 30
0.0
 11
610.7433501725
 21
126.4163019206
 31
0.0
  0
LINE
  5
36A
330
1F
100
AcDbEntity
  8
0
  6
Continuous
 62
     7
370
    25
100
AcDbLine
 10
610.7433501725
 20
126.4163019206
 30
0.0
 11
610.7433501725
 21
142.5463019206
 31
0.0
  0
ARC
  5
36B
330
1F
100
AcDbEntity
  8
0
  6
Continuous
 62
     7
370
    25
100
AcDbCircle
 10
613.7433501725
 20
142.5463019206
 30
0.0
 40
3.0
100
AcDbArc
 50
90.0
 51
180.0
  0
LINE
  5
36C
330
1F
100
AcDbEntity
  8
0
  6
Continuous
 62
     7
370
    25
100
AcDbLine
 10
657.7433501725
 20
145.5463019206
 30
0.0
 11
613.7433501725
 21
145.5463019206
 31
0.0
  0
ARC
  5
36D
330
1F
100
AcDbEntity
  8
0
  6
Continuous
 62
     7
370
    25
100
AcDbCircle
 10
657.7433501725
 20
142.5463019206
 30
0.0
 40
3.0
100
AcDbArc
 50
0.0
 51
90.0
  0
LINE
  5
36E
330
1F
100
AcDbEntity
  8
0
  6
Continuous
 62
     7
370
    25
100
AcDbLine
 10
660.7433501725
 20
121.5463019206
 30
0.0
 11
660.7433501725
 21
142.5463019206
 31
0.0
  0
LINE
  5
36F
330
1F
100
AcDbEntity
  8
0
  6
Continuous
 62
     7
370
    25
100
AcDbLine
 10
663.9433501725
 20
121.5463019206
 30
0.0
 11
660.7433501725
 21
121.5463019206
 31
0.0
  0
LINE
  5
370
330
1F
100
AcDbEntity
  8
0
  6
Continuous
 62
     7
370
    25
100
AcDbLine
 10
662.7433501725
 20
102.5463019206
 30
0.0
 11
663.9433501725
 21
102.5463019206
 31
0.0
  0
LINE
  5
371
330
1F
100
AcDbEntity
  8
0
  6
Continuous
 62
     7
370
    25
100
AcDbLine
 10
662.7433501725
 20
102.3463019206
 30
0.0
 11
662.7433501725
 21
102.5463019206
 31
0.0
  0
SPLINE
  5
372
330
1F
100
AcDbEntity
  8
0
  6
Continuous
 62
     7
370
    25
100
AcDbSpline
210
0.0
220
0.0
230
1.0
 70
     8
 71
     3
 72
    12
 73
     8
 74
     0
 42
0.000000001
 43
0.00000001
 40
0.0
 40
0.0
 40
0.0
 40
0.0
 40
0.4999999999999896
 40
0.4999999999999896
 40
0.7499999999999948
 40
0.7499999999999948
 40
1.0
 40
1.0
 40
1.0
 40
1.0
 10
647.3790898953346
 20
104.1316219352312
 30
0.0
 10
646.7625595054143
 20
104.3221162246547
 30
0.0
 10
646.1367916329643
 20
104.443790637717
 30
0.0
 10
645.1737299235796
 20
104.4444468282483
 30
0.0
 10
644.8530368884499
 20
104.4146128264539
 30
0.0
 10
644.223078638454
 20
104.3056829563463
 30
0.0
 10
643.911849370423
 20
104.2269877692834
 30
0.0
 10
643.6032000401384
 20
104.1316219352307
 30
0.0
  0
LINE
  5
373
330
1F
100
AcDbEntity
  8
0
  6
Continuous
 62
     7
370
    25
100
AcDbLine
 10
647.3790898953
 20
104.1316219352
 30
0.0
 11
647.3790898953
 21
101.960981906
 31
0.0
  0
SPLINE
  5
374
330
1F
100
AcDbEntity
  8
0
  6
Continuous
 62
     7
370
    25
100
AcDbSpline
210
0.0
220
0.0
230
1.0
 70
     8
 71
     3
 72
    12
 73
     8
 74
     0
 42
0.000000001
 43
0.00000001
 40
0.0
 40
0.0
 40
0.0
 40
0.0
 40
0.5000000000000103
 40
0.5000000000000103
 40
0.7500000000000051
 40
0.7500000000000051
 40
1.0
 40
1.0
 40
1.0
 40
1.0
 10
643.6032000401384
 20
101.9609819060012
 30
0.0
 10
644.2197304300586
 20
101.7704876165777
 30
0.0
 10
644.8454983025085
 20
101.6488132035153
 30
0.0
 10
645.8085600118933
 20
101.6481570129841
 30
0.0
 10
646.1292530470231
 20
101.6779910147785
 30
0.0
 10
646.7592112970189
 20
101.7869208848861
 30
0.0
 10
647.0704405650498
 20
101.8656160719489
 30
0.0
 10
647.3790898953345
 20
101.9609819060017
 30
0.0
  0
LINE
  5
375
330
1F
100
AcDbEntity
  8
0
  6
Continuous
 62
     7
370
    25
100
AcDbLine
 10
643.6032000401
 20
104.1316219352
 30
0.0
 11
643.6032000401
 21
101.960981906
 31
0.0
  0
SPLINE
  5
376
330
1F
100
AcDbEntity
  8
0
  6
Continuous
 62
     7
370
    25
100
AcDbSpline
210
0.0
220
0.0
230
1.0
 70
     8
 71
     3
 72
    14
 73
    10
 74
     0
 42
0.000000001
 43
0.00000001
 40
0.0
 40
0.0
 40
0.0
 40
0.0
 40
0.25
 40
0.25
 40
0.5
 40
0.5
 40
0.75
 40
0.75
 40
1.0
 40
1.0
 40
1.0
 40
1.0
 10
647.3790898953345
 20
104.1316219352302
 30
0.0
 10
647.4311476042252
 20
104.2264965445408
 30
0.0
 10
647.4844811425532
 20
104.3061014694165
 30
0.0
 10
647.5914131501814
 20
104.4149380843107
 30
0.0
 10
647.6451665166289
 20
104.4442616900013
 30
0.0
 10
647.7533455680526
 20
104.4441969082556
 30
0.0
 10
647.8081742646407
 20
104.4140407149293
 30
0.0
 10
647.9150812473005
 20
104.3044555135636
 30
0.0
 10
647.9675027622728
 20
104.2259125397614
 30
0.0
 10
648.019240027675
 20
104.1316219352302
 30
0.0
  0
SPLINE
  5
377
330
1F
100
AcDbEntity
  8
0
  6
Continuous
 62
     7
370
    25
100
AcDbSpline
210
0.0
220
0.0
230
1.0
 70
     8
 71
     3
 72
    12
 73
     8
 74
     0
 42
0.000000001
 43
0.00000001
 40
0.0
 40
0.0
 40
0.0
 40
0.0
 40
0.5000000000000062
 40
0.5000000000000062
 40
0.7500000000000031
 40
0.7500000000000031
 40
1.0
 40
1.0
 40
1.0
 40
1.0
 10
643.6032000401386
 20
104.1316219352311
 30
0.0
 10
643.0911938884337
 20
104.3221162246547
 30
0.0
 10
642.5715163421655
 20
104.443790637717
 30
0.0
 10
641.7717284846028
 20
104.4444468282483
 30
0.0
 10
641.5054045377549
 20
104.4146128264539
 30
0.0
 10
640.9822470347534
 20
104.3056829563463
 30
0.0
 10
640.7237824036051
 20
104.2269877692834
 30
0.0
 10
640.4674603172831
 20
104.1316219352307
 30
0.0
  0
SPLINE
  5
378
330
1F
100
AcDbEntity
  8
0
  6
Continuous
 62
     7
370
    25
100
AcDbSpline
210
0.0
220
0.0
230
1.0
 70
     8
 71
     3
 72
     9
 73
     5
 74
     0
 42
0.000000001
 43
0.00000001
 40
0.0
 40
0.0
 40
0.0
 40
0.0
 40
0.3722348086954484
 40
1.0
 40
1.0
 40
1.0
 40
1.0
 10
640.4674603172831
 20
104.1316219352302
 30
0.0
 10
640.4954265509548
 20
104.1835462440037
 30
0.0
 10
640.5705571755458
 20
104.3230396700902
 30
0.0
 10
640.6491010337024
 20
104.3310483961954
 30
0.0
 10
640.6984081338438
 20
104.3360759956709
 30
0.0
  0
LINE
  5
379
330
1F
100
AcDbEntity
  8
0
  6
Continuous
 62
     7
370
    25
100
AcDbLine
 10
647.3933501725
 20
104.6463019206
 30
0.0
 11
641.0933501725
 21
104.6463019206
 31
0.0
  0
SPLINE
  5
37A
330
1F
100
AcDbEntity
  8
0
  6
Continuous
 62
     7
370
    25
100
AcDbSpline
210
0.0
220
0.0
230
1.0
 70
     8
 71
     3
 72
     9
 73
     5
 74
     0
 42
0.000000001
 43
0.00000001
 40
0.0
 40
0.0
 40
0.0
 40
0.0
 40
0.6277651913045497
 40
1.0
 40
1.0
 40
1.0
 40
1.0
 10
640.6984081338439
 20
101.7565278455615
 30
0.0
 10
640.6491010337023
 20
101.761555445037
 30
0.0
 10
640.5705571755458
 20
101.7695641711421
 30
0.0
 10
640.4954265509549
 20
101.9090575972286
 30
0.0
 10
640.4674603172831
 20
101.9609819060022
 30
0.0
  0
SPLINE
  5
37B
330
1F
100
AcDbEntity
  8
0
  6
Continuous
 62
     7
370
    25
100
AcDbSpline
210
0.0
220
0.0
230
1.0
 70
     8
 71
     3
 72
    12
 73
     8
 74
     0
 42
0.000000001
 43
0.00000001
 40
0.0
 40
0.0
 40
0.0
 40
0.0
 40
0.4999999999999938
 40
0.4999999999999938
 40
0.7499999999999969
 40
0.7499999999999969
 40
1.0
 40
1.0
 40
1.0
 40
1.0
 10
640.4674603172831
 20
101.9609819060012
 30
0.0
 10
640.979466468988
 20
101.7704876165777
 30
0.0
 10
641.4991440152562
 20
101.6488132035153
 30
0.0
 10
642.2989318728187
 20
101.6481570129841
 30
0.0
 10
642.5652558196668
 20
101.6779910147785
 30
0.0
 10
643.0884133226682
 20
101.7869208848861
 30
0.0
 10
643.3468779538165
 20
101.8656160719489
 30
0.0
 10
643.6032000401385
 20
101.9609819060017
 30
0.0
  0
SPLINE
  5
37C
330
1F
100
AcDbEntity
  8
0
  6
Continuous
 62
     7
370
    25
100
AcDbSpline
210
0.0
220
0.0
230
1.0
 70
     8
 71
     3
 72
    14
 73
    10
 74
     0
 42
0.000000001
 43
0.00000001
 40
0.0
 40
0.0
 40
0.0
 40
0.0
 40
0.25
 40
0.25
 40
0.5
 40
0.5
 40
0.75
 40
0.75
 40
1.0
 40
1.0
 40
1.0
 40
1.0
 10
647.3790898953345
 20
101.9609819060022
 30
0.0
 10
647.4311476042252
 20
101.8661072966916
 30
0.0
 10
647.4844811425532
 20
101.7865023718158
 30
0.0
 10
647.5914131501814
 20
101.6776657569216
 30
0.0
 10
647.6451665166289
 20
101.6483421512311
 30
0.0
 10
647.7533455680526
 20
101.6484069329767
 30
0.0
 10
647.8081742646407
 20
101.678563126303
 30
0.0
 10
647.9150812473005
 20
101.7881483276688
 30
0.0
 10
647.9675027622728
 20
101.8666913014709
 30
0.0
 10
648.019240027675
 20
101.9609819060022
 30
0.0
  0
LINE
  5
37D
330
1F
100
AcDbEntity
  8
0
  6
Continuous
 62
     7
370
    25
100
AcDbLine
 10
647.3933501725
 20
101.4463019206
 30
0.0
 11
641.0933501725
 21
101.4463019206
 31
0.0
  0
LINE
  5
37E
330
1F
100
AcDbEntity
  8
0
  6
Continuous
 62
     7
370
    25
100
AcDbLine
 10
640.4674603173
 20
104.1316219352
 30
0.0
 11
640.4674603173
 21
101.960981906
 31
0.0
  0
LINE
  5
37F
330
1F
100
AcDbEntity
  8
0
  6
Continuous
 62
     7
370
    25
100
AcDbLine
 10
648.0192400277
 20
104.1316219352
 30
0.0
 11
648.0192400277
 21
101.960981906
 31
0.0
  0
SPLINE
  5
380
330
1F
100
AcDbEntity
  8
0
  6
Continuous
 62
     7
370
    25
100
AcDbSpline
210
0.0
220
0.0
230
1.0
 70
     8
 71
     3
 72
    12
 73
     8
 74
     0
 42
0.000000001
 43
0.00000001
 40
0.0
 40
0.0
 40
0.0
 40
0.0
 40
0.5000000000000038
 40
0.5000000000000038
 40
0.7500000000000019
 40
0.7500000000000019
 40
1.0
 40
1.0
 40
1.0
 40
1.0
 10
334.3790898953345
 20
104.1316219352312
 30
0.0
 10
333.7625595054142
 20
104.3221162246547
 30
0.0
 10
333.1367916329644
 20
104.443790637717
 30
0.0
 10
332.1737299235796
 20
104.4444468282483
 30
0.0
 10
331.8530368884498
 20
104.4146128264539
 30
0.0
 10
331.2230786384538
 20
104.3056829563463
 30
0.0
 10
330.9118493704229
 20
104.2269877692834
 30
0.0
 10
330.6032000401383
 20
104.1316219352307
 30
0.0
  0
LINE
  5
381
330
1F
100
AcDbEntity
  8
0
  6
Continuous
 62
     7
370
    25
100
AcDbLine
 10
334.3790898953
 20
104.1316219352
 30
0.0
 11
334.3790898953
 21
101.960981906
 31
0.0
  0
SPLINE
  5
382
330
1F
100
AcDbEntity
  8
0
  6
Continuous
 62
     7
370
    25
100
AcDbSpline
210
0.0
220
0.0
230
1.0
 70
     8
 71
     3
 72
    12
 73
     8
 74
     0
 42
0.000000001
 43
0.00000001
 40
0.0
 40
0.0
 40
0.0
 40
0.0
 40
0.4999999999999962
 40
0.4999999999999962
 40
0.7499999999999981
 40
0.7499999999999981
 40
1.0
 40
1.0
 40
1.0
 40
1.0
 10
330.6032000401383
 20
101.9609819060012
 30
0.0
 10
331.2197304300585
 20
101.7704876165777
 30
0.0
 10
331.8454983025083
 20
101.6488132035153
 30
0.0
 10
332.8085600118932
 20
101.6481570129841
 30
0.0
 10
333.1292530470229
 20
101.6779910147785
 30
0.0
 10
333.7592112970189
 20
101.7869208848861
 30
0.0
 10
334.0704405650498
 20
101.8656160719489
 30
0.0
 10
334.3790898953345
 20
101.9609819060017
 30
0.0
  0
LINE
  5
383
330
1F
100
AcDbEntity
  8
0
  6
Continuous
 62
     7
370
    25
100
AcDbLine
 10
330.6032000401
 20
104.1316219352
 30
0.0
 11
330.6032000401
 21
101.960981906
 31
0.0
  0
SPLINE
  5
384
330
1F
100
AcDbEntity
  8
0
  6
Continuous
 62
     7
370
    25
100
AcDbSpline
210
0.0
220
0.0
230
1.0
 70
     8
 71
     3
 72
    14
 73
    10
 74
     0
 42
0.000000001
 43
0.00000001
 40
0.0
 40
0.0
 40
0.0
 40
0.0
 40
0.25
 40
0.25
 40
0.5
 40
0.5
 40
0.75
 40
0.75
 40
1.0
 40
1.0
 40
1.0
 40
1.0
 10
334.3790898953343
 20
104.1316219352302
 30
0.0
 10
334.4311476042251
 20
104.2264965445408
 30
0.0
 10
334.4844811425532
 20
104.3061014694166
 30
0.0
 10
334.5914131501814
 20
104.4149380843108
 30
0.0
 10
334.6451665166289
 20
104.4442616900013
 30
0.0
 10
334.7533455680526
 20
104.4441969082557
 30
0.0
 10
334.8081742646406
 20
104.4140407149293
 30
0.0
 10
334.9150812473004
 20
104.3044555135636
 30
0.0
 10
334.9675027622728
 20
104.2259125397614
 30
0.0
 10
335.0192400276749
 20
104.1316219352302
 30
0.0
  0
SPLINE
  5
385
330
1F
100
AcDbEntity
  8
0
  6
Continuous
 62
     7
370
    25
100
AcDbSpline
210
0.0
220
0.0
230
1.0
 70
     8
 71
     3
 72
    12
 73
     8
 74
     0
 42
0.000000001
 43
0.00000001
 40
0.0
 40
0.0
 40
0.0
 40
0.0
 40
0.4999999999999984
 40
0.4999999999999984
 40
0.7499999999999992
 40
0.7499999999999992
 40
1.0
 40
1.0
 40
1.0
 40
1.0
 10
330.6032000401385
 20
104.1316219352312
 30
0.0
 10
330.0911938884337
 20
104.3221162246547
 30
0.0
 10
329.5715163421654
 20
104.4437906377171
 30
0.0
 10
328.7717284846028
 20
104.4444468282483
 30
0.0
 10
328.5054045377548
 20
104.4146128264539
 30
0.0
 10
327.9822470347534
 20
104.3056829563463
 30
0.0
 10
327.7237824036051
 20
104.2269877692834
 30
0.0
 10
327.467460317283
 20
104.1316219352307
 30
0.0
  0
SPLINE
  5
386
330
1F
100
AcDbEntity
  8
0
  6
Continuous
 62
     7
370
    25
100
AcDbSpline
210
0.0
220
0.0
230
1.0
 70
     8
 71
     3
 72
     9
 73
     5
 74
     0
 42
0.000000001
 43
0.00000001
 40
0.0
 40
0.0
 40
0.0
 40
0.0
 40
0.3722348086954484
 40
1.0
 40
1.0
 40
1.0
 40
1.0
 10
327.4674603172831
 20
104.1316219352302
 30
0.0
 10
327.4954265509548
 20
104.1835462440038
 30
0.0
 10
327.5705571755457
 20
104.3230396700903
 30
0.0
 10
327.6491010337023
 20
104.3310483961954
 30
0.0
 10
327.6984081338438
 20
104.3360759956709
 30
0.0
  0
LINE
  5
387
330
1F
100
AcDbEntity
  8
0
  6
Continuous
 62
     7
370
    25
100
AcDbLine
 10
334.3933501725
 20
104.6463019206
 30
0.0
 11
328.0933501725
 21
104.6463019206
 31
0.0
  0
SPLINE
  5
388
330
1F
100
AcDbEntity
  8
0
  6
Continuous
 62
     7
370
    25
100
AcDbSpline
210
0.0
220
0.0
230
1.0
 70
     8
 71
     3
 72
     9
 73
     5
 74
     0
 42
0.000000001
 43
0.00000001
 40
0.0
 40
0.0
 40
0.0
 40
0.0
 40
0.6277651913045473
 40
1.0
 40
1.0
 40
1.0
 40
1.0
 10
327.6984081338438
 20
101.7565278455615
 30
0.0
 10
327.6491010337023
 20
101.761555445037
 30
0.0
 10
327.5705571755457
 20
101.7695641711421
 30
0.0
 10
327.4954265509548
 20
101.9090575972286
 30
0.0
 10
327.4674603172831
 20
101.9609819060022
 30
0.0
  0
SPLINE
  5
389
330
1F
100
AcDbEntity
  8
0
  6
Continuous
 62
     7
370
    25
100
AcDbSpline
210
0.0
220
0.0
230
1.0
 70
     8
 71
     3
 72
    12
 73
     8
 74
     0
 42
0.000000001
 43
0.00000001
 40
0.0
 40
0.0
 40
0.0
 40
0.0
 40
0.4999999999999984
 40
0.4999999999999984
 40
0.7499999999999992
 40
0.7499999999999992
 40
1.0
 40
1.0
 40
1.0
 40
1.0
 10
327.467460317283
 20
101.9609819060012
 30
0.0
 10
327.9794664689879
 20
101.7704876165777
 30
0.0
 10
328.4991440152561
 20
101.6488132035153
 30
0.0
 10
329.2989318728187
 20
101.6481570129841
 30
0.0
 10
329.5652558196667
 20
101.6779910147785
 30
0.0
 10
330.0884133226681
 20
101.7869208848861
 30
0.0
 10
330.3468779538164
 20
101.8656160719489
 30
0.0
 10
330.6032000401385
 20
101.9609819060017
 30
0.0
  0
SPLINE
  5
38A
330
1F
100
AcDbEntity
  8
0
  6
Continuous
 62
     7
370
    25
100
AcDbSpline
210
0.0
220
0.0
230
1.0
 70
     8
 71
     3
 72
    14
 73
    10
 74
     0
 42
0.000000001
 43
0.00000001
 40
0.0
 40
0.0
 40
0.0
 40
0.0
 40
0.25
 40
0.25
 40
0.5
 40
0.5
 40
0.75
 40
0.75
 40
1.0
 40
1.0
 40
1.0
 40
1.0
 10
334.3790898953343
 20
101.9609819060022
 30
0.0
 10
334.4311476042251
 20
101.8661072966916
 30
0.0
 10
334.4844811425532
 20
101.7865023718158
 30
0.0
 10
334.5914131501814
 20
101.6776657569216
 30
0.0
 10
334.6451665166289
 20
101.6483421512311
 30
0.0
 10
334.7533455680526
 20
101.6484069329767
 30
0.0
 10
334.8081742646406
 20
101.678563126303
 30
0.0
 10
334.9150812473004
 20
101.7881483276688
 30
0.0
 10
334.9675027622728
 20
101.8666913014709
 30
0.0
 10
335.0192400276749
 20
101.9609819060022
 30
0.0
  0
LINE
  5
38B
330
1F
100
AcDbEntity
  8
0
  6
Continuous
 62
     7
370
    25
100
AcDbLine
 10
334.3933501725
 20
101.4463019206
 30
0.0
 11
328.0933501725
 21
101.4463019206
 31
0.0
  0
LINE
  5
38C
330
1F
100
AcDbEntity
  8
0
  6
Continuous
 62
     7
370
    25
100
AcDbLine
 10
327.4674603173
 20
104.1316219352
 30
0.0
 11
327.4674603173
 21
101.960981906
 31
0.0
  0
LINE
  5
38D
330
1F
100
AcDbEntity
  8
0
  6
Continuous
 62
     7
370
    25
100
AcDbLine
 10
335.0192400277
 20
104.1316219352
 30
0.0
 11
335.0192400277
 21
101.960981906
 31
0.0
  0
SPLINE
  5
38E
330
1F
100
AcDbEntity
  8
0
  6
Continuous
 62
     7
370
    25
100
AcDbSpline
210
0.0
220
0.0
230
1.0
 70
     8
 71
     3
 72
    14
 73
    10
 74
     0
 42
0.000000001
 43
0.00000001
 40
0.0
 40
0.0
 40
0.0
 40
0.0
 40
0.25
 40
0.25
 40
0.5
 40
0.5
 40
0.75
 40
0.75
 40
1.0
 40
1.0
 40
1.0
 40
1.0
 10
497.3790898953343
 20
104.1316219352302
 30
0.0
 10
497.4311476042252
 20
104.2264965445408
 30
0.0
 10
497.4844811425533
 20
104.3061014694165
 30
0.0
 10
497.5914131501814
 20
104.4149380843107
 30
0.0
 10
497.6451665166289
 20
104.4442616900013
 30
0.0
 10
497.7533455680527
 20
104.4441969082556
 30
0.0
 10
497.8081742646406
 20
104.4140407149293
 30
0.0
 10
497.9150812473005
 20
104.3044555135636
 30
0.0
 10
497.9675027622729
 20
104.2259125397614
 30
0.0
 10
498.0192400276749
 20
104.1316219352302
 30
0.0
  0
SPLINE
  5
38F
330
1F
100
AcDbEntity
  8
0
  6
Continuous
 62
     7
370
    25
100
AcDbSpline
210
0.0
220
0.0
230
1.0
 70
     8
 71
     3
 72
    12
 73
     8
 74
     0
 42
0.000000001
 43
0.00000001
 40
0.0
 40
0.0
 40
0.0
 40
0.0
 40
0.5000000000000038
 40
0.5000000000000038
 40
0.7500000000000019
 40
0.7500000000000019
 40
1.0
 40
1.0
 40
1.0
 40
1.0
 10
497.3790898953345
 20
104.1316219352312
 30
0.0
 10
496.7625595054142
 20
104.3221162246547
 30
0.0
 10
496.1367916329644
 20
104.443790637717
 30
0.0
 10
495.1737299235796
 20
104.4444468282483
 30
0.0
 10
494.8530368884498
 20
104.4146128264539
 30
0.0
 10
494.223078638454
 20
104.3056829563463
 30
0.0
 10
493.911849370423
 20
104.2269877692834
 30
0.0
 10
493.6032000401383
 20
104.1316219352307
 30
0.0
  0
SPLINE
  5
390
330
1F
100
AcDbEntity
  8
0
  6
Continuous
 62
     7
370
    25
100
AcDbSpline
210
0.0
220
0.0
230
1.0
 70
     8
 71
     3
 72
    12
 73
     8
 74
     0
 42
0.000000001
 43
0.00000001
 40
0.0
 40
0.0
 40
0.0
 40
0.0
 40
0.4999999999999984
 40
0.4999999999999984
 40
0.7499999999999992
 40
0.7499999999999992
 40
1.0
 40
1.0
 40
1.0
 40
1.0
 10
493.6032000401386
 20
104.1316219352312
 30
0.0
 10
493.0911938884336
 20
104.3221162246547
 30
0.0
 10
492.5715163421654
 20
104.443790637717
 30
0.0
 10
491.7717284846029
 20
104.4444468282483
 30
0.0
 10
491.5054045377548
 20
104.4146128264539
 30
0.0
 10
490.9822470347535
 20
104.3056829563463
 30
0.0
 10
490.7237824036051
 20
104.2269877692834
 30
0.0
 10
490.467460317283
 20
104.1316219352307
 30
0.0
  0
SPLINE
  5
391
330
1F
100
AcDbEntity
  8
0
  6
Continuous
 62
     7
370
    25
100
AcDbSpline
210
0.0
220
0.0
230
1.0
 70
     8
 71
     3
 72
     9
 73
     5
 74
     0
 42
0.000000001
 43
0.00000001
 40
0.0
 40
0.0
 40
0.0
 40
0.0
 40
0.3722348086954484
 40
1.0
 40
1.0
 40
1.0
 40
1.0
 10
490.4674603172831
 20
104.1316219352302
 30
0.0
 10
490.4954265509548
 20
104.1835462440037
 30
0.0
 10
490.5705571755457
 20
104.3230396700902
 30
0.0
 10
490.6491010337023
 20
104.3310483961954
 30
0.0
 10
490.6984081338438
 20
104.3360759956709
 30
0.0
  0
LINE
  5
392
330
1F
100
AcDbEntity
  8
0
  6
Continuous
 62
     7
370
    25
100
AcDbLine
 10
497.3933501725
 20
104.6463019206
 30
0.0
 11
491.0933501725
 21
104.6463019206
 31
0.0
  0
LINE
  5
393
330
1F
100
AcDbEntity
  8
0
  6
Continuous
 62
     7
370
    25
100
AcDbLine
 10
497.3790898953
 20
104.1316219352
 30
0.0
 11
497.3790898953
 21
101.960981906
 31
0.0
  0
SPLINE
  5
394
330
1F
100
AcDbEntity
  8
0
  6
Continuous
 62
     7
370
    25
100
AcDbSpline
210
0.0
220
0.0
230
1.0
 70
     8
 71
     3
 72
    12
 73
     8
 74
     0
 42
0.000000001
 43
0.00000001
 40
0.0
 40
0.0
 40
0.0
 40
0.0
 40
0.4999999999999962
 40
0.4999999999999962
 40
0.7499999999999981
 40
0.7499999999999981
 40
1.0
 40
1.0
 40
1.0
 40
1.0
 10
493.6032000401383
 20
101.9609819060012
 30
0.0
 10
494.2197304300586
 20
101.7704876165777
 30
0.0
 10
494.8454983025084
 20
101.6488132035153
 30
0.0
 10
495.8085600118933
 20
101.6481570129841
 30
0.0
 10
496.129253047023
 20
101.6779910147785
 30
0.0
 10
496.759211297019
 20
101.7869208848861
 30
0.0
 10
497.0704405650498
 20
101.8656160719489
 30
0.0
 10
497.3790898953345
 20
101.9609819060017
 30
0.0
  0
LINE
  5
395
330
1F
100
AcDbEntity
  8
0
  6
Continuous
 62
     7
370
    25
100
AcDbLine
 10
493.6032000401
 20
104.1316219352
 30
0.0
 11
493.6032000401
 21
101.960981906
 31
0.0
  0
SPLINE
  5
396
330
1F
100
AcDbEntity
  8
0
  6
Continuous
 62
     7
370
    25
100
AcDbSpline
210
0.0
220
0.0
230
1.0
 70
     8
 71
     3
 72
     9
 73
     5
 74
     0
 42
0.000000001
 43
0.00000001
 40
0.0
 40
0.0
 40
0.0
 40
0.0
 40
0.6277651913045497
 40
1.0
 40
1.0
 40
1.0
 40
1.0
 10
490.6984081338439
 20
101.7565278455615
 30
0.0
 10
490.6491010337023
 20
101.761555445037
 30
0.0
 10
490.5705571755458
 20
101.7695641711421
 30
0.0
 10
490.4954265509549
 20
101.9090575972286
 30
0.0
 10
490.4674603172831
 20
101.9609819060022
 30
0.0
  0
SPLINE
  5
397
330
1F
100
AcDbEntity
  8
0
  6
Continuous
 62
     7
370
    25
100
AcDbSpline
210
0.0
220
0.0
230
1.0
 70
     8
 71
     3
 72
    12
 73
     8
 74
     0
 42
0.000000001
 43
0.00000001
 40
0.0
 40
0.0
 40
0.0
 40
0.0
 40
0.4999999999999984
 40
0.4999999999999984
 40
0.7499999999999992
 40
0.7499999999999992
 40
1.0
 40
1.0
 40
1.0
 40
1.0
 10
490.467460317283
 20
101.9609819060012
 30
0.0
 10
490.9794664689879
 20
101.7704876165777
 30
0.0
 10
491.4991440152562
 20
101.6488132035153
 30
0.0
 10
492.2989318728187
 20
101.6481570129841
 30
0.0
 10
492.5652558196667
 20
101.6779910147785
 30
0.0
 10
493.0884133226681
 20
101.7869208848861
 30
0.0
 10
493.3468779538165
 20
101.8656160719489
 30
0.0
 10
493.6032000401385
 20
101.9609819060017
 30
0.0
  0
SPLINE
  5
398
330
1F
100
AcDbEntity
  8
0
  6
Continuous
 62
     7
370
    25
100
AcDbSpline
210
0.0
220
0.0
230
1.0
 70
     8
 71
     3
 72
    14
 73
    10
 74
     0
 42
0.000000001
 43
0.00000001
 40
0.0
 40
0.0
 40
0.0
 40
0.0
 40
0.25
 40
0.25
 40
0.5
 40
0.5
 40
0.75
 40
0.75
 40
1.0
 40
1.0
 40
1.0
 40
1.0
 10
497.3790898953343
 20
101.9609819060022
 30
0.0
 10
497.4311476042252
 20
101.8661072966916
 30
0.0
 10
497.4844811425533
 20
101.7865023718158
 30
0.0
 10
497.5914131501814
 20
101.6776657569216
 30
0.0
 10
497.6451665166289
 20
101.6483421512311
 30
0.0
 10
497.7533455680526
 20
101.6484069329767
 30
0.0
 10
497.8081742646406
 20
101.678563126303
 30
0.0
 10
497.9150812473005
 20
101.7881483276688
 30
0.0
 10
497.9675027622729
 20
101.8666913014709
 30
0.0
 10
498.0192400276749
 20
101.9609819060022
 30
0.0
  0
LINE
  5
399
330
1F
100
AcDbEntity
  8
0
  6
Continuous
 62
     7
370
    25
100
AcDbLine
 10
497.3933501725
 20
101.4463019206
 30
0.0
 11
491.0933501725
 21
101.4463019206
 31
0.0
  0
LINE
  5
39A
330
1F
100
AcDbEntity
  8
0
  6
Continuous
 62
     7
370
    25
100
AcDbLine
 10
490.4674603173
 20
104.1316219352
 30
0.0
 11
490.4674603173
 21
101.960981906
 31
0.0
  0
LINE
  5
39B
330
1F
100
AcDbEntity
  8
0
  6
Continuous
 62
     7
370
    25
100
AcDbLine
 10
498.0192400277
 20
104.1316219352
 30
0.0
 11
498.0192400277
 21
101.960981906
 31
0.0
  0
SPLINE
  5
39C
330
1F
100
AcDbEntity
  8
0
  6
Continuous
 62
     7
370
    25
100
AcDbSpline
210
0.0
220
0.0
230
1.0
 70
     8
 71
     3
 72
    14
 73
    10
 74
     0
 42
0.000000001
 43
0.00000001
 40
0.0
 40
0.0
 40
0.0
 40
0.0
 40
0.25
 40
0.25
 40
0.5
 40
0.5
 40
0.75
 40
0.75
 40
1.0
 40
1.0
 40
1.0
 40
1.0
 10
184.3790898953343
 20
104.1316219352302
 30
0.0
 10
184.4311476042252
 20
104.2264965445408
 30
0.0
 10
184.4844811425532
 20
104.3061014694166
 30
0.0
 10
184.5914131501814
 20
104.4149380843108
 30
0.0
 10
184.6451665166289
 20
104.4442616900013
 30
0.0
 10
184.7533455680526
 20
104.4441969082557
 30
0.0
 10
184.8081742646406
 20
104.4140407149293
 30
0.0
 10
184.9150812473004
 20
104.3044555135636
 30
0.0
 10
184.9675027622728
 20
104.2259125397615
 30
0.0
 10
185.019240027675
 20
104.1316219352302
 30
0.0
  0
SPLINE
  5
39D
330
1F
100
AcDbEntity
  8
0
  6
Continuous
 62
     7
370
    25
100
AcDbSpline
210
0.0
220
0.0
230
1.0
 70
     8
 71
     3
 72
    12
 73
     8
 74
     0
 42
0.000000001
 43
0.00000001
 40
0.0
 40
0.0
 40
0.0
 40
0.0
 40
0.4999999999999896
 40
0.4999999999999896
 40
0.7499999999999948
 40
0.7499999999999948
 40
1.0
 40
1.0
 40
1.0
 40
1.0
 10
184.3790898953345
 20
104.1316219352312
 30
0.0
 10
183.7625595054142
 20
104.3221162246547
 30
0.0
 10
183.1367916329644
 20
104.4437906377171
 30
0.0
 10
182.1737299235795
 20
104.4444468282483
 30
0.0
 10
181.8530368884499
 20
104.4146128264539
 30
0.0
 10
181.2230786384539
 20
104.3056829563463
 30
0.0
 10
180.9118493704229
 20
104.2269877692834
 30
0.0
 10
180.6032000401383
 20
104.1316219352307
 30
0.0
  0
SPLINE
  5
39E
330
1F
100
AcDbEntity
  8
0
  6
Continuous
 62
     7
370
    25
100
AcDbSpline
210
0.0
220
0.0
230
1.0
 70
     8
 71
     3
 72
    12
 73
     8
 74
     0
 42
0.000000001
 43
0.00000001
 40
0.0
 40
0.0
 40
0.0
 40
0.0
 40
0.5000000000000062
 40
0.5000000000000062
 40
0.7500000000000031
 40
0.7500000000000031
 40
1.0
 40
1.0
 40
1.0
 40
1.0
 10
180.6032000401385
 20
104.1316219352312
 30
0.0
 10
180.0911938884336
 20
104.3221162246547
 30
0.0
 10
179.5715163421654
 20
104.4437906377171
 30
0.0
 10
178.7717284846029
 20
104.4444468282483
 30
0.0
 10
178.5054045377549
 20
104.4146128264539
 30
0.0
 10
177.9822470347535
 20
104.3056829563463
 30
0.0
 10
177.7237824036052
 20
104.2269877692834
 30
0.0
 10
177.467460317283
 20
104.1316219352307
 30
0.0
  0
SPLINE
  5
39F
330
1F
100
AcDbEntity
  8
0
  6
Continuous
 62
     7
370
    25
100
AcDbSpline
210
0.0
220
0.0
230
1.0
 70
     8
 71
     3
 72
     9
 73
     5
 74
     0
 42
0.000000001
 43
0.00000001
 40
0.0
 40
0.0
 40
0.0
 40
0.0
 40
0.3722348086954466
 40
0.9999999999999999
 40
0.9999999999999999
 40
0.9999999999999999
 40
0.9999999999999999
 10
177.4674603172831
 20
104.1316219352302
 30
0.0
 10
177.4954265509549
 20
104.1835462440038
 30
0.0
 10
177.5705571755458
 20
104.3230396700903
 30
0.0
 10
177.6491010337024
 20
104.3310483961954
 30
0.0
 10
177.6984081338439
 20
104.3360759956709
 30
0.0
  0
LINE
  5
3A0
330
1F
100
AcDbEntity
  8
0
  6
Continuous
 62
     7
370
    25
100
AcDbLine
 10
184.3933501725
 20
104.6463019206
 30
0.0
 11
178.0933501725
 21
104.6463019206
 31
0.0
  0
LINE
  5
3A1
330
1F
100
AcDbEntity
  8
0
  6
Continuous
 62
     7
370
    25
100
AcDbLine
 10
184.3790898953
 20
104.1316219352
 30
0.0
 11
184.3790898953
 21
101.960981906
 31
0.0
  0
SPLINE
  5
3A2
330
1F
100
AcDbEntity
  8
0
  6
Continuous
 62
     7
370
    25
100
AcDbSpline
210
0.0
220
0.0
230
1.0
 70
     8
 71
     3
 72
    12
 73
     8
 74
     0
 42
0.000000001
 43
0.00000001
 40
0.0
 40
0.0
 40
0.0
 40
0.0
 40
0.5000000000000103
 40
0.5000000000000103
 40
0.7500000000000051
 40
0.7500000000000051
 40
1.0
 40
1.0
 40
1.0
 40
1.0
 10
180.6032000401383
 20
101.9609819060012
 30
0.0
 10
181.2197304300586
 20
101.7704876165777
 30
0.0
 10
181.8454983025084
 20
101.6488132035153
 30
0.0
 10
182.8085600118932
 20
101.6481570129841
 30
0.0
 10
183.1292530470229
 20
101.6779910147785
 30
0.0
 10
183.7592112970189
 20
101.7869208848861
 30
0.0
 10
184.0704405650499
 20
101.8656160719489
 30
0.0
 10
184.3790898953344
 20
101.9609819060017
 30
0.0
  0
LINE
  5
3A3
330
1F
100
AcDbEntity
  8
0
  6
Continuous
 62
     7
370
    25
100
AcDbLine
 10
180.6032000401
 20
104.1316219352
 30
0.0
 11
180.6032000401
 21
101.960981906
 31
0.0
  0
SPLINE
  5
3A4
330
1F
100
AcDbEntity
  8
0
  6
Continuous
 62
     7
370
    25
100
AcDbSpline
210
0.0
220
0.0
230
1.0
 70
     8
 71
     3
 72
     9
 73
     5
 74
     0
 42
0.000000001
 43
0.00000001
 40
0.0
 40
0.0
 40
0.0
 40
0.0
 40
0.6277651913045497
 40
1.0
 40
1.0
 40
1.0
 40
1.0
 10
177.6984081338438
 20
101.7565278455615
 30
0.0
 10
177.6491010337023
 20
101.761555445037
 30
0.0
 10
177.5705571755456
 20
101.7695641711421
 30
0.0
 10
177.4954265509548
 20
101.9090575972286
 30
0.0
 10
177.4674603172831
 20
101.9609819060022
 30
0.0
  0
SPLINE
  5
3A5
330
1F
100
AcDbEntity
  8
0
  6
Continuous
 62
     7
370
    25
100
AcDbSpline
210
0.0
220
0.0
230
1.0
 70
     8
 71
     3
 72
    12
 73
     8
 74
     0
 42
0.000000001
 43
0.00000001
 40
0.0
 40
0.0
 40
0.0
 40
0.0
 40
0.4999999999999938
 40
0.4999999999999938
 40
0.7499999999999969
 40
0.7499999999999969
 40
1.0
 40
1.0
 40
1.0
 40
1.0
 10
177.467460317283
 20
101.9609819060012
 30
0.0
 10
177.9794664689879
 20
101.7704876165777
 30
0.0
 10
178.4991440152561
 20
101.6488132035153
 30
0.0
 10
179.2989318728187
 20
101.6481570129841
 30
0.0
 10
179.5652558196667
 20
101.6779910147785
 30
0.0
 10
180.0884133226681
 20
101.7869208848861
 30
0.0
 10
180.3468779538164
 20
101.865616071949
 30
0.0
 10
180.6032000401385
 20
101.9609819060017
 30
0.0
  0
SPLINE
  5
3A6
330
1F
100
AcDbEntity
  8
0
  6
Continuous
 62
     7
370
    25
100
AcDbSpline
210
0.0
220
0.0
230
1.0
 70
     8
 71
     3
 72
    14
 73
    10
 74
     0
 42
0.000000001
 43
0.00000001
 40
0.0
 40
0.0
 40
0.0
 40
0.0
 40
0.25
 40
0.25
 40
0.5
 40
0.5
 40
0.75
 40
0.75
 40
1.0
 40
1.0
 40
1.0
 40
1.0
 10
184.3790898953343
 20
101.9609819060022
 30
0.0
 10
184.4311476042252
 20
101.8661072966916
 30
0.0
 10
184.4844811425532
 20
101.7865023718158
 30
0.0
 10
184.5914131501814
 20
101.6776657569216
 30
0.0
 10
184.6451665166289
 20
101.6483421512311
 30
0.0
 10
184.7533455680526
 20
101.6484069329767
 30
0.0
 10
184.8081742646406
 20
101.6785631263031
 30
0.0
 10
184.9150812473004
 20
101.7881483276688
 30
0.0
 10
184.9675027622728
 20
101.866691301471
 30
0.0
 10
185.019240027675
 20
101.9609819060022
 30
0.0
  0
LINE
  5
3A7
330
1F
100
AcDbEntity
  8
0
  6
Continuous
 62
     7
370
    25
100
AcDbLine
 10
184.3933501725
 20
101.4463019206
 30
0.0
 11
178.0933501725
 21
101.4463019206
 31
0.0
  0
LINE
  5
3A8
330
1F
100
AcDbEntity
  8
0
  6
Continuous
 62
     7
370
    25
100
AcDbLine
 10
177.4674603173
 20
104.1316219352
 30
0.0
 11
177.4674603173
 21
101.960981906
 31
0.0
  0
LINE
  5
3A9
330
1F
100
AcDbEntity
  8
0
  6
Continuous
 62
     7
370
    25
100
AcDbLine
 10
185.0192400277
 20
104.1316219352
 30
0.0
 11
185.0192400277
 21
101.960981906
 31
0.0
  0
LINE
  5
3AA
330
1F
100
AcDbEntity
  8
0
  6
Continuous
 62
     7
370
    25
100
AcDbLine
 10
664.2433501725
 20
98.7463019206
 30
0.0
 11
665.164280405
 21
88.8463019206
 31
0.0
  0
LINE
  5
3AB
330
1F
100
AcDbEntity
  8
0
  6
Continuous
 62
     7
370
    25
100
AcDbLine
 10
160.3224199399
 20
88.8463019206
 30
0.0
 11
161.2433501725
 21
98.7463019206
 31
0.0
  0
LINE
  5
3AC
330
1F
100
AcDbEntity
  8
0
  6
Continuous
 62
     7
370
    25
100
AcDbLine
 10
160.2433501725
 20
87.9963019206
 30
0.0
 11
160.3224199399
 21
88.8463019206
 31
0.0
  0
LINE
  5
3AD
330
1F
100
AcDbEntity
  8
0
  6
Continuous
 62
     7
370
    25
100
AcDbLine
 10
665.164280405
 20
88.8463019206
 30
0.0
 11
665.2433501725
 21
87.9963019206
 31
0.0
  0
LINE
  5
3AE
330
1F
100
AcDbEntity
  8
0
  6
Continuous
 62
     7
370
    25
100
AcDbLine
 10
161.2433501725
 20
100.5463019206
 30
0.0
 11
664.2433501725
 21
100.5463019206
 31
0.0
  0
LINE
  5
3AF
330
1F
100
AcDbEntity
  8
0
  6
Continuous
 62
     7
370
    25
100
AcDbLine
 10
664.2433501725
 20
100.5463019206
 30
0.0
 11
664.2433501725
 21
98.7463019206
 31
0.0
  0
LINE
  5
3B0
330
1F
100
AcDbEntity
  8
0
  6
Continuous
 62
     7
370
    25
100
AcDbLine
 10
161.2433501725
 20
98.7463019206
 30
0.0
 11
161.2433501725
 21
100.5463019206
 31
0.0
  0
LINE
  5
3B1
330
1F
100
AcDbEntity
  8
0
  6
Continuous
 62
     7
370
    25
100
AcDbLine
 10
643.9265580143
 20
109.7463019206
 30
0.0
 11
646.2433501725
 21
109.7463019206
 31
0.0
  0
LINE
  5
3B2
330
1F
100
AcDbEntity
  8
0
  6
Continuous
 62
     7
370
    25
100
AcDbLine
 10
642.2433501725
 20
109.7463019206
 30
0.0
 11
643.9265580143
 21
109.7463019206
 31
0.0
  0
LINE
  5
3B3
330
1F
100
AcDbEntity
  8
0
  6
Continuous
 62
     7
370
    25
100
AcDbLine
 10
330.9265580143
 20
109.7463019206
 30
0.0
 11
333.2433501725
 21
109.7463019206
 31
0.0
  0
LINE
  5
3B4
330
1F
100
AcDbEntity
  8
0
  6
Continuous
 62
     7
370
    25
100
AcDbLine
 10
329.2433501725
 20
109.7463019206
 30
0.0
 11
330.9265580143
 21
109.7463019206
 31
0.0
  0
LINE
  5
3B5
330
1F
100
AcDbEntity
  8
0
  6
Continuous
 62
     7
370
    25
100
AcDbLine
 10
493.9265580143
 20
109.7463019206
 30
0.0
 11
496.2433501725
 21
109.7463019206
 31
0.0
  0
LINE
  5
3B6
330
1F
100
AcDbEntity
  8
0
  6
Continuous
 62
     7
370
    25
100
AcDbLine
 10
492.2433501725
 20
109.7463019206
 30
0.0
 11
493.9265580143
 21
109.7463019206
 31
0.0
  0
LINE
  5
3B7
330
1F
100
AcDbEntity
  8
0
  6
Continuous
 62
     7
370
    25
100
AcDbLine
 10
180.9265580143
 20
109.7463019206
 30
0.0
 11
183.2433501725
 21
109.7463019206
 31
0.0
  0
LINE
  5
3B8
330
1F
100
AcDbEntity
  8
0
  6
Continuous
 62
     7
370
    25
100
AcDbLine
 10
179.2433501725
 20
109.7463019206
 30
0.0
 11
180.9265580143
 21
109.7463019206
 31
0.0
  0
LINE
  5
3B9
330
1F
100
AcDbEntity
  8
0
  6
Continuous
 62
     7
370
    25
100
AcDbLine
 10
665.7433501725
 20
120.9463019206
 30
0.0
 11
666.7433501725
 21
120.9463019206
 31
0.0
  0
LINE
  5
3BA
330
1F
100
AcDbEntity
  8
0
  6
Continuous
 62
     7
370
    25
100
AcDbLine
 10
666.7433501725
 20
120.9463019206
 30
0.0
 11
666.7433501725
 21
118.9463019206
 31
0.0
  0
LINE
  5
3BB
330
1F
100
AcDbEntity
  8
0
  6
Continuous
 62
     7
370
    25
100
AcDbLine
 10
666.7433501725
 20
118.9463019206
 30
0.0
 11
666.7433501725
 21
116.0463019206
 31
0.0
  0
LINE
  5
3BC
330
1F
100
AcDbEntity
  8
0
  6
Continuous
 62
     7
370
    25
100
AcDbLine
 10
666.7433501725
 20
110.0463019206
 30
0.0
 11
666.7433501725
 21
89.9463019206
 31
0.0
  0
LINE
  5
3BD
330
1F
100
AcDbEntity
  8
0
  6
Continuous
 62
     7
370
    25
100
AcDbLine
 10
664.7433501725
 20
102.5463019206
 30
0.0
 11
664.7433501725
 21
93.3713019206
 31
0.0
  0
LINE
  5
3BE
330
1F
100
AcDbEntity
  8
0
  6
Continuous
 62
     7
370
    25
100
AcDbLine
 10
666.7416830426
 20
89.8463019206
 30
0.0
 11
666.7433501725
 21
89.9463019206
 31
0.0
  0
LINE
  5
3BF
330
1F
100
AcDbEntity
  8
0
  6
Continuous
 62
     7
370
    25
100
AcDbLine
 10
666.7433501725
 20
104.9463019206
 30
0.0
 11
666.8036575517
 21
104.9463019206
 31
0.0
  0
LINE
  5
3C0
330
1F
100
AcDbEntity
  8
0
  6
Continuous
 62
     7
370
    25
100
AcDbLine
 10
666.8036575517
 20
120.9463019206
 30
0.0
 11
666.7433501725
 21
120.9463019206
 31
0.0
  0
LINE
  5
3C1
330
1F
100
AcDbEntity
  8
0
  6
Continuous
 62
     7
370
    25
100
AcDbLine
 10
666.8036575517
 20
120.9463019206
 30
0.0
 11
668.674856274
 21
120.9463019206
 31
0.0
  0
LWPOLYLINE
  5
3C2
330
1F
100
AcDbEntity
  8
0
  6
Continuous
 62
     7
370
    25
100
AcDbPolyline
 90
        9
 70
   128
 43
0.0
 10
669.3588965607
 20
118.9463019206
 10
669.3457529184
 20
119.3364825646
 10
669.3068270943
 20
119.7116687853
 10
669.2436149859
 20
120.0574423867
 10
669.1585457993
 20
120.360515483
 10
669.0548886955
 20
120.6092411452
 10
668.9366271588
 20
120.7940609856
 10
668.8083059138
 20
120.9078724814
 10
668.674856274
 20
120.9463019206
  0
LINE
  5
3C3
330
1F
100
AcDbEntity
  8
0
  6
Continuous
 62
     7
370
    25
100
AcDbLine
 10
669.3588965607
 20
118.9463019206
 30
0.0
 11
669.3588965607
 21
116.0463019206
 31
0.0
  0
LINE
  5
3C4
330
1F
100
AcDbEntity
  8
0
  6
Continuous
 62
     7
370
    25
100
AcDbLine
 10
669.3588965607
 20
110.0463019206
 30
0.0
 11
669.3588965607
 21
106.9463019206
 31
0.0
  0
LWPOLYLINE
  5
3C5
330
1F
100
AcDbEntity
  8
0
  6
Continuous
 62
     7
370
    25
100
AcDbPolyline
 90
        9
 70
   128
 43
0.0
 10
668.674856274
 20
104.9463019206
 10
668.8083059138
 20
104.9847313598
 10
668.9366271588
 20
105.0985428556
 10
669.0548886955
 20
105.283362696
 10
669.1585457993
 20
105.5320883582
 10
669.2436149859
 20
105.8351614546
 10
669.3068270943
 20
106.1809350559
 10
669.3457529184
 20
106.5561212766
 10
669.3588965607
 20
106.9463019206
  0
LINE
  5
3C6
330
1F
100
AcDbEntity
  8
0
  6
Continuous
 62
     7
370
    25
100
AcDbLine
 10
668.674856274
 20
104.9463019206
 30
0.0
 11
666.8036575517
 21
104.9463019206
 31
0.0
  0
LINE
  5
3C7
330
1F
100
AcDbEntity
  8
0
  6
Continuous
 62
     7
370
    25
100
AcDbLine
 10
158.7433501725
 20
120.9463019206
 30
0.0
 11
159.7433501725
 21
120.9463019206
 31
0.0
  0
LINE
  5
3C8
330
1F
100
AcDbEntity
  8
0
  6
Continuous
 62
     7
370
    25
100
AcDbLine
 10
158.7433501725
 20
118.9463019206
 30
0.0
 11
158.7433501725
 21
120.9463019206
 31
0.0
  0
LINE
  5
3C9
330
1F
100
AcDbEntity
  8
0
  6
Continuous
 62
     7
370
    25
100
AcDbLine
 10
158.7433501725
 20
89.9463019206
 30
0.0
 11
158.7433501725
 21
110.0463019206
 31
0.0
  0
LINE
  5
3CA
330
1F
100
AcDbEntity
  8
0
  6
Continuous
 62
     7
370
    25
100
AcDbLine
 10
158.7433501725
 20
116.0463019206
 30
0.0
 11
158.7433501725
 21
118.9463019206
 31
0.0
  0
LINE
  5
3CB
330
1F
100
AcDbEntity
  8
0
  6
Continuous
 62
     7
370
    25
100
AcDbLine
 10
160.7433501725
 20
93.3713019206
 30
0.0
 11
160.7433501725
 21
102.5463019206
 31
0.0
  0
LINE
  5
3CC
330
1F
100
AcDbEntity
  8
0
  6
Continuous
 62
     7
370
    25
100
AcDbLine
 10
158.7433501725
 20
89.9463019206
 30
0.0
 11
158.7450173024
 21
89.8463019206
 31
0.0
  0
LINE
  5
3CD
330
1F
100
AcDbEntity
  8
0
  6
Continuous
 62
     7
370
    25
100
AcDbLine
 10
158.6830427933
 20
104.9463019206
 30
0.0
 11
158.7433501725
 21
104.9463019206
 31
0.0
  0
LINE
  5
3CE
330
1F
100
AcDbEntity
  8
0
  6
Continuous
 62
     7
370
    25
100
AcDbLine
 10
158.7433501725
 20
120.9463019206
 30
0.0
 11
158.6830427933
 21
120.9463019206
 31
0.0
  0
LWPOLYLINE
  5
3CF
330
1F
100
AcDbEntity
  8
0
  6
Continuous
 62
     7
370
    25
100
AcDbPolyline
 90
        9
 70
   128
 43
0.0
 10
156.811844071
 20
120.9463019206
 10
156.6783944312
 20
120.9078724814
 10
156.5500731862
 20
120.7940609856
 10
156.4318116495
 20
120.6092411452
 10
156.3281545457
 20
120.360515483
 10
156.243085359
 20
120.0574423867
 10
156.1798732507
 20
119.7116687853
 10
156.1409474266
 20
119.3364825646
 10
156.1278037843
 20
118.9463019206
  0
LINE
  5
3D0
330
1F
100
AcDbEntity
  8
0
  6
Continuous
 62
     7
370
    25
100
AcDbLine
 10
156.811844071
 20
120.9463019206
 30
0.0
 11
158.6830427933
 21
120.9463019206
 31
0.0
  0
LINE
  5
3D1
330
1F
100
AcDbEntity
  8
0
  6
Continuous
 62
     7
370
    25
100
AcDbLine
 10
158.6830427933
 20
104.9463019206
 30
0.0
 11
156.811844071
 21
104.9463019206
 31
0.0
  0
LWPOLYLINE
  5
3D2
330
1F
100
AcDbEntity
  8
0
  6
Continuous
 62
     7
370
    25
100
AcDbPolyline
 90
        9
 70
   128
 43
0.0
 10
156.1278037843
 20
106.9463019206
 10
156.1409474266
 20
106.5561212766
 10
156.1798732507
 20
106.1809350559
 10
156.243085359
 20
105.8351614546
 10
156.3281545457
 20
105.5320883582
 10
156.4318116495
 20
105.283362696
 10
156.5500731862
 20
105.0985428556
 10
156.6783944312
 20
104.9847313598
 10
156.811844071
 20
104.9463019206
  0
LINE
  5
3D3
330
1F
100
AcDbEntity
  8
0
  6
Continuous
 62
     7
370
    25
100
AcDbLine
 10
156.1278037843
 20
106.9463019206
 30
0.0
 11
156.1278037843
 21
110.0463019206
 31
0.0
  0
LINE
  5
3D4
330
1F
100
AcDbEntity
  8
0
  6
Continuous
 62
     7
370
    25
100
AcDbLine
 10
156.1278037843
 20
116.0463019206
 30
0.0
 11
156.1278037843
 21
118.9463019206
 31
0.0
  0
SPLINE
  5
3D5
330
1F
100
AcDbEntity
  8
0
  6
Continuous
 62
     7
370
    25
100
AcDbSpline
210
0.0
220
0.0
230
1.0
 70
    24
 71
     3
 72
     9
 73
     5
 74
     0
 42
0.000000001
 43
0.00000001
 40
0.0
 40
0.0
 40
0.0
 40
0.0
 40
0.7059102712394207
 40
1.0
 40
1.0
 40
1.0
 40
1.0
 10
160.5433501724774
 20
118.8195507300065
 30
0.0
 10
160.5433501724773
 20
118.829803499303
 30
0.0
 10
160.5433501724774
 20
118.8443276813617
 30
0.0
 10
160.5433501724774
 20
118.7492757247532
 30
0.0
 10
160.5433501724774
 20
118.7213219206161
 30
0.0
  0
SPLINE
  5
3D6
330
1F
100
AcDbEntity
  8
0
  6
Continuous
 62
     7
370
    25
100
AcDbSpline
210
0.0
220
0.0
230
1.0
 70
    24
 71
     3
 72
    12
 73
     8
 74
     0
 42
0.000000001
 43
0.00000001
 40
0.0
 40
0.0
 40
0.0
 40
0.0
 40
0.3344405486782622
 40
0.5144757571369856
 40
0.6983315710265352
 40
0.8821873849160855
 40
1.0
 40
1.0
 40
1.0
 40
1.0
 10
161.5433501724774
 20
115.552609225673
 30
0.0
 10
161.5433501724774
 20
116.1767547611748
 30
0.0
 10
161.5433501724774
 20
117.1368887766524
 30
0.0
 10
161.5433501724773
 20
118.0447996829477
 30
0.0
 10
161.5433501724774
 20
118.5505170208639
 30
0.0
 10
161.5433501724774
 20
118.822136755002
 30
0.0
 10
161.5433501724774
 20
118.8202770235423
 30
0.0
 10
161.5433501724774
 20
118.8195507300174
 30
0.0
  0
SPLINE
  5
3D7
330
1F
100
AcDbEntity
  8
0
  6
Continuous
 62
     7
370
    25
100
AcDbSpline
210
0.0
220
0.0
230
1.0
 70
    24
 71
     3
 72
    15
 73
    11
 74
     0
 42
0.000000001
 43
0.00000001
 40
0.0
 40
0.0
 40
0.0
 40
0.0
 40
0.0346967497918661
 40
0.2211884951269648
 40
0.4076802404620641
 40
0.5080720152630789
 40
0.6105942475634828
 40
0.7131164798638868
 40
0.8135082546649011
 40
1.0
 40
1.0
 40
1.0
 40
1.0
 10
161.5433501724774
 20
107.2730531112117
 30
0.0
 10
161.5433501724773
 20
107.2663320075803
 30
0.0
 10
161.5433501724773
 20
107.2234856082275
 30
0.0
 10
161.5433501724774
 20
107.711526570986
 30
0.0
 10
161.5433501724775
 20
108.8074376284546
 30
0.0
 10
161.5433501724774
 20
110.026334760902
 30
0.0
 10
161.5433501724774
 20
111.106509988759
 30
0.0
 10
161.5433501724774
 20
112.2669868912247
 30
0.0
 10
161.5433501724775
 20
113.7975617863398
 30
0.0
 10
161.5433501724774
 20
114.8611876749899
 30
0.0
 10
161.5433501724774
 20
115.552609225673
 30
0.0
  0
LINE
  5
3D8
330
1F
100
AcDbEntity
  8
0
  6
Continuous
 62
     7
370
    25
100
AcDbLine
 10
165.5433501725
 20
112.6629068929
 30
0.0
 11
165.5433501725
 21
117.1719827999
 31
0.0
  0
SPLINE
  5
3D9
330
1F
100
AcDbEntity
  8
0
  6
Continuous
 62
     7
370
    25
100
AcDbSpline
210
0.0
220
0.0
230
1.0
 70
     8
 71
     3
 72
     8
 73
     4
 74
     0
 42
0.000000001
 43
0.00000001
 40
0.0
 40
0.0
 40
0.0
 40
0.0
 40
1.0
 40
1.0
 40
1.0
 40
1.0
 10
165.5433501724704
 20
112.6629068929281
 30
0.0
 10
165.5433501724704
 20
113.6452853375009
 30
0.0
 10
165.369034872091
 20
114.6007765056906
 30
0.0
 10
165.096768185079
 20
115.5411591550182
 30
0.0
  0
SPLINE
  5
3DA
330
1F
100
AcDbEntity
  8
0
  6
Continuous
 62
     7
370
    25
100
AcDbSpline
210
0.0
220
0.0
230
1.0
 70
     8
 71
     3
 72
     8
 73
     4
 74
     0
 42
0.000000001
 43
0.00000001
 40
0.0
 40
0.0
 40
0.0
 40
0.0
 40
1.0
 40
1.0
 40
1.0
 40
1.0
 10
165.0967681850789
 20
115.5411591550243
 30
0.0
 10
165.3690348720903
 20
116.0739818960891
 30
0.0
 10
165.5433501724702
 20
116.6153651549837
 30
0.0
 10
165.5433501724702
 20
117.1719827999122
 30
0.0
  0
SPLINE
  5
3DB
330
1F
100
AcDbEntity
  8
0
  6
Continuous
 62
     7
370
    25
100
AcDbSpline
210
0.0
220
0.0
230
1.0
 70
     8
 71
     3
 72
     8
 73
     4
 74
     0
 42
0.000000001
 43
0.00000001
 40
0.0
 40
0.0
 40
0.0
 40
0.0
 40
1.0
 40
1.0
 40
1.0
 40
1.0
 10
165.096768185079
 20
109.7846546308381
 30
0.0
 10
165.3690348720905
 20
110.7250372801639
 30
0.0
 10
165.5433501724704
 20
111.6805284483572
 30
0.0
 10
165.5433501724704
 20
112.6629068929281
 30
0.0
  0
LINE
  5
3DC
330
1F
100
AcDbEntity
  8
0
  6
Continuous
 62
     7
370
    25
100
AcDbLine
 10
161.5433501725
 20
109.7846546308
 30
0.0
 11
165.0967681851
 21
109.7846546308
 31
0.0
  0
LINE
  5
3DD
330
1F
100
AcDbEntity
  8
0
  6
Continuous
 62
     7
370
    25
100
AcDbLine
 10
161.5433501725
 20
115.541159155
 30
0.0
 11
165.0967681851
 21
115.541159155
 31
0.0
  0
LINE
  5
3DE
330
1F
100
AcDbEntity
  8
0
  6
Continuous
 62
     7
370
    25
100
AcDbLine
 10
165.5433501725
 20
108.5372260136
 30
0.0
 11
165.5433501725
 21
112.6629068929
 31
0.0
  0
SPLINE
  5
3DF
330
1F
100
AcDbEntity
  8
0
  6
Continuous
 62
     7
370
    25
100
AcDbSpline
210
0.0
220
0.0
230
1.0
 70
     8
 71
     3
 72
     8
 73
     4
 74
     0
 42
0.000000001
 43
0.00000001
 40
0.0
 40
0.0
 40
0.0
 40
0.0
 40
1.0
 40
1.0
 40
1.0
 40
1.0
 10
165.5433501724702
 20
108.5372260136306
 30
0.0
 10
165.5433501724702
 20
108.9629868132738
 30
0.0
 10
165.3690348720909
 20
109.3770947225708
 30
0.0
 10
165.096768185079
 20
109.7846546308325
 30
0.0
  0
SPLINE
  5
3E0
330
1F
100
AcDbEntity
  8
0
  6
Continuous
 62
     7
370
    25
100
AcDbSpline
210
0.0
220
0.0
230
1.0
 70
     8
 71
     3
 72
     8
 73
     4
 74
     0
 42
0.000000001
 43
0.00000001
 40
0.0
 40
0.0
 40
0.0
 40
0.0
 40
1.0
 40
1.0
 40
1.0
 40
1.0
 10
165.5433501724702
 20
117.1719827999122
 30
0.0
 10
165.5433501724702
 20
117.7286004448416
 30
0.0
 10
165.3690348720908
 20
118.2699837037342
 30
0.0
 10
165.0967681850789
 20
118.8028064448
 30
0.0
  0
LINE
  5
3E1
330
1F
100
AcDbEntity
  8
0
  6
Continuous
 62
     7
370
    25
100
AcDbLine
 10
161.5433501725
 20
118.8028064448
 30
0.0
 11
165.0967681851
 21
118.8028064448
 31
0.0
  0
SPLINE
  5
3E2
330
1F
100
AcDbEntity
  8
0
  6
Continuous
 62
     7
370
    25
100
AcDbSpline
210
0.0
220
0.0
230
1.0
 70
     8
 71
     3
 72
     8
 73
     4
 74
     0
 42
0.000000001
 43
0.00000001
 40
0.0
 40
0.0
 40
0.0
 40
0.0
 40
1.0
 40
1.0
 40
1.0
 40
1.0
 10
165.096768185079
 20
107.2897973964286
 30
0.0
 10
165.3690348720904
 20
107.6973573046896
 30
0.0
 10
165.5433501724702
 20
108.111465213988
 30
0.0
 10
165.5433501724702
 20
108.5372260136306
 30
0.0
  0
LINE
  5
3E3
330
1F
100
AcDbEntity
  8
0
  6
Continuous
 62
     7
370
    25
100
AcDbLine
 10
165.0967681851
 20
107.2897973964
 30
0.0
 11
161.5433501725
 21
107.2897973964
 31
0.0
  0
LINE
  5
3E4
330
1F
100
AcDbEntity
  8
0
  6
Continuous
 62
     7
370
    25
100
AcDbLine
 10
150.5433501725
 20
115.5050519206
 30
0.0
 11
150.5433501725
 21
110.5875519206
 31
0.0
  0
LINE
  5
3E5
330
1F
100
AcDbEntity
  8
0
  6
Continuous
 62
     7
370
    25
100
AcDbLine
 10
151.0846001725
 20
110.3408563764
 30
0.0
 11
151.0846001725
 21
110.0463019206
 31
0.0
  0
LINE
  5
3E6
330
1F
100
AcDbEntity
  8
0
  6
Continuous
 62
     7
370
    25
100
AcDbLine
 10
151.0846001725
 20
116.0463019206
 30
0.0
 11
151.0846001725
 21
110.3408563764
 31
0.0
  0
LINE
  5
3E7
330
1F
100
AcDbEntity
  8
0
  6
Continuous
 62
     7
370
    25
100
AcDbLine
 10
165.0967681851
 20
118.8028064448
 30
0.0
 11
165.1719559406
 21
118.592785977
 31
0.0
  0
LINE
  5
3E8
330
1F
100
AcDbEntity
  8
0
  6
Continuous
 62
     7
370
    25
100
AcDbLine
 10
165.5433501725
 20
117.1719827999
 30
0.0
 11
165.5433501725
 21
118.0463019206
 31
0.0
  0
LINE
  5
3E9
330
1F
100
AcDbEntity
  8
0
  6
Continuous
 62
     7
370
    25
100
AcDbLine
 10
165.5433501725
 20
108.0463019206
 30
0.0
 11
165.5433501725
 21
108.5372260136
 31
0.0
  0
ARC
  5
3EA
330
1F
100
AcDbEntity
  8
0
  6
Continuous
 62
     7
370
    25
100
AcDbCircle
 10
152.2433501725
 20
83.8463019206
 30
0.0
 40
6.000000000000017
100
AcDbArc
 50
90.0
 51
143.1301023542
  0
ARC
  5
3EB
330
1F
100
AcDbEntity
  8
0
  6
Continuous
 62
     7
370
    25
100
AcDbCircle
 10
673.2433501725
 20
83.8463019206
 30
0.0
 40
6.00000000000004
100
AcDbArc
 50
36.8698976458
 51
90.0
  0
LINE
  5
3EC
330
1F
100
AcDbEntity
  8
0
  6
Continuous
 62
     7
370
    25
100
AcDbLine
 10
46.4438211697
 20
322.6075204992
 30
0.0
 11
46.0808833914
 21
321.9788938271
 31
0.0
  0
LINE
  5
3ED
330
1F
100
AcDbEntity
  8
0
  6
Continuous
 62
     7
370
    25
100
AcDbLine
 10
46.0808833914
 20
315.6788938271
 30
0.0
 11
46.4438211697
 21
315.050267155
 31
0.0
  0
ARC
  5
3EE
330
1F
100
AcDbEntity
  8
0
  6
Continuous
 62
     7
370
    25
100
AcDbCircle
 10
49.3090866216
 20
318.8288938271
 30
0.0
 40
8.000000000000004
100
AcDbArc
 50
195.2747479997
 51
210.0
  0
ARC
  5
3EF
330
1F
100
AcDbEntity
  8
0
  6
Continuous
 62
     7
370
    25
100
AcDbCircle
 10
49.3090866216
 20
318.8288938271
 30
0.0
 40
8.000000000000004
100
AcDbArc
 50
150.0
 51
164.7252520003
  0
LINE
  5
3F0
330
1F
100
AcDbEntity
  8
0
  6
Continuous
 62
     7
370
    25
100
AcDbLine
 10
44.3808833914
 20
322.8288938271
 30
0.0
 11
42.3808833914
 21
322.8288938271
 31
0.0
  0
LINE
  5
3F1
330
1F
100
AcDbEntity
  8
0
  6
Continuous
 62
     7
370
    25
100
AcDbLine
 10
42.3808833914
 20
314.8288938271
 30
0.0
 11
44.3808833914
 21
314.8288938271
 31
0.0
  0
LINE
  5
3F2
330
1F
100
AcDbEntity
  8
0
  6
Continuous
 62
     7
370
    25
100
AcDbLine
 10
46.0808833914
 20
320.8288938271
 30
0.0
 11
45.9808833914
 21
320.8288938271
 31
0.0
  0
LINE
  5
3F3
330
1F
100
AcDbEntity
  8
0
  6
Continuous
 62
     7
370
    25
100
AcDbLine
 10
45.9808833914
 20
316.8288938271
 30
0.0
 11
46.0808833914
 21
316.8288938271
 31
0.0
  0
CIRCLE
  5
3F4
330
1F
100
AcDbEntity
  8
0
  6
Continuous
 62
     7
370
    25
100
AcDbCircle
 10
57.6808833914
 20
343.8288938271
 30
0.0
 40
2.458750000016595
  0
CIRCLE
  5
3F5
330
1F
100
AcDbEntity
  8
0
  6
Continuous
 62
     7
370
    25
100
AcDbCircle
 10
57.6808833914
 20
343.8288938271
 30
0.0
 40
2.999999999999964
  0
LINE
  5
3F6
330
1F
100
AcDbEntity
  8
0
  6
Continuous
 62
     7
370
    25
100
AcDbLine
 10
39.0808833914
 20
221.2996045052
 30
0.0
 11
39.0808833914
 21
314.358183149
 31
0.0
  0
LINE
  5
3F7
330
1F
100
AcDbEntity
  8
0
  6
Continuous
 62
     7
370
    25
100
AcDbLine
 10
29.4808833914
 20
314.358183149
 30
0.0
 11
39.0808833914
 21
314.358183149
 31
0.0
  0
LINE
  5
3F8
330
1F
100
AcDbEntity
  8
0
  6
Continuous
 62
     7
370
    25
100
AcDbLine
 10
29.4808833914
 20
221.2996045052
 30
0.0
 11
39.0808833914
 21
221.2996045052
 31
0.0
  0
SPLINE
  5
3F9
330
1F
100
AcDbEntity
  8
0
  6
Continuous
 62
     7
370
    25
100
AcDbSpline
210
0.0
220
0.0
230
1.0
 70
     8
 71
     3
 72
    20
 73
    16
 74
     0
 42
0.000000001
 43
0.00000001
 40
0.0
 40
0.0
 40
0.0
 40
0.0
 40
0.1249999999999944
 40
0.1249999999999944
 40
0.2499999999999888
 40
0.2499999999999888
 40
0.3749999999999832
 40
0.3749999999999832
 40
0.4999999999999777
 40
0.4999999999999777
 40
0.7499999999999961
 40
0.7499999999999961
 40
0.8749999999999981
 40
0.8749999999999981
 40
1.0
 40
1.0
 40
1.0
 40
1.0
 10
27.08088339135817
 20
313.4288938270936
 30
0.0
 10
27.08088339135817
 20
313.4679345579482
 30
0.0
 10
27.09641995183301
 20
313.506453262148
 30
0.0
 10
27.15773830379361
 20
313.5838600134559
 30
0.0
 10
27.20416204938041
 20
313.6230044314427
 30
0.0
 10
27.32411291953454
 20
313.7001551853578
 30
0.0
 10
27.39771756381795
 20
313.7384827670988
 30
0.0
 10
27.5724479299136
 20
313.8160290875753
 30
0.0
 10
27.67329855881512
 20
313.8550052952441
 30
0.0
 10
28.00458383879907
 20
313.9705001516891
 30
0.0
 10
28.27226400018298
 20
314.0484125953592
 30
0.0
 10
28.70493802623841
 20
314.16389252076
 30
0.0
 10
28.8564561130895
 20
314.2027583166251
 30
0.0
 10
29.16588187047562
 20
314.2805326502936
 30
0.0
 10
29.32250420016942
 20
314.3191424172484
 30
0.0
 10
29.48088339135816
 20
314.358183148975
 30
0.0
  0
SPLINE
  5
3FA
330
1F
100
AcDbEntity
  8
0
  6
Continuous
 62
     7
370
    25
100
AcDbSpline
210
0.0
220
0.0
230
1.0
 70
     8
 71
     3
 72
    20
 73
    16
 74
     0
 42
0.000000001
 43
0.00000001
 40
0.0
 40
0.0
 40
0.0
 40
0.0
 40
0.1249999999999999
 40
0.1249999999999999
 40
0.2499999999999999
 40
0.2499999999999999
 40
0.375
 40
0.375
 40
0.5
 40
0.5
 40
0.75
 40
0.75
 40
0.875
 40
0.875
 40
1.0
 40
1.0
 40
1.0
 40
1.0
 10
29.48088339135816
 20
221.2996045052124
 30
0.0
 10
29.32250420370745
 20
221.3386452360669
 30
0.0
 10
29.16625847901577
 20
221.3771639402667
 30
0.0
 10
28.85826662959915
 20
221.4545706915746
 30
0.0
 10
28.70562252212806
 20
221.4937151095613
 30
0.0
 10
28.41653823294099
 20
221.5708658634765
 30
0.0
 10
28.27873369475691
 20
221.6091934452175
 30
0.0
 10
28.01711501911801
 20
221.6867397656941
 30
0.0
 10
27.89436871243534
 20
221.7257159733627
 30
0.0
 10
27.56304433548765
 20
221.8412108298077
 30
0.0
 10
27.38403321145942
 20
221.9191232734779
 30
0.0
 10
27.20441811207855
 20
222.0346031988787
 30
0.0
 10
27.15817376321083
 20
222.0734689947437
 30
0.0
 10
27.09642045719961
 20
222.1512433284123
 30
0.0
 10
27.08088339135817
 20
222.189853095367
 30
0.0
 10
27.08088339135817
 20
222.2288938270937
 30
0.0
  0
LINE
  5
3FB
330
1F
100
AcDbEntity
  8
0
  6
Continuous
 62
     7
370
    25
100
AcDbLine
 10
27.0808833914
 20
222.2288938271
 30
0.0
 11
27.0808833914
 21
313.4288938271
 31
0.0
  0
SPLINE
  5
3FC
330
1F
100
AcDbEntity
  8
0
  6
Continuous
 62
     7
370
    25
100
AcDbSpline
210
0.0
220
0.0
230
1.0
 70
     8
 71
     3
 72
    20
 73
    16
 74
     0
 42
0.000000001
 43
0.00000001
 40
0.0
 40
0.0
 40
0.0
 40
0.0
 40
0.1249999999999964
 40
0.1249999999999964
 40
0.2499999999999928
 40
0.2499999999999928
 40
0.3749999999999892
 40
0.3749999999999892
 40
0.4999999999999857
 40
0.4999999999999857
 40
0.7499999999999888
 40
0.7499999999999888
 40
0.8749999999999944
 40
0.8749999999999944
 40
1.0
 40
1.0
 40
1.0
 40
1.0
 10
27.08088339135822
 20
222.2288938270938
 30
0.0
 10
27.08088339135821
 20
222.0705146394431
 30
0.0
 10
27.09641995183306
 20
221.9142689147514
 30
0.0
 10
27.15773830379364
 20
221.6062770653348
 30
0.0
 10
27.20416204938045
 20
221.4536329578636
 30
0.0
 10
27.32411291953456
 20
221.1645486686765
 30
0.0
 10
27.39771756381797
 20
221.0267441304925
 30
0.0
 10
27.57244792991359
 20
220.7651254548536
 30
0.0
 10
27.67329855881514
 20
220.642379148171
 30
0.0
 10
28.0045838387991
 20
220.3110547712232
 30
0.0
 10
28.27226400018295
 20
220.132043647195
 30
0.0
 10
28.70493802623838
 20
219.952428547814
 30
0.0
 10
28.85645611308951
 20
219.9061841989464
 30
0.0
 10
29.16588187047563
 20
219.8444308929352
 30
0.0
 10
29.3225042001694
 20
219.8288938270937
 30
0.0
 10
29.48088339135814
 20
219.8288938270937
 30
0.0
  0
SPLINE
  5
3FD
330
1F
100
AcDbEntity
  8
0
  6
Continuous
 62
     7
370
    25
100
AcDbSpline
210
0.0
220
0.0
230
1.0
 70
     8
 71
     3
 72
     9
 73
     5
 74
     0
 42
0.000000001
 43
0.00000001
 40
0.0
 40
0.0
 40
0.0
 40
0.0
 40
0.4258694941523771
 40
1.0
 40
1.0
 40
1.0
 40
1.0
 10
28.92449196434901
 20
221.418972389771
 30
0.0
 10
28.99489614095386
 20
221.3690507649264
 30
0.0
 10
29.16021480681645
 20
221.2518279407279
 30
0.0
 10
29.36392636907286
 20
221.2372585555664
 30
0.0
 10
29.48088339135814
 20
221.2288938270937
 30
0.0
  0
LINE
  5
3FE
330
1F
100
AcDbEntity
  8
0
  6
Continuous
 62
     7
370
    25
100
AcDbLine
 10
29.4808833914
 20
219.8288938271
 30
0.0
 11
29.4808833914
 21
221.2288938271
 31
0.0
  0
SPLINE
  5
3FF
330
1F
100
AcDbEntity
  8
0
  6
Continuous
 62
     7
370
    25
100
AcDbSpline
210
0.0
220
0.0
230
1.0
 70
     8
 71
     3
 72
    20
 73
    16
 74
     0
 42
0.000000001
 43
0.00000001
 40
0.0
 40
0.0
 40
0.0
 40
0.0
 40
0.1249999999999966
 40
0.1249999999999966
 40
0.2499999999999931
 40
0.2499999999999931
 40
0.3749999999999895
 40
0.3749999999999895
 40
0.499999999999986
 40
0.499999999999986
 40
0.749999999999993
 40
0.749999999999993
 40
0.8749999999999964
 40
0.8749999999999964
 40
1.0
 40
1.0
 40
1.0
 40
1.0
 10
29.48088339135815
 20
315.8288938270936
 30
0.0
 10
29.32250420370745
 20
315.8288938270936
 30
0.0
 10
29.16625847901579
 20
315.8133572666188
 30
0.0
 10
28.85826662959918
 20
315.7520389146582
 30
0.0
 10
28.70562252212805
 20
315.7056151690713
 30
0.0
 10
28.41653823294099
 20
315.5856642989172
 30
0.0
 10
28.27873369475692
 20
315.5120596546338
 30
0.0
 10
28.01711501911802
 20
315.3373292885382
 30
0.0
 10
27.89436871243535
 20
315.2364786596366
 30
0.0
 10
27.5630443354877
 20
314.9051933796527
 30
0.0
 10
27.38403321145945
 20
314.6375132182689
 30
0.0
 10
27.20441811207856
 20
314.2048391922134
 30
0.0
 10
27.15817376321085
 20
314.0533211053623
 30
0.0
 10
27.09642045719962
 20
313.7438953479763
 30
0.0
 10
27.08088339135817
 20
313.5872730182824
 30
0.0
 10
27.08088339135817
 20
313.4288938270937
 30
0.0
  0
LINE
  5
400
330
1F
100
AcDbEntity
  8
0
  6
Continuous
 62
     7
370
    25
100
AcDbLine
 10
29.4808833914
 20
315.8288938271
 30
0.0
 11
29.4808833914
 21
314.4288938271
 31
0.0
  0
SPLINE
  5
401
330
1F
100
AcDbEntity
  8
0
  6
Continuous
 62
     7
370
    25
100
AcDbSpline
210
0.0
220
0.0
230
1.0
 70
     8
 71
     3
 72
     9
 73
     5
 74
     0
 42
0.000000001
 43
0.00000001
 40
0.0
 40
0.0
 40
0.0
 40
0.0
 40
0.7584558214376869
 40
1.0
 40
1.0
 40
1.0
 40
1.0
 10
29.48088339135814
 20
314.4288938270936
 30
0.0
 10
29.32917561342189
 20
314.4178392912602
 30
0.0
 10
29.12915370885178
 20
314.4032642355734
 30
0.0
 10
28.97859961746032
 20
314.2801678519736
 30
0.0
 10
28.94223415312597
 20
314.250434637113
 30
0.0
  0
LINE
  5
402
330
1F
100
AcDbEntity
  8
0
  6
Continuous
 62
     7
370
    25
100
AcDbLine
 10
29.4808833914
 20
314.4288938271
 30
0.0
 11
39.0808833914
 21
314.4288938271
 31
0.0
  0
LINE
  5
403
330
1F
100
AcDbEntity
  8
0
  6
Continuous
 62
     7
370
    25
100
AcDbLine
 10
29.4808833914
 20
315.8288938271
 30
0.0
 11
39.0808833914
 21
315.8288938271
 31
0.0
  0
LINE
  5
404
330
1F
100
AcDbEntity
  8
0
  6
Continuous
 62
     7
370
    25
100
AcDbLine
 10
39.0808833914
 20
315.8288938271
 30
0.0
 11
39.0808833914
 21
314.4288938271
 31
0.0
  0
LINE
  5
405
330
1F
100
AcDbEntity
  8
0
  6
Continuous
 62
     7
370
    25
100
AcDbLine
 10
29.4808833914
 20
221.2288938271
 30
0.0
 11
39.0808833914
 21
221.2288938271
 31
0.0
  0
LINE
  5
406
330
1F
100
AcDbEntity
  8
0
  6
Continuous
 62
     7
370
    25
100
AcDbLine
 10
39.0808833914
 20
219.8288938271
 30
0.0
 11
39.0808833914
 21
221.2288938271
 31
0.0
  0
LINE
  5
407
330
1F
100
AcDbEntity
  8
0
  6
Continuous
 62
     7
370
    25
100
AcDbLine
 10
29.4808833914
 20
219.8288938271
 30
0.0
 11
39.0808833914
 21
219.8288938271
 31
0.0
  0
ARC
  5
408
330
1F
100
AcDbEntity
  8
0
  6
Continuous
 62
     7
370
    25
100
AcDbCircle
 10
63.1808833914
 20
347.3288938271
 30
0.0
 40
3.000000000000007
100
AcDbArc
 50
0.0
 51
90.0
  0
LINE
  5
409
330
1F
100
AcDbEntity
  8
0
  6
Continuous
 62
     7
370
    25
100
AcDbLine
 10
66.1808833914
 20
313.1288938271
 30
0.0
 11
66.1808833914
 21
347.3288938271
 31
0.0
  0
LINE
  5
40A
330
1F
100
AcDbEntity
  8
0
  6
Continuous
 62
     7
370
    25
100
AcDbLine
 10
47.1808833914
 20
330.3288938271
 30
0.0
 11
47.1808833914
 21
313.1288938271
 31
0.0
  0
LINE
  5
40B
330
1F
100
AcDbEntity
  8
0
  6
Continuous
 62
     7
370
    25
100
AcDbLine
 10
43.1808833914
 20
330.3288938271
 30
0.0
 11
47.1808833914
 21
330.3288938271
 31
0.0
  0
LINE
  5
40C
330
1F
100
AcDbEntity
  8
0
  6
Continuous
 62
     7
370
    25
100
AcDbLine
 10
43.1808833914
 20
347.3288938271
 30
0.0
 11
43.1808833914
 21
330.3288938271
 31
0.0
  0
ARC
  5
40D
330
1F
100
AcDbEntity
  8
0
  6
Continuous
 62
     7
370
    25
100
AcDbCircle
 10
46.1808833914
 20
347.3288938271
 30
0.0
 40
3.0
100
AcDbArc
 50
90.0
 51
180.0
  0
LINE
  5
40E
330
1F
100
AcDbEntity
  8
0
  6
Continuous
 62
     7
370
    25
100
AcDbLine
 10
63.1808833914
 20
350.3288938271
 30
0.0
 11
46.1808833914
 21
350.3288938271
 31
0.0
  0
CIRCLE
  5
40F
330
1F
100
AcDbEntity
  8
0
  6
Continuous
 62
     7
370
    25
100
AcDbCircle
 10
57.6808833914
 20
343.8288938271
 30
0.0
 40
3.25
  0
CIRCLE
  5
410
330
1F
100
AcDbEntity
  8
0
  6
Continuous
 62
     7
370
    25
100
AcDbCircle
 10
57.6808833914
 20
318.8288938271
 30
0.0
 40
3.250000000000057
  0
LINE
  5
411
330
1F
100
AcDbEntity
  8
0
  6
Continuous
 62
     7
370
    25
100
AcDbLine
 10
47.1808833914
 20
311.3288938271
 30
0.0
 11
47.1808833914
 21
313.1288938271
 31
0.0
  0
LINE
  5
412
330
1F
100
AcDbEntity
  8
0
  6
Continuous
 62
     7
370
    25
100
AcDbLine
 10
66.1808833914
 20
313.1288938271
 30
0.0
 11
66.1808833914
 21
311.3288938271
 31
0.0
  0
LINE
  5
413
330
1F
100
AcDbEntity
  8
0
  6
Continuous
 62
     7
370
    25
100
AcDbLine
 10
66.1808833914
 20
311.3288938271
 30
0.0
 11
47.1808833914
 21
311.3288938271
 31
0.0
  0
LINE
  5
414
330
1F
100
AcDbEntity
  8
0
  6
Continuous
 62
     7
370
    25
100
AcDbLine
 10
46.9808833914
 20
311.3288938271
 30
0.0
 11
47.1808833914
 21
311.3288938271
 31
0.0
  0
LINE
  5
415
330
1F
100
AcDbEntity
  8
0
  6
Continuous
 62
     7
370
    25
100
AcDbLine
 10
46.9808833914
 20
312.1288938271
 30
0.0
 11
47.1808833914
 21
312.1288938271
 31
0.0
  0
ARC
  5
416
330
1F
100
AcDbEntity
  8
0
  6
Continuous
 62
     7
370
    25
100
AcDbCircle
 10
46.9808833914
 20
313.1288938271
 30
0.0
 40
1.800000000000011
100
AcDbArc
 50
180.0
 51
270.0
  0
ARC
  5
417
330
1F
100
AcDbEntity
  8
0
  6
Continuous
 62
     7
370
    25
100
AcDbCircle
 10
46.9808833914
 20
313.1288938271
 30
0.0
 40
1.0
100
AcDbArc
 50
180.0
 51
270.0
  0
LINE
  5
418
330
1F
100
AcDbEntity
  8
0
  6
Continuous
 62
     7
370
    25
100
AcDbLine
 10
45.9808833914
 20
313.1288938271
 30
0.0
 11
45.9808833914
 21
323.3288938271
 31
0.0
  0
LINE
  5
419
330
1F
100
AcDbEntity
  8
0
  6
Continuous
 62
     7
370
    25
100
AcDbLine
 10
45.1808833914
 20
323.3288938271
 30
0.0
 11
45.9808833914
 21
323.3288938271
 31
0.0
  0
LINE
  5
41A
330
1F
100
AcDbEntity
  8
0
  6
Continuous
 62
     7
370
    25
100
AcDbLine
 10
90.1808833914
 20
312.1288938271
 30
0.0
 11
90.1808833914
 21
311.3288938271
 31
0.0
  0
LINE
  5
41B
330
1F
100
AcDbEntity
  8
0
  6
Continuous
 62
     7
370
    25
100
AcDbLine
 10
90.1808833914
 20
311.3288938271
 30
0.0
 11
87.1808833914
 21
311.3288938271
 31
0.0
  0
LINE
  5
41C
330
1F
100
AcDbEntity
  8
0
  6
Continuous
 62
     7
370
    25
100
AcDbLine
 10
87.1808833914
 20
312.1288938271
 30
0.0
 11
90.1808833914
 21
312.1288938271
 31
0.0
  0
LINE
  5
41D
330
1F
100
AcDbEntity
  8
0
  6
Continuous
 62
     7
370
    25
100
AcDbLine
 10
66.1808833914
 20
311.3288938271
 30
0.0
 11
87.1808833914
 21
311.3288938271
 31
0.0
  0
LINE
  5
41E
330
1F
100
AcDbEntity
  8
0
  6
Continuous
 62
     7
370
    25
100
AcDbLine
 10
66.1808833914
 20
312.1288938271
 30
0.0
 11
87.1808833914
 21
312.1288938271
 31
0.0
  0
LINE
  5
41F
330
1F
100
AcDbEntity
  8
0
  6
Continuous
 62
     7
370
    25
100
AcDbLine
 10
89.0854967831
 20
316.3288938271
 30
0.0
 11
89.0854967831
 21
315.5288938271
 31
0.0
  0
LINE
  5
420
330
1F
100
AcDbEntity
  8
0
  6
Continuous
 62
     7
370
    25
100
AcDbLine
 10
89.0854967831
 20
315.5288938271
 30
0.0
 11
86.0854967831
 21
315.5288938271
 31
0.0
  0
LINE
  5
421
330
1F
100
AcDbEntity
  8
0
  6
Continuous
 62
     7
370
    25
100
AcDbLine
 10
86.0854967831
 20
316.3288938271
 30
0.0
 11
89.0854967831
 21
316.3288938271
 31
0.0
  0
LINE
  5
422
330
1F
100
AcDbEntity
  8
0
  6
Continuous
 62
     7
370
    25
100
AcDbLine
 10
79.5678053295
 20
315.5288938271
 30
0.0
 11
86.0854967831
 21
315.5288938271
 31
0.0
  0
LINE
  5
423
330
1F
100
AcDbEntity
  8
0
  6
Continuous
 62
     7
370
    25
100
AcDbLine
 10
79.5678053295
 20
316.3288938271
 30
0.0
 11
86.0854967831
 21
316.3288938271
 31
0.0
  0
LINE
  5
424
330
1F
100
AcDbEntity
  8
0
  6
Continuous
 62
     7
370
    25
100
AcDbLine
 10
79.0678053295
 20
315.3949192309
 30
0.0
 11
73.4108833914
 21
312.1288938271
 31
0.0
  0
LINE
  5
425
330
1F
100
AcDbEntity
  8
0
  6
Continuous
 62
     7
370
    25
100
AcDbLine
 10
78.6678053295
 20
316.0877395539
 30
0.0
 11
72.0429341989
 21
312.2628684233
 31
0.0
  0
ARC
  5
426
330
1F
100
AcDbEntity
  8
0
  6
Continuous
 62
     7
370
    25
100
AcDbCircle
 10
79.5678053295
 20
314.5288938271
 30
0.0
 40
1.800000000000068
100
AcDbArc
 50
90.0
 51
120.0
  0
ARC
  5
427
330
1F
100
AcDbEntity
  8
0
  6
Continuous
 62
     7
370
    25
100
AcDbCircle
 10
79.5678053295
 20
314.5288938271
 30
0.0
 40
1.0
100
AcDbArc
 50
90.0
 51
120.0
  0
ARC
  5
428
330
1F
100
AcDbEntity
  8
0
  6
Continuous
 62
     7
370
    25
100
AcDbCircle
 10
71.5429341989
 20
313.1288938271
 30
0.0
 40
0.9999999999999765
100
AcDbArc
 50
270.0
 51
300.0
  0
CIRCLE
  5
429
330
1F
100
AcDbEntity
  8
0
  6
Continuous
 62
     7
370
    25
100
AcDbCircle
 10
57.6808833914
 20
318.8288938271
 30
0.0
 40
2.458750000016595
  0
CIRCLE
  5
42A
330
1F
100
AcDbEntity
  8
0
  6
Continuous
 62
     7
370
    25
100
AcDbCircle
 10
57.6808833914
 20
318.8288938271
 30
0.0
 40
3.000000000000047
  0
LINE
  5
42B
330
1F
100
AcDbEntity
  8
0
  6
Continuous
 62
     7
370
    25
100
AcDbLine
 10
47.1808833914
 20
317.3880645052
 30
0.0
 11
46.5955633767
 21
317.3880645052
 31
0.0
  0
SPLINE
  5
42C
330
1F
100
AcDbEntity
  8
0
  6
Continuous
 62
     7
370
    25
100
AcDbSpline
210
0.0
220
0.0
230
1.0
 70
     8
 71
     3
 72
    14
 73
    10
 74
     0
 42
0.000000001
 43
0.00000001
 40
0.0
 40
0.0
 40
0.0
 40
0.0
 40
0.25
 40
0.25
 40
0.5
 40
0.5
 40
0.75
 40
0.75
 40
1.0
 40
1.0
 40
1.0
 40
1.0
 10
46.59556337674415
 20
321.3784957026501
 30
0.0
 10
46.50068876743353
 20
321.0539894733615
 30
0.0
 10
46.42108384255778
 20
320.7215302509671
 30
0.0
 10
46.31224722766355
 20
320.0549603360589
 30
0.0
 10
46.28292362197306
 20
319.7198840787837
 30
0.0
 10
46.28298840371865
 20
319.0455406085561
 30
0.0
 10
46.31314459704501
 20
318.7037611878771
 30
0.0
 10
46.42272979841074
 20
318.0373472682723
 30
0.0
 10
46.5012727722129
 20
317.7105732223196
 30
0.0
 10
46.59556337674416
 20
317.3880645052232
 30
0.0
  0
LINE
  5
42D
330
1F
100
AcDbEntity
  8
0
  6
Continuous
 62
     7
370
    25
100
AcDbLine
 10
47.1808833914
 20
321.3784957027
 30
0.0
 11
46.5955633767
 21
321.3784957027
 31
0.0
  0
SPLINE
  5
42E
330
1F
100
AcDbEntity
  8
0
  6
Continuous
 62
     7
370
    25
100
AcDbSpline
210
0.0
220
0.0
230
1.0
 70
     8
 71
     3
 72
    12
 73
     8
 74
     0
 42
0.000000001
 43
0.00000001
 40
0.0
 40
0.0
 40
0.0
 40
0.0
 40
0.4999999999999938
 40
0.4999999999999938
 40
0.7499999999999969
 40
0.7499999999999969
 40
1.0
 40
1.0
 40
1.0
 40
1.0
 10
46.59556337674316
 20
317.3880645052233
 30
0.0
 10
46.40506908731965
 20
316.9717634215688
 30
0.0
 10
46.28339467425728
 20
316.5492248935803
 30
0.0
 10
46.28273848372604
 20
315.8989347541195
 30
0.0
 10
46.31257248552044
 20
315.6823925362051
 30
0.0
 10
46.42150235562803
 20
315.2570245309648
 30
0.0
 10
46.50019754269091
 20
315.0468725519796
 30
0.0
 10
46.59556337674366
 20
314.8384626296668
 30
0.0
  0
LINE
  5
42F
330
1F
100
AcDbEntity
  8
0
  6
Continuous
 62
     7
370
    25
100
AcDbLine
 10
46.5955633767
 20
314.8384626297
 30
0.0
 11
46.4976883395
 21
315.08136738
 31
0.0
  0
SPLINE
  5
430
330
1F
100
AcDbEntity
  8
0
  6
Continuous
 62
     7
370
    25
100
AcDbSpline
210
0.0
220
0.0
230
1.0
 70
     8
 71
     3
 72
    12
 73
     8
 74
     0
 42
0.000000001
 43
0.00000001
 40
0.0
 40
0.0
 40
0.0
 40
0.0
 40
0.5000000000000103
 40
0.5000000000000103
 40
0.7500000000000051
 40
0.7500000000000051
 40
1.0
 40
1.0
 40
1.0
 40
1.0
 10
46.59556337674317
 20
322.8193250245207
 30
0.0
 10
46.40506908731965
 20
322.5840652320776
 30
0.0
 10
46.28339467425728
 20
322.3452805392271
 30
0.0
 10
46.28273848372605
 20
321.9777890066701
 30
0.0
 10
46.31257248552045
 20
321.8554168120207
 30
0.0
 10
46.42150235562803
 20
321.6150331268612
 30
0.0
 10
46.5001975426909
 20
321.4962721797996
 30
0.0
 10
46.59556337674366
 20
321.3784957026501
 30
0.0
  0
LINE
  5
431
330
1F
100
AcDbEntity
  8
0
  6
Continuous
 62
     7
370
    25
100
AcDbLine
 10
46.0808833914
 20
315.6788938271
 30
0.0
 11
46.0808833914
 21
321.9788938271
 31
0.0
  0
LINE
  5
432
330
1F
100
AcDbEntity
  8
0
  6
Continuous
 62
     7
370
    25
100
AcDbLine
 10
47.1808833914
 20
314.8384626297
 30
0.0
 11
46.5955633767
 21
314.8384626297
 31
0.0
  0
LINE
  5
433
330
1F
100
AcDbEntity
  8
0
  6
Continuous
 62
     7
370
    25
100
AcDbLine
 10
47.1808833914
 20
322.8193250245
 30
0.0
 11
46.5955633767
 21
322.8193250245
 31
0.0
  0
LINE
  5
434
330
1F
100
AcDbEntity
  8
0
  6
Continuous
 62
     7
370
    25
100
AcDbLine
 10
43.3808833914
 20
328.8288938271
 30
0.0
 11
33.4808833914
 21
328.8288938271
 31
0.0
  0
LINE
  5
435
330
1F
100
AcDbEntity
  8
0
  6
Continuous
 62
     7
370
    25
100
AcDbLine
 10
43.3808833914
 20
328.0288938271
 30
0.0
 11
43.3808833914
 21
328.8288938271
 31
0.0
  0
LINE
  5
436
330
1F
100
AcDbEntity
  8
0
  6
Continuous
 62
     7
370
    25
100
AcDbLine
 10
33.4808833914
 20
328.0288938271
 30
0.0
 11
43.3808833914
 21
328.0288938271
 31
0.0
  0
LINE
  5
437
330
1F
100
AcDbEntity
  8
0
  6
Continuous
 62
     7
370
    25
100
AcDbLine
 10
33.4808833914
 20
328.0288938271
 30
0.0
 11
33.4808833914
 21
327.9288938271
 31
0.0
  0
LINE
  5
438
330
1F
100
AcDbEntity
  8
0
  6
Continuous
 62
     7
370
    25
100
AcDbLine
 10
33.4808833914
 20
327.9288938271
 30
0.0
 11
38.6308833914
 21
327.9288938271
 31
0.0
  0
LINE
  5
439
330
1F
100
AcDbEntity
  8
0
  6
Continuous
 62
     7
370
    25
100
AcDbLine
 10
38.6308833914
 20
327.1288938271
 30
0.0
 11
38.6308833914
 21
327.9288938271
 31
0.0
  0
LINE
  5
43A
330
1F
100
AcDbEntity
  8
0
  6
Continuous
 62
     7
370
    25
100
AcDbLine
 10
33.4808833914
 20
327.1288938271
 30
0.0
 11
38.6308833914
 21
327.1288938271
 31
0.0
  0
ARC
  5
43B
330
1F
100
AcDbEntity
  8
0
  6
Continuous
 62
     7
370
    25
100
AcDbCircle
 10
33.4808833914
 20
327.9788938271
 30
0.0
 40
0.8500000000000227
100
AcDbArc
 50
90.0
 51
270.0
  0
LINE
  5
43C
330
1F
100
AcDbEntity
  8
0
  6
Continuous
 62
     7
370
    25
100
AcDbLine
 10
43.3808833914
 20
309.6288938271
 30
0.0
 11
39.0808833914
 21
309.6288938271
 31
0.0
  0
LINE
  5
43D
330
1F
100
AcDbEntity
  8
0
  6
Continuous
 62
     7
370
    25
100
AcDbLine
 10
43.3808833914
 20
308.8288938271
 30
0.0
 11
43.3808833914
 21
309.6288938271
 31
0.0
  0
LINE
  5
43E
330
1F
100
AcDbEntity
  8
0
  6
Continuous
 62
     7
370
    25
100
AcDbLine
 10
43.3808833914
 20
308.8288938271
 30
0.0
 11
39.0808833914
 21
308.8288938271
 31
0.0
  0
LINE
  5
43F
330
1F
100
AcDbEntity
  8
0
  6
Continuous
 62
     7
370
    25
100
AcDbLine
 10
45.1808833914
 20
310.6288938271
 30
0.0
 11
45.1808833914
 21
327.0288938271
 31
0.0
  0
ARC
  5
440
330
1F
100
AcDbEntity
  8
0
  6
Continuous
 62
     7
370
    25
100
AcDbCircle
 10
43.3808833914
 20
310.6288938271
 30
0.0
 40
1.000000000000028
100
AcDbArc
 50
270.0
 51
0.0
  0
LINE
  5
441
330
1F
100
AcDbEntity
  8
0
  6
Continuous
 62
     7
370
    25
100
AcDbLine
 10
44.3808833914
 20
310.6288938271
 30
0.0
 11
44.3808833914
 21
327.0288938271
 31
0.0
  0
ARC
  5
442
330
1F
100
AcDbEntity
  8
0
  6
Continuous
 62
     7
370
    25
100
AcDbCircle
 10
43.3808833914
 20
327.0288938271
 30
0.0
 40
1.000000000000114
100
AcDbArc
 50
0.0
 51
90.0
  0
ARC
  5
443
330
1F
100
AcDbEntity
  8
0
  6
Continuous
 62
     7
370
    25
100
AcDbCircle
 10
43.3808833914
 20
327.0288938271
 30
0.0
 40
1.800000000000068
100
AcDbArc
 50
0.0
 51
90.0
  0
ARC
  5
444
330
1F
100
AcDbEntity
  8
0
  6
Continuous
 62
     7
370
    25
100
AcDbCircle
 10
43.3808833914
 20
310.6288938271
 30
0.0
 40
1.800000000000125
100
AcDbArc
 50
270.0
 51
0.0
  0
LWPOLYLINE
  5
445
330
1F
100
AcDbEntity
  8
0
  6
Continuous
 62
     7
370
    25
100
AcDbPolyline
 90
        3
 70
   128
 43
0.0
 10
41.3710808928
 20
319.516356867
 10
41.3704387498
 20
319.5099799009
 10
41.3542139011
 20
319.326281572
  0
ARC
  5
446
330
1F
100
AcDbEntity
  8
0
  6
Continuous
 62
     7
370
    25
100
AcDbCircle
 10
41.8786068255
 20
319.6394094095
 30
0.0
 40
0.6107675350085181
100
AcDbArc
 50
210.8424581413
 51
243.3898036633
  0
ARC
  5
447
330
1F
100
AcDbEntity
  8
0
  6
Continuous
 62
     7
370
    25
100
AcDbCircle
 10
50.761540747
 20
318.4978964582
 30
0.0
 40
9.175815043709466
100
AcDbArc
 50
177.9327321273
 51
179.6562101044
  0
ARC
  5
448
330
1F
100
AcDbEntity
  8
0
  6
Continuous
 62
     7
370
    25
100
AcDbCircle
 10
49.1178632891
 20
318.734756552
 30
0.0
 40
7.786288415098407
100
AcDbArc
 50
184.3702527064
 51
195.2299003794
  0
ARC
  5
449
330
1F
100
AcDbEntity
  8
0
  6
Continuous
 62
     7
370
    25
100
AcDbCircle
 10
41.8261549564
 20
316.7843927108
 30
0.0
 40
0.2406805056721164
100
AcDbArc
 50
156.7420981705
 51
203.2579018295
  0
ARC
  5
44A
330
1F
100
AcDbEntity
  8
0
  6
Continuous
 62
     7
370
    25
100
AcDbCircle
 10
49.1178632891
 20
318.9248318469
 30
0.0
 40
7.786288415098596
100
AcDbArc
 50
184.3702527064
 51
195.2299003794
  0
ARC
  5
44B
330
1F
100
AcDbEntity
  8
0
  6
Continuous
 62
     7
370
    25
100
AcDbCircle
 10
41.8786068255
 20
318.0183782446
 30
0.0
 40
0.6107675350076006
100
AcDbArc
 50
116.6101963367
 51
149.1575418587
  0
ARC
  5
44C
330
1F
100
AcDbEntity
  8
0
  6
Continuous
 62
     7
370
    25
100
AcDbCircle
 10
50.684668967
 20
319.1568753397
 30
0.0
 40
9.09894271025008
100
AcDbArc
 50
176.2668736478
 51
183.7331263522
  0
ARC
  5
44D
330
1F
100
AcDbEntity
  8
0
  6
Continuous
 62
     7
370
    25
100
AcDbCircle
 10
41.8786068255
 20
319.2032290294
 30
0.0
 40
0.6107675350080283
100
AcDbArc
 50
116.6101963367
 51
149.1575418587
  0
ARC
  5
44E
330
1F
100
AcDbEntity
  8
0
  6
Continuous
 62
     7
370
    25
100
AcDbCircle
 10
49.1178632891
 20
318.9230311022
 30
0.0
 40
7.786288415099865
100
AcDbArc
 50
164.7700996206
 51
175.6297472936
  0
ARC
  5
44F
330
1F
100
AcDbEntity
  8
0
  6
Continuous
 62
     7
370
    25
100
AcDbCircle
 10
41.73811717
 20
320.8944962039
 30
0.0
 40
0.1522432420617075
100
AcDbArc
 50
150.9451665856
 51
179.1449116561
  0
LINE
  5
450
330
1F
100
AcDbEntity
  8
0
  6
Continuous
 62
     7
370
    25
100
AcDbLine
 10
42.3808833914
 20
322.8288938271
 30
0.0
 11
42.3808833914
 21
314.8288938271
 31
0.0
  0
LINE
  5
451
330
1F
100
AcDbEntity
  8
0
  6
Continuous
 62
     7
370
    25
100
AcDbLine
 10
41.3542139011
 20
319.516356867
 30
0.0
 11
41.592769559
 21
319.516356867
 31
0.0
  0
LINE
  5
452
330
1F
100
AcDbEntity
  8
0
  6
Continuous
 62
     7
370
    25
100
AcDbLine
 10
41.3542139011
 20
318.1414307872
 30
0.0
 11
41.3710808928
 21
318.1414307872
 31
0.0
  0
LINE
  5
453
330
1F
100
AcDbEntity
  8
0
  6
Continuous
 62
     7
370
    25
100
AcDbLine
 10
41.3542139011
 20
319.326281572
 30
0.0
 11
41.5872642175
 21
319.326281572
 31
0.0
  0
ARC
  5
454
330
1F
100
AcDbEntity
  8
0
  6
Continuous
 62
     7
370
    25
100
AcDbCircle
 10
63.6393722806
 20
255.0843670035
 30
0.0
 40
1.942508566655271
100
AcDbArc
 50
268.2745645851
 51
358.1637932023
  0
LINE
  5
455
330
1F
100
AcDbEntity
  8
0
  6
Continuous
 62
     7
370
    25
100
AcDbLine
 10
65.5808833914
 20
255.0221244276
 30
0.0
 11
65.5808833914
 21
254.338084141
 31
0.0
  0
ARC
  5
456
330
1F
100
AcDbEntity
  8
0
  6
Continuous
 62
     7
370
    25
100
AcDbCircle
 10
63.6393722806
 20
254.4003267168
 30
0.0
 40
1.94250856665516
100
AcDbArc
 50
268.2745645851
 51
358.1637932023
  0
LINE
  5
457
330
1F
100
AcDbEntity
  8
0
  6
Continuous
 62
     7
370
    25
100
AcDbLine
 10
65.5808833914
 20
260.1632006645
 30
0.0
 11
65.5808833914
 21
255.0221244276
 31
0.0
  0
LINE
  5
458
330
1F
100
AcDbEntity
  8
0
  6
Continuous
 62
     7
370
    25
100
AcDbLine
 10
63.5808833914
 20
253.142739186
 30
0.0
 11
51.5808833914
 21
253.142739186
 31
0.0
  0
ARC
  5
459
330
1F
100
AcDbEntity
  8
0
  6
Continuous
 62
     7
370
    25
100
AcDbCircle
 10
51.5223945021
 20
255.0843670035
 30
0.0
 40
1.942508566655178
100
AcDbArc
 50
181.8362067977
 51
271.7254354149
  0
LINE
  5
45A
330
1F
100
AcDbEntity
  8
0
  6
Continuous
 62
     7
370
    25
100
AcDbLine
 10
49.5808833914
 20
255.0221244276
 30
0.0
 11
49.5808833914
 21
260.1632006645
 31
0.0
  0
LINE
  5
45B
330
1F
100
AcDbEntity
  8
0
  6
Continuous
 62
     7
370
    25
100
AcDbLine
 10
63.5808833914
 20
252.4586988994
 30
0.0
 11
51.5808833914
 21
252.4586988994
 31
0.0
  0
LINE
  5
45C
330
1F
100
AcDbEntity
  8
0
  6
Continuous
 62
     7
370
    25
100
AcDbLine
 10
49.5808833914
 20
254.338084141
 30
0.0
 11
49.5808833914
 21
255.0221244276
 31
0.0
  0
ARC
  5
45D
330
1F
100
AcDbEntity
  8
0
  6
Continuous
 62
     7
370
    25
100
AcDbCircle
 10
51.5223945021
 20
254.4003267168
 30
0.0
 40
1.942508566655161
100
AcDbArc
 50
181.8362067977
 51
271.7254354149
  0
LINE
  5
45E
330
1F
100
AcDbEntity
  8
0
  6
Continuous
 62
     7
370
    25
100
AcDbLine
 10
65.5808833914
 20
260.1632006645
 30
0.0
 11
65.5808833914
 21
260.5052208078
 31
0.0
  0
LINE
  5
45F
330
1F
100
AcDbEntity
  8
0
  6
Continuous
 62
     7
370
    25
100
AcDbLine
 10
49.5808833914
 20
260.5052208078
 30
0.0
 11
49.5808833914
 21
260.1632006645
 31
0.0
  0
LINE
  5
460
330
1F
100
AcDbEntity
  8
0
  6
Continuous
 62
     7
370
    25
100
AcDbLine
 10
39.0808833914
 20
260.3288938271
 30
0.0
 11
49.5808833914
 21
260.3288938271
 31
0.0
  0
CIRCLE
  5
461
330
1F
100
AcDbEntity
  8
0
  6
Continuous
 62
     7
370
    25
100
AcDbCircle
 10
57.6808833914
 20
267.8288938271
 30
0.0
 40
3.499999999999993
  0
LINE
  5
462
330
1F
100
AcDbEntity
  8
0
  6
Continuous
 62
     7
370
    25
100
AcDbLine
 10
65.5808833914
 20
260.5052208078
 30
0.0
 11
65.5808833914
 21
273.3288938271
 31
0.0
  0
ARC
  5
463
330
1F
100
AcDbEntity
  8
0
  6
Continuous
 62
     7
370
    25
100
AcDbCircle
 10
63.5808833914
 20
273.3288938271
 30
0.0
 40
2.0
100
AcDbArc
 50
0.0
 51
90.0
  0
LINE
  5
464
330
1F
100
AcDbEntity
  8
0
  6
Continuous
 62
     7
370
    25
100
AcDbLine
 10
63.5808833914
 20
275.3288938271
 30
0.0
 11
39.0808833914
 21
275.3288938271
 31
0.0
  0
CIRCLE
  5
465
330
1F
100
AcDbEntity
  8
0
  6
Continuous
 62
     7
370
    25
100
AcDbCircle
 10
57.6808833914
 20
267.8288938271
 30
0.0
 40
2.458750000016647
  0
CIRCLE
  5
466
330
1F
100
AcDbEntity
  8
0
  6
Continuous
 62
     7
370
    25
100
AcDbCircle
 10
57.6808833914
 20
267.8288938271
 30
0.0
 40
2.999999999999996
  0
ENDSEC
  0
SECTION
  2
OBJECTS
  0
DICTIONARY
  5
C
330
0
100
AcDbDictionary
281
     1
  3
ACAD_GROUP
350
D
  3
ACAD_LAYOUT
350
1A
  3
ACAD_MLINESTYLE
350
17
  3
ACAD_PLOTSETTINGS
350
19
  3
ACAD_PLOTSTYLENAME
350
E
  3
ACAD_SCALELIST
350
47
  0
DICTIONARY
  5
D
102
{ACAD_REACTORS
330
C
102
}
330
C
100
AcDbDictionary
281
     1
  0
DICTIONARY
  5
1A
102
{ACAD_REACTORS
330
C
102
}
330
C
100
AcDbDictionary
281
     1
  3
Layout1
350
1E
  3
Layout2
350
26
  3
Model
350
22
  0
DICTIONARY
  5
17
102
{ACAD_REACTORS
330
C
102
}
330
C
100
AcDbDictionary
281
     1
  3
Standard
350
18
  0
DICTIONARY
  5
19
102
{ACAD_REACTORS
330
C
102
}
330
C
100
AcDbDictionary
281
     1
  0
ACDBDICTIONARYWDFLT
  5
E
102
{ACAD_REACTORS
330
C
102
}
330
C
100
AcDbDictionary
281
     1
  3
Normal
350
F
100
AcDbDictionaryWithDefault
340
F
  0
DICTIONARY
  5
47
102
{ACAD_REACTORS
330
C
102
}
330
C
100
AcDbDictionary
281
     1
  3
A0
350
48
  3
A1
350
49
  3
A2
350
4A
  3
A3
350
4B
  3
A4
350
4C
  3
A5
350
4D
  3
A6
350
4E
  3
A7
350
4F
  3
A8
350
50
  3
A9
350
51
  3
B0
350
52
  3
B1
350
53
  3
B2
350
54
  3
B3
350
55
  3
B4
350
56
  3
B5
350
57
  3
B6
350
58
  3
B7
350
59
  3
B8
350
5A
  3
B9
350
5B
  3
C0
350
5C
  3
C1
350
5D
  3
C2
350
5E
  3
C3
350
5F
  3
C4
350
60
  3
C5
350
61
  3
C6
350
62
  3
C7
350
63
  3
C8
350
64
  3
C9
350
65
  3
D0
350
66
  3
D1
350
67
  3
D2
350
68
  0
LAYOUT
  5
1E
102
{ACAD_REACTORS
330
1A
102
}
330
1A
100
AcDbPlotSettings
  1

  2
none_device
  4

  6

 40
0.0
 41
0.0
 42
0.0
 43
0.0
 44
0.0
 45
0.0
 46
0.0
 47
0.0
 48
0.0
 49
0.0
140
0.0
141
0.0
142
1.0
143
1.0
 70
   688
 72
     1
 73
     0
 74
     5
  7

 75
    16
147
1.0
148
0.0
149
0.0
100
AcDbLayout
  1
Layout1
 70
     1
 71
     1
 10
0.0
 20
0.0
 11
420.0
 21
297.0
 12
0.0
 22
0.0
 32
0.0
 14
1.0000000000E+20
 24
1.0000000000E+20
 34
1.0000000000E+20
 15
-1.0000000000E+20
 25
-1.0000000000E+20
 35
-1.0000000000E+20
146
0.0
 13
0.0
 23
0.0
 33
0.0
 16
1.0
 26
0.0
 36
0.0
 17
0.0
 27
1.0
 37
0.0
 76
     0
330
1B
  0
LAYOUT
  5
26
102
{ACAD_REACTORS
330
1A
102
}
330
1A
100
AcDbPlotSettings
  1

  2
none_device
  4

  6

 40
0.0
 41
0.0
 42
0.0
 43
0.0
 44
0.0
 45
0.0
 46
0.0
 47
0.0
 48
0.0
 49
0.0
140
0.0
141
0.0
142
1.0
143
1.0
 70
   688
 72
     1
 73
     0
 74
     5
  7

 75
    16
147
1.0
148
0.0
149
0.0
100
AcDbLayout
  1
Layout2
 70
     1
 71
     2
 10
0.0
 20
0.0
 11
0.0
 21
0.0
 12
0.0
 22
0.0
 32
0.0
 14
0.0
 24
0.0
 34
0.0
 15
0.0
 25
0.0
 35
0.0
146
0.0
 13
0.0
 23
0.0
 33
0.0
 16
1.0
 26
0.0
 36
0.0
 17
0.0
 27
1.0
 37
0.0
 76
     0
330
23
  0
LAYOUT
  5
22
102
{ACAD_REACTORS
330
1A
102
}
330
1A
100
AcDbPlotSettings
  1

  2
none_device
  4
Letter_(8.50_x_11.00_Inches)
  6

 40
6.35
 41
6.35
 42
6.35000508
 43
6.35000508
 44
215.9
 45
279.4
 46
0.0
 47
0.0
 48
0.0
 49
0.0
140
0.0
141
0.0
142
1.0
143
1.0
 70
  1712
 72
     1
 73
     0
 74
     0
  7

 75
     0
147
1.0
148
0.0
149
0.0
100
AcDbLayout
  1
Model
 70
     1
 71
     0
 10
0.0
 20
0.0
 11
841.0
 21
594.0
 12
0.0
 22
0.0
 32
0.0
 14
0.0
 24
0.0
 34
0.0
 15
841.0
 25
594.0
 35
0.0
146
0.0
 13
0.0
 23
0.0
 33
0.0
 16
1.0
 26
0.0
 36
0.0
 17
0.0
 27
1.0
 37
0.0
 76
     0
330
1F
331
29
  0
MLINESTYLE
  5
18
102
{ACAD_REACTORS
330
17
102
}
330
17
100
AcDbMlineStyle
  2
Standard
 70
     0
  3

 62
   256
 51
90.0
 52
90.0
 71
     2
 49
0.5
 62
   256
  6
BYLAYER
 49
-0.5
 62
   256
  6
BYLAYER
  0
ACDBPLACEHOLDER
  5
F
102
{ACAD_REACTORS
330
E
102
}
330
E
  0
SCALE
  5
48
102
{ACAD_REACTORS
330
47
102
}
330
47
100
AcDbScale
 70
     0
300
1:1
140
1.0
141
1.0
290
     1
  0
SCALE
  5
49
102
{ACAD_REACTORS
330
47
102
}
330
47
100
AcDbScale
 70
     0
300
1:2
140
1.0
141
2.0
290
     0
  0
SCALE
  5
4A
102
{ACAD_REACTORS
330
47
102
}
330
47
100
AcDbScale
 70
     0
300
1:4
140
1.0
141
4.0
290
     0
  0
SCALE
  5
4B
102
{ACAD_REACTORS
330
47
102
}
330
47
100
AcDbScale
 70
     0
300
1:5
140
1.0
141
5.0
290
     0
  0
SCALE
  5
4C
102
{ACAD_REACTORS
330
47
102
}
330
47
100
AcDbScale
 70
     0
300
1:8
140
1.0
141
8.0
290
     0
  0
SCALE
  5
4D
102
{ACAD_REACTORS
330
47
102
}
330
47
100
AcDbScale
 70
     0
300
1:10
140
1.0
141
10.0
290
     0
  0
SCALE
  5
4E
102
{ACAD_REACTORS
330
47
102
}
330
47
100
AcDbScale
 70
     0
300
1:16
140
1.0
141
16.0
290
     0
  0
SCALE
  5
4F
102
{ACAD_REACTORS
330
47
102
}
330
47
100
AcDbScale
 70
     0
300
1:20
140
1.0
141
20.0
290
     0
  0
SCALE
  5
50
102
{ACAD_REACTORS
330
47
102
}
330
47
100
AcDbScale
 70
     0
300
1:30
140
1.0
141
30.0
290
     0
  0
SCALE
  5
51
102
{ACAD_REACTORS
330
47
102
}
330
47
100
AcDbScale
 70
     0
300
1:40
140
1.0
141
40.0
290
     0
  0
SCALE
  5
52
102
{ACAD_REACTORS
330
47
102
}
330
47
100
AcDbScale
 70
     0
300
1:50
140
1.0
141
50.0
290
     0
  0
SCALE
  5
53
102
{ACAD_REACTORS
330
47
102
}
330
47
100
AcDbScale
 70
     0
300
1:100
140
1.0
141
100.0
290
     0
  0
SCALE
  5
54
102
{ACAD_REACTORS
330
47
102
}
330
47
100
AcDbScale
 70
     0
300
2:1
140
2.0
141
1.0
290
     0
  0
SCALE
  5
55
102
{ACAD_REACTORS
330
47
102
}
330
47
100
AcDbScale
 70
     0
300
4:1
140
4.0
141
1.0
290
     0
  0
SCALE
  5
56
102
{ACAD_REACTORS
330
47
102
}
330
47
100
AcDbScale
 70
     0
300
8:1
140
8.0
141
1.0
290
     0
  0
SCALE
  5
57
102
{ACAD_REACTORS
330
47
102
}
330
47
100
AcDbScale
 70
     0
300
10:1
140
10.0
141
1.0
290
     0
  0
SCALE
  5
58
102
{ACAD_REACTORS
330
47
102
}
330
47
100
AcDbScale
 70
     0
300
100:1
140
100.0
141
1.0
290
     0
  0
SCALE
  5
59
102
{ACAD_REACTORS
330
47
102
}
330
47
100
AcDbScale
 70
     0
300
1/128" = 1'-0"
140
0.0078125
141
12.0
290
     0
  0
SCALE
  5
5A
102
{ACAD_REACTORS
330
47
102
}
330
47
100
AcDbScale
 70
     0
300
1/64" = 1'-0"
140
0.015625
141
12.0
290
     0
  0
SCALE
  5
5B
102
{ACAD_REACTORS
330
47
102
}
330
47
100
AcDbScale
 70
     0
300
1/32" = 1'-0"
140
0.03125
141
12.0
290
     0
  0
SCALE
  5
5C
102
{ACAD_REACTORS
330
47
102
}
330
47
100
AcDbScale
 70
     0
300
1/16" = 1'-0"
140
0.0625
141
12.0
290
     0
  0
SCALE
  5
5D
102
{ACAD_REACTORS
330
47
102
}
330
47
100
AcDbScale
 70
     0
300
3/32" = 1'-0"
140
0.09375
141
12.0
290
     0
  0
SCALE
  5
5E
102
{ACAD_REACTORS
330
47
102
}
330
47
100
AcDbScale
 70
     0
300
1/8" = 1'-0"
140
0.125
141
12.0
290
     0
  0
SCALE
  5
5F
102
{ACAD_REACTORS
330
47
102
}
330
47
100
AcDbScale
 70
     0
300
3/16" = 1'-0"
140
0.1875
141
12.0
290
     0
  0
SCALE
  5
60
102
{ACAD_REACTORS
330
47
102
}
330
47
100
AcDbScale
 70
     0
300
1/4" = 1'-0"
140
0.25
141
12.0
290
     0
  0
SCALE
  5
61
102
{ACAD_REACTORS
330
47
102
}
330
47
100
AcDbScale
 70
     0
300
3/8" = 1'-0"
140
0.375
141
12.0
290
     0
  0
SCALE
  5
62
102
{ACAD_REACTORS
330
47
102
}
330
47
100
AcDbScale
 70
     0
300
1/2" = 1'-0"
140
0.5
141
12.0
290
     0
  0
SCALE
  5
63
102
{ACAD_REACTORS
330
47
102
}
330
47
100
AcDbScale
 70
     0
300
3/4" = 1'-0"
140
0.75
141
12.0
290
     0
  0
SCALE
  5
64
102
{ACAD_REACTORS
330
47
102
}
330
47
100
AcDbScale
 70
     0
300
1" = 1'-0"
140
1.0
141
12.0
290
     0
  0
SCALE
  5
65
102
{ACAD_REACTORS
330
47
102
}
330
47
100
AcDbScale
 70
     0
300
1-1/2" = 1'-0"
140
1.5
141
12.0
290
     0
  0
SCALE
  5
66
102
{ACAD_REACTORS
330
47
102
}
330
47
100
AcDbScale
 70
     0
300
3" = 1'-0"
140
3.0
141
12.0
290
     0
  0
SCALE
  5
67
102
{ACAD_REACTORS
330
47
102
}
330
47
100
AcDbScale
 70
     0
300
6" = 1'-0"
140
6.0
141
12.0
290
     0
  0
SCALE
  5
68
102
{ACAD_REACTORS
330
47
102
}
330
47
100
AcDbScale
 70
     0
300
1'-0" = 1'-0"
140
12.0
141
12.0
290
     0
  0
ENDSEC
  0
EOF
