  0
SECTION
  2
HEADER
  9
$ACADVER
  1
AC1015
  9
$ACADMAINTVER
 70
     6
  9
$DWGCODEPAGE
  3
ANSI_1251
  9
$INSBASE
 10
0.0
 20
0.0
 30
0.0
  9
$EXTMIN
 10
0.0
 20
0.0
 30
0.0
  9
$EXTMAX
 10
420.0
 20
297.0
 30
0.0
  9
$LIMMIN
 10
0.0
 20
0.0
  9
$LIMMAX
 10
420.0
 20
297.0
  9
$ORTHOMODE
 70
     0
  9
$REGENMODE
 70
     1
  9
$FILLMODE
 70
     1
  9
$QTEXTMODE
 70
     0
  9
$MIRRTEXT
 70
     1
  9
$LTSCALE
 40
1.0
  9
$ATTMODE
 70
     1
  9
$TEXTSIZE
 40
5.0
  9
$TRACEWID
 40
1.0
  9
$TEXTSTYLE
  7
Standard
  9
$CLAYER
  8
0
  9
$CELTYPE
  6
ByLayer
  9
$CECOLOR
 62
   256
  9
$CELTSCALE
 40
1.0
  9
$DISPSILH
 70
     0
  9
$DIMSCALE
 40
1.0
  9
$DIMASZ
 40
5.0
  9
$DIMEXO
 40
0.0
  9
$DIMDLI
 40
3.75
  9
$DIMRND
 40
0.0
  9
$DIMDLE
 40
0.0
  9
$DIMEXE
 40
1.0
  9
$DIMTP
 40
0.0
  9
$DIMTM
 40
0.0
  9
$DIMTXT
 40
3.5
  9
$DIMCEN
 40
2.5
  9
$DIMTSZ
 40
0.0
  9
$DIMTOL
 70
     0
  9
$DIMLIM
 70
     0
  9
$DIMTIH
 70
     1
  9
$DIMTOH
 70
     1
  9
$DIMSE1
 70
     0
  9
$DIMSE2
 70
     0
  9
$DIMTAD
 70
     1
  9
$DIMZIN
 70
     0
  9
$DIMBLK
  1

  9
$DIMASO
 70
     1
  9
$DIMSHO
 70
     1
  9
$DIMPOST
  1

  9
$DIMAPOST
  1

  9
$DIMALT
 70
     0
  9
$DIMALTD
 70
     3
  9
$DIMALTF
 40
0.0393700787
  9
$DIMLFAC
 40
1.0
  9
$DIMTOFL
 70
     1
  9
$DIMTVP
 40
0.0
  9
$DIMTIX
 70
     0
  9
$DIMSOXD
 70
     0
  9
$DIMSAH
 70
     0
  9
$DIMBLK1
  1

  9
$DIMBLK2
  1

  9
$DIMSTYLE
  2
ISO-25
  9
$DIMCLRD
 70
     0
  9
$DIMCLRE
 70
     0
  9
$DIMCLRT
 70
     0
  9
$DIMTFAC
 40
1.0
  9
$DIMGAP
 40
1.5
  9
$DIMJUST
 70
     0
  9
$DIMSD1
 70
     0
  9
$DIMSD2
 70
     0
  9
$DIMTOLJ
 70
     0
  9
$DIMTZIN
 70
     0
  9
$DIMALTZ
 70
     0
  9
$DIMALTTZ
 70
     0
  9
$DIMUPT
 70
     0
  9
$DIMDEC
 70
     1
  9
$DIMTDEC
 70
     1
  9
$DIMALTU
 70
     2
  9
$DIMALTTD
 70
     3
  9
$DIMTXSTY
  7
Standard
  9
$DIMAUNIT
 70
     0
  9
$DIMADEC
 70
     2
  9
$DIMALTRND
 40
0.0
  9
$DIMAZIN
 70
     0
  9
$DIMDSEP
 70
    44
  9
$DIMATFIT
 70
     3
  9
$DIMFRAC
 70
     0
  9
$DIMLDRBLK
  1

  9
$DIMLUNIT
 70
     2
  9
$DIMLWD
 70
    -2
  9
$DIMLWE
 70
    -2
  9
$DIMTMOVE
 70
     0
  9
$LUNITS
 70
     2
  9
$LUPREC
 70
     1
  9
$SKETCHINC
 40
1.0
  9
$FILLETRAD
 40
0.0
  9
$AUNITS
 70
     0
  9
$AUPREC
 70
     2
  9
$MENU
  1
.
  9
$ELEVATION
 40
0.0
  9
$PELEVATION
 40
0.0
  9
$THICKNESS
 40
0.0
  9
$LIMCHECK
 70
     0
  9
$CHAMFERA
 40
0.0
  9
$CHAMFERB
 40
0.0
  9
$CHAMFERC
 40
0.0
  9
$CHAMFERD
 40
0.0
  9
$SKPOLY
 70
     0
  9
$TDCREATE
 40
2460697.678799861
  9
$TDUCREATE
 40
2460697.553799861
  9
$TDUPDATE
 40
2460697.678800278
  9
$TDUUPDATE
 40
2460697.553800278
  9
$TDINDWG
 40
0.0000000116
  9
$TDUSRTIMER
 40
0.0000000116
  9
$USRTIMER
 70
     1
  9
$ANGBASE
 50
0.0
  9
$ANGDIR
 70
     0
  9
$PDMODE
 70
     0
  9
$PDSIZE
 40
-1.0
  9
$PLINEWID
 40
0.0
  9
$SPLFRAME
 70
     0
  9
$SPLINETYPE
 70
     6
  9
$SPLINESEGS
 70
     8
  9
$HANDSEED
  5
57D
  9
$SURFTAB1
 70
     6
  9
$SURFTAB2
 70
     6
  9
$SURFTYPE
 70
     6
  9
$SURFU
 70
     6
  9
$SURFV
 70
     6
  9
$UCSBASE
  2

  9
$UCSNAME
  2

  9
$UCSORG
 10
0.0
 20
0.0
 30
0.0
  9
$UCSXDIR
 10
1.0
 20
0.0
 30
0.0
  9
$UCSYDIR
 10
0.0
 20
1.0
 30
0.0
  9
$UCSORTHOREF
  2

  9
$UCSORTHOVIEW
 70
     0
  9
$UCSORGTOP
 10
0.0
 20
0.0
 30
0.0
  9
$UCSORGBOTTOM
 10
0.0
 20
0.0
 30
0.0
  9
$UCSORGLEFT
 10
0.0
 20
0.0
 30
0.0
  9
$UCSORGRIGHT
 10
0.0
 20
0.0
 30
0.0
  9
$UCSORGFRONT
 10
0.0
 20
0.0
 30
0.0
  9
$UCSORGBACK
 10
0.0
 20
0.0
 30
0.0
  9
$PUCSBASE
  2

  9
$PUCSNAME
  2

  9
$PUCSORG
 10
0.0
 20
0.0
 30
0.0
  9
$PUCSXDIR
 10
1.0
 20
0.0
 30
0.0
  9
$PUCSYDIR
 10
0.0
 20
1.0
 30
0.0
  9
$PUCSORTHOREF
  2

  9
$PUCSORTHOVIEW
 70
     0
  9
$PUCSORGTOP
 10
0.0
 20
0.0
 30
0.0
  9
$PUCSORGBOTTOM
 10
0.0
 20
0.0
 30
0.0
  9
$PUCSORGLEFT
 10
0.0
 20
0.0
 30
0.0
  9
$PUCSORGRIGHT
 10
0.0
 20
0.0
 30
0.0
  9
$PUCSORGFRONT
 10
0.0
 20
0.0
 30
0.0
  9
$PUCSORGBACK
 10
0.0
 20
0.0
 30
0.0
  9
$USERI1
 70
     0
  9
$USERI2
 70
     0
  9
$USERI3
 70
     0
  9
$USERI4
 70
     0
  9
$USERI5
 70
     0
  9
$USERR1
 40
0.0
  9
$USERR2
 40
0.0
  9
$USERR3
 40
0.0
  9
$USERR4
 40
0.0
  9
$USERR5
 40
0.0
  9
$WORLDVIEW
 70
     1
  9
$SHADEDGE
 70
     3
  9
$SHADEDIF
 70
    70
  9
$TILEMODE
 70
     1
  9
$MAXACTVP
 70
    64
  9
$PINSBASE
 10
0.0
 20
0.0
 30
0.0
  9
$PLIMCHECK
 70
     0
  9
$PEXTMIN
 10
1.0000000000E+20
 20
1.0000000000E+20
 30
1.0000000000E+20
  9
$PEXTMAX
 10
-1.0000000000E+20
 20
-1.0000000000E+20
 30
-1.0000000000E+20
  9
$PLIMMIN
 10
0.0
 20
0.0
  9
$PLIMMAX
 10
420.0
 20
297.0
  9
$UNITMODE
 70
     0
  9
$VISRETAIN
 70
     1
  9
$PLINEGEN
 70
     0
  9
$PSLTSCALE
 70
     1
  9
$TREEDEPTH
 70
  3020
  9
$CMLSTYLE
  2
Standard
  9
$CMLJUST
 70
     0
  9
$CMLSCALE
 40
20.0
  9
$PROXYGRAPHICS
 70
     1
  9
$MEASUREMENT
 70
     1
  9
$CELWEIGHT
370
    -1
  9
$ENDCAPS
280
     0
  9
$JOINSTYLE
280
     0
  9
$LWDISPLAY
290
     1
  9
$INSUNITS
 70
     4
  9
$HYPERLINKBASE
  1

  9
$STYLESHEET
  1

  9
$XEDIT
290
     1
  9
$CEPSNTYPE
380
     0
  9
$PSTYLEMODE
290
     1
  9
$FINGERPRINTGUID
  2
{5d933f65-50c6-408a-9fc3-5903bfca7e82}
  9
$VERSIONGUID
  2
{FAEB1C32-E019-11D5-929B-00C0DF256EC4}
  9
$EXTNAMES
290
     1
  9
$PSVPSCALE
 40
0.0
  9
$OLESTARTUP
290
     0
  0
ENDSEC
  0
SECTION
  2
CLASSES
  0
CLASS
  1
ACDBDICTIONARYWDFLT
  2
AcDbDictionaryWithDefault
  3
ObjectDBX Classes
 90
        0
280
     0
281
     0
  0
CLASS
  1
VISUALSTYLE
  2
AcDbVisualStyle
  3
ObjectDBX Classes
 90
     4095
280
     0
281
     0
  0
CLASS
  1
MATERIAL
  2
AcDbMaterial
  3
ObjectDBX Classes
 90
     1153
280
     0
281
     0
  0
CLASS
  1
SCALE
  2
AcDbScale
  3
ObjectDBX Classes
 90
     1153
280
     0
281
     0
  0
CLASS
  1
TABLESTYLE
  2
AcDbTableStyle
  3
ObjectDBX Classes
 90
     4095
280
     0
281
     0
  0
CLASS
  1
MLEADERSTYLE
  2
AcDbMLeaderStyle
  3
ACDB_MLEADERSTYLE_CLASS
 90
     4095
280
     0
281
     0
  0
CLASS
  1
SUN
  2
AcDbSun
  3
SCENEOE
 90
     1153
280
     0
281
     0
  0
CLASS
  1
ACDBPLACEHOLDER
  2
AcDbPlaceHolder
  3
ObjectDBX Classes
 90
        0
280
     0
281
     0
  0
CLASS
  1
LAYOUT
  2
AcDbLayout
  3
ObjectDBX Classes
 90
        0
280
     0
281
     0
  0
ENDSEC
  0
SECTION
  2
TABLES
  0
TABLE
  2
VPORT
  5
8
330
0
100
AcDbSymbolTable
 70
     1
  0
VPORT
  5
29
330
8
100
AcDbSymbolTableRecord
100
AcDbViewportTableRecord
  2
*Active
 70
     0
 10
0.0
 20
0.0
 11
1.0
 21
1.0
 12
210.0
 22
148.5
 13
0.0
 23
0.0
 14
10.0
 24
10.0
 15
10.0
 25
10.0
 16
0.0
 26
0.0
 36
1.0
 17
0.0
 27
0.0
 37
0.0
 40
297.0
 41
1.4141414141
 42
50.0
 43
0.0
 44
0.0
 50
0.0
 51
0.0
 71
     0
 72
  2000
 73
     1
 74
     3
 75
     0
 76
     0
 77
     0
 78
     0
281
     0
 65
     1
110
0.0
120
0.0
130
0.0
111
1.0
121
0.0
131
0.0
112
0.0
122
1.0
132
0.0
 79
     0
146
0.0
  0
ENDTAB
  0
TABLE
  2
LTYPE
  5
5
330
0
100
AcDbSymbolTable
 70
     6
  0
LTYPE
  5
14
330
5
100
AcDbSymbolTableRecord
100
AcDbLinetypeTableRecord
  2
ByBlock
 70
     0
  3

 72
    65
 73
     0
 40
0.0
  0
LTYPE
  5
15
330
5
100
AcDbSymbolTableRecord
100
AcDbLinetypeTableRecord
  2
ByLayer
 70
     0
  3

 72
    65
 73
     0
 40
0.0
  0
LTYPE
  5
16
330
5
100
AcDbSymbolTableRecord
100
AcDbLinetypeTableRecord
  2
Continuous
 70
     0
  3
Solid line
 72
    65
 73
     0
 40
0.0
  0
LTYPE
  5
5E
330
5
100
AcDbSymbolTableRecord
100
AcDbLinetypeTableRecord
  2
HIDDEN
 70
     0
  3
Hidden __ __ __ __ __ __ __ __ __ __ __ __ __ __
 72
    65
 73
     2
 40
1.905
 49
1.27
 74
     0
 49
-0.635
 74
     0
  0
LTYPE
  5
5F
330
5
100
AcDbSymbolTableRecord
100
AcDbLinetypeTableRecord
  2
PHANTOM
 70
     0
  3
Phantom ______  __  __  ______  __  __  ______
 72
    65
 73
     6
 40
12.7
 49
6.35
 74
     0
 49
-1.27
 74
     0
 49
1.27
 74
     0
 49
-1.27
 74
     0
 49
1.27
 74
     0
 49
-1.27
 74
     0
  0
LTYPE
  5
60
330
5
100
AcDbSymbolTableRecord
100
AcDbLinetypeTableRecord
  2
CENTER
 70
     0
  3
Center ____ _ ____ _ ____ _ ____ _ ____ _ ____
 72
    65
 73
     4
 40
10.16
 49
6.35
 74
     0
 49
-1.27
 74
     0
 49
1.27
 74
     0
 49
-1.27
 74
     0
  0
LTYPE
  5
61
330
5
100
AcDbSymbolTableRecord
100
AcDbLinetypeTableRecord
  2
CENTERX2
 70
     0
  3
Center (2x) ________  __  ________  __  _____
 72
    65
 73
     4
 40
20.32
 49
12.7
 74
     0
 49
-2.54
 74
     0
 49
2.54
 74
     0
 49
-2.54
 74
     0
  0
LTYPE
  5
62
330
5
100
AcDbSymbolTableRecord
100
AcDbLinetypeTableRecord
  2
DOT2
 70
     0
  3
Dot (.5x) ........................................
 72
    65
 73
     2
 40
0.635
 49
0.0
 74
     0
 49
-0.635
 74
     0
  0
ENDTAB
  0
TABLE
  2
LAYER
  5
2
330
0
100
AcDbSymbolTable
 70
     3
  0
LAYER
  5
10
330
2
100
AcDbSymbolTableRecord
100
AcDbLayerTableRecord
  2
0
 70
     0
 62
     7
  6
Continuous
370
    -3
390
F
  0
LAYER
  5
63
330
2
100
AcDbSymbolTableRecord
100
AcDbLayerTableRecord
  2
ВОДЯНОЙ_ЗНАК
 70
     0
 62
    11
  6
Continuous
370
    -3
390
F
  0
LAYER
  5
64
330
2
100
AcDbSymbolTableRecord
100
AcDbLayerTableRecord
  2
ОСНОВНОЙ
 70
     0
 62
     7
  6
Continuous
370
    -3
390
F
  0
ENDTAB
  0
TABLE
  2
STYLE
  5
3
330
0
100
AcDbSymbolTable
 70
     1
  0
STYLE
  5
11
330
3
100
AcDbSymbolTableRecord
100
AcDbTextStyleTableRecord
  2
Standard
 70
     0
 40
0.0
 41
1.0
 50
0.0
 71
     0
 42
5.0
  3
txt
  4

  0
ENDTAB
  0
TABLE
  2
VIEW
  5
6
330
0
100
AcDbSymbolTable
 70
     0
  0
ENDTAB
  0
TABLE
  2
UCS
  5
7
330
0
100
AcDbSymbolTable
 70
     0
  0
ENDTAB
  0
TABLE
  2
APPID
  5
9
330
0
100
AcDbSymbolTable
 70
     1
  0
APPID
  5
12
330
9
100
AcDbSymbolTableRecord
100
AcDbRegAppTableRecord
  2
ACAD
 70
     0
  0
ENDTAB
  0
TABLE
  2
DIMSTYLE
  5
A
330
0
100
AcDbSymbolTable
 70
     1
100
AcDbDimStyleTable
  0
DIMSTYLE
105
27
330
A
100
AcDbSymbolTableRecord
100
AcDbDimStyleTableRecord
  2
ISO-25
 70
     0
 41
2.5
 42
0.625
 43
3.75
 44
1.25
 73
     0
 74
     0
 77
     1
 78
     8
140
2.5
141
2.5
143
0.0393700787
147
0.625
171
     3
172
     1
178
     0
271
     2
272
     2
274
     3
278
    44
283
     0
284
     8
340
11
  0
ENDTAB
  0
TABLE
  2
BLOCK_RECORD
  5
1
330
0
100
AcDbSymbolTable
 70
     1
  0
BLOCK_RECORD
  5
1F
330
1
100
AcDbSymbolTableRecord
100
AcDbBlockTableRecord
  2
*Model_Space
340
22
  0
BLOCK_RECORD
  5
1B
330
1
100
AcDbSymbolTableRecord
100
AcDbBlockTableRecord
  2
*Paper_Space
340
1E
  0
BLOCK_RECORD
  5
23
330
1
100
AcDbSymbolTableRecord
100
AcDbBlockTableRecord
  2
*Paper_Space0
340
26
  0
ENDTAB
  0
ENDSEC
  0
SECTION
  2
BLOCKS
  0
BLOCK
  5
20
330
1F
100
AcDbEntity
  8
0
100
AcDbBlockBegin
  2
*Model_Space
 70
     0
 10
0.0
 20
0.0
 30
0.0
  3
*Model_Space
  1

  0
ENDBLK
  5
21
330
1F
100
AcDbEntity
  8
0
100
AcDbBlockEnd
  0
BLOCK
  5
1C
330
1B
100
AcDbEntity
 67
     1
  8
0
100
AcDbBlockBegin
  2
*Paper_Space
 70
     0
 10
0.0
 20
0.0
 30
0.0
  3
*Paper_Space
  1

  0
ENDBLK
  5
1D
330
1B
100
AcDbEntity
 67
     1
  8
0
100
AcDbBlockEnd
  0
BLOCK
  5
24
330
23
100
AcDbEntity
  8
0
100
AcDbBlockBegin
  2
*Paper_Space0
 70
     0
 10
0.0
 20
0.0
 30
0.0
  3
*Paper_Space0
  1

  0
ENDBLK
  5
25
330
23
100
AcDbEntity
  8
0
100
AcDbBlockEnd
  0
ENDSEC
  0
SECTION
  2
ENTITIES
  0
LINE
  5
65
330
1F
100
AcDbEntity
  8
0
  6
Continuous
 62
     7
100
AcDbLine
 10
1147.2094836138
 20
134.635115961
 30
0.0
 11
1147.2094836138
 21
123.310901597
 31
0.0
  0
ARC
  5
66
330
1F
100
AcDbEntity
  8
0
  6
Continuous
 62
     7
100
AcDbCircle
 10
1147.2094836138
 20
123.310901597
 30
0.0
 40
11.32421436405708
100
AcDbArc
 50
0.0
 51
90.0
  0
LINE
  5
67
330
1F
100
AcDbEntity
  8
0
  6
Continuous
 62
     7
100
AcDbLine
 10
1158.5336979779
 20
123.310901597
 30
0.0
 11
1147.2094836138
 21
123.310901597
 31
0.0
  0
LINE
  5
68
330
1F
100
AcDbEntity
  8
0
  6
Continuous
 62
     7
100
AcDbLine
 10
1108.2094836138
 20
123.310901597
 30
0.0
 11
1108.2094836138
 21
134.635115961
 31
0.0
  0
LINE
  5
69
330
1F
100
AcDbEntity
  8
0
  6
Continuous
 62
     7
100
AcDbLine
 10
1147.2094836138
 20
134.635115961
 30
0.0
 11
1108.2094836138
 21
134.635115961
 31
0.0
  0
LINE
  5
6A
330
1F
100
AcDbEntity
  8
0
  6
Continuous
 62
     7
100
AcDbLine
 10
1108.2094836138
 20
123.310901597
 30
0.0
 11
1147.2094836138
 21
123.310901597
 31
0.0
  0
LINE
  5
6B
330
1F
100
AcDbEntity
  8
0
  6
Continuous
 62
     7
100
AcDbLine
 10
1147.2094836138
 20
154.635115961
 30
0.0
 11
1147.2094836138
 21
143.310901597
 31
0.0
  0
ARC
  5
6C
330
1F
100
AcDbEntity
  8
0
  6
Continuous
 62
     7
100
AcDbCircle
 10
1147.2094836138
 20
143.310901597
 30
0.0
 40
11.3242143640571
100
AcDbArc
 50
0.0
 51
90.0
  0
LINE
  5
6D
330
1F
100
AcDbEntity
  8
0
  6
Continuous
 62
     7
100
AcDbLine
 10
1158.5336979779
 20
143.310901597
 30
0.0
 11
1147.2094836138
 21
143.310901597
 31
0.0
  0
LINE
  5
6E
330
1F
100
AcDbEntity
  8
0
  6
Continuous
 62
     7
100
AcDbLine
 10
1108.2094836138
 20
143.310901597
 30
0.0
 11
1108.2094836138
 21
154.635115961
 31
0.0
  0
LINE
  5
6F
330
1F
100
AcDbEntity
  8
0
  6
Continuous
 62
     7
100
AcDbLine
 10
1147.2094836138
 20
154.635115961
 30
0.0
 11
1108.2094836138
 21
154.635115961
 31
0.0
  0
LINE
  5
70
330
1F
100
AcDbEntity
  8
0
  6
Continuous
 62
     7
100
AcDbLine
 10
1108.2094836138
 20
143.310901597
 30
0.0
 11
1147.2094836138
 21
143.310901597
 31
0.0
  0
LINE
  5
71
330
1F
100
AcDbEntity
  8
0
  6
Continuous
 62
     7
100
AcDbLine
 10
1147.2094836138
 20
174.635115961
 30
0.0
 11
1147.2094836138
 21
163.310901597
 31
0.0
  0
ARC
  5
72
330
1F
100
AcDbEntity
  8
0
  6
Continuous
 62
     7
100
AcDbCircle
 10
1147.2094836138
 20
163.310901597
 30
0.0
 40
11.3242143640571
100
AcDbArc
 50
0.0
 51
90.0
  0
LINE
  5
73
330
1F
100
AcDbEntity
  8
0
  6
Continuous
 62
     7
100
AcDbLine
 10
1158.5336979779
 20
163.310901597
 30
0.0
 11
1147.2094836138
 21
163.310901597
 31
0.0
  0
LINE
  5
74
330
1F
100
AcDbEntity
  8
0
  6
Continuous
 62
     7
100
AcDbLine
 10
1108.2094836138
 20
163.310901597
 30
0.0
 11
1108.2094836138
 21
174.635115961
 31
0.0
  0
LINE
  5
75
330
1F
100
AcDbEntity
  8
0
  6
Continuous
 62
     7
100
AcDbLine
 10
1147.2094836138
 20
174.635115961
 30
0.0
 11
1108.2094836138
 21
174.635115961
 31
0.0
  0
LINE
  5
76
330
1F
100
AcDbEntity
  8
0
  6
Continuous
 62
     7
100
AcDbLine
 10
1108.2094836138
 20
163.310901597
 30
0.0
 11
1147.2094836138
 21
163.310901597
 31
0.0
  0
ARC
  5
77
330
1F
100
AcDbEntity
  8
0
  6
Continuous
 62
     7
100
AcDbCircle
 10
1108.2094836138
 20
123.310901597
 30
0.0
 40
11.32421436405708
100
AcDbArc
 50
90.0
 51
180.0
  0
LINE
  5
78
330
1F
100
AcDbEntity
  8
0
  6
Continuous
 62
     7
100
AcDbLine
 10
1108.2094836138
 20
123.310901597
 30
0.0
 11
1096.8852692498
 21
123.310901597
 31
0.0
  0
ARC
  5
79
330
1F
100
AcDbEntity
  8
0
  6
Continuous
 62
     7
100
AcDbCircle
 10
1108.2094836138
 20
143.310901597
 30
0.0
 40
11.3242143640571
100
AcDbArc
 50
90.0
 51
180.0
  0
LINE
  5
7A
330
1F
100
AcDbEntity
  8
0
  6
Continuous
 62
     7
100
AcDbLine
 10
1108.2094836138
 20
143.310901597
 30
0.0
 11
1096.8852692498
 21
143.310901597
 31
0.0
  0
ARC
  5
7B
330
1F
100
AcDbEntity
  8
0
  6
Continuous
 62
     7
100
AcDbCircle
 10
1108.2094836138
 20
163.310901597
 30
0.0
 40
11.3242143640571
100
AcDbArc
 50
90.0
 51
180.0
  0
LINE
  5
7C
330
1F
100
AcDbEntity
  8
0
  6
Continuous
 62
     7
100
AcDbLine
 10
1108.2094836138
 20
163.310901597
 30
0.0
 11
1096.8852692498
 21
163.310901597
 31
0.0
  0
LINE
  5
7D
330
1F
100
AcDbEntity
  8
0
  6
Continuous
 62
     7
100
AcDbLine
 10
1067.2094836138
 20
134.635115961
 30
0.0
 11
1067.2094836138
 21
123.310901597
 31
0.0
  0
ARC
  5
7E
330
1F
100
AcDbEntity
  8
0
  6
Continuous
 62
     7
100
AcDbCircle
 10
1067.2094836138
 20
123.310901597
 30
0.0
 40
11.32421436405708
100
AcDbArc
 50
0.0
 51
90.0
  0
LINE
  5
7F
330
1F
100
AcDbEntity
  8
0
  6
Continuous
 62
     7
100
AcDbLine
 10
1078.5336979779
 20
123.310901597
 30
0.0
 11
1067.2094836138
 21
123.310901597
 31
0.0
  0
LINE
  5
80
330
1F
100
AcDbEntity
  8
0
  6
Continuous
 62
     7
100
AcDbLine
 10
1028.2094836138
 20
123.310901597
 30
0.0
 11
1067.2094836138
 21
123.310901597
 31
0.0
  0
LINE
  5
81
330
1F
100
AcDbEntity
  8
0
  6
Continuous
 62
     7
100
AcDbLine
 10
1028.2094836138
 20
123.310901597
 30
0.0
 11
1028.2094836138
 21
134.635115961
 31
0.0
  0
LINE
  5
82
330
1F
100
AcDbEntity
  8
0
  6
Continuous
 62
     7
100
AcDbLine
 10
1067.2094836138
 20
134.635115961
 30
0.0
 11
1028.2094836138
 21
134.635115961
 31
0.0
  0
LINE
  5
83
330
1F
100
AcDbEntity
  8
0
  6
Continuous
 62
     7
100
AcDbLine
 10
1028.2094836138
 20
143.310901597
 30
0.0
 11
1028.2094836138
 21
154.635115961
 31
0.0
  0
LINE
  5
84
330
1F
100
AcDbEntity
  8
0
  6
Continuous
 62
     7
100
AcDbLine
 10
1067.2094836138
 20
154.635115961
 30
0.0
 11
1028.2094836138
 21
154.635115961
 31
0.0
  0
LINE
  5
85
330
1F
100
AcDbEntity
  8
0
  6
Continuous
 62
     7
100
AcDbLine
 10
1067.2094836138
 20
154.635115961
 30
0.0
 11
1067.2094836138
 21
143.310901597
 31
0.0
  0
LINE
  5
86
330
1F
100
AcDbEntity
  8
0
  6
Continuous
 62
     7
100
AcDbLine
 10
1028.2094836138
 20
143.310901597
 30
0.0
 11
1067.2094836138
 21
143.310901597
 31
0.0
  0
ARC
  5
87
330
1F
100
AcDbEntity
  8
0
  6
Continuous
 62
     7
100
AcDbCircle
 10
1067.2094836138
 20
143.310901597
 30
0.0
 40
11.3242143640571
100
AcDbArc
 50
0.0
 51
90.0
  0
LINE
  5
88
330
1F
100
AcDbEntity
  8
0
  6
Continuous
 62
     7
100
AcDbLine
 10
1078.5336979779
 20
143.310901597
 30
0.0
 11
1067.2094836138
 21
143.310901597
 31
0.0
  0
LINE
  5
89
330
1F
100
AcDbEntity
  8
0
  6
Continuous
 62
     7
100
AcDbLine
 10
1028.2094836138
 20
163.310901597
 30
0.0
 11
1067.2094836138
 21
163.310901597
 31
0.0
  0
LINE
  5
8A
330
1F
100
AcDbEntity
  8
0
  6
Continuous
 62
     7
100
AcDbLine
 10
1028.2094836138
 20
163.310901597
 30
0.0
 11
1028.2094836138
 21
174.635115961
 31
0.0
  0
LINE
  5
8B
330
1F
100
AcDbEntity
  8
0
  6
Continuous
 62
     7
100
AcDbLine
 10
1067.2094836138
 20
174.635115961
 30
0.0
 11
1028.2094836138
 21
174.635115961
 31
0.0
  0
LINE
  5
8C
330
1F
100
AcDbEntity
  8
0
  6
Continuous
 62
     7
100
AcDbLine
 10
1067.2094836138
 20
174.635115961
 30
0.0
 11
1067.2094836138
 21
163.310901597
 31
0.0
  0
ARC
  5
8D
330
1F
100
AcDbEntity
  8
0
  6
Continuous
 62
     7
100
AcDbCircle
 10
1067.2094836138
 20
163.310901597
 30
0.0
 40
11.3242143640571
100
AcDbArc
 50
0.0
 51
90.0
  0
LINE
  5
8E
330
1F
100
AcDbEntity
  8
0
  6
Continuous
 62
     7
100
AcDbLine
 10
1078.5336979779
 20
163.310901597
 30
0.0
 11
1067.2094836138
 21
163.310901597
 31
0.0
  0
ARC
  5
8F
330
1F
100
AcDbEntity
  8
0
  6
Continuous
 62
     7
100
AcDbCircle
 10
1028.2094836138
 20
123.310901597
 30
0.0
 40
11.32421436405697
100
AcDbArc
 50
90.0
 51
180.0
  0
LINE
  5
90
330
1F
100
AcDbEntity
  8
0
  6
Continuous
 62
     7
100
AcDbLine
 10
1028.2094836138
 20
123.310901597
 30
0.0
 11
1016.8852692498
 21
123.310901597
 31
0.0
  0
ARC
  5
91
330
1F
100
AcDbEntity
  8
0
  6
Continuous
 62
     7
100
AcDbCircle
 10
1028.2094836138
 20
143.310901597
 30
0.0
 40
11.32421436405707
100
AcDbArc
 50
90.0
 51
180.0
  0
LINE
  5
92
330
1F
100
AcDbEntity
  8
0
  6
Continuous
 62
     7
100
AcDbLine
 10
1028.2094836138
 20
143.310901597
 30
0.0
 11
1016.8852692498
 21
143.310901597
 31
0.0
  0
ARC
  5
93
330
1F
100
AcDbEntity
  8
0
  6
Continuous
 62
     7
100
AcDbCircle
 10
1028.2094836138
 20
163.310901597
 30
0.0
 40
11.32421436405704
100
AcDbArc
 50
90.0
 51
180.0
  0
LINE
  5
94
330
1F
100
AcDbEntity
  8
0
  6
Continuous
 62
     7
100
AcDbLine
 10
1028.2094836138
 20
163.310901597
 30
0.0
 11
1016.8852692498
 21
163.310901597
 31
0.0
  0
LINE
  5
95
330
1F
100
AcDbEntity
  8
0
  6
Continuous
 62
     7
100
AcDbLine
 10
987.2094836138
 20
134.635115961
 30
0.0
 11
987.2094836138
 21
123.310901597
 31
0.0
  0
ARC
  5
96
330
1F
100
AcDbEntity
  8
0
  6
Continuous
 62
     7
100
AcDbCircle
 10
987.2094836138
 20
123.310901597
 30
0.0
 40
11.32421436405697
100
AcDbArc
 50
0.0
 51
90.0
  0
LINE
  5
97
330
1F
100
AcDbEntity
  8
0
  6
Continuous
 62
     7
100
AcDbLine
 10
998.5336979779
 20
123.310901597
 30
0.0
 11
987.2094836138
 21
123.310901597
 31
0.0
  0
LINE
  5
98
330
1F
100
AcDbEntity
  8
0
  6
Continuous
 62
     7
100
AcDbLine
 10
948.2094836138
 20
123.310901597
 30
0.0
 11
948.2094836138
 21
134.635115961
 31
0.0
  0
LINE
  5
99
330
1F
100
AcDbEntity
  8
0
  6
Continuous
 62
     7
100
AcDbLine
 10
987.2094836138
 20
134.635115961
 30
0.0
 11
948.2094836138
 21
134.635115961
 31
0.0
  0
LINE
  5
9A
330
1F
100
AcDbEntity
  8
0
  6
Continuous
 62
     7
100
AcDbLine
 10
948.2094836138
 20
123.310901597
 30
0.0
 11
987.2094836138
 21
123.310901597
 31
0.0
  0
LINE
  5
9B
330
1F
100
AcDbEntity
  8
0
  6
Continuous
 62
     7
100
AcDbLine
 10
948.2094836138
 20
143.310901597
 30
0.0
 11
987.2094836138
 21
143.310901597
 31
0.0
  0
LINE
  5
9C
330
1F
100
AcDbEntity
  8
0
  6
Continuous
 62
     7
100
AcDbLine
 10
948.2094836138
 20
143.310901597
 30
0.0
 11
948.2094836138
 21
154.635115961
 31
0.0
  0
LINE
  5
9D
330
1F
100
AcDbEntity
  8
0
  6
Continuous
 62
     7
100
AcDbLine
 10
987.2094836138
 20
154.635115961
 30
0.0
 11
948.2094836138
 21
154.635115961
 31
0.0
  0
LINE
  5
9E
330
1F
100
AcDbEntity
  8
0
  6
Continuous
 62
     7
100
AcDbLine
 10
987.2094836138
 20
154.635115961
 30
0.0
 11
987.2094836138
 21
143.310901597
 31
0.0
  0
ARC
  5
9F
330
1F
100
AcDbEntity
  8
0
  6
Continuous
 62
     7
100
AcDbCircle
 10
987.2094836138
 20
143.310901597
 30
0.0
 40
11.32421436405707
100
AcDbArc
 50
0.0
 51
90.0
  0
LINE
  5
A0
330
1F
100
AcDbEntity
  8
0
  6
Continuous
 62
     7
100
AcDbLine
 10
998.5336979779
 20
143.310901597
 30
0.0
 11
987.2094836138
 21
143.310901597
 31
0.0
  0
LINE
  5
A1
330
1F
100
AcDbEntity
  8
0
  6
Continuous
 62
     7
100
AcDbLine
 10
948.2094836138
 20
163.310901597
 30
0.0
 11
987.2094836138
 21
163.310901597
 31
0.0
  0
LINE
  5
A2
330
1F
100
AcDbEntity
  8
0
  6
Continuous
 62
     7
100
AcDbLine
 10
948.2094836138
 20
163.310901597
 30
0.0
 11
948.2094836138
 21
174.635115961
 31
0.0
  0
LINE
  5
A3
330
1F
100
AcDbEntity
  8
0
  6
Continuous
 62
     7
100
AcDbLine
 10
987.2094836138
 20
174.635115961
 30
0.0
 11
948.2094836138
 21
174.635115961
 31
0.0
  0
LINE
  5
A4
330
1F
100
AcDbEntity
  8
0
  6
Continuous
 62
     7
100
AcDbLine
 10
987.2094836138
 20
174.635115961
 30
0.0
 11
987.2094836138
 21
163.310901597
 31
0.0
  0
ARC
  5
A5
330
1F
100
AcDbEntity
  8
0
  6
Continuous
 62
     7
100
AcDbCircle
 10
987.2094836138
 20
163.310901597
 30
0.0
 40
11.32421436405704
100
AcDbArc
 50
0.0
 51
90.0
  0
LINE
  5
A6
330
1F
100
AcDbEntity
  8
0
  6
Continuous
 62
     7
100
AcDbLine
 10
998.5336979779
 20
163.310901597
 30
0.0
 11
987.2094836138
 21
163.310901597
 31
0.0
  0
ARC
  5
A7
330
1F
100
AcDbEntity
  8
0
  6
Continuous
 62
     7
100
AcDbCircle
 10
948.2094836138
 20
123.310901597
 30
0.0
 40
11.32421436405697
100
AcDbArc
 50
90.0
 51
180.0
  0
LINE
  5
A8
330
1F
100
AcDbEntity
  8
0
  6
Continuous
 62
     7
100
AcDbLine
 10
948.2094836138
 20
123.310901597
 30
0.0
 11
936.8852692498
 21
123.310901597
 31
0.0
  0
ARC
  5
A9
330
1F
100
AcDbEntity
  8
0
  6
Continuous
 62
     7
100
AcDbCircle
 10
948.2094836138
 20
143.310901597
 30
0.0
 40
11.32421436405707
100
AcDbArc
 50
90.0
 51
180.0
  0
LINE
  5
AA
330
1F
100
AcDbEntity
  8
0
  6
Continuous
 62
     7
100
AcDbLine
 10
948.2094836138
 20
143.310901597
 30
0.0
 11
936.8852692498
 21
143.310901597
 31
0.0
  0
ARC
  5
AB
330
1F
100
AcDbEntity
  8
0
  6
Continuous
 62
     7
100
AcDbCircle
 10
948.2094836138
 20
163.310901597
 30
0.0
 40
11.32421436405704
100
AcDbArc
 50
90.0
 51
180.0
  0
LINE
  5
AC
330
1F
100
AcDbEntity
  8
0
  6
Continuous
 62
     7
100
AcDbLine
 10
948.2094836138
 20
163.310901597
 30
0.0
 11
936.8852692498
 21
163.310901597
 31
0.0
  0
LINE
  5
AD
330
1F
100
AcDbEntity
  8
0
  6
Continuous
 62
     7
100
AcDbLine
 10
868.2094836138
 20
123.310901597
 30
0.0
 11
907.2094836138
 21
123.310901597
 31
0.0
  0
LINE
  5
AE
330
1F
100
AcDbEntity
  8
0
  6
Continuous
 62
     7
100
AcDbLine
 10
868.2094836138
 20
123.310901597
 30
0.0
 11
868.2094836138
 21
134.635115961
 31
0.0
  0
LINE
  5
AF
330
1F
100
AcDbEntity
  8
0
  6
Continuous
 62
     7
100
AcDbLine
 10
907.2094836138
 20
134.635115961
 30
0.0
 11
868.2094836138
 21
134.635115961
 31
0.0
  0
LINE
  5
B0
330
1F
100
AcDbEntity
  8
0
  6
Continuous
 62
     7
100
AcDbLine
 10
907.2094836138
 20
134.635115961
 30
0.0
 11
907.2094836138
 21
123.310901597
 31
0.0
  0
ARC
  5
B1
330
1F
100
AcDbEntity
  8
0
  6
Continuous
 62
     7
100
AcDbCircle
 10
907.2094836138
 20
123.310901597
 30
0.0
 40
11.32421436405697
100
AcDbArc
 50
0.0
 51
90.0
  0
LINE
  5
B2
330
1F
100
AcDbEntity
  8
0
  6
Continuous
 62
     7
100
AcDbLine
 10
918.5336979779
 20
123.310901597
 30
0.0
 11
907.2094836138
 21
123.310901597
 31
0.0
  0
LINE
  5
B3
330
1F
100
AcDbEntity
  8
0
  6
Continuous
 62
     7
100
AcDbLine
 10
907.2094836138
 20
154.635115961
 30
0.0
 11
907.2094836138
 21
143.310901597
 31
0.0
  0
ARC
  5
B4
330
1F
100
AcDbEntity
  8
0
  6
Continuous
 62
     7
100
AcDbCircle
 10
907.2094836138
 20
143.310901597
 30
0.0
 40
11.32421436405707
100
AcDbArc
 50
0.0
 51
90.0
  0
LINE
  5
B5
330
1F
100
AcDbEntity
  8
0
  6
Continuous
 62
     7
100
AcDbLine
 10
918.5336979779
 20
143.310901597
 30
0.0
 11
907.2094836138
 21
143.310901597
 31
0.0
  0
LINE
  5
B6
330
1F
100
AcDbEntity
  8
0
  6
Continuous
 62
     7
100
AcDbLine
 10
868.2094836138
 20
143.310901597
 30
0.0
 11
907.2094836138
 21
143.310901597
 31
0.0
  0
LINE
  5
B7
330
1F
100
AcDbEntity
  8
0
  6
Continuous
 62
     7
100
AcDbLine
 10
868.2094836138
 20
143.310901597
 30
0.0
 11
868.2094836138
 21
154.635115961
 31
0.0
  0
LINE
  5
B8
330
1F
100
AcDbEntity
  8
0
  6
Continuous
 62
     7
100
AcDbLine
 10
907.2094836138
 20
154.635115961
 30
0.0
 11
868.2094836138
 21
154.635115961
 31
0.0
  0
LINE
  5
B9
330
1F
100
AcDbEntity
  8
0
  6
Continuous
 62
     7
100
AcDbLine
 10
907.2094836138
 20
174.635115961
 30
0.0
 11
907.2094836138
 21
163.310901597
 31
0.0
  0
ARC
  5
BA
330
1F
100
AcDbEntity
  8
0
  6
Continuous
 62
     7
100
AcDbCircle
 10
907.2094836138
 20
163.310901597
 30
0.0
 40
11.32421436405704
100
AcDbArc
 50
0.0
 51
90.0
  0
LINE
  5
BB
330
1F
100
AcDbEntity
  8
0
  6
Continuous
 62
     7
100
AcDbLine
 10
918.5336979779
 20
163.310901597
 30
0.0
 11
907.2094836138
 21
163.310901597
 31
0.0
  0
LINE
  5
BC
330
1F
100
AcDbEntity
  8
0
  6
Continuous
 62
     7
100
AcDbLine
 10
868.2094836138
 20
163.310901597
 30
0.0
 11
868.2094836138
 21
174.635115961
 31
0.0
  0
LINE
  5
BD
330
1F
100
AcDbEntity
  8
0
  6
Continuous
 62
     7
100
AcDbLine
 10
907.2094836138
 20
174.635115961
 30
0.0
 11
868.2094836138
 21
174.635115961
 31
0.0
  0
LINE
  5
BE
330
1F
100
AcDbEntity
  8
0
  6
Continuous
 62
     7
100
AcDbLine
 10
868.2094836138
 20
163.310901597
 30
0.0
 11
907.2094836138
 21
163.310901597
 31
0.0
  0
ARC
  5
BF
330
1F
100
AcDbEntity
  8
0
  6
Continuous
 62
     7
100
AcDbCircle
 10
868.2094836138
 20
123.310901597
 30
0.0
 40
11.32421436405697
100
AcDbArc
 50
90.0
 51
180.0
  0
LINE
  5
C0
330
1F
100
AcDbEntity
  8
0
  6
Continuous
 62
     7
100
AcDbLine
 10
868.2094836138
 20
123.310901597
 30
0.0
 11
856.8852692498
 21
123.310901597
 31
0.0
  0
ARC
  5
C1
330
1F
100
AcDbEntity
  8
0
  6
Continuous
 62
     7
100
AcDbCircle
 10
868.2094836138
 20
143.310901597
 30
0.0
 40
11.32421436405701
100
AcDbArc
 50
90.0
 51
180.0
  0
LINE
  5
C2
330
1F
100
AcDbEntity
  8
0
  6
Continuous
 62
     7
100
AcDbLine
 10
868.2094836138
 20
143.310901597
 30
0.0
 11
856.8852692498
 21
143.310901597
 31
0.0
  0
ARC
  5
C3
330
1F
100
AcDbEntity
  8
0
  6
Continuous
 62
     7
100
AcDbCircle
 10
868.2094836138
 20
163.310901597
 30
0.0
 40
11.32421436405699
100
AcDbArc
 50
90.0
 51
180.0
  0
LINE
  5
C4
330
1F
100
AcDbEntity
  8
0
  6
Continuous
 62
     7
100
AcDbLine
 10
868.2094836138
 20
163.310901597
 30
0.0
 11
856.8852692498
 21
163.310901597
 31
0.0
  0
LINE
  5
C5
330
1F
100
AcDbEntity
  8
0
  6
Continuous
 62
     7
100
AcDbLine
 10
827.2094836138
 20
134.635115961
 30
0.0
 11
827.2094836138
 21
123.310901597
 31
0.0
  0
ARC
  5
C6
330
1F
100
AcDbEntity
  8
0
  6
Continuous
 62
     7
100
AcDbCircle
 10
827.2094836138
 20
123.310901597
 30
0.0
 40
11.32421436405707
100
AcDbArc
 50
0.0
 51
90.0
  0
LINE
  5
C7
330
1F
100
AcDbEntity
  8
0
  6
Continuous
 62
     7
100
AcDbLine
 10
838.5336979779
 20
123.310901597
 30
0.0
 11
827.2094836138
 21
123.310901597
 31
0.0
  0
LINE
  5
C8
330
1F
100
AcDbEntity
  8
0
  6
Continuous
 62
     7
100
AcDbLine
 10
788.2094836138
 20
123.310901597
 30
0.0
 11
788.2094836138
 21
134.635115961
 31
0.0
  0
LINE
  5
C9
330
1F
100
AcDbEntity
  8
0
  6
Continuous
 62
     7
100
AcDbLine
 10
827.2094836138
 20
134.635115961
 30
0.0
 11
788.2094836138
 21
134.635115961
 31
0.0
  0
LINE
  5
CA
330
1F
100
AcDbEntity
  8
0
  6
Continuous
 62
     7
100
AcDbLine
 10
788.2094836138
 20
123.310901597
 30
0.0
 11
827.2094836138
 21
123.310901597
 31
0.0
  0
LINE
  5
CB
330
1F
100
AcDbEntity
  8
0
  6
Continuous
 62
     7
100
AcDbLine
 10
788.2094836138
 20
143.310901597
 30
0.0
 11
788.2094836138
 21
154.635115961
 31
0.0
  0
LINE
  5
CC
330
1F
100
AcDbEntity
  8
0
  6
Continuous
 62
     7
100
AcDbLine
 10
827.2094836138
 20
154.635115961
 30
0.0
 11
788.2094836138
 21
154.635115961
 31
0.0
  0
LINE
  5
CD
330
1F
100
AcDbEntity
  8
0
  6
Continuous
 62
     7
100
AcDbLine
 10
827.2094836138
 20
154.635115961
 30
0.0
 11
827.2094836138
 21
143.310901597
 31
0.0
  0
LINE
  5
CE
330
1F
100
AcDbEntity
  8
0
  6
Continuous
 62
     7
100
AcDbLine
 10
788.2094836138
 20
143.310901597
 30
0.0
 11
827.2094836138
 21
143.310901597
 31
0.0
  0
ARC
  5
CF
330
1F
100
AcDbEntity
  8
0
  6
Continuous
 62
     7
100
AcDbCircle
 10
827.2094836138
 20
143.310901597
 30
0.0
 40
11.32421436405707
100
AcDbArc
 50
0.0
 51
90.0
  0
LINE
  5
D0
330
1F
100
AcDbEntity
  8
0
  6
Continuous
 62
     7
100
AcDbLine
 10
838.5336979779
 20
143.310901597
 30
0.0
 11
827.2094836138
 21
143.310901597
 31
0.0
  0
LINE
  5
D1
330
1F
100
AcDbEntity
  8
0
  6
Continuous
 62
     7
100
AcDbLine
 10
788.2094836138
 20
163.310901597
 30
0.0
 11
788.2094836138
 21
174.635115961
 31
0.0
  0
LINE
  5
D2
330
1F
100
AcDbEntity
  8
0
  6
Continuous
 62
     7
100
AcDbLine
 10
827.2094836138
 20
174.635115961
 30
0.0
 11
788.2094836138
 21
174.635115961
 31
0.0
  0
LINE
  5
D3
330
1F
100
AcDbEntity
  8
0
  6
Continuous
 62
     7
100
AcDbLine
 10
827.2094836138
 20
174.635115961
 30
0.0
 11
827.2094836138
 21
163.310901597
 31
0.0
  0
LINE
  5
D4
330
1F
100
AcDbEntity
  8
0
  6
Continuous
 62
     7
100
AcDbLine
 10
788.2094836138
 20
163.310901597
 30
0.0
 11
827.2094836138
 21
163.310901597
 31
0.0
  0
ARC
  5
D5
330
1F
100
AcDbEntity
  8
0
  6
Continuous
 62
     7
100
AcDbCircle
 10
827.2094836138
 20
163.310901597
 30
0.0
 40
11.32421436405707
100
AcDbArc
 50
0.0
 51
90.0
  0
LINE
  5
D6
330
1F
100
AcDbEntity
  8
0
  6
Continuous
 62
     7
100
AcDbLine
 10
838.5336979779
 20
163.310901597
 30
0.0
 11
827.2094836138
 21
163.310901597
 31
0.0
  0
ARC
  5
D7
330
1F
100
AcDbEntity
  8
0
  6
Continuous
 62
     7
100
AcDbCircle
 10
788.2094836138
 20
123.310901597
 30
0.0
 40
11.32421436405697
100
AcDbArc
 50
90.0
 51
180.0
  0
LINE
  5
D8
330
1F
100
AcDbEntity
  8
0
  6
Continuous
 62
     7
100
AcDbLine
 10
788.2094836138
 20
123.310901597
 30
0.0
 11
776.8852692498
 21
123.310901597
 31
0.0
  0
ARC
  5
D9
330
1F
100
AcDbEntity
  8
0
  6
Continuous
 62
     7
100
AcDbCircle
 10
788.2094836138
 20
143.310901597
 30
0.0
 40
11.32421436405701
100
AcDbArc
 50
90.0
 51
180.0
  0
LINE
  5
DA
330
1F
100
AcDbEntity
  8
0
  6
Continuous
 62
     7
100
AcDbLine
 10
788.2094836138
 20
143.310901597
 30
0.0
 11
776.8852692498
 21
143.310901597
 31
0.0
  0
ARC
  5
DB
330
1F
100
AcDbEntity
  8
0
  6
Continuous
 62
     7
100
AcDbCircle
 10
788.2094836138
 20
163.310901597
 30
0.0
 40
11.32421436405699
100
AcDbArc
 50
90.0
 51
180.0
  0
LINE
  5
DC
330
1F
100
AcDbEntity
  8
0
  6
Continuous
 62
     7
100
AcDbLine
 10
788.2094836138
 20
163.310901597
 30
0.0
 11
776.8852692498
 21
163.310901597
 31
0.0
  0
LINE
  5
DD
330
1F
100
AcDbEntity
  8
0
  6
Continuous
 62
     7
100
AcDbLine
 10
1147.2094836138
 20
134.635115961
 30
0.0
 11
1147.2094836138
 21
135.9994791374
 31
0.0
  0
ARC
  5
DE
330
1F
100
AcDbEntity
  8
0
  6
Continuous
 62
     7
100
AcDbCircle
 10
1147.2094836138
 20
123.310901597
 30
0.0
 40
12.68857754044961
100
AcDbArc
 50
0.0
 51
90.0
  0
LINE
  5
DF
330
1F
100
AcDbEntity
  8
0
  6
Continuous
 62
     7
100
AcDbLine
 10
1159.8980611543
 20
123.310901597
 30
0.0
 11
1158.5336979779
 21
123.310901597
 31
0.0
  0
LINE
  5
E0
330
1F
100
AcDbEntity
  8
0
  6
Continuous
 62
     7
100
AcDbLine
 10
1147.2094836138
 20
154.635115961
 30
0.0
 11
1147.2094836138
 21
155.9994791374
 31
0.0
  0
ARC
  5
E1
330
1F
100
AcDbEntity
  8
0
  6
Continuous
 62
     7
100
AcDbCircle
 10
1147.2094836138
 20
143.310901597
 30
0.0
 40
12.68857754044961
100
AcDbArc
 50
0.0
 51
90.0
  0
LINE
  5
E2
330
1F
100
AcDbEntity
  8
0
  6
Continuous
 62
     7
100
AcDbLine
 10
1159.8980611543
 20
143.310901597
 30
0.0
 11
1158.5336979779
 21
143.310901597
 31
0.0
  0
LINE
  5
E3
330
1F
100
AcDbEntity
  8
0
  6
Continuous
 62
     7
100
AcDbLine
 10
1108.2094836138
 20
134.635115961
 30
0.0
 11
1108.2094836138
 21
135.9994791374
 31
0.0
  0
LINE
  5
E4
330
1F
100
AcDbEntity
  8
0
  6
Continuous
 62
     7
100
AcDbLine
 10
1108.2094836138
 20
135.9994791374
 30
0.0
 11
1147.2094836138
 21
135.9994791374
 31
0.0
  0
LINE
  5
E5
330
1F
100
AcDbEntity
  8
0
  6
Continuous
 62
     7
100
AcDbLine
 10
1147.2094836138
 20
174.635115961
 30
0.0
 11
1147.2094836138
 21
175.9994791374
 31
0.0
  0
ARC
  5
E6
330
1F
100
AcDbEntity
  8
0
  6
Continuous
 62
     7
100
AcDbCircle
 10
1147.2094836138
 20
163.310901597
 30
0.0
 40
12.68857754044961
100
AcDbArc
 50
0.0
 51
90.0
  0
LINE
  5
E7
330
1F
100
AcDbEntity
  8
0
  6
Continuous
 62
     7
100
AcDbLine
 10
1159.8980611543
 20
163.310901597
 30
0.0
 11
1158.5336979779
 21
163.310901597
 31
0.0
  0
LINE
  5
E8
330
1F
100
AcDbEntity
  8
0
  6
Continuous
 62
     7
100
AcDbLine
 10
1108.2094836138
 20
154.635115961
 30
0.0
 11
1108.2094836138
 21
155.9994791374
 31
0.0
  0
LINE
  5
E9
330
1F
100
AcDbEntity
  8
0
  6
Continuous
 62
     7
100
AcDbLine
 10
1108.2094836138
 20
155.9994791374
 30
0.0
 11
1147.2094836138
 21
155.9994791374
 31
0.0
  0
LINE
  5
EA
330
1F
100
AcDbEntity
  8
0
  6
Continuous
 62
     7
100
AcDbLine
 10
1108.2094836138
 20
174.635115961
 30
0.0
 11
1108.2094836138
 21
175.9994791374
 31
0.0
  0
LINE
  5
EB
330
1F
100
AcDbEntity
  8
0
  6
Continuous
 62
     7
100
AcDbLine
 10
1108.2094836138
 20
175.9994791374
 30
0.0
 11
1147.2094836138
 21
175.9994791374
 31
0.0
  0
ARC
  5
EC
330
1F
100
AcDbEntity
  8
0
  6
Continuous
 62
     7
100
AcDbCircle
 10
1108.2094836138
 20
123.310901597
 30
0.0
 40
12.68857754044961
100
AcDbArc
 50
90.0
 51
180.0
  0
LINE
  5
ED
330
1F
100
AcDbEntity
  8
0
  6
Continuous
 62
     7
100
AcDbLine
 10
1096.8852692498
 20
123.310901597
 30
0.0
 11
1095.5209060734
 21
123.310901597
 31
0.0
  0
ARC
  5
EE
330
1F
100
AcDbEntity
  8
0
  6
Continuous
 62
     7
100
AcDbCircle
 10
1108.2094836138
 20
143.310901597
 30
0.0
 40
12.68857754044961
100
AcDbArc
 50
90.0
 51
180.0
  0
LINE
  5
EF
330
1F
100
AcDbEntity
  8
0
  6
Continuous
 62
     7
100
AcDbLine
 10
1096.8852692498
 20
143.310901597
 30
0.0
 11
1095.5209060734
 21
143.310901597
 31
0.0
  0
LINE
  5
F0
330
1F
100
AcDbEntity
  8
0
  6
Continuous
 62
     7
100
AcDbLine
 10
1067.2094836138
 20
134.635115961
 30
0.0
 11
1067.2094836138
 21
135.9994791374
 31
0.0
  0
ARC
  5
F1
330
1F
100
AcDbEntity
  8
0
  6
Continuous
 62
     7
100
AcDbCircle
 10
1067.2094836138
 20
123.310901597
 30
0.0
 40
12.68857754044961
100
AcDbArc
 50
0.0
 51
90.0
  0
LINE
  5
F2
330
1F
100
AcDbEntity
  8
0
  6
Continuous
 62
     7
100
AcDbLine
 10
1079.8980611543
 20
123.310901597
 30
0.0
 11
1078.5336979779
 21
123.310901597
 31
0.0
  0
ARC
  5
F3
330
1F
100
AcDbEntity
  8
0
  6
Continuous
 62
     7
100
AcDbCircle
 10
1108.2094836138
 20
163.310901597
 30
0.0
 40
12.68857754044961
100
AcDbArc
 50
90.0
 51
180.0
  0
LINE
  5
F4
330
1F
100
AcDbEntity
  8
0
  6
Continuous
 62
     7
100
AcDbLine
 10
1096.8852692498
 20
163.310901597
 30
0.0
 11
1095.5209060734
 21
163.310901597
 31
0.0
  0
LINE
  5
F5
330
1F
100
AcDbEntity
  8
0
  6
Continuous
 62
     7
100
AcDbLine
 10
1067.2094836138
 20
154.635115961
 30
0.0
 11
1067.2094836138
 21
155.9994791374
 31
0.0
  0
ARC
  5
F6
330
1F
100
AcDbEntity
  8
0
  6
Continuous
 62
     7
100
AcDbCircle
 10
1067.2094836138
 20
143.310901597
 30
0.0
 40
12.68857754044961
100
AcDbArc
 50
0.0
 51
90.0
  0
LINE
  5
F7
330
1F
100
AcDbEntity
  8
0
  6
Continuous
 62
     7
100
AcDbLine
 10
1079.8980611543
 20
143.310901597
 30
0.0
 11
1078.5336979779
 21
143.310901597
 31
0.0
  0
LINE
  5
F8
330
1F
100
AcDbEntity
  8
0
  6
Continuous
 62
     7
100
AcDbLine
 10
1028.2094836138
 20
134.635115961
 30
0.0
 11
1028.2094836138
 21
135.9994791374
 31
0.0
  0
LINE
  5
F9
330
1F
100
AcDbEntity
  8
0
  6
Continuous
 62
     7
100
AcDbLine
 10
1028.2094836138
 20
135.9994791374
 30
0.0
 11
1067.2094836138
 21
135.9994791374
 31
0.0
  0
LINE
  5
FA
330
1F
100
AcDbEntity
  8
0
  6
Continuous
 62
     7
100
AcDbLine
 10
1067.2094836138
 20
174.635115961
 30
0.0
 11
1067.2094836138
 21
175.9994791374
 31
0.0
  0
ARC
  5
FB
330
1F
100
AcDbEntity
  8
0
  6
Continuous
 62
     7
100
AcDbCircle
 10
1067.2094836138
 20
163.310901597
 30
0.0
 40
12.68857754044961
100
AcDbArc
 50
0.0
 51
90.0
  0
LINE
  5
FC
330
1F
100
AcDbEntity
  8
0
  6
Continuous
 62
     7
100
AcDbLine
 10
1079.8980611543
 20
163.310901597
 30
0.0
 11
1078.5336979779
 21
163.310901597
 31
0.0
  0
LINE
  5
FD
330
1F
100
AcDbEntity
  8
0
  6
Continuous
 62
     7
100
AcDbLine
 10
1028.2094836138
 20
154.635115961
 30
0.0
 11
1028.2094836138
 21
155.9994791374
 31
0.0
  0
LINE
  5
FE
330
1F
100
AcDbEntity
  8
0
  6
Continuous
 62
     7
100
AcDbLine
 10
1028.2094836138
 20
155.9994791374
 30
0.0
 11
1067.2094836138
 21
155.9994791374
 31
0.0
  0
LINE
  5
FF
330
1F
100
AcDbEntity
  8
0
  6
Continuous
 62
     7
100
AcDbLine
 10
1028.2094836138
 20
174.635115961
 30
0.0
 11
1028.2094836138
 21
175.9994791374
 31
0.0
  0
LINE
  5
100
330
1F
100
AcDbEntity
  8
0
  6
Continuous
 62
     7
100
AcDbLine
 10
1028.2094836138
 20
175.9994791374
 30
0.0
 11
1067.2094836138
 21
175.9994791374
 31
0.0
  0
ARC
  5
101
330
1F
100
AcDbEntity
  8
0
  6
Continuous
 62
     7
100
AcDbCircle
 10
1028.2094836138
 20
123.310901597
 30
0.0
 40
12.68857754044946
100
AcDbArc
 50
90.0
 51
180.0
  0
LINE
  5
102
330
1F
100
AcDbEntity
  8
0
  6
Continuous
 62
     7
100
AcDbLine
 10
1016.8852692498
 20
123.310901597
 30
0.0
 11
1015.5209060734
 21
123.310901597
 31
0.0
  0
ARC
  5
103
330
1F
100
AcDbEntity
  8
0
  6
Continuous
 62
     7
100
AcDbCircle
 10
1028.2094836138
 20
143.310901597
 30
0.0
 40
12.6885775404495
100
AcDbArc
 50
90.0
 51
180.0
  0
LINE
  5
104
330
1F
100
AcDbEntity
  8
0
  6
Continuous
 62
     7
100
AcDbLine
 10
1016.8852692498
 20
143.310901597
 30
0.0
 11
1015.5209060734
 21
143.310901597
 31
0.0
  0
LINE
  5
105
330
1F
100
AcDbEntity
  8
0
  6
Continuous
 62
     7
100
AcDbLine
 10
987.2094836138
 20
134.635115961
 30
0.0
 11
987.2094836138
 21
135.9994791374
 31
0.0
  0
ARC
  5
106
330
1F
100
AcDbEntity
  8
0
  6
Continuous
 62
     7
100
AcDbCircle
 10
987.2094836138
 20
123.310901597
 30
0.0
 40
12.6885775404495
100
AcDbArc
 50
0.0
 51
90.0
  0
LINE
  5
107
330
1F
100
AcDbEntity
  8
0
  6
Continuous
 62
     7
100
AcDbLine
 10
999.8980611543
 20
123.310901597
 30
0.0
 11
998.5336979779
 21
123.310901597
 31
0.0
  0
ARC
  5
108
330
1F
100
AcDbEntity
  8
0
  6
Continuous
 62
     7
100
AcDbCircle
 10
1028.2094836138
 20
163.310901597
 30
0.0
 40
12.68857754044947
100
AcDbArc
 50
90.0
 51
180.0
  0
LINE
  5
109
330
1F
100
AcDbEntity
  8
0
  6
Continuous
 62
     7
100
AcDbLine
 10
1016.8852692498
 20
163.310901597
 30
0.0
 11
1015.5209060734
 21
163.310901597
 31
0.0
  0
LINE
  5
10A
330
1F
100
AcDbEntity
  8
0
  6
Continuous
 62
     7
100
AcDbLine
 10
987.2094836138
 20
154.635115961
 30
0.0
 11
987.2094836138
 21
155.9994791374
 31
0.0
  0
ARC
  5
10B
330
1F
100
AcDbEntity
  8
0
  6
Continuous
 62
     7
100
AcDbCircle
 10
987.2094836138
 20
143.310901597
 30
0.0
 40
12.6885775404495
100
AcDbArc
 50
0.0
 51
90.0
  0
LINE
  5
10C
330
1F
100
AcDbEntity
  8
0
  6
Continuous
 62
     7
100
AcDbLine
 10
999.8980611543
 20
143.310901597
 30
0.0
 11
998.5336979779
 21
143.310901597
 31
0.0
  0
LINE
  5
10D
330
1F
100
AcDbEntity
  8
0
  6
Continuous
 62
     7
100
AcDbLine
 10
948.2094836138
 20
134.635115961
 30
0.0
 11
948.2094836138
 21
135.9994791374
 31
0.0
  0
LINE
  5
10E
330
1F
100
AcDbEntity
  8
0
  6
Continuous
 62
     7
100
AcDbLine
 10
948.2094836138
 20
135.9994791374
 30
0.0
 11
987.2094836138
 21
135.9994791374
 31
0.0
  0
LINE
  5
10F
330
1F
100
AcDbEntity
  8
0
  6
Continuous
 62
     7
100
AcDbLine
 10
987.2094836138
 20
174.635115961
 30
0.0
 11
987.2094836138
 21
175.9994791374
 31
0.0
  0
ARC
  5
110
330
1F
100
AcDbEntity
  8
0
  6
Continuous
 62
     7
100
AcDbCircle
 10
987.2094836138
 20
163.310901597
 30
0.0
 40
12.6885775404495
100
AcDbArc
 50
0.0
 51
90.0
  0
LINE
  5
111
330
1F
100
AcDbEntity
  8
0
  6
Continuous
 62
     7
100
AcDbLine
 10
999.8980611543
 20
163.310901597
 30
0.0
 11
998.5336979779
 21
163.310901597
 31
0.0
  0
LINE
  5
112
330
1F
100
AcDbEntity
  8
0
  6
Continuous
 62
     7
100
AcDbLine
 10
948.2094836138
 20
154.635115961
 30
0.0
 11
948.2094836138
 21
155.9994791374
 31
0.0
  0
LINE
  5
113
330
1F
100
AcDbEntity
  8
0
  6
Continuous
 62
     7
100
AcDbLine
 10
948.2094836138
 20
155.9994791374
 30
0.0
 11
987.2094836138
 21
155.9994791374
 31
0.0
  0
LINE
  5
114
330
1F
100
AcDbEntity
  8
0
  6
Continuous
 62
     7
100
AcDbLine
 10
948.2094836138
 20
174.635115961
 30
0.0
 11
948.2094836138
 21
175.9994791374
 31
0.0
  0
LINE
  5
115
330
1F
100
AcDbEntity
  8
0
  6
Continuous
 62
     7
100
AcDbLine
 10
948.2094836138
 20
175.9994791374
 30
0.0
 11
987.2094836138
 21
175.9994791374
 31
0.0
  0
ARC
  5
116
330
1F
100
AcDbEntity
  8
0
  6
Continuous
 62
     7
100
AcDbCircle
 10
948.2094836138
 20
123.310901597
 30
0.0
 40
12.6885775404495
100
AcDbArc
 50
90.0
 51
180.0
  0
LINE
  5
117
330
1F
100
AcDbEntity
  8
0
  6
Continuous
 62
     7
100
AcDbLine
 10
936.8852692498
 20
123.310901597
 30
0.0
 11
935.5209060734
 21
123.310901597
 31
0.0
  0
ARC
  5
118
330
1F
100
AcDbEntity
  8
0
  6
Continuous
 62
     7
100
AcDbCircle
 10
948.2094836138
 20
143.310901597
 30
0.0
 40
12.6885775404495
100
AcDbArc
 50
90.0
 51
180.0
  0
LINE
  5
119
330
1F
100
AcDbEntity
  8
0
  6
Continuous
 62
     7
100
AcDbLine
 10
936.8852692498
 20
143.310901597
 30
0.0
 11
935.5209060734
 21
143.310901597
 31
0.0
  0
LINE
  5
11A
330
1F
100
AcDbEntity
  8
0
  6
Continuous
 62
     7
100
AcDbLine
 10
907.2094836138
 20
134.635115961
 30
0.0
 11
907.2094836138
 21
135.9994791374
 31
0.0
  0
ARC
  5
11B
330
1F
100
AcDbEntity
  8
0
  6
Continuous
 62
     7
100
AcDbCircle
 10
907.2094836138
 20
123.310901597
 30
0.0
 40
12.6885775404495
100
AcDbArc
 50
0.0
 51
90.0
  0
LINE
  5
11C
330
1F
100
AcDbEntity
  8
0
  6
Continuous
 62
     7
100
AcDbLine
 10
919.8980611543
 20
123.310901597
 30
0.0
 11
918.5336979779
 21
123.310901597
 31
0.0
  0
ARC
  5
11D
330
1F
100
AcDbEntity
  8
0
  6
Continuous
 62
     7
100
AcDbCircle
 10
948.2094836138
 20
163.310901597
 30
0.0
 40
12.6885775404495
100
AcDbArc
 50
90.0
 51
180.0
  0
LINE
  5
11E
330
1F
100
AcDbEntity
  8
0
  6
Continuous
 62
     7
100
AcDbLine
 10
936.8852692498
 20
163.310901597
 30
0.0
 11
935.5209060734
 21
163.310901597
 31
0.0
  0
LINE
  5
11F
330
1F
100
AcDbEntity
  8
0
  6
Continuous
 62
     7
100
AcDbLine
 10
907.2094836138
 20
154.635115961
 30
0.0
 11
907.2094836138
 21
155.9994791374
 31
0.0
  0
ARC
  5
120
330
1F
100
AcDbEntity
  8
0
  6
Continuous
 62
     7
100
AcDbCircle
 10
907.2094836138
 20
143.310901597
 30
0.0
 40
12.6885775404495
100
AcDbArc
 50
0.0
 51
90.0
  0
LINE
  5
121
330
1F
100
AcDbEntity
  8
0
  6
Continuous
 62
     7
100
AcDbLine
 10
919.8980611543
 20
143.310901597
 30
0.0
 11
918.5336979779
 21
143.310901597
 31
0.0
  0
LINE
  5
122
330
1F
100
AcDbEntity
  8
0
  6
Continuous
 62
     7
100
AcDbLine
 10
868.2094836138
 20
134.635115961
 30
0.0
 11
868.2094836138
 21
135.9994791374
 31
0.0
  0
LINE
  5
123
330
1F
100
AcDbEntity
  8
0
  6
Continuous
 62
     7
100
AcDbLine
 10
868.2094836138
 20
135.9994791374
 30
0.0
 11
907.2094836138
 21
135.9994791374
 31
0.0
  0
LINE
  5
124
330
1F
100
AcDbEntity
  8
0
  6
Continuous
 62
     7
100
AcDbLine
 10
907.2094836138
 20
174.635115961
 30
0.0
 11
907.2094836138
 21
175.9994791374
 31
0.0
  0
ARC
  5
125
330
1F
100
AcDbEntity
  8
0
  6
Continuous
 62
     7
100
AcDbCircle
 10
907.2094836138
 20
163.310901597
 30
0.0
 40
12.6885775404495
100
AcDbArc
 50
0.0
 51
90.0
  0
LINE
  5
126
330
1F
100
AcDbEntity
  8
0
  6
Continuous
 62
     7
100
AcDbLine
 10
919.8980611543
 20
163.310901597
 30
0.0
 11
918.5336979779
 21
163.310901597
 31
0.0
  0
LINE
  5
127
330
1F
100
AcDbEntity
  8
0
  6
Continuous
 62
     7
100
AcDbLine
 10
868.2094836138
 20
154.635115961
 30
0.0
 11
868.2094836138
 21
155.9994791374
 31
0.0
  0
LINE
  5
128
330
1F
100
AcDbEntity
  8
0
  6
Continuous
 62
     7
100
AcDbLine
 10
868.2094836138
 20
155.9994791374
 30
0.0
 11
907.2094836138
 21
155.9994791374
 31
0.0
  0
LINE
  5
129
330
1F
100
AcDbEntity
  8
0
  6
Continuous
 62
     7
100
AcDbLine
 10
868.2094836138
 20
174.635115961
 30
0.0
 11
868.2094836138
 21
175.9994791374
 31
0.0
  0
LINE
  5
12A
330
1F
100
AcDbEntity
  8
0
  6
Continuous
 62
     7
100
AcDbLine
 10
868.2094836138
 20
175.9994791374
 30
0.0
 11
907.2094836138
 21
175.9994791374
 31
0.0
  0
ARC
  5
12B
330
1F
100
AcDbEntity
  8
0
  6
Continuous
 62
     7
100
AcDbCircle
 10
868.2094836138
 20
123.310901597
 30
0.0
 40
12.6885775404495
100
AcDbArc
 50
90.0
 51
180.0
  0
LINE
  5
12C
330
1F
100
AcDbEntity
  8
0
  6
Continuous
 62
     7
100
AcDbLine
 10
856.8852692498
 20
123.310901597
 30
0.0
 11
855.5209060734
 21
123.310901597
 31
0.0
  0
ARC
  5
12D
330
1F
100
AcDbEntity
  8
0
  6
Continuous
 62
     7
100
AcDbCircle
 10
868.2094836138
 20
143.310901597
 30
0.0
 40
12.6885775404495
100
AcDbArc
 50
90.0
 51
180.0
  0
LINE
  5
12E
330
1F
100
AcDbEntity
  8
0
  6
Continuous
 62
     7
100
AcDbLine
 10
856.8852692498
 20
143.310901597
 30
0.0
 11
855.5209060734
 21
143.310901597
 31
0.0
  0
LINE
  5
12F
330
1F
100
AcDbEntity
  8
0
  6
Continuous
 62
     7
100
AcDbLine
 10
827.2094836138
 20
134.635115961
 30
0.0
 11
827.2094836138
 21
135.9994791374
 31
0.0
  0
ARC
  5
130
330
1F
100
AcDbEntity
  8
0
  6
Continuous
 62
     7
100
AcDbCircle
 10
827.2094836138
 20
123.310901597
 30
0.0
 40
12.6885775404495
100
AcDbArc
 50
0.0
 51
90.0
  0
LINE
  5
131
330
1F
100
AcDbEntity
  8
0
  6
Continuous
 62
     7
100
AcDbLine
 10
839.8980611543
 20
123.310901597
 30
0.0
 11
838.5336979779
 21
123.310901597
 31
0.0
  0
ARC
  5
132
330
1F
100
AcDbEntity
  8
0
  6
Continuous
 62
     7
100
AcDbCircle
 10
868.2094836138
 20
163.310901597
 30
0.0
 40
12.6885775404495
100
AcDbArc
 50
90.0
 51
180.0
  0
LINE
  5
133
330
1F
100
AcDbEntity
  8
0
  6
Continuous
 62
     7
100
AcDbLine
 10
856.8852692498
 20
163.310901597
 30
0.0
 11
855.5209060734
 21
163.310901597
 31
0.0
  0
LINE
  5
134
330
1F
100
AcDbEntity
  8
0
  6
Continuous
 62
     7
100
AcDbLine
 10
827.2094836138
 20
154.635115961
 30
0.0
 11
827.2094836138
 21
155.9994791374
 31
0.0
  0
ARC
  5
135
330
1F
100
AcDbEntity
  8
0
  6
Continuous
 62
     7
100
AcDbCircle
 10
827.2094836138
 20
143.310901597
 30
0.0
 40
12.6885775404495
100
AcDbArc
 50
0.0
 51
90.0
  0
LINE
  5
136
330
1F
100
AcDbEntity
  8
0
  6
Continuous
 62
     7
100
AcDbLine
 10
839.8980611543
 20
143.310901597
 30
0.0
 11
838.5336979779
 21
143.310901597
 31
0.0
  0
LINE
  5
137
330
1F
100
AcDbEntity
  8
0
  6
Continuous
 62
     7
100
AcDbLine
 10
788.2094836138
 20
134.635115961
 30
0.0
 11
788.2094836138
 21
135.9994791374
 31
0.0
  0
LINE
  5
138
330
1F
100
AcDbEntity
  8
0
  6
Continuous
 62
     7
100
AcDbLine
 10
788.2094836138
 20
135.9994791374
 30
0.0
 11
827.2094836138
 21
135.9994791374
 31
0.0
  0
LINE
  5
139
330
1F
100
AcDbEntity
  8
0
  6
Continuous
 62
     7
100
AcDbLine
 10
827.2094836138
 20
174.635115961
 30
0.0
 11
827.2094836138
 21
175.9994791374
 31
0.0
  0
ARC
  5
13A
330
1F
100
AcDbEntity
  8
0
  6
Continuous
 62
     7
100
AcDbCircle
 10
827.2094836138
 20
163.310901597
 30
0.0
 40
12.6885775404495
100
AcDbArc
 50
0.0
 51
90.0
  0
LINE
  5
13B
330
1F
100
AcDbEntity
  8
0
  6
Continuous
 62
     7
100
AcDbLine
 10
839.8980611543
 20
163.310901597
 30
0.0
 11
838.5336979779
 21
163.310901597
 31
0.0
  0
LINE
  5
13C
330
1F
100
AcDbEntity
  8
0
  6
Continuous
 62
     7
100
AcDbLine
 10
788.2094836138
 20
154.635115961
 30
0.0
 11
788.2094836138
 21
155.9994791374
 31
0.0
  0
LINE
  5
13D
330
1F
100
AcDbEntity
  8
0
  6
Continuous
 62
     7
100
AcDbLine
 10
788.2094836138
 20
155.9994791374
 30
0.0
 11
827.2094836138
 21
155.9994791374
 31
0.0
  0
LINE
  5
13E
330
1F
100
AcDbEntity
  8
0
  6
Continuous
 62
     7
100
AcDbLine
 10
788.2094836138
 20
174.635115961
 30
0.0
 11
788.2094836138
 21
175.9994791374
 31
0.0
  0
LINE
  5
13F
330
1F
100
AcDbEntity
  8
0
  6
Continuous
 62
     7
100
AcDbLine
 10
788.2094836138
 20
175.9994791374
 30
0.0
 11
827.2094836138
 21
175.9994791374
 31
0.0
  0
ARC
  5
140
330
1F
100
AcDbEntity
  8
0
  6
Continuous
 62
     7
100
AcDbCircle
 10
788.2094836138
 20
123.310901597
 30
0.0
 40
12.68857754044937
100
AcDbArc
 50
90.0
 51
180.0
  0
LINE
  5
141
330
1F
100
AcDbEntity
  8
0
  6
Continuous
 62
     7
100
AcDbLine
 10
776.8852692498
 20
123.310901597
 30
0.0
 11
775.5209060734
 21
123.310901597
 31
0.0
  0
ARC
  5
142
330
1F
100
AcDbEntity
  8
0
  6
Continuous
 62
     7
100
AcDbCircle
 10
788.2094836138
 20
143.310901597
 30
0.0
 40
12.68857754044939
100
AcDbArc
 50
90.0
 51
180.0
  0
LINE
  5
143
330
1F
100
AcDbEntity
  8
0
  6
Continuous
 62
     7
100
AcDbLine
 10
776.8852692498
 20
143.310901597
 30
0.0
 11
775.5209060734
 21
143.310901597
 31
0.0
  0
ARC
  5
144
330
1F
100
AcDbEntity
  8
0
  6
Continuous
 62
     7
100
AcDbCircle
 10
788.2094836138
 20
163.310901597
 30
0.0
 40
12.68857754044942
100
AcDbArc
 50
90.0
 51
180.0
  0
LINE
  5
145
330
1F
100
AcDbEntity
  8
0
  6
Continuous
 62
     7
100
AcDbLine
 10
776.8852692498
 20
163.310901597
 30
0.0
 11
775.5209060734
 21
163.310901597
 31
0.0
  0
ARC
  5
146
330
1F
100
AcDbEntity
  8
0
  6
Continuous
 62
     7
100
AcDbCircle
 10
1204.9118018195
 20
149.710901597
 30
0.0
 40
8.242640687119291
100
AcDbArc
 50
90.0
 51
270.0
  0
ARC
  5
147
330
1F
100
AcDbEntity
  8
0
  6
Continuous
 62
     7
100
AcDbCircle
 10
1204.9118018195
 20
149.710901597
 30
0.0
 40
8.242640687119291
100
AcDbArc
 50
270.0
 51
90.0
  0
ARC
  5
148
330
1F
100
AcDbEntity
  8
0
  6
Continuous
 62
     7
100
AcDbCircle
 10
721.9118018195
 20
149.710901597
 30
0.0
 40
8.24264068711949
100
AcDbArc
 50
90.0
 51
270.0
  0
ARC
  5
149
330
1F
100
AcDbEntity
  8
0
  6
Continuous
 62
     7
100
AcDbCircle
 10
721.9118018195
 20
149.710901597
 30
0.0
 40
8.24264068711949
100
AcDbArc
 50
270.0
 51
90.0
  0
LINE
  5
14A
330
1F
100
AcDbEntity
  8
0
  6
Continuous
 62
     7
100
AcDbLine
 10
665.9118018195
 20
101.710901597
 30
0.0
 11
665.9118018195
 21
197.710901597
 31
0.0
  0
LINE
  5
14B
330
1F
100
AcDbEntity
  8
0
  6
Continuous
 62
     7
100
AcDbLine
 10
665.9118018195
 20
197.710901597
 30
0.0
 11
1260.9118018195
 21
197.710901597
 31
0.0
  0
LINE
  5
14C
330
1F
100
AcDbEntity
  8
0
  6
Continuous
 62
     7
100
AcDbLine
 10
1260.9118018195
 20
101.710901597
 30
0.0
 11
665.9118018195
 21
101.710901597
 31
0.0
  0
LINE
  5
14D
330
1F
100
AcDbEntity
  8
0
  6
Continuous
 62
     7
100
AcDbLine
 10
1260.9118018195
 20
197.710901597
 30
0.0
 11
1260.9118018195
 21
101.710901597
 31
0.0
  0
ARC
  5
14E
330
1F
100
AcDbEntity
  8
0
  6
Continuous
 62
     7
100
AcDbCircle
 10
1204.9118018195
 20
149.710901597
 30
0.0
 40
6.121320343559688
100
AcDbArc
 50
180.0
 51
270.0
  0
LINE
  5
14F
330
1F
100
AcDbEntity
  8
0
  6
Continuous
 62
     7
100
AcDbLine
 10
1204.9118018195
 20
143.5895812534
 30
0.0
 11
1204.9118018195
 21
141.4682609098
 31
0.0
  0
LINE
  5
150
330
1F
100
AcDbEntity
  8
0
  6
Continuous
 62
     7
100
AcDbLine
 10
1204.9118018195
 20
155.8322219405
 30
0.0
 11
1204.9118018195
 21
157.9535422841
 31
0.0
  0
ARC
  5
151
330
1F
100
AcDbEntity
  8
0
  6
Continuous
 62
     7
100
AcDbCircle
 10
1204.9118018195
 20
149.710901597
 30
0.0
 40
6.121320343559631
100
AcDbArc
 50
90.0
 51
180.0
  0
ARC
  5
152
330
1F
100
AcDbEntity
  8
0
  6
Continuous
 62
     7
100
AcDbCircle
 10
1204.9118018195
 20
149.710901597
 30
0.0
 40
6.121320343559688
100
AcDbArc
 50
270.0
 51
0.0
  0
ARC
  5
153
330
1F
100
AcDbEntity
  8
0
  6
Continuous
 62
     7
100
AcDbCircle
 10
1204.9118018195
 20
149.710901597
 30
0.0
 40
6.121320343559631
100
AcDbArc
 50
0.0
 51
90.0
  0
LINE
  5
154
330
1F
100
AcDbEntity
  8
0
  6
Continuous
 62
     7
100
AcDbLine
 10
721.9118018195
 20
143.5895812534
 30
0.0
 11
721.9118018195
 21
141.4682609098
 31
0.0
  0
ARC
  5
155
330
1F
100
AcDbEntity
  8
0
  6
Continuous
 62
     7
100
AcDbCircle
 10
721.9118018195
 20
149.710901597
 30
0.0
 40
6.121320343560114
100
AcDbArc
 50
270.0
 51
0.0
  0
ARC
  5
156
330
1F
100
AcDbEntity
  8
0
  6
Continuous
 62
     7
100
AcDbCircle
 10
721.9118018195
 20
149.710901597
 30
0.0
 40
6.121320343560114
100
AcDbArc
 50
0.0
 51
90.0
  0
LINE
  5
157
330
1F
100
AcDbEntity
  8
0
  6
Continuous
 62
     7
100
AcDbLine
 10
721.9118018195
 20
155.8322219405
 30
0.0
 11
721.9118018195
 21
157.9535422841
 31
0.0
  0
ARC
  5
158
330
1F
100
AcDbEntity
  8
0
  6
Continuous
 62
     7
100
AcDbCircle
 10
721.9118018195
 20
149.710901597
 30
0.0
 40
6.121320343560001
100
AcDbArc
 50
180.0
 51
270.0
  0
ARC
  5
159
330
1F
100
AcDbEntity
  8
0
  6
Continuous
 62
     7
100
AcDbCircle
 10
721.9118018195
 20
149.710901597
 30
0.0
 40
6.121320343560001
100
AcDbArc
 50
90.0
 51
180.0
  0
ARC
  5
15A
330
1F
100
AcDbEntity
  8
0
  6
Continuous
 62
     7
100
AcDbCircle
 10
717.7407514618
 20
154.570545255
 30
0.0
 40
4.154201555955981
100
AcDbArc
 50
310.6396160529
 51
326.6028955147
  0
ARC
  5
15B
330
1F
100
AcDbEntity
  8
0
  6
Continuous
 62
     7
100
AcDbCircle
 10
717.7407514618
 20
154.570545255
 30
0.0
 40
4.154201555955889
100
AcDbArc
 50
294.6763365912
 51
310.6396160529
  0
ARC
  5
15C
330
1F
100
AcDbEntity
  8
0
  6
Continuous
 62
     7
100
AcDbCircle
 10
719.6003441774
 20
150.5230983519
 30
0.0
 40
0.3000000000005725
100
AcDbArc
 50
114.6763365912
 51
206.6028955147
  0
ARC
  5
15D
330
1F
100
AcDbEntity
  8
0
  6
Continuous
 62
     7
100
AcDbCircle
 10
715.6177017795
 20
148.5284878557
 30
0.0
 40
4.154201555956222
100
AcDbArc
 50
354.6763365912
 51
26.6028955147
  0
ARC
  5
15E
330
1F
100
AcDbEntity
  8
0
  6
Continuous
 62
     7
100
AcDbCircle
 10
720.0526899758
 20
148.1152189366
 30
0.0
 40
0.3000000000006462
100
AcDbArc
 50
174.6763365912
 51
266.6028955147
  0
ARC
  5
15F
330
1F
100
AcDbEntity
  8
0
  6
Continuous
 62
     7
100
AcDbCircle
 10
719.7887521372
 20
143.6688441977
 30
0.0
 40
4.154201555956149
100
AcDbArc
 50
54.6763365912
 51
86.6028955147
  0
ARC
  5
160
330
1F
100
AcDbEntity
  8
0
  6
Continuous
 62
     7
100
AcDbCircle
 10
722.364147618
 20
147.3030221817
 30
0.0
 40
0.3000000000009447
100
AcDbArc
 50
310.639616053
 51
326.6028955147
  0
ARC
  5
161
330
1F
100
AcDbEntity
  8
0
  6
Continuous
 62
     7
100
AcDbCircle
 10
724.2232594617
 20
148.898704842
 30
0.0
 40
0.3000000000011791
100
AcDbArc
 50
294.6763365912
 51
310.639616053
  0
ARC
  5
162
330
1F
100
AcDbEntity
  8
0
  6
Continuous
 62
     7
100
AcDbCircle
 10
724.2232594617
 20
148.898704842
 30
0.0
 40
0.3000000000013465
100
AcDbArc
 50
310.639616053
 51
26.6028955146
  0
ARC
  5
163
330
1F
100
AcDbEntity
  8
0
  6
Continuous
 62
     7
100
AcDbCircle
 10
728.2059018596
 20
150.8933153382
 30
0.0
 40
4.154201555955663
100
AcDbArc
 50
174.6763365912
 51
206.6028955147
  0
ARC
  5
164
330
1F
100
AcDbEntity
  8
0
  6
Continuous
 62
     7
100
AcDbCircle
 10
723.7709136632
 20
151.3065842573
 30
0.0
 40
0.3000000000006252
100
AcDbArc
 50
354.6763365912
 51
86.6028955146
  0
ARC
  5
165
330
1F
100
AcDbEntity
  8
0
  6
Continuous
 62
     7
100
AcDbCircle
 10
721.4594560211
 20
152.1187810123
 30
0.0
 40
0.3000000000007064
100
AcDbArc
 50
54.6763365912
 51
146.6028955147
  0
ARC
  5
166
330
1F
100
AcDbEntity
  8
0
  6
Continuous
 62
     7
100
AcDbCircle
 10
721.9118018195
 20
149.710901597
 30
0.0
 40
5.40000000000054
100
AcDbArc
 50
310.6396160529
 51
130.6396160529
  0
ARC
  5
167
330
1F
100
AcDbEntity
  8
0
  6
Continuous
 62
     7
100
AcDbCircle
 10
726.0828521772
 20
144.851257939
 30
0.0
 40
4.154201555956569
100
AcDbArc
 50
114.6763365912
 51
146.6028955147
  0
ARC
  5
168
330
1F
100
AcDbEntity
  8
0
  6
Continuous
 62
     7
100
AcDbCircle
 10
724.0348515019
 20
155.7529589962
 30
0.0
 40
4.154201555956123
100
AcDbArc
 50
234.6763365912
 51
266.6028955147
  0
ARC
  5
169
330
1F
100
AcDbEntity
  8
0
  6
Continuous
 62
     7
100
AcDbCircle
 10
722.364147618
 20
147.3030221817
 30
0.0
 40
0.3000000000009447
100
AcDbArc
 50
234.6763365912
 51
310.639616053
  0
ARC
  5
16A
330
1F
100
AcDbEntity
  8
0
  6
Continuous
 62
     7
100
AcDbCircle
 10
721.9118018195
 20
149.710901597
 30
0.0
 40
5.40000000000054
100
AcDbArc
 50
130.6396160529
 51
310.6396160529
  0
ARC
  5
16B
330
1F
100
AcDbEntity
  8
0
  6
Continuous
 62
     7
100
AcDbCircle
 10
1200.7407514618
 20
144.851257939
 30
0.0
 40
4.154201555956212
100
AcDbArc
 50
49.3603839471
 51
65.3236634088
  0
ARC
  5
16C
330
1F
100
AcDbEntity
  8
0
  6
Continuous
 62
     7
100
AcDbCircle
 10
1200.7407514618
 20
144.851257939
 30
0.0
 40
4.154201555956157
100
AcDbArc
 50
33.3971044853
 51
49.3603839471
  0
ARC
  5
16D
330
1F
100
AcDbEntity
  8
0
  6
Continuous
 62
     7
100
AcDbCircle
 10
1204.4594560211
 20
147.3030221817
 30
0.0
 40
0.3000000000006518
100
AcDbArc
 50
213.3971044853
 51
305.3236634089
  0
ARC
  5
16E
330
1F
100
AcDbEntity
  8
0
  6
Continuous
 62
     7
100
AcDbCircle
 10
1205.364147618
 20
152.1187810123
 30
0.0
 40
0.3000000000007857
100
AcDbArc
 50
33.3971044853
 51
49.3603839471
  0
ARC
  5
16F
330
1F
100
AcDbEntity
  8
0
  6
Continuous
 62
     7
100
AcDbCircle
 10
1205.364147618
 20
152.1187810123
 30
0.0
 40
0.3000000000005899
100
AcDbArc
 50
49.3603839471
 51
125.3236634088
  0
ARC
  5
170
330
1F
100
AcDbEntity
  8
0
  6
Continuous
 62
     7
100
AcDbCircle
 10
1202.7887521372
 20
155.7529589962
 30
0.0
 40
4.154201555956067
100
AcDbArc
 50
273.3971044853
 51
305.3236634088
  0
ARC
  5
171
330
1F
100
AcDbEntity
  8
0
  6
Continuous
 62
     7
100
AcDbCircle
 10
1203.0526899758
 20
151.3065842573
 30
0.0
 40
0.3000000000001424
100
AcDbArc
 50
93.3971044854
 51
185.3236634088
  0
ARC
  5
172
330
1F
100
AcDbEntity
  8
0
  6
Continuous
 62
     7
100
AcDbCircle
 10
1198.6177017795
 20
150.8933153382
 30
0.0
 40
4.154201555956335
100
AcDbArc
 50
333.3971044853
 51
5.3236634088
  0
ARC
  5
173
330
1F
100
AcDbEntity
  8
0
  6
Continuous
 62
     7
100
AcDbCircle
 10
1202.6003441774
 20
148.898704842
 30
0.0
 40
0.3000000000006984
100
AcDbArc
 50
153.3971044854
 51
245.3236634088
  0
ARC
  5
174
330
1F
100
AcDbEntity
  8
0
  6
Continuous
 62
     7
100
AcDbCircle
 10
1207.0348515019
 20
143.6688441977
 30
0.0
 40
4.154201555956115
100
AcDbArc
 50
93.3971044853
 51
125.3236634088
  0
ARC
  5
175
330
1F
100
AcDbEntity
  8
0
  6
Continuous
 62
     7
100
AcDbCircle
 10
1211.2059018596
 20
148.5284878557
 30
0.0
 40
4.154201555956184
100
AcDbArc
 50
153.3971044853
 51
185.3236634088
  0
ARC
  5
176
330
1F
100
AcDbEntity
  8
0
  6
Continuous
 62
     7
100
AcDbCircle
 10
1204.9118018195
 20
149.710901597
 30
0.0
 40
5.400000000000063
100
AcDbArc
 50
49.3603839471
 51
229.3603839471
  0
ARC
  5
177
330
1F
100
AcDbEntity
  8
0
  6
Continuous
 62
     7
100
AcDbCircle
 10
1204.9118018195
 20
149.710901597
 30
0.0
 40
5.400000000000063
100
AcDbArc
 50
229.3603839471
 51
49.3603839471
  0
ARC
  5
178
330
1F
100
AcDbEntity
  8
0
  6
Continuous
 62
     7
100
AcDbCircle
 10
1207.2232594617
 20
150.5230983519
 30
0.0
 40
0.3000000000007348
100
AcDbArc
 50
49.3603839471
 51
65.3236634088
  0
ARC
  5
179
330
1F
100
AcDbEntity
  8
0
  6
Continuous
 62
     7
100
AcDbCircle
 10
1209.0828521772
 20
154.570545255
 30
0.0
 40
4.154201555956212
100
AcDbArc
 50
213.3971044853
 51
245.3236634088
  0
ARC
  5
17A
330
1F
100
AcDbEntity
  8
0
  6
Continuous
 62
     7
100
AcDbCircle
 10
1206.7709136632
 20
148.1152189366
 30
0.0
 40
0.3000000000005436
100
AcDbArc
 50
273.3971044854
 51
5.3236634089
  0
ARC
  5
17B
330
1F
100
AcDbEntity
  8
0
  6
Continuous
 62
     7
100
AcDbCircle
 10
1207.2232594617
 20
150.5230983519
 30
0.0
 40
0.3000000000007348
100
AcDbArc
 50
333.3971044854
 51
49.3603839471
  0
LINE
  5
17C
330
1F
100
AcDbEntity
  8
0
  6
Continuous
 62
     7
100
AcDbLine
 10
1210.3118018195
 20
149.710901597
 30
0.0
 11
1211.0331221631
 21
149.710901597
 31
0.0
  0
LINE
  5
17D
330
1F
100
AcDbEntity
  8
0
  6
Continuous
 62
     7
100
AcDbLine
 10
1199.5118018195
 20
149.710901597
 30
0.0
 11
1198.790481476
 21
149.710901597
 31
0.0
  0
LINE
  5
17E
330
1F
100
AcDbEntity
  8
0
  6
Continuous
 62
     7
100
AcDbLine
 10
727.3118018195
 20
149.710901597
 30
0.0
 11
728.0331221631
 21
149.710901597
 31
0.0
  0
LINE
  5
17F
330
1F
100
AcDbEntity
  8
0
  6
Continuous
 62
     7
100
AcDbLine
 10
716.5118018195
 20
149.710901597
 30
0.0
 11
715.790481476
 21
149.710901597
 31
0.0
  0
LINE
  5
180
330
1F
100
AcDbEntity
  8
0
  6
Continuous
 62
     7
100
AcDbLine
 10
622.6329551692
 20
170.710901597
 30
0.0
 11
617.1329551692
 21
170.710901597
 31
0.0
  0
LINE
  5
181
330
1F
100
AcDbEntity
  8
0
  6
Continuous
 62
     7
100
AcDbLine
 10
623.1329551692
 20
170.210901597
 30
0.0
 11
622.6329551692
 21
170.710901597
 31
0.0
  0
LINE
  5
182
330
1F
100
AcDbEntity
  8
0
  6
Continuous
 62
     7
100
AcDbLine
 10
617.1329551692
 20
164.710901597
 30
0.0
 11
622.6329551692
 21
164.710901597
 31
0.0
  0
LINE
  5
183
330
1F
100
AcDbEntity
  8
0
  6
Continuous
 62
     7
100
AcDbLine
 10
622.6329551692
 20
164.710901597
 30
0.0
 11
623.1329551692
 21
165.210901597
 31
0.0
  0
LINE
  5
184
330
1F
100
AcDbEntity
  8
0
  6
Continuous
 62
     7
100
AcDbLine
 10
617.1329551692
 20
101.710901597
 30
0.0
 11
617.1329551692
 21
197.710901597
 31
0.0
  0
LINE
  5
185
330
1F
100
AcDbEntity
  8
0
  6
Continuous
 62
     7
100
AcDbLine
 10
604.6329551692
 20
101.710901597
 30
0.0
 11
617.1329551692
 21
101.710901597
 31
0.0
  0
LINE
  5
186
330
1F
100
AcDbEntity
  8
0
  6
Continuous
 62
     7
100
AcDbLine
 10
604.6329551692
 20
197.710901597
 30
0.0
 11
604.6329551692
 21
101.710901597
 31
0.0
  0
LINE
  5
187
330
1F
100
AcDbEntity
  8
0
  6
Continuous
 62
     7
100
AcDbLine
 10
604.6329551692
 20
197.710901597
 30
0.0
 11
617.1329551692
 21
197.710901597
 31
0.0
  0
ARC
  5
188
330
1F
100
AcDbEntity
  8
0
  6
Continuous
 62
     7
100
AcDbCircle
 10
635.2329551692
 20
149.710901597
 30
0.0
 40
3.000000000000089
100
AcDbArc
 50
8.8147129304
 51
188.8147129304
  0
LINE
  5
189
330
1F
100
AcDbEntity
  8
0
  6
Continuous
 62
     7
100
AcDbLine
 10
637.7034278286
 20
150.0940005907
 30
0.0
 11
638.1975223605
 21
150.1706203894
 31
0.0
  0
ARC
  5
18A
330
1F
100
AcDbEntity
  8
0
  6
Continuous
 62
     7
100
AcDbCircle
 10
635.2329551692
 20
149.710901597
 30
0.0
 40
2.500000000000012
100
AcDbArc
 50
8.8147129304
 51
188.8147129304
  0
LINE
  5
18B
330
1F
100
AcDbEntity
  8
0
  6
Continuous
 62
     7
100
AcDbLine
 10
632.7624825098
 20
149.3278026032
 30
0.0
 11
632.2683879779
 21
149.2511828045
 31
0.0
  0
ARC
  5
18C
330
1F
100
AcDbEntity
  8
0
  6
Continuous
 62
     7
100
AcDbCircle
 10
635.2329551692
 20
149.710901597
 30
0.0
 40
3.000000000000089
100
AcDbArc
 50
188.8147129304
 51
8.8147129304
  0
ARC
  5
18D
330
1F
100
AcDbEntity
  8
0
  6
Continuous
 62
     7
100
AcDbCircle
 10
635.2329551692
 20
149.710901597
 30
0.0
 40
2.500000000000012
100
AcDbArc
 50
188.8147129304
 51
8.8147129304
  0
LINE
  5
18E
330
1F
100
AcDbEntity
  8
0
  6
Continuous
 62
     7
100
AcDbLine
 10
641.1329551692
 20
134.3407066693
 30
0.0
 11
641.1329551692
 21
135.0247469559
 31
0.0
  0
ARC
  5
18F
330
1F
100
AcDbEntity
  8
0
  6
Continuous
 62
     7
100
AcDbCircle
 10
641.1914440584
 20
136.9663747733
 30
0.0
 40
1.942508566655133
100
AcDbArc
 50
268.2745645851
 51
358.1637932023
  0
LINE
  5
190
330
1F
100
AcDbEntity
  8
0
  6
Continuous
 62
     7
100
AcDbLine
 10
643.1329551692
 20
136.9041321975
 30
0.0
 11
643.1329551692
 21
136.2200919108
 31
0.0
  0
ARC
  5
191
330
1F
100
AcDbEntity
  8
0
  6
Continuous
 62
     7
100
AcDbCircle
 10
641.1914440584
 20
136.2823344867
 30
0.0
 40
1.942508566655245
100
AcDbArc
 50
268.2745645851
 51
358.1637932023
  0
LINE
  5
192
330
1F
100
AcDbEntity
  8
0
  6
Continuous
 62
     7
100
AcDbLine
 10
627.1329551692
 20
142.0452084344
 30
0.0
 11
627.1329551692
 21
142.210901597
 31
0.0
  0
LINE
  5
193
330
1F
100
AcDbEntity
  8
0
  6
Continuous
 62
     7
100
AcDbLine
 10
627.1329551692
 20
142.210901597
 30
0.0
 11
643.1329551692
 21
142.210901597
 31
0.0
  0
LINE
  5
194
330
1F
100
AcDbEntity
  8
0
  6
Continuous
 62
     7
100
AcDbLine
 10
643.1329551692
 20
142.0452084344
 30
0.0
 11
643.1329551692
 21
142.210901597
 31
0.0
  0
LINE
  5
195
330
1F
100
AcDbEntity
  8
0
  6
Continuous
 62
     7
100
AcDbLine
 10
643.1329551692
 20
142.0452084344
 30
0.0
 11
643.1329551692
 21
136.9041321975
 31
0.0
  0
LINE
  5
196
330
1F
100
AcDbEntity
  8
0
  6
Continuous
 62
     7
100
AcDbLine
 10
641.1329551692
 20
135.0247469559
 30
0.0
 11
629.1329551692
 21
135.0247469559
 31
0.0
  0
ARC
  5
197
330
1F
100
AcDbEntity
  8
0
  6
Continuous
 62
     7
100
AcDbCircle
 10
629.07446628
 20
136.9663747733
 30
0.0
 40
1.942508566655361
100
AcDbArc
 50
181.8362067977
 51
271.7254354149
  0
LINE
  5
198
330
1F
100
AcDbEntity
  8
0
  6
Continuous
 62
     7
100
AcDbLine
 10
627.1329551692
 20
136.9041321975
 30
0.0
 11
627.1329551692
 21
142.0452084344
 31
0.0
  0
LINE
  5
199
330
1F
100
AcDbEntity
  8
0
  6
Continuous
 62
     7
100
AcDbLine
 10
641.1329551692
 20
134.3407066693
 30
0.0
 11
629.1329551692
 21
134.3407066693
 31
0.0
  0
LINE
  5
19A
330
1F
100
AcDbEntity
  8
0
  6
Continuous
 62
     7
100
AcDbLine
 10
629.1329551692
 20
135.0247469559
 30
0.0
 11
629.1329551692
 21
134.3407066693
 31
0.0
  0
LINE
  5
19B
330
1F
100
AcDbEntity
  8
0
  6
Continuous
 62
     7
100
AcDbLine
 10
627.1329551692
 20
136.2200919108
 30
0.0
 11
627.1329551692
 21
136.9041321975
 31
0.0
  0
ARC
  5
19C
330
1F
100
AcDbEntity
  8
0
  6
Continuous
 62
     7
100
AcDbCircle
 10
629.07446628
 20
136.2823344867
 30
0.0
 40
1.942508566655382
100
AcDbArc
 50
181.8362067977
 51
271.7254354149
  0
ARC
  5
19D
330
1F
100
AcDbEntity
  8
0
  6
Continuous
 62
     7
100
AcDbCircle
 10
635.2329551692
 20
149.710901597
 30
0.0
 40
3.500000000000114
100
AcDbArc
 50
0.0
 51
180.0
  0
ARC
  5
19E
330
1F
100
AcDbEntity
  8
0
  6
Continuous
 62
     7
100
AcDbCircle
 10
635.2329551692
 20
149.710901597
 30
0.0
 40
3.500000000000114
100
AcDbArc
 50
180.0
 51
0.0
  0
LINE
  5
19F
330
1F
100
AcDbEntity
  8
0
  6
Continuous
 62
     7
100
AcDbLine
 10
641.1329551692
 20
157.210901597
 30
0.0
 11
617.1329551692
 21
157.210901597
 31
0.0
  0
ARC
  5
1A0
330
1F
100
AcDbEntity
  8
0
  6
Continuous
 62
     7
100
AcDbCircle
 10
641.1329551692
 20
155.210901597
 30
0.0
 40
2.0
100
AcDbArc
 50
0.0
 51
90.0
  0
LINE
  5
1A1
330
1F
100
AcDbEntity
  8
0
  6
Continuous
 62
     7
100
AcDbLine
 10
643.1329551692
 20
142.3872285777
 30
0.0
 11
643.1329551692
 21
155.210901597
 31
0.0
  0
LINE
  5
1A2
330
1F
100
AcDbEntity
  8
0
  6
Continuous
 62
     7
100
AcDbLine
 10
617.1329551692
 20
142.210901597
 30
0.0
 11
627.1329551692
 21
142.210901597
 31
0.0
  0
LINE
  5
1A3
330
1F
100
AcDbEntity
  8
0
  6
Continuous
 62
     7
100
AcDbLine
 10
643.1329551692
 20
142.3872285777
 30
0.0
 11
643.1329551692
 21
142.210901597
 31
0.0
  0
LINE
  5
1A4
330
1F
100
AcDbEntity
  8
0
  6
Continuous
 62
     7
100
AcDbLine
 10
604.0953207606
 20
143.310901597
 30
0.0
 11
604.0953207606
 21
154.635115961
 31
0.0
  0
ARC
  5
1A5
330
1F
100
AcDbEntity
  8
0
  6
Continuous
 62
     7
100
AcDbCircle
 10
602.6329551692
 20
155.9994791374
 30
0.0
 40
2.0
100
AcDbArc
 50
316.9856438472
 51
360.0
  0
LINE
  5
1A6
330
1F
100
AcDbEntity
  8
0
  6
Continuous
 62
     7
100
AcDbLine
 10
604.6329551692
 20
143.310901597
 30
0.0
 11
604.0953207606
 21
143.310901597
 31
0.0
  0
LINE
  5
1A7
330
1F
100
AcDbEntity
  8
0
  6
Continuous
 62
     7
100
AcDbLine
 10
604.0953207606
 20
163.310901597
 30
0.0
 11
604.0953207606
 21
174.635115961
 31
0.0
  0
ARC
  5
1A8
330
1F
100
AcDbEntity
  8
0
  6
Continuous
 62
     7
100
AcDbCircle
 10
602.6329551692
 20
175.9994791374
 30
0.0
 40
2.000000000000031
100
AcDbArc
 50
316.9856438472
 51
0.0
  0
LINE
  5
1A9
330
1F
100
AcDbEntity
  8
0
  6
Continuous
 62
     7
100
AcDbLine
 10
604.6329551692
 20
163.310901597
 30
0.0
 11
604.0953207606
 21
163.310901597
 31
0.0
  0
LINE
  5
1AA
330
1F
100
AcDbEntity
  8
0
  6
Continuous
 62
     7
100
AcDbLine
 10
604.0953207606
 20
123.310901597
 30
0.0
 11
604.0953207606
 21
134.635115961
 31
0.0
  0
ARC
  5
1AB
330
1F
100
AcDbEntity
  8
0
  6
Continuous
 62
     7
100
AcDbCircle
 10
602.6329551692
 20
135.9994791374
 30
0.0
 40
2.0
100
AcDbArc
 50
316.9856438472
 51
0.0
  0
LINE
  5
1AC
330
1F
100
AcDbEntity
  8
0
  6
Continuous
 62
     7
100
AcDbLine
 10
604.6329551692
 20
123.310901597
 30
0.0
 11
604.0953207606
 21
123.310901597
 31
0.0
  0
ARC
  5
1AD
330
1F
100
AcDbEntity
  8
0
  6
Continuous
 62
     7
100
AcDbCircle
 10
616.2329551692
 20
123.310901597
 30
0.0
 40
16.60000000000002
100
AcDbArc
 50
136.9856438472
 51
180.0
  0
LINE
  5
1AE
330
1F
100
AcDbEntity
  8
0
  6
Continuous
 62
     7
100
AcDbLine
 10
604.0953207606
 20
123.310901597
 30
0.0
 11
599.6329551692
 21
123.310901597
 31
0.0
  0
ARC
  5
1AF
330
1F
100
AcDbEntity
  8
0
  6
Continuous
 62
     7
100
AcDbCircle
 10
616.2329551692
 20
143.310901597
 30
0.0
 40
16.60000000000002
100
AcDbArc
 50
136.9856438472
 51
180.0
  0
LINE
  5
1B0
330
1F
100
AcDbEntity
  8
0
  6
Continuous
 62
     7
100
AcDbLine
 10
604.0953207606
 20
143.310901597
 30
0.0
 11
599.6329551692
 21
143.310901597
 31
0.0
  0
ARC
  5
1B1
330
1F
100
AcDbEntity
  8
0
  6
Continuous
 62
     7
100
AcDbCircle
 10
616.2329551692
 20
163.310901597
 30
0.0
 40
16.59999999999991
100
AcDbArc
 50
136.9856438472
 51
180.0
  0
LINE
  5
1B2
330
1F
100
AcDbEntity
  8
0
  6
Continuous
 62
     7
100
AcDbLine
 10
604.0953207606
 20
163.310901597
 30
0.0
 11
599.6329551692
 21
163.310901597
 31
0.0
  0
LINE
  5
1B3
330
1F
100
AcDbEntity
  8
0
  6
Continuous
 62
     7
100
AcDbLine
 10
622.6329551692
 20
164.7521623578
 30
0.0
 11
622.6329551692
 21
170.710901597
 31
0.0
  0
LINE
  5
1B4
330
1F
100
AcDbEntity
  8
0
  6
Continuous
 62
     7
100
AcDbLine
 10
623.1329551692
 20
170.210901597
 30
0.0
 11
623.1329551692
 21
165.2452855644
 31
0.0
  0
LINE
  5
1B5
330
1F
100
AcDbEntity
  8
0
  6
Continuous
 62
     7
100
AcDbLine
 10
623.1329551692
 20
165.2452855644
 30
0.0
 11
622.6329551692
 21
164.7521623578
 31
0.0
  0
LINE
  5
1B6
330
1F
100
AcDbEntity
  8
0
  6
Continuous
 62
     7
100
AcDbLine
 10
622.6329551692
 20
164.710901597
 30
0.0
 11
622.6329551692
 21
164.7521623578
 31
0.0
  0
LINE
  5
1B7
330
1F
100
AcDbEntity
  8
0
  6
Continuous
 62
     7
100
AcDbLine
 10
623.1329551692
 20
165.2452855644
 30
0.0
 11
623.1329551692
 21
165.210901597
 31
0.0
  0
LINE
  5
1B8
330
1F
100
AcDbEntity
  8
0
  6
Continuous
 62
     7
100
AcDbLine
 10
622.6329551692
 20
164.7521623578
 30
0.0
 11
617.1329551692
 21
164.7521623578
 31
0.0
  0
LINE
  5
1B9
330
1F
100
AcDbEntity
  8
0
  6
Continuous
 62
     7
100
AcDbLine
 10
1306.4037634909
 20
164.710901597
 30
0.0
 11
1311.9037634909
 21
164.710901597
 31
0.0
  0
LINE
  5
1BA
330
1F
100
AcDbEntity
  8
0
  6
Continuous
 62
     7
100
AcDbLine
 10
1305.9037634909
 20
165.210901597
 30
0.0
 11
1306.4037634909
 21
164.710901597
 31
0.0
  0
LINE
  5
1BB
330
1F
100
AcDbEntity
  8
0
  6
Continuous
 62
     7
100
AcDbLine
 10
1311.9037634909
 20
170.710901597
 30
0.0
 11
1306.4037634909
 21
170.710901597
 31
0.0
  0
LINE
  5
1BC
330
1F
100
AcDbEntity
  8
0
  6
Continuous
 62
     7
100
AcDbLine
 10
1306.4037634909
 20
170.710901597
 30
0.0
 11
1305.9037634909
 21
170.210901597
 31
0.0
  0
LINE
  5
1BD
330
1F
100
AcDbEntity
  8
0
  6
Continuous
 62
     7
100
AcDbLine
 10
1324.4037634909
 20
101.710901597
 30
0.0
 11
1311.9037634909
 21
101.710901597
 31
0.0
  0
LINE
  5
1BE
330
1F
100
AcDbEntity
  8
0
  6
Continuous
 62
     7
100
AcDbLine
 10
1311.9037634909
 20
197.710901597
 30
0.0
 11
1311.9037634909
 21
101.710901597
 31
0.0
  0
LINE
  5
1BF
330
1F
100
AcDbEntity
  8
0
  6
Continuous
 62
     7
100
AcDbLine
 10
1324.4037634909
 20
197.710901597
 30
0.0
 11
1311.9037634909
 21
197.710901597
 31
0.0
  0
LINE
  5
1C0
330
1F
100
AcDbEntity
  8
0
  6
Continuous
 62
     7
100
AcDbLine
 10
1324.4037634909
 20
101.710901597
 30
0.0
 11
1324.4037634909
 21
197.710901597
 31
0.0
  0
ARC
  5
1C1
330
1F
100
AcDbEntity
  8
0
  6
Continuous
 62
     7
100
AcDbCircle
 10
1293.8037634909
 20
149.710901597
 30
0.0
 40
3.000000000000183
100
AcDbArc
 50
357.1910593367
 51
177.1910593368
  0
LINE
  5
1C2
330
1F
100
AcDbEntity
  8
0
  6
Continuous
 62
     7
100
AcDbLine
 10
1296.300759747
 20
149.5883875297
 30
0.0
 11
1296.8001589983
 21
149.5638847162
 31
0.0
  0
ARC
  5
1C3
330
1F
100
AcDbEntity
  8
0
  6
Continuous
 62
     7
100
AcDbCircle
 10
1293.8037634909
 20
149.710901597
 30
0.0
 40
2.500000000000114
100
AcDbArc
 50
357.1910593368
 51
177.1910593368
  0
LINE
  5
1C4
330
1F
100
AcDbEntity
  8
0
  6
Continuous
 62
     7
100
AcDbLine
 10
1291.3067672347
 20
149.8334156643
 30
0.0
 11
1290.8073679835
 21
149.8579184777
 31
0.0
  0
ARC
  5
1C5
330
1F
100
AcDbEntity
  8
0
  6
Continuous
 62
     7
100
AcDbCircle
 10
1293.8037634909
 20
149.710901597
 30
0.0
 40
2.500000000000114
100
AcDbArc
 50
177.1910593368
 51
357.1910593368
  0
ARC
  5
1C6
330
1F
100
AcDbEntity
  8
0
  6
Continuous
 62
     7
100
AcDbCircle
 10
1293.8037634909
 20
149.710901597
 30
0.0
 40
3.000000000000183
100
AcDbArc
 50
177.1910593368
 51
357.1910593367
  0
LINE
  5
1C7
330
1F
100
AcDbEntity
  8
0
  6
Continuous
 62
     7
100
AcDbLine
 10
1285.9037634909
 20
136.2200919108
 30
0.0
 11
1285.9037634909
 21
136.9041321975
 31
0.0
  0
ARC
  5
1C8
330
1F
100
AcDbEntity
  8
0
  6
Continuous
 62
     7
100
AcDbCircle
 10
1287.8452746016
 20
136.9663747733
 30
0.0
 40
1.942508566655589
100
AcDbArc
 50
181.8362067977
 51
271.7254354149
  0
LINE
  5
1C9
330
1F
100
AcDbEntity
  8
0
  6
Continuous
 62
     7
100
AcDbLine
 10
1287.9037634909
 20
135.0247469559
 30
0.0
 11
1287.9037634909
 21
134.3407066693
 31
0.0
  0
ARC
  5
1CA
330
1F
100
AcDbEntity
  8
0
  6
Continuous
 62
     7
100
AcDbCircle
 10
1287.8452746016
 20
136.2823344867
 30
0.0
 40
1.942508566655359
100
AcDbArc
 50
181.8362067977
 51
271.7254354149
  0
LINE
  5
1CB
330
1F
100
AcDbEntity
  8
0
  6
Continuous
 62
     7
100
AcDbLine
 10
1299.9037634909
 20
134.3407066693
 30
0.0
 11
1299.9037634909
 21
135.0247469559
 31
0.0
  0
ARC
  5
1CC
330
1F
100
AcDbEntity
  8
0
  6
Continuous
 62
     7
100
AcDbCircle
 10
1299.9622523801
 20
136.9663747733
 30
0.0
 40
1.942508566655659
100
AcDbArc
 50
268.2745645851
 51
358.1637932023
  0
LINE
  5
1CD
330
1F
100
AcDbEntity
  8
0
  6
Continuous
 62
     7
100
AcDbLine
 10
1301.9037634909
 20
136.9041321975
 30
0.0
 11
1301.9037634909
 21
136.2200919108
 31
0.0
  0
ARC
  5
1CE
330
1F
100
AcDbEntity
  8
0
  6
Continuous
 62
     7
100
AcDbCircle
 10
1299.9622523801
 20
136.2823344867
 30
0.0
 40
1.942508566655593
100
AcDbArc
 50
268.2745645851
 51
358.1637932023
  0
LINE
  5
1CF
330
1F
100
AcDbEntity
  8
0
  6
Continuous
 62
     7
100
AcDbLine
 10
1285.9037634909
 20
136.9041321975
 30
0.0
 11
1285.9037634909
 21
142.0452084344
 31
0.0
  0
LINE
  5
1D0
330
1F
100
AcDbEntity
  8
0
  6
Continuous
 62
     7
100
AcDbLine
 10
1285.9037634909
 20
142.0452084344
 30
0.0
 11
1285.9037634909
 21
142.210901597
 31
0.0
  0
LINE
  5
1D1
330
1F
100
AcDbEntity
  8
0
  6
Continuous
 62
     7
100
AcDbLine
 10
1285.9037634909
 20
142.210901597
 30
0.0
 11
1301.9037634909
 21
142.210901597
 31
0.0
  0
LINE
  5
1D2
330
1F
100
AcDbEntity
  8
0
  6
Continuous
 62
     7
100
AcDbLine
 10
1301.9037634909
 20
142.0452084344
 30
0.0
 11
1301.9037634909
 21
142.210901597
 31
0.0
  0
LINE
  5
1D3
330
1F
100
AcDbEntity
  8
0
  6
Continuous
 62
     7
100
AcDbLine
 10
1301.9037634909
 20
142.0452084344
 30
0.0
 11
1301.9037634909
 21
136.9041321975
 31
0.0
  0
LINE
  5
1D4
330
1F
100
AcDbEntity
  8
0
  6
Continuous
 62
     7
100
AcDbLine
 10
1299.9037634909
 20
135.0247469559
 30
0.0
 11
1287.9037634909
 21
135.0247469559
 31
0.0
  0
LINE
  5
1D5
330
1F
100
AcDbEntity
  8
0
  6
Continuous
 62
     7
100
AcDbLine
 10
1299.9037634909
 20
134.3407066693
 30
0.0
 11
1287.9037634909
 21
134.3407066693
 31
0.0
  0
LINE
  5
1D6
330
1F
100
AcDbEntity
  8
0
  6
Continuous
 62
     7
100
AcDbLine
 10
1301.9037634909
 20
142.210901597
 30
0.0
 11
1311.9037634909
 21
142.210901597
 31
0.0
  0
ARC
  5
1D7
330
1F
100
AcDbEntity
  8
0
  6
Continuous
 62
     7
100
AcDbCircle
 10
1287.9037634909
 20
155.210901597
 30
0.0
 40
2.0
100
AcDbArc
 50
90.0
 51
180.0
  0
LINE
  5
1D8
330
1F
100
AcDbEntity
  8
0
  6
Continuous
 62
     7
100
AcDbLine
 10
1285.9037634909
 20
155.210901597
 30
0.0
 11
1285.9037634909
 21
142.3872285777
 31
0.0
  0
LINE
  5
1D9
330
1F
100
AcDbEntity
  8
0
  6
Continuous
 62
     7
100
AcDbLine
 10
1311.9037634909
 20
157.210901597
 30
0.0
 11
1287.9037634909
 21
157.210901597
 31
0.0
  0
ARC
  5
1DA
330
1F
100
AcDbEntity
  8
0
  6
Continuous
 62
     7
100
AcDbCircle
 10
1293.8037634909
 20
149.710901597
 30
0.0
 40
3.500000000000227
100
AcDbArc
 50
180.0
 51
0.0
  0
ARC
  5
1DB
330
1F
100
AcDbEntity
  8
0
  6
Continuous
 62
     7
100
AcDbCircle
 10
1293.8037634909
 20
149.710901597
 30
0.0
 40
3.500000000000227
100
AcDbArc
 50
0.0
 51
180.0
  0
LINE
  5
1DC
330
1F
100
AcDbEntity
  8
0
  6
Continuous
 62
     7
100
AcDbLine
 10
1285.9037634909
 20
142.3872285777
 30
0.0
 11
1285.9037634909
 21
142.210901597
 31
0.0
  0
LINE
  5
1DD
330
1F
100
AcDbEntity
  8
0
  6
Continuous
 62
     7
100
AcDbLine
 10
1306.4037634909
 20
170.6696408361
 30
0.0
 11
1306.4037634909
 21
164.710901597
 31
0.0
  0
LINE
  5
1DE
330
1F
100
AcDbEntity
  8
0
  6
Continuous
 62
     7
100
AcDbLine
 10
1305.9037634909
 20
170.1765176296
 30
0.0
 11
1306.4037634909
 21
170.6696408361
 31
0.0
  0
LINE
  5
1DF
330
1F
100
AcDbEntity
  8
0
  6
Continuous
 62
     7
100
AcDbLine
 10
1305.9037634909
 20
165.210901597
 30
0.0
 11
1305.9037634909
 21
170.1765176296
 31
0.0
  0
LINE
  5
1E0
330
1F
100
AcDbEntity
  8
0
  6
Continuous
 62
     7
100
AcDbLine
 10
1306.4037634909
 20
170.710901597
 30
0.0
 11
1306.4037634909
 21
170.6696408361
 31
0.0
  0
LINE
  5
1E1
330
1F
100
AcDbEntity
  8
0
  6
Continuous
 62
     7
100
AcDbLine
 10
1305.9037634909
 20
170.1765176296
 30
0.0
 11
1305.9037634909
 21
170.210901597
 31
0.0
  0
ARC
  5
1E2
330
1F
100
AcDbEntity
  8
0
  6
Continuous
 62
     7
100
AcDbCircle
 10
1326.4037634909
 20
135.9994791374
 30
0.0
 40
2.000000000000012
100
AcDbArc
 50
180.0
 51
223.0143561528
  0
LINE
  5
1E3
330
1F
100
AcDbEntity
  8
0
  6
Continuous
 62
     7
100
AcDbLine
 10
1324.9413978995
 20
134.635115961
 30
0.0
 11
1324.9413978995
 21
123.310901597
 31
0.0
  0
LINE
  5
1E4
330
1F
100
AcDbEntity
  8
0
  6
Continuous
 62
     7
100
AcDbLine
 10
1324.9413978995
 20
123.310901597
 30
0.0
 11
1324.4037634909
 21
123.310901597
 31
0.0
  0
ARC
  5
1E5
330
1F
100
AcDbEntity
  8
0
  6
Continuous
 62
     7
100
AcDbCircle
 10
1326.4037634909
 20
155.9994791374
 30
0.0
 40
2.0
100
AcDbArc
 50
180.0
 51
223.0143561528
  0
LINE
  5
1E6
330
1F
100
AcDbEntity
  8
0
  6
Continuous
 62
     7
100
AcDbLine
 10
1324.9413978995
 20
154.635115961
 30
0.0
 11
1324.9413978995
 21
143.310901597
 31
0.0
  0
LINE
  5
1E7
330
1F
100
AcDbEntity
  8
0
  6
Continuous
 62
     7
100
AcDbLine
 10
1324.9413978995
 20
143.310901597
 30
0.0
 11
1324.4037634909
 21
143.310901597
 31
0.0
  0
ARC
  5
1E8
330
1F
100
AcDbEntity
  8
0
  6
Continuous
 62
     7
100
AcDbCircle
 10
1326.4037634909
 20
175.9994791374
 30
0.0
 40
2.000000000000031
100
AcDbArc
 50
180.0
 51
223.0143561528
  0
LINE
  5
1E9
330
1F
100
AcDbEntity
  8
0
  6
Continuous
 62
     7
100
AcDbLine
 10
1324.9413978995
 20
174.635115961
 30
0.0
 11
1324.9413978995
 21
163.310901597
 31
0.0
  0
LINE
  5
1EA
330
1F
100
AcDbEntity
  8
0
  6
Continuous
 62
     7
100
AcDbLine
 10
1324.9413978995
 20
163.310901597
 30
0.0
 11
1324.4037634909
 21
163.310901597
 31
0.0
  0
ARC
  5
1EB
330
1F
100
AcDbEntity
  8
0
  6
Continuous
 62
     7
100
AcDbCircle
 10
1312.8037634909
 20
143.310901597
 30
0.0
 40
16.60000000000014
100
AcDbArc
 50
0.0
 51
43.0143561528
  0
LINE
  5
1EC
330
1F
100
AcDbEntity
  8
0
  6
Continuous
 62
     7
100
AcDbLine
 10
1329.4037634909
 20
143.310901597
 30
0.0
 11
1324.9413978995
 21
143.310901597
 31
0.0
  0
ARC
  5
1ED
330
1F
100
AcDbEntity
  8
0
  6
Continuous
 62
     7
100
AcDbCircle
 10
1312.8037634909
 20
163.310901597
 30
0.0
 40
16.60000000000014
100
AcDbArc
 50
0.0
 51
43.0143561528
  0
LINE
  5
1EE
330
1F
100
AcDbEntity
  8
0
  6
Continuous
 62
     7
100
AcDbLine
 10
1329.4037634909
 20
163.310901597
 30
0.0
 11
1324.9413978995
 21
163.310901597
 31
0.0
  0
ARC
  5
1EF
330
1F
100
AcDbEntity
  8
0
  6
Continuous
 62
     7
100
AcDbCircle
 10
1312.8037634909
 20
123.310901597
 30
0.0
 40
16.60000000000014
100
AcDbArc
 50
0.0
 51
43.0143561528
  0
LINE
  5
1F0
330
1F
100
AcDbEntity
  8
0
  6
Continuous
 62
     7
100
AcDbLine
 10
1329.4037634909
 20
123.310901597
 30
0.0
 11
1324.9413978995
 21
123.310901597
 31
0.0
  0
LINE
  5
1F1
330
1F
100
AcDbEntity
  8
0
  6
Continuous
 62
     7
100
AcDbLine
 10
1306.4037634909
 20
170.6696408361
 30
0.0
 11
1311.9037634909
 21
170.6696408361
 31
0.0
  0
LINE
  5
1F2
330
1F
100
AcDbEntity
  8
0
  6
Continuous
 62
     7
100
AcDbLine
 10
1215.9118018195
 20
257.2810006491
 30
0.0
 11
1223.9118018195
 21
257.2810006491
 31
0.0
  0
LINE
  5
1F3
330
1F
100
AcDbEntity
  8
0
  6
Continuous
 62
     7
100
AcDbLine
 10
710.9118018195
 20
257.2810006491
 30
0.0
 11
711.4118018195
 21
257.2810006491
 31
0.0
  0
LINE
  5
1F4
330
1F
100
AcDbEntity
  8
0
  6
Continuous
 62
     7
100
AcDbLine
 10
1215.4118018195
 20
257.2810006491
 30
0.0
 11
1215.9118018195
 21
257.2810006491
 31
0.0
  0
LINE
  5
1F5
330
1F
100
AcDbEntity
  8
0
  6
Continuous
 62
     7
100
AcDbLine
 10
702.9118018195
 20
257.2810006491
 30
0.0
 11
710.9118018195
 21
257.2810006491
 31
0.0
  0
LINE
  5
1F6
330
1F
100
AcDbEntity
  8
0
  6
Continuous
 62
     7
100
AcDbLine
 10
1212.5718092105
 20
228.7810006491
 30
0.0
 11
1215.4118018195
 21
228.7810006491
 31
0.0
  0
ARC
  5
1F7
330
1F
100
AcDbEntity
  8
0
  6
Continuous
 62
     7
100
AcDbCircle
 10
1212.5718092105
 20
230.2810006491
 30
0.0
 40
1.5
100
AcDbArc
 50
207.5120026239
 51
270.0
  0
ARC
  5
1F8
330
1F
100
AcDbEntity
  8
0
  6
Continuous
 62
     7
100
AcDbCircle
 10
714.2517944286
 20
230.2810006491
 30
0.0
 40
1.5
100
AcDbArc
 50
270.0
 51
332.4879973761
  0
LINE
  5
1F9
330
1F
100
AcDbEntity
  8
0
  6
Continuous
 62
     7
100
AcDbLine
 10
711.4118018195
 20
228.7810006491
 30
0.0
 11
714.2517944286
 21
228.7810006491
 31
0.0
  0
LINE
  5
1FA
330
1F
100
AcDbEntity
  8
0
  6
Continuous
 62
     7
100
AcDbLine
 10
1210.5814306933
 20
230.8553132115
 30
0.0
 11
1211.2414380843
 21
229.5880990209
 31
0.0
  0
LINE
  5
1FB
330
1F
100
AcDbEntity
  8
0
  6
Continuous
 62
     7
100
AcDbLine
 10
715.5821655548
 20
229.5880990209
 30
0.0
 11
716.2421729458
 21
230.8553132115
 31
0.0
  0
ARC
  5
1FC
330
1F
100
AcDbEntity
  8
0
  6
Continuous
 62
     7
100
AcDbCircle
 10
1211.9118018195
 20
231.5482148398
 30
0.0
 40
1.500000000000227
100
AcDbArc
 50
180.0
 51
207.5120026239
  0
ARC
  5
1FD
330
1F
100
AcDbEntity
  8
0
  6
Continuous
 62
     7
100
AcDbCircle
 10
714.9118018195
 20
231.5482148398
 30
0.0
 40
1.500000000000011
100
AcDbArc
 50
332.4879973761
 51
360.0
  0
LINE
  5
1FE
330
1F
100
AcDbEntity
  8
0
  6
Continuous
 62
     7
100
AcDbLine
 10
1220.0273482077
 20
231.6810006491
 30
0.0
 11
1224.1118018195
 21
231.6810006491
 31
0.0
  0
LINE
  5
1FF
330
1F
100
AcDbEntity
  8
0
  6
Continuous
 62
     7
100
AcDbLine
 10
1224.1118018195
 20
231.6810006491
 30
0.0
 11
1224.6118018195
 21
232.1810006491
 31
0.0
  0
LINE
  5
200
330
1F
100
AcDbEntity
  8
0
  6
Continuous
 62
     7
100
AcDbLine
 10
718.9118018196
 20
252.7810006491
 30
0.0
 11
719.4118018195
 21
252.2810006491
 31
0.0
  0
LINE
  5
201
330
1F
100
AcDbEntity
  8
0
  6
Continuous
 62
     7
100
AcDbLine
 10
1207.4118018195
 20
252.2810006491
 30
0.0
 11
1207.9118018195
 21
252.7810006491
 31
0.0
  0
LINE
  5
202
330
1F
100
AcDbEntity
  8
0
  6
Continuous
 62
     7
100
AcDbLine
 10
702.7118018195
 20
231.6810006491
 30
0.0
 11
706.7962554314
 21
231.6810006491
 31
0.0
  0
LINE
  5
203
330
1F
100
AcDbEntity
  8
0
  6
Continuous
 62
     7
100
AcDbLine
 10
702.2118018195
 20
232.1810006491
 30
0.0
 11
702.7118018195
 21
231.6810006491
 31
0.0
  0
LINE
  5
204
330
1F
100
AcDbEntity
  8
0
  6
Continuous
 62
     7
100
AcDbLine
 10
1201.9118018195
 20
252.7810006491
 30
0.0
 11
1202.4118018195
 21
252.2810006491
 31
0.0
  0
LINE
  5
205
330
1F
100
AcDbEntity
  8
0
  6
Continuous
 62
     7
100
AcDbLine
 10
724.4118018195
 20
252.2810006491
 30
0.0
 11
724.9118018195
 21
252.7810006491
 31
0.0
  0
ARC
  5
206
330
1F
100
AcDbEntity
  8
0
  6
Continuous
 62
     7
100
AcDbCircle
 10
1212.5718092105
 20
239.0810006491
 30
0.0
 40
1.500000000000121
100
AcDbArc
 50
90.0
 51
152.4879973762
  0
LINE
  5
207
330
1F
100
AcDbEntity
  8
0
  6
Continuous
 62
     7
100
AcDbLine
 10
1215.4118018195
 20
240.5810006491
 30
0.0
 11
1212.5718092105
 21
240.5810006491
 31
0.0
  0
LINE
  5
208
330
1F
100
AcDbEntity
  8
0
  6
Continuous
 62
     7
100
AcDbLine
 10
1211.2414380843
 20
239.7739022774
 30
0.0
 11
1210.5814306933
 21
238.5066880867
 31
0.0
  0
ARC
  5
209
330
1F
100
AcDbEntity
  8
0
  6
Continuous
 62
     7
100
AcDbCircle
 10
1211.9118018195
 20
237.8137864585
 30
0.0
 40
1.500000000000227
100
AcDbArc
 50
152.4879973761
 51
180.0
  0
LINE
  5
20A
330
1F
100
AcDbEntity
  8
0
  6
Continuous
 62
     7
100
AcDbLine
 10
1224.6118018195
 20
237.1810006491
 30
0.0
 11
1224.1118018195
 21
237.6810006491
 31
0.0
  0
LINE
  5
20B
330
1F
100
AcDbEntity
  8
0
  6
Continuous
 62
     7
100
AcDbLine
 10
1224.1118018195
 20
237.6810006491
 30
0.0
 11
1220.0273482077
 21
237.6810006491
 31
0.0
  0
ARC
  5
20C
330
1F
100
AcDbEntity
  8
0
  6
Continuous
 62
     7
100
AcDbCircle
 10
714.2517944286
 20
239.0810006491
 30
0.0
 40
1.5
100
AcDbArc
 50
27.5120026239
 51
90.0
  0
LINE
  5
20D
330
1F
100
AcDbEntity
  8
0
  6
Continuous
 62
     7
100
AcDbLine
 10
714.2517944286
 20
240.5810006491
 30
0.0
 11
711.4118018195
 21
240.5810006491
 31
0.0
  0
LINE
  5
20E
330
1F
100
AcDbEntity
  8
0
  6
Continuous
 62
     7
100
AcDbLine
 10
716.2421729458
 20
238.5066880867
 30
0.0
 11
715.5821655548
 21
239.7739022774
 31
0.0
  0
ARC
  5
20F
330
1F
100
AcDbEntity
  8
0
  6
Continuous
 62
     7
100
AcDbCircle
 10
714.9118018195
 20
237.8137864585
 30
0.0
 40
1.5
100
AcDbArc
 50
0.0
 51
27.5120026239
  0
LINE
  5
210
330
1F
100
AcDbEntity
  8
0
  6
Continuous
 62
     7
100
AcDbLine
 10
706.7962554314
 20
237.6810006491
 30
0.0
 11
702.7118018195
 21
237.6810006491
 31
0.0
  0
LINE
  5
211
330
1F
100
AcDbEntity
  8
0
  6
Continuous
 62
     7
100
AcDbLine
 10
702.7118018195
 20
237.6810006491
 30
0.0
 11
702.2118018195
 21
237.1810006491
 31
0.0
  0
LINE
  5
212
330
1F
100
AcDbEntity
  8
0
  6
Continuous
 62
     7
100
AcDbLine
 10
762.9118018195
 20
247.2810006491
 30
0.0
 11
763.4118018195
 21
246.7810006491
 31
0.0
  0
LINE
  5
213
330
1F
100
AcDbEntity
  8
0
  6
Continuous
 62
     7
100
AcDbLine
 10
762.9118018195
 20
252.7810006491
 30
0.0
 11
762.9118018195
 21
247.2810006491
 31
0.0
  0
LINE
  5
214
330
1F
100
AcDbEntity
  8
0
  6
Continuous
 62
     7
100
AcDbLine
 10
768.4118018195
 20
246.7810006491
 30
0.0
 11
768.9118018195
 21
247.2810006491
 31
0.0
  0
LINE
  5
215
330
1F
100
AcDbEntity
  8
0
  6
Continuous
 62
     7
100
AcDbLine
 10
768.9118018195
 20
247.2810006491
 30
0.0
 11
768.9118018195
 21
252.7810006491
 31
0.0
  0
LINE
  5
216
330
1F
100
AcDbEntity
  8
0
  6
Continuous
 62
     7
100
AcDbLine
 10
1237.4118018195
 20
252.7810006491
 30
0.0
 11
1260.9118018195
 21
252.7810006491
 31
0.0
  0
LINE
  5
217
330
1F
100
AcDbEntity
  8
0
  6
Continuous
 62
     7
100
AcDbLine
 10
1234.4118018195
 20
257.2810006491
 30
0.0
 11
1234.4118018195
 21
255.7810006491
 31
0.0
  0
ARC
  5
218
330
1F
100
AcDbEntity
  8
0
  6
Continuous
 62
     7
100
AcDbCircle
 10
1231.4118018195
 20
257.2810006491
 30
0.0
 40
3.000000000000227
100
AcDbArc
 50
0.0
 51
90.0
  0
LINE
  5
219
330
1F
100
AcDbEntity
  8
0
  6
Continuous
 62
     7
100
AcDbLine
 10
1218.4118018195
 20
260.2810006491
 30
0.0
 11
1231.4118018195
 21
260.2810006491
 31
0.0
  0
ARC
  5
21A
330
1F
100
AcDbEntity
  8
0
  6
Continuous
 62
     7
100
AcDbCircle
 10
1218.4118018195
 20
257.2810006491
 30
0.0
 40
3.0
100
AcDbArc
 50
90.0
 51
180.0
  0
LINE
  5
21B
330
1F
100
AcDbEntity
  8
0
  6
Continuous
 62
     7
100
AcDbLine
 10
1215.4118018195
 20
255.7810006491
 30
0.0
 11
1215.4118018195
 21
257.2810006491
 31
0.0
  0
LINE
  5
21C
330
1F
100
AcDbEntity
  8
0
  6
Continuous
 62
     7
100
AcDbLine
 10
711.4118018195
 20
257.2810006491
 30
0.0
 11
711.4118018195
 21
255.7810006491
 31
0.0
  0
ARC
  5
21D
330
1F
100
AcDbEntity
  8
0
  6
Continuous
 62
     7
100
AcDbCircle
 10
708.4118018195
 20
257.2810006491
 30
0.0
 40
3.000000000000114
100
AcDbArc
 50
0.0
 51
90.0
  0
LINE
  5
21E
330
1F
100
AcDbEntity
  8
0
  6
Continuous
 62
     7
100
AcDbLine
 10
695.4118018195
 20
260.2810006491
 30
0.0
 11
708.4118018195
 21
260.2810006491
 31
0.0
  0
ARC
  5
21F
330
1F
100
AcDbEntity
  8
0
  6
Continuous
 62
     7
100
AcDbCircle
 10
695.4118018195
 20
257.2810006491
 30
0.0
 40
3.000000000000114
100
AcDbArc
 50
90.0
 51
180.0
  0
LINE
  5
220
330
1F
100
AcDbEntity
  8
0
  6
Continuous
 62
     7
100
AcDbLine
 10
692.4118018195
 20
255.7810006491
 30
0.0
 11
692.4118018195
 21
257.2810006491
 31
0.0
  0
LINE
  5
221
330
1F
100
AcDbEntity
  8
0
  6
Continuous
 62
     7
100
AcDbLine
 10
665.9118018195
 20
252.7810006491
 30
0.0
 11
689.4118018195
 21
252.7810006491
 31
0.0
  0
LINE
  5
222
330
1F
100
AcDbEntity
  8
0
  6
Continuous
 62
     7
100
AcDbLine
 10
1260.9118018195
 20
265.2810006491
 30
0.0
 11
665.9118018195
 21
265.2810006491
 31
0.0
  0
LINE
  5
223
330
1F
100
AcDbEntity
  8
0
  6
Continuous
 62
     7
100
AcDbLine
 10
714.4118018195
 20
252.7810006491
 30
0.0
 11
1212.4118018195
 21
252.7810006491
 31
0.0
  0
LINE
  5
224
330
1F
100
AcDbEntity
  8
0
  6
Continuous
 62
     7
100
AcDbLine
 10
1260.9118018195
 20
265.2810006491
 30
0.0
 11
1260.9118018195
 21
252.7810006491
 31
0.0
  0
ARC
  5
225
330
1F
100
AcDbEntity
  8
0
  6
Continuous
 62
     7
100
AcDbCircle
 10
689.4118018195
 20
255.7810006491
 30
0.0
 40
3.0
100
AcDbArc
 50
270.0
 51
0.0
  0
ARC
  5
226
330
1F
100
AcDbEntity
  8
0
  6
Continuous
 62
     7
100
AcDbCircle
 10
1237.4118018195
 20
255.7810006491
 30
0.0
 40
3.0
100
AcDbArc
 50
180.0
 51
270.0
  0
ARC
  5
227
330
1F
100
AcDbEntity
  8
0
  6
Continuous
 62
     7
100
AcDbCircle
 10
714.4118018195
 20
255.7810006491
 30
0.0
 40
3.0
100
AcDbArc
 50
180.0
 51
270.0
  0
ARC
  5
228
330
1F
100
AcDbEntity
  8
0
  6
Continuous
 62
     7
100
AcDbCircle
 10
1212.4118018195
 20
255.7810006491
 30
0.0
 40
3.0
100
AcDbArc
 50
270.0
 51
0.0
  0
LINE
  5
229
330
1F
100
AcDbEntity
  8
0
  6
Continuous
 62
     7
100
AcDbLine
 10
665.9118018195
 20
265.2810006491
 30
0.0
 11
665.9118018195
 21
252.7810006491
 31
0.0
  0
ARC
  5
22A
330
1F
100
AcDbEntity
  8
0
  6
Continuous
 62
     7
100
AcDbCircle
 10
1223.9118018195
 20
263.2810006491
 30
0.0
 40
6.0
100
AcDbArc
 50
270.0
 51
330.0
  0
ARC
  5
22B
330
1F
100
AcDbEntity
  8
0
  6
Continuous
 62
     7
100
AcDbCircle
 10
702.9118018195
 20
263.2810006491
 30
0.0
 40
6.0
100
AcDbArc
 50
210.0
 51
270.0
  0
ARC
  5
22C
330
1F
100
AcDbEntity
  8
0
  6
Continuous
 62
     7
100
AcDbCircle
 10
948.2094836138
 20
253.6810006491
 30
0.0
 40
16.59999999999999
100
AcDbArc
 50
90.0
 51
133.0143561528
  0
ARC
  5
22D
330
1F
100
AcDbEntity
  8
0
  6
Continuous
 62
     7
100
AcDbCircle
 10
1147.2094836138
 20
253.6810006491
 30
0.0
 40
14.59999999999995
100
AcDbArc
 50
52.6099936242
 51
90.0
  0
ARC
  5
22E
330
1F
100
AcDbEntity
  8
0
  6
Continuous
 62
     7
100
AcDbCircle
 10
1108.2094836138
 20
253.6810006491
 30
0.0
 40
16.59999999999999
100
AcDbArc
 50
90.0
 51
133.0143561528
  0
ARC
  5
22F
330
1F
100
AcDbEntity
  8
0
  6
Continuous
 62
     7
100
AcDbCircle
 10
1159.8980611543
 20
267.2810006491
 30
0.0
 40
2.0
100
AcDbArc
 50
226.9856438472
 51
270.0
  0
ARC
  5
230
330
1F
100
AcDbEntity
  8
0
  6
Continuous
 62
     7
100
AcDbCircle
 10
1147.2094836138
 20
253.6810006491
 30
0.0
 40
16.59999999999999
100
AcDbArc
 50
46.9856438472
 51
90.0
  0
ARC
  5
231
330
1F
100
AcDbEntity
  8
0
  6
Continuous
 62
     7
100
AcDbCircle
 10
907.2094836138
 20
253.6810006491
 30
0.0
 40
16.60000000000001
100
AcDbArc
 50
46.9856438472
 51
90.0
  0
ARC
  5
232
330
1F
100
AcDbEntity
  8
0
  6
Continuous
 62
     7
100
AcDbCircle
 10
868.2094836138
 20
253.6810006491
 30
0.0
 40
16.60000000000002
100
AcDbArc
 50
90.0
 51
133.0143561528
  0
LINE
  5
233
330
1F
100
AcDbEntity
  8
0
  6
Continuous
 62
     7
100
AcDbLine
 10
1108.2094836138
 20
270.2810006491
 30
0.0
 11
1147.2094836138
 21
270.2810006491
 31
0.0
  0
LINE
  5
234
330
1F
100
AcDbEntity
  8
0
  6
Continuous
 62
     7
100
AcDbLine
 10
868.2094836138
 20
270.2810006491
 30
0.0
 11
907.2094836138
 21
270.2810006491
 31
0.0
  0
LINE
  5
235
330
1F
100
AcDbEntity
  8
0
  6
Continuous
 62
     7
100
AcDbLine
 10
948.2094836138
 20
270.2810006491
 30
0.0
 11
987.2094836138
 21
270.2810006491
 31
0.0
  0
LINE
  5
236
330
1F
100
AcDbEntity
  8
0
  6
Continuous
 62
     7
100
AcDbLine
 10
1028.2094836138
 20
270.2810006491
 30
0.0
 11
1067.2094836138
 21
270.2810006491
 31
0.0
  0
ARC
  5
237
330
1F
100
AcDbEntity
  8
0
  6
Continuous
 62
     7
100
AcDbCircle
 10
987.2094836138
 20
253.6810006491
 30
0.0
 40
16.60000000000003
100
AcDbArc
 50
46.9856438472
 51
90.0
  0
ARC
  5
238
330
1F
100
AcDbEntity
  8
0
  6
Continuous
 62
     7
100
AcDbCircle
 10
935.5209060734
 20
267.2810006491
 30
0.0
 40
2.000000000000109
100
AcDbArc
 50
270.0
 51
313.0143561528
  0
ARC
  5
239
330
1F
100
AcDbEntity
  8
0
  6
Continuous
 62
     7
100
AcDbCircle
 10
987.2094836138
 20
253.6810006491
 30
0.0
 40
14.59999999999999
100
AcDbArc
 50
52.6099936242
 51
90.0
  0
LINE
  5
23A
330
1F
100
AcDbEntity
  8
0
  6
Continuous
 62
     7
100
AcDbLine
 10
948.2094836138
 20
268.2810006491
 30
0.0
 11
987.2094836138
 21
268.2810006491
 31
0.0
  0
ARC
  5
23B
330
1F
100
AcDbEntity
  8
0
  6
Continuous
 62
     7
100
AcDbCircle
 10
948.2094836138
 20
253.6810006491
 30
0.0
 40
14.59999999999999
100
AcDbArc
 50
90.0
 51
127.3900063758
  0
ARC
  5
23C
330
1F
100
AcDbEntity
  8
0
  6
Continuous
 62
     7
100
AcDbCircle
 10
999.8980611543
 20
267.2810006491
 30
0.0
 40
2.000000000000031
100
AcDbArc
 50
226.9856438472
 51
270.0
  0
ARC
  5
23D
330
1F
100
AcDbEntity
  8
0
  6
Continuous
 62
     7
100
AcDbCircle
 10
919.8980611543
 20
267.2810006491
 30
0.0
 40
2.0
100
AcDbArc
 50
226.9856438472
 51
270.0
  0
ARC
  5
23E
330
1F
100
AcDbEntity
  8
0
  6
Continuous
 62
     7
100
AcDbCircle
 10
1095.5209060734
 20
267.2810006491
 30
0.0
 40
2.000000000000067
100
AcDbArc
 50
270.0
 51
313.0143561528
  0
ARC
  5
23F
330
1F
100
AcDbEntity
  8
0
  6
Continuous
 62
     7
100
AcDbCircle
 10
827.2094836138
 20
253.6810006491
 30
0.0
 40
16.60000000000002
100
AcDbArc
 50
46.9856438472
 51
90.0
  0
LINE
  5
240
330
1F
100
AcDbEntity
  8
0
  6
Continuous
 62
     7
100
AcDbLine
 10
788.2094836138
 20
268.2810006491
 30
0.0
 11
827.2094836138
 21
268.2810006491
 31
0.0
  0
ARC
  5
241
330
1F
100
AcDbEntity
  8
0
  6
Continuous
 62
     7
100
AcDbCircle
 10
788.2094836138
 20
253.6810006491
 30
0.0
 40
14.60000000000002
100
AcDbArc
 50
90.0
 51
127.3900063757
  0
ARC
  5
242
330
1F
100
AcDbEntity
  8
0
  6
Continuous
 62
     7
100
AcDbCircle
 10
1028.2094836138
 20
253.6810006491
 30
0.0
 40
16.59999999999999
100
AcDbArc
 50
90.0
 51
133.0143561528
  0
ARC
  5
243
330
1F
100
AcDbEntity
  8
0
  6
Continuous
 62
     7
100
AcDbCircle
 10
827.2094836138
 20
253.6810006491
 30
0.0
 40
14.60000000000002
100
AcDbArc
 50
52.6099936242
 51
90.0
  0
ARC
  5
244
330
1F
100
AcDbEntity
  8
0
  6
Continuous
 62
     7
100
AcDbCircle
 10
907.2094836138
 20
253.6810006491
 30
0.0
 40
14.60000000000004
100
AcDbArc
 50
52.6099936242
 51
90.0
  0
ARC
  5
245
330
1F
100
AcDbEntity
  8
0
  6
Continuous
 62
     7
100
AcDbCircle
 10
1067.2094836138
 20
253.6810006491
 30
0.0
 40
14.59999999999999
100
AcDbArc
 50
52.6099936243
 51
90.0
  0
LINE
  5
246
330
1F
100
AcDbEntity
  8
0
  6
Continuous
 62
     7
100
AcDbLine
 10
1028.2094836138
 20
268.2810006491
 30
0.0
 11
1067.2094836138
 21
268.2810006491
 31
0.0
  0
ARC
  5
247
330
1F
100
AcDbEntity
  8
0
  6
Continuous
 62
     7
100
AcDbCircle
 10
1028.2094836138
 20
253.6810006491
 30
0.0
 40
14.59999999999999
100
AcDbArc
 50
90.0
 51
127.3900063758
  0
ARC
  5
248
330
1F
100
AcDbEntity
  8
0
  6
Continuous
 62
     7
100
AcDbCircle
 10
1015.5209060734
 20
267.2810006491
 30
0.0
 40
2.000000000000144
100
AcDbArc
 50
270.0
 51
313.0143561528
  0
ARC
  5
249
330
1F
100
AcDbEntity
  8
0
  6
Continuous
 62
     7
100
AcDbCircle
 10
1067.2094836138
 20
253.6810006491
 30
0.0
 40
16.59999999999999
100
AcDbArc
 50
46.9856438472
 51
90.0
  0
ARC
  5
24A
330
1F
100
AcDbEntity
  8
0
  6
Continuous
 62
     7
100
AcDbCircle
 10
1079.8980611543
 20
267.2810006491
 30
0.0
 40
2.000000000000222
100
AcDbArc
 50
226.9856438472
 51
270.0
  0
ARC
  5
24B
330
1F
100
AcDbEntity
  8
0
  6
Continuous
 62
     7
100
AcDbCircle
 10
855.5209060734
 20
267.2810006491
 30
0.0
 40
2.000000000000031
100
AcDbArc
 50
270.0
 51
313.0143561528
  0
ARC
  5
24C
330
1F
100
AcDbEntity
  8
0
  6
Continuous
 62
     7
100
AcDbCircle
 10
775.5209060734
 20
267.2810006491
 30
0.0
 40
2.0
100
AcDbArc
 50
270.0
 51
313.0143561528
  0
ARC
  5
24D
330
1F
100
AcDbEntity
  8
0
  6
Continuous
 62
     7
100
AcDbCircle
 10
839.8980611543
 20
267.2810006491
 30
0.0
 40
2.000000000000109
100
AcDbArc
 50
226.9856438472
 51
270.0
  0
LINE
  5
24E
330
1F
100
AcDbEntity
  8
0
  6
Continuous
 62
     7
100
AcDbLine
 10
788.2094836138
 20
270.2810006491
 30
0.0
 11
827.2094836138
 21
270.2810006491
 31
0.0
  0
LINE
  5
24F
330
1F
100
AcDbEntity
  8
0
  6
Continuous
 62
     7
100
AcDbLine
 10
1108.2094836138
 20
268.2810006491
 30
0.0
 11
1147.2094836138
 21
268.2810006491
 31
0.0
  0
ARC
  5
250
330
1F
100
AcDbEntity
  8
0
  6
Continuous
 62
     7
100
AcDbCircle
 10
868.2094836138
 20
253.6810006491
 30
0.0
 40
14.60000000000002
100
AcDbArc
 50
90.0
 51
127.3900063758
  0
ARC
  5
251
330
1F
100
AcDbEntity
  8
0
  6
Continuous
 62
     7
100
AcDbCircle
 10
1108.2094836138
 20
253.6810006491
 30
0.0
 40
14.59999999999999
100
AcDbArc
 50
90.0
 51
127.3900063758
  0
LINE
  5
252
330
1F
100
AcDbEntity
  8
0
  6
Continuous
 62
     7
100
AcDbLine
 10
868.2094836138
 20
268.2810006491
 30
0.0
 11
907.2094836138
 21
268.2810006491
 31
0.0
  0
ARC
  5
253
330
1F
100
AcDbEntity
  8
0
  6
Continuous
 62
     7
100
AcDbCircle
 10
788.2094836138
 20
253.6810006491
 30
0.0
 40
16.60000000000002
100
AcDbArc
 50
90.0
 51
133.0143561528
  0
LINE
  5
254
330
1F
100
AcDbEntity
  8
0
  6
Continuous
 62
     7
100
AcDbLine
 10
709.3596809596
 20
226.7810006491
 30
0.0
 11
707.480295718
 21
226.7810006491
 31
0.0
  0
LWPOLYLINE
  5
255
330
1F
100
AcDbEntity
  8
0
  6
Continuous
 62
     7
100
AcDbPolyline
 90
        9
 70
   128
 43
0.0
 10
707.480295718
 20
226.7810006491
 10
707.3468460782
 20
226.8194300883
 10
707.2185248332
 20
226.9332415841
 10
707.1002632966
 20
227.1180614245
 10
706.9966061927
 20
227.3667870867
 10
706.9115370061
 20
227.6698601831
 10
706.8483248978
 20
228.0156337844
 10
706.8093990737
 20
228.3908200051
 10
706.7962554314
 20
228.7810006491
  0
LINE
  5
256
330
1F
100
AcDbEntity
  8
0
  6
Continuous
 62
     7
100
AcDbLine
 10
706.7962554314
 20
228.7810006491
 30
0.0
 11
708.6756406729
 21
228.7810006491
 31
0.0
  0
LWPOLYLINE
  5
257
330
1F
100
AcDbEntity
  8
0
  6
Continuous
 62
     7
100
AcDbPolyline
 90
        9
 70
   128
 43
0.0
 10
708.6756406729
 20
228.7810006491
 10
708.6887843152
 20
228.3908200051
 10
708.7277101393
 20
228.0156337844
 10
708.7909222477
 20
227.6698601831
 10
708.8759914343
 20
227.3667870867
 10
708.9796485381
 20
227.1180614245
 10
709.0979100748
 20
226.9332415841
 10
709.2262313198
 20
226.8194300883
 10
709.3596809596
 20
226.7810006491
  0
LINE
  5
258
330
1F
100
AcDbEntity
  8
0
  6
Continuous
 62
     7
100
AcDbLine
 10
711.2308796819
 20
242.7810006491
 30
0.0
 11
711.2308796819
 21
226.7810006491
 31
0.0
  0
LINE
  5
259
330
1F
100
AcDbEntity
  8
0
  6
Continuous
 62
     7
100
AcDbLine
 10
709.3596809596
 20
226.7810006491
 30
0.0
 11
711.2308796819
 21
226.7810006491
 31
0.0
  0
LINE
  5
25A
330
1F
100
AcDbEntity
  8
0
  6
Continuous
 62
     7
100
AcDbLine
 10
708.6756406729
 20
240.7810006491
 30
0.0
 11
708.6756406729
 21
228.7810006491
 31
0.0
  0
LWPOLYLINE
  5
25B
330
1F
100
AcDbEntity
  8
0
  6
Continuous
 62
     7
100
AcDbPolyline
 90
        9
 70
   128
 43
0.0
 10
709.3596809596
 20
242.7810006491
 10
709.2262313198
 20
242.7425712099
 10
709.0979100748
 20
242.6287597141
 10
708.9796485381
 20
242.4439398737
 10
708.8759914343
 20
242.1952142115
 10
708.7909222477
 20
241.8921411152
 10
708.7277101393
 20
241.5463675138
 10
708.6887843152
 20
241.1711812931
 10
708.6756406729
 20
240.7810006491
  0
LINE
  5
25C
330
1F
100
AcDbEntity
  8
0
  6
Continuous
 62
     7
100
AcDbLine
 10
711.2308796819
 20
242.7810006491
 30
0.0
 11
709.3596809596
 21
242.7810006491
 31
0.0
  0
LINE
  5
25D
330
1F
100
AcDbEntity
  8
0
  6
Continuous
 62
     7
100
AcDbLine
 10
706.7962554314
 20
240.7810006491
 30
0.0
 11
706.7962554314
 21
228.7810006491
 31
0.0
  0
LINE
  5
25E
330
1F
100
AcDbEntity
  8
0
  6
Continuous
 62
     7
100
AcDbLine
 10
708.6756406729
 20
240.7810006491
 30
0.0
 11
706.7962554314
 21
240.7810006491
 31
0.0
  0
LWPOLYLINE
  5
25F
330
1F
100
AcDbEntity
  8
0
  6
Continuous
 62
     7
100
AcDbPolyline
 90
        9
 70
   128
 43
0.0
 10
706.7962554314
 20
240.7810006491
 10
706.8093990737
 20
241.1711812931
 10
706.8483248978
 20
241.5463675138
 10
706.9115370061
 20
241.8921411152
 10
706.9966061927
 20
242.1952142115
 10
707.1002632966
 20
242.4439398737
 10
707.2185248332
 20
242.6287597141
 10
707.3468460782
 20
242.7425712099
 10
707.480295718
 20
242.7810006491
  0
LINE
  5
260
330
1F
100
AcDbEntity
  8
0
  6
Continuous
 62
     7
100
AcDbLine
 10
707.480295718
 20
242.7810006491
 30
0.0
 11
709.3596809596
 21
242.7810006491
 31
0.0
  0
LINE
  5
261
330
1F
100
AcDbEntity
  8
0
  6
Continuous
 62
     7
100
AcDbLine
 10
1218.1479629662
 20
228.7810006491
 30
0.0
 11
1220.0273482077
 21
228.7810006491
 31
0.0
  0
LWPOLYLINE
  5
262
330
1F
100
AcDbEntity
  8
0
  6
Continuous
 62
     7
100
AcDbPolyline
 90
        9
 70
   128
 43
0.0
 10
1220.0273482077
 20
228.7810006491
 10
1220.0142045654
 20
228.3908200051
 10
1219.9752787413
 20
228.0156337844
 10
1219.912066633
 20
227.6698601831
 10
1219.8269974464
 20
227.3667870867
 10
1219.7233403425
 20
227.1180614245
 10
1219.6050788058
 20
226.9332415841
 10
1219.4767575609
 20
226.8194300883
 10
1219.3433079211
 20
226.7810006491
  0
LINE
  5
263
330
1F
100
AcDbEntity
  8
0
  6
Continuous
 62
     7
100
AcDbLine
 10
1219.3433079211
 20
226.7810006491
 30
0.0
 11
1217.4639226795
 21
226.7810006491
 31
0.0
  0
LWPOLYLINE
  5
264
330
1F
100
AcDbEntity
  8
0
  6
Continuous
 62
     7
100
AcDbPolyline
 90
        9
 70
   128
 43
0.0
 10
1217.4639226795
 20
226.7810006491
 10
1217.5973723193
 20
226.8194300883
 10
1217.7256935643
 20
226.9332415841
 10
1217.843955101
 20
227.1180614245
 10
1217.9476122048
 20
227.3667870867
 10
1218.0326813914
 20
227.6698601831
 10
1218.0958934998
 20
228.0156337844
 10
1218.1348193239
 20
228.3908200051
 10
1218.1479629662
 20
228.7810006491
  0
LINE
  5
265
330
1F
100
AcDbEntity
  8
0
  6
Continuous
 62
     7
100
AcDbLine
 10
1215.5927239572
 20
226.7810006491
 30
0.0
 11
1217.4639226795
 21
226.7810006491
 31
0.0
  0
LINE
  5
266
330
1F
100
AcDbEntity
  8
0
  6
Continuous
 62
     7
100
AcDbLine
 10
1215.5927239572
 20
226.7810006491
 30
0.0
 11
1215.5927239572
 21
242.7810006491
 31
0.0
  0
LINE
  5
267
330
1F
100
AcDbEntity
  8
0
  6
Continuous
 62
     7
100
AcDbLine
 10
1217.4639226795
 20
242.7810006491
 30
0.0
 11
1215.5927239572
 21
242.7810006491
 31
0.0
  0
LWPOLYLINE
  5
268
330
1F
100
AcDbEntity
  8
0
  6
Continuous
 62
     7
100
AcDbPolyline
 90
        9
 70
   128
 43
0.0
 10
1218.1479629662
 20
240.7810006491
 10
1218.1348193239
 20
241.1711812931
 10
1218.0958934998
 20
241.5463675138
 10
1218.0326813914
 20
241.8921411152
 10
1217.9476122048
 20
242.1952142115
 10
1217.843955101
 20
242.4439398737
 10
1217.7256935643
 20
242.6287597141
 10
1217.5973723193
 20
242.7425712099
 10
1217.4639226795
 20
242.7810006491
  0
LINE
  5
269
330
1F
100
AcDbEntity
  8
0
  6
Continuous
 62
     7
100
AcDbLine
 10
1218.1479629662
 20
228.7810006491
 30
0.0
 11
1218.1479629662
 21
240.7810006491
 31
0.0
  0
LINE
  5
26A
330
1F
100
AcDbEntity
  8
0
  6
Continuous
 62
     7
100
AcDbLine
 10
1220.0273482077
 20
240.7810006491
 30
0.0
 11
1218.1479629662
 21
240.7810006491
 31
0.0
  0
LINE
  5
26B
330
1F
100
AcDbEntity
  8
0
  6
Continuous
 62
     7
100
AcDbLine
 10
1220.0273482077
 20
228.7810006491
 30
0.0
 11
1220.0273482077
 21
240.7810006491
 31
0.0
  0
LINE
  5
26C
330
1F
100
AcDbEntity
  8
0
  6
Continuous
 62
     7
100
AcDbLine
 10
1217.4639226795
 20
242.7810006491
 30
0.0
 11
1219.3433079211
 21
242.7810006491
 31
0.0
  0
LWPOLYLINE
  5
26D
330
1F
100
AcDbEntity
  8
0
  6
Continuous
 62
     7
100
AcDbPolyline
 90
        9
 70
   128
 43
0.0
 10
1219.3433079211
 20
242.7810006491
 10
1219.4767575609
 20
242.7425712099
 10
1219.6050788058
 20
242.6287597141
 10
1219.7233403425
 20
242.4439398737
 10
1219.8269974464
 20
242.1952142115
 10
1219.912066633
 20
241.8921411152
 10
1219.9752787413
 20
241.5463675138
 10
1220.0142045654
 20
241.1711812931
 10
1220.0273482077
 20
240.7810006491
  0
LINE
  5
26E
330
1F
100
AcDbEntity
  8
0
  6
Continuous
 62
     7
100
AcDbLine
 10
711.4118018195
 20
226.7810006491
 30
0.0
 11
711.2308796819
 21
226.7810006491
 31
0.0
  0
LINE
  5
26F
330
1F
100
AcDbEntity
  8
0
  6
Continuous
 62
     7
100
AcDbLine
 10
711.2308796819
 20
242.7810006491
 30
0.0
 11
711.4066154692
 21
242.7810006491
 31
0.0
  0
LINE
  5
270
330
1F
100
AcDbEntity
  8
0
  6
Continuous
 62
     7
100
AcDbLine
 10
711.4118018195
 20
242.7810006491
 30
0.0
 11
711.4118018195
 21
226.7810006491
 31
0.0
  0
LINE
  5
271
330
1F
100
AcDbEntity
  8
0
  6
Continuous
 62
     7
100
AcDbLine
 10
1215.4169881699
 20
242.7810006491
 30
0.0
 11
1215.5927239572
 21
242.7810006491
 31
0.0
  0
LINE
  5
272
330
1F
100
AcDbEntity
  8
0
  6
Continuous
 62
     7
100
AcDbLine
 10
1215.5927239572
 20
226.7810006491
 30
0.0
 11
1215.4118018195
 21
226.7810006491
 31
0.0
  0
LINE
  5
273
330
1F
100
AcDbEntity
  8
0
  6
Continuous
 62
     7
100
AcDbLine
 10
1215.4118018195
 20
226.7810006491
 30
0.0
 11
1215.4118018195
 21
242.7810006491
 31
0.0
  0
LINE
  5
274
330
1F
100
AcDbEntity
  8
0
  6
Continuous
 62
     7
100
AcDbLine
 10
711.4066154692
 20
242.7810006491
 30
0.0
 11
711.4118018195
 21
242.7810006491
 31
0.0
  0
LINE
  5
275
330
1F
100
AcDbEntity
  8
0
  6
Continuous
 62
     7
100
AcDbLine
 10
711.4118018195
 20
242.7810006491
 30
0.0
 11
711.4118018195
 21
255.7810006491
 31
0.0
  0
LINE
  5
276
330
1F
100
AcDbEntity
  8
0
  6
Continuous
 62
     7
100
AcDbLine
 10
709.4118018195
 20
242.7810006491
 30
0.0
 11
709.4118018195
 21
257.2810006491
 31
0.0
  0
LINE
  5
277
330
1F
100
AcDbEntity
  8
0
  6
Continuous
 62
     7
100
AcDbLine
 10
1215.4169881699
 20
242.7810006491
 30
0.0
 11
1215.4118018195
 21
242.7810006491
 31
0.0
  0
LINE
  5
278
330
1F
100
AcDbEntity
  8
0
  6
Continuous
 62
     7
100
AcDbLine
 10
1215.4118018195
 20
255.7810006491
 30
0.0
 11
1215.4118018195
 21
242.7810006491
 31
0.0
  0
LINE
  5
279
330
1F
100
AcDbEntity
  8
0
  6
Continuous
 62
     7
100
AcDbLine
 10
1217.4118018195
 20
257.2810006491
 30
0.0
 11
1217.4118018195
 21
242.7810006491
 31
0.0
  0
LINE
  5
27A
330
1F
100
AcDbEntity
  8
0
  6
Continuous
 62
     7
100
AcDbLine
 10
1212.5718092105
 20
240.5113161254
 30
0.0
 11
1215.4118018195
 21
240.5113161254
 31
0.0
  0
ARC
  5
27B
330
1F
100
AcDbEntity
  8
0
  6
Continuous
 62
     7
100
AcDbCircle
 10
1212.5681149669
 20
239.0091396712
 30
0.0
 40
1.502180996728308
100
AcDbArc
 50
89.8590950211
 51
152.0268050375
  0
ARC
  5
27C
330
1F
100
AcDbEntity
  8
0
  6
Continuous
 62
     7
100
AcDbCircle
 10
714.2521722403
 20
239.07370122
 30
0.0
 40
1.500210641248125
100
AcDbArc
 50
27.5586488616
 51
90.0144293185
  0
LINE
  5
27D
330
1F
100
AcDbEntity
  8
0
  6
Continuous
 62
     7
100
AcDbLine
 10
714.2517944286
 20
240.5739118137
 30
0.0
 11
711.4118018195
 21
240.5739118137
 31
0.0
  0
LINE
  5
27E
330
1F
100
AcDbEntity
  8
0
  6
Continuous
 62
     7
100
AcDbLine
 10
1210.5814306933
 20
238.4615031364
 30
0.0
 11
1211.2414380843
 21
239.713750341
 31
0.0
  0
LINE
  5
27F
330
1F
100
AcDbEntity
  8
0
  6
Continuous
 62
     7
100
AcDbLine
 10
716.2421729458
 20
238.5020915327
 30
0.0
 11
715.5821655548
 21
239.7677831686
 31
0.0
  0
LINE
  5
280
330
1F
100
AcDbEntity
  8
0
  6
Continuous
 62
     7
100
AcDbLine
 10
1210.4118018195
 20
237.7767853251
 30
0.0
 11
1210.4118018195
 21
231.5482148398
 31
0.0
  0
ARC
  5
281
330
1F
100
AcDbEntity
  8
0
  6
Continuous
 62
     7
100
AcDbCircle
 10
1211.8800865462
 20
237.7764095987
 30
0.0
 40
1.468284774735201
100
AcDbArc
 50
152.1865385126
 51
179.9853383093
  0
ARC
  5
282
330
1F
100
AcDbEntity
  8
0
  6
Continuous
 62
     7
100
AcDbCircle
 10
714.9150453528
 20
237.8099844065
 30
0.0
 40
1.496756467232892
100
AcDbArc
 50
0.001455309
 51
27.5423833083
  0
LINE
  5
283
330
1F
100
AcDbEntity
  8
0
  6
Continuous
 62
     7
100
AcDbLine
 10
716.4118018195
 20
231.5482148398
 30
0.0
 11
716.4118018195
 21
237.810022424
 31
0.0
  0
LINE
  5
284
330
1F
100
AcDbEntity
  8
0
  6
Continuous
 62
     7
100
AcDbLine
 10
1224.1118018195
 20
237.6455678404
 30
0.0
 11
1224.1118018195
 21
231.6810006491
 31
0.0
  0
LINE
  5
285
330
1F
100
AcDbEntity
  8
0
  6
Continuous
 62
     7
100
AcDbLine
 10
1224.6118018195
 20
237.1514733085
 30
0.0
 11
1224.1118018195
 21
237.6455678404
 31
0.0
  0
LINE
  5
286
330
1F
100
AcDbEntity
  8
0
  6
Continuous
 62
     7
100
AcDbLine
 10
1224.6118018195
 20
237.1514733085
 30
0.0
 11
1224.6118018195
 21
232.1810006491
 31
0.0
  0
LINE
  5
287
330
1F
100
AcDbEntity
  8
0
  6
Continuous
 62
     7
100
AcDbLine
 10
723.5400494322
 20
252.2810006491
 30
0.0
 11
723.8656989547
 21
252.7810006491
 31
0.0
  0
LINE
  5
288
330
1F
100
AcDbEntity
  8
0
  6
Continuous
 62
     7
100
AcDbLine
 10
723.5400494322
 20
252.2810006491
 30
0.0
 11
719.4118018195
 21
252.2810006491
 31
0.0
  0
LINE
  5
289
330
1F
100
AcDbEntity
  8
0
  6
Continuous
 62
     7
100
AcDbLine
 10
1207.4118018195
 20
252.2810006491
 30
0.0
 11
1203.2835542069
 21
252.2810006491
 31
0.0
  0
LINE
  5
28A
330
1F
100
AcDbEntity
  8
0
  6
Continuous
 62
     7
100
AcDbLine
 10
1203.2835542069
 20
252.2810006491
 30
0.0
 11
1202.9579046844
 21
252.7810006491
 31
0.0
  0
LINE
  5
28B
330
1F
100
AcDbEntity
  8
0
  6
Continuous
 62
     7
100
AcDbLine
 10
702.7118018195
 20
231.6810006491
 30
0.0
 11
702.7118018195
 21
237.6773961565
 31
0.0
  0
LINE
  5
28C
330
1F
100
AcDbEntity
  8
0
  6
Continuous
 62
     7
100
AcDbLine
 10
702.2118018195
 20
237.1779969053
 30
0.0
 11
702.7118018195
 21
237.6773961565
 31
0.0
  0
LINE
  5
28D
330
1F
100
AcDbEntity
  8
0
  6
Continuous
 62
     7
100
AcDbLine
 10
702.2118018195
 20
232.1810006491
 30
0.0
 11
702.2118018195
 21
237.1779969053
 31
0.0
  0
LINE
  5
28E
330
1F
100
AcDbEntity
  8
0
  6
Continuous
 62
     7
100
AcDbLine
 10
1203.2835542069
 20
252.2810006491
 30
0.0
 11
1202.4118018195
 21
252.2810006491
 31
0.0
  0
LINE
  5
28F
330
1F
100
AcDbEntity
  8
0
  6
Continuous
 62
     7
100
AcDbLine
 10
724.4118018195
 20
252.2810006491
 30
0.0
 11
723.5400494322
 21
252.2810006491
 31
0.0
  0
LINE
  5
290
330
1F
100
AcDbEntity
  8
0
  6
Continuous
 62
     7
100
AcDbLine
 10
1210.4118018195
 20
237.8137864585
 30
0.0
 11
1210.4118018195
 21
237.7767853251
 31
0.0
  0
LINE
  5
291
330
1F
100
AcDbEntity
  8
0
  6
Continuous
 62
     7
100
AcDbLine
 10
1224.1118018195
 20
237.6810006491
 30
0.0
 11
1224.1118018195
 21
237.6455678404
 31
0.0
  0
LINE
  5
292
330
1F
100
AcDbEntity
  8
0
  6
Continuous
 62
     7
100
AcDbLine
 10
1224.6118018195
 20
237.1810006491
 30
0.0
 11
1224.6118018195
 21
237.1514733085
 31
0.0
  0
LINE
  5
293
330
1F
100
AcDbEntity
  8
0
  6
Continuous
 62
     7
100
AcDbLine
 10
702.7118018195
 20
237.6773961565
 30
0.0
 11
702.7118018195
 21
237.6810006491
 31
0.0
  0
LINE
  5
294
330
1F
100
AcDbEntity
  8
0
  6
Continuous
 62
     7
100
AcDbLine
 10
702.2118018195
 20
237.1779969053
 30
0.0
 11
702.2118018195
 21
237.1810006491
 31
0.0
  0
LINE
  5
295
330
1F
100
AcDbEntity
  8
0
  6
Continuous
 62
     7
100
AcDbLine
 10
762.9118018195
 20
247.2810006491
 30
0.0
 11
766.4076466691
 21
247.2810006491
 31
0.0
  0
LINE
  5
296
330
1F
100
AcDbEntity
  8
0
  6
Continuous
 62
     7
100
AcDbLine
 10
766.3250058608
 20
246.7810006491
 30
0.0
 11
766.4076466691
 21
247.2810006491
 31
0.0
  0
LINE
  5
297
330
1F
100
AcDbEntity
  8
0
  6
Continuous
 62
     7
100
AcDbLine
 10
766.3250058608
 20
246.7810006491
 30
0.0
 11
763.4118018195
 21
246.7810006491
 31
0.0
  0
LINE
  5
298
330
1F
100
AcDbEntity
  8
0
  6
Continuous
 62
     7
100
AcDbLine
 10
766.4076466691
 20
247.2810006491
 30
0.0
 11
768.9118018195
 21
247.2810006491
 31
0.0
  0
LINE
  5
299
330
1F
100
AcDbEntity
  8
0
  6
Continuous
 62
     7
100
AcDbLine
 10
768.4118018195
 20
246.7810006491
 30
0.0
 11
766.3250058608
 21
246.7810006491
 31
0.0
  0
LINE
  5
29A
330
1F
100
AcDbEntity
  8
0
  6
Continuous
 62
     7
100
AcDbLine
 10
1215.9118018195
 20
258.9393130443
 30
0.0
 11
1215.9118018195
 21
257.2810006491
 31
0.0
  0
LINE
  5
29B
330
1F
100
AcDbEntity
  8
0
  6
Continuous
 62
     7
100
AcDbLine
 10
710.9118018195
 20
258.9393130443
 30
0.0
 11
710.9118018195
 21
257.2810006491
 31
0.0
  0
LINE
  5
29C
330
1F
100
AcDbEntity
  8
0
  6
Continuous
 62
     7
100
AcDbLine
 10
1147.2094836138
 20
265.2810006491
 30
0.0
 11
1147.2094836138
 21
268.2810006491
 31
0.0
  0
LINE
  5
29D
330
1F
100
AcDbEntity
  8
0
  6
Continuous
 62
     7
100
AcDbLine
 10
788.2094836138
 20
268.2810006491
 30
0.0
 11
788.2094836138
 21
265.2810006491
 31
0.0
  0
LINE
  5
29E
330
1F
100
AcDbEntity
  8
0
  6
Continuous
 62
     7
100
AcDbLine
 10
827.2094836138
 20
265.2810006491
 30
0.0
 11
827.2094836138
 21
268.2810006491
 31
0.0
  0
LINE
  5
29F
330
1F
100
AcDbEntity
  8
0
  6
Continuous
 62
     7
100
AcDbLine
 10
907.2094836138
 20
265.2810006491
 30
0.0
 11
907.2094836138
 21
268.2810006491
 31
0.0
  0
LINE
  5
2A0
330
1F
100
AcDbEntity
  8
0
  6
Continuous
 62
     7
100
AcDbLine
 10
948.2094836138
 20
268.2810006491
 30
0.0
 11
948.2094836138
 21
265.2810006491
 31
0.0
  0
LINE
  5
2A1
330
1F
100
AcDbEntity
  8
0
  6
Continuous
 62
     7
100
AcDbLine
 10
987.2094836138
 20
265.2810006491
 30
0.0
 11
987.2094836138
 21
268.2810006491
 31
0.0
  0
LINE
  5
2A2
330
1F
100
AcDbEntity
  8
0
  6
Continuous
 62
     7
100
AcDbLine
 10
1108.2094836138
 20
268.2810006491
 30
0.0
 11
1108.2094836138
 21
265.2810006491
 31
0.0
  0
LINE
  5
2A3
330
1F
100
AcDbEntity
  8
0
  6
Continuous
 62
     7
100
AcDbLine
 10
868.2094836138
 20
268.2810006491
 30
0.0
 11
868.2094836138
 21
265.2810006491
 31
0.0
  0
LINE
  5
2A4
330
1F
100
AcDbEntity
  8
0
  6
Continuous
 62
     7
100
AcDbLine
 10
1067.2094836138
 20
265.2810006491
 30
0.0
 11
1067.2094836138
 21
268.2810006491
 31
0.0
  0
LINE
  5
2A5
330
1F
100
AcDbEntity
  8
0
  6
Continuous
 62
     7
100
AcDbLine
 10
1028.2094836138
 20
268.2810006491
 30
0.0
 11
1028.2094836138
 21
265.2810006491
 31
0.0
  0
LINE
  5
2A6
330
1F
100
AcDbEntity
  8
0
  6
Continuous
 62
     7
100
AcDbLine
 10
1212.5718092105
 20
240.5113161254
 30
0.0
 11
1212.5718092105
 21
228.7810006491
 31
0.0
  0
LINE
  5
2A7
330
1F
100
AcDbEntity
  8
0
  6
Continuous
 62
     7
100
AcDbLine
 10
1211.2414380843
 20
239.713750341
 30
0.0
 11
1211.2414380843
 21
229.5880990209
 31
0.0
  0
LINE
  5
2A8
330
1F
100
AcDbEntity
  8
0
  6
Continuous
 62
     7
100
AcDbLine
 10
714.2517944286
 20
228.7810006491
 30
0.0
 11
714.2517944286
 21
240.5739118137
 31
0.0
  0
LINE
  5
2A9
330
1F
100
AcDbEntity
  8
0
  6
Continuous
 62
     7
100
AcDbLine
 10
715.5821655548
 20
229.5880990209
 30
0.0
 11
715.5821655548
 21
239.7677831686
 31
0.0
  0
LINE
  5
2AA
330
1F
100
AcDbEntity
  8
0
  6
Continuous
 62
     7
100
AcDbLine
 10
1210.5814306933
 20
238.4615031364
 30
0.0
 11
1210.5814306933
 21
230.8553132115
 31
0.0
  0
LINE
  5
2AB
330
1F
100
AcDbEntity
  8
0
  6
Continuous
 62
     7
100
AcDbLine
 10
716.2421729458
 20
230.8553132115
 30
0.0
 11
716.2421729458
 21
238.5020915327
 31
0.0
  0
LINE
  5
2AC
330
1F
100
AcDbEntity
  8
0
  6
Continuous
 62
     7
100
AcDbLine
 10
1224.1118018195
 20
237.6455678404
 30
0.0
 11
1220.0273482077
 21
237.6455678404
 31
0.0
  0
LINE
  5
2AD
330
1F
100
AcDbEntity
  8
0
  6
Continuous
 62
     7
100
AcDbLine
 10
702.7118018195
 20
237.6773961565
 30
0.0
 11
706.7962554314
 21
237.6773961565
 31
0.0
  0
LINE
  5
2AE
330
1F
100
AcDbEntity
  8
0
  6
Continuous
 62
     7
100
AcDbLine
 10
1212.5718092105
 20
240.5810006491
 30
0.0
 11
1212.5718092105
 21
240.5113161254
 31
0.0
  0
LINE
  5
2AF
330
1F
100
AcDbEntity
  8
0
  6
Continuous
 62
     7
100
AcDbLine
 10
1211.2414380843
 20
239.7739022774
 30
0.0
 11
1211.2414380843
 21
239.713750341
 31
0.0
  0
LINE
  5
2B0
330
1F
100
AcDbEntity
  8
0
  6
Continuous
 62
     7
100
AcDbLine
 10
1210.5814306933
 20
238.5066880867
 30
0.0
 11
1210.5814306933
 21
238.4615031364
 31
0.0
  0
LINE
  5
2B1
330
1F
100
AcDbEntity
  8
0
  6
Continuous
 62
     7
100
AcDbLine
 10
714.2517944286
 20
240.5739118137
 30
0.0
 11
714.2517944286
 21
240.5810006491
 31
0.0
  0
LINE
  5
2B2
330
1F
100
AcDbEntity
  8
0
  6
Continuous
 62
     7
100
AcDbLine
 10
715.5821655548
 20
239.7677831686
 30
0.0
 11
715.5821655548
 21
239.7739022774
 31
0.0
  0
LINE
  5
2B3
330
1F
100
AcDbEntity
  8
0
  6
Continuous
 62
     7
100
AcDbLine
 10
716.2421729458
 20
238.5020915327
 30
0.0
 11
716.2421729458
 21
238.5066880867
 31
0.0
  0
LINE
  5
2B4
330
1F
100
AcDbEntity
  8
0
  6
Continuous
 62
     7
100
AcDbLine
 10
766.4076466691
 20
247.2810006491
 30
0.0
 11
766.4076466691
 21
252.7810006491
 31
0.0
  0
LINE
  5
2B5
330
1F
100
AcDbEntity
  8
0
  6
Continuous
 62
     7
100
AcDbLine
 10
710.9118018195
 20
42.0492837299
 30
0.0
 11
702.9118018195
 21
42.0492837299
 31
0.0
  0
LINE
  5
2B6
330
1F
100
AcDbEntity
  8
0
  6
Continuous
 62
     7
100
AcDbLine
 10
1223.9118018195
 20
42.0492837299
 30
0.0
 11
1215.9118018195
 21
42.0492837299
 31
0.0
  0
LINE
  5
2B7
330
1F
100
AcDbEntity
  8
0
  6
Continuous
 62
     7
100
AcDbLine
 10
1215.9118018195
 20
42.0492837299
 30
0.0
 11
1215.4118018195
 21
42.0492837299
 31
0.0
  0
LINE
  5
2B8
330
1F
100
AcDbEntity
  8
0
  6
Continuous
 62
     7
100
AcDbLine
 10
711.4118018195
 20
42.0492837299
 30
0.0
 11
710.9118018195
 21
42.0492837299
 31
0.0
  0
LINE
  5
2B9
330
1F
100
AcDbEntity
  8
0
  6
Continuous
 62
     7
100
AcDbLine
 10
768.9118018195
 20
52.0492837299
 30
0.0
 11
768.4118018195
 21
52.5492837299
 31
0.0
  0
LINE
  5
2BA
330
1F
100
AcDbEntity
  8
0
  6
Continuous
 62
     7
100
AcDbLine
 10
768.9118018195
 20
46.5492837299
 30
0.0
 11
768.9118018195
 21
52.0492837299
 31
0.0
  0
LINE
  5
2BB
330
1F
100
AcDbEntity
  8
0
  6
Continuous
 62
     7
100
AcDbLine
 10
762.9118018195
 20
52.0492837299
 30
0.0
 11
762.9118018195
 21
46.5492837299
 31
0.0
  0
LINE
  5
2BC
330
1F
100
AcDbEntity
  8
0
  6
Continuous
 62
     7
100
AcDbLine
 10
763.4118018195
 20
52.5492837299
 30
0.0
 11
762.9118018195
 21
52.0492837299
 31
0.0
  0
LINE
  5
2BD
330
1F
100
AcDbEntity
  8
0
  6
Continuous
 62
     7
100
AcDbLine
 10
711.4118018195
 20
58.7492837299
 30
0.0
 11
714.2517944286
 21
58.7492837299
 31
0.0
  0
ARC
  5
2BE
330
1F
100
AcDbEntity
  8
0
  6
Continuous
 62
     7
100
AcDbCircle
 10
714.2517944286
 20
60.2492837299
 30
0.0
 40
1.500000000000007
100
AcDbArc
 50
270.0
 51
332.4879973761
  0
LINE
  5
2BF
330
1F
100
AcDbEntity
  8
0
  6
Continuous
 62
     7
100
AcDbLine
 10
1212.5718092105
 20
58.7492837299
 30
0.0
 11
1215.4118018195
 21
58.7492837299
 31
0.0
  0
ARC
  5
2C0
330
1F
100
AcDbEntity
  8
0
  6
Continuous
 62
     7
100
AcDbCircle
 10
1212.5718092105
 20
60.2492837299
 30
0.0
 40
1.500000000000111
100
AcDbArc
 50
207.5120026238
 51
270.0
  0
LINE
  5
2C1
330
1F
100
AcDbEntity
  8
0
  6
Continuous
 62
     7
100
AcDbLine
 10
715.5821655548
 20
59.5563821017
 30
0.0
 11
716.2421729458
 21
60.8235962923
 31
0.0
  0
LINE
  5
2C2
330
1F
100
AcDbEntity
  8
0
  6
Continuous
 62
     7
100
AcDbLine
 10
1210.5814306933
 20
60.8235962923
 30
0.0
 11
1211.2414380843
 21
59.5563821017
 31
0.0
  0
ARC
  5
2C3
330
1F
100
AcDbEntity
  8
0
  6
Continuous
 62
     7
100
AcDbCircle
 10
714.9118018195
 20
61.5164979206
 30
0.0
 40
1.5
100
AcDbArc
 50
332.4879973761
 51
0.0
  0
ARC
  5
2C4
330
1F
100
AcDbEntity
  8
0
  6
Continuous
 62
     7
100
AcDbCircle
 10
1211.9118018195
 20
61.5164979206
 30
0.0
 40
1.500000000000227
100
AcDbArc
 50
180.0
 51
207.5120026239
  0
LINE
  5
2C5
330
1F
100
AcDbEntity
  8
0
  6
Continuous
 62
     7
100
AcDbLine
 10
702.2118018195
 20
62.1492837299
 30
0.0
 11
702.7118018195
 21
61.6492837299
 31
0.0
  0
LINE
  5
2C6
330
1F
100
AcDbEntity
  8
0
  6
Continuous
 62
     7
100
AcDbLine
 10
702.7118018195
 20
61.6492837299
 30
0.0
 11
709.4118018195
 21
61.6492837299
 31
0.0
  0
LINE
  5
2C7
330
1F
100
AcDbEntity
  8
0
  6
Continuous
 62
     7
100
AcDbLine
 10
1224.1118018195
 20
61.6492837299
 30
0.0
 11
1224.6118018195
 21
62.1492837299
 31
0.0
  0
LINE
  5
2C8
330
1F
100
AcDbEntity
  8
0
  6
Continuous
 62
     7
100
AcDbLine
 10
1217.4118018195
 20
61.6492837299
 30
0.0
 11
1224.1118018195
 21
61.6492837299
 31
0.0
  0
LINE
  5
2C9
330
1F
100
AcDbEntity
  8
0
  6
Continuous
 62
     7
100
AcDbLine
 10
724.9118018195
 20
46.5492837299
 30
0.0
 11
724.4118018195
 21
47.0492837299
 31
0.0
  0
LINE
  5
2CA
330
1F
100
AcDbEntity
  8
0
  6
Continuous
 62
     7
100
AcDbLine
 10
1202.4118018195
 20
47.0492837299
 30
0.0
 11
1201.9118018195
 21
46.5492837299
 31
0.0
  0
LINE
  5
2CB
330
1F
100
AcDbEntity
  8
0
  6
Continuous
 62
     7
100
AcDbLine
 10
1207.9118018195
 20
46.5492837299
 30
0.0
 11
1207.4118018195
 21
47.0492837299
 31
0.0
  0
LINE
  5
2CC
330
1F
100
AcDbEntity
  8
0
  6
Continuous
 62
     7
100
AcDbLine
 10
719.4118018195
 20
47.0492837299
 30
0.0
 11
718.9118018196
 21
46.5492837299
 31
0.0
  0
ARC
  5
2CD
330
1F
100
AcDbEntity
  8
0
  6
Continuous
 62
     7
100
AcDbCircle
 10
1212.5718092105
 20
69.0492837299
 30
0.0
 40
1.5
100
AcDbArc
 50
90.0
 51
152.4879973761
  0
LINE
  5
2CE
330
1F
100
AcDbEntity
  8
0
  6
Continuous
 62
     7
100
AcDbLine
 10
1215.4118018195
 20
70.5492837299
 30
0.0
 11
1212.5718092105
 21
70.5492837299
 31
0.0
  0
LINE
  5
2CF
330
1F
100
AcDbEntity
  8
0
  6
Continuous
 62
     7
100
AcDbLine
 10
1211.2414380843
 20
69.7421853582
 30
0.0
 11
1210.5814306933
 21
68.4749711675
 31
0.0
  0
ARC
  5
2D0
330
1F
100
AcDbEntity
  8
0
  6
Continuous
 62
     7
100
AcDbCircle
 10
1211.9118018195
 20
67.7820695393
 30
0.0
 40
1.500000000000227
100
AcDbArc
 50
152.4879973761
 51
180.0
  0
LINE
  5
2D1
330
1F
100
AcDbEntity
  8
0
  6
Continuous
 62
     7
100
AcDbLine
 10
1224.1118018195
 20
67.6492837299
 30
0.0
 11
1217.4118018195
 21
67.6492837299
 31
0.0
  0
LINE
  5
2D2
330
1F
100
AcDbEntity
  8
0
  6
Continuous
 62
     7
100
AcDbLine
 10
1224.6118018195
 20
67.1492837299
 30
0.0
 11
1224.1118018195
 21
67.6492837299
 31
0.0
  0
ARC
  5
2D3
330
1F
100
AcDbEntity
  8
0
  6
Continuous
 62
     7
100
AcDbCircle
 10
714.2517944286
 20
69.0492837299
 30
0.0
 40
1.5
100
AcDbArc
 50
27.5120026239
 51
90.0
  0
LINE
  5
2D4
330
1F
100
AcDbEntity
  8
0
  6
Continuous
 62
     7
100
AcDbLine
 10
714.2517944286
 20
70.5492837299
 30
0.0
 11
711.4118018195
 21
70.5492837299
 31
0.0
  0
LINE
  5
2D5
330
1F
100
AcDbEntity
  8
0
  6
Continuous
 62
     7
100
AcDbLine
 10
716.2421729458
 20
68.4749711675
 30
0.0
 11
715.5821655548
 21
69.7421853582
 31
0.0
  0
ARC
  5
2D6
330
1F
100
AcDbEntity
  8
0
  6
Continuous
 62
     7
100
AcDbCircle
 10
714.9118018195
 20
67.7820695393
 30
0.0
 40
1.5
100
AcDbArc
 50
0.0
 51
27.5120026239
  0
LINE
  5
2D7
330
1F
100
AcDbEntity
  8
0
  6
Continuous
 62
     7
100
AcDbLine
 10
702.7118018195
 20
67.6492837299
 30
0.0
 11
702.2118018195
 21
67.1492837299
 31
0.0
  0
LINE
  5
2D8
330
1F
100
AcDbEntity
  8
0
  6
Continuous
 62
     7
100
AcDbLine
 10
709.4118018195
 20
67.6492837299
 30
0.0
 11
702.7118018195
 21
67.6492837299
 31
0.0
  0
LINE
  5
2D9
330
1F
100
AcDbEntity
  8
0
  6
Continuous
 62
     7
100
AcDbLine
 10
689.4118018195
 20
46.5492837299
 30
0.0
 11
665.9118018195
 21
46.5492837299
 31
0.0
  0
ARC
  5
2DA
330
1F
100
AcDbEntity
  8
0
  6
Continuous
 62
     7
100
AcDbCircle
 10
689.4118018195
 20
43.5492837299
 30
0.0
 40
3.0
100
AcDbArc
 50
0.0
 51
90.0
  0
LINE
  5
2DB
330
1F
100
AcDbEntity
  8
0
  6
Continuous
 62
     7
100
AcDbLine
 10
692.4118018195
 20
43.5492837299
 30
0.0
 11
692.4118018195
 21
42.0492837299
 31
0.0
  0
ARC
  5
2DC
330
1F
100
AcDbEntity
  8
0
  6
Continuous
 62
     7
100
AcDbCircle
 10
695.4118018195
 20
42.0492837299
 30
0.0
 40
3.000000000000114
100
AcDbArc
 50
180.0
 51
270.0
  0
LINE
  5
2DD
330
1F
100
AcDbEntity
  8
0
  6
Continuous
 62
     7
100
AcDbLine
 10
695.4118018195
 20
39.0492837299
 30
0.0
 11
708.4118018195
 21
39.0492837299
 31
0.0
  0
ARC
  5
2DE
330
1F
100
AcDbEntity
  8
0
  6
Continuous
 62
     7
100
AcDbCircle
 10
708.4118018195
 20
42.0492837299
 30
0.0
 40
3.000000000000114
100
AcDbArc
 50
270.0
 51
0.0
  0
LINE
  5
2DF
330
1F
100
AcDbEntity
  8
0
  6
Continuous
 62
     7
100
AcDbLine
 10
711.4118018195
 20
42.0492837299
 30
0.0
 11
711.4118018195
 21
43.5492837299
 31
0.0
  0
ARC
  5
2E0
330
1F
100
AcDbEntity
  8
0
  6
Continuous
 62
     7
100
AcDbCircle
 10
714.4118018195
 20
43.5492837299
 30
0.0
 40
2.999999999999986
100
AcDbArc
 50
90.0
 51
180.0
  0
LINE
  5
2E1
330
1F
100
AcDbEntity
  8
0
  6
Continuous
 62
     7
100
AcDbLine
 10
1212.4118018195
 20
46.5492837299
 30
0.0
 11
714.4118018195
 21
46.5492837299
 31
0.0
  0
ARC
  5
2E2
330
1F
100
AcDbEntity
  8
0
  6
Continuous
 62
     7
100
AcDbCircle
 10
1212.4118018195
 20
43.5492837299
 30
0.0
 40
3.0
100
AcDbArc
 50
0.0
 51
90.0
  0
LINE
  5
2E3
330
1F
100
AcDbEntity
  8
0
  6
Continuous
 62
     7
100
AcDbLine
 10
1215.4118018195
 20
43.5492837299
 30
0.0
 11
1215.4118018195
 21
42.0492837299
 31
0.0
  0
ARC
  5
2E4
330
1F
100
AcDbEntity
  8
0
  6
Continuous
 62
     7
100
AcDbCircle
 10
1218.4118018195
 20
42.0492837299
 30
0.0
 40
3.000000000000007
100
AcDbArc
 50
180.0
 51
270.0
  0
LINE
  5
2E5
330
1F
100
AcDbEntity
  8
0
  6
Continuous
 62
     7
100
AcDbLine
 10
1218.4118018195
 20
39.0492837299
 30
0.0
 11
1231.4118018195
 21
39.0492837299
 31
0.0
  0
ARC
  5
2E6
330
1F
100
AcDbEntity
  8
0
  6
Continuous
 62
     7
100
AcDbCircle
 10
1231.4118018195
 20
42.0492837299
 30
0.0
 40
3.000000000000227
100
AcDbArc
 50
270.0
 51
0.0
  0
LINE
  5
2E7
330
1F
100
AcDbEntity
  8
0
  6
Continuous
 62
     7
100
AcDbLine
 10
1234.4118018195
 20
42.0492837299
 30
0.0
 11
1234.4118018195
 21
43.5492837299
 31
0.0
  0
ARC
  5
2E8
330
1F
100
AcDbEntity
  8
0
  6
Continuous
 62
     7
100
AcDbCircle
 10
1237.4118018195
 20
43.5492837299
 30
0.0
 40
3.0
100
AcDbArc
 50
90.0
 51
180.0
  0
LINE
  5
2E9
330
1F
100
AcDbEntity
  8
0
  6
Continuous
 62
     7
100
AcDbLine
 10
1260.9118018195
 20
46.5492837299
 30
0.0
 11
1237.4118018195
 21
46.5492837299
 31
0.0
  0
LINE
  5
2EA
330
1F
100
AcDbEntity
  8
0
  6
Continuous
 62
     7
100
AcDbLine
 10
665.9118018195
 20
34.0492837299
 30
0.0
 11
1260.9118018195
 21
34.0492837299
 31
0.0
  0
LINE
  5
2EB
330
1F
100
AcDbEntity
  8
0
  6
Continuous
 62
     7
100
AcDbLine
 10
665.9118018195
 20
34.0492837299
 30
0.0
 11
665.9118018195
 21
46.5492837299
 31
0.0
  0
LINE
  5
2EC
330
1F
100
AcDbEntity
  8
0
  6
Continuous
 62
     7
100
AcDbLine
 10
1260.9118018195
 20
34.0492837299
 30
0.0
 11
1260.9118018195
 21
46.5492837299
 31
0.0
  0
ARC
  5
2ED
330
1F
100
AcDbEntity
  8
0
  6
Continuous
 62
     7
100
AcDbCircle
 10
702.9118018195
 20
36.0492837299
 30
0.0
 40
6.000000000000007
100
AcDbArc
 50
90.0
 51
150.0
  0
ARC
  5
2EE
330
1F
100
AcDbEntity
  8
0
  6
Continuous
 62
     7
100
AcDbCircle
 10
1223.9118018195
 20
36.0492837299
 30
0.0
 40
6.0
100
AcDbArc
 50
30.0
 51
90.0
  0
LINE
  5
2EF
330
1F
100
AcDbEntity
  8
0
  6
Continuous
 62
     7
100
AcDbLine
 10
1028.2094836138
 20
33.5116493213
 30
0.0
 11
1028.2094836138
 21
34.0492837299
 31
0.0
  0
LINE
  5
2F0
330
1F
100
AcDbEntity
  8
0
  6
Continuous
 62
     7
100
AcDbLine
 10
1028.2094836138
 20
33.5116493213
 30
0.0
 11
1016.8852692498
 21
33.5116493213
 31
0.0
  0
ARC
  5
2F1
330
1F
100
AcDbEntity
  8
0
  6
Continuous
 62
     7
100
AcDbCircle
 10
1015.5209060734
 20
32.0492837299
 30
0.0
 40
2.000000000000155
100
AcDbArc
 50
46.9856438472
 51
90.0
  0
LINE
  5
2F2
330
1F
100
AcDbEntity
  8
0
  6
Continuous
 62
     7
100
AcDbLine
 10
1078.5336979779
 20
33.5116493213
 30
0.0
 11
1067.2094836138
 21
33.5116493213
 31
0.0
  0
LINE
  5
2F3
330
1F
100
AcDbEntity
  8
0
  6
Continuous
 62
     7
100
AcDbLine
 10
1067.2094836138
 20
33.5116493213
 30
0.0
 11
1067.2094836138
 21
34.0492837299
 31
0.0
  0
ARC
  5
2F4
330
1F
100
AcDbEntity
  8
0
  6
Continuous
 62
     7
100
AcDbCircle
 10
1079.8980611543
 20
32.0492837299
 30
0.0
 40
2.000000000000243
100
AcDbArc
 50
90.0
 51
133.0143561528
  0
LINE
  5
2F5
330
1F
100
AcDbEntity
  8
0
  6
Continuous
 62
     7
100
AcDbLine
 10
1108.2094836138
 20
33.5116493213
 30
0.0
 11
1108.2094836138
 21
34.0492837299
 31
0.0
  0
LINE
  5
2F6
330
1F
100
AcDbEntity
  8
0
  6
Continuous
 62
     7
100
AcDbLine
 10
1108.2094836138
 20
33.5116493213
 30
0.0
 11
1096.8852692498
 21
33.5116493213
 31
0.0
  0
ARC
  5
2F7
330
1F
100
AcDbEntity
  8
0
  6
Continuous
 62
     7
100
AcDbCircle
 10
1095.5209060734
 20
32.0492837299
 30
0.0
 40
2.000000000000077
100
AcDbArc
 50
46.9856438472
 51
90.0
  0
LINE
  5
2F8
330
1F
100
AcDbEntity
  8
0
  6
Continuous
 62
     7
100
AcDbLine
 10
1158.5336979779
 20
33.5116493213
 30
0.0
 11
1147.2094836138
 21
33.5116493213
 31
0.0
  0
LINE
  5
2F9
330
1F
100
AcDbEntity
  8
0
  6
Continuous
 62
     7
100
AcDbLine
 10
1147.2094836138
 20
33.5116493213
 30
0.0
 11
1147.2094836138
 21
34.0492837299
 31
0.0
  0
ARC
  5
2FA
330
1F
100
AcDbEntity
  8
0
  6
Continuous
 62
     7
100
AcDbCircle
 10
1159.8980611543
 20
32.0492837299
 30
0.0
 40
2.0
100
AcDbArc
 50
90.0
 51
133.0143561528
  0
LINE
  5
2FB
330
1F
100
AcDbEntity
  8
0
  6
Continuous
 62
     7
100
AcDbLine
 10
998.5336979779
 20
33.5116493213
 30
0.0
 11
987.2094836138
 21
33.5116493213
 31
0.0
  0
LINE
  5
2FC
330
1F
100
AcDbEntity
  8
0
  6
Continuous
 62
     7
100
AcDbLine
 10
987.2094836138
 20
33.5116493213
 30
0.0
 11
987.2094836138
 21
34.0492837299
 31
0.0
  0
ARC
  5
2FD
330
1F
100
AcDbEntity
  8
0
  6
Continuous
 62
     7
100
AcDbCircle
 10
999.8980611543
 20
32.0492837299
 30
0.0
 40
2.00000000000001
100
AcDbArc
 50
90.0
 51
133.0143561528
  0
LINE
  5
2FE
330
1F
100
AcDbEntity
  8
0
  6
Continuous
 62
     7
100
AcDbLine
 10
838.5336979779
 20
33.5116493213
 30
0.0
 11
827.2094836138
 21
33.5116493213
 31
0.0
  0
LINE
  5
2FF
330
1F
100
AcDbEntity
  8
0
  6
Continuous
 62
     7
100
AcDbLine
 10
827.2094836138
 20
33.5116493213
 30
0.0
 11
827.2094836138
 21
34.0492837299
 31
0.0
  0
ARC
  5
300
330
1F
100
AcDbEntity
  8
0
  6
Continuous
 62
     7
100
AcDbCircle
 10
839.8980611543
 20
32.0492837299
 30
0.0
 40
2.000000000000088
100
AcDbArc
 50
90.0
 51
133.0143561528
  0
LINE
  5
301
330
1F
100
AcDbEntity
  8
0
  6
Continuous
 62
     7
100
AcDbLine
 10
948.2094836138
 20
33.5116493213
 30
0.0
 11
948.2094836138
 21
34.0492837299
 31
0.0
  0
LINE
  5
302
330
1F
100
AcDbEntity
  8
0
  6
Continuous
 62
     7
100
AcDbLine
 10
948.2094836138
 20
33.5116493213
 30
0.0
 11
936.8852692498
 21
33.5116493213
 31
0.0
  0
ARC
  5
303
330
1F
100
AcDbEntity
  8
0
  6
Continuous
 62
     7
100
AcDbCircle
 10
935.5209060734
 20
32.0492837299
 30
0.0
 40
2.000000000000077
100
AcDbArc
 50
46.9856438472
 51
90.0
  0
LINE
  5
304
330
1F
100
AcDbEntity
  8
0
  6
Continuous
 62
     7
100
AcDbLine
 10
987.2094836138
 20
33.5116493213
 30
0.0
 11
948.2094836138
 21
33.5116493213
 31
0.0
  0
LINE
  5
305
330
1F
100
AcDbEntity
  8
0
  6
Continuous
 62
     7
100
AcDbLine
 10
1067.2094836138
 20
33.5116493213
 30
0.0
 11
1028.2094836138
 21
33.5116493213
 31
0.0
  0
LINE
  5
306
330
1F
100
AcDbEntity
  8
0
  6
Continuous
 62
     7
100
AcDbLine
 10
918.5336979779
 20
33.5116493213
 30
0.0
 11
907.2094836138
 21
33.5116493213
 31
0.0
  0
LINE
  5
307
330
1F
100
AcDbEntity
  8
0
  6
Continuous
 62
     7
100
AcDbLine
 10
907.2094836138
 20
33.5116493213
 30
0.0
 11
907.2094836138
 21
34.0492837299
 31
0.0
  0
ARC
  5
308
330
1F
100
AcDbEntity
  8
0
  6
Continuous
 62
     7
100
AcDbCircle
 10
919.8980611543
 20
32.0492837299
 30
0.0
 40
2.00000000000001
100
AcDbArc
 50
90.0
 51
133.0143561528
  0
LINE
  5
309
330
1F
100
AcDbEntity
  8
0
  6
Continuous
 62
     7
100
AcDbLine
 10
1147.2094836138
 20
33.5116493213
 30
0.0
 11
1108.2094836138
 21
33.5116493213
 31
0.0
  0
LINE
  5
30A
330
1F
100
AcDbEntity
  8
0
  6
Continuous
 62
     7
100
AcDbLine
 10
868.2094836138
 20
33.5116493213
 30
0.0
 11
868.2094836138
 21
34.0492837299
 31
0.0
  0
LINE
  5
30B
330
1F
100
AcDbEntity
  8
0
  6
Continuous
 62
     7
100
AcDbLine
 10
868.2094836138
 20
33.5116493213
 30
0.0
 11
856.8852692498
 21
33.5116493213
 31
0.0
  0
ARC
  5
30C
330
1F
100
AcDbEntity
  8
0
  6
Continuous
 62
     7
100
AcDbCircle
 10
855.5209060734
 20
32.0492837299
 30
0.0
 40
2.000000000000007
100
AcDbArc
 50
46.9856438472
 51
90.0
  0
LINE
  5
30D
330
1F
100
AcDbEntity
  8
0
  6
Continuous
 62
     7
100
AcDbLine
 10
788.2094836138
 20
33.5116493213
 30
0.0
 11
788.2094836138
 21
34.0492837299
 31
0.0
  0
LINE
  5
30E
330
1F
100
AcDbEntity
  8
0
  6
Continuous
 62
     7
100
AcDbLine
 10
788.2094836138
 20
33.5116493213
 30
0.0
 11
776.8852692498
 21
33.5116493213
 31
0.0
  0
ARC
  5
30F
330
1F
100
AcDbEntity
  8
0
  6
Continuous
 62
     7
100
AcDbCircle
 10
775.5209060734
 20
32.0492837299
 30
0.0
 40
2.0
100
AcDbArc
 50
46.9856438472
 51
90.0
  0
LINE
  5
310
330
1F
100
AcDbEntity
  8
0
  6
Continuous
 62
     7
100
AcDbLine
 10
907.2094836138
 20
33.5116493213
 30
0.0
 11
868.2094836138
 21
33.5116493213
 31
0.0
  0
LINE
  5
311
330
1F
100
AcDbEntity
  8
0
  6
Continuous
 62
     7
100
AcDbLine
 10
827.2094836138
 20
33.5116493213
 30
0.0
 11
788.2094836138
 21
33.5116493213
 31
0.0
  0
ARC
  5
312
330
1F
100
AcDbEntity
  8
0
  6
Continuous
 62
     7
100
AcDbCircle
 10
868.2094836138
 20
45.6492837299
 30
0.0
 40
16.6
100
AcDbArc
 50
226.9856438472
 51
270.0
  0
LINE
  5
313
330
1F
100
AcDbEntity
  8
0
  6
Continuous
 62
     7
100
AcDbLine
 10
868.2094836138
 20
29.0492837299
 30
0.0
 11
868.2094836138
 21
33.5116493213
 31
0.0
  0
ARC
  5
314
330
1F
100
AcDbEntity
  8
0
  6
Continuous
 62
     7
100
AcDbCircle
 10
948.2094836138
 20
45.6492837299
 30
0.0
 40
16.6
100
AcDbArc
 50
226.9856438472
 51
270.0
  0
LINE
  5
315
330
1F
100
AcDbEntity
  8
0
  6
Continuous
 62
     7
100
AcDbLine
 10
948.2094836138
 20
29.0492837299
 30
0.0
 11
948.2094836138
 21
33.5116493213
 31
0.0
  0
ARC
  5
316
330
1F
100
AcDbEntity
  8
0
  6
Continuous
 62
     7
100
AcDbCircle
 10
788.2094836138
 20
45.6492837299
 30
0.0
 40
16.59999999999999
100
AcDbArc
 50
226.9856438472
 51
270.0
  0
LINE
  5
317
330
1F
100
AcDbEntity
  8
0
  6
Continuous
 62
     7
100
AcDbLine
 10
788.2094836138
 20
29.0492837299
 30
0.0
 11
788.2094836138
 21
33.5116493213
 31
0.0
  0
LINE
  5
318
330
1F
100
AcDbEntity
  8
0
  6
Continuous
 62
     7
100
AcDbLine
 10
907.2094836138
 20
33.5116493213
 30
0.0
 11
907.2094836138
 21
29.0492837299
 31
0.0
  0
ARC
  5
319
330
1F
100
AcDbEntity
  8
0
  6
Continuous
 62
     7
100
AcDbCircle
 10
907.2094836138
 20
45.6492837299
 30
0.0
 40
16.60000000000002
100
AcDbArc
 50
270.0
 51
313.0143561528
  0
LINE
  5
31A
330
1F
100
AcDbEntity
  8
0
  6
Continuous
 62
     7
100
AcDbLine
 10
1028.2094836138
 20
29.0492837299
 30
0.0
 11
1067.2094836138
 21
29.0492837299
 31
0.0
  0
LINE
  5
31B
330
1F
100
AcDbEntity
  8
0
  6
Continuous
 62
     7
100
AcDbLine
 10
1028.2094836138
 20
29.0492837299
 30
0.0
 11
1028.2094836138
 21
33.5116493213
 31
0.0
  0
LINE
  5
31C
330
1F
100
AcDbEntity
  8
0
  6
Continuous
 62
     7
100
AcDbLine
 10
1067.2094836138
 20
33.5116493213
 30
0.0
 11
1067.2094836138
 21
29.0492837299
 31
0.0
  0
ARC
  5
31D
330
1F
100
AcDbEntity
  8
0
  6
Continuous
 62
     7
100
AcDbCircle
 10
1028.2094836138
 20
45.6492837299
 30
0.0
 40
16.59999999999999
100
AcDbArc
 50
226.9856438472
 51
270.0
  0
LINE
  5
31E
330
1F
100
AcDbEntity
  8
0
  6
Continuous
 62
     7
100
AcDbLine
 10
1108.2094836138
 20
29.0492837299
 30
0.0
 11
1147.2094836138
 21
29.0492837299
 31
0.0
  0
LINE
  5
31F
330
1F
100
AcDbEntity
  8
0
  6
Continuous
 62
     7
100
AcDbLine
 10
1108.2094836138
 20
29.0492837299
 30
0.0
 11
1108.2094836138
 21
33.5116493213
 31
0.0
  0
LINE
  5
320
330
1F
100
AcDbEntity
  8
0
  6
Continuous
 62
     7
100
AcDbLine
 10
1147.2094836138
 20
33.5116493213
 30
0.0
 11
1147.2094836138
 21
29.0492837299
 31
0.0
  0
ARC
  5
321
330
1F
100
AcDbEntity
  8
0
  6
Continuous
 62
     7
100
AcDbCircle
 10
1147.2094836138
 20
45.6492837299
 30
0.0
 40
16.60000000000002
100
AcDbArc
 50
270.0
 51
313.0143561528
  0
LINE
  5
322
330
1F
100
AcDbEntity
  8
0
  6
Continuous
 62
     7
100
AcDbLine
 10
827.2094836138
 20
33.5116493213
 30
0.0
 11
827.2094836138
 21
29.0492837299
 31
0.0
  0
ARC
  5
323
330
1F
100
AcDbEntity
  8
0
  6
Continuous
 62
     7
100
AcDbCircle
 10
827.2094836138
 20
45.6492837299
 30
0.0
 40
16.59999999999999
100
AcDbArc
 50
270.0
 51
313.0143561528
  0
LINE
  5
324
330
1F
100
AcDbEntity
  8
0
  6
Continuous
 62
     7
100
AcDbLine
 10
987.2094836138
 20
33.5116493213
 30
0.0
 11
987.2094836138
 21
29.0492837299
 31
0.0
  0
ARC
  5
325
330
1F
100
AcDbEntity
  8
0
  6
Continuous
 62
     7
100
AcDbCircle
 10
987.2094836138
 20
45.6492837299
 30
0.0
 40
16.60000000000003
100
AcDbArc
 50
270.0
 51
313.0143561528
  0
ARC
  5
326
330
1F
100
AcDbEntity
  8
0
  6
Continuous
 62
     7
100
AcDbCircle
 10
1067.2094836138
 20
45.6492837299
 30
0.0
 40
16.60000000000001
100
AcDbArc
 50
270.0
 51
313.0143561528
  0
ARC
  5
327
330
1F
100
AcDbEntity
  8
0
  6
Continuous
 62
     7
100
AcDbCircle
 10
1108.2094836138
 20
45.6492837299
 30
0.0
 40
16.6
100
AcDbArc
 50
226.9856438472
 51
270.0
  0
LINE
  5
328
330
1F
100
AcDbEntity
  8
0
  6
Continuous
 62
     7
100
AcDbLine
 10
948.2094836138
 20
29.0492837299
 30
0.0
 11
987.2094836138
 21
29.0492837299
 31
0.0
  0
LINE
  5
329
330
1F
100
AcDbEntity
  8
0
  6
Continuous
 62
     7
100
AcDbLine
 10
868.2094836138
 20
29.0492837299
 30
0.0
 11
907.2094836138
 21
29.0492837299
 31
0.0
  0
LINE
  5
32A
330
1F
100
AcDbEntity
  8
0
  6
Continuous
 62
     7
100
AcDbLine
 10
788.2094836138
 20
29.0492837299
 30
0.0
 11
827.2094836138
 21
29.0492837299
 31
0.0
  0
LINE
  5
32B
330
1F
100
AcDbEntity
  8
0
  6
Continuous
 62
     7
100
AcDbLine
 10
768.9118018195
 20
52.0492837299
 30
0.0
 11
765.41595697
 21
52.0492837299
 31
0.0
  0
LINE
  5
32C
330
1F
100
AcDbEntity
  8
0
  6
Continuous
 62
     7
100
AcDbLine
 10
765.4985977783
 20
52.5492837299
 30
0.0
 11
765.41595697
 21
52.0492837299
 31
0.0
  0
LINE
  5
32D
330
1F
100
AcDbEntity
  8
0
  6
Continuous
 62
     7
100
AcDbLine
 10
765.4985977783
 20
52.5492837299
 30
0.0
 11
768.4118018195
 21
52.5492837299
 31
0.0
  0
LINE
  5
32E
330
1F
100
AcDbEntity
  8
0
  6
Continuous
 62
     7
100
AcDbLine
 10
765.41595697
 20
52.0492837299
 30
0.0
 11
762.9118018195
 21
52.0492837299
 31
0.0
  0
LINE
  5
32F
330
1F
100
AcDbEntity
  8
0
  6
Continuous
 62
     7
100
AcDbLine
 10
763.4118018195
 20
52.5492837299
 30
0.0
 11
765.4985977783
 21
52.5492837299
 31
0.0
  0
LINE
  5
330
330
1F
100
AcDbEntity
  8
0
  6
Continuous
 62
     7
100
AcDbLine
 10
709.4118018195
 20
72.5492837299
 30
0.0
 11
711.4118018195
 21
72.5492837299
 31
0.0
  0
LINE
  5
331
330
1F
100
AcDbEntity
  8
0
  6
Continuous
 62
     7
100
AcDbLine
 10
711.4118018195
 20
72.5492837299
 30
0.0
 11
711.4118018195
 21
70.5492837299
 31
0.0
  0
LINE
  5
332
330
1F
100
AcDbEntity
  8
0
  6
Continuous
 62
     7
100
AcDbLine
 10
711.4118018195
 20
70.5492837299
 30
0.0
 11
709.4118018195
 21
70.5492837299
 31
0.0
  0
LINE
  5
333
330
1F
100
AcDbEntity
  8
0
  6
Continuous
 62
     7
100
AcDbLine
 10
709.4118018195
 20
70.5492837299
 30
0.0
 11
709.4118018195
 21
72.5492837299
 31
0.0
  0
LINE
  5
334
330
1F
100
AcDbEntity
  8
0
  6
Continuous
 62
     7
100
AcDbLine
 10
1217.4118018195
 20
70.5492837299
 30
0.0
 11
1215.4118018195
 21
70.5492837299
 31
0.0
  0
LINE
  5
335
330
1F
100
AcDbEntity
  8
0
  6
Continuous
 62
     7
100
AcDbLine
 10
1215.4118018195
 20
70.5492837299
 30
0.0
 11
1215.4118018195
 21
72.5492837299
 31
0.0
  0
LINE
  5
336
330
1F
100
AcDbEntity
  8
0
  6
Continuous
 62
     7
100
AcDbLine
 10
1215.4118018195
 20
72.5492837299
 30
0.0
 11
1217.4118018195
 21
72.5492837299
 31
0.0
  0
LINE
  5
337
330
1F
100
AcDbEntity
  8
0
  6
Continuous
 62
     7
100
AcDbLine
 10
1217.4118018195
 20
72.5492837299
 30
0.0
 11
1217.4118018195
 21
70.5492837299
 31
0.0
  0
LINE
  5
338
330
1F
100
AcDbEntity
  8
0
  6
Continuous
 62
     7
100
AcDbLine
 10
709.4118018195
 20
42.0492837299
 30
0.0
 11
709.4118018195
 21
70.5492837299
 31
0.0
  0
LINE
  5
339
330
1F
100
AcDbEntity
  8
0
  6
Continuous
 62
     7
100
AcDbLine
 10
711.4118018195
 20
43.5492837299
 30
0.0
 11
711.4118018195
 21
70.5492837299
 31
0.0
  0
LINE
  5
33A
330
1F
100
AcDbEntity
  8
0
  6
Continuous
 62
     7
100
AcDbLine
 10
1215.4118018195
 20
70.5492837299
 30
0.0
 11
1215.4118018195
 21
43.5492837299
 31
0.0
  0
LINE
  5
33B
330
1F
100
AcDbEntity
  8
0
  6
Continuous
 62
     7
100
AcDbLine
 10
1217.4118018195
 20
70.5492837299
 30
0.0
 11
1217.4118018195
 21
42.0492837299
 31
0.0
  0
LINE
  5
33C
330
1F
100
AcDbEntity
  8
0
  6
Continuous
 62
     7
100
AcDbLine
 10
714.2517944286
 20
70.5421948945
 30
0.0
 11
711.4118018195
 21
70.5421948945
 31
0.0
  0
ARC
  5
33D
330
1F
100
AcDbEntity
  8
0
  6
Continuous
 62
     7
100
AcDbCircle
 10
714.2521722403
 20
69.0419843008
 30
0.0
 40
1.500210641247755
100
AcDbArc
 50
27.5586488616
 51
90.0144293185
  0
LINE
  5
33E
330
1F
100
AcDbEntity
  8
0
  6
Continuous
 62
     7
100
AcDbLine
 10
1212.5718092105
 20
70.4795992062
 30
0.0
 11
1215.4118018195
 21
70.4795992062
 31
0.0
  0
ARC
  5
33F
330
1F
100
AcDbEntity
  8
0
  6
Continuous
 62
     7
100
AcDbCircle
 10
1212.5681149669
 20
68.977422752
 30
0.0
 40
1.502180996727893
100
AcDbArc
 50
89.8590950211
 51
152.0268050375
  0
LINE
  5
340
330
1F
100
AcDbEntity
  8
0
  6
Continuous
 62
     7
100
AcDbLine
 10
716.2421729458
 20
68.4703746135
 30
0.0
 11
715.5821655548
 21
69.7360662494
 31
0.0
  0
LINE
  5
341
330
1F
100
AcDbEntity
  8
0
  6
Continuous
 62
     7
100
AcDbLine
 10
1210.5814306933
 20
68.4297862172
 30
0.0
 11
1211.2414380843
 21
69.6820334218
 31
0.0
  0
ARC
  5
342
330
1F
100
AcDbEntity
  8
0
  6
Continuous
 62
     7
100
AcDbCircle
 10
714.9150453528
 20
67.7782674873
 30
0.0
 40
1.496756467233359
100
AcDbArc
 50
0.001455309
 51
27.5423833083
  0
LINE
  5
343
330
1F
100
AcDbEntity
  8
0
  6
Continuous
 62
     7
100
AcDbLine
 10
716.4118018195
 20
61.5164979206
 30
0.0
 11
716.4118018195
 21
67.7783055048
 31
0.0
  0
ARC
  5
344
330
1F
100
AcDbEntity
  8
0
  6
Continuous
 62
     7
100
AcDbCircle
 10
1211.8800865462
 20
67.7446926795
 30
0.0
 40
1.468284774730673
100
AcDbArc
 50
152.1865385126
 51
179.9853383093
  0
LINE
  5
345
330
1F
100
AcDbEntity
  8
0
  6
Continuous
 62
     7
100
AcDbLine
 10
1210.4118018195
 20
67.7450684059
 30
0.0
 11
1210.4118018195
 21
61.5164979206
 31
0.0
  0
LINE
  5
346
330
1F
100
AcDbEntity
  8
0
  6
Continuous
 62
     7
100
AcDbLine
 10
702.7118018195
 20
61.6492837299
 30
0.0
 11
702.7118018195
 21
67.6456792373
 31
0.0
  0
LINE
  5
347
330
1F
100
AcDbEntity
  8
0
  6
Continuous
 62
     7
100
AcDbLine
 10
702.2118018195
 20
62.1492837299
 30
0.0
 11
702.2118018195
 21
67.1462799861
 31
0.0
  0
LINE
  5
348
330
1F
100
AcDbEntity
  8
0
  6
Continuous
 62
     7
100
AcDbLine
 10
702.2118018195
 20
67.1462799861
 30
0.0
 11
702.7118018195
 21
67.6456792373
 31
0.0
  0
LINE
  5
349
330
1F
100
AcDbEntity
  8
0
  6
Continuous
 62
     7
100
AcDbLine
 10
1224.1118018195
 20
67.6138509212
 30
0.0
 11
1224.1118018195
 21
61.6492837299
 31
0.0
  0
LINE
  5
34A
330
1F
100
AcDbEntity
  8
0
  6
Continuous
 62
     7
100
AcDbLine
 10
1224.6118018195
 20
67.1197563893
 30
0.0
 11
1224.1118018195
 21
67.6138509212
 31
0.0
  0
LINE
  5
34B
330
1F
100
AcDbEntity
  8
0
  6
Continuous
 62
     7
100
AcDbLine
 10
1224.6118018195
 20
67.1197563893
 30
0.0
 11
1224.6118018195
 21
62.1492837299
 31
0.0
  0
LINE
  5
34C
330
1F
100
AcDbEntity
  8
0
  6
Continuous
 62
     7
100
AcDbLine
 10
720.2835542069
 20
47.0492837299
 30
0.0
 11
719.9579046844
 21
46.5492837299
 31
0.0
  0
LINE
  5
34D
330
1F
100
AcDbEntity
  8
0
  6
Continuous
 62
     7
100
AcDbLine
 10
720.2835542069
 20
47.0492837299
 30
0.0
 11
724.4118018195
 21
47.0492837299
 31
0.0
  0
LINE
  5
34E
330
1F
100
AcDbEntity
  8
0
  6
Continuous
 62
     7
100
AcDbLine
 10
1206.5400494322
 20
47.0492837299
 30
0.0
 11
1206.8656989547
 21
46.5492837299
 31
0.0
  0
LINE
  5
34F
330
1F
100
AcDbEntity
  8
0
  6
Continuous
 62
     7
100
AcDbLine
 10
1202.4118018195
 20
47.0492837299
 30
0.0
 11
1206.5400494322
 21
47.0492837299
 31
0.0
  0
LINE
  5
350
330
1F
100
AcDbEntity
  8
0
  6
Continuous
 62
     7
100
AcDbLine
 10
1206.5400494322
 20
47.0492837299
 30
0.0
 11
1207.4118018195
 21
47.0492837299
 31
0.0
  0
LINE
  5
351
330
1F
100
AcDbEntity
  8
0
  6
Continuous
 62
     7
100
AcDbLine
 10
719.4118018195
 20
47.0492837299
 30
0.0
 11
720.2835542069
 21
47.0492837299
 31
0.0
  0
LINE
  5
352
330
1F
100
AcDbEntity
  8
0
  6
Continuous
 62
     7
100
AcDbLine
 10
1210.4118018195
 20
67.7820695393
 30
0.0
 11
1210.4118018195
 21
67.7450684059
 31
0.0
  0
LINE
  5
353
330
1F
100
AcDbEntity
  8
0
  6
Continuous
 62
     7
100
AcDbLine
 10
1224.1118018195
 20
67.6492837299
 30
0.0
 11
1224.1118018195
 21
67.6138509212
 31
0.0
  0
LINE
  5
354
330
1F
100
AcDbEntity
  8
0
  6
Continuous
 62
     7
100
AcDbLine
 10
1224.6118018195
 20
67.1492837299
 30
0.0
 11
1224.6118018195
 21
67.1197563893
 31
0.0
  0
LINE
  5
355
330
1F
100
AcDbEntity
  8
0
  6
Continuous
 62
     7
100
AcDbLine
 10
702.7118018195
 20
67.6456792373
 30
0.0
 11
702.7118018195
 21
67.6492837299
 31
0.0
  0
LINE
  5
356
330
1F
100
AcDbEntity
  8
0
  6
Continuous
 62
     7
100
AcDbLine
 10
702.2118018195
 20
67.1462799861
 30
0.0
 11
702.2118018195
 21
67.1492837299
 31
0.0
  0
LINE
  5
357
330
1F
100
AcDbEntity
  8
0
  6
Continuous
 62
     7
100
AcDbLine
 10
1217.4721091988
 20
56.5492837299
 30
0.0
 11
1217.4118018195
 21
56.5492837299
 31
0.0
  0
LINE
  5
358
330
1F
100
AcDbEntity
  8
0
  6
Continuous
 62
     7
100
AcDbLine
 10
1217.4721091988
 20
72.5492837299
 30
0.0
 11
1219.3433079211
 21
72.5492837299
 31
0.0
  0
LWPOLYLINE
  5
359
330
1F
100
AcDbEntity
  8
0
  6
Continuous
 62
     7
100
AcDbPolyline
 90
        9
 70
   128
 43
0.0
 10
1220.0273482077
 20
70.5492837299
 10
1220.0142045654
 20
70.9394643739
 10
1219.9752787413
 20
71.3146505946
 10
1219.912066633
 20
71.660424196
 10
1219.8269974464
 20
71.9634972923
 10
1219.7233403425
 20
72.2122229545
 10
1219.6050788058
 20
72.3970427949
 10
1219.4767575609
 20
72.5108542907
 10
1219.3433079211
 20
72.5492837299
  0
LINE
  5
35A
330
1F
100
AcDbEntity
  8
0
  6
Continuous
 62
     7
100
AcDbLine
 10
1220.0273482077
 20
70.5492837299
 30
0.0
 11
1220.0273482077
 21
67.6492837299
 31
0.0
  0
LINE
  5
35B
330
1F
100
AcDbEntity
  8
0
  6
Continuous
 62
     7
100
AcDbLine
 10
1220.0273482077
 20
61.6492837299
 30
0.0
 11
1220.0273482077
 21
58.5492837299
 31
0.0
  0
LWPOLYLINE
  5
35C
330
1F
100
AcDbEntity
  8
0
  6
Continuous
 62
     7
100
AcDbPolyline
 90
        9
 70
   128
 43
0.0
 10
1219.3433079211
 20
56.5492837299
 10
1219.4767575609
 20
56.5877131691
 10
1219.6050788058
 20
56.7015246649
 10
1219.7233403425
 20
56.8863445053
 10
1219.8269974464
 20
57.1350701675
 10
1219.912066633
 20
57.4381432639
 10
1219.9752787413
 20
57.7839168652
 10
1220.0142045654
 20
58.1591030859
 10
1220.0273482077
 20
58.5492837299
  0
LINE
  5
35D
330
1F
100
AcDbEntity
  8
0
  6
Continuous
 62
     7
100
AcDbLine
 10
1219.3433079211
 20
56.5492837299
 30
0.0
 11
1217.4721091988
 21
56.5492837299
 31
0.0
  0
LINE
  5
35E
330
1F
100
AcDbEntity
  8
0
  6
Continuous
 62
     7
100
AcDbLine
 10
1217.4721091988
 20
72.5492837299
 30
0.0
 11
1217.4118018195
 21
72.5492837299
 31
0.0
  0
LWPOLYLINE
  5
35F
330
1F
100
AcDbEntity
  8
0
  6
Continuous
 62
     7
100
AcDbPolyline
 90
        9
 70
   128
 43
0.0
 10
707.480295718
 20
72.5492837299
 10
707.3468460782
 20
72.5108542907
 10
707.2185248332
 20
72.3970427949
 10
707.1002632966
 20
72.2122229545
 10
706.9966061927
 20
71.9634972923
 10
706.9115370061
 20
71.660424196
 10
706.8483248978
 20
71.3146505946
 10
706.8093990737
 20
70.939464374
 10
706.7962554314
 20
70.5492837299
  0
LINE
  5
360
330
1F
100
AcDbEntity
  8
0
  6
Continuous
 62
     7
100
AcDbLine
 10
707.480295718
 20
72.5492837299
 30
0.0
 11
709.3514944403
 21
72.5492837299
 31
0.0
  0
LINE
  5
361
330
1F
100
AcDbEntity
  8
0
  6
Continuous
 62
     7
100
AcDbLine
 10
709.3514944403
 20
56.5492837299
 30
0.0
 11
709.4118018195
 21
56.5492837299
 31
0.0
  0
LINE
  5
362
330
1F
100
AcDbEntity
  8
0
  6
Continuous
 62
     7
100
AcDbLine
 10
709.3514944403
 20
56.5492837299
 30
0.0
 11
707.480295718
 21
56.5492837299
 31
0.0
  0
LWPOLYLINE
  5
363
330
1F
100
AcDbEntity
  8
0
  6
Continuous
 62
     7
100
AcDbPolyline
 90
        9
 70
   128
 43
0.0
 10
706.7962554314
 20
58.5492837299
 10
706.8093990737
 20
58.1591030859
 10
706.8483248978
 20
57.7839168652
 10
706.9115370061
 20
57.4381432639
 10
706.9966061927
 20
57.1350701675
 10
707.1002632966
 20
56.8863445053
 10
707.2185248332
 20
56.7015246649
 10
707.3468460782
 20
56.5877131691
 10
707.480295718
 20
56.5492837299
  0
LINE
  5
364
330
1F
100
AcDbEntity
  8
0
  6
Continuous
 62
     7
100
AcDbLine
 10
706.7962554314
 20
58.5492837299
 30
0.0
 11
706.7962554314
 21
61.6492837299
 31
0.0
  0
LINE
  5
365
330
1F
100
AcDbEntity
  8
0
  6
Continuous
 62
     7
100
AcDbLine
 10
706.7962554314
 20
67.6492837299
 30
0.0
 11
706.7962554314
 21
70.5492837299
 31
0.0
  0
LINE
  5
366
330
1F
100
AcDbEntity
  8
0
  6
Continuous
 62
     7
100
AcDbLine
 10
709.3514944403
 20
72.5492837299
 30
0.0
 11
709.4118018195
 21
72.5492837299
 31
0.0
  0
LINE
  5
367
330
1F
100
AcDbEntity
  8
0
  6
Continuous
 62
     7
100
AcDbLine
 10
710.9118018195
 20
42.0492837299
 30
0.0
 11
710.9118018195
 21
40.3909713347
 31
0.0
  0
LINE
  5
368
330
1F
100
AcDbEntity
  8
0
  6
Continuous
 62
     7
100
AcDbLine
 10
1215.9118018195
 20
42.0492837299
 30
0.0
 11
1215.9118018195
 21
40.3909713347
 31
0.0
  0
LINE
  5
369
330
1F
100
AcDbEntity
  8
0
  6
Continuous
 62
     7
100
AcDbLine
 10
765.41595697
 20
52.0492837299
 30
0.0
 11
765.41595697
 21
46.5492837299
 31
0.0
  0
LINE
  5
36A
330
1F
100
AcDbEntity
  8
0
  6
Continuous
 62
     7
100
AcDbLine
 10
714.2517944286
 20
58.7492837299
 30
0.0
 11
714.2517944286
 21
70.5421948945
 31
0.0
  0
LINE
  5
36B
330
1F
100
AcDbEntity
  8
0
  6
Continuous
 62
     7
100
AcDbLine
 10
715.5821655548
 20
59.5563821017
 30
0.0
 11
715.5821655548
 21
69.7360662494
 31
0.0
  0
LINE
  5
36C
330
1F
100
AcDbEntity
  8
0
  6
Continuous
 62
     7
100
AcDbLine
 10
1212.5718092105
 20
70.4795992062
 30
0.0
 11
1212.5718092105
 21
58.7492837299
 31
0.0
  0
LINE
  5
36D
330
1F
100
AcDbEntity
  8
0
  6
Continuous
 62
     7
100
AcDbLine
 10
1211.2414380843
 20
69.6820334218
 30
0.0
 11
1211.2414380843
 21
59.5563821017
 31
0.0
  0
LINE
  5
36E
330
1F
100
AcDbEntity
  8
0
  6
Continuous
 62
     7
100
AcDbLine
 10
716.2421729458
 20
60.8235962923
 30
0.0
 11
716.2421729458
 21
68.4703746135
 31
0.0
  0
LINE
  5
36F
330
1F
100
AcDbEntity
  8
0
  6
Continuous
 62
     7
100
AcDbLine
 10
1210.5814306933
 20
68.4297862172
 30
0.0
 11
1210.5814306933
 21
60.8235962923
 31
0.0
  0
LINE
  5
370
330
1F
100
AcDbEntity
  8
0
  6
Continuous
 62
     7
100
AcDbLine
 10
702.7118018195
 20
67.6456792373
 30
0.0
 11
709.4118018195
 21
67.6456792373
 31
0.0
  0
LINE
  5
371
330
1F
100
AcDbEntity
  8
0
  6
Continuous
 62
     7
100
AcDbLine
 10
1224.1118018195
 20
67.6138509212
 30
0.0
 11
1217.4118018195
 21
67.6138509212
 31
0.0
  0
LINE
  5
372
330
1F
100
AcDbEntity
  8
0
  6
Continuous
 62
     7
100
AcDbLine
 10
1212.5718092105
 20
70.5492837299
 30
0.0
 11
1212.5718092105
 21
70.4795992062
 31
0.0
  0
LINE
  5
373
330
1F
100
AcDbEntity
  8
0
  6
Continuous
 62
     7
100
AcDbLine
 10
1211.2414380843
 20
69.7421853582
 30
0.0
 11
1211.2414380843
 21
69.6820334218
 31
0.0
  0
LINE
  5
374
330
1F
100
AcDbEntity
  8
0
  6
Continuous
 62
     7
100
AcDbLine
 10
1210.5814306933
 20
68.4749711675
 30
0.0
 11
1210.5814306933
 21
68.4297862172
 31
0.0
  0
LINE
  5
375
330
1F
100
AcDbEntity
  8
0
  6
Continuous
 62
     7
100
AcDbLine
 10
714.2517944286
 20
70.5421948945
 30
0.0
 11
714.2517944286
 21
70.5492837299
 31
0.0
  0
LINE
  5
376
330
1F
100
AcDbEntity
  8
0
  6
Continuous
 62
     7
100
AcDbLine
 10
715.5821655548
 20
69.7360662494
 30
0.0
 11
715.5821655548
 21
69.7421853582
 31
0.0
  0
LINE
  5
377
330
1F
100
AcDbEntity
  8
0
  6
Continuous
 62
     7
100
AcDbLine
 10
716.2421729458
 20
68.4703746135
 30
0.0
 11
716.2421729458
 21
68.4749711675
 31
0.0
  0
LINE
  5
378
330
1F
100
AcDbEntity
  8
0
  6
Continuous
 62
     7
100
AcDbLine
 10
1407.4415168852
 20
143.810901597
 30
0.0
 11
1410.2815094943
 21
143.810901597
 31
0.0
  0
ARC
  5
379
330
1F
100
AcDbEntity
  8
0
  6
Continuous
 62
     7
100
AcDbCircle
 10
1410.2815094943
 20
145.310901597
 30
0.0
 40
1.5
100
AcDbArc
 50
270.0
 51
332.4879973761
  0
ARC
  5
37A
330
1F
100
AcDbEntity
  8
0
  6
Continuous
 62
     7
100
AcDbCircle
 10
1908.6015242762
 20
145.310901597
 30
0.0
 40
1.500000000000011
100
AcDbArc
 50
207.5120026239
 51
270.0
  0
LINE
  5
37B
330
1F
100
AcDbEntity
  8
0
  6
Continuous
 62
     7
100
AcDbLine
 10
1908.6015242762
 20
143.810901597
 30
0.0
 11
1911.4415168852
 21
143.810901597
 31
0.0
  0
ARC
  5
37C
330
1F
100
AcDbEntity
  8
0
  6
Continuous
 62
     7
100
AcDbCircle
 10
1908.6015242762
 20
154.110901597
 30
0.0
 40
1.500000000000024
100
AcDbArc
 50
90.0
 51
152.4879973761
  0
LINE
  5
37D
330
1F
100
AcDbEntity
  8
0
  6
Continuous
 62
     7
100
AcDbLine
 10
1911.4415168852
 20
155.610901597
 30
0.0
 11
1908.6015242762
 21
155.610901597
 31
0.0
  0
ARC
  5
37E
330
1F
100
AcDbEntity
  8
0
  6
Continuous
 62
     7
100
AcDbCircle
 10
1410.2815094943
 20
154.110901597
 30
0.0
 40
1.5
100
AcDbArc
 50
27.5120026239
 51
90.0
  0
LINE
  5
37F
330
1F
100
AcDbEntity
  8
0
  6
Continuous
 62
     7
100
AcDbLine
 10
1410.2815094943
 20
155.610901597
 30
0.0
 11
1407.4415168852
 21
155.610901597
 31
0.0
  0
LINE
  5
380
330
1F
100
AcDbEntity
  8
0
  6
Continuous
 62
     7
100
AcDbLine
 10
1411.6118806205
 20
144.6179999687
 30
0.0
 11
1412.2718880115
 21
145.8852141594
 31
0.0
  0
LINE
  5
381
330
1F
100
AcDbEntity
  8
0
  6
Continuous
 62
     7
100
AcDbLine
 10
1906.611145759
 20
145.8852141594
 30
0.0
 11
1907.27115315
 21
144.6179999687
 31
0.0
  0
LINE
  5
382
330
1F
100
AcDbEntity
  8
0
  6
Continuous
 62
     7
100
AcDbLine
 10
1907.27115315
 20
154.8038032252
 30
0.0
 11
1906.611145759
 21
153.5365890346
 31
0.0
  0
LINE
  5
383
330
1F
100
AcDbEntity
  8
0
  6
Continuous
 62
     7
100
AcDbLine
 10
1412.2718880115
 20
153.5365890346
 30
0.0
 11
1411.6118806205
 21
154.8038032252
 31
0.0
  0
ARC
  5
384
330
1F
100
AcDbEntity
  8
0
  6
Continuous
 62
     7
100
AcDbCircle
 10
1410.9415168852
 20
146.5781157876
 30
0.0
 40
1.499999999999958
100
AcDbArc
 50
332.4879973761
 51
0.0
  0
ARC
  5
385
330
1F
100
AcDbEntity
  8
0
  6
Continuous
 62
     7
100
AcDbCircle
 10
1907.9415168852
 20
146.5781157876
 30
0.0
 40
1.500000000000011
100
AcDbArc
 50
180.0
 51
207.5120026239
  0
ARC
  5
386
330
1F
100
AcDbEntity
  8
0
  6
Continuous
 62
     7
100
AcDbCircle
 10
1907.9415168852
 20
152.8436874063
 30
0.0
 40
1.5
100
AcDbArc
 50
152.4879973761
 51
180.0
  0
ARC
  5
387
330
1F
100
AcDbEntity
  8
0
  6
Continuous
 62
     7
100
AcDbCircle
 10
1410.9415168852
 20
152.8436874063
 30
0.0
 40
1.499999999999958
100
AcDbArc
 50
0.0
 51
27.5120026239
  0
LINE
  5
388
330
1F
100
AcDbEntity
  8
0
  6
Continuous
 62
     7
100
AcDbLine
 10
1398.7415168852
 20
146.710901597
 30
0.0
 11
1405.4415168852
 21
146.710901597
 31
0.0
  0
LINE
  5
389
330
1F
100
AcDbEntity
  8
0
  6
Continuous
 62
     7
100
AcDbLine
 10
1398.2415168852
 20
147.210901597
 30
0.0
 11
1398.7415168852
 21
146.710901597
 31
0.0
  0
LINE
  5
38A
330
1F
100
AcDbEntity
  8
0
  6
Continuous
 62
     7
100
AcDbLine
 10
1913.4415168852
 20
146.710901597
 30
0.0
 11
1920.1415168852
 21
146.710901597
 31
0.0
  0
LINE
  5
38B
330
1F
100
AcDbEntity
  8
0
  6
Continuous
 62
     7
100
AcDbLine
 10
1920.1415168852
 20
146.710901597
 30
0.0
 11
1920.6415168852
 21
147.210901597
 31
0.0
  0
LINE
  5
38C
330
1F
100
AcDbEntity
  8
0
  6
Continuous
 62
     7
100
AcDbLine
 10
1920.1415168852
 20
152.710901597
 30
0.0
 11
1913.4415168852
 21
152.710901597
 31
0.0
  0
LINE
  5
38D
330
1F
100
AcDbEntity
  8
0
  6
Continuous
 62
     7
100
AcDbLine
 10
1920.6415168852
 20
152.210901597
 30
0.0
 11
1920.1415168852
 21
152.710901597
 31
0.0
  0
LINE
  5
38E
330
1F
100
AcDbEntity
  8
0
  6
Continuous
 62
     7
100
AcDbLine
 10
1405.4415168852
 20
152.710901597
 30
0.0
 11
1398.7415168852
 21
152.710901597
 31
0.0
  0
LINE
  5
38F
330
1F
100
AcDbEntity
  8
0
  6
Continuous
 62
     7
100
AcDbLine
 10
1398.7415168852
 20
152.710901597
 30
0.0
 11
1398.2415168852
 21
152.210901597
 31
0.0
  0
LINE
  5
390
330
1F
100
AcDbEntity
  8
0
  6
Continuous
 62
     7
100
AcDbLine
 10
1404.7053557386
 20
134.3407066693
 30
0.0
 11
1402.8259704971
 21
135.0247469559
 31
0.0
  0
LINE
  5
391
330
1F
100
AcDbEntity
  8
0
  6
Continuous
 62
     7
100
AcDbLine
 10
1403.5100107837
 20
136.9041321975
 30
0.0
 11
1405.3893960253
 21
136.2200919108
 31
0.0
  0
LINE
  5
392
330
1F
100
AcDbEntity
  8
0
  6
Continuous
 62
     7
100
AcDbLine
 10
1405.3893960253
 20
136.2200919108
 30
0.0
 11
1404.7053557386
 21
134.3407066693
 31
0.0
  0
LINE
  5
393
330
1F
100
AcDbEntity
  8
0
  6
Continuous
 62
     7
100
AcDbLine
 10
1402.8259704971
 20
135.0247469559
 30
0.0
 11
1403.5100107837
 21
136.9041321975
 31
0.0
  0
LINE
  5
394
330
1F
100
AcDbEntity
  8
0
  6
Continuous
 62
     7
100
AcDbLine
 10
1405.381209506
 20
142.0452084344
 30
0.0
 11
1407.2605947476
 21
141.3611681477
 31
0.0
  0
LINE
  5
395
330
1F
100
AcDbEntity
  8
0
  6
Continuous
 62
     7
100
AcDbLine
 10
1407.2605947476
 20
141.3611681477
 30
0.0
 11
1405.3893960253
 21
136.2200919108
 31
0.0
  0
LINE
  5
396
330
1F
100
AcDbEntity
  8
0
  6
Continuous
 62
     7
100
AcDbLine
 10
1405.381209506
 20
142.0452084344
 30
0.0
 11
1403.5100107837
 21
136.9041321975
 31
0.0
  0
LINE
  5
397
330
1F
100
AcDbEntity
  8
0
  6
Continuous
 62
     7
100
AcDbLine
 10
1405.4415168852
 20
157.210901597
 30
0.0
 11
1407.4415168852
 21
157.210901597
 31
0.0
  0
LINE
  5
398
330
1F
100
AcDbEntity
  8
0
  6
Continuous
 62
     7
100
AcDbLine
 10
1407.4415168852
 20
157.210901597
 30
0.0
 11
1407.4415168852
 21
155.210901597
 31
0.0
  0
LINE
  5
399
330
1F
100
AcDbEntity
  8
0
  6
Continuous
 62
     7
100
AcDbLine
 10
1407.4415168852
 20
155.210901597
 30
0.0
 11
1405.4415168852
 21
155.210901597
 31
0.0
  0
LINE
  5
39A
330
1F
100
AcDbEntity
  8
0
  6
Continuous
 62
     7
100
AcDbLine
 10
1405.4415168852
 20
155.210901597
 30
0.0
 11
1405.4415168852
 21
157.210901597
 31
0.0
  0
LINE
  5
39B
330
1F
100
AcDbEntity
  8
0
  6
Continuous
 62
     7
100
AcDbLine
 10
1405.4415168852
 20
142.3872285777
 30
0.0
 11
1407.4415168852
 21
142.3872285777
 31
0.0
  0
LINE
  5
39C
330
1F
100
AcDbEntity
  8
0
  6
Continuous
 62
     7
100
AcDbLine
 10
1407.4415168852
 20
142.3872285777
 30
0.0
 11
1407.4415168852
 21
155.210901597
 31
0.0
  0
LINE
  5
39D
330
1F
100
AcDbEntity
  8
0
  6
Continuous
 62
     7
100
AcDbLine
 10
1405.4415168852
 20
142.3872285777
 30
0.0
 11
1405.4415168852
 21
155.210901597
 31
0.0
  0
ARC
  5
39E
330
1F
100
AcDbEntity
  8
0
  6
Continuous
 62
     7
100
AcDbCircle
 10
1404.4415168852
 20
142.3872285777
 30
0.0
 40
3.000000000000227
100
AcDbArc
 50
340.0
 51
0.0
  0
LINE
  5
39F
330
1F
100
AcDbEntity
  8
0
  6
Continuous
 62
     7
100
AcDbLine
 10
1405.4415168852
 20
142.3872285777
 30
0.0
 11
1405.4415168852
 21
142.210901597
 31
0.0
  0
LINE
  5
3A0
330
1F
100
AcDbEntity
  8
0
  6
Continuous
 62
     7
100
AcDbLine
 10
1405.381209506
 20
142.0452084344
 30
0.0
 11
1405.4415168852
 21
142.210901597
 31
0.0
  0
LINE
  5
3A1
330
1F
100
AcDbEntity
  8
0
  6
Continuous
 62
     7
100
AcDbLine
 10
1913.5018242645
 20
142.0452084344
 30
0.0
 11
1911.6224390229
 21
141.3611681477
 31
0.0
  0
LINE
  5
3A2
330
1F
100
AcDbEntity
  8
0
  6
Continuous
 62
     7
100
AcDbLine
 10
1915.3730229868
 20
136.9041321975
 30
0.0
 11
1913.5018242645
 21
142.0452084344
 31
0.0
  0
LINE
  5
3A3
330
1F
100
AcDbEntity
  8
0
  6
Continuous
 62
     7
100
AcDbLine
 10
1913.4936377452
 20
136.2200919108
 30
0.0
 11
1915.3730229868
 21
136.9041321975
 31
0.0
  0
LINE
  5
3A4
330
1F
100
AcDbEntity
  8
0
  6
Continuous
 62
     7
100
AcDbLine
 10
1913.4936377452
 20
136.2200919108
 30
0.0
 11
1911.6224390229
 21
141.3611681477
 31
0.0
  0
LINE
  5
3A5
330
1F
100
AcDbEntity
  8
0
  6
Continuous
 62
     7
100
AcDbLine
 10
1913.4415168852
 20
155.210901597
 30
0.0
 11
1911.4415168852
 21
155.210901597
 31
0.0
  0
LINE
  5
3A6
330
1F
100
AcDbEntity
  8
0
  6
Continuous
 62
     7
100
AcDbLine
 10
1911.4415168852
 20
155.210901597
 30
0.0
 11
1911.4415168852
 21
157.210901597
 31
0.0
  0
LINE
  5
3A7
330
1F
100
AcDbEntity
  8
0
  6
Continuous
 62
     7
100
AcDbLine
 10
1911.4415168852
 20
157.210901597
 30
0.0
 11
1913.4415168852
 21
157.210901597
 31
0.0
  0
LINE
  5
3A8
330
1F
100
AcDbEntity
  8
0
  6
Continuous
 62
     7
100
AcDbLine
 10
1913.4415168852
 20
157.210901597
 30
0.0
 11
1913.4415168852
 21
155.210901597
 31
0.0
  0
LINE
  5
3A9
330
1F
100
AcDbEntity
  8
0
  6
Continuous
 62
     7
100
AcDbLine
 10
1913.4415168852
 20
142.3872285777
 30
0.0
 11
1911.4415168852
 21
142.3872285777
 31
0.0
  0
LINE
  5
3AA
330
1F
100
AcDbEntity
  8
0
  6
Continuous
 62
     7
100
AcDbLine
 10
1913.4415168852
 20
142.3872285777
 30
0.0
 11
1913.4415168852
 21
142.210901597
 31
0.0
  0
LINE
  5
3AB
330
1F
100
AcDbEntity
  8
0
  6
Continuous
 62
     7
100
AcDbLine
 10
1913.5018242645
 20
142.0452084344
 30
0.0
 11
1913.4415168852
 21
142.210901597
 31
0.0
  0
ARC
  5
3AC
330
1F
100
AcDbEntity
  8
0
  6
Continuous
 62
     7
100
AcDbCircle
 10
1914.4415168852
 20
142.3872285777
 30
0.0
 40
3.000000000000222
100
AcDbArc
 50
180.0
 51
200.0
  0
LINE
  5
3AD
330
1F
100
AcDbEntity
  8
0
  6
Continuous
 62
     7
100
AcDbLine
 10
1911.4415168852
 20
155.210901597
 30
0.0
 11
1911.4415168852
 21
142.3872285777
 31
0.0
  0
LINE
  5
3AE
330
1F
100
AcDbEntity
  8
0
  6
Continuous
 62
     7
100
AcDbLine
 10
1913.4415168852
 20
155.210901597
 30
0.0
 11
1913.4415168852
 21
142.3872285777
 31
0.0
  0
LINE
  5
3AF
330
1F
100
AcDbEntity
  8
0
  6
Continuous
 62
     7
100
AcDbLine
 10
1916.0570632734
 20
135.0247469559
 30
0.0
 11
1914.1776780319
 21
134.3407066693
 31
0.0
  0
LINE
  5
3B0
330
1F
100
AcDbEntity
  8
0
  6
Continuous
 62
     7
100
AcDbLine
 10
1915.3730229868
 20
136.9041321975
 30
0.0
 11
1916.0570632734
 21
135.0247469559
 31
0.0
  0
LINE
  5
3B1
330
1F
100
AcDbEntity
  8
0
  6
Continuous
 62
     7
100
AcDbLine
 10
1914.1776780319
 20
134.3407066693
 30
0.0
 11
1913.4936377452
 21
136.2200919108
 31
0.0
  0
LINE
  5
3B2
330
1F
100
AcDbEntity
  8
0
  6
Continuous
 62
     7
100
AcDbLine
 10
1410.2815094943
 20
150.6150152222
 30
0.0
 11
1407.4415168852
 21
150.6150152222
 31
0.0
  0
ARC
  5
3B3
330
1F
100
AcDbEntity
  8
0
  6
Continuous
 62
     7
100
AcDbCircle
 10
1410.4351351021
 20
145.0505256654
 30
0.0
 40
5.566609817051665
100
AcDbArc
 50
77.795968526
 51
91.5814323177
  0
ARC
  5
3B4
330
1F
100
AcDbEntity
  8
0
  6
Continuous
 62
     7
100
AcDbCircle
 10
1908.4445822365
 20
132.8851350946
 30
0.0
 40
17.11561925803578
100
AcDbArc
 50
89.4746177521
 51
93.931222944
  0
LINE
  5
3B5
330
1F
100
AcDbEntity
  8
0
  6
Continuous
 62
     7
100
AcDbLine
 10
1908.6015242762
 20
150.0000347958
 30
0.0
 11
1911.4415168852
 21
150.0000347958
 31
0.0
  0
LINE
  5
3B6
330
1F
100
AcDbEntity
  8
0
  6
Continuous
 62
     7
100
AcDbLine
 10
1412.2718880115
 20
150.2971484
 30
0.0
 11
1411.6118806205
 21
150.4913357925
 31
0.0
  0
LINE
  5
3B7
330
1F
100
AcDbEntity
  8
0
  6
Continuous
 62
     7
100
AcDbLine
 10
1906.611145759
 20
149.8983818082
 30
0.0
 11
1907.27115315
 21
149.9604824341
 31
0.0
  0
LWPOLYLINE
  5
3B8
330
1F
100
AcDbEntity
  8
0
  6
Continuous
 62
     7
100
AcDbPolyline
 90
        9
 70
   128
 43
0.0
 10
1412.4415168852
 20
150.1909684334
 10
1412.4388157269
 20
150.2047567437
 10
1412.4307219802
 20
150.2184953948
 10
1412.417264795
 20
150.2321349063
 10
1412.3984926382
 20
150.2456261549
 10
1412.3744731184
 20
150.2589205513
 10
1412.3452927429
 20
150.2719702152
 10
1412.3110566063
 20
150.2847281475
 10
1412.2718880115
 20
150.2971484
  0
LINE
  5
3B9
330
1F
100
AcDbEntity
  8
0
  6
Continuous
 62
     7
100
AcDbLine
 10
1412.4415168852
 20
146.5781157876
 30
0.0
 11
1412.4415168852
 21
150.1909684334
 31
0.0
  0
LINE
  5
3BA
330
1F
100
AcDbEntity
  8
0
  6
Continuous
 62
     7
100
AcDbLine
 10
1906.4415168852
 20
149.8644257296
 30
0.0
 11
1906.4415168852
 21
146.5781157876
 31
0.0
  0
ARC
  5
3BB
330
1F
100
AcDbEntity
  8
0
  6
Continuous
 62
     7
100
AcDbCircle
 10
1906.5941613256
 20
149.542556424
 30
0.0
 40
0.3562305082503985
100
AcDbArc
 50
87.2672036934
 51
115.3723448122
  0
LINE
  5
3BC
330
1F
100
AcDbEntity
  8
0
  6
Continuous
 62
     7
100
AcDbLine
 10
1906.4415168852
 20
152.8436874063
 30
0.0
 11
1906.4415168852
 21
149.8644257296
 31
0.0
  0
LINE
  5
3BD
330
1F
100
AcDbEntity
  8
0
  6
Continuous
 62
     7
100
AcDbLine
 10
1412.4415168852
 20
150.1909684334
 30
0.0
 11
1412.4415168852
 21
152.8436874063
 31
0.0
  0
LINE
  5
3BE
330
1F
100
AcDbEntity
  8
0
  6
Continuous
 62
     7
100
AcDbLine
 10
1398.7415168852
 20
146.710901597
 30
0.0
 11
1398.7415168852
 21
150.1706203894
 31
0.0
  0
LINE
  5
3BF
330
1F
100
AcDbEntity
  8
0
  6
Continuous
 62
     7
100
AcDbLine
 10
1398.2415168852
 20
150.0940005907
 30
0.0
 11
1398.7415168852
 21
150.1706203894
 31
0.0
  0
LINE
  5
3C0
330
1F
100
AcDbEntity
  8
0
  6
Continuous
 62
     7
100
AcDbLine
 10
1398.2415168852
 20
147.210901597
 30
0.0
 11
1398.2415168852
 21
150.0940005907
 31
0.0
  0
LINE
  5
3C1
330
1F
100
AcDbEntity
  8
0
  6
Continuous
 62
     7
100
AcDbLine
 10
1920.1415168852
 20
149.8579184777
 30
0.0
 11
1920.1415168852
 21
146.710901597
 31
0.0
  0
LINE
  5
3C2
330
1F
100
AcDbEntity
  8
0
  6
Continuous
 62
     7
100
AcDbLine
 10
1920.6415168852
 20
149.8334156643
 30
0.0
 11
1920.1415168852
 21
149.8579184777
 31
0.0
  0
LINE
  5
3C3
330
1F
100
AcDbEntity
  8
0
  6
Continuous
 62
     7
100
AcDbLine
 10
1920.6415168852
 20
149.8334156643
 30
0.0
 11
1920.6415168852
 21
147.210901597
 31
0.0
  0
LINE
  5
3C4
330
1F
100
AcDbEntity
  8
0
  6
Continuous
 62
     7
100
AcDbLine
 10
1920.1415168852
 20
152.710901597
 30
0.0
 11
1920.1415168852
 21
149.8579184777
 31
0.0
  0
LINE
  5
3C5
330
1F
100
AcDbEntity
  8
0
  6
Continuous
 62
     7
100
AcDbLine
 10
1920.6415168852
 20
152.210901597
 30
0.0
 11
1920.6415168852
 21
149.8334156643
 31
0.0
  0
LINE
  5
3C6
330
1F
100
AcDbEntity
  8
0
  6
Continuous
 62
     7
100
AcDbLine
 10
1398.7415168852
 20
150.1706203894
 30
0.0
 11
1398.7415168852
 21
152.710901597
 31
0.0
  0
LINE
  5
3C7
330
1F
100
AcDbEntity
  8
0
  6
Continuous
 62
     7
100
AcDbLine
 10
1398.2415168852
 20
150.0940005907
 30
0.0
 11
1398.2415168852
 21
152.210901597
 31
0.0
  0
LINE
  5
3C8
330
1F
100
AcDbEntity
  8
0
  6
Continuous
 62
     7
100
AcDbLine
 10
1407.4363305349
 20
142.210901597
 30
0.0
 11
1407.4415168852
 21
142.210901597
 31
0.0
  0
LINE
  5
3C9
330
1F
100
AcDbEntity
  8
0
  6
Continuous
 62
     7
100
AcDbLine
 10
1407.4415168852
 20
142.3872285777
 30
0.0
 11
1407.4415168852
 21
142.210901597
 31
0.0
  0
LINE
  5
3CA
330
1F
100
AcDbEntity
  8
0
  6
Continuous
 62
     7
100
AcDbLine
 10
1911.4467032356
 20
142.210901597
 30
0.0
 11
1911.4415168852
 21
142.210901597
 31
0.0
  0
LINE
  5
3CB
330
1F
100
AcDbEntity
  8
0
  6
Continuous
 62
     7
100
AcDbLine
 10
1911.4415168852
 20
142.210901597
 30
0.0
 11
1911.4415168852
 21
142.3872285777
 31
0.0
  0
ARC
  5
3CC
330
1F
100
AcDbEntity
  8
0
  6
Continuous
 62
     7
100
AcDbCircle
 10
1856.9415168852
 20
167.710901597
 30
0.0
 40
3.000000000000353
100
AcDbArc
 50
80.4864054705
 51
260.4864054704
  0
LINE
  5
3CD
330
1F
100
AcDbEntity
  8
0
  6
Continuous
 62
     7
100
AcDbLine
 10
1857.3547209265
 20
170.1765176296
 30
0.0
 11
1857.4373617348
 21
170.6696408361
 31
0.0
  0
ARC
  5
3CE
330
1F
100
AcDbEntity
  8
0
  6
Continuous
 62
     7
100
AcDbCircle
 10
1856.9415168852
 20
167.710901597
 30
0.0
 40
2.500000000000306
100
AcDbArc
 50
80.4864054705
 51
260.4864054704
  0
LINE
  5
3CF
330
1F
100
AcDbEntity
  8
0
  6
Continuous
 62
     7
100
AcDbLine
 10
1856.528312844
 20
165.2452855644
 30
0.0
 11
1856.4456720357
 21
164.7521623578
 31
0.0
  0
ARC
  5
3D0
330
1F
100
AcDbEntity
  8
0
  6
Continuous
 62
     7
100
AcDbCircle
 10
1856.9415168852
 20
167.710901597
 30
0.0
 40
2.500000000000306
100
AcDbArc
 50
260.4864054704
 51
80.4864054705
  0
ARC
  5
3D1
330
1F
100
AcDbEntity
  8
0
  6
Continuous
 62
     7
100
AcDbCircle
 10
1856.9415168852
 20
167.710901597
 30
0.0
 40
3.000000000000353
100
AcDbArc
 50
260.4864054704
 51
80.4864054705
  0
ARC
  5
3D2
330
1F
100
AcDbEntity
  8
0
  6
Continuous
 62
     7
100
AcDbCircle
 10
1417.9415168852
 20
149.710901597
 30
0.0
 40
2.999999999997366
100
AcDbArc
 50
130.6396160529
 51
310.6396160529
  0
LINE
  5
3D3
330
1F
100
AcDbEntity
  8
0
  6
Continuous
 62
     7
100
AcDbLine
 10
1416.3132692726
 20
151.6079544987
 30
0.0
 11
1415.9876197501
 21
151.9873650791
 31
0.0
  0
ARC
  5
3D4
330
1F
100
AcDbEntity
  8
0
  6
Continuous
 62
     7
100
AcDbCircle
 10
1417.9415168852
 20
149.710901597
 30
0.0
 40
2.500000000000004
100
AcDbArc
 50
130.6396160529
 51
310.6396160529
  0
LINE
  5
3D5
330
1F
100
AcDbEntity
  8
0
  6
Continuous
 62
     7
100
AcDbLine
 10
1419.5697644979
 20
147.8138486952
 30
0.0
 11
1419.8954140204
 21
147.4344381149
 31
0.0
  0
ARC
  5
3D6
330
1F
100
AcDbEntity
  8
0
  6
Continuous
 62
     7
100
AcDbCircle
 10
1417.9415168852
 20
149.710901597
 30
0.0
 40
2.500000000000004
100
AcDbArc
 50
310.6396160529
 51
130.6396160529
  0
ARC
  5
3D7
330
1F
100
AcDbEntity
  8
0
  6
Continuous
 62
     7
100
AcDbCircle
 10
1417.9415168852
 20
149.710901597
 30
0.0
 40
2.999999999997366
100
AcDbArc
 50
310.6396160529
 51
130.6396160529
  0
LINE
  5
3D8
330
1F
100
AcDbEntity
  8
0
  6
Continuous
 62
     7
100
AcDbLine
 10
1899.3132692726
 20
147.8138486952
 30
0.0
 11
1898.9876197501
 21
147.4344381149
 31
0.0
  0
ARC
  5
3D9
330
1F
100
AcDbEntity
  8
0
  6
Continuous
 62
     7
100
AcDbCircle
 10
1900.9415168852
 20
149.710901597
 30
0.0
 40
2.999999999994714
100
AcDbArc
 50
49.3603839471
 51
229.3603839471
  0
LINE
  5
3DA
330
1F
100
AcDbEntity
  8
0
  6
Continuous
 62
     7
100
AcDbLine
 10
1902.5697644979
 20
151.6079544987
 30
0.0
 11
1902.8954140204
 21
151.987365079
 31
0.0
  0
ARC
  5
3DB
330
1F
100
AcDbEntity
  8
0
  6
Continuous
 62
     7
100
AcDbCircle
 10
1900.9415168852
 20
149.710901597
 30
0.0
 40
2.500000000000368
100
AcDbArc
 50
49.3603839471
 51
229.3603839471
  0
ARC
  5
3DC
330
1F
100
AcDbEntity
  8
0
  6
Continuous
 62
     7
100
AcDbCircle
 10
1900.9415168852
 20
149.710901597
 30
0.0
 40
2.500000000000368
100
AcDbArc
 50
229.3603839471
 51
49.3603839471
  0
ARC
  5
3DD
330
1F
100
AcDbEntity
  8
0
  6
Continuous
 62
     7
100
AcDbCircle
 10
1900.9415168852
 20
149.710901597
 30
0.0
 40
2.999999999994714
100
AcDbArc
 50
229.3603839471
 51
49.3603839471
  0
LINE
  5
3DE
330
1F
100
AcDbEntity
  8
0
  6
Continuous
 62
     7
100
AcDbLine
 10
1908.4415168852
 20
195.710901597
 30
0.0
 11
1908.4415168852
 21
197.710901597
 31
0.0
  0
LINE
  5
3DF
330
1F
100
AcDbEntity
  8
0
  6
Continuous
 62
     7
100
AcDbLine
 10
1410.4415168852
 20
197.710901597
 30
0.0
 11
1410.4415168852
 21
195.710901597
 31
0.0
  0
LINE
  5
3E0
330
1F
100
AcDbEntity
  8
0
  6
Continuous
 62
     7
100
AcDbLine
 10
1410.4415168852
 20
195.710901597
 30
0.0
 11
1908.4415168852
 21
195.710901597
 31
0.0
  0
LINE
  5
3E1
330
1F
100
AcDbEntity
  8
0
  6
Continuous
 62
     7
100
AcDbLine
 10
1410.4415168852
 20
197.710901597
 30
0.0
 11
1908.4415168852
 21
197.710901597
 31
0.0
  0
LINE
  5
3E2
330
1F
100
AcDbEntity
  8
0
  6
Continuous
 62
     7
100
AcDbLine
 10
1410.4415168852
 20
103.710901597
 30
0.0
 11
1410.4415168852
 21
101.710901597
 31
0.0
  0
LINE
  5
3E3
330
1F
100
AcDbEntity
  8
0
  6
Continuous
 62
     7
100
AcDbLine
 10
1908.4415168852
 20
101.710901597
 30
0.0
 11
1908.4415168852
 21
103.710901597
 31
0.0
  0
LINE
  5
3E4
330
1F
100
AcDbEntity
  8
0
  6
Continuous
 62
     7
100
AcDbLine
 10
1908.4415168852
 20
103.710901597
 30
0.0
 11
1410.4415168852
 21
103.710901597
 31
0.0
  0
LINE
  5
3E5
330
1F
100
AcDbEntity
  8
0
  6
Continuous
 62
     7
100
AcDbLine
 10
1908.4415168852
 20
101.710901597
 30
0.0
 11
1410.4415168852
 21
101.710901597
 31
0.0
  0
LINE
  5
3E6
330
1F
100
AcDbEntity
  8
0
  6
Continuous
 62
     7
100
AcDbLine
 10
1385.4415168852
 20
195.710901597
 30
0.0
 11
1385.4415168852
 21
197.710901597
 31
0.0
  0
LINE
  5
3E7
330
1F
100
AcDbEntity
  8
0
  6
Continuous
 62
     7
100
AcDbLine
 10
1363.9415168852
 20
103.710901597
 30
0.0
 11
1363.9415168852
 21
195.710901597
 31
0.0
  0
LINE
  5
3E8
330
1F
100
AcDbEntity
  8
0
  6
Continuous
 62
     7
100
AcDbLine
 10
1385.4415168852
 20
101.710901597
 30
0.0
 11
1385.4415168852
 21
103.710901597
 31
0.0
  0
LINE
  5
3E9
330
1F
100
AcDbEntity
  8
0
  6
Continuous
 62
     7
100
AcDbLine
 10
1361.9415168852
 20
101.710901597
 30
0.0
 11
1361.9415168852
 21
197.710901597
 31
0.0
  0
LINE
  5
3EA
330
1F
100
AcDbEntity
  8
0
  6
Continuous
 62
     7
100
AcDbLine
 10
1385.4415168852
 20
103.710901597
 30
0.0
 11
1363.9415168852
 21
103.710901597
 31
0.0
  0
LINE
  5
3EB
330
1F
100
AcDbEntity
  8
0
  6
Continuous
 62
     7
100
AcDbLine
 10
1385.4415168852
 20
101.710901597
 30
0.0
 11
1361.9415168852
 21
101.710901597
 31
0.0
  0
LINE
  5
3EC
330
1F
100
AcDbEntity
  8
0
  6
Continuous
 62
     7
100
AcDbLine
 10
1363.9415168852
 20
195.710901597
 30
0.0
 11
1385.4415168852
 21
195.710901597
 31
0.0
  0
LINE
  5
3ED
330
1F
100
AcDbEntity
  8
0
  6
Continuous
 62
     7
100
AcDbLine
 10
1361.9415168852
 20
197.710901597
 30
0.0
 11
1385.4415168852
 21
197.710901597
 31
0.0
  0
LINE
  5
3EE
330
1F
100
AcDbEntity
  8
0
  6
Continuous
 62
     7
100
AcDbLine
 10
1388.4415168852
 20
197.710901597
 30
0.0
 11
1388.4415168852
 21
195.710901597
 31
0.0
  0
LINE
  5
3EF
330
1F
100
AcDbEntity
  8
0
  6
Continuous
 62
     7
100
AcDbLine
 10
1388.4415168852
 20
195.710901597
 30
0.0
 11
1385.4415168852
 21
195.710901597
 31
0.0
  0
LINE
  5
3F0
330
1F
100
AcDbEntity
  8
0
  6
Continuous
 62
     7
100
AcDbLine
 10
1385.4415168852
 20
197.710901597
 30
0.0
 11
1388.4415168852
 21
197.710901597
 31
0.0
  0
LINE
  5
3F1
330
1F
100
AcDbEntity
  8
0
  6
Continuous
 62
     7
100
AcDbLine
 10
1407.4415168852
 20
195.710901597
 30
0.0
 11
1407.4415168852
 21
197.710901597
 31
0.0
  0
LINE
  5
3F2
330
1F
100
AcDbEntity
  8
0
  6
Continuous
 62
     7
100
AcDbLine
 10
1410.4415168852
 20
195.710901597
 30
0.0
 11
1407.4415168852
 21
195.710901597
 31
0.0
  0
LINE
  5
3F3
330
1F
100
AcDbEntity
  8
0
  6
Continuous
 62
     7
100
AcDbLine
 10
1407.4415168852
 20
197.710901597
 30
0.0
 11
1410.4415168852
 21
197.710901597
 31
0.0
  0
LINE
  5
3F4
330
1F
100
AcDbEntity
  8
0
  6
Continuous
 62
     7
100
AcDbLine
 10
1407.4415168852
 20
101.710901597
 30
0.0
 11
1407.4415168852
 21
103.710901597
 31
0.0
  0
LINE
  5
3F5
330
1F
100
AcDbEntity
  8
0
  6
Continuous
 62
     7
100
AcDbLine
 10
1407.4415168852
 20
103.710901597
 30
0.0
 11
1410.4415168852
 21
103.710901597
 31
0.0
  0
LINE
  5
3F6
330
1F
100
AcDbEntity
  8
0
  6
Continuous
 62
     7
100
AcDbLine
 10
1410.4415168852
 20
101.710901597
 30
0.0
 11
1407.4415168852
 21
101.710901597
 31
0.0
  0
LINE
  5
3F7
330
1F
100
AcDbEntity
  8
0
  6
Continuous
 62
     7
100
AcDbLine
 10
1412.1415168852
 20
145.060901597
 30
0.0
 11
1411.8425585519
 21
145.060901597
 31
0.0
  0
LINE
  5
3F8
330
1F
100
AcDbEntity
  8
0
  6
Continuous
 62
     7
100
AcDbLine
 10
1411.8425585519
 20
154.360901597
 30
0.0
 11
1412.1415168852
 21
154.360901597
 31
0.0
  0
LINE
  5
3F9
330
1F
100
AcDbEntity
  8
0
  6
Continuous
 62
     7
100
AcDbLine
 10
1422.5915168852
 20
144.210901597
 30
0.0
 11
1422.5915168852
 21
145.060901597
 31
0.0
  0
LINE
  5
3FA
330
1F
100
AcDbEntity
  8
0
  6
Continuous
 62
     7
100
AcDbLine
 10
1413.2915168852
 20
144.210901597
 30
0.0
 11
1422.5915168852
 21
144.210901597
 31
0.0
  0
LINE
  5
3FB
330
1F
100
AcDbEntity
  8
0
  6
Continuous
 62
     7
100
AcDbLine
 10
1413.2915168852
 20
145.060901597
 30
0.0
 11
1413.2915168852
 21
144.210901597
 31
0.0
  0
LINE
  5
3FC
330
1F
100
AcDbEntity
  8
0
  6
Continuous
 62
     7
100
AcDbLine
 10
1413.2915168852
 20
154.360901597
 30
0.0
 11
1412.1415168852
 21
154.360901597
 31
0.0
  0
LINE
  5
3FD
330
1F
100
AcDbEntity
  8
0
  6
Continuous
 62
     7
100
AcDbLine
 10
1413.2915168852
 20
155.210901597
 30
0.0
 11
1413.2915168852
 21
154.360901597
 31
0.0
  0
LINE
  5
3FE
330
1F
100
AcDbEntity
  8
0
  6
Continuous
 62
     7
100
AcDbLine
 10
1422.5915168852
 20
155.210901597
 30
0.0
 11
1413.2915168852
 21
155.210901597
 31
0.0
  0
LINE
  5
3FF
330
1F
100
AcDbEntity
  8
0
  6
Continuous
 62
     7
100
AcDbLine
 10
1422.5915168852
 20
154.360901597
 30
0.0
 11
1422.5915168852
 21
155.210901597
 31
0.0
  0
LINE
  5
400
330
1F
100
AcDbEntity
  8
0
  6
Continuous
 62
     7
100
AcDbLine
 10
1423.7415168852
 20
154.360901597
 30
0.0
 11
1422.5915168852
 21
154.360901597
 31
0.0
  0
LINE
  5
401
330
1F
100
AcDbEntity
  8
0
  6
Continuous
 62
     7
100
AcDbLine
 10
1423.7415168852
 20
145.060901597
 30
0.0
 11
1423.7415168852
 21
154.360901597
 31
0.0
  0
LINE
  5
402
330
1F
100
AcDbEntity
  8
0
  6
Continuous
 62
     7
100
AcDbLine
 10
1422.5915168852
 20
145.060901597
 30
0.0
 11
1423.7415168852
 21
145.060901597
 31
0.0
  0
LINE
  5
403
330
1F
100
AcDbEntity
  8
0
  6
Continuous
 62
     7
100
AcDbLine
 10
1412.1415168852
 20
145.060901597
 30
0.0
 11
1413.2915168852
 21
145.060901597
 31
0.0
  0
LINE
  5
404
330
1F
100
AcDbEntity
  8
0
  6
Continuous
 62
     7
100
AcDbLine
 10
1422.5915168852
 20
156.210901597
 30
0.0
 11
1413.2915168852
 21
156.210901597
 31
0.0
  0
LINE
  5
405
330
1F
100
AcDbEntity
  8
0
  6
Continuous
 62
     7
100
AcDbLine
 10
1422.5915168852
 20
156.210901597
 30
0.0
 11
1422.5915168852
 21
155.210901597
 31
0.0
  0
LINE
  5
406
330
1F
100
AcDbEntity
  8
0
  6
Continuous
 62
     7
100
AcDbLine
 10
1413.2915168852
 20
155.210901597
 30
0.0
 11
1413.2915168852
 21
156.210901597
 31
0.0
  0
LINE
  5
407
330
1F
100
AcDbEntity
  8
0
  6
Continuous
 62
     7
100
AcDbLine
 10
1422.5915168852
 20
144.210901597
 30
0.0
 11
1422.5915168852
 21
143.210901597
 31
0.0
  0
LINE
  5
408
330
1F
100
AcDbEntity
  8
0
  6
Continuous
 62
     7
100
AcDbLine
 10
1413.2915168852
 20
143.210901597
 30
0.0
 11
1422.5915168852
 21
143.210901597
 31
0.0
  0
LINE
  5
409
330
1F
100
AcDbEntity
  8
0
  6
Continuous
 62
     7
100
AcDbLine
 10
1413.2915168852
 20
143.210901597
 30
0.0
 11
1413.2915168852
 21
144.210901597
 31
0.0
  0
LINE
  5
40A
330
1F
100
AcDbEntity
  8
0
  6
Continuous
 62
     7
100
AcDbLine
 10
1388.4415168852
 20
103.710901597
 30
0.0
 11
1388.4415168852
 21
101.710901597
 31
0.0
  0
LINE
  5
40B
330
1F
100
AcDbEntity
  8
0
  6
Continuous
 62
     7
100
AcDbLine
 10
1385.4415168852
 20
103.710901597
 30
0.0
 11
1388.4415168852
 21
103.710901597
 31
0.0
  0
LINE
  5
40C
330
1F
100
AcDbEntity
  8
0
  6
Continuous
 62
     7
100
AcDbLine
 10
1388.4415168852
 20
101.710901597
 30
0.0
 11
1385.4415168852
 21
101.710901597
 31
0.0
  0
LINE
  5
40D
330
1F
100
AcDbEntity
  8
0
  6
Continuous
 62
     7
100
AcDbLine
 10
1424.7415168852
 20
154.360901597
 30
0.0
 11
1424.7415168852
 21
145.060901597
 31
0.0
  0
LINE
  5
40E
330
1F
100
AcDbEntity
  8
0
  6
Continuous
 62
     7
100
AcDbLine
 10
1424.7415168852
 20
145.060901597
 30
0.0
 11
1423.7415168852
 21
145.060901597
 31
0.0
  0
LINE
  5
40F
330
1F
100
AcDbEntity
  8
0
  6
Continuous
 62
     7
100
AcDbLine
 10
1423.7415168852
 20
154.360901597
 30
0.0
 11
1424.7415168852
 21
154.360901597
 31
0.0
  0
LINE
  5
410
330
1F
100
AcDbEntity
  8
0
  6
Continuous
 62
     7
100
AcDbLine
 10
1933.4415168852
 20
103.710901597
 30
0.0
 11
1933.4415168852
 21
101.710901597
 31
0.0
  0
LINE
  5
411
330
1F
100
AcDbEntity
  8
0
  6
Continuous
 62
     7
100
AcDbLine
 10
1954.9415168852
 20
195.710901597
 30
0.0
 11
1954.9415168852
 21
103.710901597
 31
0.0
  0
LINE
  5
412
330
1F
100
AcDbEntity
  8
0
  6
Continuous
 62
     7
100
AcDbLine
 10
1933.4415168852
 20
197.710901597
 30
0.0
 11
1933.4415168852
 21
195.710901597
 31
0.0
  0
LINE
  5
413
330
1F
100
AcDbEntity
  8
0
  6
Continuous
 62
     7
100
AcDbLine
 10
1956.9415168852
 20
197.710901597
 30
0.0
 11
1956.9415168852
 21
101.710901597
 31
0.0
  0
LINE
  5
414
330
1F
100
AcDbEntity
  8
0
  6
Continuous
 62
     7
100
AcDbLine
 10
1954.9415168852
 20
103.710901597
 30
0.0
 11
1933.4415168852
 21
103.710901597
 31
0.0
  0
LINE
  5
415
330
1F
100
AcDbEntity
  8
0
  6
Continuous
 62
     7
100
AcDbLine
 10
1956.9415168852
 20
101.710901597
 30
0.0
 11
1933.4415168852
 21
101.710901597
 31
0.0
  0
LINE
  5
416
330
1F
100
AcDbEntity
  8
0
  6
Continuous
 62
     7
100
AcDbLine
 10
1933.4415168852
 20
195.710901597
 30
0.0
 11
1954.9415168852
 21
195.710901597
 31
0.0
  0
LINE
  5
417
330
1F
100
AcDbEntity
  8
0
  6
Continuous
 62
     7
100
AcDbLine
 10
1933.4415168852
 20
197.710901597
 30
0.0
 11
1956.9415168852
 21
197.710901597
 31
0.0
  0
LINE
  5
418
330
1F
100
AcDbEntity
  8
0
  6
Continuous
 62
     7
100
AcDbLine
 10
1911.4415168852
 20
197.710901597
 30
0.0
 11
1911.4415168852
 21
195.710901597
 31
0.0
  0
LINE
  5
419
330
1F
100
AcDbEntity
  8
0
  6
Continuous
 62
     7
100
AcDbLine
 10
1911.4415168852
 20
195.710901597
 30
0.0
 11
1908.4415168852
 21
195.710901597
 31
0.0
  0
LINE
  5
41A
330
1F
100
AcDbEntity
  8
0
  6
Continuous
 62
     7
100
AcDbLine
 10
1908.4415168852
 20
197.710901597
 30
0.0
 11
1911.4415168852
 21
197.710901597
 31
0.0
  0
LINE
  5
41B
330
1F
100
AcDbEntity
  8
0
  6
Continuous
 62
     7
100
AcDbLine
 10
1930.4415168852
 20
195.710901597
 30
0.0
 11
1930.4415168852
 21
197.710901597
 31
0.0
  0
LINE
  5
41C
330
1F
100
AcDbEntity
  8
0
  6
Continuous
 62
     7
100
AcDbLine
 10
1933.4415168852
 20
195.710901597
 30
0.0
 11
1930.4415168852
 21
195.710901597
 31
0.0
  0
LINE
  5
41D
330
1F
100
AcDbEntity
  8
0
  6
Continuous
 62
     7
100
AcDbLine
 10
1930.4415168852
 20
197.710901597
 30
0.0
 11
1933.4415168852
 21
197.710901597
 31
0.0
  0
LINE
  5
41E
330
1F
100
AcDbEntity
  8
0
  6
Continuous
 62
     7
100
AcDbLine
 10
1911.4415168852
 20
103.710901597
 30
0.0
 11
1911.4415168852
 21
101.710901597
 31
0.0
  0
LINE
  5
41F
330
1F
100
AcDbEntity
  8
0
  6
Continuous
 62
     7
100
AcDbLine
 10
1908.4415168852
 20
103.710901597
 30
0.0
 11
1911.4415168852
 21
103.710901597
 31
0.0
  0
LINE
  5
420
330
1F
100
AcDbEntity
  8
0
  6
Continuous
 62
     7
100
AcDbLine
 10
1911.4415168852
 20
101.710901597
 30
0.0
 11
1908.4415168852
 21
101.710901597
 31
0.0
  0
LINE
  5
421
330
1F
100
AcDbEntity
  8
0
  6
Continuous
 62
     7
100
AcDbLine
 10
1930.4415168852
 20
101.710901597
 30
0.0
 11
1930.4415168852
 21
103.710901597
 31
0.0
  0
LINE
  5
422
330
1F
100
AcDbEntity
  8
0
  6
Continuous
 62
     7
100
AcDbLine
 10
1930.4415168852
 20
103.710901597
 30
0.0
 11
1933.4415168852
 21
103.710901597
 31
0.0
  0
LINE
  5
423
330
1F
100
AcDbEntity
  8
0
  6
Continuous
 62
     7
100
AcDbLine
 10
1933.4415168852
 20
101.710901597
 30
0.0
 11
1930.4415168852
 21
101.710901597
 31
0.0
  0
LINE
  5
424
330
1F
100
AcDbEntity
  8
0
  6
Continuous
 62
     7
100
AcDbLine
 10
1896.2915168852
 20
155.210901597
 30
0.0
 11
1896.2915168852
 21
154.360901597
 31
0.0
  0
LINE
  5
425
330
1F
100
AcDbEntity
  8
0
  6
Continuous
 62
     7
100
AcDbLine
 10
1905.5915168852
 20
155.210901597
 30
0.0
 11
1896.2915168852
 21
155.210901597
 31
0.0
  0
LINE
  5
426
330
1F
100
AcDbEntity
  8
0
  6
Continuous
 62
     7
100
AcDbLine
 10
1905.5915168852
 20
154.360901597
 30
0.0
 11
1905.5915168852
 21
155.210901597
 31
0.0
  0
LINE
  5
427
330
1F
100
AcDbEntity
  8
0
  6
Continuous
 62
     7
100
AcDbLine
 10
1906.7415168852
 20
154.360901597
 30
0.0
 11
1905.5915168852
 21
154.360901597
 31
0.0
  0
LINE
  5
428
330
1F
100
AcDbEntity
  8
0
  6
Continuous
 62
     7
100
AcDbLine
 10
1905.5915168852
 20
145.060901597
 30
0.0
 11
1906.7415168852
 21
145.060901597
 31
0.0
  0
LINE
  5
429
330
1F
100
AcDbEntity
  8
0
  6
Continuous
 62
     7
100
AcDbLine
 10
1905.5915168852
 20
144.210901597
 30
0.0
 11
1905.5915168852
 21
145.060901597
 31
0.0
  0
LINE
  5
42A
330
1F
100
AcDbEntity
  8
0
  6
Continuous
 62
     7
100
AcDbLine
 10
1896.2915168852
 20
144.210901597
 30
0.0
 11
1905.5915168852
 21
144.210901597
 31
0.0
  0
LINE
  5
42B
330
1F
100
AcDbEntity
  8
0
  6
Continuous
 62
     7
100
AcDbLine
 10
1896.2915168852
 20
145.060901597
 30
0.0
 11
1896.2915168852
 21
144.210901597
 31
0.0
  0
LINE
  5
42C
330
1F
100
AcDbEntity
  8
0
  6
Continuous
 62
     7
100
AcDbLine
 10
1895.1415168852
 20
145.060901597
 30
0.0
 11
1896.2915168852
 21
145.060901597
 31
0.0
  0
LINE
  5
42D
330
1F
100
AcDbEntity
  8
0
  6
Continuous
 62
     7
100
AcDbLine
 10
1895.1415168852
 20
154.360901597
 30
0.0
 11
1895.1415168852
 21
145.060901597
 31
0.0
  0
LINE
  5
42E
330
1F
100
AcDbEntity
  8
0
  6
Continuous
 62
     7
100
AcDbLine
 10
1896.2915168852
 20
154.360901597
 30
0.0
 11
1895.1415168852
 21
154.360901597
 31
0.0
  0
LINE
  5
42F
330
1F
100
AcDbEntity
  8
0
  6
Continuous
 62
     7
100
AcDbLine
 10
1896.2915168852
 20
155.210901597
 30
0.0
 11
1896.2915168852
 21
156.210901597
 31
0.0
  0
LINE
  5
430
330
1F
100
AcDbEntity
  8
0
  6
Continuous
 62
     7
100
AcDbLine
 10
1905.5915168852
 20
156.210901597
 30
0.0
 11
1896.2915168852
 21
156.210901597
 31
0.0
  0
LINE
  5
431
330
1F
100
AcDbEntity
  8
0
  6
Continuous
 62
     7
100
AcDbLine
 10
1905.5915168852
 20
156.210901597
 30
0.0
 11
1905.5915168852
 21
155.210901597
 31
0.0
  0
LINE
  5
432
330
1F
100
AcDbEntity
  8
0
  6
Continuous
 62
     7
100
AcDbLine
 10
1895.1415168852
 20
145.060901597
 30
0.0
 11
1894.1415168852
 21
145.060901597
 31
0.0
  0
LINE
  5
433
330
1F
100
AcDbEntity
  8
0
  6
Continuous
 62
     7
100
AcDbLine
 10
1894.1415168852
 20
145.060901597
 30
0.0
 11
1894.1415168852
 21
154.360901597
 31
0.0
  0
LINE
  5
434
330
1F
100
AcDbEntity
  8
0
  6
Continuous
 62
     7
100
AcDbLine
 10
1894.1415168852
 20
154.360901597
 30
0.0
 11
1895.1415168852
 21
154.360901597
 31
0.0
  0
LINE
  5
435
330
1F
100
AcDbEntity
  8
0
  6
Continuous
 62
     7
100
AcDbLine
 10
1905.5915168852
 20
144.210901597
 30
0.0
 11
1905.5915168852
 21
143.210901597
 31
0.0
  0
LINE
  5
436
330
1F
100
AcDbEntity
  8
0
  6
Continuous
 62
     7
100
AcDbLine
 10
1896.2915168852
 20
143.210901597
 30
0.0
 11
1905.5915168852
 21
143.210901597
 31
0.0
  0
LINE
  5
437
330
1F
100
AcDbEntity
  8
0
  6
Continuous
 62
     7
100
AcDbLine
 10
1896.2915168852
 20
143.210901597
 30
0.0
 11
1896.2915168852
 21
144.210901597
 31
0.0
  0
LINE
  5
438
330
1F
100
AcDbEntity
  8
0
  6
Continuous
 62
     7
100
AcDbLine
 10
1907.0404752186
 20
145.060901597
 30
0.0
 11
1906.7415168852
 21
145.060901597
 31
0.0
  0
LINE
  5
439
330
1F
100
AcDbEntity
  8
0
  6
Continuous
 62
     7
100
AcDbLine
 10
1906.7415168852
 20
154.360901597
 30
0.0
 11
1907.0404752186
 21
154.360901597
 31
0.0
  0
LINE
  5
43A
330
1F
100
AcDbEntity
  8
0
  6
Continuous
 62
     7
100
AcDbLine
 10
1412.4415168852
 20
155.210901597
 30
0.0
 11
1412.4415168852
 21
154.360901597
 31
0.0
  0
LINE
  5
43B
330
1F
100
AcDbEntity
  8
0
  6
Continuous
 62
     7
100
AcDbLine
 10
1413.2915168852
 20
155.210901597
 30
0.0
 11
1412.4415168852
 21
155.210901597
 31
0.0
  0
LINE
  5
43C
330
1F
100
AcDbEntity
  8
0
  6
Continuous
 62
     7
100
AcDbLine
 10
1412.4415168852
 20
145.060901597
 30
0.0
 11
1412.4415168852
 21
144.210901597
 31
0.0
  0
LINE
  5
43D
330
1F
100
AcDbEntity
  8
0
  6
Continuous
 62
     7
100
AcDbLine
 10
1412.4415168852
 20
144.210901597
 30
0.0
 11
1413.2915168852
 21
144.210901597
 31
0.0
  0
LINE
  5
43E
330
1F
100
AcDbEntity
  8
0
  6
Continuous
 62
     7
100
AcDbLine
 10
1423.4415168852
 20
154.360901597
 30
0.0
 11
1423.4415168852
 21
155.210901597
 31
0.0
  0
LINE
  5
43F
330
1F
100
AcDbEntity
  8
0
  6
Continuous
 62
     7
100
AcDbLine
 10
1423.4415168852
 20
155.210901597
 30
0.0
 11
1422.5915168852
 21
155.210901597
 31
0.0
  0
LINE
  5
440
330
1F
100
AcDbEntity
  8
0
  6
Continuous
 62
     7
100
AcDbLine
 10
1423.4415168852
 20
144.210901597
 30
0.0
 11
1423.4415168852
 21
145.060901597
 31
0.0
  0
LINE
  5
441
330
1F
100
AcDbEntity
  8
0
  6
Continuous
 62
     7
100
AcDbLine
 10
1422.5915168852
 20
144.210901597
 30
0.0
 11
1423.4415168852
 21
144.210901597
 31
0.0
  0
LINE
  5
442
330
1F
100
AcDbEntity
  8
0
  6
Continuous
 62
     7
100
AcDbLine
 10
1896.2915168852
 20
155.210901597
 30
0.0
 11
1895.4415168852
 21
155.210901597
 31
0.0
  0
LINE
  5
443
330
1F
100
AcDbEntity
  8
0
  6
Continuous
 62
     7
100
AcDbLine
 10
1895.4415168852
 20
155.210901597
 30
0.0
 11
1895.4415168852
 21
154.360901597
 31
0.0
  0
LINE
  5
444
330
1F
100
AcDbEntity
  8
0
  6
Continuous
 62
     7
100
AcDbLine
 10
1906.4415168852
 20
154.360901597
 30
0.0
 11
1906.4415168852
 21
155.210901597
 31
0.0
  0
LINE
  5
445
330
1F
100
AcDbEntity
  8
0
  6
Continuous
 62
     7
100
AcDbLine
 10
1906.4415168852
 20
155.210901597
 30
0.0
 11
1905.5915168852
 21
155.210901597
 31
0.0
  0
LINE
  5
446
330
1F
100
AcDbEntity
  8
0
  6
Continuous
 62
     7
100
AcDbLine
 10
1895.4415168852
 20
144.210901597
 30
0.0
 11
1896.2915168852
 21
144.210901597
 31
0.0
  0
LINE
  5
447
330
1F
100
AcDbEntity
  8
0
  6
Continuous
 62
     7
100
AcDbLine
 10
1895.4415168852
 20
145.060901597
 30
0.0
 11
1895.4415168852
 21
144.210901597
 31
0.0
  0
LINE
  5
448
330
1F
100
AcDbEntity
  8
0
  6
Continuous
 62
     7
100
AcDbLine
 10
1905.5915168852
 20
144.210901597
 30
0.0
 11
1906.4415168852
 21
144.210901597
 31
0.0
  0
LINE
  5
449
330
1F
100
AcDbEntity
  8
0
  6
Continuous
 62
     7
100
AcDbLine
 10
1906.4415168852
 20
144.210901597
 30
0.0
 11
1906.4415168852
 21
145.060901597
 31
0.0
  0
LINE
  5
44A
330
1F
100
AcDbEntity
  8
0
  6
Continuous
 62
     7
100
AcDbLine
 10
1406.9415168852
 20
179.710901597
 30
0.0
 11
1406.9415168852
 21
191.710901597
 31
0.0
  0
ARC
  5
44B
330
1F
100
AcDbEntity
  8
0
  6
Continuous
 62
     7
100
AcDbCircle
 10
1406.9415168852
 20
177.710901597
 30
0.0
 40
2.000000000000227
100
AcDbArc
 50
90.0
 51
180.0
  0
LINE
  5
44C
330
1F
100
AcDbEntity
  8
0
  6
Continuous
 62
     7
100
AcDbLine
 10
1404.9415168852
 20
177.710901597
 30
0.0
 11
1392.9415168852
 21
177.710901597
 31
0.0
  0
ARC
  5
44D
330
1F
100
AcDbEntity
  8
0
  6
Continuous
 62
     7
100
AcDbCircle
 10
1406.9415168852
 20
177.710901597
 30
0.0
 40
14.00000000000023
100
AcDbArc
 50
90.0
 51
180.0
  0
LINE
  5
44E
330
1F
100
AcDbEntity
  8
0
  6
Continuous
 62
     7
100
AcDbLine
 10
1406.9415168852
 20
107.710901597
 30
0.0
 11
1406.9415168852
 21
119.710901597
 31
0.0
  0
ARC
  5
44F
330
1F
100
AcDbEntity
  8
0
  6
Continuous
 62
     7
100
AcDbCircle
 10
1406.9415168852
 20
121.710901597
 30
0.0
 40
14.00000000000023
100
AcDbArc
 50
180.0
 51
270.0
  0
LINE
  5
450
330
1F
100
AcDbEntity
  8
0
  6
Continuous
 62
     7
100
AcDbLine
 10
1392.9415168852
 20
121.710901597
 30
0.0
 11
1404.9415168852
 21
121.710901597
 31
0.0
  0
ARC
  5
451
330
1F
100
AcDbEntity
  8
0
  6
Continuous
 62
     7
100
AcDbCircle
 10
1406.9415168852
 20
121.710901597
 30
0.0
 40
2.000000000000227
100
AcDbArc
 50
180.0
 51
270.0
  0
LINE
  5
452
330
1F
100
AcDbEntity
  8
0
  6
Continuous
 62
     7
100
AcDbLine
 10
1404.9415168852
 20
121.710901597
 30
0.0
 11
1404.9415168852
 21
134.9895540869
 31
0.0
  0
LINE
  5
453
330
1F
100
AcDbEntity
  8
0
  6
Continuous
 62
     7
100
AcDbLine
 10
1404.9415168852
 20
140.8371628872
 30
0.0
 11
1404.9415168852
 21
146.710901597
 31
0.0
  0
LINE
  5
454
330
1F
100
AcDbEntity
  8
0
  6
Continuous
 62
     7
100
AcDbLine
 10
1404.9415168852
 20
152.710901597
 30
0.0
 11
1404.9415168852
 21
177.710901597
 31
0.0
  0
LINE
  5
455
330
1F
100
AcDbEntity
  8
0
  6
Continuous
 62
     7
100
AcDbLine
 10
1392.9415168852
 20
121.710901597
 30
0.0
 11
1392.9415168852
 21
177.710901597
 31
0.0
  0
LINE
  5
456
330
1F
100
AcDbEntity
  8
0
  6
Continuous
 62
     7
100
AcDbLine
 10
1911.9415168852
 20
179.710901597
 30
0.0
 11
1911.9415168852
 21
191.710901597
 31
0.0
  0
LINE
  5
457
330
1F
100
AcDbEntity
  8
0
  6
Continuous
 62
     7
100
AcDbLine
 10
1406.9415168852
 20
179.710901597
 30
0.0
 11
1911.9415168852
 21
179.710901597
 31
0.0
  0
LINE
  5
458
330
1F
100
AcDbEntity
  8
0
  6
Continuous
 62
     7
100
AcDbLine
 10
1406.9415168852
 20
191.710901597
 30
0.0
 11
1911.9415168852
 21
191.710901597
 31
0.0
  0
LINE
  5
459
330
1F
100
AcDbEntity
  8
0
  6
Continuous
 62
     7
100
AcDbLine
 10
1911.9415168852
 20
107.710901597
 30
0.0
 11
1911.9415168852
 21
119.710901597
 31
0.0
  0
LINE
  5
45A
330
1F
100
AcDbEntity
  8
0
  6
Continuous
 62
     7
100
AcDbLine
 10
1406.9415168852
 20
107.710901597
 30
0.0
 11
1911.9415168852
 21
107.710901597
 31
0.0
  0
LINE
  5
45B
330
1F
100
AcDbEntity
  8
0
  6
Continuous
 62
     7
100
AcDbLine
 10
1406.9415168852
 20
119.710901597
 30
0.0
 11
1911.9415168852
 21
119.710901597
 31
0.0
  0
LINE
  5
45C
330
1F
100
AcDbEntity
  8
0
  6
Continuous
 62
     7
100
AcDbLine
 10
1391.4415168852
 20
103.710901597
 30
0.0
 11
1391.4415168852
 21
101.710901597
 31
0.0
  0
LINE
  5
45D
330
1F
100
AcDbEntity
  8
0
  6
Continuous
 62
     7
100
AcDbLine
 10
1388.4415168852
 20
103.710901597
 30
0.0
 11
1391.4415168852
 21
103.710901597
 31
0.0
  0
LINE
  5
45E
330
1F
100
AcDbEntity
  8
0
  6
Continuous
 62
     7
100
AcDbLine
 10
1391.4415168852
 20
101.710901597
 30
0.0
 11
1388.4415168852
 21
101.710901597
 31
0.0
  0
LINE
  5
45F
330
1F
100
AcDbEntity
  8
0
  6
Continuous
 62
     7
100
AcDbLine
 10
1391.4415168852
 20
197.710901597
 30
0.0
 11
1391.4415168852
 21
195.710901597
 31
0.0
  0
LINE
  5
460
330
1F
100
AcDbEntity
  8
0
  6
Continuous
 62
     7
100
AcDbLine
 10
1391.4415168852
 20
195.710901597
 30
0.0
 11
1388.4415168852
 21
195.710901597
 31
0.0
  0
LINE
  5
461
330
1F
100
AcDbEntity
  8
0
  6
Continuous
 62
     7
100
AcDbLine
 10
1388.4415168852
 20
197.710901597
 30
0.0
 11
1391.4415168852
 21
197.710901597
 31
0.0
  0
LINE
  5
462
330
1F
100
AcDbEntity
  8
0
  6
Continuous
 62
     7
100
AcDbLine
 10
1404.4415168852
 20
101.710901597
 30
0.0
 11
1404.4415168852
 21
103.710901597
 31
0.0
  0
LINE
  5
463
330
1F
100
AcDbEntity
  8
0
  6
Continuous
 62
     7
100
AcDbLine
 10
1404.4415168852
 20
103.710901597
 30
0.0
 11
1407.4415168852
 21
103.710901597
 31
0.0
  0
LINE
  5
464
330
1F
100
AcDbEntity
  8
0
  6
Continuous
 62
     7
100
AcDbLine
 10
1407.4415168852
 20
101.710901597
 30
0.0
 11
1404.4415168852
 21
101.710901597
 31
0.0
  0
LINE
  5
465
330
1F
100
AcDbEntity
  8
0
  6
Continuous
 62
     7
100
AcDbLine
 10
1404.4415168852
 20
195.710901597
 30
0.0
 11
1404.4415168852
 21
197.710901597
 31
0.0
  0
LINE
  5
466
330
1F
100
AcDbEntity
  8
0
  6
Continuous
 62
     7
100
AcDbLine
 10
1407.4415168852
 20
195.710901597
 30
0.0
 11
1404.4415168852
 21
195.710901597
 31
0.0
  0
LINE
  5
467
330
1F
100
AcDbEntity
  8
0
  6
Continuous
 62
     7
100
AcDbLine
 10
1404.4415168852
 20
197.710901597
 30
0.0
 11
1407.4415168852
 21
197.710901597
 31
0.0
  0
LINE
  5
468
330
1F
100
AcDbEntity
  8
0
  6
Continuous
 62
     7
100
AcDbLine
 10
1914.4415168852
 20
103.710901597
 30
0.0
 11
1914.4415168852
 21
101.710901597
 31
0.0
  0
LINE
  5
469
330
1F
100
AcDbEntity
  8
0
  6
Continuous
 62
     7
100
AcDbLine
 10
1911.4415168852
 20
103.710901597
 30
0.0
 11
1914.4415168852
 21
103.710901597
 31
0.0
  0
LINE
  5
46A
330
1F
100
AcDbEntity
  8
0
  6
Continuous
 62
     7
100
AcDbLine
 10
1914.4415168852
 20
101.710901597
 30
0.0
 11
1911.4415168852
 21
101.710901597
 31
0.0
  0
LINE
  5
46B
330
1F
100
AcDbEntity
  8
0
  6
Continuous
 62
     7
100
AcDbLine
 10
1914.4415168852
 20
197.710901597
 30
0.0
 11
1914.4415168852
 21
195.710901597
 31
0.0
  0
LINE
  5
46C
330
1F
100
AcDbEntity
  8
0
  6
Continuous
 62
     7
100
AcDbLine
 10
1914.4415168852
 20
195.710901597
 30
0.0
 11
1911.4415168852
 21
195.710901597
 31
0.0
  0
LINE
  5
46D
330
1F
100
AcDbEntity
  8
0
  6
Continuous
 62
     7
100
AcDbLine
 10
1911.4415168852
 20
197.710901597
 30
0.0
 11
1914.4415168852
 21
197.710901597
 31
0.0
  0
LINE
  5
46E
330
1F
100
AcDbEntity
  8
0
  6
Continuous
 62
     7
100
AcDbLine
 10
1927.4415168852
 20
101.710901597
 30
0.0
 11
1927.4415168852
 21
103.710901597
 31
0.0
  0
LINE
  5
46F
330
1F
100
AcDbEntity
  8
0
  6
Continuous
 62
     7
100
AcDbLine
 10
1927.4415168852
 20
103.710901597
 30
0.0
 11
1930.4415168852
 21
103.710901597
 31
0.0
  0
LINE
  5
470
330
1F
100
AcDbEntity
  8
0
  6
Continuous
 62
     7
100
AcDbLine
 10
1930.4415168852
 20
101.710901597
 30
0.0
 11
1927.4415168852
 21
101.710901597
 31
0.0
  0
LINE
  5
471
330
1F
100
AcDbEntity
  8
0
  6
Continuous
 62
     7
100
AcDbLine
 10
1927.4415168852
 20
195.710901597
 30
0.0
 11
1927.4415168852
 21
197.710901597
 31
0.0
  0
LINE
  5
472
330
1F
100
AcDbEntity
  8
0
  6
Continuous
 62
     7
100
AcDbLine
 10
1930.4415168852
 20
195.710901597
 30
0.0
 11
1927.4415168852
 21
195.710901597
 31
0.0
  0
LINE
  5
473
330
1F
100
AcDbEntity
  8
0
  6
Continuous
 62
     7
100
AcDbLine
 10
1927.4415168852
 20
197.710901597
 30
0.0
 11
1930.4415168852
 21
197.710901597
 31
0.0
  0
LINE
  5
474
330
1F
100
AcDbEntity
  8
0
  6
Continuous
 62
     7
100
AcDbLine
 10
1919.9415168852
 20
177.710901597
 30
0.0
 11
1925.9415168852
 21
177.710901597
 31
0.0
  0
LINE
  5
475
330
1F
100
AcDbEntity
  8
0
  6
Continuous
 62
     7
100
AcDbLine
 10
1913.9415168852
 20
177.710901597
 30
0.0
 11
1919.9415168852
 21
177.710901597
 31
0.0
  0
ARC
  5
476
330
1F
100
AcDbEntity
  8
0
  6
Continuous
 62
     7
100
AcDbCircle
 10
1911.9415168852
 20
177.710901597
 30
0.0
 40
2.0
100
AcDbArc
 50
0.0
 51
90.0
  0
ARC
  5
477
330
1F
100
AcDbEntity
  8
0
  6
Continuous
 62
     7
100
AcDbCircle
 10
1911.9415168852
 20
177.710901597
 30
0.0
 40
14.0
100
AcDbArc
 50
0.0
 51
90.0
  0
LINE
  5
478
330
1F
100
AcDbEntity
  8
0
  6
Continuous
 62
     7
100
AcDbLine
 10
1919.9415168852
 20
121.710901597
 30
0.0
 11
1913.9415168852
 21
121.710901597
 31
0.0
  0
LINE
  5
479
330
1F
100
AcDbEntity
  8
0
  6
Continuous
 62
     7
100
AcDbLine
 10
1925.9415168852
 20
121.710901597
 30
0.0
 11
1919.9415168852
 21
121.710901597
 31
0.0
  0
ARC
  5
47A
330
1F
100
AcDbEntity
  8
0
  6
Continuous
 62
     7
100
AcDbCircle
 10
1911.9415168852
 20
121.710901597
 30
0.0
 40
14.0
100
AcDbArc
 50
270.0
 51
0.0
  0
ARC
  5
47B
330
1F
100
AcDbEntity
  8
0
  6
Continuous
 62
     7
100
AcDbCircle
 10
1911.9415168852
 20
121.710901597
 30
0.0
 40
2.0
100
AcDbArc
 50
270.0
 51
0.0
  0
LINE
  5
47C
330
1F
100
AcDbEntity
  8
0
  6
Continuous
 62
     7
100
AcDbLine
 10
1913.9415168852
 20
177.710901597
 30
0.0
 11
1913.9415168852
 21
152.710901597
 31
0.0
  0
LINE
  5
47D
330
1F
100
AcDbEntity
  8
0
  6
Continuous
 62
     7
100
AcDbLine
 10
1913.9415168852
 20
146.710901597
 30
0.0
 11
1913.9415168852
 21
140.8371628872
 31
0.0
  0
LINE
  5
47E
330
1F
100
AcDbEntity
  8
0
  6
Continuous
 62
     7
100
AcDbLine
 10
1913.9415168852
 20
134.9895540869
 30
0.0
 11
1913.9415168852
 21
121.710901597
 31
0.0
  0
LINE
  5
47F
330
1F
100
AcDbEntity
  8
0
  6
Continuous
 62
     7
100
AcDbLine
 10
1925.9415168852
 20
177.710901597
 30
0.0
 11
1925.9415168852
 21
121.710901597
 31
0.0
  0
ARC
  5
480
330
1F
100
AcDbEntity
  8
0
  6
Continuous
 62
     7
100
AcDbCircle
 10
1424.4415168852
 20
144.210901597
 30
0.0
 40
2.0
100
AcDbArc
 50
270.0
 51
0.0
  0
LINE
  5
481
330
1F
100
AcDbEntity
  8
0
  6
Continuous
 62
     7
100
AcDbLine
 10
1424.4415168852
 20
142.210901597
 30
0.0
 11
1408.4415168852
 21
142.210901597
 31
0.0
  0
LINE
  5
482
330
1F
100
AcDbEntity
  8
0
  6
Continuous
 62
     7
100
AcDbLine
 10
1408.4415168852
 20
157.210901597
 30
0.0
 11
1424.4415168852
 21
157.210901597
 31
0.0
  0
ARC
  5
483
330
1F
100
AcDbEntity
  8
0
  6
Continuous
 62
     7
100
AcDbCircle
 10
1424.4415168852
 20
155.210901597
 30
0.0
 40
2.0
100
AcDbArc
 50
0.0
 51
90.0
  0
LINE
  5
484
330
1F
100
AcDbEntity
  8
0
  6
Continuous
 62
     7
100
AcDbLine
 10
1426.4415168852
 20
155.210901597
 30
0.0
 11
1426.4415168852
 21
144.210901597
 31
0.0
  0
LINE
  5
485
330
1F
100
AcDbEntity
  8
0
  6
Continuous
 62
     7
100
AcDbLine
 10
1408.4415168852
 20
142.210901597
 30
0.0
 11
1407.4415168852
 21
142.210901597
 31
0.0
  0
LINE
  5
486
330
1F
100
AcDbEntity
  8
0
  6
Continuous
 62
     7
100
AcDbLine
 10
1408.4415168852
 20
157.210901597
 30
0.0
 11
1407.4415168852
 21
157.210901597
 31
0.0
  0
ARC
  5
487
330
1F
100
AcDbEntity
  8
0
  6
Continuous
 62
     7
100
AcDbCircle
 10
1894.4415168852
 20
155.210901597
 30
0.0
 40
2.0
100
AcDbArc
 50
90.0
 51
180.0
  0
LINE
  5
488
330
1F
100
AcDbEntity
  8
0
  6
Continuous
 62
     7
100
AcDbLine
 10
1894.4415168852
 20
157.210901597
 30
0.0
 11
1910.4415168852
 21
157.210901597
 31
0.0
  0
LINE
  5
489
330
1F
100
AcDbEntity
  8
0
  6
Continuous
 62
     7
100
AcDbLine
 10
1910.4415168852
 20
142.210901597
 30
0.0
 11
1894.4415168852
 21
142.210901597
 31
0.0
  0
ARC
  5
48A
330
1F
100
AcDbEntity
  8
0
  6
Continuous
 62
     7
100
AcDbCircle
 10
1894.4415168852
 20
144.210901597
 30
0.0
 40
2.0
100
AcDbArc
 50
180.0
 51
270.0
  0
LINE
  5
48B
330
1F
100
AcDbEntity
  8
0
  6
Continuous
 62
     7
100
AcDbLine
 10
1892.4415168852
 20
144.210901597
 30
0.0
 11
1892.4415168852
 21
155.210901597
 31
0.0
  0
LINE
  5
48C
330
1F
100
AcDbEntity
  8
0
  6
Continuous
 62
     7
100
AcDbLine
 10
1910.4415168852
 20
142.210901597
 30
0.0
 11
1911.4415168852
 21
142.210901597
 31
0.0
  0
LINE
  5
48D
330
1F
100
AcDbEntity
  8
0
  6
Continuous
 62
     7
100
AcDbLine
 10
1910.4415168852
 20
157.210901597
 30
0.0
 11
1911.4415168852
 21
157.210901597
 31
0.0
  0
LINE
  5
48E
330
1F
100
AcDbEntity
  8
0
  6
Continuous
 62
     7
100
AcDbLine
 10
1404.4415168852
 20
103.710901597
 30
0.0
 11
1391.4415168852
 21
103.710901597
 31
0.0
  0
LINE
  5
48F
330
1F
100
AcDbEntity
  8
0
  6
Continuous
 62
     7
100
AcDbLine
 10
1404.4415168852
 20
101.710901597
 30
0.0
 11
1391.4415168852
 21
101.710901597
 31
0.0
  0
LINE
  5
490
330
1F
100
AcDbEntity
  8
0
  6
Continuous
 62
     7
100
AcDbLine
 10
1391.4415168852
 20
195.710901597
 30
0.0
 11
1404.4415168852
 21
195.710901597
 31
0.0
  0
LINE
  5
491
330
1F
100
AcDbEntity
  8
0
  6
Continuous
 62
     7
100
AcDbLine
 10
1404.4415168852
 20
197.710901597
 30
0.0
 11
1391.4415168852
 21
197.710901597
 31
0.0
  0
LINE
  5
492
330
1F
100
AcDbEntity
  8
0
  6
Continuous
 62
     7
100
AcDbLine
 10
1927.4415168852
 20
103.710901597
 30
0.0
 11
1914.4415168852
 21
103.710901597
 31
0.0
  0
LINE
  5
493
330
1F
100
AcDbEntity
  8
0
  6
Continuous
 62
     7
100
AcDbLine
 10
1927.4415168852
 20
101.710901597
 30
0.0
 11
1914.4415168852
 21
101.710901597
 31
0.0
  0
LINE
  5
494
330
1F
100
AcDbEntity
  8
0
  6
Continuous
 62
     7
100
AcDbLine
 10
1914.4415168852
 20
195.710901597
 30
0.0
 11
1927.4415168852
 21
195.710901597
 31
0.0
  0
LINE
  5
495
330
1F
100
AcDbEntity
  8
0
  6
Continuous
 62
     7
100
AcDbLine
 10
1927.4415168852
 20
197.710901597
 30
0.0
 11
1914.4415168852
 21
197.710901597
 31
0.0
  0
ARC
  5
496
330
1F
100
AcDbEntity
  8
0
  6
Continuous
 62
     7
100
AcDbCircle
 10
1856.9415168852
 20
167.710901597
 30
0.0
 40
5.750000000000172
100
AcDbArc
 50
260.4864054705
 51
80.4864054705
  0
ARC
  5
497
330
1F
100
AcDbEntity
  8
0
  6
Continuous
 62
     7
100
AcDbCircle
 10
1856.9415168852
 20
167.710901597
 30
0.0
 40
5.750000000000172
100
AcDbArc
 50
80.4864054705
 51
260.4864054705
  0
LINE
  5
498
330
1F
100
AcDbEntity
  8
0
  6
Continuous
 62
     7
100
AcDbLine
 10
1417.9415168852
 20
142.175367691
 30
0.0
 11
1417.9415168852
 21
141.4682609098
 31
0.0
  0
LINE
  5
499
330
1F
100
AcDbEntity
  8
0
  6
Continuous
 62
     7
100
AcDbLine
 10
1417.9415168852
 20
157.2464355029
 30
0.0
 11
1417.9415168852
 21
157.9535422841
 31
0.0
  0
LINE
  5
49A
330
1F
100
AcDbEntity
  8
0
  6
Continuous
 62
     7
100
AcDbLine
 10
1900.9415168852
 20
142.175367691
 30
0.0
 11
1900.9415168852
 21
141.4682609098
 31
0.0
  0
LINE
  5
49B
330
1F
100
AcDbEntity
  8
0
  6
Continuous
 62
     7
100
AcDbLine
 10
1900.9415168852
 20
157.2464355029
 30
0.0
 11
1900.9415168852
 21
157.9535422841
 31
0.0
  0
ARC
  5
49C
330
1F
100
AcDbEntity
  8
0
  6
Continuous
 62
     7
100
AcDbCircle
 10
1871.9415168852
 20
142.710901597
 30
0.0
 40
13.20000000000005
100
AcDbArc
 50
0.0
 51
180.0
  0
ARC
  5
49D
330
1F
100
AcDbEntity
  8
0
  6
Continuous
 62
     7
100
AcDbCircle
 10
1871.9415168852
 20
142.710901597
 30
0.0
 40
13.20000000000005
100
AcDbArc
 50
180.0
 51
0.0
  0
ARC
  5
49E
330
1F
100
AcDbEntity
  8
0
  6
Continuous
 62
     7
100
AcDbCircle
 10
1871.9415168852
 20
142.710901597
 30
0.0
 40
15.0
100
AcDbArc
 50
0.0
 51
180.0
  0
ARC
  5
49F
330
1F
100
AcDbEntity
  8
0
  6
Continuous
 62
     7
100
AcDbCircle
 10
1871.9415168852
 20
142.710901597
 30
0.0
 40
15.0
100
AcDbArc
 50
180.0
 51
0.0
  0
LINE
  5
4A0
330
1F
100
AcDbEntity
  8
0
  6
Continuous
 62
     7
100
AcDbLine
 10
1872.8415168852
 20
145.210901597
 30
0.0
 11
1872.8415168852
 21
149.310901597
 31
0.0
  0
LINE
  5
4A1
330
1F
100
AcDbEntity
  8
0
  6
Continuous
 62
     7
100
AcDbLine
 10
1872.8415168852
 20
145.210901597
 30
0.0
 11
1880.5687244611
 21
145.210901597
 31
0.0
  0
ARC
  5
4A2
330
1F
100
AcDbEntity
  8
0
  6
Continuous
 62
     7
100
AcDbCircle
 10
1880.5687246791
 20
144.310901597
 30
0.0
 40
0.9000000000000321
100
AcDbArc
 50
270.0
 51
90.0000138802
  0
LINE
  5
4A3
330
1F
100
AcDbEntity
  8
0
  6
Continuous
 62
     7
100
AcDbLine
 10
1863.3143089698
 20
143.410901597
 30
0.0
 11
1880.5687246791
 21
143.410901597
 31
0.0
  0
ARC
  5
4A4
330
1F
100
AcDbEntity
  8
0
  6
Continuous
 62
     7
100
AcDbCircle
 10
1863.3143090914
 20
144.310901597
 30
0.0
 40
0.9000000000000139
100
AcDbArc
 50
180.0
 51
269.9999922618
  0
ARC
  5
4A5
330
1F
100
AcDbEntity
  8
0
  6
Continuous
 62
     7
100
AcDbCircle
 10
1863.3143090914
 20
144.310901597
 30
0.0
 40
0.9000000000000057
100
AcDbArc
 50
90.0
 51
180.0
  0
LINE
  5
4A6
330
1F
100
AcDbEntity
  8
0
  6
Continuous
 62
     7
100
AcDbLine
 10
1863.3143090914
 20
145.210901597
 30
0.0
 11
1871.0415168852
 21
145.210901597
 31
0.0
  0
LINE
  5
4A7
330
1F
100
AcDbEntity
  8
0
  6
Continuous
 62
     7
100
AcDbLine
 10
1871.0415168852
 20
149.310901597
 30
0.0
 11
1871.0415168852
 21
145.210901597
 31
0.0
  0
ARC
  5
4A8
330
1F
100
AcDbEntity
  8
0
  6
Continuous
 62
     7
100
AcDbCircle
 10
1871.9415168852
 20
149.310901597
 30
0.0
 40
0.900000000000091
100
AcDbArc
 50
0.0
 51
180.0
  0
LINE
  5
4A9
330
1F
100
AcDbEntity
  8
0
  6
Continuous
 62
     7
100
AcDbLine
 10
1876.9687246791
 20
139.810901597
 30
0.0
 11
1866.9143090914
 21
139.810901597
 31
0.0
  0
ARC
  5
4AA
330
1F
100
AcDbEntity
  8
0
  6
Continuous
 62
     7
100
AcDbCircle
 10
1866.9143090914
 20
140.710901597
 30
0.0
 40
0.9000000000000057
100
AcDbArc
 50
180.0
 51
270.0
  0
ARC
  5
4AB
330
1F
100
AcDbEntity
  8
0
  6
Continuous
 62
     7
100
AcDbCircle
 10
1866.9143090914
 20
140.710901597
 30
0.0
 40
0.8999999999999773
100
AcDbArc
 50
90.0
 51
180.0
  0
LINE
  5
4AC
330
1F
100
AcDbEntity
  8
0
  6
Continuous
 62
     7
100
AcDbLine
 10
1876.9687246791
 20
141.610901597
 30
0.0
 11
1866.9143090914
 21
141.610901597
 31
0.0
  0
ARC
  5
4AD
330
1F
100
AcDbEntity
  8
0
  6
Continuous
 62
     7
100
AcDbCircle
 10
1876.9687246791
 20
140.710901597
 30
0.0
 40
0.9000000000000057
100
AcDbArc
 50
270.0
 51
90.0
  0
LINE
  5
4AE
330
1F
100
AcDbEntity
  8
0
  6
Continuous
 62
     7
100
AcDbLine
 10
1870.5143090914
 20
138.010901597
 30
0.0
 11
1873.3687246791
 21
138.010901597
 31
0.0
  0
ARC
  5
4AF
330
1F
100
AcDbEntity
  8
0
  6
Continuous
 62
     7
100
AcDbCircle
 10
1873.3687246791
 20
137.110901597
 30
0.0
 40
0.9000000000000057
100
AcDbArc
 50
270.0
 51
90.0
  0
LINE
  5
4B0
330
1F
100
AcDbEntity
  8
0
  6
Continuous
 62
     7
100
AcDbLine
 10
1870.5143090914
 20
136.210901597
 30
0.0
 11
1873.3687246791
 21
136.210901597
 31
0.0
  0
ARC
  5
4B1
330
1F
100
AcDbEntity
  8
0
  6
Continuous
 62
     7
100
AcDbCircle
 10
1870.5143090914
 20
137.110901597
 30
0.0
 40
0.8999999999999773
100
AcDbArc
 50
180.0
 51
270.0
  0
ARC
  5
4B2
330
1F
100
AcDbEntity
  8
0
  6
Continuous
 62
     7
100
AcDbCircle
 10
1870.5143090914
 20
137.110901597
 30
0.0
 40
0.9000000000000057
100
AcDbArc
 50
90.0
 51
180.0
  0
ARC
  5
4B3
330
1F
100
AcDbEntity
  8
0
  6
Continuous
 62
     7
100
AcDbCircle
 10
1834.643835091
 20
163.310901597
 30
0.0
 40
12.68857754044942
100
AcDbArc
 50
0.0
 51
90.0
  0
LINE
  5
4B4
330
1F
100
AcDbEntity
  8
0
  6
Continuous
 62
     7
100
AcDbLine
 10
1834.643835091
 20
175.9994791374
 30
0.0
 11
1795.643835091
 21
175.9994791374
 31
0.0
  0
ARC
  5
4B5
330
1F
100
AcDbEntity
  8
0
  6
Continuous
 62
     7
100
AcDbCircle
 10
1795.643835091
 20
163.310901597
 30
0.0
 40
12.68857754044961
100
AcDbArc
 50
90.0
 51
180.0
  0
LINE
  5
4B6
330
1F
100
AcDbEntity
  8
0
  6
Continuous
 62
     7
100
AcDbLine
 10
1782.9552575505
 20
163.310901597
 30
0.0
 11
1847.3324126314
 21
163.310901597
 31
0.0
  0
ARC
  5
4B7
330
1F
100
AcDbEntity
  8
0
  6
Continuous
 62
     7
100
AcDbCircle
 10
1834.643835091
 20
143.310901597
 30
0.0
 40
12.68857754044939
100
AcDbArc
 50
0.0
 51
90.0
  0
LINE
  5
4B8
330
1F
100
AcDbEntity
  8
0
  6
Continuous
 62
     7
100
AcDbLine
 10
1834.643835091
 20
155.9994791374
 30
0.0
 11
1795.643835091
 21
155.9994791374
 31
0.0
  0
ARC
  5
4B9
330
1F
100
AcDbEntity
  8
0
  6
Continuous
 62
     7
100
AcDbCircle
 10
1795.643835091
 20
143.310901597
 30
0.0
 40
12.68857754044961
100
AcDbArc
 50
90.0
 51
180.0
  0
LINE
  5
4BA
330
1F
100
AcDbEntity
  8
0
  6
Continuous
 62
     7
100
AcDbLine
 10
1782.9552575505
 20
143.310901597
 30
0.0
 11
1847.3324126314
 21
143.310901597
 31
0.0
  0
ARC
  5
4BB
330
1F
100
AcDbEntity
  8
0
  6
Continuous
 62
     7
100
AcDbCircle
 10
1834.643835091
 20
123.310901597
 30
0.0
 40
12.68857754044937
100
AcDbArc
 50
0.0
 51
90.0
  0
LINE
  5
4BC
330
1F
100
AcDbEntity
  8
0
  6
Continuous
 62
     7
100
AcDbLine
 10
1834.643835091
 20
135.9994791374
 30
0.0
 11
1795.643835091
 21
135.9994791374
 31
0.0
  0
ARC
  5
4BD
330
1F
100
AcDbEntity
  8
0
  6
Continuous
 62
     7
100
AcDbCircle
 10
1795.643835091
 20
123.310901597
 30
0.0
 40
12.68857754044961
100
AcDbArc
 50
90.0
 51
180.0
  0
LINE
  5
4BE
330
1F
100
AcDbEntity
  8
0
  6
Continuous
 62
     7
100
AcDbLine
 10
1782.9552575505
 20
123.310901597
 30
0.0
 11
1847.3324126314
 21
123.310901597
 31
0.0
  0
ARC
  5
4BF
330
1F
100
AcDbEntity
  8
0
  6
Continuous
 62
     7
100
AcDbCircle
 10
1754.643835091
 20
163.310901597
 30
0.0
 40
12.68857754044961
100
AcDbArc
 50
0.0
 51
90.0
  0
LINE
  5
4C0
330
1F
100
AcDbEntity
  8
0
  6
Continuous
 62
     7
100
AcDbLine
 10
1754.643835091
 20
175.9994791374
 30
0.0
 11
1715.643835091
 21
175.9994791374
 31
0.0
  0
ARC
  5
4C1
330
1F
100
AcDbEntity
  8
0
  6
Continuous
 62
     7
100
AcDbCircle
 10
1715.643835091
 20
163.310901597
 30
0.0
 40
12.68857754044947
100
AcDbArc
 50
90.0
 51
180.0
  0
LINE
  5
4C2
330
1F
100
AcDbEntity
  8
0
  6
Continuous
 62
     7
100
AcDbLine
 10
1702.9552575505
 20
163.310901597
 30
0.0
 11
1767.3324126314
 21
163.310901597
 31
0.0
  0
ARC
  5
4C3
330
1F
100
AcDbEntity
  8
0
  6
Continuous
 62
     7
100
AcDbCircle
 10
1754.643835091
 20
143.310901597
 30
0.0
 40
12.68857754044961
100
AcDbArc
 50
0.0
 51
90.0
  0
LINE
  5
4C4
330
1F
100
AcDbEntity
  8
0
  6
Continuous
 62
     7
100
AcDbLine
 10
1754.643835091
 20
155.9994791374
 30
0.0
 11
1715.643835091
 21
155.9994791374
 31
0.0
  0
ARC
  5
4C5
330
1F
100
AcDbEntity
  8
0
  6
Continuous
 62
     7
100
AcDbCircle
 10
1715.643835091
 20
143.310901597
 30
0.0
 40
12.68857754044944
100
AcDbArc
 50
90.0
 51
180.0
  0
LINE
  5
4C6
330
1F
100
AcDbEntity
  8
0
  6
Continuous
 62
     7
100
AcDbLine
 10
1702.9552575505
 20
143.310901597
 30
0.0
 11
1767.3324126314
 21
143.310901597
 31
0.0
  0
ARC
  5
4C7
330
1F
100
AcDbEntity
  8
0
  6
Continuous
 62
     7
100
AcDbCircle
 10
1754.643835091
 20
123.310901597
 30
0.0
 40
12.68857754044961
100
AcDbArc
 50
0.0
 51
90.0
  0
LINE
  5
4C8
330
1F
100
AcDbEntity
  8
0
  6
Continuous
 62
     7
100
AcDbLine
 10
1754.643835091
 20
135.9994791374
 30
0.0
 11
1715.643835091
 21
135.9994791374
 31
0.0
  0
ARC
  5
4C9
330
1F
100
AcDbEntity
  8
0
  6
Continuous
 62
     7
100
AcDbCircle
 10
1715.643835091
 20
123.310901597
 30
0.0
 40
12.68857754044939
100
AcDbArc
 50
90.0
 51
180.0
  0
LINE
  5
4CA
330
1F
100
AcDbEntity
  8
0
  6
Continuous
 62
     7
100
AcDbLine
 10
1702.9552575505
 20
123.310901597
 30
0.0
 11
1767.3324126314
 21
123.310901597
 31
0.0
  0
ARC
  5
4CB
330
1F
100
AcDbEntity
  8
0
  6
Continuous
 62
     7
100
AcDbCircle
 10
1514.643835091
 20
163.310901597
 30
0.0
 40
12.68857754044961
100
AcDbArc
 50
0.0
 51
90.0
  0
LINE
  5
4CC
330
1F
100
AcDbEntity
  8
0
  6
Continuous
 62
     7
100
AcDbLine
 10
1514.643835091
 20
175.9994791374
 30
0.0
 11
1475.643835091
 21
175.9994791374
 31
0.0
  0
ARC
  5
4CD
330
1F
100
AcDbEntity
  8
0
  6
Continuous
 62
     7
100
AcDbCircle
 10
1475.643835091
 20
163.310901597
 30
0.0
 40
12.68857754044961
100
AcDbArc
 50
90.0
 51
180.0
  0
LINE
  5
4CE
330
1F
100
AcDbEntity
  8
0
  6
Continuous
 62
     7
100
AcDbLine
 10
1462.9552575505
 20
163.310901597
 30
0.0
 11
1527.3324126314
 21
163.310901597
 31
0.0
  0
ARC
  5
4CF
330
1F
100
AcDbEntity
  8
0
  6
Continuous
 62
     7
100
AcDbCircle
 10
1514.643835091
 20
143.310901597
 30
0.0
 40
12.68857754044961
100
AcDbArc
 50
0.0
 51
90.0
  0
LINE
  5
4D0
330
1F
100
AcDbEntity
  8
0
  6
Continuous
 62
     7
100
AcDbLine
 10
1514.643835091
 20
155.9994791374
 30
0.0
 11
1475.643835091
 21
155.9994791374
 31
0.0
  0
ARC
  5
4D1
330
1F
100
AcDbEntity
  8
0
  6
Continuous
 62
     7
100
AcDbCircle
 10
1475.643835091
 20
143.310901597
 30
0.0
 40
12.68857754044961
100
AcDbArc
 50
90.0
 51
180.0
  0
LINE
  5
4D2
330
1F
100
AcDbEntity
  8
0
  6
Continuous
 62
     7
100
AcDbLine
 10
1462.9552575505
 20
143.310901597
 30
0.0
 11
1527.3324126314
 21
143.310901597
 31
0.0
  0
ARC
  5
4D3
330
1F
100
AcDbEntity
  8
0
  6
Continuous
 62
     7
100
AcDbCircle
 10
1514.643835091
 20
123.310901597
 30
0.0
 40
12.68857754044961
100
AcDbArc
 50
0.0
 51
90.0
  0
LINE
  5
4D4
330
1F
100
AcDbEntity
  8
0
  6
Continuous
 62
     7
100
AcDbLine
 10
1514.643835091
 20
135.9994791374
 30
0.0
 11
1475.643835091
 21
135.9994791374
 31
0.0
  0
ARC
  5
4D5
330
1F
100
AcDbEntity
  8
0
  6
Continuous
 62
     7
100
AcDbCircle
 10
1475.643835091
 20
123.310901597
 30
0.0
 40
12.68857754044961
100
AcDbArc
 50
90.0
 51
180.0
  0
LINE
  5
4D6
330
1F
100
AcDbEntity
  8
0
  6
Continuous
 62
     7
100
AcDbLine
 10
1462.9552575505
 20
123.310901597
 30
0.0
 11
1527.3324126314
 21
123.310901597
 31
0.0
  0
ARC
  5
4D7
330
1F
100
AcDbEntity
  8
0
  6
Continuous
 62
     7
100
AcDbCircle
 10
1594.643835091
 20
163.310901597
 30
0.0
 40
12.68857754044961
100
AcDbArc
 50
0.0
 51
90.0
  0
LINE
  5
4D8
330
1F
100
AcDbEntity
  8
0
  6
Continuous
 62
     7
100
AcDbLine
 10
1594.643835091
 20
175.9994791374
 30
0.0
 11
1555.643835091
 21
175.9994791374
 31
0.0
  0
ARC
  5
4D9
330
1F
100
AcDbEntity
  8
0
  6
Continuous
 62
     7
100
AcDbCircle
 10
1555.643835091
 20
163.310901597
 30
0.0
 40
12.68857754044961
100
AcDbArc
 50
90.0
 51
180.0
  0
LINE
  5
4DA
330
1F
100
AcDbEntity
  8
0
  6
Continuous
 62
     7
100
AcDbLine
 10
1542.9552575505
 20
163.310901597
 30
0.0
 11
1607.3324126314
 21
163.310901597
 31
0.0
  0
ARC
  5
4DB
330
1F
100
AcDbEntity
  8
0
  6
Continuous
 62
     7
100
AcDbCircle
 10
1594.643835091
 20
143.310901597
 30
0.0
 40
12.68857754044961
100
AcDbArc
 50
0.0
 51
90.0
  0
LINE
  5
4DC
330
1F
100
AcDbEntity
  8
0
  6
Continuous
 62
     7
100
AcDbLine
 10
1594.643835091
 20
155.9994791374
 30
0.0
 11
1555.643835091
 21
155.9994791374
 31
0.0
  0
ARC
  5
4DD
330
1F
100
AcDbEntity
  8
0
  6
Continuous
 62
     7
100
AcDbCircle
 10
1555.643835091
 20
143.310901597
 30
0.0
 40
12.68857754044961
100
AcDbArc
 50
90.0
 51
180.0
  0
LINE
  5
4DE
330
1F
100
AcDbEntity
  8
0
  6
Continuous
 62
     7
100
AcDbLine
 10
1542.9552575505
 20
143.310901597
 30
0.0
 11
1607.3324126314
 21
143.310901597
 31
0.0
  0
ARC
  5
4DF
330
1F
100
AcDbEntity
  8
0
  6
Continuous
 62
     7
100
AcDbCircle
 10
1594.643835091
 20
123.310901597
 30
0.0
 40
12.68857754044961
100
AcDbArc
 50
0.0
 51
90.0
  0
LINE
  5
4E0
330
1F
100
AcDbEntity
  8
0
  6
Continuous
 62
     7
100
AcDbLine
 10
1594.643835091
 20
135.9994791374
 30
0.0
 11
1555.643835091
 21
135.9994791374
 31
0.0
  0
ARC
  5
4E1
330
1F
100
AcDbEntity
  8
0
  6
Continuous
 62
     7
100
AcDbCircle
 10
1555.643835091
 20
123.310901597
 30
0.0
 40
12.68857754044961
100
AcDbArc
 50
90.0
 51
180.0
  0
LINE
  5
4E2
330
1F
100
AcDbEntity
  8
0
  6
Continuous
 62
     7
100
AcDbLine
 10
1542.9552575505
 20
123.310901597
 30
0.0
 11
1607.3324126314
 21
123.310901597
 31
0.0
  0
ARC
  5
4E3
330
1F
100
AcDbEntity
  8
0
  6
Continuous
 62
     7
100
AcDbCircle
 10
1674.643835091
 20
163.310901597
 30
0.0
 40
12.68857754044947
100
AcDbArc
 50
0.0
 51
90.0
  0
LINE
  5
4E4
330
1F
100
AcDbEntity
  8
0
  6
Continuous
 62
     7
100
AcDbLine
 10
1674.643835091
 20
175.9994791374
 30
0.0
 11
1635.643835091
 21
175.9994791374
 31
0.0
  0
ARC
  5
4E5
330
1F
100
AcDbEntity
  8
0
  6
Continuous
 62
     7
100
AcDbCircle
 10
1635.643835091
 20
163.310901597
 30
0.0
 40
12.68857754044947
100
AcDbArc
 50
90.0
 51
180.0
  0
LINE
  5
4E6
330
1F
100
AcDbEntity
  8
0
  6
Continuous
 62
     7
100
AcDbLine
 10
1622.9552575505
 20
163.310901597
 30
0.0
 11
1687.3324126314
 21
163.310901597
 31
0.0
  0
ARC
  5
4E7
330
1F
100
AcDbEntity
  8
0
  6
Continuous
 62
     7
100
AcDbCircle
 10
1674.643835091
 20
143.310901597
 30
0.0
 40
12.68857754044944
100
AcDbArc
 50
0.0
 51
90.0
  0
LINE
  5
4E8
330
1F
100
AcDbEntity
  8
0
  6
Continuous
 62
     7
100
AcDbLine
 10
1674.643835091
 20
155.9994791374
 30
0.0
 11
1635.643835091
 21
155.9994791374
 31
0.0
  0
ARC
  5
4E9
330
1F
100
AcDbEntity
  8
0
  6
Continuous
 62
     7
100
AcDbCircle
 10
1635.643835091
 20
143.310901597
 30
0.0
 40
12.68857754044944
100
AcDbArc
 50
90.0
 51
180.0
  0
LINE
  5
4EA
330
1F
100
AcDbEntity
  8
0
  6
Continuous
 62
     7
100
AcDbLine
 10
1622.9552575505
 20
143.310901597
 30
0.0
 11
1687.3324126314
 21
143.310901597
 31
0.0
  0
ARC
  5
4EB
330
1F
100
AcDbEntity
  8
0
  6
Continuous
 62
     7
100
AcDbCircle
 10
1674.643835091
 20
123.310901597
 30
0.0
 40
12.68857754044939
100
AcDbArc
 50
0.0
 51
90.0
  0
LINE
  5
4EC
330
1F
100
AcDbEntity
  8
0
  6
Continuous
 62
     7
100
AcDbLine
 10
1674.643835091
 20
135.9994791374
 30
0.0
 11
1635.643835091
 21
135.9994791374
 31
0.0
  0
ARC
  5
4ED
330
1F
100
AcDbEntity
  8
0
  6
Continuous
 62
     7
100
AcDbCircle
 10
1635.643835091
 20
123.310901597
 30
0.0
 40
12.68857754044946
100
AcDbArc
 50
90.0
 51
180.0
  0
LINE
  5
4EE
330
1F
100
AcDbEntity
  8
0
  6
Continuous
 62
     7
100
AcDbLine
 10
1622.9552575505
 20
123.310901597
 30
0.0
 11
1687.3324126314
 21
123.310901597
 31
0.0
  0
LINE
  5
4EF
330
1F
100
AcDbEntity
  8
0
  6
Continuous
 62
     7
100
AcDbLine
 10
1514.643835091
 20
173.2707527846
 30
0.0
 11
1514.643835091
 21
175.9994791374
 31
0.0
  0
LINE
  5
4F0
330
1F
100
AcDbEntity
  8
0
  6
Continuous
 62
     7
100
AcDbLine
 10
1475.643835091
 20
173.2707527846
 30
0.0
 11
1514.643835091
 21
173.2707527846
 31
0.0
  0
LINE
  5
4F1
330
1F
100
AcDbEntity
  8
0
  6
Continuous
 62
     7
100
AcDbLine
 10
1475.643835091
 20
173.2707527846
 30
0.0
 11
1475.643835091
 21
175.9994791374
 31
0.0
  0
LINE
  5
4F2
330
1F
100
AcDbEntity
  8
0
  6
Continuous
 62
     7
100
AcDbLine
 10
1514.643835091
 20
153.2707527846
 30
0.0
 11
1514.643835091
 21
155.9994791374
 31
0.0
  0
LINE
  5
4F3
330
1F
100
AcDbEntity
  8
0
  6
Continuous
 62
     7
100
AcDbLine
 10
1475.643835091
 20
153.2707527846
 30
0.0
 11
1514.643835091
 21
153.2707527846
 31
0.0
  0
LINE
  5
4F4
330
1F
100
AcDbEntity
  8
0
  6
Continuous
 62
     7
100
AcDbLine
 10
1475.643835091
 20
153.2707527846
 30
0.0
 11
1475.643835091
 21
155.9994791374
 31
0.0
  0
ARC
  5
4F5
330
1F
100
AcDbEntity
  8
0
  6
Continuous
 62
     7
100
AcDbCircle
 10
1475.643835091
 20
163.310901597
 30
0.0
 40
9.959851187664697
100
AcDbArc
 50
90.0
 51
180.0
  0
LINE
  5
4F6
330
1F
100
AcDbEntity
  8
0
  6
Continuous
 62
     7
100
AcDbLine
 10
1594.643835091
 20
173.2707527846
 30
0.0
 11
1594.643835091
 21
175.9994791374
 31
0.0
  0
LINE
  5
4F7
330
1F
100
AcDbEntity
  8
0
  6
Continuous
 62
     7
100
AcDbLine
 10
1555.643835091
 20
173.2707527846
 30
0.0
 11
1594.643835091
 21
173.2707527846
 31
0.0
  0
LINE
  5
4F8
330
1F
100
AcDbEntity
  8
0
  6
Continuous
 62
     7
100
AcDbLine
 10
1555.643835091
 20
173.2707527846
 30
0.0
 11
1555.643835091
 21
175.9994791374
 31
0.0
  0
LINE
  5
4F9
330
1F
100
AcDbEntity
  8
0
  6
Continuous
 62
     7
100
AcDbLine
 10
1514.643835091
 20
133.2707527846
 30
0.0
 11
1514.643835091
 21
135.9994791374
 31
0.0
  0
LINE
  5
4FA
330
1F
100
AcDbEntity
  8
0
  6
Continuous
 62
     7
100
AcDbLine
 10
1475.643835091
 20
133.2707527846
 30
0.0
 11
1514.643835091
 21
133.2707527846
 31
0.0
  0
LINE
  5
4FB
330
1F
100
AcDbEntity
  8
0
  6
Continuous
 62
     7
100
AcDbLine
 10
1475.643835091
 20
133.2707527846
 30
0.0
 11
1475.643835091
 21
135.9994791374
 31
0.0
  0
ARC
  5
4FC
330
1F
100
AcDbEntity
  8
0
  6
Continuous
 62
     7
100
AcDbCircle
 10
1475.643835091
 20
143.310901597
 30
0.0
 40
9.95985118766464
100
AcDbArc
 50
90.0
 51
180.0
  0
LINE
  5
4FD
330
1F
100
AcDbEntity
  8
0
  6
Continuous
 62
     7
100
AcDbLine
 10
1594.643835091
 20
153.2707527846
 30
0.0
 11
1594.643835091
 21
155.9994791374
 31
0.0
  0
LINE
  5
4FE
330
1F
100
AcDbEntity
  8
0
  6
Continuous
 62
     7
100
AcDbLine
 10
1555.643835091
 20
153.2707527846
 30
0.0
 11
1594.643835091
 21
153.2707527846
 31
0.0
  0
LINE
  5
4FF
330
1F
100
AcDbEntity
  8
0
  6
Continuous
 62
     7
100
AcDbLine
 10
1555.643835091
 20
153.2707527846
 30
0.0
 11
1555.643835091
 21
155.9994791374
 31
0.0
  0
ARC
  5
500
330
1F
100
AcDbEntity
  8
0
  6
Continuous
 62
     7
100
AcDbCircle
 10
1514.643835091
 20
163.310901597
 30
0.0
 40
9.959851187665208
100
AcDbArc
 50
0.0
 51
90.0
  0
ARC
  5
501
330
1F
100
AcDbEntity
  8
0
  6
Continuous
 62
     7
100
AcDbCircle
 10
1555.643835091
 20
163.310901597
 30
0.0
 40
9.959851187664754
100
AcDbArc
 50
90.0
 51
180.0
  0
ARC
  5
502
330
1F
100
AcDbEntity
  8
0
  6
Continuous
 62
     7
100
AcDbCircle
 10
1475.643835091
 20
123.310901597
 30
0.0
 40
9.959851187664682
100
AcDbArc
 50
90.0
 51
180.0
  0
LINE
  5
503
330
1F
100
AcDbEntity
  8
0
  6
Continuous
 62
     7
100
AcDbLine
 10
1674.643835091
 20
173.2707527846
 30
0.0
 11
1674.643835091
 21
175.9994791374
 31
0.0
  0
LINE
  5
504
330
1F
100
AcDbEntity
  8
0
  6
Continuous
 62
     7
100
AcDbLine
 10
1635.643835091
 20
173.2707527846
 30
0.0
 11
1674.643835091
 21
173.2707527846
 31
0.0
  0
LINE
  5
505
330
1F
100
AcDbEntity
  8
0
  6
Continuous
 62
     7
100
AcDbLine
 10
1635.643835091
 20
173.2707527846
 30
0.0
 11
1635.643835091
 21
175.9994791374
 31
0.0
  0
LINE
  5
506
330
1F
100
AcDbEntity
  8
0
  6
Continuous
 62
     7
100
AcDbLine
 10
1594.643835091
 20
133.2707527846
 30
0.0
 11
1594.643835091
 21
135.9994791374
 31
0.0
  0
LINE
  5
507
330
1F
100
AcDbEntity
  8
0
  6
Continuous
 62
     7
100
AcDbLine
 10
1555.643835091
 20
133.2707527846
 30
0.0
 11
1594.643835091
 21
133.2707527846
 31
0.0
  0
LINE
  5
508
330
1F
100
AcDbEntity
  8
0
  6
Continuous
 62
     7
100
AcDbLine
 10
1555.643835091
 20
133.2707527846
 30
0.0
 11
1555.643835091
 21
135.9994791374
 31
0.0
  0
ARC
  5
509
330
1F
100
AcDbEntity
  8
0
  6
Continuous
 62
     7
100
AcDbCircle
 10
1555.643835091
 20
143.310901597
 30
0.0
 40
9.959851187664754
100
AcDbArc
 50
90.0
 51
180.0
  0
ARC
  5
50A
330
1F
100
AcDbEntity
  8
0
  6
Continuous
 62
     7
100
AcDbCircle
 10
1514.643835091
 20
143.310901597
 30
0.0
 40
9.959851187665208
100
AcDbArc
 50
0.0
 51
90.0
  0
LINE
  5
50B
330
1F
100
AcDbEntity
  8
0
  6
Continuous
 62
     7
100
AcDbLine
 10
1674.643835091
 20
153.2707527846
 30
0.0
 11
1674.643835091
 21
155.9994791374
 31
0.0
  0
LINE
  5
50C
330
1F
100
AcDbEntity
  8
0
  6
Continuous
 62
     7
100
AcDbLine
 10
1635.643835091
 20
153.2707527846
 30
0.0
 11
1674.643835091
 21
153.2707527846
 31
0.0
  0
LINE
  5
50D
330
1F
100
AcDbEntity
  8
0
  6
Continuous
 62
     7
100
AcDbLine
 10
1635.643835091
 20
153.2707527846
 30
0.0
 11
1635.643835091
 21
155.9994791374
 31
0.0
  0
ARC
  5
50E
330
1F
100
AcDbEntity
  8
0
  6
Continuous
 62
     7
100
AcDbCircle
 10
1635.643835091
 20
163.310901597
 30
0.0
 40
9.95985118766464
100
AcDbArc
 50
90.0
 51
180.0
  0
ARC
  5
50F
330
1F
100
AcDbEntity
  8
0
  6
Continuous
 62
     7
100
AcDbCircle
 10
1594.643835091
 20
163.310901597
 30
0.0
 40
9.959851187665208
100
AcDbArc
 50
0.0
 51
90.0
  0
ARC
  5
510
330
1F
100
AcDbEntity
  8
0
  6
Continuous
 62
     7
100
AcDbCircle
 10
1514.643835091
 20
123.310901597
 30
0.0
 40
9.959851187665208
100
AcDbArc
 50
0.0
 51
90.0
  0
ARC
  5
511
330
1F
100
AcDbEntity
  8
0
  6
Continuous
 62
     7
100
AcDbCircle
 10
1555.643835091
 20
123.310901597
 30
0.0
 40
9.959851187664754
100
AcDbArc
 50
90.0
 51
180.0
  0
LINE
  5
512
330
1F
100
AcDbEntity
  8
0
  6
Continuous
 62
     7
100
AcDbLine
 10
1754.643835091
 20
173.2707527846
 30
0.0
 11
1754.643835091
 21
175.9994791374
 31
0.0
  0
LINE
  5
513
330
1F
100
AcDbEntity
  8
0
  6
Continuous
 62
     7
100
AcDbLine
 10
1715.643835091
 20
173.2707527846
 30
0.0
 11
1754.643835091
 21
173.2707527846
 31
0.0
  0
LINE
  5
514
330
1F
100
AcDbEntity
  8
0
  6
Continuous
 62
     7
100
AcDbLine
 10
1715.643835091
 20
173.2707527846
 30
0.0
 11
1715.643835091
 21
175.9994791374
 31
0.0
  0
LINE
  5
515
330
1F
100
AcDbEntity
  8
0
  6
Continuous
 62
     7
100
AcDbLine
 10
1674.643835091
 20
133.2707527846
 30
0.0
 11
1674.643835091
 21
135.9994791374
 31
0.0
  0
LINE
  5
516
330
1F
100
AcDbEntity
  8
0
  6
Continuous
 62
     7
100
AcDbLine
 10
1635.643835091
 20
133.2707527846
 30
0.0
 11
1674.643835091
 21
133.2707527846
 31
0.0
  0
LINE
  5
517
330
1F
100
AcDbEntity
  8
0
  6
Continuous
 62
     7
100
AcDbLine
 10
1635.643835091
 20
133.2707527846
 30
0.0
 11
1635.643835091
 21
135.9994791374
 31
0.0
  0
ARC
  5
518
330
1F
100
AcDbEntity
  8
0
  6
Continuous
 62
     7
100
AcDbCircle
 10
1594.643835091
 20
143.310901597
 30
0.0
 40
9.959851187665208
100
AcDbArc
 50
0.0
 51
90.0
  0
ARC
  5
519
330
1F
100
AcDbEntity
  8
0
  6
Continuous
 62
     7
100
AcDbCircle
 10
1635.643835091
 20
143.310901597
 30
0.0
 40
9.95985118766464
100
AcDbArc
 50
90.0
 51
180.0
  0
LINE
  5
51A
330
1F
100
AcDbEntity
  8
0
  6
Continuous
 62
     7
100
AcDbLine
 10
1754.643835091
 20
153.2707527846
 30
0.0
 11
1754.643835091
 21
155.9994791374
 31
0.0
  0
LINE
  5
51B
330
1F
100
AcDbEntity
  8
0
  6
Continuous
 62
     7
100
AcDbLine
 10
1715.643835091
 20
153.2707527846
 30
0.0
 11
1754.643835091
 21
153.2707527846
 31
0.0
  0
LINE
  5
51C
330
1F
100
AcDbEntity
  8
0
  6
Continuous
 62
     7
100
AcDbLine
 10
1715.643835091
 20
153.2707527846
 30
0.0
 11
1715.643835091
 21
155.9994791374
 31
0.0
  0
ARC
  5
51D
330
1F
100
AcDbEntity
  8
0
  6
Continuous
 62
     7
100
AcDbCircle
 10
1674.643835091
 20
163.310901597
 30
0.0
 40
9.959851187664981
100
AcDbArc
 50
0.0
 51
90.0
  0
ARC
  5
51E
330
1F
100
AcDbEntity
  8
0
  6
Continuous
 62
     7
100
AcDbCircle
 10
1715.643835091
 20
163.310901597
 30
0.0
 40
9.959851187664583
100
AcDbArc
 50
90.0
 51
180.0
  0
ARC
  5
51F
330
1F
100
AcDbEntity
  8
0
  6
Continuous
 62
     7
100
AcDbCircle
 10
1594.643835091
 20
123.310901597
 30
0.0
 40
9.959851187665208
100
AcDbArc
 50
0.0
 51
90.0
  0
ARC
  5
520
330
1F
100
AcDbEntity
  8
0
  6
Continuous
 62
     7
100
AcDbCircle
 10
1635.643835091
 20
123.310901597
 30
0.0
 40
9.959851187664597
100
AcDbArc
 50
90.0
 51
180.0
  0
LINE
  5
521
330
1F
100
AcDbEntity
  8
0
  6
Continuous
 62
     7
100
AcDbLine
 10
1834.643835091
 20
173.2707527846
 30
0.0
 11
1834.643835091
 21
175.9994791374
 31
0.0
  0
LINE
  5
522
330
1F
100
AcDbEntity
  8
0
  6
Continuous
 62
     7
100
AcDbLine
 10
1795.643835091
 20
173.2707527846
 30
0.0
 11
1834.643835091
 21
173.2707527846
 31
0.0
  0
LINE
  5
523
330
1F
100
AcDbEntity
  8
0
  6
Continuous
 62
     7
100
AcDbLine
 10
1795.643835091
 20
173.2707527846
 30
0.0
 11
1795.643835091
 21
175.9994791374
 31
0.0
  0
LINE
  5
524
330
1F
100
AcDbEntity
  8
0
  6
Continuous
 62
     7
100
AcDbLine
 10
1754.643835091
 20
133.2707527846
 30
0.0
 11
1754.643835091
 21
135.9994791374
 31
0.0
  0
LINE
  5
525
330
1F
100
AcDbEntity
  8
0
  6
Continuous
 62
     7
100
AcDbLine
 10
1715.643835091
 20
133.2707527846
 30
0.0
 11
1754.643835091
 21
133.2707527846
 31
0.0
  0
LINE
  5
526
330
1F
100
AcDbEntity
  8
0
  6
Continuous
 62
     7
100
AcDbLine
 10
1715.643835091
 20
133.2707527846
 30
0.0
 11
1715.643835091
 21
135.9994791374
 31
0.0
  0
ARC
  5
527
330
1F
100
AcDbEntity
  8
0
  6
Continuous
 62
     7
100
AcDbCircle
 10
1674.643835091
 20
143.310901597
 30
0.0
 40
9.959851187664981
100
AcDbArc
 50
0.0
 51
90.0
  0
ARC
  5
528
330
1F
100
AcDbEntity
  8
0
  6
Continuous
 62
     7
100
AcDbCircle
 10
1715.643835091
 20
143.310901597
 30
0.0
 40
9.959851187664611
100
AcDbArc
 50
90.0
 51
180.0
  0
LINE
  5
529
330
1F
100
AcDbEntity
  8
0
  6
Continuous
 62
     7
100
AcDbLine
 10
1834.643835091
 20
153.2707527846
 30
0.0
 11
1834.643835091
 21
155.9994791374
 31
0.0
  0
LINE
  5
52A
330
1F
100
AcDbEntity
  8
0
  6
Continuous
 62
     7
100
AcDbLine
 10
1795.643835091
 20
153.2707527846
 30
0.0
 11
1834.643835091
 21
153.2707527846
 31
0.0
  0
LINE
  5
52B
330
1F
100
AcDbEntity
  8
0
  6
Continuous
 62
     7
100
AcDbLine
 10
1795.643835091
 20
153.2707527846
 30
0.0
 11
1795.643835091
 21
155.9994791374
 31
0.0
  0
ARC
  5
52C
330
1F
100
AcDbEntity
  8
0
  6
Continuous
 62
     7
100
AcDbCircle
 10
1795.643835091
 20
163.310901597
 30
0.0
 40
9.959851187664754
100
AcDbArc
 50
90.0
 51
180.0
  0
ARC
  5
52D
330
1F
100
AcDbEntity
  8
0
  6
Continuous
 62
     7
100
AcDbCircle
 10
1754.643835091
 20
163.310901597
 30
0.0
 40
9.959851187664754
100
AcDbArc
 50
0.0
 51
90.0
  0
ARC
  5
52E
330
1F
100
AcDbEntity
  8
0
  6
Continuous
 62
     7
100
AcDbCircle
 10
1715.643835091
 20
123.310901597
 30
0.0
 40
9.959851187664597
100
AcDbArc
 50
90.0
 51
180.0
  0
ARC
  5
52F
330
1F
100
AcDbEntity
  8
0
  6
Continuous
 62
     7
100
AcDbCircle
 10
1674.643835091
 20
123.310901597
 30
0.0
 40
9.959851187664981
100
AcDbArc
 50
0.0
 51
90.0
  0
LINE
  5
530
330
1F
100
AcDbEntity
  8
0
  6
Continuous
 62
     7
100
AcDbLine
 10
1834.643835091
 20
133.2707527846
 30
0.0
 11
1834.643835091
 21
135.9994791374
 31
0.0
  0
LINE
  5
531
330
1F
100
AcDbEntity
  8
0
  6
Continuous
 62
     7
100
AcDbLine
 10
1795.643835091
 20
133.2707527846
 30
0.0
 11
1834.643835091
 21
133.2707527846
 31
0.0
  0
LINE
  5
532
330
1F
100
AcDbEntity
  8
0
  6
Continuous
 62
     7
100
AcDbLine
 10
1795.643835091
 20
133.2707527846
 30
0.0
 11
1795.643835091
 21
135.9994791374
 31
0.0
  0
ARC
  5
533
330
1F
100
AcDbEntity
  8
0
  6
Continuous
 62
     7
100
AcDbCircle
 10
1795.643835091
 20
143.310901597
 30
0.0
 40
9.959851187664754
100
AcDbArc
 50
90.0
 51
180.0
  0
ARC
  5
534
330
1F
100
AcDbEntity
  8
0
  6
Continuous
 62
     7
100
AcDbCircle
 10
1754.643835091
 20
143.310901597
 30
0.0
 40
9.959851187664754
100
AcDbArc
 50
0.0
 51
90.0
  0
ARC
  5
535
330
1F
100
AcDbEntity
  8
0
  6
Continuous
 62
     7
100
AcDbCircle
 10
1834.643835091
 20
163.310901597
 30
0.0
 40
9.959851187664555
100
AcDbArc
 50
0.0
 51
90.0
  0
ARC
  5
536
330
1F
100
AcDbEntity
  8
0
  6
Continuous
 62
     7
100
AcDbCircle
 10
1754.643835091
 20
123.310901597
 30
0.0
 40
9.959851187664597
100
AcDbArc
 50
0.0
 51
90.0
  0
ARC
  5
537
330
1F
100
AcDbEntity
  8
0
  6
Continuous
 62
     7
100
AcDbCircle
 10
1795.643835091
 20
123.310901597
 30
0.0
 40
9.959851187664754
100
AcDbArc
 50
90.0
 51
180.0
  0
ARC
  5
538
330
1F
100
AcDbEntity
  8
0
  6
Continuous
 62
     7
100
AcDbCircle
 10
1834.643835091
 20
143.310901597
 30
0.0
 40
9.959851187664555
100
AcDbArc
 50
0.0
 51
90.0
  0
ARC
  5
539
330
1F
100
AcDbEntity
  8
0
  6
Continuous
 62
     7
100
AcDbCircle
 10
1834.643835091
 20
123.310901597
 30
0.0
 40
9.959851187664484
100
AcDbArc
 50
0.0
 51
90.0
  0
LINE
  5
53A
330
1F
100
AcDbEntity
  8
0
  6
Continuous
 62
     7
100
AcDbLine
 10
1514.643835091
 20
163.310901597
 30
0.0
 11
1514.643835091
 21
173.2707527846
 31
0.0
  0
LINE
  5
53B
330
1F
100
AcDbEntity
  8
0
  6
Continuous
 62
     7
100
AcDbLine
 10
1475.643835091
 20
173.2707527846
 30
0.0
 11
1475.643835091
 21
163.310901597
 31
0.0
  0
LINE
  5
53C
330
1F
100
AcDbEntity
  8
0
  6
Continuous
 62
     7
100
AcDbLine
 10
1514.643835091
 20
143.310901597
 30
0.0
 11
1514.643835091
 21
153.2707527846
 31
0.0
  0
LINE
  5
53D
330
1F
100
AcDbEntity
  8
0
  6
Continuous
 62
     7
100
AcDbLine
 10
1475.643835091
 20
153.2707527846
 30
0.0
 11
1475.643835091
 21
143.310901597
 31
0.0
  0
LINE
  5
53E
330
1F
100
AcDbEntity
  8
0
  6
Continuous
 62
     7
100
AcDbLine
 10
1594.643835091
 20
163.310901597
 30
0.0
 11
1594.643835091
 21
173.2707527846
 31
0.0
  0
LINE
  5
53F
330
1F
100
AcDbEntity
  8
0
  6
Continuous
 62
     7
100
AcDbLine
 10
1555.643835091
 20
173.2707527846
 30
0.0
 11
1555.643835091
 21
163.310901597
 31
0.0
  0
LINE
  5
540
330
1F
100
AcDbEntity
  8
0
  6
Continuous
 62
     7
100
AcDbLine
 10
1514.643835091
 20
123.310901597
 30
0.0
 11
1514.643835091
 21
133.2707527846
 31
0.0
  0
LINE
  5
541
330
1F
100
AcDbEntity
  8
0
  6
Continuous
 62
     7
100
AcDbLine
 10
1475.643835091
 20
133.2707527846
 30
0.0
 11
1475.643835091
 21
123.310901597
 31
0.0
  0
LINE
  5
542
330
1F
100
AcDbEntity
  8
0
  6
Continuous
 62
     7
100
AcDbLine
 10
1594.643835091
 20
143.310901597
 30
0.0
 11
1594.643835091
 21
153.2707527846
 31
0.0
  0
LINE
  5
543
330
1F
100
AcDbEntity
  8
0
  6
Continuous
 62
     7
100
AcDbLine
 10
1555.643835091
 20
153.2707527846
 30
0.0
 11
1555.643835091
 21
143.310901597
 31
0.0
  0
LINE
  5
544
330
1F
100
AcDbEntity
  8
0
  6
Continuous
 62
     7
100
AcDbLine
 10
1674.643835091
 20
163.310901597
 30
0.0
 11
1674.643835091
 21
173.2707527846
 31
0.0
  0
LINE
  5
545
330
1F
100
AcDbEntity
  8
0
  6
Continuous
 62
     7
100
AcDbLine
 10
1635.643835091
 20
173.2707527846
 30
0.0
 11
1635.643835091
 21
163.310901597
 31
0.0
  0
LINE
  5
546
330
1F
100
AcDbEntity
  8
0
  6
Continuous
 62
     7
100
AcDbLine
 10
1594.643835091
 20
123.310901597
 30
0.0
 11
1594.643835091
 21
133.2707527846
 31
0.0
  0
LINE
  5
547
330
1F
100
AcDbEntity
  8
0
  6
Continuous
 62
     7
100
AcDbLine
 10
1555.643835091
 20
133.2707527846
 30
0.0
 11
1555.643835091
 21
123.310901597
 31
0.0
  0
LINE
  5
548
330
1F
100
AcDbEntity
  8
0
  6
Continuous
 62
     7
100
AcDbLine
 10
1674.643835091
 20
143.310901597
 30
0.0
 11
1674.643835091
 21
153.2707527846
 31
0.0
  0
LINE
  5
549
330
1F
100
AcDbEntity
  8
0
  6
Continuous
 62
     7
100
AcDbLine
 10
1635.643835091
 20
153.2707527846
 30
0.0
 11
1635.643835091
 21
143.310901597
 31
0.0
  0
LINE
  5
54A
330
1F
100
AcDbEntity
  8
0
  6
Continuous
 62
     7
100
AcDbLine
 10
1754.643835091
 20
163.310901597
 30
0.0
 11
1754.643835091
 21
173.2707527846
 31
0.0
  0
LINE
  5
54B
330
1F
100
AcDbEntity
  8
0
  6
Continuous
 62
     7
100
AcDbLine
 10
1715.643835091
 20
173.2707527846
 30
0.0
 11
1715.643835091
 21
163.310901597
 31
0.0
  0
LINE
  5
54C
330
1F
100
AcDbEntity
  8
0
  6
Continuous
 62
     7
100
AcDbLine
 10
1674.643835091
 20
123.310901597
 30
0.0
 11
1674.643835091
 21
133.2707527846
 31
0.0
  0
LINE
  5
54D
330
1F
100
AcDbEntity
  8
0
  6
Continuous
 62
     7
100
AcDbLine
 10
1635.643835091
 20
133.2707527846
 30
0.0
 11
1635.643835091
 21
123.310901597
 31
0.0
  0
LINE
  5
54E
330
1F
100
AcDbEntity
  8
0
  6
Continuous
 62
     7
100
AcDbLine
 10
1754.643835091
 20
143.310901597
 30
0.0
 11
1754.643835091
 21
153.2707527846
 31
0.0
  0
LINE
  5
54F
330
1F
100
AcDbEntity
  8
0
  6
Continuous
 62
     7
100
AcDbLine
 10
1715.643835091
 20
153.2707527846
 30
0.0
 11
1715.643835091
 21
143.310901597
 31
0.0
  0
LINE
  5
550
330
1F
100
AcDbEntity
  8
0
  6
Continuous
 62
     7
100
AcDbLine
 10
1834.643835091
 20
163.310901597
 30
0.0
 11
1834.643835091
 21
173.2707527846
 31
0.0
  0
LINE
  5
551
330
1F
100
AcDbEntity
  8
0
  6
Continuous
 62
     7
100
AcDbLine
 10
1795.643835091
 20
173.2707527846
 30
0.0
 11
1795.643835091
 21
163.310901597
 31
0.0
  0
LINE
  5
552
330
1F
100
AcDbEntity
  8
0
  6
Continuous
 62
     7
100
AcDbLine
 10
1754.643835091
 20
123.310901597
 30
0.0
 11
1754.643835091
 21
133.2707527846
 31
0.0
  0
LINE
  5
553
330
1F
100
AcDbEntity
  8
0
  6
Continuous
 62
     7
100
AcDbLine
 10
1715.643835091
 20
133.2707527846
 30
0.0
 11
1715.643835091
 21
123.310901597
 31
0.0
  0
LINE
  5
554
330
1F
100
AcDbEntity
  8
0
  6
Continuous
 62
     7
100
AcDbLine
 10
1834.643835091
 20
143.310901597
 30
0.0
 11
1834.643835091
 21
153.2707527846
 31
0.0
  0
LINE
  5
555
330
1F
100
AcDbEntity
  8
0
  6
Continuous
 62
     7
100
AcDbLine
 10
1795.643835091
 20
153.2707527846
 30
0.0
 11
1795.643835091
 21
143.310901597
 31
0.0
  0
LINE
  5
556
330
1F
100
AcDbEntity
  8
0
  6
Continuous
 62
     7
100
AcDbLine
 10
1834.643835091
 20
123.310901597
 30
0.0
 11
1834.643835091
 21
133.2707527846
 31
0.0
  0
LINE
  5
557
330
1F
100
AcDbEntity
  8
0
  6
Continuous
 62
     7
100
AcDbLine
 10
1795.643835091
 20
133.2707527846
 30
0.0
 11
1795.643835091
 21
123.310901597
 31
0.0
  0
LINE
  5
558
330
1F
100
AcDbEntity
  8
0
  6
Continuous
 62
     7
100
AcDbLine
 10
1410.2815094943
 20
143.810901597
 30
0.0
 11
1410.2815094943
 21
150.6150152222
 31
0.0
  0
LINE
  5
559
330
1F
100
AcDbEntity
  8
0
  6
Continuous
 62
     7
100
AcDbLine
 10
1411.6118806205
 20
144.6179999687
 30
0.0
 11
1411.6118806205
 21
150.4913357925
 31
0.0
  0
LINE
  5
55A
330
1F
100
AcDbEntity
  8
0
  6
Continuous
 62
     7
100
AcDbLine
 10
1908.6015242762
 20
150.0000347958
 30
0.0
 11
1908.6015242762
 21
143.810901597
 31
0.0
  0
LINE
  5
55B
330
1F
100
AcDbEntity
  8
0
  6
Continuous
 62
     7
100
AcDbLine
 10
1907.27115315
 20
149.9604824341
 30
0.0
 11
1907.27115315
 21
144.6179999687
 31
0.0
  0
LINE
  5
55C
330
1F
100
AcDbEntity
  8
0
  6
Continuous
 62
     7
100
AcDbLine
 10
1908.6015242762
 20
155.610901597
 30
0.0
 11
1908.6015242762
 21
150.0000347958
 31
0.0
  0
LINE
  5
55D
330
1F
100
AcDbEntity
  8
0
  6
Continuous
 62
     7
100
AcDbLine
 10
1907.27115315
 20
154.8038032252
 30
0.0
 11
1907.27115315
 21
149.9604824341
 31
0.0
  0
LINE
  5
55E
330
1F
100
AcDbEntity
  8
0
  6
Continuous
 62
     7
100
AcDbLine
 10
1410.2815094943
 20
150.6150152222
 30
0.0
 11
1410.2815094943
 21
155.610901597
 31
0.0
  0
LINE
  5
55F
330
1F
100
AcDbEntity
  8
0
  6
Continuous
 62
     7
100
AcDbLine
 10
1411.6118806205
 20
150.4913357925
 30
0.0
 11
1411.6118806205
 21
154.8038032252
 31
0.0
  0
LINE
  5
560
330
1F
100
AcDbEntity
  8
0
  6
Continuous
 62
     7
100
AcDbLine
 10
1412.2718880115
 20
145.8852141594
 30
0.0
 11
1412.2718880115
 21
150.2971484
 31
0.0
  0
LINE
  5
561
330
1F
100
AcDbEntity
  8
0
  6
Continuous
 62
     7
100
AcDbLine
 10
1906.611145759
 20
149.8983818082
 30
0.0
 11
1906.611145759
 21
145.8852141594
 31
0.0
  0
LINE
  5
562
330
1F
100
AcDbEntity
  8
0
  6
Continuous
 62
     7
100
AcDbLine
 10
1906.611145759
 20
153.5365890346
 30
0.0
 11
1906.611145759
 21
149.8983818082
 31
0.0
  0
LINE
  5
563
330
1F
100
AcDbEntity
  8
0
  6
Continuous
 62
     7
100
AcDbLine
 10
1412.2718880115
 20
150.2971484
 30
0.0
 11
1412.2718880115
 21
153.5365890346
 31
0.0
  0
LINE
  5
564
330
1F
100
AcDbEntity
  8
0
  6
Continuous
 62
     7
100
AcDbLine
 10
1398.7415168852
 20
150.1706203894
 30
0.0
 11
1405.4415168852
 21
150.1706203894
 31
0.0
  0
LINE
  5
565
330
1F
100
AcDbEntity
  8
0
  6
Continuous
 62
     7
100
AcDbLine
 10
1920.1415168852
 20
149.8579184777
 30
0.0
 11
1913.4415168852
 21
149.8579184777
 31
0.0
  0
LINE
  5
566
330
1F
100
AcDbEntity
  8
0
  6
Continuous
 62
     7
100
AcDbLine
 10
1412.1415168852
 20
154.360901597
 30
0.0
 11
1412.1415168852
 21
153.786901597
 31
0.0
  0
LINE
  5
567
330
1F
100
AcDbEntity
  8
0
  6
Continuous
 62
     7
100
AcDbLine
 10
1412.1415168852
 20
145.634901597
 30
0.0
 11
1412.1415168852
 21
145.060901597
 31
0.0
  0
LINE
  5
568
330
1F
100
AcDbEntity
  8
0
  6
Continuous
 62
     7
100
AcDbLine
 10
1906.7415168852
 20
145.060901597
 30
0.0
 11
1906.7415168852
 21
145.634901597
 31
0.0
  0
LINE
  5
569
330
1F
100
AcDbEntity
  8
0
  6
Continuous
 62
     7
100
AcDbLine
 10
1906.7415168852
 20
153.786901597
 30
0.0
 11
1906.7415168852
 21
154.360901597
 31
0.0
  0
LINE
  5
56A
330
1F
100
AcDbEntity
  8
0
  6
Continuous
 62
     7
100
AcDbLine
 10
1919.9415168852
 20
177.710901597
 30
0.0
 11
1919.9415168852
 21
152.710901597
 31
0.0
  0
LINE
  5
56B
330
1F
100
AcDbEntity
  8
0
  6
Continuous
 62
     7
100
AcDbLine
 10
1919.9415168852
 20
146.710901597
 30
0.0
 11
1919.9415168852
 21
121.710901597
 31
0.0
  0
LINE
  5
56C
330
1F
100
AcDbEntity
  8
0
  6
Continuous
 62
     7
100
AcDbLine
 10
1417.9415168852
 20
157.2464355029
 30
0.0
 11
1417.2105782781
 21
157.210901597
 31
0.0
  0
LINE
  5
56D
330
1F
100
AcDbEntity
  8
0
  6
Continuous
 62
     7
100
AcDbLine
 10
1418.6724554924
 20
157.210901597
 30
0.0
 11
1417.9415168852
 21
157.2464355029
 31
0.0
  0
LINE
  5
56E
330
1F
100
AcDbEntity
  8
0
  6
Continuous
 62
     7
100
AcDbLine
 10
1900.9415168852
 20
157.2464355029
 30
0.0
 11
1900.2105782781
 21
157.210901597
 31
0.0
  0
LINE
  5
56F
330
1F
100
AcDbEntity
  8
0
  6
Continuous
 62
     7
100
AcDbLine
 10
1901.6724554924
 20
157.210901597
 30
0.0
 11
1900.9415168852
 21
157.2464355029
 31
0.0
  0
LINE
  5
570
330
1F
100
AcDbEntity
  8
0
  6
Continuous
 62
     7
100
AcDbLine
 10
1417.9415168852
 20
142.175367691
 30
0.0
 11
1418.6724554924
 21
142.210901597
 31
0.0
  0
LINE
  5
571
330
1F
100
AcDbEntity
  8
0
  6
Continuous
 62
     7
100
AcDbLine
 10
1417.2105782781
 20
142.210901597
 30
0.0
 11
1417.9415168852
 21
142.175367691
 31
0.0
  0
LINE
  5
572
330
1F
100
AcDbEntity
  8
0
  6
Continuous
 62
     7
100
AcDbLine
 10
1900.9415168852
 20
142.175367691
 30
0.0
 11
1901.6724554924
 21
142.210901597
 31
0.0
  0
LINE
  5
573
330
1F
100
AcDbEntity
  8
0
  6
Continuous
 62
     7
100
AcDbLine
 10
1900.2105782781
 20
142.210901597
 30
0.0
 11
1900.9415168852
 21
142.175367691
 31
0.0
  0
ARC
  5
574
330
1F
100
AcDbEntity
  8
0
  6
Continuous
 62
     7
100
AcDbCircle
 10
1417.9415168852
 20
149.710901597
 30
0.0
 40
8.242640687119314
100
AcDbArc
 50
90.0
 51
114.5081081782
  0
ARC
  5
575
330
1F
100
AcDbEntity
  8
0
  6
Continuous
 62
     7
100
AcDbCircle
 10
1417.9415168852
 20
149.710901597
 30
0.0
 40
8.242640687119291
100
AcDbArc
 50
245.4918918218
 51
270.0
  0
ARC
  5
576
330
1F
100
AcDbEntity
  8
0
  6
Continuous
 62
     7
100
AcDbCircle
 10
1417.9415168852
 20
149.710901597
 30
0.0
 40
8.242640687119291
100
AcDbArc
 50
270.0
 51
294.5081081782
  0
ARC
  5
577
330
1F
100
AcDbEntity
  8
0
  6
Continuous
 62
     7
100
AcDbCircle
 10
1417.9415168852
 20
149.710901597
 30
0.0
 40
8.242640687119314
100
AcDbArc
 50
65.4918918218
 51
90.0
  0
ARC
  5
578
330
1F
100
AcDbEntity
  8
0
  6
Continuous
 62
     7
100
AcDbCircle
 10
1900.9415168852
 20
149.710901597
 30
0.0
 40
8.242640687119408
100
AcDbArc
 50
90.0
 51
114.5081081782
  0
ARC
  5
579
330
1F
100
AcDbEntity
  8
0
  6
Continuous
 62
     7
100
AcDbCircle
 10
1900.9415168852
 20
149.710901597
 30
0.0
 40
8.24264068711949
100
AcDbArc
 50
245.4918918218
 51
270.0
  0
ARC
  5
57A
330
1F
100
AcDbEntity
  8
0
  6
Continuous
 62
     7
100
AcDbCircle
 10
1900.9415168852
 20
149.710901597
 30
0.0
 40
8.24264068711949
100
AcDbArc
 50
270.0
 51
294.5081081782
  0
ARC
  5
57B
330
1F
100
AcDbEntity
  8
0
  6
Continuous
 62
     7
100
AcDbCircle
 10
1900.9415168852
 20
149.710901597
 30
0.0
 40
8.242640687119314
100
AcDbArc
 50
65.4918918218
 51
90.0
  0
ENDSEC
  0
SECTION
  2
OBJECTS
  0
DICTIONARY
  5
C
330
0
100
AcDbDictionary
281
     1
  3
ACAD_GROUP
350
D
  3
ACAD_LAYOUT
350
1A
  3
ACAD_MLINESTYLE
350
17
  3
ACAD_PLOTSETTINGS
350
19
  3
ACAD_PLOTSTYLENAME
350
E
  3
ACAD_SCALELIST
350
47
  3
DWGPROPS
350
57C
  0
DICTIONARY
  5
D
102
{ACAD_REACTORS
330
C
102
}
330
C
100
AcDbDictionary
281
     1
  0
DICTIONARY
  5
1A
102
{ACAD_REACTORS
330
C
102
}
330
C
100
AcDbDictionary
281
     1
  3
Layout1
350
1E
  3
Layout2
350
26
  3
Model
350
22
  0
DICTIONARY
  5
17
102
{ACAD_REACTORS
330
C
102
}
330
C
100
AcDbDictionary
281
     1
  3
Standard
350
18
  0
DICTIONARY
  5
19
102
{ACAD_REACTORS
330
C
102
}
330
C
100
AcDbDictionary
281
     1
  0
ACDBDICTIONARYWDFLT
  5
E
102
{ACAD_REACTORS
330
C
102
}
330
C
100
AcDbDictionary
281
     1
  3
Normal
350
F
100
AcDbDictionaryWithDefault
340
F
  0
DICTIONARY
  5
47
102
{ACAD_REACTORS
330
C
102
}
330
C
100
AcDbDictionary
281
     1
  3
A0
350
48
  3
A1
350
49
  3
A2
350
4A
  3
A3
350
4B
  3
A4
350
4C
  3
A5
350
4D
  3
A6
350
4E
  3
A7
350
4F
  3
A8
350
50
  3
A9
350
51
  3
B0
350
52
  3
B1
350
53
  3
B2
350
54
  3
B3
350
55
  3
B4
350
56
  3
B5
350
57
  3
B6
350
58
  0
XRECORD
  5
57C
102
{ACAD_REACTORS
330
C
102
}
330
C
100
AcDbXrecord
280
     1
  1
DWGPROPS COOKIE
  2

  3

  4

  6

  7

  8
moskovchenkovapa
  9

300
=
301
=
302
=
303
=
304
=
305
=
306
=
307
=
308
=
309
=
 40
0.0
 41
2460697.553799861
 42
2460697.553800278
  1

 90
        0
  0
LAYOUT
  5
1E
102
{ACAD_REACTORS
330
1A
102
}
330
1A
100
AcDbPlotSettings
  1

  2
none_device
  4

  6

 40
0.0
 41
0.0
 42
0.0
 43
0.0
 44
0.0
 45
0.0
 46
0.0
 47
0.0
 48
0.0
 49
0.0
140
0.0
141
0.0
142
1.0
143
1.0
 70
   688
 72
     1
 73
     0
 74
     5
  7

 75
    16
147
1.0
148
0.0
149
0.0
100
AcDbLayout
  1
Layout1
 70
     1
 71
     1
 10
0.0
 20
0.0
 11
420.0
 21
297.0
 12
0.0
 22
0.0
 32
0.0
 14
1.0000000000E+20
 24
1.0000000000E+20
 34
1.0000000000E+20
 15
-1.0000000000E+20
 25
-1.0000000000E+20
 35
-1.0000000000E+20
146
0.0
 13
0.0
 23
0.0
 33
0.0
 16
1.0
 26
0.0
 36
0.0
 17
0.0
 27
1.0
 37
0.0
 76
     0
330
1B
  0
LAYOUT
  5
26
102
{ACAD_REACTORS
330
1A
102
}
330
1A
100
AcDbPlotSettings
  1

  2
none_device
  4

  6

 40
0.0
 41
0.0
 42
0.0
 43
0.0
 44
0.0
 45
0.0
 46
0.0
 47
0.0
 48
0.0
 49
0.0
140
0.0
141
0.0
142
1.0
143
1.0
 70
   688
 72
     1
 73
     0
 74
     5
  7

 75
    16
147
1.0
148
0.0
149
0.0
100
AcDbLayout
  1
Layout2
 70
     1
 71
     2
 10
0.0
 20
0.0
 11
0.0
 21
0.0
 12
0.0
 22
0.0
 32
0.0
 14
0.0
 24
0.0
 34
0.0
 15
0.0
 25
0.0
 35
0.0
146
0.0
 13
0.0
 23
0.0
 33
0.0
 16
1.0
 26
0.0
 36
0.0
 17
0.0
 27
1.0
 37
0.0
 76
     0
330
23
  0
LAYOUT
  5
22
102
{ACAD_REACTORS
330
1A
102
}
330
1A
100
AcDbPlotSettings
  1

  2
none_device
  4
Letter_(8.50_x_11.00_Inches)
  6

 40
6.35
 41
6.35
 42
6.35000508
 43
6.35000508
 44
215.9
 45
279.4
 46
0.0
 47
0.0
 48
0.0
 49
0.0
140
0.0
141
0.0
142
1.0
143
1.0
 70
  1712
 72
     1
 73
     0
 74
     0
  7

 75
     0
147
1.0
148
0.0
149
0.0
100
AcDbLayout
  1
Model
 70
     1
 71
     0
 10
0.0
 20
0.0
 11
420.0
 21
297.0
 12
0.0
 22
0.0
 32
0.0
 14
0.0
 24
0.0
 34
0.0
 15
420.0
 25
297.0
 35
0.0
146
0.0
 13
0.0
 23
0.0
 33
0.0
 16
1.0
 26
0.0
 36
0.0
 17
0.0
 27
1.0
 37
0.0
 76
     0
330
1F
331
29
  0
MLINESTYLE
  5
18
102
{ACAD_REACTORS
330
17
102
}
330
17
100
AcDbMlineStyle
  2
Standard
 70
     0
  3

 62
   256
 51
90.0
 52
90.0
 71
     2
 49
0.5
 62
   256
  6
BYLAYER
 49
-0.5
 62
   256
  6
BYLAYER
  0
ACDBPLACEHOLDER
  5
F
102
{ACAD_REACTORS
330
E
102
}
330
E
  0
SCALE
  5
48
102
{ACAD_REACTORS
330
47
102
}
330
47
100
AcDbScale
 70
     0
300
1:1
140
1.0
141
1.0
290
     1
  0
SCALE
  5
49
102
{ACAD_REACTORS
330
47
102
}
330
47
100
AcDbScale
 70
     0
300
1:2
140
1.0
141
2.0
290
     0
  0
SCALE
  5
4A
102
{ACAD_REACTORS
330
47
102
}
330
47
100
AcDbScale
 70
     0
300
1:4
140
1.0
141
4.0
290
     0
  0
SCALE
  5
4B
102
{ACAD_REACTORS
330
47
102
}
330
47
100
AcDbScale
 70
     0
300
1:5
140
1.0
141
5.0
290
     0
  0
SCALE
  5
4C
102
{ACAD_REACTORS
330
47
102
}
330
47
100
AcDbScale
 70
     0
300
1:8
140
1.0
141
8.0
290
     0
  0
SCALE
  5
4D
102
{ACAD_REACTORS
330
47
102
}
330
47
100
AcDbScale
 70
     0
300
1:10
140
1.0
141
10.0
290
     0
  0
SCALE
  5
4E
102
{ACAD_REACTORS
330
47
102
}
330
47
100
AcDbScale
 70
     0
300
1:16
140
1.0
141
16.0
290
     0
  0
SCALE
  5
4F
102
{ACAD_REACTORS
330
47
102
}
330
47
100
AcDbScale
 70
     0
300
1:20
140
1.0
141
20.0
290
     0
  0
SCALE
  5
50
102
{ACAD_REACTORS
330
47
102
}
330
47
100
AcDbScale
 70
     0
300
1:30
140
1.0
141
30.0
290
     0
  0
SCALE
  5
51
102
{ACAD_REACTORS
330
47
102
}
330
47
100
AcDbScale
 70
     0
300
1:40
140
1.0
141
40.0
290
     0
  0
SCALE
  5
52
102
{ACAD_REACTORS
330
47
102
}
330
47
100
AcDbScale
 70
     0
300
1:50
140
1.0
141
50.0
290
     0
  0
SCALE
  5
53
102
{ACAD_REACTORS
330
47
102
}
330
47
100
AcDbScale
 70
     0
300
1:100
140
1.0
141
100.0
290
     0
  0
SCALE
  5
54
102
{ACAD_REACTORS
330
47
102
}
330
47
100
AcDbScale
 70
     0
300
2:1
140
2.0
141
1.0
290
     0
  0
SCALE
  5
55
102
{ACAD_REACTORS
330
47
102
}
330
47
100
AcDbScale
 70
     0
300
4:1
140
4.0
141
1.0
290
     0
  0
SCALE
  5
56
102
{ACAD_REACTORS
330
47
102
}
330
47
100
AcDbScale
 70
     0
300
8:1
140
8.0
141
1.0
290
     0
  0
SCALE
  5
57
102
{ACAD_REACTORS
330
47
102
}
330
47
100
AcDbScale
 70
     0
300
10:1
140
10.0
141
1.0
290
     0
  0
SCALE
  5
58
102
{ACAD_REACTORS
330
47
102
}
330
47
100
AcDbScale
 70
     0
300
100:1
140
100.0
141
1.0
290
     0
  0
ENDSEC
  0
EOF
