  0
SECTION
  2
HEADER
  9
$ACADVER
  1
AC1015
  9
$ACADMAINTVER
 70
     6
  9
$DWGCODEPAGE
  3
ANSI_1251
  9
$INSBASE
 10
0.0
 20
0.0
 30
0.0
  9
$EXTMIN
 10
0.0
 20
0.0
 30
0.0
  9
$EXTMAX
 10
841.0
 20
594.0
 30
0.0
  9
$LIMMIN
 10
0.0
 20
0.0
  9
$LIMMAX
 10
841.0
 20
594.0
  9
$ORTHOMODE
 70
     0
  9
$REGENMODE
 70
     1
  9
$FILLMODE
 70
     1
  9
$QTEXTMODE
 70
     0
  9
$MIRRTEXT
 70
     1
  9
$LTSCALE
 40
1.0
  9
$ATTMODE
 70
     1
  9
$TEXTSIZE
 40
3.5
  9
$TRACEWID
 40
1.0
  9
$TEXTSTYLE
  7
Standard
  9
$CLAYER
  8
0
  9
$CELTYPE
  6
ByLayer
  9
$CECOLOR
 62
   256
  9
$CELTSCALE
 40
1.0
  9
$DISPSILH
 70
     0
  9
$DIMSCALE
 40
1.0
  9
$DIMASZ
 40
3.5
  9
$DIMEXO
 40
0.01
  9
$DIMDLI
 40
3.75
  9
$DIMRND
 40
0.0
  9
$DIMDLE
 40
0.0
  9
$DIMEXE
 40
1.0
  9
$DIMTP
 40
0.0
  9
$DIMTM
 40
0.0
  9
$DIMTXT
 40
3.5
  9
$DIMCEN
 40
2.5
  9
$DIMTSZ
 40
0.0
  9
$DIMTOL
 70
     0
  9
$DIMLIM
 70
     0
  9
$DIMTIH
 70
     1
  9
$DIMTOH
 70
     1
  9
$DIMSE1
 70
     0
  9
$DIMSE2
 70
     0
  9
$DIMTAD
 70
     1
  9
$DIMZIN
 70
     0
  9
$DIMBLK
  1

  9
$DIMASO
 70
     1
  9
$DIMSHO
 70
     1
  9
$DIMPOST
  1

  9
$DIMAPOST
  1

  9
$DIMALT
 70
     0
  9
$DIMALTD
 70
     3
  9
$DIMALTF
 40
0.0393700787
  9
$DIMLFAC
 40
1.0
  9
$DIMTOFL
 70
     1
  9
$DIMTVP
 40
0.0
  9
$DIMTIX
 70
     0
  9
$DIMSOXD
 70
     0
  9
$DIMSAH
 70
     0
  9
$DIMBLK1
  1

  9
$DIMBLK2
  1

  9
$DIMSTYLE
  2
ISO-25
  9
$DIMCLRD
 70
     0
  9
$DIMCLRE
 70
     0
  9
$DIMCLRT
 70
     0
  9
$DIMTFAC
 40
1.0
  9
$DIMGAP
 40
3.0
  9
$DIMJUST
 70
     0
  9
$DIMSD1
 70
     0
  9
$DIMSD2
 70
     0
  9
$DIMTOLJ
 70
     0
  9
$DIMTZIN
 70
     0
  9
$DIMALTZ
 70
     0
  9
$DIMALTTZ
 70
     0
  9
$DIMUPT
 70
     0
  9
$DIMDEC
 70
     2
  9
$DIMTDEC
 70
     3
  9
$DIMALTU
 70
     2
  9
$DIMALTTD
 70
     3
  9
$DIMTXSTY
  7
Standard
  9
$DIMAUNIT
 70
     0
  9
$DIMADEC
 70
     2
  9
$DIMALTRND
 40
0.0
  9
$DIMAZIN
 70
     0
  9
$DIMDSEP
 70
    44
  9
$DIMATFIT
 70
     3
  9
$DIMFRAC
 70
     0
  9
$DIMLDRBLK
  1

  9
$DIMLUNIT
 70
     2
  9
$DIMLWD
 70
    -2
  9
$DIMLWE
 70
    -2
  9
$DIMTMOVE
 70
     0
  9
$LUNITS
 70
     2
  9
$LUPREC
 70
     2
  9
$SKETCHINC
 40
1.0
  9
$FILLETRAD
 40
10.0
  9
$AUNITS
 70
     0
  9
$AUPREC
 70
     2
  9
$MENU
  1
.
  9
$ELEVATION
 40
0.0
  9
$PELEVATION
 40
0.0
  9
$THICKNESS
 40
0.0
  9
$LIMCHECK
 70
     0
  9
$CHAMFERA
 40
0.0
  9
$CHAMFERB
 40
0.0
  9
$CHAMFERC
 40
0.0
  9
$CHAMFERD
 40
0.0
  9
$SKPOLY
 70
     0
  9
$TDCREATE
 40
2459732.669238715
  9
$TDUCREATE
 40
2459732.544238715
  9
$TDUPDATE
 40
2459732.669239838
  9
$TDUUPDATE
 40
2459732.544239838
  9
$TDINDWG
 40
0.0000000116
  9
$TDUSRTIMER
 40
0.0000000116
  9
$USRTIMER
 70
     1
  9
$ANGBASE
 50
0.0
  9
$ANGDIR
 70
     0
  9
$PDMODE
 70
     0
  9
$PDSIZE
 40
-1.0
  9
$PLINEWID
 40
0.0
  9
$SPLFRAME
 70
     0
  9
$SPLINETYPE
 70
     6
  9
$SPLINESEGS
 70
     8
  9
$HANDSEED
  5
107
  9
$SURFTAB1
 70
     6
  9
$SURFTAB2
 70
     6
  9
$SURFTYPE
 70
     6
  9
$SURFU
 70
     6
  9
$SURFV
 70
     6
  9
$UCSBASE
  2

  9
$UCSNAME
  2

  9
$UCSORG
 10
0.0
 20
0.0
 30
0.0
  9
$UCSXDIR
 10
1.0
 20
0.0
 30
0.0
  9
$UCSYDIR
 10
0.0
 20
1.0
 30
0.0
  9
$UCSORTHOREF
  2

  9
$UCSORTHOVIEW
 70
     0
  9
$UCSORGTOP
 10
0.0
 20
0.0
 30
0.0
  9
$UCSORGBOTTOM
 10
0.0
 20
0.0
 30
0.0
  9
$UCSORGLEFT
 10
0.0
 20
0.0
 30
0.0
  9
$UCSORGRIGHT
 10
0.0
 20
0.0
 30
0.0
  9
$UCSORGFRONT
 10
0.0
 20
0.0
 30
0.0
  9
$UCSORGBACK
 10
0.0
 20
0.0
 30
0.0
  9
$PUCSBASE
  2

  9
$PUCSNAME
  2

  9
$PUCSORG
 10
0.0
 20
0.0
 30
0.0
  9
$PUCSXDIR
 10
1.0
 20
0.0
 30
0.0
  9
$PUCSYDIR
 10
0.0
 20
1.0
 30
0.0
  9
$PUCSORTHOREF
  2

  9
$PUCSORTHOVIEW
 70
     0
  9
$PUCSORGTOP
 10
0.0
 20
0.0
 30
0.0
  9
$PUCSORGBOTTOM
 10
0.0
 20
0.0
 30
0.0
  9
$PUCSORGLEFT
 10
0.0
 20
0.0
 30
0.0
  9
$PUCSORGRIGHT
 10
0.0
 20
0.0
 30
0.0
  9
$PUCSORGFRONT
 10
0.0
 20
0.0
 30
0.0
  9
$PUCSORGBACK
 10
0.0
 20
0.0
 30
0.0
  9
$USERI1
 70
     0
  9
$USERI2
 70
     0
  9
$USERI3
 70
     0
  9
$USERI4
 70
     0
  9
$USERI5
 70
     0
  9
$USERR1
 40
0.0
  9
$USERR2
 40
0.0
  9
$USERR3
 40
0.0
  9
$USERR4
 40
0.0
  9
$USERR5
 40
0.0
  9
$WORLDVIEW
 70
     1
  9
$SHADEDGE
 70
     3
  9
$SHADEDIF
 70
    70
  9
$TILEMODE
 70
     1
  9
$MAXACTVP
 70
    64
  9
$PINSBASE
 10
0.0
 20
0.0
 30
0.0
  9
$PLIMCHECK
 70
     0
  9
$PEXTMIN
 10
1.0000000000E+20
 20
1.0000000000E+20
 30
1.0000000000E+20
  9
$PEXTMAX
 10
-1.0000000000E+20
 20
-1.0000000000E+20
 30
-1.0000000000E+20
  9
$PLIMMIN
 10
0.0
 20
0.0
  9
$PLIMMAX
 10
420.0
 20
297.0
  9
$UNITMODE
 70
     0
  9
$VISRETAIN
 70
     1
  9
$PLINEGEN
 70
     0
  9
$PSLTSCALE
 70
     1
  9
$TREEDEPTH
 70
  3020
  9
$CMLSTYLE
  2
Standard
  9
$CMLJUST
 70
     0
  9
$CMLSCALE
 40
20.0
  9
$PROXYGRAPHICS
 70
     1
  9
$MEASUREMENT
 70
     1
  9
$CELWEIGHT
370
    -1
  9
$ENDCAPS
280
     0
  9
$JOINSTYLE
280
     0
  9
$LWDISPLAY
290
     1
  9
$INSUNITS
 70
     4
  9
$HYPERLINKBASE
  1

  9
$STYLESHEET
  1

  9
$XEDIT
290
     1
  9
$CEPSNTYPE
380
     0
  9
$PSTYLEMODE
290
     1
  9
$FINGERPRINTGUID
  2
{3AE10801-0C0E-4222-82F3-9E397AEA27DC}
  9
$VERSIONGUID
  2
{FAEB1C32-E019-11D5-929B-00C0DF256EC4}
  9
$EXTNAMES
290
     1
  9
$PSVPSCALE
 40
0.0
  9
$OLESTARTUP
290
     0
  0
ENDSEC
  0
SECTION
  2
CLASSES
  0
CLASS
  1
ACDBDICTIONARYWDFLT
  2
AcDbDictionaryWithDefault
  3
ObjectDBX Classes
 90
        0
280
     0
281
     0
  0
CLASS
  1
VISUALSTYLE
  2
AcDbVisualStyle
  3
ObjectDBX Classes
 90
     4095
280
     0
281
     0
  0
CLASS
  1
MATERIAL
  2
AcDbMaterial
  3
ObjectDBX Classes
 90
     1153
280
     0
281
     0
  0
CLASS
  1
SCALE
  2
AcDbScale
  3
ObjectDBX Classes
 90
     1153
280
     0
281
     0
  0
CLASS
  1
TABLESTYLE
  2
AcDbTableStyle
  3
ObjectDBX Classes
 90
     4095
280
     0
281
     0
  0
CLASS
  1
MLEADERSTYLE
  2
AcDbMLeaderStyle
  3
ACDB_MLEADERSTYLE_CLASS
 90
     4095
280
     0
281
     0
  0
CLASS
  1
SUN
  2
AcDbSun
  3
SCENEOE
 90
     1153
280
     0
281
     0
  0
CLASS
  1
ACDBPLACEHOLDER
  2
AcDbPlaceHolder
  3
ObjectDBX Classes
 90
        0
280
     0
281
     0
  0
CLASS
  1
LAYOUT
  2
AcDbLayout
  3
ObjectDBX Classes
 90
        0
280
     0
281
     0
  0
ENDSEC
  0
SECTION
  2
TABLES
  0
TABLE
  2
VPORT
  5
8
330
0
100
AcDbSymbolTable
 70
     1
  0
VPORT
  5
29
330
8
100
AcDbSymbolTableRecord
100
AcDbViewportTableRecord
  2
*Active
 70
     0
 10
0.0
 20
0.0
 11
1.0
 21
1.0
 12
420.5
 22
297.0
 13
0.0
 23
0.0
 14
10.0
 24
10.0
 15
10.0
 25
10.0
 16
0.0
 26
0.0
 36
1.0
 17
0.0
 27
0.0
 37
0.0
 40
594.0
 41
1.4158249158
 42
50.0
 43
0.0
 44
0.0
 50
0.0
 51
0.0
 71
     0
 72
  2000
 73
     1
 74
     3
 75
     0
 76
     0
 77
     0
 78
     0
281
     0
 65
     1
110
0.0
120
0.0
130
0.0
111
1.0
121
0.0
131
0.0
112
0.0
122
1.0
132
0.0
 79
     0
146
0.0
  0
ENDTAB
  0
TABLE
  2
LTYPE
  5
5
330
0
100
AcDbSymbolTable
 70
     6
  0
LTYPE
  5
14
330
5
100
AcDbSymbolTableRecord
100
AcDbLinetypeTableRecord
  2
ByBlock
 70
     0
  3

 72
    65
 73
     0
 40
0.0
  0
LTYPE
  5
15
330
5
100
AcDbSymbolTableRecord
100
AcDbLinetypeTableRecord
  2
ByLayer
 70
     0
  3

 72
    65
 73
     0
 40
0.0
  0
LTYPE
  5
16
330
5
100
AcDbSymbolTableRecord
100
AcDbLinetypeTableRecord
  2
Continuous
 70
     0
  3
Solid line
 72
    65
 73
     0
 40
0.0
  0
LTYPE
  5
6E
330
5
100
AcDbSymbolTableRecord
100
AcDbLinetypeTableRecord
  2
HIDDEN
 70
     0
  3
Hidden __ __ __ __ __ __ __ __ __ __ __ __ __ __
 72
    65
 73
     2
 40
1.905
 49
1.27
 74
     0
 49
-0.635
 74
     0
  0
LTYPE
  5
6F
330
5
100
AcDbSymbolTableRecord
100
AcDbLinetypeTableRecord
  2
PHANTOM
 70
     0
  3
Phantom ______  __  __  ______  __  __  ______
 72
    65
 73
     6
 40
12.7
 49
6.35
 74
     0
 49
-1.27
 74
     0
 49
1.27
 74
     0
 49
-1.27
 74
     0
 49
1.27
 74
     0
 49
-1.27
 74
     0
  0
LTYPE
  5
70
330
5
100
AcDbSymbolTableRecord
100
AcDbLinetypeTableRecord
  2
CENTER
 70
     0
  3
Center ____ _ ____ _ ____ _ ____ _ ____ _ ____
 72
    65
 73
     4
 40
10.16
 49
6.35
 74
     0
 49
-1.27
 74
     0
 49
1.27
 74
     0
 49
-1.27
 74
     0
  0
LTYPE
  5
71
330
5
100
AcDbSymbolTableRecord
100
AcDbLinetypeTableRecord
  2
CENTERX2
 70
     0
  3
Center (2x) ________  __  ________  __  _____
 72
    65
 73
     4
 40
20.32
 49
12.7
 74
     0
 49
-2.54
 74
     0
 49
2.54
 74
     0
 49
-2.54
 74
     0
  0
LTYPE
  5
72
330
5
100
AcDbSymbolTableRecord
100
AcDbLinetypeTableRecord
  2
DOT2
 70
     0
  3
Dot (.5x) ........................................
 72
    65
 73
     2
 40
0.635
 49
0.0
 74
     0
 49
-0.635
 74
     0
  0
ENDTAB
  0
TABLE
  2
LAYER
  5
2
330
0
100
AcDbSymbolTable
 70
     1
  0
LAYER
  5
10
330
2
100
AcDbSymbolTableRecord
100
AcDbLayerTableRecord
  2
0
 70
     0
 62
     7
  6
Continuous
370
    -3
390
F
  0
ENDTAB
  0
TABLE
  2
STYLE
  5
3
330
0
100
AcDbSymbolTable
 70
     1
  0
STYLE
  5
11
330
3
100
AcDbSymbolTableRecord
100
AcDbTextStyleTableRecord
  2
Standard
 70
     0
 40
0.0
 41
1.0
 50
0.0
 71
     0
 42
3.5
  3
txt
  4

  0
ENDTAB
  0
TABLE
  2
VIEW
  5
6
330
0
100
AcDbSymbolTable
 70
     0
  0
ENDTAB
  0
TABLE
  2
UCS
  5
7
330
0
100
AcDbSymbolTable
 70
     0
  0
ENDTAB
  0
TABLE
  2
APPID
  5
9
330
0
100
AcDbSymbolTable
 70
     1
  0
APPID
  5
12
330
9
100
AcDbSymbolTableRecord
100
AcDbRegAppTableRecord
  2
ACAD
 70
     0
  0
ENDTAB
  0
TABLE
  2
DIMSTYLE
  5
A
330
0
100
AcDbSymbolTable
 70
     1
100
AcDbDimStyleTable
  0
DIMSTYLE
105
27
330
A
100
AcDbSymbolTableRecord
100
AcDbDimStyleTableRecord
  2
ISO-25
 70
     0
 41
2.5
 42
0.625
 43
3.75
 44
1.25
 73
     0
 74
     0
 77
     1
 78
     8
140
2.5
141
2.5
143
0.0393700787
147
0.625
171
     3
172
     1
178
     0
271
     2
272
     2
274
     3
278
    44
283
     0
284
     8
340
11
  0
ENDTAB
  0
TABLE
  2
BLOCK_RECORD
  5
1
330
0
100
AcDbSymbolTable
 70
     1
  0
BLOCK_RECORD
  5
1F
330
1
100
AcDbSymbolTableRecord
100
AcDbBlockTableRecord
  2
*Model_Space
340
22
  0
BLOCK_RECORD
  5
1B
330
1
100
AcDbSymbolTableRecord
100
AcDbBlockTableRecord
  2
*Paper_Space
340
1E
  0
BLOCK_RECORD
  5
23
330
1
100
AcDbSymbolTableRecord
100
AcDbBlockTableRecord
  2
*Paper_Space0
340
26
  0
ENDTAB
  0
ENDSEC
  0
SECTION
  2
BLOCKS
  0
BLOCK
  5
20
330
1F
100
AcDbEntity
  8
0
100
AcDbBlockBegin
  2
*Model_Space
 70
     0
 10
0.0
 20
0.0
 30
0.0
  3
*Model_Space
  1

  0
ENDBLK
  5
21
330
1F
100
AcDbEntity
  8
0
100
AcDbBlockEnd
  0
BLOCK
  5
1C
330
1B
100
AcDbEntity
 67
     1
  8
0
100
AcDbBlockBegin
  2
*Paper_Space
 70
     0
 10
0.0
 20
0.0
 30
0.0
  3
*Paper_Space
  1

  0
ENDBLK
  5
1D
330
1B
100
AcDbEntity
 67
     1
  8
0
100
AcDbBlockEnd
  0
BLOCK
  5
24
330
23
100
AcDbEntity
  8
0
100
AcDbBlockBegin
  2
*Paper_Space0
 70
     0
 10
0.0
 20
0.0
 30
0.0
  3
*Paper_Space0
  1

  0
ENDBLK
  5
25
330
23
100
AcDbEntity
  8
0
100
AcDbBlockEnd
  0
ENDSEC
  0
SECTION
  2
ENTITIES
  0
SPLINE
  5
73
330
1F
100
AcDbEntity
  8
0
  6
Continuous
 62
     7
370
    25
100
AcDbSpline
210
0.0
220
0.0
230
1.0
 70
     8
 71
     3
 72
    14
 73
    10
 74
     0
 42
0.000000001
 43
0.00000001
 40
0.0
 40
0.0
 40
0.0
 40
0.0
 40
0.25
 40
0.25
 40
0.5
 40
0.5
 40
0.75
 40
0.75
 40
1.0
 40
1.0
 40
1.0
 40
1.0
 10
260.2303889502657
 20
148.2359024335389
 30
0.0
 10
259.9424096236867
 20
148.2114946653044
 30
0.0
 10
259.6545436046753
 20
148.1870868970699
 30
0.0
 10
259.1224271934498
 20
148.138271360601
 30
0.0
 10
258.8783861663209
 20
148.1138635923666
 30
0.0
 10
258.4711218969898
 20
148.0650480558977
 30
0.0
 10
258.3080588958863
 20
148.0406402876633
 30
0.0
 10
258.0876490615954
 20
147.9918247511943
 30
0.0
 10
258.0303889502658
 20
147.9674169829599
 30
0.0
 10
258.0303889502658
 20
147.9430092147254
 30
0.0
  0
LINE
  5
74
330
1F
100
AcDbEntity
  8
0
  6
Continuous
 62
     7
370
    25
100
AcDbLine
 10
258.0303889503
 20
323.1287956524
 30
0.0
 11
258.0303889503
 21
147.9430092147
 31
0.0
  0
SPLINE
  5
75
330
1F
100
AcDbEntity
  8
0
  6
Continuous
 62
     7
370
    25
100
AcDbSpline
210
0.0
220
0.0
230
1.0
 70
     8
 71
     3
 72
    14
 73
    10
 74
     0
 42
0.000000001
 43
0.00000001
 40
0.0
 40
0.0
 40
0.0
 40
0.0
 40
0.25
 40
0.25
 40
0.5
 40
0.5
 40
0.75
 40
0.75
 40
1.0
 40
1.0
 40
1.0
 40
1.0
 10
258.0303889502658
 20
323.1287956523523
 30
0.0
 10
258.0303889502657
 20
323.1043878841179
 30
0.0
 10
258.0876490615954
 20
323.0799801158834
 30
0.0
 10
258.3080588958863
 20
323.0311645794145
 30
0.0
 10
258.4711218969898
 20
323.0067568111801
 30
0.0
 10
258.878386166321
 20
322.9579412747112
 30
0.0
 10
259.1224271934497
 20
322.9335335064767
 30
0.0
 10
259.6545436046753
 20
322.8847179700078
 30
0.0
 10
259.9424096236867
 20
322.8603102017733
 30
0.0
 10
260.2303889502657
 20
322.8359024335389
 30
0.0
  0
SPLINE
  5
76
330
1F
100
AcDbEntity
  8
0
  6
Continuous
 62
     7
370
    25
100
AcDbSpline
210
0.0
220
0.0
230
1.0
 70
     8
 71
     3
 72
    14
 73
    10
 74
     0
 42
0.000000001
 43
0.00000001
 40
0.0
 40
0.0
 40
0.0
 40
0.0
 40
0.25
 40
0.25
 40
0.5
 40
0.5
 40
0.75
 40
0.75
 40
1.0
 40
1.0
 40
1.0
 40
1.0
 10
561.8303889502657
 20
322.8359024335389
 30
0.0
 10
562.1183682768448
 20
322.8603102017734
 30
0.0
 10
562.4062342958562
 20
322.8847179700078
 30
0.0
 10
562.9383507070818
 20
322.9335335064767
 30
0.0
 10
563.1823917342105
 20
322.9579412747111
 30
0.0
 10
563.5896560035417
 20
323.00675681118
 30
0.0
 10
563.7527190046451
 20
323.0311645794145
 30
0.0
 10
563.9731288389361
 20
323.0799801158834
 30
0.0
 10
564.0303889502658
 20
323.1043878841179
 30
0.0
 10
564.0303889502657
 20
323.1287956523523
 30
0.0
  0
LINE
  5
77
330
1F
100
AcDbEntity
  8
0
  6
Continuous
 62
     7
370
    25
100
AcDbLine
 10
564.0303889503
 20
147.9430092147
 30
0.0
 11
564.0303889503
 21
323.1287956524
 31
0.0
  0
SPLINE
  5
78
330
1F
100
AcDbEntity
  8
0
  6
Continuous
 62
     7
370
    25
100
AcDbSpline
210
0.0
220
0.0
230
1.0
 70
     8
 71
     3
 72
    14
 73
    10
 74
     0
 42
0.000000001
 43
0.00000001
 40
0.0
 40
0.0
 40
0.0
 40
0.0
 40
0.25
 40
0.25
 40
0.5
 40
0.5
 40
0.75
 40
0.75
 40
1.0
 40
1.0
 40
1.0
 40
1.0
 10
564.0303889502657
 20
147.9430092147254
 30
0.0
 10
564.0303889502657
 20
147.9674169829599
 30
0.0
 10
563.9731288389361
 20
147.9918247511943
 30
0.0
 10
563.752719004645
 20
148.0406402876632
 30
0.0
 10
563.5896560035417
 20
148.0650480558977
 30
0.0
 10
563.1823917342105
 20
148.1138635923666
 30
0.0
 10
562.9383507070818
 20
148.138271360601
 30
0.0
 10
562.4062342958562
 20
148.1870868970699
 30
0.0
 10
562.1183682768448
 20
148.2114946653044
 30
0.0
 10
561.8303889502657
 20
148.2359024335389
 30
0.0
  0
SPLINE
  5
79
330
1F
100
AcDbEntity
  8
0
  6
Continuous
 62
     7
370
    25
100
AcDbSpline
210
0.0
220
0.0
230
1.0
 70
     8
 71
     3
 72
    10
 73
     6
 74
     0
 42
0.000000001
 43
0.00000001
 40
0.0
 40
0.0
 40
0.0
 40
0.0
 40
0.5
 40
0.5
 40
1.0
 40
1.0
 40
1.0
 40
1.0
 10
260.2303889502657
 20
148.2359024335389
 30
0.0
 10
259.9685895624666
 20
148.1870868970699
 30
0.0
 10
259.7084022915024
 20
148.138271360601
 30
0.0
 10
259.3381620466559
 20
148.0406402876632
 30
0.0
 10
259.2303889502657
 20
147.9918247511943
 30
0.0
 10
259.2303889502657
 20
147.9430092147254
 30
0.0
  0
LINE
  5
7A
330
1F
100
AcDbEntity
  8
0
  6
Continuous
 62
     7
370
    25
100
AcDbLine
 10
259.2303889503
 20
147.9430092147
 30
0.0
 11
258.0303889503
 21
147.9430092147
 31
0.0
  0
LINE
  5
7B
330
1F
100
AcDbEntity
  8
0
  6
Continuous
 62
     7
370
    25
100
AcDbLine
 10
259.2303889503
 20
323.1287956524
 30
0.0
 11
258.0303889503
 21
323.1287956524
 31
0.0
  0
SPLINE
  5
7C
330
1F
100
AcDbEntity
  8
0
  6
Continuous
 62
     7
370
    25
100
AcDbSpline
210
0.0
220
0.0
230
1.0
 70
     8
 71
     3
 72
    10
 73
     6
 74
     0
 42
0.000000001
 43
0.00000001
 40
0.0
 40
0.0
 40
0.0
 40
0.0
 40
0.5
 40
0.5
 40
1.0
 40
1.0
 40
1.0
 40
1.0
 10
259.2303889502657
 20
323.1287956523523
 30
0.0
 10
259.2303889502657
 20
323.0799801158834
 30
0.0
 10
259.338162046656
 20
323.0311645794145
 30
0.0
 10
259.7084022915025
 20
322.9335335064767
 30
0.0
 10
259.9685895624666
 20
322.8847179700078
 30
0.0
 10
260.2303889502657
 20
322.8359024335389
 30
0.0
  0
LINE
  5
7D
330
1F
100
AcDbEntity
  8
0
  6
Continuous
 62
     7
370
    25
100
AcDbLine
 10
562.8303889503
 20
147.9430092147
 30
0.0
 11
564.0303889503
 21
147.9430092147
 31
0.0
  0
SPLINE
  5
7E
330
1F
100
AcDbEntity
  8
0
  6
Continuous
 62
     7
370
    25
100
AcDbSpline
210
0.0
220
0.0
230
1.0
 70
     8
 71
     3
 72
    10
 73
     6
 74
     0
 42
0.000000001
 43
0.00000001
 40
0.0
 40
0.0
 40
0.0
 40
0.0
 40
0.5
 40
0.5
 40
1.0
 40
1.0
 40
1.0
 40
1.0
 10
562.8303889502657
 20
147.9430092147254
 30
0.0
 10
562.8303889502657
 20
147.9918247511943
 30
0.0
 10
562.7226158538756
 20
148.0406402876632
 30
0.0
 10
562.352375609029
 20
148.138271360601
 30
0.0
 10
562.0921883380648
 20
148.1870868970699
 30
0.0
 10
561.8303889502657
 20
148.2359024335389
 30
0.0
  0
SPLINE
  5
7F
330
1F
100
AcDbEntity
  8
0
  6
Continuous
 62
     7
370
    25
100
AcDbSpline
210
0.0
220
0.0
230
1.0
 70
     8
 71
     3
 72
    10
 73
     6
 74
     0
 42
0.000000001
 43
0.00000001
 40
0.0
 40
0.0
 40
0.0
 40
0.0
 40
0.5
 40
0.5
 40
1.0
 40
1.0
 40
1.0
 40
1.0
 10
561.8303889502657
 20
322.8359024335389
 30
0.0
 10
562.0921883380648
 20
322.8847179700078
 30
0.0
 10
562.352375609029
 20
322.9335335064767
 30
0.0
 10
562.7226158538756
 20
323.0311645794145
 30
0.0
 10
562.8303889502657
 20
323.0799801158834
 30
0.0
 10
562.8303889502657
 20
323.1287956523523
 30
0.0
  0
LINE
  5
80
330
1F
100
AcDbEntity
  8
0
  6
Continuous
 62
     7
370
    25
100
AcDbLine
 10
562.8303889503
 20
323.1287956524
 30
0.0
 11
564.0303889503
 21
323.1287956524
 31
0.0
  0
SPLINE
  5
81
330
1F
100
AcDbEntity
  8
0
  6
Continuous
 62
     7
370
    25
100
AcDbSpline
210
0.0
220
0.0
230
1.0
 70
     8
 71
     3
 72
    14
 73
    10
 74
     0
 42
0.000000001
 43
0.00000001
 40
0.0
 40
0.0
 40
0.0
 40
0.0
 40
0.25
 40
0.25
 40
0.5
 40
0.5
 40
0.75
 40
0.75
 40
1.0
 40
1.0
 40
1.0
 40
1.0
 10
561.8303889502657
 20
148.2359024335389
 30
0.0
 10
561.8547967185001
 20
147.9479231069598
 30
0.0
 10
561.8792044867347
 20
147.6600570879484
 30
0.0
 10
561.9280200232035
 20
147.1279406767229
 30
0.0
 10
561.952427791438
 20
146.8838996495941
 30
0.0
 10
562.0012433279069
 20
146.4766353802629
 30
0.0
 10
562.0256510961414
 20
146.3135723791595
 30
0.0
 10
562.0744666326103
 20
146.0931625448685
 30
0.0
 10
562.0988744008447
 20
146.0359024335389
 30
0.0
 10
562.1232821690792
 20
146.0359024335389
 30
0.0
  0
SPLINE
  5
82
330
1F
100
AcDbEntity
  8
0
  6
Continuous
 62
     7
370
    25
100
AcDbSpline
210
0.0
220
0.0
230
1.0
 70
     8
 71
     3
 72
    10
 73
     6
 74
     0
 42
0.000000001
 43
0.00000001
 40
0.0
 40
0.0
 40
0.0
 40
0.0
 40
0.5
 40
0.5
 40
1.0
 40
1.0
 40
1.0
 40
1.0
 10
561.8303889502657
 20
148.2359024335389
 30
0.0
 10
561.8792044867347
 20
147.9741030457397
 30
0.0
 10
561.9280200232035
 20
147.7139157747756
 30
0.0
 10
562.0256510961414
 20
147.3436755299291
 30
0.0
 10
562.0744666326103
 20
147.2359024335389
 30
0.0
 10
562.1232821690792
 20
147.2359024335389
 30
0.0
  0
LINE
  5
83
330
1F
100
AcDbEntity
  8
0
  6
Continuous
 62
     7
370
    25
100
AcDbLine
 10
562.1232821691
 20
147.2359024335
 30
0.0
 11
562.1232821691
 21
146.0359024335
 31
0.0
  0
SPLINE
  5
84
330
1F
100
AcDbEntity
  8
0
  6
Continuous
 62
     7
370
    25
100
AcDbSpline
210
0.0
220
0.0
230
1.0
 70
     8
 71
     3
 72
    14
 73
    10
 74
     0
 42
0.000000001
 43
0.00000001
 40
0.0
 40
0.0
 40
0.0
 40
0.0
 40
0.25
 40
0.25
 40
0.5
 40
0.5
 40
0.75
 40
0.75
 40
1.0
 40
1.0
 40
1.0
 40
1.0
 10
562.1232821690793
 20
325.0359024335389
 30
0.0
 10
562.0988744008447
 20
325.0359024335389
 30
0.0
 10
562.0744666326103
 20
324.9786423222092
 30
0.0
 10
562.0256510961415
 20
324.7582324879182
 30
0.0
 10
562.0012433279069
 20
324.5951694868148
 30
0.0
 10
561.952427791438
 20
324.1879052174837
 30
0.0
 10
561.9280200232035
 20
323.9438641903548
 30
0.0
 10
561.8792044867347
 20
323.4117477791293
 30
0.0
 10
561.8547967185001
 20
323.1238817601179
 30
0.0
 10
561.8303889502657
 20
322.8359024335389
 30
0.0
  0
LINE
  5
85
330
1F
100
AcDbEntity
  8
0
  6
Continuous
 62
     7
370
    25
100
AcDbLine
 10
562.1232821691
 20
323.8359024335
 30
0.0
 11
562.1232821691
 21
325.0359024335
 31
0.0
  0
SPLINE
  5
86
330
1F
100
AcDbEntity
  8
0
  6
Continuous
 62
     7
370
    25
100
AcDbSpline
210
0.0
220
0.0
230
1.0
 70
     8
 71
     3
 72
    10
 73
     6
 74
     0
 42
0.000000001
 43
0.00000001
 40
0.0
 40
0.0
 40
0.0
 40
0.0
 40
0.5
 40
0.5
 40
1.0
 40
1.0
 40
1.0
 40
1.0
 10
562.1232821690793
 20
323.8359024335389
 30
0.0
 10
562.0744666326103
 20
323.8359024335389
 30
0.0
 10
562.0256510961414
 20
323.7281293371487
 30
0.0
 10
561.9280200232035
 20
323.3578890923021
 30
0.0
 10
561.8792044867347
 20
323.097701821338
 30
0.0
 10
561.8303889502657
 20
322.8359024335389
 30
0.0
  0
SPLINE
  5
87
330
1F
100
AcDbEntity
  8
0
  6
Continuous
 62
     7
370
    25
100
AcDbSpline
210
0.0
220
0.0
230
1.0
 70
     8
 71
     3
 72
    14
 73
    10
 74
     0
 42
0.000000001
 43
0.00000001
 40
0.0
 40
0.0
 40
0.0
 40
0.0
 40
0.25
 40
0.25
 40
0.5
 40
0.5
 40
0.75
 40
0.75
 40
1.0
 40
1.0
 40
1.0
 40
1.0
 10
260.2303889502657
 20
322.8359024335389
 30
0.0
 10
260.2059811820313
 20
323.1238817601179
 30
0.0
 10
260.1815734137967
 20
323.4117477791293
 30
0.0
 10
260.1327578773279
 20
323.9438641903548
 30
0.0
 10
260.1083501090935
 20
324.1879052174837
 30
0.0
 10
260.0595345726246
 20
324.5951694868148
 30
0.0
 10
260.0351268043901
 20
324.7582324879182
 30
0.0
 10
259.9863112679212
 20
324.9786423222092
 30
0.0
 10
259.9619034996867
 20
325.0359024335389
 30
0.0
 10
259.9374957314523
 20
325.0359024335389
 30
0.0
  0
LINE
  5
88
330
1F
100
AcDbEntity
  8
0
  6
Continuous
 62
     7
370
    25
100
AcDbLine
 10
562.1232821691
 20
325.0359024335
 30
0.0
 11
259.9374957315
 21
325.0359024335
 31
0.0
  0
SPLINE
  5
89
330
1F
100
AcDbEntity
  8
0
  6
Continuous
 62
     7
370
    25
100
AcDbSpline
210
0.0
220
0.0
230
1.0
 70
     8
 71
     3
 72
    14
 73
    10
 74
     0
 42
0.000000001
 43
0.00000001
 40
0.0
 40
0.0
 40
0.0
 40
0.0
 40
0.25
 40
0.25
 40
0.5
 40
0.5
 40
0.75
 40
0.75
 40
1.0
 40
1.0
 40
1.0
 40
1.0
 10
259.9374957314523
 20
146.0359024335389
 30
0.0
 10
259.9619034996867
 20
146.0359024335389
 30
0.0
 10
259.9863112679212
 20
146.0931625448686
 30
0.0
 10
260.0351268043901
 20
146.3135723791595
 30
0.0
 10
260.0595345726246
 20
146.4766353802629
 30
0.0
 10
260.1083501090935
 20
146.8838996495941
 30
0.0
 10
260.1327578773279
 20
147.1279406767229
 30
0.0
 10
260.1815734137968
 20
147.6600570879484
 30
0.0
 10
260.2059811820313
 20
147.9479231069598
 30
0.0
 10
260.2303889502657
 20
148.2359024335389
 30
0.0
  0
LINE
  5
8A
330
1F
100
AcDbEntity
  8
0
  6
Continuous
 62
     7
370
    25
100
AcDbLine
 10
259.9374957315
 20
147.2359024335
 30
0.0
 11
259.9374957315
 21
146.0359024335
 31
0.0
  0
SPLINE
  5
8B
330
1F
100
AcDbEntity
  8
0
  6
Continuous
 62
     7
370
    25
100
AcDbSpline
210
0.0
220
0.0
230
1.0
 70
     8
 71
     3
 72
    10
 73
     6
 74
     0
 42
0.000000001
 43
0.00000001
 40
0.0
 40
0.0
 40
0.0
 40
0.0
 40
0.5
 40
0.5
 40
1.0
 40
1.0
 40
1.0
 40
1.0
 10
259.9374957314523
 20
147.2359024335389
 30
0.0
 10
259.9863112679212
 20
147.2359024335389
 30
0.0
 10
260.0351268043901
 20
147.343675529929
 30
0.0
 10
260.1327578773279
 20
147.7139157747756
 30
0.0
 10
260.1815734137969
 20
147.9741030457397
 30
0.0
 10
260.2303889502657
 20
148.2359024335389
 30
0.0
  0
SPLINE
  5
8C
330
1F
100
AcDbEntity
  8
0
  6
Continuous
 62
     7
370
    25
100
AcDbSpline
210
0.0
220
0.0
230
1.0
 70
     8
 71
     3
 72
    10
 73
     6
 74
     0
 42
0.000000001
 43
0.00000001
 40
0.0
 40
0.0
 40
0.0
 40
0.0
 40
0.5
 40
0.5
 40
1.0
 40
1.0
 40
1.0
 40
1.0
 10
260.2303889502657
 20
322.8359024335389
 30
0.0
 10
260.1815734137968
 20
323.097701821338
 30
0.0
 10
260.1327578773279
 20
323.3578890923022
 30
0.0
 10
260.0351268043901
 20
323.7281293371487
 30
0.0
 10
259.9863112679212
 20
323.8359024335389
 30
0.0
 10
259.9374957314523
 20
323.8359024335389
 30
0.0
  0
LINE
  5
8D
330
1F
100
AcDbEntity
  8
0
  6
Continuous
 62
     7
370
    25
100
AcDbLine
 10
259.9374957315
 20
323.8359024335
 30
0.0
 11
259.9374957315
 21
325.0359024335
 31
0.0
  0
LINE
  5
8E
330
1F
100
AcDbEntity
  8
0
  6
Continuous
 62
     7
370
    25
100
AcDbLine
 10
259.9374957315
 20
146.0359024335
 30
0.0
 11
562.1232821691
 21
146.0359024335
 31
0.0
  0
LINE
  5
8F
330
1F
100
AcDbEntity
  8
0
  6
Continuous
 62
     7
370
    25
100
AcDbLine
 10
627.2807736353
 20
305.0359024335
 30
0.0
 11
640.2807736353
 21
305.0359024335
 31
0.0
  0
LINE
  5
90
330
1F
100
AcDbEntity
  8
0
  6
Continuous
 62
     7
370
    25
100
AcDbLine
 10
640.2807736353
 20
305.0359024335
 30
0.0
 11
640.2807736353
 21
323.1287956524
 31
0.0
  0
LINE
  5
91
330
1F
100
AcDbEntity
  8
0
  6
Continuous
 62
     7
370
    25
100
AcDbLine
 10
653.0807736353
 20
323.1287956524
 30
0.0
 11
640.2807736353
 21
323.1287956524
 31
0.0
  0
LINE
  5
92
330
1F
100
AcDbEntity
  8
0
  6
Continuous
 62
     7
370
    25
100
AcDbLine
 10
640.2807736353
 20
147.9430092147
 30
0.0
 11
653.0807736353
 21
147.9430092147
 31
0.0
  0
LINE
  5
93
330
1F
100
AcDbEntity
  8
0
  6
Continuous
 62
     7
370
    25
100
AcDbLine
 10
640.2807736353
 20
147.9430092147
 30
0.0
 11
640.2807736353
 21
166.0359024335
 31
0.0
  0
LINE
  5
94
330
1F
100
AcDbEntity
  8
0
  6
Continuous
 62
     7
370
    25
100
AcDbLine
 10
640.2807736353
 20
166.0359024335
 30
0.0
 11
627.2807736353
 21
166.0359024335
 31
0.0
  0
LINE
  5
95
330
1F
100
AcDbEntity
  8
0
  6
Continuous
 62
     7
370
    25
100
AcDbLine
 10
623.2807736353
 20
301.0359024335
 30
0.0
 11
623.2807736353
 21
170.0359024335
 31
0.0
  0
ARC
  5
96
330
1F
100
AcDbEntity
  8
0
  6
Continuous
 62
     7
370
    25
100
AcDbCircle
 10
638.2807736353
 20
173.0359024335
 30
0.0
 40
3.5
100
AcDbArc
 50
270.0
 51
90.0
  0
LINE
  5
97
330
1F
100
AcDbEntity
  8
0
  6
Continuous
 62
     7
370
    25
100
AcDbLine
 10
638.2807736353
 20
176.5359024335
 30
0.0
 11
630.2807736353
 21
176.5359024335
 31
0.0
  0
ARC
  5
98
330
1F
100
AcDbEntity
  8
0
  6
Continuous
 62
     7
370
    25
100
AcDbCircle
 10
630.2807736353
 20
173.0359024335
 30
0.0
 40
3.5
100
AcDbArc
 50
90.0
 51
270.0
  0
LINE
  5
99
330
1F
100
AcDbEntity
  8
0
  6
Continuous
 62
     7
370
    25
100
AcDbLine
 10
630.2807736353
 20
169.5359024335
 30
0.0
 11
638.2807736353
 21
169.5359024335
 31
0.0
  0
ARC
  5
9A
330
1F
100
AcDbEntity
  8
0
  6
Continuous
 62
     7
370
    25
100
AcDbCircle
 10
638.2807736353
 20
298.0359024335
 30
0.0
 40
3.500000000000057
100
AcDbArc
 50
270.0
 51
90.0
  0
LINE
  5
9B
330
1F
100
AcDbEntity
  8
0
  6
Continuous
 62
     7
370
    25
100
AcDbLine
 10
638.2807736353
 20
301.5359024335
 30
0.0
 11
630.2807736353
 21
301.5359024335
 31
0.0
  0
ARC
  5
9C
330
1F
100
AcDbEntity
  8
0
  6
Continuous
 62
     7
370
    25
100
AcDbCircle
 10
630.2807736353
 20
298.0359024335
 30
0.0
 40
3.500000000000057
100
AcDbArc
 50
90.0
 51
270.0
  0
LINE
  5
9D
330
1F
100
AcDbEntity
  8
0
  6
Continuous
 62
     7
370
    25
100
AcDbLine
 10
630.2807736353
 20
294.5359024335
 30
0.0
 11
638.2807736353
 21
294.5359024335
 31
0.0
  0
ARC
  5
9E
330
1F
100
AcDbEntity
  8
0
  6
Continuous
 62
     7
370
    25
100
AcDbCircle
 10
627.2807736353
 20
170.0359024335
 30
0.0
 40
4.0
100
AcDbArc
 50
180.0
 51
270.0
  0
ARC
  5
9F
330
1F
100
AcDbEntity
  8
0
  6
Continuous
 62
     7
370
    25
100
AcDbCircle
 10
627.2807736353
 20
301.0359024335
 30
0.0
 40
4.000000000000057
100
AcDbArc
 50
90.0
 51
180.0
  0
LINE
  5
A0
330
1F
100
AcDbEntity
  8
0
  6
Continuous
 62
     7
370
    25
100
AcDbLine
 10
655.2807736353
 20
322.8359024335
 30
0.0
 11
655.2807736353
 21
148.2359024335
 31
0.0
  0
SPLINE
  5
A1
330
1F
100
AcDbEntity
  8
0
  6
Continuous
 62
     7
370
    25
100
AcDbSpline
210
0.0
220
0.0
230
1.0
 70
     8
 71
     3
 72
    14
 73
    10
 74
     0
 42
0.000000001
 43
0.00000001
 40
0.0
 40
0.0
 40
0.0
 40
0.0
 40
0.25
 40
0.25
 40
0.5
 40
0.5
 40
0.75
 40
0.75
 40
1.0
 40
1.0
 40
1.0
 40
1.0
 10
653.0807736353211
 20
323.1287956523523
 30
0.0
 10
653.3687529619
 20
323.1043878841179
 30
0.0
 10
653.6566189809114
 20
323.0799801158834
 30
0.0
 10
654.188735392137
 20
323.0311645794145
 30
0.0
 10
654.4327764192658
 20
323.0067568111801
 30
0.0
 10
654.840040688597
 20
322.9579412747112
 30
0.0
 10
655.0031036897004
 20
322.9335335064767
 30
0.0
 10
655.2235135239912
 20
322.8847179700078
 30
0.0
 10
655.280773635321
 20
322.8603102017733
 30
0.0
 10
655.280773635321
 20
322.8359024335389
 30
0.0
  0
SPLINE
  5
A2
330
1F
100
AcDbEntity
  8
0
  6
Continuous
 62
     7
370
    25
100
AcDbSpline
210
0.0
220
0.0
230
1.0
 70
     8
 71
     3
 72
    14
 73
    10
 74
     0
 42
0.000000001
 43
0.00000001
 40
0.0
 40
0.0
 40
0.0
 40
0.0
 40
0.25
 40
0.25
 40
0.5
 40
0.5
 40
0.75
 40
0.75
 40
1.0
 40
1.0
 40
1.0
 40
1.0
 10
655.280773635321
 20
148.2359024335389
 30
0.0
 10
655.280773635321
 20
148.2114946653044
 30
0.0
 10
655.2235135239912
 20
148.1870868970699
 30
0.0
 10
655.0031036897004
 20
148.138271360601
 30
0.0
 10
654.840040688597
 20
148.1138635923666
 30
0.0
 10
654.4327764192658
 20
148.0650480558977
 30
0.0
 10
654.188735392137
 20
148.0406402876633
 30
0.0
 10
653.6566189809114
 20
147.9918247511943
 30
0.0
 10
653.3687529619
 20
147.9674169829599
 30
0.0
 10
653.0807736353211
 20
147.9430092147254
 30
0.0
  0
LINE
  5
A3
330
1F
100
AcDbEntity
  8
0
  6
Continuous
 62
     7
370
    25
100
AcDbLine
 10
653.0807736353
 20
147.2359024335
 30
0.0
 11
653.0807736353
 21
146.0359024335
 31
0.0
  0
LINE
  5
A4
330
1F
100
AcDbEntity
  8
0
  6
Continuous
 62
     7
370
    25
100
AcDbLine
 10
653.0807736353
 20
147.2359024335
 30
0.0
 11
640.2807736353
 21
147.2359024335
 31
0.0
  0
LINE
  5
A5
330
1F
100
AcDbEntity
  8
0
  6
Continuous
 62
     7
370
    25
100
AcDbLine
 10
653.0807736353
 20
146.0359024335
 30
0.0
 11
640.2807736353
 21
146.0359024335
 31
0.0
  0
LINE
  5
A6
330
1F
100
AcDbEntity
  8
0
  6
Continuous
 62
     7
370
    25
100
AcDbLine
 10
640.2807736353
 20
147.2359024335
 30
0.0
 11
640.2807736353
 21
146.0359024335
 31
0.0
  0
LINE
  5
A7
330
1F
100
AcDbEntity
  8
0
  6
Continuous
 62
     7
370
    25
100
AcDbLine
 10
653.0807736353
 20
323.8359024335
 30
0.0
 11
653.0807736353
 21
325.0359024335
 31
0.0
  0
SPLINE
  5
A8
330
1F
100
AcDbEntity
  8
0
  6
Continuous
 62
     7
370
    25
100
AcDbSpline
210
0.0
220
0.0
230
1.0
 70
     8
 71
     3
 72
    14
 73
    10
 74
     0
 42
0.000000001
 43
0.00000001
 40
0.0
 40
0.0
 40
0.0
 40
0.0
 40
0.25
 40
0.25
 40
0.5
 40
0.5
 40
0.75
 40
0.75
 40
1.0
 40
1.0
 40
1.0
 40
1.0
 10
655.280773635321
 20
322.8359024335389
 30
0.0
 10
655.280773635321
 20
323.1238817601179
 30
0.0
 10
655.2235135239912
 20
323.4117477791293
 30
0.0
 10
655.0031036897004
 20
323.9438641903548
 30
0.0
 10
654.8400406885969
 20
324.1879052174837
 30
0.0
 10
654.4327764192658
 20
324.5951694868148
 30
0.0
 10
654.188735392137
 20
324.7582324879182
 30
0.0
 10
653.6566189809114
 20
324.9786423222092
 30
0.0
 10
653.3687529619
 20
325.0359024335389
 30
0.0
 10
653.0807736353211
 20
325.0359024335389
 30
0.0
  0
SPLINE
  5
A9
330
1F
100
AcDbEntity
  8
0
  6
Continuous
 62
     7
370
    25
100
AcDbSpline
210
0.0
220
0.0
230
1.0
 70
     8
 71
     3
 72
    11
 73
     7
 74
     0
 42
0.000000001
 43
0.00000001
 40
0.0
 40
0.0
 40
0.0
 40
0.0
 40
0.1322666356161352
 40
0.4215110904107557
 40
0.7107555452053748
 40
1.0
 40
1.0
 40
1.0
 40
1.0
 10
654.039461780303
 20
323.0435911537637
 30
0.0
 10
654.0309079751449
 20
323.1029475100197
 30
0.0
 10
654.0036484646679
 20
323.2921060406784
 30
0.0
 10
653.8010381968843
 20
323.5584186226049
 30
0.0
 10
653.4747326434778
 20
323.7910926850392
 30
0.0
 10
653.2120933047065
 20
323.8209658507056
 30
0.0
 10
653.0807736353211
 20
323.8359024335389
 30
0.0
  0
LINE
  5
AA
330
1F
100
AcDbEntity
  8
0
  6
Continuous
 62
     7
370
    25
100
AcDbLine
 10
640.2807736353
 20
323.8359024335
 30
0.0
 11
653.0807736353
 21
323.8359024335
 31
0.0
  0
LINE
  5
AB
330
1F
100
AcDbEntity
  8
0
  6
Continuous
 62
     7
370
    25
100
AcDbLine
 10
640.2807736353
 20
325.0359024335
 30
0.0
 11
653.0807736353
 21
325.0359024335
 31
0.0
  0
LINE
  5
AC
330
1F
100
AcDbEntity
  8
0
  6
Continuous
 62
     7
370
    25
100
AcDbLine
 10
640.2807736353
 20
325.0359024335
 30
0.0
 11
640.2807736353
 21
323.8359024335
 31
0.0
  0
SPLINE
  5
AD
330
1F
100
AcDbEntity
  8
0
  6
Continuous
 62
     7
370
    25
100
AcDbSpline
210
0.0
220
0.0
230
1.0
 70
     8
 71
     3
 72
    11
 73
     7
 74
     0
 42
0.000000001
 43
0.00000001
 40
0.0
 40
0.0
 40
0.0
 40
0.0
 40
0.2892444547946256
 40
0.5784889095892525
 40
0.8677333643838772
 40
1.0
 40
1.0
 40
1.0
 40
1.0
 10
653.0807736353211
 20
147.2359024335389
 30
0.0
 10
653.2120933047065
 20
147.2508390163721
 30
0.0
 10
653.4747326434778
 20
147.2807121820385
 30
0.0
 10
653.8010381968843
 20
147.5133862444728
 30
0.0
 10
654.0036484646679
 20
147.7796988263994
 30
0.0
 10
654.0309079751449
 20
147.968857357058
 30
0.0
 10
654.039461780303
 20
148.0282137133141
 30
0.0
  0
SPLINE
  5
AE
330
1F
100
AcDbEntity
  8
0
  6
Continuous
 62
     7
370
    25
100
AcDbSpline
210
0.0
220
0.0
230
1.0
 70
     8
 71
     3
 72
    14
 73
    10
 74
     0
 42
0.000000001
 43
0.00000001
 40
0.0
 40
0.0
 40
0.0
 40
0.0
 40
0.25
 40
0.25
 40
0.5
 40
0.5
 40
0.75
 40
0.75
 40
1.0
 40
1.0
 40
1.0
 40
1.0
 10
653.0807736353211
 20
146.0359024335389
 30
0.0
 10
653.3687529619
 20
146.0359024335389
 30
0.0
 10
653.6566189809114
 20
146.0931625448686
 30
0.0
 10
654.188735392137
 20
146.3135723791595
 30
0.0
 10
654.4327764192658
 20
146.4766353802629
 30
0.0
 10
654.8400406885969
 20
146.8838996495941
 30
0.0
 10
655.0031036897004
 20
147.1279406767229
 30
0.0
 10
655.2235135239912
 20
147.6600570879484
 30
0.0
 10
655.280773635321
 20
147.9479231069598
 30
0.0
 10
655.280773635321
 20
148.2359024335389
 30
0.0
  0
LINE
  5
AF
330
1F
100
AcDbEntity
  8
0
  6
Continuous
 62
     7
370
    25
100
AcDbLine
 10
562.1232821691
 20
369.9836761534
 30
0.0
 11
259.9374957315
 21
369.9836761534
 31
0.0
  0
LINE
  5
B0
330
1F
100
AcDbEntity
  8
0
  6
Continuous
 62
     7
370
    25
100
AcDbLine
 10
562.1232821691
 20
369.9836761534
 30
0.0
 11
562.1232821691
 21
382.7836761534
 31
0.0
  0
LINE
  5
B1
330
1F
100
AcDbEntity
  8
0
  6
Continuous
 62
     7
370
    25
100
AcDbLine
 10
259.9374957315
 20
382.7836761534
 30
0.0
 11
259.9374957315
 21
369.9836761534
 31
0.0
  0
SPLINE
  5
B2
330
1F
100
AcDbEntity
  8
0
  6
Continuous
 62
     7
370
    25
100
AcDbSpline
210
0.0
220
0.0
230
1.0
 70
     8
 71
     3
 72
    14
 73
    10
 74
     0
 42
0.000000001
 43
0.00000001
 40
0.0
 40
0.0
 40
0.0
 40
0.0
 40
0.25
 40
0.25
 40
0.5
 40
0.5
 40
0.75
 40
0.75
 40
1.0
 40
1.0
 40
1.0
 40
1.0
 10
561.8303889502657
 20
384.983676153364
 30
0.0
 10
561.8547967185001
 20
384.983676153364
 30
0.0
 10
561.8792044867347
 20
384.9264160420343
 30
0.0
 10
561.9280200232035
 20
384.7060062077434
 30
0.0
 10
561.952427791438
 20
384.54294320664
 30
0.0
 10
562.0012433279069
 20
384.1356789373088
 30
0.0
 10
562.0256510961414
 20
383.89163791018
 30
0.0
 10
562.0744666326103
 20
383.3595214989544
 30
0.0
 10
562.0988744008447
 20
383.0716554799431
 30
0.0
 10
562.1232821690792
 20
382.783676153364
 30
0.0
  0
SPLINE
  5
B3
330
1F
100
AcDbEntity
  8
0
  6
Continuous
 62
     7
370
    25
100
AcDbSpline
210
0.0
220
0.0
230
1.0
 70
     8
 71
     3
 72
    14
 73
    10
 74
     0
 42
0.000000001
 43
0.00000001
 40
0.0
 40
0.0
 40
0.0
 40
0.0
 40
0.25
 40
0.25
 40
0.5
 40
0.5
 40
0.75
 40
0.75
 40
1.0
 40
1.0
 40
1.0
 40
1.0
 10
259.9374957314523
 20
382.783676153364
 30
0.0
 10
259.9619034996867
 20
383.0716554799431
 30
0.0
 10
259.9863112679212
 20
383.3595214989544
 30
0.0
 10
260.0351268043901
 20
383.89163791018
 30
0.0
 10
260.0595345726246
 20
384.1356789373088
 30
0.0
 10
260.1083501090935
 20
384.54294320664
 30
0.0
 10
260.1327578773279
 20
384.7060062077434
 30
0.0
 10
260.1815734137968
 20
384.9264160420343
 30
0.0
 10
260.2059811820313
 20
384.983676153364
 30
0.0
 10
260.2303889502657
 20
384.983676153364
 30
0.0
  0
LINE
  5
B4
330
1F
100
AcDbEntity
  8
0
  6
Continuous
 62
     7
370
    25
100
AcDbLine
 10
260.2303889503
 20
384.9836761534
 30
0.0
 11
561.8303889503
 21
384.9836761534
 31
0.0
  0
LINE
  5
B5
330
1F
100
AcDbEntity
  8
0
  6
Continuous
 62
     7
370
    25
100
AcDbLine
 10
259.2303889503
 20
382.7836761534
 30
0.0
 11
258.0303889503
 21
382.7836761534
 31
0.0
  0
LINE
  5
B6
330
1F
100
AcDbEntity
  8
0
  6
Continuous
 62
     7
370
    25
100
AcDbLine
 10
258.0303889503
 20
369.9836761534
 30
0.0
 11
259.2303889503
 21
369.9836761534
 31
0.0
  0
LINE
  5
B7
330
1F
100
AcDbEntity
  8
0
  6
Continuous
 62
     7
370
    25
100
AcDbLine
 10
258.0303889503
 20
369.9836761534
 30
0.0
 11
258.0303889503
 21
382.7836761534
 31
0.0
  0
LINE
  5
B8
330
1F
100
AcDbEntity
  8
0
  6
Continuous
 62
     7
370
    25
100
AcDbLine
 10
259.2303889503
 20
369.9836761534
 30
0.0
 11
259.2303889503
 21
382.7836761534
 31
0.0
  0
LINE
  5
B9
330
1F
100
AcDbEntity
  8
0
  6
Continuous
 62
     7
370
    25
100
AcDbLine
 10
562.8303889503
 20
382.7836761534
 30
0.0
 11
564.0303889503
 21
382.7836761534
 31
0.0
  0
LINE
  5
BA
330
1F
100
AcDbEntity
  8
0
  6
Continuous
 62
     7
370
    25
100
AcDbLine
 10
562.8303889503
 20
369.9836761534
 30
0.0
 11
564.0303889503
 21
369.9836761534
 31
0.0
  0
LINE
  5
BB
330
1F
100
AcDbEntity
  8
0
  6
Continuous
 62
     7
370
    25
100
AcDbLine
 10
562.8303889503
 20
382.7836761534
 30
0.0
 11
562.8303889503
 21
369.9836761534
 31
0.0
  0
LINE
  5
BC
330
1F
100
AcDbEntity
  8
0
  6
Continuous
 62
     7
370
    25
100
AcDbLine
 10
564.0303889503
 20
382.7836761534
 30
0.0
 11
564.0303889503
 21
369.9836761534
 31
0.0
  0
SPLINE
  5
BD
330
1F
100
AcDbEntity
  8
0
  6
Continuous
 62
     7
370
    25
100
AcDbSpline
210
0.0
220
0.0
230
1.0
 70
     8
 71
     3
 72
    11
 73
     7
 74
     0
 42
0.000000001
 43
0.00000001
 40
0.0
 40
0.0
 40
0.0
 40
0.0
 40
0.1322666356161697
 40
0.4215110904107782
 40
0.710755545205391
 40
1.0
 40
1.0
 40
1.0
 40
1.0
 10
260.022700230041
 20
383.742364298346
 30
0.0
 10
259.9633438737849
 20
383.733810493188
 30
0.0
 10
259.7741853431263
 20
383.706550982711
 30
0.0
 10
259.5078727611997
 20
383.5039407149274
 30
0.0
 10
259.2751986987653
 20
383.1776351615208
 30
0.0
 10
259.2453255330989
 20
382.9149958227496
 30
0.0
 10
259.2303889502657
 20
382.783676153364
 30
0.0
  0
SPLINE
  5
BE
330
1F
100
AcDbEntity
  8
0
  6
Continuous
 62
     7
370
    25
100
AcDbSpline
210
0.0
220
0.0
230
1.0
 70
     8
 71
     3
 72
    14
 73
    10
 74
     0
 42
0.000000001
 43
0.00000001
 40
0.0
 40
0.0
 40
0.0
 40
0.0
 40
0.25
 40
0.25
 40
0.5
 40
0.5
 40
0.75
 40
0.75
 40
1.0
 40
1.0
 40
1.0
 40
1.0
 10
260.2303889502657
 20
384.9836761533641
 30
0.0
 10
259.9424096236867
 20
384.9836761533641
 30
0.0
 10
259.6545436046753
 20
384.9264160420343
 30
0.0
 10
259.1224271934498
 20
384.7060062077434
 30
0.0
 10
258.8783861663209
 20
384.54294320664
 30
0.0
 10
258.4711218969898
 20
384.1356789373088
 30
0.0
 10
258.3080588958863
 20
383.89163791018
 30
0.0
 10
258.0876490615954
 20
383.3595214989544
 30
0.0
 10
258.0303889502658
 20
383.0716554799431
 30
0.0
 10
258.0303889502658
 20
382.783676153364
 30
0.0
  0
SPLINE
  5
BF
330
1F
100
AcDbEntity
  8
0
  6
Continuous
 62
     7
370
    25
100
AcDbSpline
210
0.0
220
0.0
230
1.0
 70
     8
 71
     3
 72
    14
 73
    10
 74
     0
 42
0.000000001
 43
0.00000001
 40
0.0
 40
0.0
 40
0.0
 40
0.0
 40
0.25
 40
0.25
 40
0.5
 40
0.5
 40
0.75
 40
0.75
 40
1.0
 40
1.0
 40
1.0
 40
1.0
 10
564.0303889502657
 20
382.783676153364
 30
0.0
 10
564.0303889502657
 20
383.0716554799431
 30
0.0
 10
563.9731288389361
 20
383.3595214989544
 30
0.0
 10
563.752719004645
 20
383.89163791018
 30
0.0
 10
563.5896560035417
 20
384.1356789373088
 30
0.0
 10
563.1823917342105
 20
384.54294320664
 30
0.0
 10
562.9383507070818
 20
384.7060062077434
 30
0.0
 10
562.4062342958562
 20
384.9264160420343
 30
0.0
 10
562.1183682768448
 20
384.9836761533641
 30
0.0
 10
561.8303889502657
 20
384.9836761533641
 30
0.0
  0
SPLINE
  5
C0
330
1F
100
AcDbEntity
  8
0
  6
Continuous
 62
     7
370
    25
100
AcDbSpline
210
0.0
220
0.0
230
1.0
 70
     8
 71
     3
 72
    11
 73
     7
 74
     0
 42
0.000000001
 43
0.00000001
 40
0.0
 40
0.0
 40
0.0
 40
0.0
 40
0.289244454794616
 40
0.578488909589243
 40
0.8677333643838676
 40
1.0
 40
1.0
 40
1.0
 40
1.0
 10
562.8303889502657
 20
382.783676153364
 30
0.0
 10
562.8154523674325
 20
382.9149958227496
 30
0.0
 10
562.785579201766
 20
383.1776351615208
 30
0.0
 10
562.5529051393319
 20
383.5039407149274
 30
0.0
 10
562.2865925574052
 20
383.706550982711
 30
0.0
 10
562.0974340267467
 20
383.733810493188
 30
0.0
 10
562.0380776704906
 20
383.742364298346
 30
0.0
  0
LINE
  5
C1
330
1F
100
AcDbEntity
  8
0
  6
Continuous
 62
     7
370
    25
100
AcDbLine
 10
259.2303889503
 20
352.9836761534
 30
0.0
 11
258.0303889503
 21
352.9836761534
 31
0.0
  0
LINE
  5
C2
330
1F
100
AcDbEntity
  8
0
  6
Continuous
 62
     7
370
    25
100
AcDbLine
 10
258.0303889503
 20
352.9836761534
 30
0.0
 11
258.0303889503
 21
356.9836761534
 31
0.0
  0
LINE
  5
C3
330
1F
100
AcDbEntity
  8
0
  6
Continuous
 62
     7
370
    25
100
AcDbLine
 10
259.2303889503
 20
356.9836761534
 30
0.0
 11
259.2303889503
 21
352.9836761534
 31
0.0
  0
LINE
  5
C4
330
1F
100
AcDbEntity
  8
0
  6
Continuous
 62
     7
370
    25
100
AcDbLine
 10
564.0303889503
 20
352.9836761534
 30
0.0
 11
562.8303889503
 21
352.9836761534
 31
0.0
  0
LINE
  5
C5
330
1F
100
AcDbEntity
  8
0
  6
Continuous
 62
     7
370
    25
100
AcDbLine
 10
562.8303889503
 20
352.9836761534
 30
0.0
 11
562.8303889503
 21
356.9836761534
 31
0.0
  0
LINE
  5
C6
330
1F
100
AcDbEntity
  8
0
  6
Continuous
 62
     7
370
    25
100
AcDbLine
 10
564.0303889503
 20
356.9836761534
 30
0.0
 11
564.0303889503
 21
352.9836761534
 31
0.0
  0
LINE
  5
C7
330
1F
100
AcDbEntity
  8
0
  6
Continuous
 62
     7
370
    25
100
AcDbLine
 10
258.0303889503
 20
369.9836761534
 30
0.0
 11
258.0303889503
 21
356.9836761534
 31
0.0
  0
LINE
  5
C8
330
1F
100
AcDbEntity
  8
0
  6
Continuous
 62
     7
370
    25
100
AcDbLine
 10
259.2303889503
 20
356.9836761534
 30
0.0
 11
259.2303889503
 21
369.9836761534
 31
0.0
  0
LINE
  5
C9
330
1F
100
AcDbEntity
  8
0
  6
Continuous
 62
     7
370
    25
100
AcDbLine
 10
562.8303889503
 20
369.9836761534
 30
0.0
 11
562.8303889503
 21
356.9836761534
 31
0.0
  0
LINE
  5
CA
330
1F
100
AcDbEntity
  8
0
  6
Continuous
 62
     7
370
    25
100
AcDbLine
 10
564.0303889503
 20
369.9836761534
 30
0.0
 11
564.0303889503
 21
356.9836761534
 31
0.0
  0
LINE
  5
CB
330
1F
100
AcDbEntity
  8
0
  6
Continuous
 62
     7
370
    25
100
AcDbLine
 10
562.1232821691
 20
90.9387489268
 30
0.0
 11
259.9374957315
 21
90.9387489268
 31
0.0
  0
LINE
  5
CC
330
1F
100
AcDbEntity
  8
0
  6
Continuous
 62
     7
370
    25
100
AcDbLine
 10
259.9374957315
 20
90.9387489268
 30
0.0
 11
259.9374957315
 21
78.1387489268
 31
0.0
  0
LINE
  5
CD
330
1F
100
AcDbEntity
  8
0
  6
Continuous
 62
     7
370
    25
100
AcDbLine
 10
562.1232821691
 20
78.1387489268
 30
0.0
 11
562.1232821691
 21
90.9387489268
 31
0.0
  0
SPLINE
  5
CE
330
1F
100
AcDbEntity
  8
0
  6
Continuous
 62
     7
370
    25
100
AcDbSpline
210
0.0
220
0.0
230
1.0
 70
     8
 71
     3
 72
    14
 73
    10
 74
     0
 42
0.000000001
 43
0.00000001
 40
0.0
 40
0.0
 40
0.0
 40
0.0
 40
0.25
 40
0.25
 40
0.5
 40
0.5
 40
0.75
 40
0.75
 40
1.0
 40
1.0
 40
1.0
 40
1.0
 10
260.2303889502657
 20
75.93874892681401
 30
0.0
 10
260.2059811820313
 20
75.93874892681401
 30
0.0
 10
260.1815734137967
 20
75.99600903814373
 30
0.0
 10
260.1327578773279
 20
76.21641887243464
 30
0.0
 10
260.1083501090935
 20
76.37948187353801
 30
0.0
 10
260.0595345726246
 20
76.7867461428692
 30
0.0
 10
260.0351268043901
 20
77.03078716999804
 30
0.0
 10
259.9863112679212
 20
77.5629035812236
 30
0.0
 10
259.9619034996867
 20
77.85076960023494
 30
0.0
 10
259.9374957314523
 20
78.138748926814
 30
0.0
  0
LINE
  5
CF
330
1F
100
AcDbEntity
  8
0
  6
Continuous
 62
     7
370
    25
100
AcDbLine
 10
561.8303889503
 20
75.9387489268
 30
0.0
 11
260.2303889503
 21
75.9387489268
 31
0.0
  0
SPLINE
  5
D0
330
1F
100
AcDbEntity
  8
0
  6
Continuous
 62
     7
370
    25
100
AcDbSpline
210
0.0
220
0.0
230
1.0
 70
     8
 71
     3
 72
    14
 73
    10
 74
     0
 42
0.000000001
 43
0.00000001
 40
0.0
 40
0.0
 40
0.0
 40
0.0
 40
0.25
 40
0.25
 40
0.5
 40
0.5
 40
0.75
 40
0.75
 40
1.0
 40
1.0
 40
1.0
 40
1.0
 10
562.1232821690793
 20
78.138748926814
 30
0.0
 10
562.0988744008447
 20
77.85076960023494
 30
0.0
 10
562.0744666326103
 20
77.5629035812236
 30
0.0
 10
562.0256510961415
 20
77.03078716999804
 30
0.0
 10
562.0012433279069
 20
76.7867461428692
 30
0.0
 10
561.952427791438
 20
76.37948187353801
 30
0.0
 10
561.9280200232035
 20
76.21641887243464
 30
0.0
 10
561.8792044867347
 20
75.99600903814373
 30
0.0
 10
561.8547967185001
 20
75.93874892681401
 30
0.0
 10
561.8303889502657
 20
75.93874892681401
 30
0.0
  0
LINE
  5
D1
330
1F
100
AcDbEntity
  8
0
  6
Continuous
 62
     7
370
    25
100
AcDbLine
 10
562.8303889503
 20
78.1387489268
 30
0.0
 11
564.0303889503
 21
78.1387489268
 31
0.0
  0
LINE
  5
D2
330
1F
100
AcDbEntity
  8
0
  6
Continuous
 62
     7
370
    25
100
AcDbLine
 10
564.0303889503
 20
90.9387489268
 30
0.0
 11
562.8303889503
 21
90.9387489268
 31
0.0
  0
LINE
  5
D3
330
1F
100
AcDbEntity
  8
0
  6
Continuous
 62
     7
370
    25
100
AcDbLine
 10
562.8303889503
 20
90.9387489268
 30
0.0
 11
562.8303889503
 21
78.1387489268
 31
0.0
  0
LINE
  5
D4
330
1F
100
AcDbEntity
  8
0
  6
Continuous
 62
     7
370
    25
100
AcDbLine
 10
564.0303889503
 20
90.9387489268
 30
0.0
 11
564.0303889503
 21
78.1387489268
 31
0.0
  0
LINE
  5
D5
330
1F
100
AcDbEntity
  8
0
  6
Continuous
 62
     7
370
    25
100
AcDbLine
 10
259.2303889503
 20
78.1387489268
 30
0.0
 11
258.0303889503
 21
78.1387489268
 31
0.0
  0
LINE
  5
D6
330
1F
100
AcDbEntity
  8
0
  6
Continuous
 62
     7
370
    25
100
AcDbLine
 10
259.2303889503
 20
90.9387489268
 30
0.0
 11
258.0303889503
 21
90.9387489268
 31
0.0
  0
LINE
  5
D7
330
1F
100
AcDbEntity
  8
0
  6
Continuous
 62
     7
370
    25
100
AcDbLine
 10
258.0303889503
 20
78.1387489268
 30
0.0
 11
258.0303889503
 21
90.9387489268
 31
0.0
  0
LINE
  5
D8
330
1F
100
AcDbEntity
  8
0
  6
Continuous
 62
     7
370
    25
100
AcDbLine
 10
259.2303889503
 20
78.1387489268
 30
0.0
 11
259.2303889503
 21
90.9387489268
 31
0.0
  0
SPLINE
  5
D9
330
1F
100
AcDbEntity
  8
0
  6
Continuous
 62
     7
370
    25
100
AcDbSpline
210
0.0
220
0.0
230
1.0
 70
     8
 71
     3
 72
    11
 73
     7
 74
     0
 42
0.000000001
 43
0.00000001
 40
0.0
 40
0.0
 40
0.0
 40
0.0
 40
0.1322666356161697
 40
0.4215110904107782
 40
0.710755545205391
 40
1.0
 40
1.0
 40
1.0
 40
1.0
 10
562.0380776704905
 20
77.18006078183195
 30
0.0
 10
562.0974340267466
 20
77.18861458699004
 30
0.0
 10
562.2865925574052
 20
77.21587409746708
 30
0.0
 10
562.5529051393318
 20
77.41848436525066
 30
0.0
 10
562.7855792017662
 20
77.74478991865722
 30
0.0
 10
562.8154523674326
 20
78.00742925742841
 30
0.0
 10
562.8303889502657
 20
78.138748926814
 30
0.0
  0
SPLINE
  5
DA
330
1F
100
AcDbEntity
  8
0
  6
Continuous
 62
     7
370
    25
100
AcDbSpline
210
0.0
220
0.0
230
1.0
 70
     8
 71
     3
 72
    14
 73
    10
 74
     0
 42
0.000000001
 43
0.00000001
 40
0.0
 40
0.0
 40
0.0
 40
0.0
 40
0.25
 40
0.25
 40
0.5
 40
0.5
 40
0.75
 40
0.75
 40
1.0
 40
1.0
 40
1.0
 40
1.0
 10
561.8303889502657
 20
75.93874892681401
 30
0.0
 10
562.1183682768448
 20
75.93874892681401
 30
0.0
 10
562.4062342958562
 20
75.99600903814371
 30
0.0
 10
562.9383507070818
 20
76.21641887243464
 30
0.0
 10
563.1823917342105
 20
76.37948187353801
 30
0.0
 10
563.5896560035417
 20
76.7867461428692
 30
0.0
 10
563.7527190046451
 20
77.03078716999804
 30
0.0
 10
563.9731288389361
 20
77.5629035812236
 30
0.0
 10
564.0303889502658
 20
77.85076960023494
 30
0.0
 10
564.0303889502657
 20
78.13874892681402
 30
0.0
  0
SPLINE
  5
DB
330
1F
100
AcDbEntity
  8
0
  6
Continuous
 62
     7
370
    25
100
AcDbSpline
210
0.0
220
0.0
230
1.0
 70
     8
 71
     3
 72
    14
 73
    10
 74
     0
 42
0.000000001
 43
0.00000001
 40
0.0
 40
0.0
 40
0.0
 40
0.0
 40
0.25
 40
0.25
 40
0.5
 40
0.5
 40
0.75
 40
0.75
 40
1.0
 40
1.0
 40
1.0
 40
1.0
 10
258.0303889502658
 20
78.13874892681402
 30
0.0
 10
258.0303889502657
 20
77.85076960023494
 30
0.0
 10
258.0876490615954
 20
77.5629035812236
 30
0.0
 10
258.3080588958863
 20
77.03078716999804
 30
0.0
 10
258.4711218969898
 20
76.7867461428692
 30
0.0
 10
258.878386166321
 20
76.37948187353801
 30
0.0
 10
259.1224271934497
 20
76.21641887243464
 30
0.0
 10
259.6545436046753
 20
75.99600903814371
 30
0.0
 10
259.9424096236867
 20
75.93874892681401
 30
0.0
 10
260.2303889502657
 20
75.93874892681401
 30
0.0
  0
SPLINE
  5
DC
330
1F
100
AcDbEntity
  8
0
  6
Continuous
 62
     7
370
    25
100
AcDbSpline
210
0.0
220
0.0
230
1.0
 70
     8
 71
     3
 72
    11
 73
     7
 74
     0
 42
0.000000001
 43
0.00000001
 40
0.0
 40
0.0
 40
0.0
 40
0.0
 40
0.2892444547945928
 40
0.5784889095891965
 40
0.8677333643837979
 40
1.0
 40
1.0
 40
1.0
 40
1.0
 10
259.2303889502657
 20
78.138748926814
 30
0.0
 10
259.245325533099
 20
78.00742925742841
 30
0.0
 10
259.2751986987653
 20
77.74478991865722
 30
0.0
 10
259.5078727611996
 20
77.41848436525066
 30
0.0
 10
259.7741853431262
 20
77.21587409746706
 30
0.0
 10
259.9633438737849
 20
77.18861458699003
 30
0.0
 10
260.022700230041
 20
77.18006078183195
 30
0.0
  0
LINE
  5
DD
330
1F
100
AcDbEntity
  8
0
  6
Continuous
 62
     7
370
    25
100
AcDbLine
 10
258.0303889503
 20
107.9387489268
 30
0.0
 11
259.2303889503
 21
107.9387489268
 31
0.0
  0
LINE
  5
DE
330
1F
100
AcDbEntity
  8
0
  6
Continuous
 62
     7
370
    25
100
AcDbLine
 10
258.0303889503
 20
103.9387489268
 30
0.0
 11
258.0303889503
 21
107.9387489268
 31
0.0
  0
LINE
  5
DF
330
1F
100
AcDbEntity
  8
0
  6
Continuous
 62
     7
370
    25
100
AcDbLine
 10
259.2303889503
 20
107.9387489268
 30
0.0
 11
259.2303889503
 21
103.9387489268
 31
0.0
  0
LINE
  5
E0
330
1F
100
AcDbEntity
  8
0
  6
Continuous
 62
     7
370
    25
100
AcDbLine
 10
562.8303889503
 20
107.9387489268
 30
0.0
 11
564.0303889503
 21
107.9387489268
 31
0.0
  0
LINE
  5
E1
330
1F
100
AcDbEntity
  8
0
  6
Continuous
 62
     7
370
    25
100
AcDbLine
 10
562.8303889503
 20
103.9387489268
 30
0.0
 11
562.8303889503
 21
107.9387489268
 31
0.0
  0
LINE
  5
E2
330
1F
100
AcDbEntity
  8
0
  6
Continuous
 62
     7
370
    25
100
AcDbLine
 10
564.0303889503
 20
107.9387489268
 30
0.0
 11
564.0303889503
 21
103.9387489268
 31
0.0
  0
LINE
  5
E3
330
1F
100
AcDbEntity
  8
0
  6
Continuous
 62
     7
370
    25
100
AcDbLine
 10
258.0303889503
 20
103.9387489268
 30
0.0
 11
258.0303889503
 21
90.9387489268
 31
0.0
  0
LINE
  5
E4
330
1F
100
AcDbEntity
  8
0
  6
Continuous
 62
     7
370
    25
100
AcDbLine
 10
259.2303889503
 20
90.9387489268
 30
0.0
 11
259.2303889503
 21
103.9387489268
 31
0.0
  0
LINE
  5
E5
330
1F
100
AcDbEntity
  8
0
  6
Continuous
 62
     7
370
    25
100
AcDbLine
 10
562.8303889503
 20
103.9387489268
 30
0.0
 11
562.8303889503
 21
90.9387489268
 31
0.0
  0
LINE
  5
E6
330
1F
100
AcDbEntity
  8
0
  6
Continuous
 62
     7
370
    25
100
AcDbLine
 10
564.0303889503
 20
103.9387489268
 30
0.0
 11
564.0303889503
 21
90.9387489268
 31
0.0
  0
LINE
  5
E7
330
1F
100
AcDbEntity
  8
0
  6
Continuous
 62
     7
370
    25
100
AcDbLine
 10
179.4546096427
 20
147.9430092147
 30
0.0
 11
179.4546096427
 21
166.0359024335
 31
0.0
  0
LINE
  5
E8
330
1F
100
AcDbEntity
  8
0
  6
Continuous
 62
     7
370
    25
100
AcDbLine
 10
166.6546096427
 20
147.9430092147
 30
0.0
 11
179.4546096427
 21
147.9430092147
 31
0.0
  0
LINE
  5
E9
330
1F
100
AcDbEntity
  8
0
  6
Continuous
 62
     7
370
    25
100
AcDbLine
 10
179.4546096427
 20
323.1287956524
 30
0.0
 11
166.6546096427
 21
323.1287956524
 31
0.0
  0
LINE
  5
EA
330
1F
100
AcDbEntity
  8
0
  6
Continuous
 62
     7
370
    25
100
AcDbLine
 10
179.4546096427
 20
305.0359024335
 30
0.0
 11
179.4546096427
 21
323.1287956524
 31
0.0
  0
LINE
  5
EB
330
1F
100
AcDbEntity
  8
0
  6
Continuous
 62
     7
370
    25
100
AcDbLine
 10
192.4546096427
 20
305.0359024335
 30
0.0
 11
179.4546096427
 21
305.0359024335
 31
0.0
  0
ARC
  5
EC
330
1F
100
AcDbEntity
  8
0
  6
Continuous
 62
     7
370
    25
100
AcDbCircle
 10
192.4546096427
 20
301.0359024335
 30
0.0
 40
4.000000000000057
100
AcDbArc
 50
0.0
 51
90.0
  0
ARC
  5
ED
330
1F
100
AcDbEntity
  8
0
  6
Continuous
 62
     7
370
    25
100
AcDbCircle
 10
181.4546096427
 20
173.0359024335
 30
0.0
 40
3.5
100
AcDbArc
 50
90.0
 51
270.0
  0
LINE
  5
EE
330
1F
100
AcDbEntity
  8
0
  6
Continuous
 62
     7
370
    25
100
AcDbLine
 10
189.4546096427
 20
169.5359024335
 30
0.0
 11
181.4546096427
 21
169.5359024335
 31
0.0
  0
ARC
  5
EF
330
1F
100
AcDbEntity
  8
0
  6
Continuous
 62
     7
370
    25
100
AcDbCircle
 10
189.4546096427
 20
173.0359024335
 30
0.0
 40
3.5
100
AcDbArc
 50
270.0
 51
90.0
  0
LINE
  5
F0
330
1F
100
AcDbEntity
  8
0
  6
Continuous
 62
     7
370
    25
100
AcDbLine
 10
181.4546096427
 20
176.5359024335
 30
0.0
 11
189.4546096427
 21
176.5359024335
 31
0.0
  0
ARC
  5
F1
330
1F
100
AcDbEntity
  8
0
  6
Continuous
 62
     7
370
    25
100
AcDbCircle
 10
181.4546096427
 20
298.0359024335
 30
0.0
 40
3.500000000000057
100
AcDbArc
 50
90.0
 51
270.0
  0
LINE
  5
F2
330
1F
100
AcDbEntity
  8
0
  6
Continuous
 62
     7
370
    25
100
AcDbLine
 10
189.4546096427
 20
294.5359024335
 30
0.0
 11
181.4546096427
 21
294.5359024335
 31
0.0
  0
ARC
  5
F3
330
1F
100
AcDbEntity
  8
0
  6
Continuous
 62
     7
370
    25
100
AcDbCircle
 10
189.4546096427
 20
298.0359024335
 30
0.0
 40
3.500000000000057
100
AcDbArc
 50
270.0
 51
90.0
  0
LINE
  5
F4
330
1F
100
AcDbEntity
  8
0
  6
Continuous
 62
     7
370
    25
100
AcDbLine
 10
181.4546096427
 20
301.5359024335
 30
0.0
 11
189.4546096427
 21
301.5359024335
 31
0.0
  0
LINE
  5
F5
330
1F
100
AcDbEntity
  8
0
  6
Continuous
 62
     7
370
    25
100
AcDbLine
 10
179.4546096427
 20
166.0359024335
 30
0.0
 11
192.4546096427
 21
166.0359024335
 31
0.0
  0
ARC
  5
F6
330
1F
100
AcDbEntity
  8
0
  6
Continuous
 62
     7
370
    25
100
AcDbCircle
 10
192.4546096427
 20
170.0359024335
 30
0.0
 40
4.000000000000028
100
AcDbArc
 50
270.0
 51
0.0
  0
LINE
  5
F7
330
1F
100
AcDbEntity
  8
0
  6
Continuous
 62
     7
370
    25
100
AcDbLine
 10
196.4546096427
 20
170.0359024335
 30
0.0
 11
196.4546096427
 21
301.0359024335
 31
0.0
  0
LINE
  5
F8
330
1F
100
AcDbEntity
  8
0
  6
Continuous
 62
     7
370
    25
100
AcDbLine
 10
164.4546096427
 20
148.2359024335
 30
0.0
 11
164.4546096427
 21
322.8359024335
 31
0.0
  0
SPLINE
  5
F9
330
1F
100
AcDbEntity
  8
0
  6
Continuous
 62
     7
370
    25
100
AcDbSpline
210
0.0
220
0.0
230
1.0
 70
     8
 71
     3
 72
    14
 73
    10
 74
     0
 42
0.000000001
 43
0.00000001
 40
0.0
 40
0.0
 40
0.0
 40
0.0
 40
0.25
 40
0.25
 40
0.5
 40
0.5
 40
0.75
 40
0.75
 40
1.0
 40
1.0
 40
1.0
 40
1.0
 10
164.4546096426543
 20
322.8359024335389
 30
0.0
 10
164.4546096426543
 20
322.8603102017734
 30
0.0
 10
164.511869753984
 20
322.8847179700078
 30
0.0
 10
164.7322795882749
 20
322.9335335064767
 30
0.0
 10
164.8953425893783
 20
322.9579412747111
 30
0.0
 10
165.3026068587095
 20
323.00675681118
 30
0.0
 10
165.5466478858383
 20
323.0311645794145
 30
0.0
 10
166.0787642970639
 20
323.0799801158834
 30
0.0
 10
166.3666303160752
 20
323.1043878841179
 30
0.0
 10
166.6546096426543
 20
323.1287956523523
 30
0.0
  0
SPLINE
  5
FA
330
1F
100
AcDbEntity
  8
0
  6
Continuous
 62
     7
370
    25
100
AcDbSpline
210
0.0
220
0.0
230
1.0
 70
     8
 71
     3
 72
    14
 73
    10
 74
     0
 42
0.000000001
 43
0.00000001
 40
0.0
 40
0.0
 40
0.0
 40
0.0
 40
0.25
 40
0.25
 40
0.5
 40
0.5
 40
0.75
 40
0.75
 40
1.0
 40
1.0
 40
1.0
 40
1.0
 10
166.6546096426543
 20
147.9430092147254
 30
0.0
 10
166.3666303160752
 20
147.9674169829599
 30
0.0
 10
166.0787642970639
 20
147.9918247511943
 30
0.0
 10
165.5466478858383
 20
148.0406402876632
 30
0.0
 10
165.3026068587095
 20
148.0650480558977
 30
0.0
 10
164.8953425893783
 20
148.1138635923666
 30
0.0
 10
164.7322795882749
 20
148.138271360601
 30
0.0
 10
164.511869753984
 20
148.1870868970699
 30
0.0
 10
164.4546096426543
 20
148.2114946653044
 30
0.0
 10
164.4546096426543
 20
148.2359024335389
 30
0.0
  0
LINE
  5
FB
330
1F
100
AcDbEntity
  8
0
  6
Continuous
 62
     7
370
    25
100
AcDbLine
 10
166.6546096427
 20
323.8359024335
 30
0.0
 11
166.6546096427
 21
325.0359024335
 31
0.0
  0
LINE
  5
FC
330
1F
100
AcDbEntity
  8
0
  6
Continuous
 62
     7
370
    25
100
AcDbLine
 10
166.6546096427
 20
325.0359024335
 30
0.0
 11
179.4546096427
 21
325.0359024335
 31
0.0
  0
LINE
  5
FD
330
1F
100
AcDbEntity
  8
0
  6
Continuous
 62
     7
370
    25
100
AcDbLine
 10
179.4546096427
 20
323.8359024335
 30
0.0
 11
179.4546096427
 21
325.0359024335
 31
0.0
  0
LINE
  5
FE
330
1F
100
AcDbEntity
  8
0
  6
Continuous
 62
     7
370
    25
100
AcDbLine
 10
166.6546096427
 20
323.8359024335
 30
0.0
 11
179.4546096427
 21
323.8359024335
 31
0.0
  0
LINE
  5
FF
330
1F
100
AcDbEntity
  8
0
  6
Continuous
 62
     7
370
    25
100
AcDbLine
 10
166.6546096427
 20
147.2359024335
 30
0.0
 11
166.6546096427
 21
146.0359024335
 31
0.0
  0
LINE
  5
100
330
1F
100
AcDbEntity
  8
0
  6
Continuous
 62
     7
370
    25
100
AcDbLine
 10
179.4546096427
 20
147.2359024335
 30
0.0
 11
166.6546096427
 21
147.2359024335
 31
0.0
  0
LINE
  5
101
330
1F
100
AcDbEntity
  8
0
  6
Continuous
 62
     7
370
    25
100
AcDbLine
 10
179.4546096427
 20
146.0359024335
 30
0.0
 11
179.4546096427
 21
147.2359024335
 31
0.0
  0
LINE
  5
102
330
1F
100
AcDbEntity
  8
0
  6
Continuous
 62
     7
370
    25
100
AcDbLine
 10
179.4546096427
 20
146.0359024335
 30
0.0
 11
166.6546096427
 21
146.0359024335
 31
0.0
  0
SPLINE
  5
103
330
1F
100
AcDbEntity
  8
0
  6
Continuous
 62
     7
370
    25
100
AcDbSpline
210
0.0
220
0.0
230
1.0
 70
     8
 71
     3
 72
    11
 73
     7
 74
     0
 42
0.000000001
 43
0.00000001
 40
0.0
 40
0.0
 40
0.0
 40
0.0
 40
0.2892444547946044
 40
0.5784889095892101
 40
0.8677333643838137
 40
1.0
 40
1.0
 40
1.0
 40
1.0
 10
166.6546096426543
 20
323.8359024335389
 30
0.0
 10
166.5232899732687
 20
323.8209658507056
 30
0.0
 10
166.2606506344975
 20
323.7910926850392
 30
0.0
 10
165.9343450810909
 20
323.5584186226049
 30
0.0
 10
165.7317348133073
 20
323.2921060406783
 30
0.0
 10
165.7044753028303
 20
323.1029475100196
 30
0.0
 10
165.6959214976722
 20
323.0435911537636
 30
0.0
  0
SPLINE
  5
104
330
1F
100
AcDbEntity
  8
0
  6
Continuous
 62
     7
370
    25
100
AcDbSpline
210
0.0
220
0.0
230
1.0
 70
     8
 71
     3
 72
    14
 73
    10
 74
     0
 42
0.000000001
 43
0.00000001
 40
0.0
 40
0.0
 40
0.0
 40
0.0
 40
0.25
 40
0.25
 40
0.5
 40
0.5
 40
0.75
 40
0.75
 40
1.0
 40
1.0
 40
1.0
 40
1.0
 10
166.6546096426543
 20
325.0359024335389
 30
0.0
 10
166.3666303160752
 20
325.0359024335389
 30
0.0
 10
166.0787642970638
 20
324.9786423222092
 30
0.0
 10
165.5466478858383
 20
324.7582324879182
 30
0.0
 10
165.3026068587095
 20
324.5951694868148
 30
0.0
 10
164.8953425893783
 20
324.1879052174837
 30
0.0
 10
164.7322795882749
 20
323.9438641903548
 30
0.0
 10
164.511869753984
 20
323.4117477791293
 30
0.0
 10
164.4546096426543
 20
323.1238817601179
 30
0.0
 10
164.4546096426543
 20
322.8359024335389
 30
0.0
  0
SPLINE
  5
105
330
1F
100
AcDbEntity
  8
0
  6
Continuous
 62
     7
370
    25
100
AcDbSpline
210
0.0
220
0.0
230
1.0
 70
     8
 71
     3
 72
    11
 73
     7
 74
     0
 42
0.000000001
 43
0.00000001
 40
0.0
 40
0.0
 40
0.0
 40
0.0
 40
0.1322666356162085
 40
0.4215110904108046
 40
0.7107555452053992
 40
1.0
 40
1.0
 40
1.0
 40
1.0
 10
165.6959214976722
 20
148.0282137133142
 30
0.0
 10
165.7044753028303
 20
147.9688573570581
 30
0.0
 10
165.7317348133073
 20
147.7796988263994
 30
0.0
 10
165.9343450810909
 20
147.5133862444728
 30
0.0
 10
166.2606506344975
 20
147.2807121820385
 30
0.0
 10
166.5232899732687
 20
147.2508390163721
 30
0.0
 10
166.6546096426543
 20
147.2359024335389
 30
0.0
  0
SPLINE
  5
106
330
1F
100
AcDbEntity
  8
0
  6
Continuous
 62
     7
370
    25
100
AcDbSpline
210
0.0
220
0.0
230
1.0
 70
     8
 71
     3
 72
    14
 73
    10
 74
     0
 42
0.000000001
 43
0.00000001
 40
0.0
 40
0.0
 40
0.0
 40
0.0
 40
0.25
 40
0.25
 40
0.5
 40
0.5
 40
0.75
 40
0.75
 40
1.0
 40
1.0
 40
1.0
 40
1.0
 10
164.4546096426543
 20
148.2359024335389
 30
0.0
 10
164.4546096426543
 20
147.9479231069598
 30
0.0
 10
164.511869753984
 20
147.6600570879484
 30
0.0
 10
164.7322795882749
 20
147.1279406767229
 30
0.0
 10
164.8953425893783
 20
146.8838996495941
 30
0.0
 10
165.3026068587095
 20
146.4766353802629
 30
0.0
 10
165.5466478858383
 20
146.3135723791595
 30
0.0
 10
166.0787642970638
 20
146.0931625448685
 30
0.0
 10
166.3666303160752
 20
146.0359024335389
 30
0.0
 10
166.6546096426543
 20
146.0359024335389
 30
0.0
  0
ENDSEC
  0
SECTION
  2
OBJECTS
  0
DICTIONARY
  5
C
330
0
100
AcDbDictionary
281
     1
  3
ACAD_GROUP
350
D
  3
ACAD_LAYOUT
350
1A
  3
ACAD_MLINESTYLE
350
17
  3
ACAD_PLOTSETTINGS
350
19
  3
ACAD_PLOTSTYLENAME
350
E
  3
ACAD_SCALELIST
350
47
  0
DICTIONARY
  5
D
102
{ACAD_REACTORS
330
C
102
}
330
C
100
AcDbDictionary
281
     1
  0
DICTIONARY
  5
1A
102
{ACAD_REACTORS
330
C
102
}
330
C
100
AcDbDictionary
281
     1
  3
Layout1
350
1E
  3
Layout2
350
26
  3
Model
350
22
  0
DICTIONARY
  5
17
102
{ACAD_REACTORS
330
C
102
}
330
C
100
AcDbDictionary
281
     1
  3
Standard
350
18
  0
DICTIONARY
  5
19
102
{ACAD_REACTORS
330
C
102
}
330
C
100
AcDbDictionary
281
     1
  0
ACDBDICTIONARYWDFLT
  5
E
102
{ACAD_REACTORS
330
C
102
}
330
C
100
AcDbDictionary
281
     1
  3
Normal
350
F
100
AcDbDictionaryWithDefault
340
F
  0
DICTIONARY
  5
47
102
{ACAD_REACTORS
330
C
102
}
330
C
100
AcDbDictionary
281
     1
  3
A0
350
48
  3
A1
350
49
  3
A2
350
4A
  3
A3
350
4B
  3
A4
350
4C
  3
A5
350
4D
  3
A6
350
4E
  3
A7
350
4F
  3
A8
350
50
  3
A9
350
51
  3
B0
350
52
  3
B1
350
53
  3
B2
350
54
  3
B3
350
55
  3
B4
350
56
  3
B5
350
57
  3
B6
350
58
  3
B7
350
59
  3
B8
350
5A
  3
B9
350
5B
  3
C0
350
5C
  3
C1
350
5D
  3
C2
350
5E
  3
C3
350
5F
  3
C4
350
60
  3
C5
350
61
  3
C6
350
62
  3
C7
350
63
  3
C8
350
64
  3
C9
350
65
  3
D0
350
66
  3
D1
350
67
  3
D2
350
68
  0
LAYOUT
  5
1E
102
{ACAD_REACTORS
330
1A
102
}
330
1A
100
AcDbPlotSettings
  1

  2
none_device
  4

  6

 40
0.0
 41
0.0
 42
0.0
 43
0.0
 44
0.0
 45
0.0
 46
0.0
 47
0.0
 48
0.0
 49
0.0
140
0.0
141
0.0
142
1.0
143
1.0
 70
   688
 72
     1
 73
     0
 74
     5
  7

 75
    16
147
1.0
148
0.0
149
0.0
100
AcDbLayout
  1
Layout1
 70
     1
 71
     1
 10
0.0
 20
0.0
 11
420.0
 21
297.0
 12
0.0
 22
0.0
 32
0.0
 14
1.0000000000E+20
 24
1.0000000000E+20
 34
1.0000000000E+20
 15
-1.0000000000E+20
 25
-1.0000000000E+20
 35
-1.0000000000E+20
146
0.0
 13
0.0
 23
0.0
 33
0.0
 16
1.0
 26
0.0
 36
0.0
 17
0.0
 27
1.0
 37
0.0
 76
     0
330
1B
  0
LAYOUT
  5
26
102
{ACAD_REACTORS
330
1A
102
}
330
1A
100
AcDbPlotSettings
  1

  2
none_device
  4

  6

 40
0.0
 41
0.0
 42
0.0
 43
0.0
 44
0.0
 45
0.0
 46
0.0
 47
0.0
 48
0.0
 49
0.0
140
0.0
141
0.0
142
1.0
143
1.0
 70
   688
 72
     1
 73
     0
 74
     5
  7

 75
    16
147
1.0
148
0.0
149
0.0
100
AcDbLayout
  1
Layout2
 70
     1
 71
     2
 10
0.0
 20
0.0
 11
0.0
 21
0.0
 12
0.0
 22
0.0
 32
0.0
 14
0.0
 24
0.0
 34
0.0
 15
0.0
 25
0.0
 35
0.0
146
0.0
 13
0.0
 23
0.0
 33
0.0
 16
1.0
 26
0.0
 36
0.0
 17
0.0
 27
1.0
 37
0.0
 76
     0
330
23
  0
LAYOUT
  5
22
102
{ACAD_REACTORS
330
1A
102
}
330
1A
100
AcDbPlotSettings
  1

  2
none_device
  4
Letter_(8.50_x_11.00_Inches)
  6

 40
6.35
 41
6.35
 42
6.35000508
 43
6.35000508
 44
215.9
 45
279.4
 46
0.0
 47
0.0
 48
0.0
 49
0.0
140
0.0
141
0.0
142
1.0
143
1.0
 70
  1712
 72
     1
 73
     0
 74
     0
  7

 75
     0
147
1.0
148
0.0
149
0.0
100
AcDbLayout
  1
Model
 70
     1
 71
     0
 10
0.0
 20
0.0
 11
841.0
 21
594.0
 12
0.0
 22
0.0
 32
0.0
 14
0.0
 24
0.0
 34
0.0
 15
841.0
 25
594.0
 35
0.0
146
0.0
 13
0.0
 23
0.0
 33
0.0
 16
1.0
 26
0.0
 36
0.0
 17
0.0
 27
1.0
 37
0.0
 76
     0
330
1F
331
29
  0
MLINESTYLE
  5
18
102
{ACAD_REACTORS
330
17
102
}
330
17
100
AcDbMlineStyle
  2
Standard
 70
     0
  3

 62
   256
 51
90.0
 52
90.0
 71
     2
 49
0.5
 62
   256
  6
BYLAYER
 49
-0.5
 62
   256
  6
BYLAYER
  0
ACDBPLACEHOLDER
  5
F
102
{ACAD_REACTORS
330
E
102
}
330
E
  0
SCALE
  5
48
102
{ACAD_REACTORS
330
47
102
}
330
47
100
AcDbScale
 70
     0
300
1:1
140
1.0
141
1.0
290
     1
  0
SCALE
  5
49
102
{ACAD_REACTORS
330
47
102
}
330
47
100
AcDbScale
 70
     0
300
1:2
140
1.0
141
2.0
290
     0
  0
SCALE
  5
4A
102
{ACAD_REACTORS
330
47
102
}
330
47
100
AcDbScale
 70
     0
300
1:4
140
1.0
141
4.0
290
     0
  0
SCALE
  5
4B
102
{ACAD_REACTORS
330
47
102
}
330
47
100
AcDbScale
 70
     0
300
1:5
140
1.0
141
5.0
290
     0
  0
SCALE
  5
4C
102
{ACAD_REACTORS
330
47
102
}
330
47
100
AcDbScale
 70
     0
300
1:8
140
1.0
141
8.0
290
     0
  0
SCALE
  5
4D
102
{ACAD_REACTORS
330
47
102
}
330
47
100
AcDbScale
 70
     0
300
1:10
140
1.0
141
10.0
290
     0
  0
SCALE
  5
4E
102
{ACAD_REACTORS
330
47
102
}
330
47
100
AcDbScale
 70
     0
300
1:16
140
1.0
141
16.0
290
     0
  0
SCALE
  5
4F
102
{ACAD_REACTORS
330
47
102
}
330
47
100
AcDbScale
 70
     0
300
1:20
140
1.0
141
20.0
290
     0
  0
SCALE
  5
50
102
{ACAD_REACTORS
330
47
102
}
330
47
100
AcDbScale
 70
     0
300
1:30
140
1.0
141
30.0
290
     0
  0
SCALE
  5
51
102
{ACAD_REACTORS
330
47
102
}
330
47
100
AcDbScale
 70
     0
300
1:40
140
1.0
141
40.0
290
     0
  0
SCALE
  5
52
102
{ACAD_REACTORS
330
47
102
}
330
47
100
AcDbScale
 70
     0
300
1:50
140
1.0
141
50.0
290
     0
  0
SCALE
  5
53
102
{ACAD_REACTORS
330
47
102
}
330
47
100
AcDbScale
 70
     0
300
1:100
140
1.0
141
100.0
290
     0
  0
SCALE
  5
54
102
{ACAD_REACTORS
330
47
102
}
330
47
100
AcDbScale
 70
     0
300
2:1
140
2.0
141
1.0
290
     0
  0
SCALE
  5
55
102
{ACAD_REACTORS
330
47
102
}
330
47
100
AcDbScale
 70
     0
300
4:1
140
4.0
141
1.0
290
     0
  0
SCALE
  5
56
102
{ACAD_REACTORS
330
47
102
}
330
47
100
AcDbScale
 70
     0
300
8:1
140
8.0
141
1.0
290
     0
  0
SCALE
  5
57
102
{ACAD_REACTORS
330
47
102
}
330
47
100
AcDbScale
 70
     0
300
10:1
140
10.0
141
1.0
290
     0
  0
SCALE
  5
58
102
{ACAD_REACTORS
330
47
102
}
330
47
100
AcDbScale
 70
     0
300
100:1
140
100.0
141
1.0
290
     0
  0
SCALE
  5
59
102
{ACAD_REACTORS
330
47
102
}
330
47
100
AcDbScale
 70
     0
300
1/128" = 1'-0"
140
0.0078125
141
12.0
290
     0
  0
SCALE
  5
5A
102
{ACAD_REACTORS
330
47
102
}
330
47
100
AcDbScale
 70
     0
300
1/64" = 1'-0"
140
0.015625
141
12.0
290
     0
  0
SCALE
  5
5B
102
{ACAD_REACTORS
330
47
102
}
330
47
100
AcDbScale
 70
     0
300
1/32" = 1'-0"
140
0.03125
141
12.0
290
     0
  0
SCALE
  5
5C
102
{ACAD_REACTORS
330
47
102
}
330
47
100
AcDbScale
 70
     0
300
1/16" = 1'-0"
140
0.0625
141
12.0
290
     0
  0
SCALE
  5
5D
102
{ACAD_REACTORS
330
47
102
}
330
47
100
AcDbScale
 70
     0
300
3/32" = 1'-0"
140
0.09375
141
12.0
290
     0
  0
SCALE
  5
5E
102
{ACAD_REACTORS
330
47
102
}
330
47
100
AcDbScale
 70
     0
300
1/8" = 1'-0"
140
0.125
141
12.0
290
     0
  0
SCALE
  5
5F
102
{ACAD_REACTORS
330
47
102
}
330
47
100
AcDbScale
 70
     0
300
3/16" = 1'-0"
140
0.1875
141
12.0
290
     0
  0
SCALE
  5
60
102
{ACAD_REACTORS
330
47
102
}
330
47
100
AcDbScale
 70
     0
300
1/4" = 1'-0"
140
0.25
141
12.0
290
     0
  0
SCALE
  5
61
102
{ACAD_REACTORS
330
47
102
}
330
47
100
AcDbScale
 70
     0
300
3/8" = 1'-0"
140
0.375
141
12.0
290
     0
  0
SCALE
  5
62
102
{ACAD_REACTORS
330
47
102
}
330
47
100
AcDbScale
 70
     0
300
1/2" = 1'-0"
140
0.5
141
12.0
290
     0
  0
SCALE
  5
63
102
{ACAD_REACTORS
330
47
102
}
330
47
100
AcDbScale
 70
     0
300
3/4" = 1'-0"
140
0.75
141
12.0
290
     0
  0
SCALE
  5
64
102
{ACAD_REACTORS
330
47
102
}
330
47
100
AcDbScale
 70
     0
300
1" = 1'-0"
140
1.0
141
12.0
290
     0
  0
SCALE
  5
65
102
{ACAD_REACTORS
330
47
102
}
330
47
100
AcDbScale
 70
     0
300
1-1/2" = 1'-0"
140
1.5
141
12.0
290
     0
  0
SCALE
  5
66
102
{ACAD_REACTORS
330
47
102
}
330
47
100
AcDbScale
 70
     0
300
3" = 1'-0"
140
3.0
141
12.0
290
     0
  0
SCALE
  5
67
102
{ACAD_REACTORS
330
47
102
}
330
47
100
AcDbScale
 70
     0
300
6" = 1'-0"
140
6.0
141
12.0
290
     0
  0
SCALE
  5
68
102
{ACAD_REACTORS
330
47
102
}
330
47
100
AcDbScale
 70
     0
300
1'-0" = 1'-0"
140
12.0
141
12.0
290
     0
  0
ENDSEC
  0
EOF
