  0
SECTION
  2
HEADER
  9
$ACADVER
  1
AC1015
  9
$ACADMAINTVER
 70
     6
  9
$DWGCODEPAGE
  3
ANSI_1251
  9
$INSBASE
 10
0.0
 20
0.0
 30
0.0
  9
$EXTMIN
 10
0.0
 20
0.0
 30
0.0
  9
$EXTMAX
 10
431.8
 20
279.4
 30
0.0
  9
$LIMMIN
 10
0.0
 20
0.0
  9
$LIMMAX
 10
431.8
 20
279.4
  9
$ORTHOMODE
 70
     0
  9
$REGENMODE
 70
     1
  9
$FILLMODE
 70
     1
  9
$QTEXTMODE
 70
     0
  9
$MIRRTEXT
 70
     1
  9
$LTSCALE
 40
1.0
  9
$ATTMODE
 70
     1
  9
$TEXTSIZE
 40
3.5
  9
$TRACEWID
 40
1.0
  9
$TEXTSTYLE
  7
STANDARD
  9
$CLAYER
  8
0
  9
$CELTYPE
  6
ByLayer
  9
$CECOLOR
 62
   256
  9
$CELTSCALE
 40
1.0
  9
$DISPSILH
 70
     0
  9
$DIMSCALE
 40
1.0
  9
$DIMASZ
 40
5.0
  9
$DIMEXO
 40
0.0
  9
$DIMDLI
 40
3.75
  9
$DIMRND
 40
0.0
  9
$DIMDLE
 40
0.0
  9
$DIMEXE
 40
1.0
  9
$DIMTP
 40
0.0
  9
$DIMTM
 40
0.0
  9
$DIMTXT
 40
3.5
  9
$DIMCEN
 40
2.5
  9
$DIMTSZ
 40
0.0
  9
$DIMTOL
 70
     0
  9
$DIMLIM
 70
     0
  9
$DIMTIH
 70
     1
  9
$DIMTOH
 70
     1
  9
$DIMSE1
 70
     0
  9
$DIMSE2
 70
     0
  9
$DIMTAD
 70
     1
  9
$DIMZIN
 70
     0
  9
$DIMBLK
  1

  9
$DIMASO
 70
     1
  9
$DIMSHO
 70
     1
  9
$DIMPOST
  1

  9
$DIMAPOST
  1

  9
$DIMALT
 70
     0
  9
$DIMALTD
 70
     3
  9
$DIMALTF
 40
0.0393700787
  9
$DIMLFAC
 40
1.0
  9
$DIMTOFL
 70
     1
  9
$DIMTVP
 40
0.0
  9
$DIMTIX
 70
     0
  9
$DIMSOXD
 70
     0
  9
$DIMSAH
 70
     0
  9
$DIMBLK1
  1

  9
$DIMBLK2
  1

  9
$DIMSTYLE
  2
ISO-25
  9
$DIMCLRD
 70
     0
  9
$DIMCLRE
 70
     0
  9
$DIMCLRT
 70
     0
  9
$DIMTFAC
 40
1.0
  9
$DIMGAP
 40
1.5
  9
$DIMJUST
 70
     0
  9
$DIMSD1
 70
     0
  9
$DIMSD2
 70
     0
  9
$DIMTOLJ
 70
     0
  9
$DIMTZIN
 70
     0
  9
$DIMALTZ
 70
     0
  9
$DIMALTTZ
 70
     0
  9
$DIMUPT
 70
     0
  9
$DIMDEC
 70
     1
  9
$DIMTDEC
 70
     3
  9
$DIMALTU
 70
     2
  9
$DIMALTTD
 70
     3
  9
$DIMTXSTY
  7
STANDARD
  9
$DIMAUNIT
 70
     0
  9
$DIMADEC
 70
     2
  9
$DIMALTRND
 40
0.0
  9
$DIMAZIN
 70
     0
  9
$DIMDSEP
 70
    44
  9
$DIMATFIT
 70
     3
  9
$DIMFRAC
 70
     0
  9
$DIMLDRBLK
  1

  9
$DIMLUNIT
 70
     2
  9
$DIMLWD
 70
    -2
  9
$DIMLWE
 70
    -2
  9
$DIMTMOVE
 70
     0
  9
$LUNITS
 70
     2
  9
$LUPREC
 70
     1
  9
$SKETCHINC
 40
1.0
  9
$FILLETRAD
 40
0.0
  9
$AUNITS
 70
     0
  9
$AUPREC
 70
     2
  9
$MENU
  1
.
  9
$ELEVATION
 40
0.0
  9
$PELEVATION
 40
0.0
  9
$THICKNESS
 40
0.0
  9
$LIMCHECK
 70
     0
  9
$CHAMFERA
 40
0.0
  9
$CHAMFERB
 40
0.0
  9
$CHAMFERC
 40
0.0
  9
$CHAMFERD
 40
0.0
  9
$SKPOLY
 70
     0
  9
$TDCREATE
 40
2460921.649797685
  9
$TDUCREATE
 40
2460921.524797685
  9
$TDUPDATE
 40
2460921.649798414
  9
$TDUUPDATE
 40
2460921.524798414
  9
$TDINDWG
 40
0.0000000116
  9
$TDUSRTIMER
 40
0.0000000116
  9
$USRTIMER
 70
     1
  9
$ANGBASE
 50
0.0
  9
$ANGDIR
 70
     0
  9
$PDMODE
 70
     0
  9
$PDSIZE
 40
-1.0
  9
$PLINEWID
 40
0.0
  9
$SPLFRAME
 70
     0
  9
$SPLINETYPE
 70
     6
  9
$SPLINESEGS
 70
     8
  9
$HANDSEED
  5
342
  9
$SURFTAB1
 70
     6
  9
$SURFTAB2
 70
     6
  9
$SURFTYPE
 70
     6
  9
$SURFU
 70
     6
  9
$SURFV
 70
     6
  9
$UCSBASE
  2

  9
$UCSNAME
  2

  9
$UCSORG
 10
0.0
 20
0.0
 30
0.0
  9
$UCSXDIR
 10
1.0
 20
0.0
 30
0.0
  9
$UCSYDIR
 10
0.0
 20
1.0
 30
0.0
  9
$UCSORTHOREF
  2

  9
$UCSORTHOVIEW
 70
     0
  9
$UCSORGTOP
 10
0.0
 20
0.0
 30
0.0
  9
$UCSORGBOTTOM
 10
0.0
 20
0.0
 30
0.0
  9
$UCSORGLEFT
 10
0.0
 20
0.0
 30
0.0
  9
$UCSORGRIGHT
 10
0.0
 20
0.0
 30
0.0
  9
$UCSORGFRONT
 10
0.0
 20
0.0
 30
0.0
  9
$UCSORGBACK
 10
0.0
 20
0.0
 30
0.0
  9
$PUCSBASE
  2

  9
$PUCSNAME
  2

  9
$PUCSORG
 10
0.0
 20
0.0
 30
0.0
  9
$PUCSXDIR
 10
1.0
 20
0.0
 30
0.0
  9
$PUCSYDIR
 10
0.0
 20
1.0
 30
0.0
  9
$PUCSORTHOREF
  2

  9
$PUCSORTHOVIEW
 70
     0
  9
$PUCSORGTOP
 10
0.0
 20
0.0
 30
0.0
  9
$PUCSORGBOTTOM
 10
0.0
 20
0.0
 30
0.0
  9
$PUCSORGLEFT
 10
0.0
 20
0.0
 30
0.0
  9
$PUCSORGRIGHT
 10
0.0
 20
0.0
 30
0.0
  9
$PUCSORGFRONT
 10
0.0
 20
0.0
 30
0.0
  9
$PUCSORGBACK
 10
0.0
 20
0.0
 30
0.0
  9
$USERI1
 70
     0
  9
$USERI2
 70
     0
  9
$USERI3
 70
     0
  9
$USERI4
 70
     0
  9
$USERI5
 70
     0
  9
$USERR1
 40
0.0
  9
$USERR2
 40
0.0
  9
$USERR3
 40
0.0
  9
$USERR4
 40
0.0
  9
$USERR5
 40
0.0
  9
$WORLDVIEW
 70
     1
  9
$SHADEDGE
 70
     3
  9
$SHADEDIF
 70
    70
  9
$TILEMODE
 70
     1
  9
$MAXACTVP
 70
    64
  9
$PINSBASE
 10
0.0
 20
0.0
 30
0.0
  9
$PLIMCHECK
 70
     0
  9
$PEXTMIN
 10
1.0000000000E+20
 20
1.0000000000E+20
 30
1.0000000000E+20
  9
$PEXTMAX
 10
-1.0000000000E+20
 20
-1.0000000000E+20
 30
-1.0000000000E+20
  9
$PLIMMIN
 10
0.0
 20
0.0
  9
$PLIMMAX
 10
420.0
 20
297.0
  9
$UNITMODE
 70
     0
  9
$VISRETAIN
 70
     1
  9
$PLINEGEN
 70
     0
  9
$PSLTSCALE
 70
     1
  9
$TREEDEPTH
 70
  3020
  9
$CMLSTYLE
  2
Standard
  9
$CMLJUST
 70
     0
  9
$CMLSCALE
 40
20.0
  9
$PROXYGRAPHICS
 70
     1
  9
$MEASUREMENT
 70
     1
  9
$CELWEIGHT
370
    -1
  9
$ENDCAPS
280
     0
  9
$JOINSTYLE
280
     0
  9
$LWDISPLAY
290
     1
  9
$INSUNITS
 70
     4
  9
$HYPERLINKBASE
  1

  9
$STYLESHEET
  1

  9
$XEDIT
290
     1
  9
$CEPSNTYPE
380
     0
  9
$PSTYLEMODE
290
     1
  9
$FINGERPRINTGUID
  2
{dd626b0d-ca38-4a5f-a24b-ae288bcff4d5}
  9
$VERSIONGUID
  2
{FAEB1C32-E019-11D5-929B-00C0DF256EC4}
  9
$EXTNAMES
290
     1
  9
$PSVPSCALE
 40
0.0
  9
$OLESTARTUP
290
     0
  0
ENDSEC
  0
SECTION
  2
CLASSES
  0
CLASS
  1
ACDBDICTIONARYWDFLT
  2
AcDbDictionaryWithDefault
  3
ObjectDBX Classes
 90
        0
280
     0
281
     0
  0
CLASS
  1
VISUALSTYLE
  2
AcDbVisualStyle
  3
ObjectDBX Classes
 90
     4095
280
     0
281
     0
  0
CLASS
  1
MATERIAL
  2
AcDbMaterial
  3
ObjectDBX Classes
 90
     1153
280
     0
281
     0
  0
CLASS
  1
SCALE
  2
AcDbScale
  3
ObjectDBX Classes
 90
     1153
280
     0
281
     0
  0
CLASS
  1
TABLESTYLE
  2
AcDbTableStyle
  3
ObjectDBX Classes
 90
     4095
280
     0
281
     0
  0
CLASS
  1
MLEADERSTYLE
  2
AcDbMLeaderStyle
  3
ACDB_MLEADERSTYLE_CLASS
 90
     4095
280
     0
281
     0
  0
CLASS
  1
SUN
  2
AcDbSun
  3
SCENEOE
 90
     1153
280
     0
281
     0
  0
CLASS
  1
ACDBPLACEHOLDER
  2
AcDbPlaceHolder
  3
ObjectDBX Classes
 90
        0
280
     0
281
     0
  0
CLASS
  1
LAYOUT
  2
AcDbLayout
  3
ObjectDBX Classes
 90
        0
280
     0
281
     0
  0
ENDSEC
  0
SECTION
  2
TABLES
  0
TABLE
  2
VPORT
  5
8
330
0
100
AcDbSymbolTable
 70
     1
  0
VPORT
  5
29
330
8
100
AcDbSymbolTableRecord
100
AcDbViewportTableRecord
  2
*Active
 70
     0
 10
0.0
 20
0.0
 11
1.0
 21
1.0
 12
215.9
 22
139.7
 13
0.0
 23
0.0
 14
10.0
 24
10.0
 15
10.0
 25
10.0
 16
0.0
 26
0.0
 36
1.0
 17
0.0
 27
0.0
 37
0.0
 40
279.4
 41
1.5454545455
 42
50.0
 43
0.0
 44
0.0
 50
0.0
 51
0.0
 71
     0
 72
  2000
 73
     1
 74
     3
 75
     0
 76
     0
 77
     0
 78
     0
281
     0
 65
     1
110
0.0
120
0.0
130
0.0
111
1.0
121
0.0
131
0.0
112
0.0
122
1.0
132
0.0
 79
     0
146
0.0
  0
ENDTAB
  0
TABLE
  2
LTYPE
  5
5
330
0
100
AcDbSymbolTable
 70
     8
  0
LTYPE
  5
14
330
5
100
AcDbSymbolTableRecord
100
AcDbLinetypeTableRecord
  2
ByBlock
 70
     0
  3

 72
    65
 73
     0
 40
0.0
  0
LTYPE
  5
15
330
5
100
AcDbSymbolTableRecord
100
AcDbLinetypeTableRecord
  2
ByLayer
 70
     0
  3

 72
    65
 73
     0
 40
0.0
  0
LTYPE
  5
16
330
5
100
AcDbSymbolTableRecord
100
AcDbLinetypeTableRecord
  2
Continuous
 70
     0
  3
Solid line
 72
    65
 73
     0
 40
0.0
  0
LTYPE
  5
5E
330
5
100
AcDbSymbolTableRecord
100
AcDbLinetypeTableRecord
  2
SLD-Сплошная
 70
     0
  3
SolidWorks Line Style
 72
    65
 73
     0
 40
0.0
  0
LTYPE
  5
5F
330
5
100
AcDbSymbolTableRecord
100
AcDbLinetypeTableRecord
  2
SLD-Штриховая
 70
     0
  3
SolidWorks Line Style
 72
    65
 73
     2
 40
1.905
 49
1.27
 74
     0
 49
-0.635
 74
     0
  0
LTYPE
  5
60
330
5
100
AcDbSymbolTableRecord
100
AcDbLinetypeTableRecord
  2
SLD-Штрихпункт.-с-двумя-точками
 70
     0
  3
SolidWorks Line Style
 72
    65
 73
     6
 40
12.7
 49
6.35
 74
     0
 49
-1.27
 74
     0
 49
1.27
 74
     0
 49
-1.27
 74
     0
 49
1.27
 74
     0
 49
-1.27
 74
     0
  0
LTYPE
  5
61
330
5
100
AcDbSymbolTableRecord
100
AcDbLinetypeTableRecord
  2
SLD-Штрихпункт.-утолщ.
 70
     0
  3
SolidWorks Line Style
 72
    65
 73
     4
 40
10.16
 49
6.35
 74
     0
 49
-1.27
 74
     0
 49
1.27
 74
     0
 49
-1.27
 74
     0
  0
LTYPE
  5
62
330
5
100
AcDbSymbolTableRecord
100
AcDbLinetypeTableRecord
  2
SLD-Осевая
 70
     0
  3
SolidWorks Line Style
 72
    65
 73
     4
 40
19.05
 49
15.24
 74
     0
 49
-1.27
 74
     0
 49
1.27
 74
     0
 49
-1.27
 74
     0
  0
LTYPE
  5
63
330
5
100
AcDbSymbolTableRecord
100
AcDbLinetypeTableRecord
  2
SLD-Сшитая
 70
     0
  3
SolidWorks Line Style
 72
    65
 73
     2
 40
0.635
 49
0.0
 74
     0
 49
-0.635
 74
     0
  0
LTYPE
  5
64
330
5
100
AcDbSymbolTableRecord
100
AcDbLinetypeTableRecord
  2
SLD-Тонкая-Толстая
 70
     0
  3
SolidWorks Line Style
 72
    65
 73
     2
 40
5.080508
 49
0.000508
 74
     0
 49
-5.08
 74
     0
  0
ENDTAB
  0
TABLE
  2
LAYER
  5
2
330
0
100
AcDbSymbolTable
 70
     3
  0
LAYER
  5
10
330
2
100
AcDbSymbolTableRecord
100
AcDbLayerTableRecord
  2
0
 70
     0
 62
     7
  6
Continuous
370
    -3
390
F
  0
LAYER
  5
65
330
2
100
AcDbSymbolTableRecord
100
AcDbLayerTableRecord
  2
ВОДЯНОЙ_ЗНАК
 70
     0
 62
    11
  6
SLD-Сплошная
370
    -3
390
F
  0
LAYER
  5
66
330
2
100
AcDbSymbolTableRecord
100
AcDbLayerTableRecord
  2
ОСНОВНОЙ
 70
     0
 62
     7
  6
SLD-Сплошная
370
    -3
390
F
  0
ENDTAB
  0
TABLE
  2
STYLE
  5
3
330
0
100
AcDbSymbolTable
 70
     1
  0
STYLE
  5
11
330
3
100
AcDbSymbolTableRecord
100
AcDbTextStyleTableRecord
  2
STANDARD
 70
     0
 40
0.0
 41
1.0
 50
0.0
 71
     0
 42
3.5
  3
GOST-TYPE-A.TTF
  4

1001
ACAD
1000
GOST TYPE A
1071
 16777250
  0
ENDTAB
  0
TABLE
  2
VIEW
  5
6
330
0
100
AcDbSymbolTable
 70
     0
  0
ENDTAB
  0
TABLE
  2
UCS
  5
7
330
0
100
AcDbSymbolTable
 70
     0
  0
ENDTAB
  0
TABLE
  2
APPID
  5
9
330
0
100
AcDbSymbolTable
 70
     1
  0
APPID
  5
12
330
9
100
AcDbSymbolTableRecord
100
AcDbRegAppTableRecord
  2
ACAD
 70
     0
  0
ENDTAB
  0
TABLE
  2
DIMSTYLE
  5
A
330
0
100
AcDbSymbolTable
 70
     1
100
AcDbDimStyleTable
  0
DIMSTYLE
105
27
330
A
100
AcDbSymbolTableRecord
100
AcDbDimStyleTableRecord
  2
ISO-25
 70
     0
 41
2.5
 42
0.625
 43
3.75
 44
1.25
 73
     0
 74
     0
 77
     1
 78
     8
140
2.5
141
2.5
143
0.0393700787
147
0.625
171
     3
172
     1
178
     0
271
     2
272
     2
274
     3
278
    44
283
     0
284
     8
340
11
  0
ENDTAB
  0
TABLE
  2
BLOCK_RECORD
  5
1
330
0
100
AcDbSymbolTable
 70
     1
  0
BLOCK_RECORD
  5
1F
330
1
100
AcDbSymbolTableRecord
100
AcDbBlockTableRecord
  2
*Model_Space
340
22
  0
BLOCK_RECORD
  5
1B
330
1
100
AcDbSymbolTableRecord
100
AcDbBlockTableRecord
  2
*Paper_Space
340
1E
  0
BLOCK_RECORD
  5
23
330
1
100
AcDbSymbolTableRecord
100
AcDbBlockTableRecord
  2
*Paper_Space0
340
26
  0
ENDTAB
  0
ENDSEC
  0
SECTION
  2
BLOCKS
  0
BLOCK
  5
20
330
1F
100
AcDbEntity
  8
0
100
AcDbBlockBegin
  2
*Model_Space
 70
     0
 10
0.0
 20
0.0
 30
0.0
  3
*Model_Space
  1

  0
ENDBLK
  5
21
330
1F
100
AcDbEntity
  8
0
100
AcDbBlockEnd
  0
BLOCK
  5
1C
330
1B
100
AcDbEntity
 67
     1
  8
0
100
AcDbBlockBegin
  2
*Paper_Space
 70
     0
 10
0.0
 20
0.0
 30
0.0
  3
*Paper_Space
  1

  0
ENDBLK
  5
1D
330
1B
100
AcDbEntity
 67
     1
  8
0
100
AcDbBlockEnd
  0
BLOCK
  5
24
330
23
100
AcDbEntity
  8
0
100
AcDbBlockBegin
  2
*Paper_Space0
 70
     0
 10
0.0
 20
0.0
 30
0.0
  3
*Paper_Space0
  1

  0
ENDBLK
  5
25
330
23
100
AcDbEntity
  8
0
100
AcDbBlockEnd
  0
ENDSEC
  0
SECTION
  2
ENTITIES
  0
LINE
  5
67
330
1F
100
AcDbEntity
  8
0
  6
SLD-Сплошная
 62
     7
370
    25
100
AcDbLine
 10
147.7707705667
 20
180.4813818159
 30
0.0
 11
133.9707705667
 21
180.4813818159
 31
0.0
  0
LINE
  5
68
330
1F
100
AcDbEntity
  8
0
  6
SLD-Сплошная
 62
     7
370
    25
100
AcDbLine
 10
186.5707705667
 20
180.4813818159
 30
0.0
 11
179.7042656216
 21
180.4813818159
 31
0.0
  0
ARC
  5
69
330
1F
100
AcDbEntity
  8
0
  6
SLD-Сплошная
 62
     7
370
    25
100
AcDbCircle
 10
211.5707705667
 20
347.3434458721
 30
0.0
 40
232.5620640561955
100
AcDbArc
 50
277.1282710363
 51
283.4847453907
  0
ARC
  5
6A
330
1F
100
AcDbEntity
  8
0
  6
SLD-Сплошная
 62
     7
370
    25
100
AcDbCircle
 10
211.5707705667
 20
347.3434458721
 30
0.0
 40
232.5620640561955
100
AcDbArc
 50
270.2189175794
 51
275.5370061106
  0
ARC
  5
6B
330
1F
100
AcDbEntity
  8
0
  6
SLD-Сплошная
 62
     7
370
    25
100
AcDbCircle
 10
211.5707705667
 20
-56.9806822403
 30
0.0
 40
232.5620640561955
100
AcDbArc
 50
75.0488359449
 51
90.0
  0
LINE
  5
6C
330
1F
100
AcDbEntity
  8
0
  6
SLD-Сплошная
 62
     7
370
    25
100
AcDbLine
 10
211.5707705667
 20
175.5813818159
 30
0.0
 11
186.5707705667
 21
175.5813818159
 31
0.0
  0
LINE
  5
6D
330
1F
100
AcDbEntity
  8
0
  6
SLD-Сплошная
 62
     7
370
    25
100
AcDbLine
 10
186.5707705667
 20
114.7813818159
 30
0.0
 11
206.0243791914
 21
114.7813818159
 31
0.0
  0
LINE
  5
6E
330
1F
100
AcDbEntity
  8
0
  6
SLD-Сплошная
 62
     7
370
    25
100
AcDbLine
 10
283.0707705667
 20
175.1289256979
 30
0.0
 11
281.0707705667
 21
175.1289256979
 31
0.0
  0
LINE
  5
6F
330
1F
100
AcDbEntity
  8
0
  6
SLD-Сплошная
 62
     7
370
    25
100
AcDbLine
 10
281.0707705667
 20
115.2338379341
 30
0.0
 11
283.0707705667
 21
115.2338379341
 31
0.0
  0
LINE
  5
70
330
1F
100
AcDbEntity
  8
0
  6
SLD-Сплошная
 62
     7
370
    25
100
AcDbLine
 10
271.5707705667
 20
128.381381816
 30
0.0
 11
281.0707705667
 21
128.381381816
 31
0.0
  0
LINE
  5
71
330
1F
100
AcDbEntity
  8
0
  6
SLD-Сплошная
 62
     7
370
    25
100
AcDbLine
 10
281.0707705667
 20
161.981381816
 30
0.0
 11
271.5707705667
 21
161.981381816
 31
0.0
  0
LINE
  5
72
330
1F
100
AcDbEntity
  8
0
  6
SLD-Сплошная
 62
     7
370
    25
100
AcDbLine
 10
133.9707705667
 20
103.2813818159
 30
0.0
 11
186.5707705667
 21
103.2813818159
 31
0.0
  0
LINE
  5
73
330
1F
100
AcDbEntity
  8
0
  6
SLD-Сплошная
 62
     7
370
    25
100
AcDbLine
 10
312.8503500936
 20
161.429694657
 30
0.0
 11
312.813936375
 21
162.600898478
 31
0.0
  0
LINE
  5
74
330
1F
100
AcDbEntity
  8
0
  6
SLD-Сплошная
 62
     7
370
    25
100
AcDbLine
 10
312.813936375
 20
127.761865154
 30
0.0
 11
312.8503500936
 21
128.933068975
 31
0.0
  0
ARC
  5
75
330
1F
100
AcDbEntity
  8
0
  6
SLD-Сплошная
 62
     7
370
    25
100
AcDbCircle
 10
308.9750833955
 20
128.4497661652
 30
0.0
 40
3.900000000000071
100
AcDbArc
 50
303.1904410878
 51
349.840740668
  0
ARC
  5
76
330
1F
100
AcDbEntity
  8
0
  6
SLD-Сплошная
 62
     7
370
    25
100
AcDbCircle
 10
308.9750833955
 20
161.9129974668
 30
0.0
 40
3.900000000000078
100
AcDbArc
 50
10.159259332
 51
56.7768331922
  0
SPLINE
  5
77
330
1F
100
AcDbEntity
  8
0
  6
SLD-Сплошная
 62
     7
370
    25
100
AcDbSpline
210
0.0
220
0.0
230
1.0
 70
     8
 71
     3
 72
    14
 73
    10
 74
     0
 42
0.00000001
 43
0.00000001
 40
0.0
 40
0.0
 40
0.0
 40
0.0
 40
0.2590389089760476
 40
0.3872144952269397
 40
0.5177568502771315
 40
0.6443105763397853
 40
0.76686656891813
 40
0.8854229200212171
 40
1.0
 40
1.0
 40
1.0
 40
1.0
 10
291.0707705666637
 20
121.2813818160169
 30
0.0
 10
292.8662762507108
 20
121.2869686989275
 30
0.0
 10
295.5502198708939
 20
121.2953200390975
 30
0.0
 10
299.1418132829349
 20
121.2564098850702
 30
0.0
 10
301.8052022910917
 20
121.5331380336291
 30
0.0
 10
304.3821446291935
 20
122.0945995212249
 30
0.0
 10
306.801194401961
 20
122.9101322962456
 30
0.0
 10
309.05584847343
 20
123.924600060444
 30
0.0
 10
310.4342408393929
 20
124.771083536901
 30
0.0
 10
311.1116733793087
 20
125.1871011133278
 30
0.0
  0
SPLINE
  5
78
330
1F
100
AcDbEntity
  8
0
  6
SLD-Сплошная
 62
     7
370
    25
100
AcDbSpline
210
0.0
220
0.0
230
1.0
 70
     8
 71
     3
 72
    14
 73
    10
 74
     0
 42
0.00000001
 43
0.00000001
 40
0.0
 40
0.0
 40
0.0
 40
0.0
 40
0.117937330907054
 40
0.2572473724704498
 40
0.4179351563530136
 40
0.5525139979457737
 40
0.6966137432249669
 40
0.842708236151479
 40
1.0
 40
1.0
 40
1.0
 40
1.0
 10
311.1116733793087
 20
165.1756625187062
 30
0.0
 10
310.4139380837992
 20
165.6029910907928
 30
0.0
 10
308.8920232662496
 20
166.5350891084887
 30
0.0
 10
306.226467911045
 20
167.6961728737072
 30
0.0
 10
303.3295670964631
 20
168.5491419924527
 30
0.0
 10
300.3139688157569
 20
169.0402016984288
 30
0.0
 10
297.365025584457
 20
169.0928254790787
 30
0.0
 10
294.2643764319553
 20
169.0782460258673
 30
0.0
 10
292.1611805213404
 20
169.0803111463917
 30
0.0
 10
291.0707705666637
 20
169.081381816017
 30
0.0
  0
SPLINE
  5
79
330
1F
100
AcDbEntity
  8
0
  6
SLD-Сплошная
 62
     7
370
    25
100
AcDbSpline
210
0.0
220
0.0
230
1.0
 70
     8
 71
     3
 72
    11
 73
     7
 74
     0
 42
0.00000001
 43
0.00000001
 40
0.0
 40
0.0
 40
0.0
 40
0.0
 40
0.0754298105628227
 40
0.3310147750435075
 40
0.9097255093359529
 40
1.0
 40
1.0
 40
1.0
 40
1.0
 10
270.033562332883
 20
120.9222797679796
 30
0.0
 10
270.0904816713002
 20
120.9523358022132
 30
0.0
 10
270.3402654353218
 20
121.0842331427513
 30
0.0
 10
270.8632271198151
 20
121.5399694056321
 30
0.0
 10
271.2665131156263
 20
122.04090233984
 30
0.0
 10
271.3674594908494
 20
122.3398800764892
 30
0.0
 10
271.3810814398367
 20
122.3802248582408
 30
0.0
  0
ARC
  5
7A
330
1F
100
AcDbEntity
  8
0
  6
SLD-Сплошная
 62
     7
370
    25
100
AcDbCircle
 10
273.9707705667
 20
145.1813818159
 30
0.0
 40
150.0
100
AcDbArc
 50
171.3645799051
 51
188.6447781385
  0
LINE
  5
7B
330
1F
100
AcDbEntity
  8
0
  6
SLD-Сплошная
 62
     7
370
    25
100
AcDbLine
 10
144.9426298887
 20
199.0325402079
 30
0.0
 11
124.7869148481
 21
184.3738577859
 31
0.0
  0
LINE
  5
7C
330
1F
100
AcDbEntity
  8
0
  6
SLD-Сплошная
 62
     7
370
    25
100
AcDbLine
 10
123.5020217875
 20
181.9622981111
 30
0.0
 11
123.5020217875
 21
170.1813818159
 31
0.0
  0
SPLINE
  5
7D
330
1F
100
AcDbEntity
  8
0
  6
SLD-Сплошная
 62
     7
370
    25
100
AcDbSpline
210
0.0
220
0.0
230
1.0
 70
     8
 71
     3
 72
    18
 73
    14
 74
     0
 42
0.00000001
 43
0.00000001
 40
0.0
 40
0.0
 40
0.0
 40
0.0
 40
0.0046523762434946
 40
0.0367563104494488
 40
0.2717946066310559
 40
0.5093524203135015
 40
0.7475972140707341
 40
0.8981578897629222
 40
0.9679598220397801
 40
0.9903988245018097
 40
0.997016569422508
 40
0.998989097196115
 40
1.0
 40
1.0
 40
1.0
 40
1.0
 10
124.7869148481221
 20
184.3738577859185
 30
0.0
 10
124.7833532334169
 20
184.3712688614214
 30
0.0
 10
124.7552145341901
 20
184.3508149454943
 30
0.0
 10
124.5551445183412
 20
184.1893136762936
 30
0.0
 10
124.1758888944155
 20
183.8894855534733
 30
0.0
 10
123.8200053062673
 20
183.3093940944702
 30
0.0
 10
123.58203289549
 20
182.7601398847007
 30
0.0
 10
123.5282442678053
 20
182.3267086946176
 30
0.0
 10
123.5100332628488
 20
182.0978592527447
 30
0.0
 10
123.5041032380471
 20
182.0044764603078
 30
0.0
 10
123.5025604262063
 20
181.9751530588899
 30
0.0
 10
123.502119843893
 20
181.9660770003148
 30
0.0
 10
123.502046603999
 20
181.9632544883876
 30
0.0
 10
123.5020217874623
 20
181.9622981111075
 30
0.0
  0
ARC
  5
7E
330
1F
100
AcDbEntity
  8
0
  6
SLD-Сплошная
 62
     7
370
    25
100
AcDbCircle
 10
126.0020217875
 20
170.1813818159
 30
0.0
 40
2.499999999999986
100
AcDbArc
 50
180.0
 51
266.7035548898
  0
LINE
  5
7F
330
1F
100
AcDbEntity
  8
0
  6
SLD-Сплошная
 62
     7
370
    25
100
AcDbLine
 10
126.1533155757
 20
103.8813818159
 30
0.0
 11
127.9707705667
 21
103.8813818159
 31
0.0
  0
ARC
  5
80
330
1F
100
AcDbEntity
  8
0
  6
SLD-Сплошная
 62
     7
370
    25
100
AcDbCircle
 10
126.1533155757
 20
106.3813818159
 30
0.0
 40
2.5
100
AcDbArc
 50
180.0
 51
270.0
  0
LINE
  5
81
330
1F
100
AcDbEntity
  8
0
  6
SLD-Сплошная
 62
     7
370
    25
100
AcDbLine
 10
123.6533155757
 20
120.1813818159
 30
0.0
 11
123.6533155757
 21
106.3813818159
 31
0.0
  0
ARC
  5
82
330
1F
100
AcDbEntity
  8
0
  6
SLD-Сплошная
 62
     7
370
    25
100
AcDbCircle
 10
126.1533155757
 20
120.1813818159
 30
0.0
 40
2.500000000000059
100
AcDbArc
 50
96.7318743211
 51
180.0
  0
LINE
  5
83
330
1F
100
AcDbEntity
  8
0
  6
SLD-Сплошная
 62
     7
370
    25
100
AcDbLine
 10
127.9707705667
 20
102.8952001611
 30
0.0
 11
130.9707705667
 21
102.8952001611
 31
0.0
  0
LINE
  5
84
330
1F
100
AcDbEntity
  8
0
  6
SLD-Сплошная
 62
     7
370
    25
100
AcDbLine
 10
130.9707705667
 20
103.4092500536
 30
0.0
 11
133.9707705667
 21
103.4092500536
 31
0.0
  0
LINE
  5
85
330
1F
100
AcDbEntity
  8
0
  6
SLD-Сплошная
 62
     7
370
    25
100
AcDbLine
 10
144.9483498085
 20
199.0367001441
 30
0.0
 11
144.9426622381
 21
199.0325637347
 31
0.0
  0
LINE
  5
86
330
1F
100
AcDbEntity
  8
0
  6
SLD-Сплошная
 62
     7
370
    25
100
AcDbLine
 10
186.5707705667
 20
180.4813818159
 30
0.0
 11
186.5707705667
 21
110.539501474
 31
0.0
  0
LINE
  5
87
330
1F
100
AcDbEntity
  8
0
  6
SLD-Сплошная
 62
     7
370
    25
100
AcDbLine
 10
186.5707705667
 20
110.539501474
 30
0.0
 11
133.9707705667
 21
110.539501474
 31
0.0
  0
LINE
  5
88
330
1F
100
AcDbEntity
  8
0
  6
SLD-Сплошная
 62
     7
370
    25
100
AcDbLine
 10
133.9707705667
 20
179.0353328408
 30
0.0
 11
133.9707705667
 21
110.539501474
 31
0.0
  0
LINE
  5
89
330
1F
100
AcDbEntity
  8
0
  6
SLD-Сплошная
 62
     7
370
    25
100
AcDbLine
 10
148.8607705667
 20
163.0992370588
 30
0.0
 11
148.8607705667
 21
127.6450881878
 31
0.0
  0
LINE
  5
8A
330
1F
100
AcDbEntity
  8
0
  6
SLD-Сплошная
 62
     7
370
    25
100
AcDbLine
 10
148.8607705667
 20
127.6450881878
 30
0.0
 11
171.0174372333
 21
127.6450881878
 31
0.0
  0
LINE
  5
8B
330
1F
100
AcDbEntity
  8
0
  6
SLD-Сплошная
 62
     7
370
    25
100
AcDbLine
 10
171.0174372333
 20
163.0992370588
 30
0.0
 11
171.0174372333
 21
127.6450881878
 31
0.0
  0
LINE
  5
8C
330
1F
100
AcDbEntity
  8
0
  6
SLD-Сплошная
 62
     7
370
    25
100
AcDbLine
 10
171.0174372333
 20
163.0992370588
 30
0.0
 11
148.8607705667
 21
163.0992370588
 31
0.0
  0
LINE
  5
8D
330
1F
100
AcDbEntity
  8
0
  6
SLD-Сплошная
 62
     7
370
    25
100
AcDbLine
 10
147.7707705667
 20
177.4552102222
 30
0.0
 11
184.1907495105
 21
177.4552102222
 31
0.0
  0
LINE
  5
8E
330
1F
100
AcDbEntity
  8
0
  6
SLD-Сплошная
 62
     7
370
    25
100
AcDbLine
 10
161.504909275
 20
146.4820944276
 30
0.0
 11
158.373298525
 21
146.4820944276
 31
0.0
  0
LINE
  5
8F
330
1F
100
AcDbEntity
  8
0
  6
SLD-Сплошная
 62
     7
370
    25
100
AcDbLine
 10
161.504909275
 20
146.4820944276
 30
0.0
 11
161.504909275
 21
139.1164880392
 31
0.0
  0
LINE
  5
90
330
1F
100
AcDbEntity
  8
0
  6
SLD-Сплошная
 62
     7
370
    25
100
AcDbLine
 10
162.5487921631
 20
139.1164880392
 30
0.0
 11
161.504909275
 21
139.1164880392
 31
0.0
  0
LINE
  5
91
330
1F
100
AcDbEntity
  8
0
  6
SLD-Сплошная
 62
     7
370
    25
100
AcDbLine
 10
162.5487921631
 20
146.4820944276
 30
0.0
 11
162.5487921631
 21
139.1164880392
 31
0.0
  0
LINE
  5
92
330
1F
100
AcDbEntity
  8
0
  6
SLD-Сплошная
 62
     7
370
    25
100
AcDbLine
 10
165.6804029131
 20
146.4820944276
 30
0.0
 11
162.5487921631
 21
146.4820944276
 31
0.0
  0
LINE
  5
93
330
1F
100
AcDbEntity
  8
0
  6
SLD-Сплошная
 62
     7
370
    25
100
AcDbLine
 10
158.373298525
 20
135.5573637198
 30
0.0
 11
165.6804029131
 21
135.5573637198
 31
0.0
  0
LINE
  5
94
330
1F
100
AcDbEntity
  8
0
  6
SLD-Сплошная
 62
     7
370
    25
100
AcDbLine
 10
165.6804029131
 20
146.4820944276
 30
0.0
 11
165.6804029131
 21
135.5573637198
 31
0.0
  0
LINE
  5
95
330
1F
100
AcDbEntity
  8
0
  6
SLD-Сплошная
 62
     7
370
    25
100
AcDbLine
 10
158.373298525
 20
146.4820944276
 30
0.0
 11
158.373298525
 21
135.5573637198
 31
0.0
  0
LINE
  5
96
330
1F
100
AcDbEntity
  8
0
  6
SLD-Сплошная
 62
     7
370
    25
100
AcDbLine
 10
154.1978048869
 20
146.4820944276
 30
0.0
 11
154.1978048869
 21
135.5573637198
 31
0.0
  0
LINE
  5
97
330
1F
100
AcDbEntity
  8
0
  6
SLD-Сплошная
 62
     7
370
    25
100
AcDbLine
 10
157.3294156369
 20
146.4820944276
 30
0.0
 11
154.1978048869
 21
146.4820944276
 31
0.0
  0
LINE
  5
98
330
1F
100
AcDbEntity
  8
0
  6
SLD-Сплошная
 62
     7
370
    25
100
AcDbLine
 10
157.3294156369
 20
146.4820944276
 30
0.0
 11
157.3294156369
 21
135.5573637198
 31
0.0
  0
LINE
  5
99
330
1F
100
AcDbEntity
  8
0
  6
SLD-Сплошная
 62
     7
370
    25
100
AcDbLine
 10
154.1978048869
 20
135.5573637198
 30
0.0
 11
157.3294156369
 21
135.5573637198
 31
0.0
  0
LINE
  5
9A
330
1F
100
AcDbEntity
  8
0
  6
SLD-Сплошная
 62
     7
370
    25
100
AcDbLine
 10
154.1978048869
 20
151.1505147955
 30
0.0
 11
154.1978048869
 21
147.5245313585
 31
0.0
  0
LINE
  5
9B
330
1F
100
AcDbEntity
  8
0
  6
SLD-Сплошная
 62
     7
370
    25
100
AcDbLine
 10
159.7925049143
 20
151.1505147955
 30
0.0
 11
154.1978048869
 21
151.1505147955
 31
0.0
  0
LINE
  5
9C
330
1F
100
AcDbEntity
  8
0
  6
SLD-Сплошная
 62
     7
370
    25
100
AcDbLine
 10
159.7925049143
 20
151.2713907775
 30
0.0
 11
159.7925049143
 21
151.1505147955
 31
0.0
  0
SPLINE
  5
9D
330
1F
100
AcDbEntity
  8
0
  6
SLD-Сплошная
 62
     7
370
    25
100
AcDbSpline
210
0.0
220
0.0
230
1.0
 70
     8
 71
     3
 72
     8
 73
     4
 74
     0
 42
0.00000001
 43
0.00000001
 40
0.0
 40
0.0
 40
0.0
 40
0.0
 40
1.0
 40
1.0
 40
1.0
 40
1.0
 10
154.1978048868958
 20
155.8152242542085
 30
0.0
 10
156.0630483135976
 20
154.3274270825979
 30
0.0
 10
157.9275650000581
 20
152.8086286142575
 30
0.0
 10
159.792504914325
 20
151.2713907775183
 30
0.0
  0
LINE
  5
9E
330
1F
100
AcDbEntity
  8
0
  6
SLD-Сплошная
 62
     7
370
    25
100
AcDbLine
 10
154.1978048869
 20
159.6263955418
 30
0.0
 11
154.1978048869
 21
155.8152242542
 31
0.0
  0
SPLINE
  5
9F
330
1F
100
AcDbEntity
  8
0
  6
SLD-Сплошная
 62
     7
370
    25
100
AcDbSpline
210
0.0
220
0.0
230
1.0
 70
     8
 71
     3
 72
     8
 73
     4
 74
     0
 42
0.00000001
 43
0.00000001
 40
0.0
 40
0.0
 40
0.0
 40
0.0
 40
1.0
 40
1.0
 40
1.0
 40
1.0
 10
159.9391038999985
 20
155.1253593180209
 30
0.0
 10
158.0253849688505
 20
156.661475229125
 30
0.0
 10
156.1120418492038
 20
158.1661879213724
 30
0.0
 10
154.1978048868958
 20
159.6263955418053
 30
0.0
  0
SPLINE
  5
A0
330
1F
100
AcDbEntity
  8
0
  6
SLD-Сплошная
 62
     7
370
    25
100
AcDbSpline
210
0.0
220
0.0
230
1.0
 70
     8
 71
     3
 72
     8
 73
     4
 74
     0
 42
0.00000001
 43
0.00000001
 40
0.0
 40
0.0
 40
0.0
 40
0.0
 40
1.0
 40
1.0
 40
1.0
 40
1.0
 10
165.6804029130959
 20
159.6263955418053
 30
0.0
 10
163.7661658113181
 20
158.1661878149815
 30
0.0
 10
161.8528229495004
 20
156.6614753241274
 30
0.0
 10
159.9391038999985
 20
155.1253593180209
 30
0.0
  0
LINE
  5
A1
330
1F
100
AcDbEntity
  8
0
  6
SLD-Сплошная
 62
     7
370
    25
100
AcDbLine
 10
165.6804029131
 20
159.6263955418
 30
0.0
 11
165.6804029131
 21
155.8152242542
 31
0.0
  0
SPLINE
  5
A2
330
1F
100
AcDbEntity
  8
0
  6
SLD-Сплошная
 62
     7
370
    25
100
AcDbSpline
210
0.0
220
0.0
230
1.0
 70
     8
 71
     3
 72
     8
 73
     4
 74
     0
 42
0.00000001
 43
0.00000001
 40
0.0
 40
0.0
 40
0.0
 40
0.0
 40
1.0
 40
1.0
 40
1.0
 40
1.0
 10
160.0857028856659
 20
151.2713907775201
 30
0.0
 10
161.9506427354417
 20
152.8086285610996
 30
0.0
 10
163.8151595658295
 20
154.3274271459597
 30
0.0
 10
165.6804029130959
 20
155.8152242542085
 30
0.0
  0
LINE
  5
A3
330
1F
100
AcDbEntity
  8
0
  6
SLD-Сплошная
 62
     7
370
    25
100
AcDbLine
 10
160.0857028857
 20
151.2713907775
 30
0.0
 11
160.0857028857
 21
151.1505147955
 31
0.0
  0
LINE
  5
A4
330
1F
100
AcDbEntity
  8
0
  6
SLD-Сплошная
 62
     7
370
    25
100
AcDbLine
 10
165.6804029131
 20
151.1505147955
 30
0.0
 11
160.0857028857
 21
151.1505147955
 31
0.0
  0
LINE
  5
A5
330
1F
100
AcDbEntity
  8
0
  6
SLD-Сплошная
 62
     7
370
    25
100
AcDbLine
 10
165.6804029131
 20
151.1505147955
 30
0.0
 11
165.6804029131
 21
147.5245313585
 31
0.0
  0
LINE
  5
A6
330
1F
100
AcDbEntity
  8
0
  6
SLD-Сплошная
 62
     7
370
    25
100
AcDbLine
 10
154.1978048869
 20
147.5245313585
 30
0.0
 11
165.6804029131
 21
147.5245313585
 31
0.0
  0
LINE
  5
A7
330
1F
100
AcDbEntity
  8
0
  6
SLD-Сплошная
 62
     7
370
    25
100
AcDbLine
 10
154.1978048869
 20
134.5579024972
 30
0.0
 11
154.1978048869
 21
131.1396409206
 31
0.0
  0
LINE
  5
A8
330
1F
100
AcDbEntity
  8
0
  6
SLD-Сплошная
 62
     7
370
    25
100
AcDbLine
 10
157.3294156369
 20
134.5579024972
 30
0.0
 11
157.3294156369
 21
131.1396409206
 31
0.0
  0
LINE
  5
A9
330
1F
100
AcDbEntity
  8
0
  6
SLD-Сплошная
 62
     7
370
    25
100
AcDbLine
 10
154.1978048869
 20
131.1396409206
 30
0.0
 11
157.3294156369
 21
131.1396409206
 31
0.0
  0
LINE
  5
AA
330
1F
100
AcDbEntity
  8
0
  6
SLD-Сплошная
 62
     7
370
    25
100
AcDbLine
 10
157.3294156369
 20
134.5579024972
 30
0.0
 11
154.1978048869
 21
134.5579024972
 31
0.0
  0
LINE
  5
AB
330
1F
100
AcDbEntity
  8
0
  6
SLD-Сплошная
 62
     7
370
    25
100
AcDbLine
 10
158.373298525
 20
131.1396409206
 30
0.0
 11
165.6804029131
 21
131.1396409206
 31
0.0
  0
LINE
  5
AC
330
1F
100
AcDbEntity
  8
0
  6
SLD-Сплошная
 62
     7
370
    25
100
AcDbLine
 10
165.6804029131
 20
134.5579024972
 30
0.0
 11
158.373298525
 21
134.5579024972
 31
0.0
  0
LINE
  5
AD
330
1F
100
AcDbEntity
  8
0
  6
SLD-Сплошная
 62
     7
370
    25
100
AcDbLine
 10
158.373298525
 20
134.5579024972
 30
0.0
 11
158.373298525
 21
131.1396409206
 31
0.0
  0
LINE
  5
AE
330
1F
100
AcDbEntity
  8
0
  6
SLD-Сплошная
 62
     7
370
    25
100
AcDbLine
 10
165.6804029131
 20
134.5579024972
 30
0.0
 11
165.6804029131
 21
131.1396409206
 31
0.0
  0
SPLINE
  5
AF
330
1F
100
AcDbEntity
  8
0
  6
SLD-Сплошная
 62
     7
370
    25
100
AcDbSpline
210
0.0
220
0.0
230
1.0
 70
     8
 71
     3
 72
    12
 73
     8
 74
     0
 42
0.00000001
 43
0.00000001
 40
0.6435741536179829
 40
0.6435741536179829
 40
0.6435741536179829
 40
0.6435741536179829
 40
0.7041255633386718
 40
0.7041255633386718
 40
0.8291255633386718
 40
0.8291255633386718
 40
0.935551409720689
 40
0.935551409720689
 40
0.935551409720689
 40
0.935551409720689
 10
271.5685188573771
 20
122.658580194473
 30
0.0
 10
271.3813333092845
 20
122.2215013522489
 30
0.0
 10
271.1131165697603
 20
121.8191672152936
 30
0.0
 10
270.0826375792612
 20
120.7886882247945
 30
0.0
 10
269.1069353131458
 20
120.3845391133313
 30
0.0
 10
267.2893209660344
 20
120.3845391133313
 30
0.0
 10
266.4578366219142
 20
120.6775041731395
 30
0.0
 10
265.800740524956
 20
121.1930155232373
 30
0.0
  0
SPLINE
  5
B0
330
1F
100
AcDbEntity
  8
0
  6
SLD-Сплошная
 62
     7
370
    25
100
AcDbSpline
210
0.0
220
0.0
230
1.0
 70
     8
 71
     3
 72
    78
 73
    74
 74
     0
 42
0.00000001
 43
0.00000001
 40
0.0
 40
0.0
 40
0.0
 40
0.0
 40
0.0624999999999997
 40
0.0624999999999997
 40
0.0937499999999995
 40
0.0937499999999995
 40
0.1249999999999994
 40
0.1249999999999994
 40
0.1562499999999992
 40
0.1562499999999992
 40
0.1718749999999991
 40
0.1718749999999991
 40
0.187499999999999
 40
0.187499999999999
 40
0.2187499999999988
 40
0.2187499999999988
 40
0.2343749999999988
 40
0.2343749999999988
 40
0.2499999999999988
 40
0.2499999999999988
 40
0.2812499999999987
 40
0.2812499999999987
 40
0.2968749999999987
 40
0.2968749999999987
 40
0.3046874999999987
 40
0.3046874999999987
 40
0.3124999999999986
 40
0.3124999999999986
 40
0.3281249999999984
 40
0.3281249999999984
 40
0.3437499999999983
 40
0.3437499999999983
 40
0.3749999999999981
 40
0.3749999999999981
 40
0.3906249999999979
 40
0.3906249999999979
 40
0.4062499999999978
 40
0.4062499999999978
 40
0.4374999999999976
 40
0.4374999999999976
 40
0.4531249999999973
 40
0.4531249999999973
 40
0.4687499999999971
 40
0.4687499999999971
 40
0.4999999999999969
 40
0.4999999999999969
 40
0.5156249999999966
 40
0.5156249999999966
 40
0.5312499999999963
 40
0.5312499999999963
 40
0.546874999999996
 40
0.546874999999996
 40
0.5624999999999957
 40
0.5624999999999957
 40
0.5937499999999951
 40
0.5937499999999951
 40
0.6093749999999948
 40
0.6093749999999948
 40
0.6171874999999947
 40
0.6171874999999947
 40
0.6249999999999947
 40
0.6249999999999947
 40
0.7499999999999964
 40
0.7499999999999964
 40
0.8749999999999982
 40
0.8749999999999982
 40
0.9374999999999991
 40
0.9374999999999991
 40
0.9687499999999994
 40
0.9687499999999994
 40
0.9843749999999998
 40
0.9843749999999998
 40
1.0
 40
1.0
 40
1.0
 40
1.0
 10
265.8011870447689
 20
121.192665270525
 30
0.0
 10
265.8011870448611
 20
121.1926652705471
 30
0.0
 10
265.8060960286073
 20
121.435950408258
 30
0.0
 10
265.8082358874892
 20
122.1537685681562
 30
0.0
 10
265.8082194613137
 20
122.4550621231828
 30
0.0
 10
265.8067312579016
 20
123.1650019403951
 30
0.0
 10
265.8052765199114
 20
123.5738948348045
 30
0.0
 10
265.8024581122032
 20
124.4982655806774
 30
0.0
 10
265.8011624547572
 20
125.013749225815
 30
0.0
 10
265.8012012613747
 20
125.8698059345069
 30
0.0
 10
265.8013055553076
 20
126.1681295743786
 30
0.0
 10
265.8015015696083
 20
126.7844686463071
 30
0.0
 10
265.8015935301366
 20
127.1032993567352
 30
0.0
 10
265.8017164842574
 20
128.0912326986169
 30
0.0
 10
265.8015470876131
 20
128.7916530228283
 30
0.0
 10
265.8012603077578
 20
129.9051084488814
 30
0.0
 10
265.80118317906
 20
130.2867639425663
 30
0.0
 10
265.8011920956191
 20
131.0714753849117
 30
0.0
 10
265.8012152151385
 20
131.4759650943523
 30
0.0
 10
265.8012283391521
 20
132.7101879024892
 30
0.0
 10
265.8011883567262
 20
133.5592186367416
 30
0.0
 10
265.8011887488413
 20
134.8708761433774
 30
0.0
 10
265.801187150617
 20
135.3144648304653
 30
0.0
 10
265.8011870986555
 20
135.9894137362181
 30
0.0
 10
265.8011870525783
 20
136.2159920829077
 30
0.0
 10
265.8011870419044
 20
136.672354890372
 30
0.0
 10
265.8023997815326
 20
136.9022769337697
 30
0.0
 10
265.7972940474476
 20
137.5958970883504
 30
0.0
 10
265.7759653065568
 20
138.0627343984438
 30
0.0
 10
265.6942770521844
 20
139.0050691195629
 30
0.0
 10
265.6339242614108
 20
139.478194945061
 30
0.0
 10
265.3952831295709
 20
140.8844191232013
 30
0.0
 10
265.1592168734082
 20
141.8116345917717
 30
0.0
 10
264.6815225790071
 20
143.1823658910589
 30
0.0
 10
264.5008760870739
 20
143.6374978775403
 30
0.0
 10
264.0983840837181
 20
144.5325032080479
 30
0.0
 10
263.8784151802452
 20
144.968856075484
 30
0.0
 10
263.1633891424534
 20
146.2445669401609
 30
0.0
 10
262.6134220817999
 20
147.0507122387347
 30
0.0
 10
261.6735843500678
 20
148.1879517377727
 30
0.0
 10
261.3393302881779
 20
148.5564532941241
 30
0.0
 10
260.6441514422648
 20
149.2542364890645
 30
0.0
 10
260.2823859881164
 20
149.5850204294281
 30
0.0
 10
259.1549427941623
 20
150.5230554477017
 30
0.0
 10
258.3478349208989
 20
151.0769245053553
 30
0.0
 10
257.0502739339454
 20
151.793983401264
 30
0.0
 10
256.6056017187825
 20
152.0118129869117
 30
0.0
 10
255.7065082076958
 20
152.4000408459642
 30
0.0
 10
255.2501275987935
 20
152.571685375305
 30
0.0
 10
254.3240841893654
 20
152.8705542790702
 30
0.0
 10
253.8544203331758
 20
152.9977767225179
 30
0.0
 10
252.9012851572483
 20
153.2054286471337
 30
0.0
 10
252.4153979547933
 20
153.2863803294702
 30
0.0
 10
250.9561252064672
 20
153.4577532176005
 30
0.0
 10
249.9893415625151
 20
153.4778656706255
 30
0.0
 10
248.5474128634042
 20
153.3757271214638
 30
0.0
 10
248.0681474617699
 20
153.3193827830996
 30
0.0
 10
247.3512323488705
 20
153.2003715849654
 30
0.0
 10
247.1125690679484
 20
153.1548782825811
 30
0.0
 10
246.63884405655
 20
153.0528525919781
 30
0.0
 10
246.4032261207233
 20
152.9969101251273
 30
0.0
 10
242.3871697608728
 20
152.0765323617995
 30
0.0
 10
238.57543166704
 20
151.2028177916264
 30
0.0
 10
230.912173284081
 20
149.4590155238395
 30
0.0
 10
227.0602203133993
 20
148.5884157553418
 30
0.0
 10
221.2675543303362
 20
147.2828491081602
 30
0.0
 10
219.3351078763848
 20
146.8477990360362
 30
0.0
 10
216.4344363940784
 20
146.1940667942741
 30
0.0
 10
215.4672160480656
 20
145.9759446487267
 30
0.0
 10
214.0159223236309
 20
145.6483048140306
 30
0.0
 10
213.530634197453
 20
145.5454781886122
 30
0.0
 10
212.5535804189677
 20
145.3680533836607
 30
0.0
 10
212.0630005018343
 20
145.2916301758306
 30
0.0
 10
211.5707705666636
 20
145.2261635564649
 30
0.0
  0
SPLINE
  5
B1
330
1F
100
AcDbEntity
  8
0
  6
SLD-Сплошная
 62
     7
370
    25
100
AcDbSpline
210
0.0
220
0.0
230
1.0
 70
     8
 71
     3
 72
    22
 73
    18
 74
     0
 42
0.00000001
 43
0.00000001
 40
0.0
 40
0.0
 40
0.0
 40
0.0
 40
0.2499999999999998
 40
0.2499999999999998
 40
0.3124999999999997
 40
0.3124999999999997
 40
0.3749999999999997
 40
0.3749999999999997
 40
0.4999999999999996
 40
0.4999999999999996
 40
0.6249999999999997
 40
0.6249999999999997
 40
0.6874999999999997
 40
0.6874999999999997
 40
0.7499999999999998
 40
0.7499999999999998
 40
1.0
 40
1.0
 40
1.0
 40
1.0
 10
211.5707705666636
 20
145.2261635564649
 30
0.0
 10
209.3071548965307
 20
144.9251024976422
 30
0.0
 10
207.0413335206217
 20
144.8806171900002
 30
0.0
 10
204.206320581418
 20
145.1432993451792
 30
0.0
 10
203.6386245057107
 20
145.2120619376777
 30
0.0
 10
202.5152680603621
 20
145.3804330181225
 30
0.0
 10
201.9580724043944
 20
145.4800075429728
 30
0.0
 10
200.2995812431891
 20
145.8236266915046
 30
0.0
 10
199.211303767932
 20
146.1123060923747
 30
0.0
 10
197.0695937742309
 20
146.8086595639766
 30
0.0
 10
196.016155714981
 20
147.2163156363391
 30
0.0
 10
194.4626334868581
 20
147.9182542472579
 30
0.0
 10
193.9482665407921
 20
148.1680542361642
 30
0.0
 10
192.9409273964133
 20
148.6920164095753
 30
0.0
 10
192.4465541375583
 20
148.9667404864317
 30
0.0
 10
190.0201148262614
 20
150.4015984894513
 30
0.0
 10
188.2219247863943
 20
151.742497102175
 30
0.0
 10
186.5707705666636
 20
153.2667414734312
 30
0.0
  0
SPLINE
  5
B2
330
1F
100
AcDbEntity
  8
0
  6
SLD-Сплошная
 62
     7
370
    25
100
AcDbSpline
210
0.0
220
0.0
230
1.0
 70
     8
 71
     3
 72
    24
 73
    20
 74
     0
 42
0.00000001
 43
0.00000001
 40
0.0
 40
0.0
 40
0.0
 40
0.0
 40
0.2500000000000002
 40
0.2500000000000002
 40
0.3125000000000002
 40
0.3125000000000002
 40
0.3750000000000002
 40
0.3750000000000002
 40
0.5
 40
0.5
 40
0.5625
 40
0.5625
 40
0.6250000000000001
 40
0.6250000000000001
 40
0.75
 40
0.75
 40
0.875
 40
0.875
 40
1.0
 40
1.0
 40
1.0
 40
1.0
 10
189.9113071463023
 20
158.6940953751753
 30
0.0
 10
191.2362783382435
 20
157.3295715533794
 30
0.0
 10
192.7274551906475
 20
156.1014101565726
 30
0.0
 10
194.7994746791495
 20
154.7736311964279
 30
0.0
 10
195.2254675482434
 20
154.517955096386
 30
0.0
 10
196.0941459700242
 20
154.0314862158157
 30
0.0
 10
196.5346096520231
 20
153.8018460711694
 30
0.0
 10
197.873980109395
 20
153.1536096199299
 30
0.0
 10
198.7906555844596
 20
152.7752250687366
 30
0.0
 10
200.2019369134176
 20
152.292461943121
 30
0.0
 10
200.6784537940164
 20
152.1457771966073
 30
0.0
 10
201.6434263117995
 20
151.8806469971918
 30
0.0
 10
202.1335565051161
 20
151.7618773436358
 30
0.0
 10
203.6078564241373
 20
151.4520279363417
 30
0.0
 10
204.5948224155515
 20
151.3072570326176
 30
0.0
 10
206.5769764030446
 20
151.1428205030314
 30
0.0
 10
207.57206541966
 20
151.1216468839428
 30
0.0
 10
209.5705076689114
 20
151.2052093614809
 30
0.0
 10
210.5766318113175
 20
151.3115336252297
 30
0.0
 10
211.5707705666636
 20
151.4776196045916
 30
0.0
  0
SPLINE
  5
B3
330
1F
100
AcDbEntity
  8
0
  6
SLD-Сплошная
 62
     7
370
    25
100
AcDbSpline
210
0.0
220
0.0
230
1.0
 70
     8
 71
     3
 72
    86
 73
    82
 74
     0
 42
0.00000001
 43
0.00000001
 40
0.0
 40
0.0
 40
0.0
 40
0.0
 40
0.0078125000000002
 40
0.0078125000000002
 40
0.0156250000000003
 40
0.0156250000000003
 40
0.0312500000000006
 40
0.0312500000000006
 40
0.0625000000000013
 40
0.0625000000000013
 40
0.1250000000000023
 40
0.1250000000000023
 40
0.1875000000000034
 40
0.1875000000000034
 40
0.2500000000000044
 40
0.2500000000000044
 40
0.3125000000000055
 40
0.3125000000000055
 40
0.3281250000000057
 40
0.3281250000000057
 40
0.3359375000000058
 40
0.3359375000000058
 40
0.3437500000000059
 40
0.3437500000000059
 40
0.3750000000000058
 40
0.3750000000000058
 40
0.4062500000000057
 40
0.4062500000000057
 40
0.4375000000000056
 40
0.4375000000000056
 40
0.4687500000000056
 40
0.4687500000000056
 40
0.4843750000000053
 40
0.4843750000000053
 40
0.500000000000005
 40
0.500000000000005
 40
0.5312500000000046
 40
0.5312500000000046
 40
0.5468750000000043
 40
0.5468750000000043
 40
0.562500000000004
 40
0.562500000000004
 40
0.5937500000000033
 40
0.5937500000000033
 40
0.6093750000000031
 40
0.6093750000000031
 40
0.6250000000000029
 40
0.6250000000000029
 40
0.6562500000000024
 40
0.6562500000000024
 40
0.6718750000000023
 40
0.6718750000000023
 40
0.6875000000000022
 40
0.6875000000000022
 40
0.718750000000002
 40
0.718750000000002
 40
0.7265625000000019
 40
0.7265625000000019
 40
0.7343750000000019
 40
0.7343750000000019
 40
0.7500000000000017
 40
0.7500000000000017
 40
0.7812500000000014
 40
0.7812500000000014
 40
0.8125000000000012
 40
0.8125000000000012
 40
0.8281250000000011
 40
0.8281250000000011
 40
0.843750000000001
 40
0.843750000000001
 40
0.8750000000000007
 40
0.8750000000000007
 40
0.8906250000000006
 40
0.8906250000000006
 40
0.9062500000000004
 40
0.9062500000000004
 40
0.9375000000000003
 40
0.9375000000000003
 40
0.9687500000000001
 40
0.9687500000000001
 40
1.0
 40
1.0
 40
1.0
 40
1.0
 10
211.5707705666636
 20
151.4776196045916
 30
0.0
 10
211.8344923375543
 20
151.5216783321706
 30
0.0
 10
212.0971496303653
 20
151.5700442034544
 30
0.0
 10
212.6203531392407
 20
151.6752820108062
 30
0.0
 10
212.8806340864237
 20
151.7332649923567
 30
0.0
 10
213.660161524584
 20
151.9121590874169
 30
0.0
 10
214.1796706225138
 20
152.0314119106268
 30
0.0
 10
215.73770652155
 20
152.3889734785469
 30
0.0
 10
216.7757295205368
 20
152.6271379167975
 30
0.0
 10
219.8878464272225
 20
153.340643470259
 30
0.0
 10
221.9588191939819
 20
153.8147013102447
 30
0.0
 10
226.0883541710567
 20
154.757223545681
 30
0.0
 10
228.1476331864929
 20
155.2258649595973
 30
0.0
 10
232.2547321856499
 20
156.1572211284117
 30
0.0
 10
234.3036144037149
 20
156.6201956544735
 30
0.0
 10
238.3786336065133
 20
157.5372388338841
 30
0.0
 10
240.4057774984689
 20
157.991554473351
 30
0.0
 10
242.9256479776968
 20
158.5532411882544
 30
0.0
 10
243.4289176943241
 20
158.6652649309258
 30
0.0
 10
244.1827416270917
 20
158.8327982851163
 30
0.0
 10
244.4338371070097
 20
158.8885561905265
 30
0.0
 10
244.9356596448021
 20
158.9999097552747
 30
0.0
 10
245.1865262694016
 20
159.0547363951099
 30
0.0
 10
246.4455479157067
 20
159.2988290231407
 30
0.0
 10
247.4635083550284
 20
159.4213768405259
 30
0.0
 10
249.5228401183541
 20
159.5246455532788
 30
0.0
 10
250.5641964607835
 20
159.5054764658257
 30
0.0
 10
252.6726378635726
 20
159.3176784116748
 30
0.0
 10
253.7128725506979
 20
159.1512030139419
 30
0.0
 10
255.7612718262695
 20
158.6769593822341
 30
0.0
 10
256.7703108670835
 20
158.3696902100141
 30
0.0
 10
258.2587415532979
 20
157.795828145508
 30
0.0
 10
258.7525302386546
 20
157.5846767893587
 30
0.0
 10
259.7159030286073
 20
157.1306013933338
 30
0.0
 10
260.1868957737565
 20
156.8873984832966
 30
0.0
 10
261.5677832636245
 20
156.1089131335319
 30
0.0
 10
262.4456920696421
 20
155.5249322326393
 30
0.0
 10
263.6974491985248
 20
154.5479996056534
 30
0.0
 10
264.1047463078435
 20
154.2047044966879
 30
0.0
 10
264.8932374700677
 20
153.4869395942747
 30
0.0
 10
265.2713393756254
 20
153.1152012886261
 30
0.0
 10
266.3582245019245
 20
151.9618802945594
 30
0.0
 10
267.0199600202678
 20
151.1424827224004
 30
0.0
 10
267.9220190674199
 20
149.8391254947217
 30
0.0
 10
268.2074312258451
 20
149.3921540276022
 30
0.0
 10
268.7476552738431
 20
148.4728784013636
 30
0.0
 10
269.0023199015853
 20
148.0003447674073
 30
0.0
 10
269.706906484006
 20
146.5716701137973
 30
0.0
 10
270.1019307674774
 20
145.5955326366143
 30
0.0
 10
270.5913754426088
 20
144.1005902895028
 30
0.0
 10
270.7375356664307
 20
143.5972294855598
 30
0.0
 10
270.9956199791023
 20
142.5805591380031
 30
0.0
 10
271.1076007540024
 20
142.0646509042665
 30
0.0
 10
271.3872050171371
 20
140.5213520507243
 30
0.0
 10
271.4995138696775
 20
139.5036430436149
 30
0.0
 10
271.5552476581866
 20
138.2469623013774
 30
0.0
 10
271.562014985734
 20
137.9963809836202
 30
0.0
 10
271.5675659883556
 20
137.4968631950822
 30
0.0
 10
271.5662592581494
 20
137.2479145274214
 30
0.0
 10
271.566259248585
 20
136.5058650823207
 30
0.0
 10
271.5662595758758
 20
136.0155268374963
 30
0.0
 10
271.5662574907965
 20
134.5708027122768
 30
0.0
 10
271.5662409852784
 20
133.6497697604041
 30
0.0
 10
271.566246501672
 20
131.8893433682109
 30
0.0
 10
271.5662544383874
 20
131.0499491802353
 30
0.0
 10
271.5660974956552
 20
129.8538224520882
 30
0.0
 10
271.5660518897439
 20
129.4663252853112
 30
0.0
 10
271.5660300439984
 20
128.7241893209544
 30
0.0
 10
271.5660534222264
 20
128.3680119783445
 30
0.0
 10
271.5661860585956
 20
127.3433715273408
 30
0.0
 10
271.566475309254
 20
126.7186115707102
 30
0.0
 10
271.5657868804976
 20
125.8695208265398
 30
0.0
 10
271.5654256549781
 20
125.6012297386867
 30
0.0
 10
271.5646634152063
 20
125.0949923829646
 30
0.0
 10
271.5642669742908
 20
124.8593587957721
 30
0.0
 10
271.5632810871595
 20
124.2069405039834
 30
0.0
 10
271.5629293137703
 20
123.8428660167245
 30
0.0
 10
271.5632318432984
 20
123.254612097672
 30
0.0
 10
271.5638883963981
 20
123.0300959936959
 30
0.0
 10
271.565413568371
 20
122.7286348465231
 30
0.0
 10
271.56625925579
 20
122.6533148582007
 30
0.0
 10
271.5662592558144
 20
122.6533148582072
 30
0.0
  0
SPLINE
  5
B4
330
1F
100
AcDbEntity
  8
0
  6
SLD-Сплошная
 62
     7
370
    25
100
AcDbSpline
210
0.0
220
0.0
230
1.0
 70
     8
 71
     3
 72
    30
 73
    26
 74
     0
 42
0.00000001
 43
0.00000001
 40
0.0
 40
0.0
 40
0.0
 40
0.0
 40
0.1250000000000002
 40
0.1250000000000002
 40
0.1875000000000004
 40
0.1875000000000004
 40
0.2187500000000005
 40
0.2187500000000005
 40
0.2500000000000005
 40
0.2500000000000005
 40
0.3750000000000007
 40
0.3750000000000007
 40
0.4375000000000007
 40
0.4375000000000007
 40
0.5000000000000006
 40
0.5000000000000006
 40
0.6250000000000004
 40
0.6250000000000004
 40
0.6875000000000003
 40
0.6875000000000003
 40
0.7500000000000002
 40
0.7500000000000002
 40
0.8750000000000002
 40
0.8750000000000002
 40
1.0
 40
1.0
 40
1.0
 40
1.0
 10
212.4587666961195
 20
114.7830771482676
 30
0.0
 10
212.4587666961135
 20
114.7830771482676
 30
0.0
 10
212.5198230729638
 20
114.9198694694898
 30
0.0
 10
212.7022131226112
 20
115.323095577986
 30
0.0
 10
212.7781574431609
 20
115.4906857125442
 30
0.0
 10
212.9148288749633
 20
115.7925087812695
 30
0.0
 10
212.9642091075383
 20
115.901600092781
 30
0.0
 10
213.0695031790688
 20
116.134507630751
 30
0.0
 10
213.125508826303
 20
116.2585454033019
 30
0.0
 10
213.4217830277872
 20
116.9158543191268
 30
0.0
 10
213.7109405156778
 20
117.5597257064038
 30
0.0
 10
214.2222619733635
 20
118.6962884947893
 30
0.0
 10
214.4056610946916
 20
119.1037480814127
 30
0.0
 10
214.7983337467082
 20
119.9766041271651
 30
0.0
 10
215.005721215045
 20
120.4378831334369
 30
0.0
 10
215.6541312237104
 20
121.8839176748497
 30
0.0
 10
216.1235271517662
 20
122.9342165332089
 30
0.0
 10
216.8824182699448
 20
124.6329509553019
 30
0.0
 10
217.1445283367888
 20
125.2198503179074
 30
0.0
 10
217.6868273060128
 20
126.4352430777912
 30
0.0
 10
217.9676145570227
 20
127.065234725043
 30
0.0
 10
218.8215596963519
 20
128.9850482289158
 30
0.0
 10
219.4112971269583
 20
130.3140268789796
 30
0.0
 10
220.6305454059086
 20
133.0648764734139
 30
0.0
 10
221.2600850184409
 20
134.4867496309592
 30
0.0
 10
221.9093029290543
 20
135.9562436471377
 30
0.0
  0
SPLINE
  5
B5
330
1F
100
AcDbEntity
  8
0
  6
SLD-Сплошная
 62
     7
370
    25
100
AcDbSpline
210
0.0
220
0.0
230
1.0
 70
     8
 71
     3
 72
    34
 73
    30
 74
     0
 42
0.00000001
 43
0.00000001
 40
0.0
 40
0.0
 40
0.0
 40
0.0
 40
0.0625000000000006
 40
0.0625000000000006
 40
0.1250000000000011
 40
0.1250000000000011
 40
0.2500000000000026
 40
0.2500000000000026
 40
0.3125000000000023
 40
0.3125000000000023
 40
0.3750000000000021
 40
0.3750000000000021
 40
0.4375000000000019
 40
0.4375000000000019
 40
0.5000000000000017
 40
0.5000000000000017
 40
0.5625000000000014
 40
0.5625000000000014
 40
0.6250000000000012
 40
0.6250000000000012
 40
0.687500000000001
 40
0.687500000000001
 40
0.7500000000000008
 40
0.7500000000000008
 40
0.8750000000000006
 40
0.8750000000000006
 40
0.9375000000000003
 40
0.9375000000000003
 40
1.0
 40
1.0
 40
1.0
 40
1.0
 10
216.1158902494179
 20
138.432707291763
 30
0.0
 10
216.1972236174202
 20
138.621734904973
 30
0.0
 10
216.296121239962
 20
138.8027866622322
 30
0.0
 10
216.5303915625896
 20
139.1481239490215
 30
0.0
 10
216.6650580444232
 20
139.3105574409001
 30
0.0
 10
217.107836856593
 20
139.7505817129737
 30
0.0
 10
217.4664349578646
 20
139.9904853995253
 30
0.0
 10
218.0480399063921
 20
140.2288296714773
 30
0.0
 10
218.2530508845822
 20
140.2898216208023
 30
0.0
 10
218.6676367375482
 20
140.3681888883624
 30
0.0
 10
218.8765428698541
 20
140.3860830045532
 30
0.0
 10
219.2975859962113
 20
140.379281625971
 30
0.0
 10
219.5101128865514
 20
140.353884624733
 30
0.0
 10
219.9188698073641
 20
140.2622324344617
 30
0.0
 10
220.1177340772626
 20
140.1960807317045
 30
0.0
 10
220.5036205333872
 20
140.022341391215
 30
0.0
 10
220.6842396960835
 20
139.9176630349985
 30
0.0
 10
221.0221619614874
 20
139.6748515669454
 30
0.0
 10
221.1808929557554
 20
139.534918688661
 30
0.0
 10
221.4640575538811
 20
139.2309562177999
 30
0.0
 10
221.5892410641723
 20
139.06701881936
 30
0.0
 10
221.8073256974641
 20
138.715864752792
 30
0.0
 10
221.8996386943398
 20
138.5285727600068
 30
0.0
 10
222.1168698263259
 20
137.9551577958618
 30
0.0
 10
222.1870463669003
 20
137.5430764329648
 30
0.0
 10
222.172575322632
 20
136.9367654377149
 30
0.0
 10
222.1481155791215
 20
136.7339438857734
 30
0.0
 10
222.0594936488426
 20
136.3355356773249
 30
0.0
 10
221.996109002135
 20
136.1421426321795
 30
0.0
 10
221.9132683043755
 20
135.9545805206008
 30
0.0
  0
SPLINE
  5
B6
330
1F
100
AcDbEntity
  8
0
  6
SLD-Сплошная
 62
     7
370
    25
100
AcDbSpline
210
0.0
220
0.0
230
1.0
 70
     8
 71
     3
 72
    12
 73
     8
 74
     0
 42
0.00000001
 43
0.00000001
 40
0.0
 40
0.0
 40
0.0
 40
0.0
 40
0.4999999999999998
 40
0.4999999999999998
 40
0.7499999999999997
 40
0.7499999999999997
 40
1.0
 40
1.0
 40
1.0
 40
1.0
 10
216.115968837838
 20
138.4326730693843
 30
0.0
 10
215.3073655577682
 20
136.5537348625653
 30
0.0
 10
214.522612437873
 20
134.7266209650893
 30
0.0
 10
213.3796032191065
 20
132.0655315047926
 30
0.0
 10
213.0038938237623
 20
131.1907156461922
 30
0.0
 10
212.2730115109146
 20
129.4880529814662
 30
0.0
 10
211.9169593137381
 20
128.6577616953332
 30
0.0
 10
211.5707705666636
 20
127.8490152409297
 30
0.0
  0
SPLINE
  5
B7
330
1F
100
AcDbEntity
  8
0
  6
SLD-Сплошная
 62
     7
370
    25
100
AcDbSpline
210
0.0
220
0.0
230
1.0
 70
     8
 71
     3
 72
    30
 73
    26
 74
     0
 42
0.00000001
 43
0.00000001
 40
0.0
 40
0.0
 40
0.0
 40
0.0
 40
0.1249999999999998
 40
0.1249999999999998
 40
0.1874999999999997
 40
0.1874999999999997
 40
0.2499999999999996
 40
0.2499999999999996
 40
0.3749999999999994
 40
0.3749999999999994
 40
0.4374999999999995
 40
0.4374999999999995
 40
0.4999999999999996
 40
0.4999999999999996
 40
0.6249999999999994
 40
0.6249999999999994
 40
0.6874999999999996
 40
0.6874999999999996
 40
0.7499999999999997
 40
0.7499999999999997
 40
0.875
 40
0.875
 40
0.9375
 40
0.9375
 40
1.0
 40
1.0
 40
1.0
 40
1.0
 10
240.4288953889896
 20
116.5787989483787
 30
0.0
 10
240.4288953889262
 20
116.5787989483708
 30
0.0
 10
240.4875102406001
 20
116.7054936031951
 30
0.0
 10
240.6593035568769
 20
117.077455957578
 30
0.0
 10
240.7306171436847
 20
117.2319335470346
 30
0.0
 10
240.9015277524433
 20
117.6024948256734
 30
0.0
 10
241.0014548322728
 20
117.819304945036
 30
0.0
 10
241.337795789361
 20
118.5498864305842
 30
0.0
 10
241.6118040239068
 20
119.1460267513092
 30
0.0
 10
242.0936196619987
 20
120.1978061618128
 30
0.0
 10
242.2667353349078
 20
120.5762782077175
 30
0.0
 10
242.6337642579773
 20
121.3795991065398
 30
0.0
 10
242.8267524387662
 20
121.802471804169
 30
0.0
 10
243.4323870616788
 20
123.1319726919722
 30
0.0
 10
243.8717504895955
 20
124.0990892717181
 30
0.0
 10
244.5818482637846
 20
125.6676408646014
 30
0.0
 10
244.8281278866017
 20
126.2126018376786
 30
0.0
 10
245.3317927658683
 20
127.3283272043921
 30
0.0
 10
245.5891285018214
 20
127.899027916475
 30
0.0
 10
246.376443500427
 20
129.6483093907571
 30
0.0
 10
246.9220448437187
 20
130.8637557474006
 30
0.0
 10
247.7705095837721
 20
132.759431728929
 30
0.0
 10
248.0589803581856
 20
133.4048324560262
 30
0.0
 10
248.6432177305392
 20
134.7136933245994
 30
0.0
 10
248.9382819334675
 20
135.3755775643524
 30
0.0
 10
249.2363080193183
 20
136.0448423033459
 30
0.0
  0
SPLINE
  5
B8
330
1F
100
AcDbEntity
  8
0
  6
SLD-Сплошная
 62
     7
370
    25
100
AcDbSpline
210
0.0
220
0.0
230
1.0
 70
     8
 71
     3
 72
    36
 73
    32
 74
     0
 42
0.00000001
 43
0.00000001
 40
0.0
 40
0.0
 40
0.0
 40
0.0
 40
0.0625000000000012
 40
0.0625000000000012
 40
0.1250000000000023
 40
0.1250000000000023
 40
0.1875000000000029
 40
0.1875000000000029
 40
0.2500000000000036
 40
0.2500000000000036
 40
0.3125000000000043
 40
0.3125000000000043
 40
0.3750000000000038
 40
0.3750000000000038
 40
0.4375000000000034
 40
0.4375000000000034
 40
0.500000000000003
 40
0.500000000000003
 40
0.5625000000000027
 40
0.5625000000000027
 40
0.6250000000000023
 40
0.6250000000000023
 40
0.6875000000000019
 40
0.6875000000000019
 40
0.7500000000000014
 40
0.7500000000000014
 40
0.8750000000000007
 40
0.8750000000000007
 40
0.9375000000000004
 40
0.9375000000000004
 40
1.0
 40
1.0
 40
1.0
 40
1.0
 10
249.240514017953
 20
136.0431810699333
 30
0.0
 10
249.3245548580886
 20
136.2318715015675
 30
0.0
 10
249.3887371496369
 20
136.4247805885735
 30
0.0
 10
249.4794170516208
 20
136.8188134531989
 30
0.0
 10
249.5059227506447
 20
137.0217861475094
 30
0.0
 10
249.5188545951784
 20
137.4275259110582
 30
0.0
 10
249.5056179087369
 20
137.6282854452518
 30
0.0
 10
249.4404614509365
 20
138.0256137278691
 30
0.0
 10
249.3876085915358
 20
138.2241342748708
 30
0.0
 10
249.2455481662038
 20
138.6025310532357
 30
0.0
 10
249.156634370437
 20
138.7833576930497
 30
0.0
 10
248.942567061471
 20
139.1277286247616
 30
0.0
 10
248.8163826526905
 20
139.2916967374343
 30
0.0
 10
248.5375144240473
 20
139.5869642472581
 30
0.0
 10
248.3838363193233
 20
139.7202848655847
 30
0.0
 10
248.0468149481862
 20
139.9566304769182
 30
0.0
 10
247.8654138452878
 20
140.0577481606167
 30
0.0
 10
247.488487506033
 20
140.2195979414083
 30
0.0
 10
247.2900944296552
 20
140.2817516429774
 30
0.0
 10
246.880502631091
 20
140.3639215691917
 30
0.0
 10
246.6740312948507
 20
140.3832705217716
 30
0.0
 10
246.2578630292433
 20
140.3794573967813
 30
0.0
 10
246.0459619963633
 20
140.3555220212366
 30
0.0
 10
245.6363336538184
 20
140.2660291123809
 30
0.0
 10
245.4371072156733
 20
140.2009076147601
 30
0.0
 10
244.856098270029
 20
139.9443704842925
 30
0.0
 10
244.5050528856759
 20
139.6966875462423
 30
0.0
 10
244.0633942443868
 20
139.2399805886667
 30
0.0
 10
243.9324153163103
 20
139.0761412878126
 30
0.0
 10
243.7015360916328
 20
138.7263967862995
 30
0.0
 10
243.6012934479066
 20
138.5388783961606
 30
0.0
 10
243.5204717919646
 20
138.3476515626266
 30
0.0
  0
SPLINE
  5
B9
330
1F
100
AcDbEntity
  8
0
  6
SLD-Сплошная
 62
     7
370
    25
100
AcDbSpline
210
0.0
220
0.0
230
1.0
 70
     8
 71
     3
 72
    34
 73
    30
 74
     0
 42
0.00000001
 43
0.00000001
 40
0.0
 40
0.0
 40
0.0
 40
0.0
 40
0.1250000000000007
 40
0.1250000000000007
 40
0.1875000000000012
 40
0.1875000000000012
 40
0.2500000000000017
 40
0.2500000000000017
 40
0.3750000000000024
 40
0.3750000000000024
 40
0.4375000000000028
 40
0.4375000000000028
 40
0.4687500000000029
 40
0.4687500000000029
 40
0.5000000000000029
 40
0.5000000000000029
 40
0.6250000000000022
 40
0.6250000000000022
 40
0.6875000000000018
 40
0.6875000000000018
 40
0.7187500000000016
 40
0.7187500000000016
 40
0.7500000000000012
 40
0.7500000000000012
 40
0.8750000000000006
 40
0.8750000000000006
 40
0.9375000000000003
 40
0.9375000000000003
 40
1.0
 40
1.0
 40
1.0
 40
1.0
 10
243.5211465508693
 20
138.3473745254464
 30
0.0
 10
242.8798929628513
 20
136.8294056683575
 30
0.0
 10
242.2529664576641
 20
135.3465279582065
 30
0.0
 10
241.3351122958132
 20
133.1743879053666
 30
0.0
 10
241.0329179744272
 20
132.4590890453587
 30
0.0
 10
240.4361579109608
 20
131.0465820292576
 30
0.0
 10
240.1443226395561
 20
130.3560182311242
 30
0.0
 10
239.291373053761
 20
128.3382071324284
 30
0.0
 10
238.7511504230056
 20
127.0611424510253
 30
0.0
 10
237.9850468490561
 20
125.2506612061231
 30
0.0
 10
237.7369125393323
 20
124.6648083194814
 30
0.0
 10
237.3766991960387
 20
123.8136826351499
 30
0.0
 10
237.2586411863215
 20
123.534649568606
 30
0.0
 10
237.0288925607807
 20
122.9916333784762
 30
0.0
 10
236.9168388769004
 20
122.7269118811597
 30
0.0
 10
236.370898133699
 20
121.4369604910136
 30
0.0
 10
235.9790190352238
 20
120.5119700119246
 30
0.0
 10
235.4609439508451
 20
119.2891453053457
 30
0.0
 10
235.2997066300902
 20
118.9091331221991
 30
0.0
 10
235.0766072810644
 20
118.382538822872
 30
0.0
 10
235.0052258479051
 20
118.2139452734126
 30
0.0
 10
234.8702314626565
 20
117.8950510272659
 30
0.0
 10
234.8064316478732
 20
117.7443410860446
 30
0.0
 10
234.5054011108165
 20
117.0339553549875
 30
0.0
 10
234.3226608145415
 20
116.6028191337741
 30
0.0
 10
234.1368968058266
 20
116.1645452100999
 30
0.0
 10
234.0898111680355
 20
116.0533902844458
 30
0.0
 10
234.0264836869414
 20
115.9039920461549
 30
0.0
 10
234.0105683471353
 20
115.8665158905956
 30
0.0
 10
234.0105683472244
 20
115.8665158906043
 30
0.0
  0
LINE
  5
BA
330
1F
100
AcDbEntity
  8
0
  6
SLD-Сплошная
 62
     7
370
    25
100
AcDbLine
 10
271.5707705667
 20
167.7082441403
 30
0.0
 11
271.5707705667
 21
122.6545194914
 31
0.0
  0
SPLINE
  5
BB
330
1F
100
AcDbEntity
  8
0
  6
SLD-Сплошная
 62
     7
370
    25
100
AcDbSpline
210
0.0
220
0.0
230
1.0
 70
     8
 71
     3
 72
    12
 73
     8
 74
     0
 42
0.00000001
 43
0.00000001
 40
0.664943347425479
 40
0.664943347425479
 40
0.664943347425479
 40
0.664943347425479
 40
0.7643885109554315
 40
0.7643885109554315
 40
0.8893885109554315
 40
0.8893885109554315
 40
0.9744451635299525
 40
0.9744451635299525
 40
0.9744451635299525
 40
0.9744451635299525
 10
212.4647143124511
 20
114.7917333510571
 30
0.0
 10
212.005981765577
 20
114.1221564799051
 30
0.0
 10
211.3374114684525
 20
113.5957190161733
 30
0.0
 10
209.6146732499862
 20
112.9686935832188
 30
0.0
 10
208.5173823991426
 20
113.0166023364115
 30
0.0
 10
206.9623645710857
 20
113.741719058202
 30
0.0
 10
206.4175882566758
 20
114.2104839484124
 30
0.0
 10
206.0236980096151
 20
114.7823704980102
 30
0.0
  0
SPLINE
  5
BC
330
1F
100
AcDbEntity
  8
0
  6
SLD-Сплошная
 62
     7
370
    25
100
AcDbSpline
210
0.0
220
0.0
230
1.0
 70
     8
 71
     3
 72
    26
 73
    22
 74
     0
 42
0.00000001
 43
0.00000001
 40
0.0
 40
0.0
 40
0.0
 40
0.0
 40
0.1250000000000001
 40
0.1250000000000001
 40
0.2500000000000002
 40
0.2500000000000002
 40
0.3750000000000002
 40
0.3750000000000002
 40
0.5000000000000003
 40
0.5000000000000003
 40
0.5625000000000003
 40
0.5625000000000003
 40
0.6250000000000004
 40
0.6250000000000004
 40
0.7500000000000003
 40
0.7500000000000003
 40
0.8750000000000002
 40
0.8750000000000002
 40
0.9375000000000002
 40
0.9375000000000002
 40
1.0
 40
1.0
 40
1.0
 40
1.0
 10
211.5707705666636
 20
127.8490152409297
 30
0.0
 10
211.1529419853424
 20
126.872907881729
 30
0.0
 10
210.7542108234418
 20
125.9382953884935
 30
0.0
 10
209.9930847791502
 20
124.1532690598257
 30
0.0
 10
209.6306886041002
 20
123.3028206242513
 30
0.0
 10
208.9457936942497
 20
121.6899938376658
 30
0.0
 10
208.629082883263
 20
120.9388854896465
 30
0.0
 10
208.0461432154656
 20
119.555452025382
 30
0.0
 10
207.7788147978127
 20
118.9217299278735
 30
0.0
 10
207.4140040566146
 20
118.0608834840201
 30
0.0
 10
207.2984922549055
 20
117.7889236088888
 30
0.0
 10
207.0804126040319
 20
117.275911239438
 30
0.0
 10
206.9775125904933
 20
117.0340754775717
 30
0.0
 10
206.6938992662841
 20
116.3656380243025
 30
0.0
 10
206.5381519548906
 20
115.993684674645
 30
0.0
 10
206.2869344944735
 20
115.394379657638
 30
0.0
 10
206.1911676607199
 20
115.1670244843937
 30
0.0
 10
206.0927205849371
 20
114.9370995804986
 30
0.0
 10
206.0675078929879
 20
114.8790251032178
 30
0.0
 10
206.0333171670534
 20
114.8011168469252
 30
0.0
 10
206.0243791914125
 20
114.7813818158769
 30
0.0
 10
206.0243791914126
 20
114.7813818158769
 30
0.0
  0
SPLINE
  5
BD
330
1F
100
AcDbEntity
  8
0
  6
SLD-Сплошная
 62
     7
370
    25
100
AcDbSpline
210
0.0
220
0.0
230
1.0
 70
     8
 71
     3
 72
     8
 73
     4
 74
     0
 42
0.00000001
 43
0.00000001
 40
0.0
 40
0.0
 40
0.0
 40
0.0
 40
1.0
 40
1.0
 40
1.0
 40
1.0
 10
186.5707705666636
 20
162.134478728516
 30
0.0
 10
187.6740181160681
 20
161.0241825356427
 30
0.0
 10
188.7734398121426
 20
159.8661996074641
 30
0.0
 10
189.9113338873575
 20
158.6941184143855
 30
0.0
  0
LINE
  5
BE
330
1F
100
AcDbEntity
  8
0
  6
SLD-Сплошная
 62
     7
370
    25
100
AcDbLine
 10
283.0707705667
 20
175.0505613253
 30
0.0
 11
283.0707705667
 21
175.1289256979
 31
0.0
  0
LINE
  5
BF
330
1F
100
AcDbEntity
  8
0
  6
SLD-Сплошная
 62
     7
370
    25
100
AcDbLine
 10
283.0707705667
 20
161.9909715707
 30
0.0
 11
283.0707705667
 21
175.0505613253
 31
0.0
  0
LINE
  5
C0
330
1F
100
AcDbEntity
  8
0
  6
SLD-Сплошная
 62
     7
370
    25
100
AcDbLine
 10
283.0707705667
 20
158.2409715707
 30
0.0
 11
283.0707705667
 21
161.9909715707
 31
0.0
  0
LINE
  5
C1
330
1F
100
AcDbEntity
  8
0
  6
SLD-Сплошная
 62
     7
370
    25
100
AcDbLine
 10
283.0707705667
 20
145.181381816
 30
0.0
 11
283.0707705667
 21
158.2409715707
 31
0.0
  0
LINE
  5
C2
330
1F
100
AcDbEntity
  8
0
  6
SLD-Сплошная
 62
     7
370
    25
100
AcDbLine
 10
281.0707705667
 20
145.181381816
 30
0.0
 11
281.0707705667
 21
175.1289256979
 31
0.0
  0
LINE
  5
C3
330
1F
100
AcDbEntity
  8
0
  6
SLD-Сплошная
 62
     7
370
    25
100
AcDbLine
 10
283.0707705667
 20
128.3717920614
 30
0.0
 11
283.0707705667
 21
132.1217920614
 31
0.0
  0
LINE
  5
C4
330
1F
100
AcDbEntity
  8
0
  6
SLD-Сплошная
 62
     7
370
    25
100
AcDbLine
 10
283.0707705667
 20
115.3122023067
 30
0.0
 11
283.0707705667
 21
128.3717920614
 31
0.0
  0
LINE
  5
C5
330
1F
100
AcDbEntity
  8
0
  6
SLD-Сплошная
 62
     7
370
    25
100
AcDbLine
 10
283.0707705667
 20
115.2338379341
 30
0.0
 11
283.0707705667
 21
115.3122023067
 31
0.0
  0
LINE
  5
C6
330
1F
100
AcDbEntity
  8
0
  6
SLD-Сплошная
 62
     7
370
    25
100
AcDbLine
 10
283.0707705667
 20
132.1217920614
 30
0.0
 11
283.0707705667
 21
145.181381816
 31
0.0
  0
LINE
  5
C7
330
1F
100
AcDbEntity
  8
0
  6
SLD-Сплошная
 62
     7
370
    25
100
AcDbLine
 10
281.0707705667
 20
115.2338379341
 30
0.0
 11
281.0707705667
 21
145.181381816
 31
0.0
  0
SPLINE
  5
C8
330
1F
100
AcDbEntity
  8
0
  6
SLD-Сплошная
 62
     7
370
    25
100
AcDbSpline
210
0.0
220
0.0
230
1.0
 70
     8
 71
     3
 72
    12
 73
     8
 74
     0
 42
0.00000001
 43
0.00000001
 40
0.181678366126886
 40
0.181678366126886
 40
0.181678366126886
 40
0.181678366126886
 40
0.25
 40
0.25
 40
0.375
 40
0.375
 40
0.4924421992054765
 40
0.4924421992054765
 40
0.4924421992054765
 40
0.4924421992054765
 10
234.0096942437058
 20
115.8675405492577
 30
0.0
 10
234.3717259085887
 20
115.4430079196823
 30
0.0
 10
234.8227319989985
 20
115.094153775269
 30
0.0
 10
236.2538629988374
 20
114.4268064302211
 30
0.0
 10
237.351153849681
 20
114.3788976770284
 30
0.0
 10
239.2120290664667
 20
115.056200865622
 30
0.0
 10
239.9813482573995
 20
115.7310468172799
 30
0.0
 10
240.4289515848355
 20
116.578905391488
 30
0.0
  0
LINE
  5
C9
330
1F
100
AcDbEntity
  8
0
  6
SLD-Сплошная
 62
     7
370
    25
100
AcDbLine
 10
283.0707705667
 20
161.9909715707
 30
0.0
 11
291.0707705667
 21
161.9909715707
 31
0.0
  0
LINE
  5
CA
330
1F
100
AcDbEntity
  8
0
  6
SLD-Сплошная
 62
     7
370
    25
100
AcDbLine
 10
291.0707705667
 20
161.9909715707
 30
0.0
 11
291.0707705667
 21
158.2409715707
 31
0.0
  0
LINE
  5
CB
330
1F
100
AcDbEntity
  8
0
  6
SLD-Сплошная
 62
     7
370
    25
100
AcDbLine
 10
291.0707705667
 20
158.2409715707
 30
0.0
 11
283.0707705667
 21
158.2409715707
 31
0.0
  0
LINE
  5
CC
330
1F
100
AcDbEntity
  8
0
  6
SLD-Сплошная
 62
     7
370
    25
100
AcDbLine
 10
291.0707705667
 20
158.2409715707
 30
0.0
 11
291.0707705667
 21
132.1217920614
 31
0.0
  0
LINE
  5
CD
330
1F
100
AcDbEntity
  8
0
  6
SLD-Сплошная
 62
     7
370
    25
100
AcDbLine
 10
283.0707705667
 20
132.1217920614
 30
0.0
 11
291.0707705667
 21
132.1217920614
 31
0.0
  0
LINE
  5
CE
330
1F
100
AcDbEntity
  8
0
  6
SLD-Сплошная
 62
     7
370
    25
100
AcDbLine
 10
291.0707705667
 20
128.3717920614
 30
0.0
 11
283.0707705667
 21
128.3717920614
 31
0.0
  0
LINE
  5
CF
330
1F
100
AcDbEntity
  8
0
  6
SLD-Сплошная
 62
     7
370
    25
100
AcDbLine
 10
291.0707705667
 20
132.1217920614
 30
0.0
 11
291.0707705667
 21
128.3717920614
 31
0.0
  0
LINE
  5
D0
330
1F
100
AcDbEntity
  8
0
  6
SLD-Сплошная
 62
     7
370
    25
100
AcDbLine
 10
283.0707705667
 20
115.3122023067
 30
0.0
 11
291.0707705667
 21
115.3122023067
 31
0.0
  0
LINE
  5
D1
330
1F
100
AcDbEntity
  8
0
  6
SLD-Сплошная
 62
     7
370
    25
100
AcDbLine
 10
291.0707705667
 20
128.3717920614
 30
0.0
 11
291.0707705667
 21
115.3122023067
 31
0.0
  0
LINE
  5
D2
330
1F
100
AcDbEntity
  8
0
  6
SLD-Сплошная
 62
     7
370
    25
100
AcDbLine
 10
291.0707705667
 20
175.0505613253
 30
0.0
 11
283.0707705667
 21
175.0505613253
 31
0.0
  0
LINE
  5
D3
330
1F
100
AcDbEntity
  8
0
  6
SLD-Сплошная
 62
     7
370
    25
100
AcDbLine
 10
291.0707705667
 20
175.0505613253
 30
0.0
 11
291.0707705667
 21
161.9909715707
 31
0.0
  0
SPLINE
  5
D4
330
1F
100
AcDbEntity
  8
0
  6
SLD-Сплошная
 62
     7
370
    25
100
AcDbSpline
210
0.0
220
0.0
230
1.0
 70
    24
 71
     3
 72
    20
 73
    16
 74
     0
 42
0.00000001
 43
0.00000001
 40
0.0
 40
0.0
 40
0.0
 40
0.0
 40
0.2500000000000019
 40
0.2500000000000019
 40
0.5000000000000039
 40
0.5000000000000039
 40
0.6250000000000049
 40
0.6250000000000049
 40
0.6562500000000036
 40
0.6562500000000036
 40
0.6875000000000022
 40
0.6875000000000022
 40
0.7500000000000018
 40
0.7500000000000018
 40
1.0
 40
1.0
 40
1.0
 40
1.0
 10
310.4425239371087
 20
142.3467333428285
 30
0.0
 10
309.0256119229541
 20
142.3467333428285
 30
0.0
 10
307.5050787204786
 20
142.3467333428285
 30
0.0
 10
304.3322640991454
 20
142.3467333428285
 30
0.0
 10
302.6794791356767
 20
142.3467333428284
 30
0.0
 10
300.1635538300064
 20
142.3467333428286
 30
0.0
 10
299.3211643083901
 20
142.3467333428285
 30
0.0
 10
298.2590373818177
 20
142.3467333428285
 30
0.0
 10
298.0480936014428
 20
142.3467333428285
 30
0.0
 10
297.6356144381688
 20
142.3467333428285
 30
0.0
 10
297.4325091812348
 20
142.3467333428285
 30
0.0
 10
296.8182770978995
 20
142.3467333428285
 30
0.0
 10
296.4069179397239
 20
142.3467333428285
 30
0.0
 10
294.3545535654695
 20
142.3467333428285
 30
0.0
 10
292.7126620660678
 20
142.3467333428285
 30
0.0
 10
291.0707705666637
 20
142.3467333428285
 30
0.0
  0
SPLINE
  5
D5
330
1F
100
AcDbEntity
  8
0
  6
SLD-Сплошная
 62
     7
370
    25
100
AcDbSpline
210
0.0
220
0.0
230
1.0
 70
    24
 71
     3
 72
    20
 73
    16
 74
     0
 42
0.00000001
 43
0.00000001
 40
0.0
 40
0.0
 40
0.0
 40
0.0
 40
0.2500000000000009
 40
0.2500000000000009
 40
0.5000000000000018
 40
0.5000000000000018
 40
0.6250000000000033
 40
0.6250000000000033
 40
0.6562500000000022
 40
0.6562500000000022
 40
0.6875000000000011
 40
0.6875000000000011
 40
0.7500000000000009
 40
0.7500000000000009
 40
1.0
 40
1.0
 40
1.0
 40
1.0
 10
310.4425239371087
 20
148.016030289206
 30
0.0
 10
309.0256119229541
 20
148.016030289206
 30
0.0
 10
307.5050787204786
 20
148.016030289206
 30
0.0
 10
304.3322640991454
 20
148.016030289206
 30
0.0
 10
302.6794791356781
 20
148.0160302892059
 30
0.0
 10
300.1635538300045
 20
148.0160302892061
 30
0.0
 10
299.3211643083901
 20
148.016030289206
 30
0.0
 10
298.2590373818177
 20
148.016030289206
 30
0.0
 10
298.0480936014428
 20
148.016030289206
 30
0.0
 10
297.6356144381689
 20
148.016030289206
 30
0.0
 10
297.4325091812347
 20
148.016030289206
 30
0.0
 10
296.8182770978995
 20
148.016030289206
 30
0.0
 10
296.4069179397239
 20
148.016030289206
 30
0.0
 10
294.3545535654695
 20
148.016030289206
 30
0.0
 10
292.7126620660678
 20
148.016030289206
 30
0.0
 10
291.0707705666637
 20
148.016030289206
 30
0.0
  0
SPLINE
  5
D6
330
1F
100
AcDbEntity
  8
0
  6
SLD-Сплошная
 62
     7
370
    25
100
AcDbSpline
210
0.0
220
0.0
230
1.0
 70
    24
 71
     3
 72
    16
 73
    12
 74
     0
 42
0.00000001
 43
0.00000001
 40
0.0
 40
0.0
 40
0.0
 40
0.0
 40
0.0624999999999977
 40
0.0624999999999977
 40
0.1249999999999953
 40
0.1249999999999953
 40
0.2499999999999941
 40
0.2499999999999941
 40
0.4999999999999951
 40
0.4999999999999951
 40
1.0
 40
1.0
 40
1.0
 40
1.0
 10
298.0182116833999
 20
141.6746338248803
 30
0.0
 10
298.2822473958491
 20
141.6746338248803
 30
0.0
 10
298.5428440822948
 20
141.6746338248803
 30
0.0
 10
299.0670492627992
 20
141.6746338248803
 30
0.0
 10
299.328958952121
 20
141.6746338248802
 30
0.0
 10
300.1136388353883
 20
141.6746338248803
 30
0.0
 10
300.6353633561968
 20
141.6746338248803
 30
0.0
 10
302.1924298295126
 20
141.6746338248803
 30
0.0
 10
303.2196637074081
 20
141.6746338248803
 30
0.0
 10
306.2364474061189
 20
141.6746338248803
 30
0.0
 10
308.159740733282
 20
141.6746338248802
 30
0.0
 10
309.9166721150387
 20
141.6746338248802
 30
0.0
  0
LINE
  5
D7
330
1F
100
AcDbEntity
  8
0
  6
SLD-Сплошная
 62
     7
370
    25
100
AcDbLine
 10
291.0707705667
 20
141.6746338249
 30
0.0
 11
298.0182116834
 21
141.6746338249
 31
0.0
  0
LWPOLYLINE
  5
D8
330
1F
100
AcDbEntity
  8
0
  6
SLD-Сплошная
 62
     7
370
    25
100
AcDbPolyline
 90
        3
 70
   128
 43
0.0
 10
298.0182116834
 20
148.6881298072
 10
294.127644658
 20
148.6881307187
 10
291.0707705667
 20
148.6881298072
  0
SPLINE
  5
D9
330
1F
100
AcDbEntity
  8
0
  6
SLD-Сплошная
 62
     7
370
    25
100
AcDbSpline
210
0.0
220
0.0
230
1.0
 70
    24
 71
     3
 72
    16
 73
    12
 74
     0
 42
0.00000001
 43
0.00000001
 40
0.0
 40
0.0
 40
0.0
 40
0.0
 40
0.5000000000000016
 40
0.5000000000000016
 40
0.7500000000000009
 40
0.7500000000000009
 40
0.875000000000002
 40
0.875000000000002
 40
0.937500000000001
 40
0.937500000000001
 40
1.0
 40
1.0
 40
1.0
 40
1.0
 10
309.9166721150387
 20
148.6881298071542
 30
0.0
 10
308.1597407332823
 20
148.6881298071542
 30
0.0
 10
306.236447406117
 20
148.6881298071542
 30
0.0
 10
303.2196637074089
 20
148.6881298071542
 30
0.0
 10
302.192429829511
 20
148.6881298071542
 30
0.0
 10
300.6353633561976
 20
148.6881298071542
 30
0.0
 10
300.1136388353877
 20
148.6881298071543
 30
0.0
 10
299.3289589521212
 20
148.6881298071542
 30
0.0
 10
299.0670492627987
 20
148.6881298071542
 30
0.0
 10
298.5428440822952
 20
148.6881298071542
 30
0.0
 10
298.2822473958492
 20
148.6881298071542
 30
0.0
 10
298.0182116833999
 20
148.6881298071542
 30
0.0
  0
LINE
  5
DA
330
1F
100
AcDbEntity
  8
0
  6
SLD-Сплошная
 62
     7
370
    25
100
AcDbLine
 10
309.916672115
 20
127.0119195817
 30
0.0
 11
312.8503500936
 21
128.933068975
 31
0.0
  0
SPLINE
  5
DB
330
1F
100
AcDbEntity
  8
0
  6
SLD-Сплошная
 62
     7
370
    25
100
AcDbSpline
210
0.0
220
0.0
230
1.0
 70
     8
 71
     3
 72
    16
 73
    12
 74
     0
 42
0.00000001
 43
0.00000001
 40
0.0
 40
0.0
 40
0.0
 40
0.0
 40
0.4999999999999983
 40
0.4999999999999983
 40
0.7499999999999976
 40
0.7499999999999976
 40
0.8749999999999971
 40
0.8749999999999971
 40
0.9374999999999986
 40
0.9374999999999986
 40
1.0
 40
1.0
 40
1.0
 40
1.0
 10
309.9166721150388
 20
127.0119195817206
 30
0.0
 10
308.1597407332829
 20
125.8613748789554
 30
0.0
 10
306.236447406117
 20
124.9683176923257
 30
0.0
 10
303.2196637074088
 20
124.0686184807074
 30
0.0
 10
302.1924298295116
 20
123.8417683279789
 30
0.0
 10
300.635363356197
 20
123.6145471791463
 30
0.0
 10
300.1136388353883
 20
123.5576217409514
 30
0.0
 10
299.3289589521208
 20
123.5006660949932
 30
0.0
 10
299.0670492627987
 20
123.4864182002871
 30
0.0
 10
298.5428440822951
 20
123.4674170144952
 30
0.0
 10
298.2822473958491
 20
123.4626666368148
 30
0.0
 10
298.0182116833999
 20
123.4626636557144
 30
0.0
  0
LWPOLYLINE
  5
DC
330
1F
100
AcDbEntity
  8
0
  6
SLD-Сплошная
 62
     7
370
    25
100
AcDbPolyline
 90
       12
 70
   128
 43
0.0
 10
309.916672115
 20
148.6881298072
 10
310.7431847129
 20
148.5460818737
 10
311.5027381755
 20
148.1314459523
 10
312.1337979987
 20
147.4778133793
 10
312.5852394684
 20
146.6381375783
 10
312.8204894818
 20
145.6804440892
 10
312.8204894818
 20
144.6823195428
 10
312.5852394684
 20
143.7246260537
 10
312.1337979987
 20
142.8849502528
 10
311.5027381755
 20
142.2313176797
 10
310.7431847129
 20
141.8166817583
 10
309.916672115
 20
141.6746338249
  0
SPLINE
  5
DD
330
1F
100
AcDbEntity
  8
0
  6
SLD-Сплошная
 62
     7
370
    25
100
AcDbSpline
210
0.0
220
0.0
230
1.0
 70
     8
 71
     3
 72
    16
 73
    12
 74
     0
 42
0.00000001
 43
0.00000001
 40
0.0
 40
0.0
 40
0.0
 40
0.0
 40
0.0624999999999993
 40
0.0624999999999993
 40
0.1249999999999988
 40
0.1249999999999988
 40
0.2499999999999976
 40
0.2499999999999976
 40
0.4999999999999984
 40
0.4999999999999984
 40
1.0
 40
1.0
 40
1.0
 40
1.0
 10
298.0182116833997
 20
166.9000999763196
 30
0.0
 10
298.2822473958489
 20
166.9000969952189
 30
0.0
 10
298.5428440822947
 20
166.8953466175385
 30
0.0
 10
299.0670492627991
 20
166.8763454317471
 30
0.0
 10
299.328958952121
 20
166.8620975370405
 30
0.0
 10
300.1136388353877
 20
166.8051418910829
 30
0.0
 10
300.6353633561965
 20
166.748216452889
 30
0.0
 10
302.1924298295123
 20
166.5209953040523
 30
0.0
 10
303.2196637074088
 20
166.2941451513256
 30
0.0
 10
306.236447406117
 20
165.3944459397101
 30
0.0
 10
308.1597407332836
 20
164.5013887530781
 30
0.0
 10
309.9166721150387
 20
163.3508440503134
 30
0.0
  0
LINE
  5
DE
330
1F
100
AcDbEntity
  8
0
  6
SLD-Сплошная
 62
     7
370
    25
100
AcDbLine
 10
312.8503500936
 20
161.429694657
 30
0.0
 11
309.916672115
 21
163.3508440503
 31
0.0
  0
ARC
  5
DF
330
1F
100
AcDbEntity
  8
0
  6
SLD-Сплошная
 62
     7
370
    25
100
AcDbCircle
 10
298.0182116834
 20
145.181381816
 30
0.0
 40
21.99999999999986
100
AcDbArc
 50
27.9163390054
 51
47.6088660557
  0
LINE
  5
E0
330
1F
100
AcDbEntity
  8
0
  6
SLD-Сплошная
 62
     7
370
    25
100
AcDbLine
 10
317.4581190906
 20
145.181381816
 30
0.0
 11
317.4581190906
 21
155.481381816
 31
0.0
  0
LINE
  5
E1
330
1F
100
AcDbEntity
  8
0
  6
SLD-Сплошная
 62
     7
370
    25
100
AcDbLine
 10
317.4581190906
 20
134.881381816
 30
0.0
 11
317.4581190906
 21
145.181381816
 31
0.0
  0
ARC
  5
E2
330
1F
100
AcDbEntity
  8
0
  6
SLD-Сплошная
 62
     7
370
    25
100
AcDbCircle
 10
298.0182116834
 20
145.181381816
 30
0.0
 40
21.99999999999986
100
AcDbArc
 50
312.3911339443
 51
332.0836609946
  0
LWPOLYLINE
  5
E3
330
1F
100
AcDbEntity
  8
0
  6
SLD-Сплошная
 62
     7
370
    25
100
AcDbPolyline
 90
        3
 70
   128
 43
0.0
 10
298.0182116834
 20
123.4626636557
 10
294.127644658
 20
123.4626638029
 10
291.0707705667
 20
123.4626636557
  0
LINE
  5
E4
330
1F
100
AcDbEntity
  8
0
  6
SLD-Сплошная
 62
     7
370
    25
100
AcDbLine
 10
291.0707705667
 20
166.9000999763
 30
0.0
 11
298.0182116834
 21
166.9000999763
 31
0.0
  0
LWPOLYLINE
  5
E5
330
1F
100
AcDbEntity
  8
0
  6
SLD-Сплошная
 62
     7
370
    25
100
AcDbPolyline
 90
       11
 70
   128
 43
0.0
 10
310.4425239371
 20
148.0160302892
 10
311.1753306811
 20
147.8772927178
 10
311.8364051952
 20
147.4746606039
 10
312.3610369001
 20
146.847546384
 10
312.697871189
 20
146.0573363673
 10
312.813936375
 20
145.181381816
 10
312.697871189
 20
144.3054272647
 10
312.3610369001
 20
143.515217248
 10
311.8364051952
 20
142.8881030281
 10
311.1753306811
 20
142.4854709142
 10
310.4425239371
 20
142.3467333428
  0
ARC
  5
E6
330
1F
100
AcDbEntity
  8
0
  6
SLD-Сплошная
 62
     7
370
    25
100
AcDbCircle
 10
152.4707705667
 20
193.1813818159
 30
0.0
 40
4.700000000000017
100
AcDbArc
 50
56.0
 51
180.0
  0
LINE
  5
E7
330
1F
100
AcDbEntity
  8
0
  6
SLD-Сплошная
 62
     7
370
    25
100
AcDbLine
 10
184.1907495105
 20
177.4552102222
 30
0.0
 11
155.098977213
 21
197.0778584069
 31
0.0
  0
LINE
  5
E8
330
1F
100
AcDbEntity
  8
0
  6
SLD-Сплошная
 62
     7
370
    25
100
AcDbLine
 10
147.7707705667
 20
193.1813818159
 30
0.0
 11
147.7707705667
 21
177.4552102222
 31
0.0
  0
CIRCLE
  5
E9
330
1F
100
AcDbEntity
  8
0
  6
SLD-Сплошная
 62
     7
370
    25
100
AcDbCircle
 10
152.4707705667
 20
193.1813818159
 30
0.0
 40
2.099999999999994
  0
LINE
  5
EA
330
1F
100
AcDbEntity
  8
0
  6
SLD-Сплошная
 62
     7
370
    25
100
AcDbLine
 10
186.5707705667
 20
103.2813818159
 30
0.0
 11
186.5707705667
 21
110.539501474
 31
0.0
  0
LINE
  5
EB
330
1F
100
AcDbEntity
  8
0
  6
SLD-Сплошная
 62
     7
370
    25
100
AcDbLine
 10
133.9707705667
 20
103.2813818159
 30
0.0
 11
133.9707705667
 21
110.0813818159
 31
0.0
  0
SPLINE
  5
EC
330
1F
100
AcDbEntity
  8
0
  6
SLD-Сплошная
 62
     7
370
    25
100
AcDbSpline
210
0.0
220
0.0
230
1.0
 70
     8
 71
     3
 72
    20
 73
    16
 74
     0
 42
0.00000001
 43
0.00000001
 40
0.0
 40
0.0
 40
0.0
 40
0.0
 40
0.2500000000000012
 40
0.2500000000000012
 40
0.5000000000000023
 40
0.5000000000000023
 40
0.6250000000000029
 40
0.6250000000000029
 40
0.6562500000000036
 40
0.6562500000000036
 40
0.6875000000000041
 40
0.6875000000000041
 40
0.7500000000000032
 40
0.7500000000000032
 40
1.0
 40
1.0
 40
1.0
 40
1.0
 10
310.4425239371087
 20
126.2089211705538
 30
0.0
 10
309.0256119229541
 20
125.2810416704805
 30
0.0
 10
307.5050787204786
 20
124.5135423723462
 30
0.0
 10
304.3322640991454
 20
123.3337195457768
 30
0.0
 10
302.6794791356775
 20
122.9225994541651
 30
0.0
 10
300.1635538300054
 20
122.5886639526296
 30
0.0
 10
299.3211643083898
 20
122.5243226962624
 30
0.0
 10
298.2590373818179
 20
122.5031244380447
 30
0.0
 10
298.0480936014427
 20
122.5028055250959
 30
0.0
 10
297.6356144381685
 20
122.5028040011805
 30
0.0
 10
297.4325091812346
 20
122.5028056199601
 30
0.0
 10
296.8182770978996
 20
122.5028067420181
 30
0.0
 10
296.4069179397239
 20
122.5028060688243
 30
0.0
 10
294.3545535654695
 20
122.5028060688243
 30
0.0
 10
292.7126620660678
 20
122.5028060688243
 30
0.0
 10
291.0707705666637
 20
122.5028060688243
 30
0.0
  0
SPLINE
  5
ED
330
1F
100
AcDbEntity
  8
0
  6
SLD-Сплошная
 62
     7
370
    25
100
AcDbSpline
210
0.0
220
0.0
230
1.0
 70
     8
 71
     3
 72
    20
 73
    16
 74
     0
 42
0.00000001
 43
0.00000001
 40
0.0
 40
0.0
 40
0.0
 40
0.0
 40
0.2500000000000019
 40
0.2500000000000019
 40
0.5000000000000039
 40
0.5000000000000039
 40
0.6250000000000049
 40
0.6250000000000049
 40
0.6562500000000036
 40
0.6562500000000036
 40
0.6875000000000022
 40
0.6875000000000022
 40
0.7500000000000018
 40
0.7500000000000018
 40
1.0
 40
1.0
 40
1.0
 40
1.0
 10
310.4425239371087
 20
164.1538424614802
 30
0.0
 10
309.0256119229541
 20
165.0817219615534
 30
0.0
 10
307.5050787204786
 20
165.8492212596878
 30
0.0
 10
304.3322640991454
 20
167.0290440862572
 30
0.0
 10
302.6794791356773
 20
167.4401641778675
 30
0.0
 10
300.1635538300059
 20
167.7740996794052
 30
0.0
 10
299.3211643083901
 20
167.838440935772
 30
0.0
 10
298.2590373818177
 20
167.8596391939894
 30
0.0
 10
298.0480936014428
 20
167.8599581069381
 30
0.0
 10
297.6356144381688
 20
167.8599596308535
 30
0.0
 10
297.4325091812348
 20
167.8599580120738
 30
0.0
 10
296.8182770978995
 20
167.8599568900159
 30
0.0
 10
296.4069179397239
 20
167.8599575632096
 30
0.0
 10
294.3545535654695
 20
167.8599575632096
 30
0.0
 10
292.7126620660678
 20
167.8599575632096
 30
0.0
 10
291.0707705666637
 20
167.8599575632096
 30
0.0
  0
LINE
  5
EE
330
1F
100
AcDbEntity
  8
0
  6
SLD-Сплошная
 62
     7
370
    25
100
AcDbLine
 10
312.813936375
 20
162.600898478
 30
0.0
 11
310.4425239371
 21
164.1538424615
 31
0.0
  0
LINE
  5
EF
330
1F
100
AcDbEntity
  8
0
  6
SLD-Сплошная
 62
     7
370
    25
100
AcDbLine
 10
310.4425239371
 20
126.2089211706
 30
0.0
 11
312.813936375
 21
127.761865154
 31
0.0
  0
LINE
  5
F0
330
1F
100
AcDbEntity
  8
0
  6
SLD-Сплошная
 62
     7
370
    25
100
AcDbLine
 10
130.9707705667
 20
110.5409427304
 30
0.0
 11
133.9707705667
 21
110.5409427304
 31
0.0
  0
LINE
  5
F1
330
1F
100
AcDbEntity
  8
0
  6
SLD-Сплошная
 62
     7
370
    25
100
AcDbLine
 10
130.9707705667
 20
111.3274307909
 30
0.0
 11
128.183562623
 21
111.3274307909
 31
0.0
  0
LINE
  5
F2
330
1F
100
AcDbEntity
  8
0
  6
SLD-Сплошная
 62
     7
370
    25
100
AcDbLine
 10
128.183562623
 20
111.3274307909
 30
0.0
 11
128.183562623
 21
179.0353328408
 31
0.0
  0
LINE
  5
F3
330
1F
100
AcDbEntity
  8
0
  6
SLD-Сплошная
 62
     7
370
    25
100
AcDbLine
 10
128.183562623
 20
179.0353328408
 30
0.0
 11
133.9707705667
 21
179.0353328408
 31
0.0
  0
LINE
  5
F4
330
1F
100
AcDbEntity
  8
0
  6
SLD-Сплошная
 62
     7
370
    25
100
AcDbLine
 10
133.9707705667
 20
110.5409427304
 30
0.0
 11
133.9707705667
 21
179.0353328408
 31
0.0
  0
ARC
  5
F5
330
1F
100
AcDbEntity
  8
0
  6
SLD-Сплошная
 62
     7
370
    25
100
AcDbCircle
 10
125.0036344169
 20
168.2104985572
 30
0.0
 40
1.00299568408837
100
AcDbArc
 50
328.4385833216
 51
354.5055334825
  0
SPLINE
  5
F6
330
1F
100
AcDbEntity
  8
0
  6
SLD-Сплошная
 62
     7
370
    25
100
AcDbSpline
210
0.0
220
0.0
230
1.0
 70
     8
 71
     3
 72
    14
 73
    10
 74
     0
 42
0.00000001
 43
0.00000001
 40
0.0
 40
0.0
 40
0.0
 40
0.0
 40
0.25
 40
0.25
 40
0.5
 40
0.5
 40
0.75
 40
0.75
 40
1.0
 40
1.0
 40
1.0
 40
1.0
 10
126.4072249329268
 20
170.1813818158769
 30
0.0
 10
126.3725826743589
 20
169.976904435755
 30
0.0
 10
126.3374352408287
 20
169.776787464777
 30
0.0
 10
126.2661716698202
 20
169.3849398242284
 30
0.0
 10
126.2298533515809
 20
169.1923703313207
 30
0.0
 10
126.1600087458621
 20
168.8359666860564
 30
0.0
 10
126.1256777574031
 20
168.6679068453133
 30
0.0
 10
126.0605431186689
 20
168.3640505611288
 30
0.0
 10
126.0301624798158
 20
168.2300542190347
 30
0.0
 10
126.0020217874616
 20
168.1144621023607
 30
0.0
  0
ARC
  5
F7
330
1F
100
AcDbEntity
  8
0
  6
SLD-Сплошная
 62
     7
370
    25
100
AcDbCircle
 10
273.9707705667
 20
145.1813818159
 30
0.0
 40
149.6662954709577
100
AcDbArc
 50
166.9267695458
 51
170.3843374027
  0
ARC
  5
F8
330
1F
100
AcDbEntity
  8
0
  6
SLD-Сплошная
 62
     7
370
    25
100
AcDbCircle
 10
273.9707705667
 20
145.1813818159
 30
0.0
 40
149.6662954709577
100
AcDbArc
 50
189.6156625973
 51
193.0732304542
  0
SPLINE
  5
F9
330
1F
100
AcDbEntity
  8
0
  6
SLD-Сплошная
 62
     7
370
    25
100
AcDbSpline
210
0.0
220
0.0
230
1.0
 70
     8
 71
     3
 72
    10
 73
     6
 74
     0
 42
0.00000001
 43
0.00000001
 40
0.0
 40
0.0
 40
0.0
 40
0.0
 40
0.5
 40
0.5
 40
1.0
 40
1.0
 40
1.0
 40
1.0
 10
126.4072249329269
 20
120.1813818158769
 30
0.0
 10
126.3657325384665
 20
120.4262924096129
 30
0.0
 10
126.3235177557274
 20
120.6650008857607
 30
0.0
 10
126.2376840865039
 20
121.1303258453215
 30
0.0
 10
126.1947389605921
 20
121.3530507924117
 30
0.0
 10
126.1533155757191
 20
121.5575286048676
 30
0.0
  0
ARC
  5
FA
330
1F
100
AcDbEntity
  8
0
  6
SLD-Сплошная
 62
     7
370
    25
100
AcDbCircle
 10
123.1243261418
 20
121.347494359
 30
0.0
 40
3.036262731611387
100
AcDbArc
 50
3.966617925
 51
25.6989218292
  0
SPLINE
  5
FB
330
1F
100
AcDbEntity
  8
0
  6
SLD-Сплошная
 62
     7
370
    25
100
AcDbSpline
210
0.0
220
0.0
230
1.0
 70
    24
 71
     3
 72
    16
 73
    12
 74
     0
 42
0.00000001
 43
0.00000001
 40
0.0
 40
0.0
 40
0.0
 40
0.0
 40
0.25
 40
0.25
 40
0.5
 40
0.5
 40
0.75
 40
0.75
 40
0.875
 40
0.875
 40
1.0
 40
1.0
 40
1.0
 40
1.0
 10
126.2297125681738
 20
182.3319219478737
 30
0.0
 10
126.1094794248362
 20
182.5020832677107
 30
0.0
 10
125.9734716930926
 20
182.6945697527104
 30
0.0
 10
125.677986720026
 20
183.112758212342
 30
0.0
 10
125.5179323596149
 20
183.3392769613091
 30
0.0
 10
125.2101355126706
 20
183.7748899400921
 30
0.0
 10
125.0631598556522
 20
183.9828989057392
 30
0.0
 10
124.9034037067191
 20
184.2089956075297
 30
0.0
 10
124.8604491540119
 20
184.2697875254549
 30
0.0
 10
124.8021680942355
 20
184.3522704563487
 30
0.0
 10
124.7869148481221
 20
184.3738577859185
 30
0.0
 10
124.7869148481221
 20
184.3738577859185
 30
0.0
  0
SPLINE
  5
FC
330
1F
100
AcDbEntity
  8
0
  6
SLD-Сплошная
 62
     7
370
    25
100
AcDbSpline
210
0.0
220
0.0
230
1.0
 70
    24
 71
     3
 72
    13
 73
     9
 74
     0
 42
0.00000001
 43
0.00000001
 40
0.0
 40
0.0
 40
0.0
 40
0.0
 40
0.0047705890524875
 40
0.1039927315144149
 40
0.222506994717258
 40
0.3962893134965339
 40
0.6804053792977208
 40
1.0
 40
1.0
 40
1.0
 40
1.0
 10
144.9441326138698
 20
199.0304739579736
 30
0.0
 10
144.9426945801189
 20
199.0304739579736
 30
0.0
 10
144.9113472860789
 20
199.0304739579736
 30
0.0
 10
145.0395036897895
 20
199.0304739579738
 30
0.0
 10
145.3941760795854
 20
199.0304739579737
 30
0.0
 10
146.2188167117889
 20
199.0304739579738
 30
0.0
 10
147.5320752534909
 20
199.0304739579737
 30
0.0
 10
148.6162876151298
 20
199.0304739579737
 30
0.0
 10
149.1902520093756
 20
199.0304739579737
 30
0.0
  0
LINE
  5
FD
330
1F
100
AcDbEntity
  8
0
  6
SLD-Сплошная
 62
     7
370
    25
100
AcDbLine
 10
133.9707705667
 20
180.729689662
 30
0.0
 11
142.8260019551
 21
186.8059332228
 31
0.0
  0
ARC
  5
FE
330
1F
100
AcDbEntity
  8
0
  6
SLD-Сплошная
 62
     7
370
    25
100
AcDbCircle
 10
152.4707705667
 20
193.1813818159
 30
0.0
 40
6.20000000000004
100
AcDbArc
 50
15.2938657321
 51
70.6309519824
  0
LINE
  5
FF
330
1F
100
AcDbEntity
  8
0
  6
SLD-Сплошная
 62
     7
370
    25
100
AcDbLine
 10
147.7707705667
 20
186.9813818159
 30
0.0
 11
143.3917889975
 21
186.9813818159
 31
0.0
  0
ARC
  5
100
330
1F
100
AcDbEntity
  8
0
  6
SLD-Сплошная
 62
     7
370
    25
100
AcDbCircle
 10
143.3917889975
 20
185.9813818159
 30
0.0
 40
1.000000000000002
100
AcDbArc
 50
90.0
 51
124.4569628019
  0
LINE
  5
101
330
1F
100
AcDbEntity
  8
0
  6
SLD-Сплошная
 62
     7
370
    25
100
AcDbLine
 10
149.1902520094
 20
199.030473958
 30
0.0
 11
154.5270101231
 21
199.030473958
 31
0.0
  0
LINE
  5
102
330
1F
100
AcDbEntity
  8
0
  6
SLD-Сплошная
 62
     7
370
    25
100
AcDbLine
 10
133.9707705667
 20
180.729689662
 30
0.0
 11
133.9707705667
 21
179.0353328408
 31
0.0
  0
LINE
  5
103
330
1F
100
AcDbEntity
  8
0
  6
SLD-Сплошная
 62
     7
370
    25
100
AcDbLine
 10
130.9707705667
 20
111.3274307909
 30
0.0
 11
130.9707705667
 21
106.3813818159
 31
0.0
  0
LINE
  5
104
330
1F
100
AcDbEntity
  8
0
  6
SLD-Сплошная
 62
     7
370
    25
100
AcDbLine
 10
130.9707705667
 20
106.3813818159
 30
0.0
 11
130.9707705667
 21
103.9663617918
 31
0.0
  0
LINE
  5
105
330
1F
100
AcDbEntity
  8
0
  6
SLD-Сплошная
 62
     7
370
    25
100
AcDbLine
 10
127.9707705667
 20
102.8952001611
 30
0.0
 11
127.9707705667
 21
103.9663617918
 31
0.0
  0
LINE
  5
106
330
1F
100
AcDbEntity
  8
0
  6
SLD-Сплошная
 62
     7
370
    25
100
AcDbLine
 10
130.9707705667
 20
103.9663617918
 30
0.0
 11
130.9707705667
 21
102.8952001611
 31
0.0
  0
LINE
  5
107
330
1F
100
AcDbEntity
  8
0
  6
SLD-Сплошная
 62
     7
370
    25
100
AcDbLine
 10
157.444792173
 20
208.688507927
 30
0.0
 11
155.5365812217
 21
210.2024460849
 31
0.0
  0
LINE
  5
108
330
1F
100
AcDbEntity
  8
0
  6
SLD-Сплошная
 62
     7
370
    25
100
AcDbLine
 10
154.5270101231
 20
199.030473958
 30
0.0
 11
157.444792173
 21
208.688507927
 31
0.0
  0
ARC
  5
109
330
1F
100
AcDbEntity
  8
0
  6
SLD-Сплошная
 62
     7
370
    25
100
AcDbCircle
 10
135.6235858719
 20
212.0659417785
 30
0.0
 40
20.00000000000001
100
AcDbArc
 50
319.324558221
 51
354.6537233145
  0
LINE
  5
10A
330
1F
100
AcDbEntity
  8
0
  6
SLD-Сплошная
 62
     7
370
    25
100
AcDbLine
 10
133.9707705667
 20
110.0813818159
 30
0.0
 11
133.9707705667
 21
110.5409427304
 31
0.0
  0
ARC
  5
10B
330
1F
100
AcDbEntity
  8
0
  6
SLD-Сплошная
 62
     7
370
    25
100
AcDbCircle
 10
152.4707705667
 20
193.1813818159
 30
0.0
 40
6.20000000000004
100
AcDbArc
 50
104.4517105949
 51
109.3690480176
  0
LINE
  5
10C
330
1F
100
AcDbEntity
  8
0
  6
SLD-Сплошная
 62
     7
370
    25
100
AcDbLine
 10
359.8985817123
 20
197.8813818159
 30
0.0
 11
355.8985817123
 21
197.8813818159
 31
0.0
  0
LINE
  5
10D
330
1F
100
AcDbEntity
  8
0
  6
SLD-Сплошная
 62
     7
370
    25
100
AcDbLine
 10
384.4985817123
 20
197.8813818159
 30
0.0
 11
380.4985817123
 21
197.8813818159
 31
0.0
  0
LINE
  5
10E
330
1F
100
AcDbEntity
  8
0
  6
SLD-Сплошная
 62
     7
370
    25
100
AcDbLine
 10
355.8985817123
 20
193.1813818159
 30
0.0
 11
355.8985817123
 21
177.4552102222
 31
0.0
  0
LINE
  5
10F
330
1F
100
AcDbEntity
  8
0
  6
SLD-Сплошная
 62
     7
370
    25
100
AcDbLine
 10
359.8985817123
 20
193.1813818159
 30
0.0
 11
359.8985817123
 21
178.9452678481
 31
0.0
  0
LINE
  5
110
330
1F
100
AcDbEntity
  8
0
  6
SLD-Сплошная
 62
     7
370
    25
100
AcDbLine
 10
359.8985817123
 20
197.8813818159
 30
0.0
 11
359.8985817123
 21
193.1813818159
 31
0.0
  0
LINE
  5
111
330
1F
100
AcDbEntity
  8
0
  6
SLD-Сплошная
 62
     7
370
    25
100
AcDbLine
 10
355.8985817123
 20
197.8813818159
 30
0.0
 11
355.8985817123
 21
193.1813818159
 31
0.0
  0
LINE
  5
112
330
1F
100
AcDbEntity
  8
0
  6
SLD-Сплошная
 62
     7
370
    25
100
AcDbLine
 10
380.4985817123
 20
193.1813818159
 30
0.0
 11
380.4985817123
 21
197.8813818159
 31
0.0
  0
LINE
  5
113
330
1F
100
AcDbEntity
  8
0
  6
SLD-Сплошная
 62
     7
370
    25
100
AcDbLine
 10
384.4985817123
 20
197.8813818159
 30
0.0
 11
384.4985817123
 21
193.1813818159
 31
0.0
  0
LINE
  5
114
330
1F
100
AcDbEntity
  8
0
  6
SLD-Сплошная
 62
     7
370
    25
100
AcDbLine
 10
384.4985817123
 20
193.1813818159
 30
0.0
 11
384.4985817123
 21
177.4552102222
 31
0.0
  0
LINE
  5
115
330
1F
100
AcDbEntity
  8
0
  6
SLD-Сплошная
 62
     7
370
    25
100
AcDbLine
 10
380.4985817123
 20
178.9452678481
 30
0.0
 11
380.4985817123
 21
193.1813818159
 31
0.0
  0
LINE
  5
116
330
1F
100
AcDbEntity
  8
0
  6
SLD-Сплошная
 62
     7
370
    25
100
AcDbLine
 10
360.1985817123
 20
179.3896858102
 30
0.0
 11
359.8985817123
 21
179.3896858102
 31
0.0
  0
LINE
  5
117
330
1F
100
AcDbEntity
  8
0
  6
SLD-Сплошная
 62
     7
370
    25
100
AcDbLine
 10
359.8985817123
 20
187.4420636201
 30
0.0
 11
360.1985817123
 21
187.4420636201
 31
0.0
  0
LINE
  5
118
330
1F
100
AcDbEntity
  8
0
  6
SLD-Сплошная
 62
     7
370
    25
100
AcDbLine
 10
380.1985817123
 20
187.4420636201
 30
0.0
 11
380.4985817123
 21
187.4420636201
 31
0.0
  0
LINE
  5
119
330
1F
100
AcDbEntity
  8
0
  6
SLD-Сплошная
 62
     7
370
    25
100
AcDbLine
 10
359.8985817123
 20
189.1001387653
 30
0.0
 11
360.1985817123
 21
189.1001387653
 31
0.0
  0
LINE
  5
11A
330
1F
100
AcDbEntity
  8
0
  6
SLD-Сплошная
 62
     7
370
    25
100
AcDbLine
 10
380.1985817123
 20
189.1001387653
 30
0.0
 11
380.4985817123
 21
189.1001387653
 31
0.0
  0
SPLINE
  5
11B
330
1F
100
AcDbEntity
  8
0
  6
SLD-Сплошная
 62
     7
370
    25
100
AcDbSpline
210
0.0
220
0.0
230
1.0
 70
    24
 71
     3
 72
    19
 73
    15
 74
     0
 42
0.00000001
 43
0.00000001
 40
0.0
 40
0.0
 40
0.0
 40
0.0
 40
0.0448353256987435
 40
0.0897834317529781
 40
0.2117990050631943
 40
0.3465643435091973
 40
0.391034777242274
 40
0.4249939925470252
 40
0.4598518221051659
 40
0.5051560035285623
 40
0.6322388306151266
 40
0.6831585107275356
 40
0.768381274104393
 40
0.9999999999999999
 40
0.9999999999999999
 40
0.9999999999999999
 40
0.9999999999999999
 10
375.198581712285
 20
181.9622981111075
 30
0.0
 10
375.198581712285
 20
181.9690902032488
 30
0.0
 10
375.198581712285
 20
181.9826914725989
 30
0.0
 10
375.198581712285
 20
182.0146434064942
 30
0.0
 10
375.198581712285
 20
182.0591354678774
 30
0.0
 10
375.198581712285
 20
182.1030836041763
 30
0.0
 10
375.198581712285
 20
182.1335845395951
 30
0.0
 10
375.198581712285
 20
182.1490588382701
 30
0.0
 10
375.198581712285
 20
182.1637704842553
 30
0.0
 10
375.198581712285
 20
182.1904167852166
 30
0.0
 10
375.198581712285
 20
182.2174640865084
 30
0.0
 10
375.198581712285
 20
182.2463099883328
 30
0.0
 10
375.198581712285
 20
182.2836429320602
 30
0.0
 10
375.198581712285
 20
182.3115333694118
 30
0.0
 10
375.198581712285
 20
182.3319219478737
 30
0.0
  0
SPLINE
  5
11C
330
1F
100
AcDbEntity
  8
0
  6
SLD-Сплошная
 62
     7
370
    25
100
AcDbSpline
210
0.0
220
0.0
230
1.0
 70
     8
 71
     3
 72
    26
 73
    22
 74
     0
 42
0.00000001
 43
0.00000001
 40
0.0
 40
0.0
 40
0.0
 40
0.0
 40
0.1250000000000006
 40
0.1250000000000006
 40
0.2500000000000012
 40
0.2500000000000012
 40
0.3750000000000018
 40
0.3750000000000018
 40
0.437500000000002
 40
0.437500000000002
 40
0.5000000000000022
 40
0.5000000000000022
 40
0.5625000000000024
 40
0.5625000000000024
 40
0.6250000000000026
 40
0.6250000000000026
 40
0.7500000000000018
 40
0.7500000000000018
 40
0.8750000000000009
 40
0.8750000000000009
 40
1.0
 40
1.0
 40
1.0
 40
1.0
 10
380.198581712285
 20
182.3319219478737
 30
0.0
 10
380.198581712285
 20
182.5020832677108
 30
0.0
 10
380.1732483789517
 20
182.6945697527104
 30
0.0
 10
380.0239150456183
 20
183.112758212342
 30
0.0
 10
379.898581712285
 20
183.3392769613091
 30
0.0
 10
379.498581712285
 20
183.774889940092
 30
0.0
 10
379.2210730617659
 20
183.9828989057392
 30
0.0
 10
378.7020419198974
 20
184.2089956075297
 30
0.0
 10
378.512782895717
 20
184.2697875254549
 30
0.0
 10
378.1151497596223
 20
184.3522704563486
 30
0.0
 10
377.9069150456183
 20
184.3738577859185
 30
0.0
 10
377.4902483789517
 20
184.3738577859185
 30
0.0
 10
377.2820136649477
 20
184.3522704563487
 30
0.0
 10
376.8843805288531
 20
184.2697875254549
 30
0.0
 10
376.6951215046726
 20
184.2089956075297
 30
0.0
 10
376.176090362804
 20
183.9828989057392
 30
0.0
 10
375.898581712285
 20
183.774889940092
 30
0.0
 10
375.498581712285
 20
183.3392769613091
 30
0.0
 10
375.3732483789516
 20
183.112758212342
 30
0.0
 10
375.2239150456184
 20
182.6945697527104
 30
0.0
 10
375.198581712285
 20
182.5020832677107
 30
0.0
 10
375.198581712285
 20
182.3319219478737
 30
0.0
  0
SPLINE
  5
11D
330
1F
100
AcDbEntity
  8
0
  6
SLD-Сплошная
 62
     7
370
    25
100
AcDbSpline
210
0.0
220
0.0
230
1.0
 70
    24
 71
     3
 72
    20
 73
    16
 74
     0
 42
0.00000001
 43
0.00000001
 40
0.0
 40
0.0
 40
0.0
 40
0.0
 40
0.1250000000000035
 40
0.1250000000000035
 40
0.250000000000007
 40
0.250000000000007
 40
0.3750000000000105
 40
0.3750000000000105
 40
0.5000000000000141
 40
0.5000000000000141
 40
0.6250000000000177
 40
0.6250000000000177
 40
0.7500000000000211
 40
0.7500000000000211
 40
1.0
 40
1.0
 40
1.0
 40
1.0
 10
380.198581712285
 20
181.9622981111075
 30
0.0
 10
380.198581712285
 20
181.9767474270806
 30
0.0
 10
380.198581712285
 20
181.9885886660725
 30
0.0
 10
380.198581712285
 20
182.0173630495169
 30
0.0
 10
380.198581712285
 20
182.0359652861995
 30
0.0
 10
380.198581712285
 20
182.0783633101871
 30
0.0
 10
380.198581712285
 20
182.1005765741004
 30
0.0
 10
380.1985817122851
 20
182.1313646645017
 30
0.0
 10
380.1985817122851
 20
182.1401763376343
 30
0.0
 10
380.1985817122851
 20
182.1574384233306
 30
0.0
 10
380.198581712285
 20
182.1667694907666
 30
0.0
 10
380.198581712285
 20
182.1928574066137
 30
0.0
 10
380.198581712285
 20
182.2085759081187
 30
0.0
 10
380.1985817122849
 20
182.25977569204
 30
0.0
 10
380.198581712285
 20
182.299624316704
 30
0.0
 10
380.198581712285
 20
182.3319219478737
 30
0.0
  0
SPLINE
  5
11E
330
1F
100
AcDbEntity
  8
0
  6
SLD-Сплошная
 62
     7
370
    25
100
AcDbSpline
210
0.0
220
0.0
230
1.0
 70
    24
 71
     3
 72
    19
 73
    15
 74
     0
 42
0.00000001
 43
0.00000001
 40
0.0
 40
0.0
 40
0.0
 40
0.0
 40
0.044835325683877
 40
0.08978343164152
 40
0.2117990047389592
 40
0.3465643432605637
 40
0.3910347769834333
 40
0.4249939925383859
 40
0.4598518215713041
 40
0.5051560031418516
 40
0.6322388300185177
 40
0.6831585099568144
 40
0.7683812740963604
 40
0.9999999999999999
 40
0.9999999999999999
 40
0.9999999999999999
 40
0.9999999999999999
 10
360.198581712285
 20
181.9622981111075
 30
0.0
 10
360.198581712285
 20
181.9690902032458
 30
0.0
 10
360.198581712285
 20
181.9826914725774
 30
0.0
 10
360.198581712285
 20
182.0146434065059
 30
0.0
 10
360.198581712285
 20
182.0591354679855
 30
0.0
 10
360.198581712285
 20
182.1030836040802
 30
0.0
 10
360.198581712285
 20
182.1335845397064
 30
0.0
 10
360.198581712285
 20
182.1490588380576
 30
0.0
 10
360.198581712285
 20
182.1637704844662
 30
0.0
 10
360.198581712285
 20
182.1904167850024
 30
0.0
 10
360.198581712285
 20
182.2174640864698
 30
0.0
 10
360.198581712285
 20
182.2463099884956
 30
0.0
 10
360.198581712285
 20
182.2836429317151
 30
0.0
 10
360.198581712285
 20
182.3115333692942
 30
0.0
 10
360.198581712285
 20
182.3319219478737
 30
0.0
  0
SPLINE
  5
11F
330
1F
100
AcDbEntity
  8
0
  6
SLD-Сплошная
 62
     7
370
    25
100
AcDbSpline
210
0.0
220
0.0
230
1.0
 70
     8
 71
     3
 72
    26
 73
    22
 74
     0
 42
0.00000001
 43
0.00000001
 40
0.0
 40
0.0
 40
0.0
 40
0.0
 40
0.125000000000001
 40
0.125000000000001
 40
0.2500000000000019
 40
0.2500000000000019
 40
0.3750000000000029
 40
0.3750000000000029
 40
0.4375000000000033
 40
0.4375000000000033
 40
0.5000000000000037
 40
0.5000000000000037
 40
0.5625000000000037
 40
0.5625000000000037
 40
0.6250000000000038
 40
0.6250000000000038
 40
0.7500000000000024
 40
0.7500000000000024
 40
0.8750000000000012
 40
0.8750000000000012
 40
1.0
 40
1.0
 40
1.0
 40
1.0
 10
365.198581712285
 20
182.3319219478737
 30
0.0
 10
365.198581712285
 20
182.5020832677108
 30
0.0
 10
365.1732483789517
 20
182.6945697527104
 30
0.0
 10
365.0239150456183
 20
183.112758212342
 30
0.0
 10
364.898581712285
 20
183.3392769613091
 30
0.0
 10
364.498581712285
 20
183.7748899400921
 30
0.0
 10
364.221073061766
 20
183.9828989057392
 30
0.0
 10
363.7020419198975
 20
184.2089956075297
 30
0.0
 10
363.512782895717
 20
184.2697875254548
 30
0.0
 10
363.1151497596223
 20
184.3522704563487
 30
0.0
 10
362.9069150456183
 20
184.3738577859185
 30
0.0
 10
362.4902483789517
 20
184.3738577859185
 30
0.0
 10
362.2820136649477
 20
184.3522704563487
 30
0.0
 10
361.8843805288531
 20
184.2697875254549
 30
0.0
 10
361.6951215046726
 20
184.2089956075297
 30
0.0
 10
361.176090362804
 20
183.9828989057392
 30
0.0
 10
360.898581712285
 20
183.774889940092
 30
0.0
 10
360.498581712285
 20
183.3392769613091
 30
0.0
 10
360.3732483789517
 20
183.112758212342
 30
0.0
 10
360.2239150456184
 20
182.6945697527104
 30
0.0
 10
360.198581712285
 20
182.5020832677107
 30
0.0
 10
360.198581712285
 20
182.3319219478737
 30
0.0
  0
SPLINE
  5
120
330
1F
100
AcDbEntity
  8
0
  6
SLD-Сплошная
 62
     7
370
    25
100
AcDbSpline
210
0.0
220
0.0
230
1.0
 70
    24
 71
     3
 72
    20
 73
    16
 74
     0
 42
0.00000001
 43
0.00000001
 40
0.0
 40
0.0
 40
0.0
 40
0.0
 40
0.125
 40
0.125
 40
0.25
 40
0.25
 40
0.375
 40
0.375
 40
0.5
 40
0.5
 40
0.625
 40
0.625
 40
0.75
 40
0.75
 40
1.0
 40
1.0
 40
1.0
 40
1.0
 10
365.198581712285
 20
181.9622981111075
 30
0.0
 10
365.198581712285
 20
181.9767474270806
 30
0.0
 10
365.198581712285
 20
181.9885886660725
 30
0.0
 10
365.1985817122851
 20
182.0173630495169
 30
0.0
 10
365.1985817122851
 20
182.0359652861995
 30
0.0
 10
365.198581712285
 20
182.0783633101871
 30
0.0
 10
365.198581712285
 20
182.1005765741003
 30
0.0
 10
365.198581712285
 20
182.1313646645017
 30
0.0
 10
365.198581712285
 20
182.1401763376342
 30
0.0
 10
365.198581712285
 20
182.1574384233306
 30
0.0
 10
365.198581712285
 20
182.1667694907666
 30
0.0
 10
365.198581712285
 20
182.1928574066136
 30
0.0
 10
365.198581712285
 20
182.2085759081188
 30
0.0
 10
365.1985817122851
 20
182.25977569204
 30
0.0
 10
365.198581712285
 20
182.299624316704
 30
0.0
 10
365.198581712285
 20
182.3319219478737
 30
0.0
  0
LINE
  5
121
330
1F
100
AcDbEntity
  8
0
  6
SLD-Сплошная
 62
     7
370
    25
100
AcDbLine
 10
375.1985817123
 20
181.9622981111
 30
0.0
 11
375.1985817123
 21
170.1813818159
 31
0.0
  0
LINE
  5
122
330
1F
100
AcDbEntity
  8
0
  6
SLD-Сплошная
 62
     7
370
    25
100
AcDbLine
 10
380.1985817123
 20
181.9622981111
 30
0.0
 11
380.1985817123
 21
170.1813818159
 31
0.0
  0
LINE
  5
123
330
1F
100
AcDbEntity
  8
0
  6
SLD-Сплошная
 62
     7
370
    25
100
AcDbLine
 10
360.1985817123
 20
181.9622981111
 30
0.0
 11
360.1985817123
 21
170.1813818159
 31
0.0
  0
LINE
  5
124
330
1F
100
AcDbEntity
  8
0
  6
SLD-Сплошная
 62
     7
370
    25
100
AcDbLine
 10
365.1985817123
 20
181.9622981111
 30
0.0
 11
365.1985817123
 21
170.1813818159
 31
0.0
  0
ARC
  5
125
330
1F
100
AcDbEntity
  8
0
  6
SLD-Сплошная
 62
     7
370
    25
100
AcDbCircle
 10
377.6985817123
 20
170.1813818159
 30
0.0
 40
2.500000000000057
100
AcDbArc
 50
180.0
 51
202.3696507309
  0
ARC
  5
126
330
1F
100
AcDbEntity
  8
0
  6
SLD-Сплошная
 62
     7
370
    25
100
AcDbCircle
 10
377.6985817123
 20
170.1813818159
 30
0.0
 40
2.5
100
AcDbArc
 50
304.231860801
 51
0.0
  0
ARC
  5
127
330
1F
100
AcDbEntity
  8
0
  6
SLD-Сплошная
 62
     7
370
    25
100
AcDbCircle
 10
377.7019700818
 20
170.1926763808
 30
0.0
 40
2.507448592629104
100
AcDbArc
 50
202.5788467934
 51
304.0226647385
  0
ARC
  5
128
330
1F
100
AcDbEntity
  8
0
  6
SLD-Сплошная
 62
     7
370
    25
100
AcDbCircle
 10
362.6985817123
 20
170.1813818159
 30
0.0
 40
2.500000000000008
100
AcDbArc
 50
180.0
 51
235.7681391988
  0
ARC
  5
129
330
1F
100
AcDbEntity
  8
0
  6
SLD-Сплошная
 62
     7
370
    25
100
AcDbCircle
 10
362.6985817123
 20
170.1813818159
 30
0.0
 40
2.500000000000064
100
AcDbArc
 50
337.6303492692
 51
0.0
  0
ARC
  5
12A
330
1F
100
AcDbEntity
  8
0
  6
SLD-Сплошная
 62
     7
370
    25
100
AcDbCircle
 10
362.6951933428
 20
170.1926763808
 30
0.0
 40
2.507448592630445
100
AcDbArc
 50
235.9773352614
 51
337.4211532066
  0
ARC
  5
12B
330
1F
100
AcDbEntity
  8
0
  6
SLD-Сплошная
 62
     7
370
    25
100
AcDbCircle
 10
377.7050145389
 20
120.1599390605
 30
0.0
 40
2.506524547259732
100
AcDbArc
 50
33.8886469901
 51
179.5098414779
  0
ARC
  5
12C
330
1F
100
AcDbEntity
  8
0
  6
SLD-Сплошная
 62
     7
370
    25
100
AcDbCircle
 10
377.6985817123
 20
120.1813818159
 30
0.0
 40
2.500000000000079
100
AcDbArc
 50
0.0
 51
33.398488468
  0
LINE
  5
12D
330
1F
100
AcDbEntity
  8
0
  6
SLD-Сплошная
 62
     7
370
    25
100
AcDbLine
 10
375.1985817123
 20
106.3813818159
 30
0.0
 11
375.1985817123
 21
120.1813818159
 31
0.0
  0
LINE
  5
12E
330
1F
100
AcDbEntity
  8
0
  6
SLD-Сплошная
 62
     7
370
    25
100
AcDbLine
 10
380.1985817123
 20
106.3813818159
 30
0.0
 11
380.1985817123
 21
120.1813818159
 31
0.0
  0
ARC
  5
12F
330
1F
100
AcDbEntity
  8
0
  6
SLD-Сплошная
 62
     7
370
    25
100
AcDbCircle
 10
362.6985817123
 20
106.3813818159
 30
0.0
 40
2.5
100
AcDbArc
 50
180.0
 51
0.0
  0
ARC
  5
130
330
1F
100
AcDbEntity
  8
0
  6
SLD-Сплошная
 62
     7
370
    25
100
AcDbCircle
 10
362.6985817123
 20
120.1813818159
 30
0.0
 40
2.500000000000079
100
AcDbArc
 50
146.601511532
 51
180.0
  0
ARC
  5
131
330
1F
100
AcDbEntity
  8
0
  6
SLD-Сплошная
 62
     7
370
    25
100
AcDbCircle
 10
362.6921488857
 20
120.1599390605
 30
0.0
 40
2.506524547259734
100
AcDbArc
 50
0.4901585221
 51
146.1113530099
  0
LINE
  5
132
330
1F
100
AcDbEntity
  8
0
  6
SLD-Сплошная
 62
     7
370
    25
100
AcDbLine
 10
360.1985817123
 20
106.3813818159
 30
0.0
 11
360.1985817123
 21
120.1813818159
 31
0.0
  0
LINE
  5
133
330
1F
100
AcDbEntity
  8
0
  6
SLD-Сплошная
 62
     7
370
    25
100
AcDbLine
 10
365.1985817123
 20
106.3813818159
 30
0.0
 11
365.1985817123
 21
120.1813818159
 31
0.0
  0
ARC
  5
134
330
1F
100
AcDbEntity
  8
0
  6
SLD-Сплошная
 62
     7
370
    25
100
AcDbCircle
 10
377.6985817123
 20
106.3813818159
 30
0.0
 40
2.500000000000057
100
AcDbArc
 50
180.0
 51
0.0
  0
ARC
  5
135
330
1F
100
AcDbEntity
  8
0
  6
SLD-Сплошная
 62
     7
370
    25
100
AcDbCircle
 10
370.1985817123
 20
145.1813818159
 30
0.0
 40
35.3
100
AcDbArc
 50
106.4564288745
 51
253.5435711255
  0
ARC
  5
136
330
1F
100
AcDbEntity
  8
0
  6
SLD-Сплошная
 62
     7
370
    25
100
AcDbCircle
 10
370.1985817123
 20
344.3952876519
 30
0.0
 40
160.6014622397941
100
AcDbArc
 50
268.2159241105
 51
271.7840758895
  0
ARC
  5
137
330
1F
100
AcDbEntity
  8
0
  6
SLD-Сплошная
 62
     7
370
    25
100
AcDbCircle
 10
370.1985817123
 20
145.1813818159
 30
0.0
 40
35.3
100
AcDbArc
 50
286.4564288745
 51
73.5435711255
  0
ARC
  5
138
330
1F
100
AcDbEntity
  8
0
  6
SLD-Сплошная
 62
     7
370
    25
100
AcDbCircle
 10
370.1985817123
 20
145.1813818159
 30
0.0
 40
34.40930106822066
100
AcDbArc
 50
261.644795141
 51
278.355204859
  0
LINE
  5
139
330
1F
100
AcDbEntity
  8
0
  6
SLD-Сплошная
 62
     7
370
    25
100
AcDbLine
 10
380.1985817123
 20
182.3319219479
 30
0.0
 11
380.1985817123
 21
199.030473958
 31
0.0
  0
LINE
  5
13A
330
1F
100
AcDbEntity
  8
0
  6
SLD-Сплошная
 62
     7
370
    25
100
AcDbLine
 10
375.1985817123
 20
182.3319219479
 30
0.0
 11
375.1985817123
 21
199.030473958
 31
0.0
  0
SPLINE
  5
13B
330
1F
100
AcDbEntity
  8
0
  6
SLD-Сплошная
 62
     7
370
    25
100
AcDbSpline
210
0.0
220
0.0
230
1.0
 70
    24
 71
     3
 72
    34
 73
    30
 74
     0
 42
0.00000001
 43
0.00000001
 40
0.0
 40
0.0
 40
0.0
 40
0.0
 40
0.125
 40
0.125
 40
0.2499999999999999
 40
0.2499999999999999
 40
0.3124999999999999
 40
0.3124999999999999
 40
0.3749999999999998
 40
0.3749999999999998
 40
0.4374999999999997
 40
0.4374999999999997
 40
0.4999999999999997
 40
0.4999999999999997
 40
0.5312499999999999
 40
0.5312499999999999
 40
0.5625000000000001
 40
0.5625000000000001
 40
0.6250000000000001
 40
0.6250000000000001
 40
0.6875000000000001
 40
0.6875000000000001
 40
0.75
 40
0.75
 40
0.8125
 40
0.8125
 40
0.875
 40
0.875
 40
1.0
 40
1.0
 40
1.0
 40
1.0
 10
375.198581712285
 20
199.0304739579737
 30
0.0
 10
375.198581712285
 20
199.0304739579738
 30
0.0
 10
375.2400706527661
 20
199.0304739579737
 30
0.0
 10
375.412050994463
 20
199.0304739579737
 30
0.0
 10
375.5401829469053
 20
199.0304739579738
 30
0.0
 10
375.8181601720739
 20
199.0304739579738
 30
0.0
 10
375.9265325483186
 20
199.0304739579738
 30
0.0
 10
376.1785412463543
 20
199.0304739579738
 30
0.0
 10
376.3206400695659
 20
199.0304739579738
 30
0.0
 10
376.6514129643882
 20
199.0304739579737
 30
0.0
 10
376.8337009779413
 20
199.0304739579737
 30
0.0
 10
377.2474239554666
 20
199.0304739579737
 30
0.0
 10
377.4695789711577
 20
199.0304739579738
 30
0.0
 10
377.8110381225751
 20
199.0304739579738
 30
0.0
 10
377.9236475255755
 20
199.0304739579738
 30
0.0
 10
378.1428074434259
 20
199.0304739579737
 30
0.0
 10
378.2511708995149
 20
199.0304739579737
 30
0.0
 10
378.558829908907
 20
199.0304739579737
 30
0.0
 10
378.7443662864053
 20
199.0304739579737
 30
0.0
 10
379.072739019254
 20
199.0304739579737
 30
0.0
 10
379.2146856744564
 20
199.0304739579737
 30
0.0
 10
379.4670915655581
 20
199.0304739579737
 30
0.0
 10
379.5755721626817
 20
199.0304739579738
 30
0.0
 10
379.7620713507606
 20
199.0304739579738
 30
0.0
 10
379.8408374905993
 20
199.0304739579738
 30
0.0
 10
379.9742781041841
 20
199.0304739579738
 30
0.0
 10
380.0289004634103
 20
199.0304739579738
 30
0.0
 10
380.1575294760574
 20
199.0304739579738
 30
0.0
 10
380.1985817122849
 20
199.0304739579741
 30
0.0
 10
380.198581712285
 20
199.0304739579741
 30
0.0
  0
LINE
  5
13C
330
1F
100
AcDbEntity
  8
0
  6
SLD-Сплошная
 62
     7
370
    25
100
AcDbLine
 10
360.1985817123
 20
182.3319219479
 30
0.0
 11
360.1985817123
 21
199.030473958
 31
0.0
  0
SPLINE
  5
13D
330
1F
100
AcDbEntity
  8
0
  6
SLD-Сплошная
 62
     7
370
    25
100
AcDbSpline
210
0.0
220
0.0
230
1.0
 70
    24
 71
     3
 72
    30
 73
    26
 74
     0
 42
0.00000001
 43
0.00000001
 40
0.0
 40
0.0
 40
0.0
 40
0.0
 40
0.1249999999999993
 40
0.1249999999999993
 40
0.2499999999999986
 40
0.2499999999999986
 40
0.3749999999999979
 40
0.3749999999999979
 40
0.4374999999999977
 40
0.4374999999999977
 40
0.4999999999999976
 40
0.4999999999999976
 40
0.5312499999999973
 40
0.5312499999999973
 40
0.5624999999999972
 40
0.5624999999999972
 40
0.6249999999999977
 40
0.6249999999999977
 40
0.6874999999999981
 40
0.6874999999999981
 40
0.7499999999999984
 40
0.7499999999999984
 40
0.8749999999999992
 40
0.8749999999999992
 40
1.0
 40
1.0
 40
1.0
 40
1.0
 10
360.198581712285
 20
199.0304739579737
 30
0.0
 10
360.198581712285
 20
199.0304739579738
 30
0.0
 10
360.2400612068767
 20
199.0304739579738
 30
0.0
 10
360.4120024147685
 20
199.0304739579738
 30
0.0
 10
360.5401055389761
 20
199.0304739579738
 30
0.0
 10
360.9106465559376
 20
199.0304739579737
 30
0.0
 10
361.1565603159442
 20
199.0304739579738
 30
0.0
 10
361.6510280469439
 20
199.0304739579738
 30
0.0
 10
361.8324291226505
 20
199.0304739579736
 30
0.0
 10
362.2432696319678
 20
199.0304739579736
 30
0.0
 10
362.4687877358498
 20
199.0304739579737
 30
0.0
 10
362.8088902428569
 20
199.0304739579737
 30
0.0
 10
362.920773177307
 20
199.0304739579737
 30
0.0
 10
363.1417170711696
 20
199.0304739579737
 30
0.0
 10
363.2509632854645
 20
199.0304739579732
 30
0.0
 10
363.5574419477947
 20
199.0304739579732
 30
0.0
 10
363.7416047873089
 20
199.0304739579737
 30
0.0
 10
364.0715852969095
 20
199.0304739579737
 30
0.0
 10
364.2134648924147
 20
199.0304739579738
 30
0.0
 10
364.4652556735621
 20
199.0304739579738
 30
0.0
 10
364.5746365926253
 20
199.0304739579738
 30
0.0
 10
364.8550764348897
 20
199.0304739579737
 30
0.0
 10
364.985051060898
 20
199.0304739579738
 30
0.0
 10
365.1575112942381
 20
199.0304739579738
 30
0.0
 10
365.198581712285
 20
199.0304739579737
 30
0.0
 10
365.198581712285
 20
199.0304739579737
 30
0.0
  0
LINE
  5
13E
330
1F
100
AcDbEntity
  8
0
  6
SLD-Сплошная
 62
     7
370
    25
100
AcDbLine
 10
365.1985817123
 20
182.3319219479
 30
0.0
 11
365.1985817123
 21
199.030473958
 31
0.0
  0
ARC
  5
13F
330
1F
100
AcDbEntity
  8
0
  6
SLD-Сплошная
 62
     7
370
    25
100
AcDbCircle
 10
370.1985817123
 20
134.4073775722
 30
0.0
 40
31.51217741109848
100
AcDbArc
 50
255.0182040421
 51
284.9817959579
  0
LINE
  5
140
330
1F
100
AcDbEntity
  8
0
  6
SLD-Сплошная
 62
     7
370
    25
100
AcDbLine
 10
375.1985817123
 20
198.2936005389
 30
0.0
 11
365.1985817123
 21
198.2936005389
 31
0.0
  0
LINE
  5
141
330
1F
100
AcDbEntity
  8
0
  6
SLD-Сплошная
 62
     7
370
    25
100
AcDbLine
 10
375.1985817123
 20
199.185203394
 30
0.0
 11
365.1985817123
 21
199.185203392
 31
0.0
  0
LINE
  5
142
330
1F
100
AcDbEntity
  8
0
  6
SLD-Сплошная
 62
     7
370
    25
100
AcDbLine
 10
363.1985817123
 20
210.2024460849
 30
0.0
 11
377.1985817123
 21
210.2024460849
 31
0.0
  0
LINE
  5
143
330
1F
100
AcDbEntity
  8
0
  6
SLD-Сплошная
 62
     7
370
    25
100
AcDbLine
 10
363.1985817123
 20
199.030473958
 30
0.0
 11
363.1985817123
 21
210.2024460849
 31
0.0
  0
LINE
  5
144
330
1F
100
AcDbEntity
  8
0
  6
SLD-Сплошная
 62
     7
370
    25
100
AcDbLine
 10
377.1985817123
 20
199.030473958
 30
0.0
 11
377.1985817123
 21
210.2024460849
 31
0.0
  0
SPLINE
  5
145
330
1F
100
AcDbEntity
  8
0
  6
SLD-Сплошная
 62
     7
370
    25
100
AcDbSpline
210
0.0
220
0.0
230
1.0
 70
     8
 71
     3
 72
    15
 73
    11
 74
     0
 42
0.00000001
 43
0.00000001
 40
0.0
 40
0.0
 40
0.0
 40
0.0
 40
0.1251901241009911
 40
0.2501850772128849
 40
0.3750936152090168
 40
0.5000000000000009
 40
0.6249063847909858
 40
0.7498149227871197
 40
0.874809875899013
 40
1.0
 40
1.0
 40
1.0
 40
1.0
 10
60.49077631410469
 20
122.5028060688243
 30
0.0
 10
60.68441703668855
 20
122.3216114373462
 30
0.0
 10
61.07139659661071
 20
121.9595046562209
 30
0.0
 10
61.77568541754071
 20
121.5802587903597
 30
0.0
 10
62.53278718133964
 20
121.3372272985988
 30
0.0
 10
63.32542478729343
 20
121.2534593153978
 30
0.0
 10
64.11806239324721
 20
121.3372272985987
 30
0.0
 10
64.87516415704616
 20
121.5802587903597
 30
0.0
 10
65.57945297797616
 20
121.9595046562208
 30
0.0
 10
65.9664325378983
 20
122.3216114373462
 30
0.0
 10
66.16007326048216
 20
122.5028060688243
 30
0.0
  0
SPLINE
  5
146
330
1F
100
AcDbEntity
  8
0
  6
SLD-Сплошная
 62
     7
370
    25
100
AcDbSpline
210
0.0
220
0.0
230
1.0
 70
     8
 71
     3
 72
    15
 73
    11
 74
     0
 42
0.00000001
 43
0.00000001
 40
0.0
 40
0.0
 40
0.0
 40
0.0
 40
0.1251901241009911
 40
0.250185077212887
 40
0.3750936152090203
 40
0.5000000000000048
 40
0.6249063847909894
 40
0.7498149227871217
 40
0.8748098758990146
 40
1.0
 40
1.0
 40
1.0
 40
1.0
 10
40.64684904010102
 20
148.016030289206
 30
0.0
 10
40.46565440862295
 20
147.8223895666221
 30
0.0
 10
40.10354762749753
 20
147.4354100067
 30
0.0
 10
39.72430176163634
 20
146.73112118577
 30
0.0
 10
39.48127026987533
 20
145.9740194219711
 30
0.0
 10
39.39750228667434
 20
145.1813818160173
 30
0.0
 10
39.48127026987533
 20
144.3887442100635
 30
0.0
 10
39.72430176163631
 20
143.6316424462645
 30
0.0
 10
40.10354762749745
 20
142.9273536253345
 30
0.0
 10
40.46565440862282
 20
142.5403740654124
 30
0.0
 10
40.64684904010087
 20
142.3467333428285
 30
0.0
  0
SPLINE
  5
147
330
1F
100
AcDbEntity
  8
0
  6
SLD-Сплошная
 62
     7
370
    25
100
AcDbSpline
210
0.0
220
0.0
230
1.0
 70
     8
 71
     3
 72
    18
 73
    14
 74
     0
 42
0.00000001
 43
0.00000001
 40
0.0
 40
0.0
 40
0.0
 40
0.0
 40
0.0956416638725695
 40
0.1930796050310045
 40
0.2663741958775043
 40
0.320414145711183
 40
0.3764525940934579
 40
0.5004958315003556
 40
0.6430638099641818
 40
0.7537691540495688
 40
0.8613065039128509
 40
0.9557255869290182
 40
1.0
 40
1.0
 40
1.0
 40
1.0
 10
94.51518576525596
 20
150.2451252354236
 30
0.0
 10
94.5658597578053
 20
150.2996830161971
 30
0.0
 10
94.66815946768705
 20
150.4098232452208
 30
0.0
 10
94.62854083673517
 20
150.7171710938713
 30
0.0
 10
94.53375952881353
 20
151.0611404710966
 30
0.0
 10
94.35070122609774
 20
151.596783184944
 30
0.0
 10
94.09459790962292
 20
152.2559740741346
 30
0.0
 10
93.68195932062143
 20
153.1508744672302
 30
0.0
 10
93.0951762996537
 20
154.1712998040936
 30
0.0
 10
92.44635932439003
 20
155.1197888182556
 30
0.0
 10
91.79250310474235
 20
155.9481785530299
 30
0.0
 10
91.21174013408576
 20
156.6177116913319
 30
0.0
 10
90.81653122204885
 20
157.0105986145743
 30
0.0
 10
90.69037070901472
 20
157.1360178910406
 30
0.0
  0
SPLINE
  5
148
330
1F
100
AcDbEntity
  8
0
  6
SLD-Сплошная
 62
     7
370
    25
100
AcDbSpline
210
0.0
220
0.0
230
1.0
 70
     8
 71
     3
 72
    18
 73
    14
 74
     0
 42
0.00000001
 43
0.00000001
 40
0.0
 40
0.0
 40
0.0
 40
0.0
 40
0.0320812057122202
 40
0.063761219939858
 40
0.0970418893336473
 40
0.1602752567658164
 40
0.2379424920154138
 40
0.3325128488036914
 40
0.4658129929513175
 40
0.6205010614329886
 40
0.7367865453133188
 40
0.8631125055255267
 40
1.0
 40
1.0
 40
1.0
 40
1.0
 10
93.65274275203139
 20
144.9047145449528
 30
0.0
 10
93.84592512619571
 20
145.0774220062598
 30
0.0
 10
94.22987403254565
 20
145.4206771358965
 30
0.0
 10
94.60940668612186
 20
145.9926309584269
 30
0.0
 10
94.91634945973779
 20
146.6607089508739
 30
0.0
 10
95.05286825209856
 20
147.3502932518204
 30
0.0
 10
95.06808774438251
 20
147.9485457867271
 30
0.0
 10
95.03694513689753
 20
148.6135412940569
 30
0.0
 10
94.9382173436654
 20
149.7485965767607
 30
0.0
 10
94.7349654407218
 20
151.2531305923745
 30
0.0
 10
94.38954392267144
 20
153.0299445025463
 30
0.0
 10
93.9268395435681
 20
154.9472441571582
 30
0.0
 10
93.4059573119187
 20
156.460284620642
 30
0.0
 10
93.13506590292278
 20
157.2471604979839
 30
0.0
  0
SPLINE
  5
149
330
1F
100
AcDbEntity
  8
0
  6
SLD-Сплошная
 62
     7
370
    25
100
AcDbSpline
210
0.0
220
0.0
230
1.0
 70
     8
 71
     3
 72
    18
 73
    14
 74
     0
 42
0.00000001
 43
0.00000001
 40
0.0
 40
0.0
 40
0.0
 40
0.0
 40
0.1305475949606339
 40
0.2473339030309831
 40
0.3511979426820991
 40
0.4414069048072068
 40
0.5411309679640388
 40
0.6180305359045254
 40
0.6792088385359889
 40
0.7662178223643588
 40
0.8489567086013731
 40
0.9288594995261514
 40
1.0
 40
1.0
 40
1.0
 40
1.0
 10
33.5157634912215
 20
157.2471060565682
 30
0.0
 10
33.26200451660389
 20
156.5143087030542
 30
0.0
 10
32.78123581580754
 20
155.125959652043
 30
0.0
 10
32.34083896774811
 20
153.371152736833
 30
0.0
 10
32.04989899038496
 20
151.9704086122597
 30
0.0
 10
31.85369180937374
 20
150.788918401626
 30
0.0
 10
31.73030063620216
 20
149.8371806203039
 30
0.0
 10
31.65505802019126
 20
149.0854533334207
 30
0.0
 10
31.61017740601213
 20
148.3897819920023
 30
0.0
 10
31.60892521865981
 20
147.6111882695476
 30
0.0
 10
31.76799726518174
 20
146.6913286030938
 30
0.0
 10
32.1301884747829
 20
145.7589776253722
 30
0.0
 10
32.67129640935352
 20
145.2318557459107
 30
0.0
 10
32.92615505894511
 20
144.9835844458856
 30
0.0
  0
SPLINE
  5
14A
330
1F
100
AcDbEntity
  8
0
  6
SLD-Сплошная
 62
     7
370
    25
100
AcDbSpline
210
0.0
220
0.0
230
1.0
 70
     8
 71
     3
 72
    17
 73
    13
 74
     0
 42
0.00000001
 43
0.00000001
 40
0.0
 40
0.0
 40
0.0
 40
0.0
 40
0.0617009368187715
 40
0.1661867302266657
 40
0.2877557415038517
 40
0.444643656641651
 40
0.5807096111199096
 40
0.6960177311063049
 40
0.7587801963881395
 40
0.8400222131805909
 40
0.9400947889090987
 40
1.0
 40
1.0
 40
1.0
 40
1.0
 10
35.84602142866221
 20
157.0216738733739
 30
0.0
 10
35.68094993801526
 20
156.8519482292501
 30
0.0
 10
35.2363425673876
 20
156.3948052540081
 30
0.0
 10
34.59760447318575
 20
155.6310833649362
 30
0.0
 10
33.85587925244221
 20
154.6390843270248
 30
0.0
 10
33.1763700094447
 20
153.5387489444363
 30
0.0
 10
32.63412873045569
 20
152.457725661373
 30
0.0
 10
32.26543207280538
 20
151.5112198390978
 30
0.0
 10
32.07679707217284
 20
150.9276029121439
 30
0.0
 10
32.00630779898902
 20
150.6077881596377
 30
0.0
 10
32.00157534307923
 20
150.3425973750432
 30
0.0
 10
32.09445879289455
 20
150.2647260489713
 30
0.0
 10
32.12923988831201
 20
150.2355663867519
 30
0.0
  0
SPLINE
  5
14B
330
1F
100
AcDbEntity
  8
0
  6
SLD-Сплошная
 62
     7
370
    25
100
AcDbSpline
210
0.0
220
0.0
230
1.0
 70
     8
 71
     3
 72
    20
 73
    16
 74
     0
 42
0.00000001
 43
0.00000001
 40
0.0
 40
0.0
 40
0.0
 40
0.0
 40
0.1184532559198259
 40
0.2143978192353822
 40
0.2880906017506581
 40
0.3473147113301317
 40
0.4344042185483831
 40
0.5325298759194627
 40
0.6402644494057799
 40
0.712281948065271
 40
0.7729773218757102
 40
0.8226582237688191
 40
0.8688677828456486
 40
0.9433531465384155
 40
1.0
 40
1.0
 40
1.0
 40
1.0
 10
63.32542478729357
 20
114.4966339256908
 30
0.0
 10
64.49894216213843
 20
114.537161511852
 30
0.0
 10
66.62298311017166
 20
114.6105155621428
 30
0.0
 10
69.43204822742493
 20
115.1118571238054
 30
0.0
 10
71.61361714783901
 20
115.6815127261267
 30
0.0
 10
73.66271340989812
 20
116.3713189656467
 30
0.0
 10
75.87006000260337
 20
117.3004796668943
 30
0.0
 10
78.38513137565396
 20
118.6502582173395
 30
0.0
 10
80.61019284667206
 20
120.1589655477197
 30
0.0
 10
82.39648801488424
 20
121.6182957547015
 30
0.0
 10
83.66857339429536
 20
122.8060255488099
 30
0.0
 10
84.7000061475767
 20
123.8786923538398
 30
0.0
 10
85.75877618684216
 20
125.0969734237486
 30
0.0
 10
86.80385268156637
 20
126.4110642722187
 30
0.0
 10
87.45009670478602
 20
127.4565065029076
 30
0.0
 10
87.72926296368226
 20
127.9081194942039
 30
0.0
  0
SPLINE
  5
14C
330
1F
100
AcDbEntity
  8
0
  6
SLD-Сплошная
 62
     7
370
    25
100
AcDbSpline
210
0.0
220
0.0
230
1.0
 70
     8
 71
     3
 72
    17
 73
    13
 74
     0
 42
0.00000001
 43
0.00000001
 40
0.0
 40
0.0
 40
0.0
 40
0.0
 40
0.0344768688926179
 40
0.1630671387292715
 40
0.2996889944521921
 40
0.393062806209737
 40
0.4864428071917012
 40
0.5802260970953659
 40
0.6629952454318192
 40
0.7607270387485943
 40
0.8729312524423718
 40
0.9999999999999999
 40
0.9999999999999999
 40
0.9999999999999999
 40
0.9999999999999999
 10
38.82186090666978
 20
128.0232629843699
 30
0.0
 10
38.99285459446036
 20
127.7472101440229
 30
0.0
 10
39.80161282293012
 20
126.4415478765567
 30
0.0
 10
41.57334348453298
 20
124.2054556254782
 30
0.0
 10
44.00583127738526
 20
121.7769013755063
 30
0.0
 10
46.46530380286767
 20
119.8473276814606
 30
0.0
 10
48.76012244605268
 20
118.3666894816164
 30
0.0
 10
51.11052437208805
 20
117.1494117624032
 30
0.0
 10
53.61083500154557
 20
116.1264130833081
 30
0.0
 10
56.38264965517181
 20
115.2858176684083
 30
0.0
 10
59.67637460693305
 20
114.6335449105374
 30
0.0
 10
62.05972059625084
 20
114.544122677715
 30
0.0
 10
63.32542478729357
 20
114.4966339390413
 30
0.0
  0
SPLINE
  5
14D
330
1F
100
AcDbEntity
  8
0
  6
SLD-Сплошная
 62
     7
370
    25
100
AcDbSpline
210
0.0
220
0.0
230
1.0
 70
     8
 71
     3
 72
    21
 73
    17
 74
     0
 42
0.00000001
 43
0.00000001
 40
0.0
 40
0.0
 40
0.0
 40
0.0
 40
0.1026957907885273
 40
0.196004204551548
 40
0.2790182457094867
 40
0.3508851304032523
 40
0.4113193387138702
 40
0.4607732175426478
 40
0.5056005083655677
 40
0.5478343943062173
 40
0.6258920491556301
 40
0.7112667720820545
 40
0.761151698140277
 40
0.8254203045687948
 40
0.9049591520151669
 40
1.0
 40
1.0
 40
1.0
 40
1.0
 10
63.32542478729369
 20
113.0864301716432
 30
0.0
 10
64.80479838574502
 20
113.1471916175169
 30
0.0
 10
67.62831669328804
 20
113.2631603322464
 30
0.0
 10
71.5611764739895
 20
114.1008258569864
 30
0.0
 10
74.92881170305827
 20
115.2161041251087
 30
0.0
 10
77.71245058327666
 20
116.4834102109925
 30
0.0
 10
79.94677531472216
 20
117.742343740395
 30
0.0
 10
81.75864197828835
 20
118.942438268512
 30
0.0
 10
83.28125863194413
 20
120.0933847821778
 30
0.0
 10
85.03033294403645
 20
121.5830768223413
 30
0.0
 10
87.04696905233862
 20
123.5962045135759
 30
0.0
 10
88.88942243102356
 20
125.8720094523103
 30
0.0
 10
90.40718011568946
 20
128.1241565777508
 30
0.0
 10
91.70679037925919
 20
130.4091288254328
 30
0.0
 10
93.06072672890706
 20
133.3441612535082
 30
0.0
 10
93.7258952216988
 20
135.591677143624
 30
0.0
 10
94.088011660564
 20
136.8152204401592
 30
0.0
  0
SPLINE
  5
14E
330
1F
100
AcDbEntity
  8
0
  6
SLD-Сплошная
 62
     7
370
    25
100
AcDbSpline
210
0.0
220
0.0
230
1.0
 70
     8
 71
     3
 72
    22
 73
    18
 74
     0
 42
0.00000001
 43
0.00000001
 40
0.0
 40
0.0
 40
0.0
 40
0.0
 40
0.0999221988970652
 40
0.1877177125223769
 40
0.2636140935412393
 40
0.3284427791614454
 40
0.3847426360432398
 40
0.4328856524171472
 40
0.4635969231051147
 40
0.4970432568216294
 40
0.5448815316662008
 40
0.6075025605896168
 40
0.6849020532409023
 40
0.7768425784238457
 40
0.845759018773607
 40
0.9202980575289649
 40
1.0
 40
1.0
 40
1.0
 40
1.0
 10
32.56284611928119
 20
136.8151893521214
 30
0.0
 10
32.94617739010445
 20
135.5290671624921
 30
0.0
 10
33.66631836069465
 20
133.1129082095632
 30
0.0
 10
35.20142608167932
 20
129.8877333932329
 30
0.0
 10
36.80272392196203
 20
127.2247179812925
 30
0.0
 10
38.40141301157286
 20
125.057014983065
 30
0.0
 10
39.92451434204664
 20
123.2968916690878
 30
0.0
 10
41.23999346040846
 20
121.9698872696323
 30
0.0
 10
42.39309712987578
 20
120.9207489455105
 30
0.0
 10
43.58902852627315
 20
119.9216805056489
 30
0.0
 10
45.19851509473295
 20
118.719311939176
 30
0.0
 10
47.42179358323363
 20
117.2974390393451
 30
0.0
 10
50.33727801718356
 20
115.7878130658938
 30
0.0
 10
53.51578091699761
 20
114.5700916895511
 30
0.0
 10
56.78331227678544
 20
113.7235612103238
 30
0.0
 10
59.95593940097528
 20
113.1941963560963
 30
0.0
 10
62.17747585097656
 20
113.123144976425
 30
0.0
 10
63.32542478729344
 20
113.0864301362442
 30
0.0
  0
ARC
  5
14F
330
1F
100
AcDbEntity
  8
0
  6
SLD-Сплошная
 62
     7
370
    25
100
AcDbCircle
 10
90.3123528807
 20
137.7889652057
 30
0.0
 40
3.900000000000007
100
AcDbArc
 50
345.649364769
 51
0.0
  0
ARC
  5
150
330
1F
100
AcDbEntity
  8
0
  6
SLD-Сплошная
 62
     7
370
    25
100
AcDbCircle
 10
90.3123528807
 20
137.7889652057
 30
0.0
 40
3.900000000000006
100
AcDbArc
 50
0.0
 51
41.4141938687
  0
ARC
  5
151
330
1F
100
AcDbEntity
  8
0
  6
SLD-Сплошная
 62
     7
370
    25
100
AcDbCircle
 10
36.3384966939
 20
137.7889652057
 30
0.0
 40
3.900000000000006
100
AcDbArc
 50
138.7901442243
 51
194.4848732595
  0
LINE
  5
152
330
1F
100
AcDbEntity
  8
0
  6
SLD-Сплошная
 62
     7
370
    25
100
AcDbLine
 10
33.8657398806
 20
158.1983286299
 30
0.0
 11
33.5105101962
 21
157.240998867
 31
0.0
  0
LINE
  5
153
330
1F
100
AcDbEntity
  8
0
  6
SLD-Сплошная
 62
     7
370
    25
100
AcDbLine
 10
93.1403393784
 20
157.240998867
 30
0.0
 11
92.785109694
 21
158.1983286299
 31
0.0
  0
LINE
  5
154
330
1F
100
AcDbEntity
  8
0
  6
SLD-Сплошная
 62
     7
370
    25
100
AcDbLine
 10
77.6254247873
 20
197.8813818159
 30
0.0
 11
73.6254247873
 21
197.8813818159
 31
0.0
  0
LINE
  5
155
330
1F
100
AcDbEntity
  8
0
  6
SLD-Сплошная
 62
     7
370
    25
100
AcDbLine
 10
53.0254247873
 20
197.8813818159
 30
0.0
 11
49.0254247873
 21
197.8813818159
 31
0.0
  0
LWPOLYLINE
  5
156
330
1F
100
AcDbEntity
  8
0
  6
SLD-Сплошная
 62
     7
370
    25
100
AcDbPolyline
 90
        9
 70
   128
 43
0.0
 10
66.8321727784
 20
163.3508440503
 10
66.7647915991
 20
162.9760463965
 10
66.565237482
 20
162.6156520064
 10
66.2411791799
 20
162.2835106342
 10
65.8050700717
 20
161.9923862867
 10
65.2736695859
 20
161.7534667091
 10
64.667399145
 20
161.575933447
 10
64.0095573821
 20
161.4666090039
 10
63.3254247873
 20
161.429694657
  0
SPLINE
  5
157
330
1F
100
AcDbEntity
  8
0
  6
SLD-Сплошная
 62
     7
370
    25
100
AcDbSpline
210
0.0
220
0.0
230
1.0
 70
     8
 71
     3
 72
    16
 73
    12
 74
     0
 42
0.00000001
 43
0.00000001
 40
0.0
 40
0.0
 40
0.0
 40
0.0
 40
0.4999999999999984
 40
0.4999999999999984
 40
0.7499999999999977
 40
0.7499999999999977
 40
0.8749999999999972
 40
0.8749999999999972
 40
0.9374999999999987
 40
0.9374999999999987
 40
1.0
 40
1.0
 40
1.0
 40
1.0
 10
66.83428441898833
 20
163.3483211441551
 30
0.0
 10
66.83393247889539
 20
164.4991265733138
 30
0.0
 10
66.83358053880244
 20
165.3925609463527
 30
0.0
 10
66.83305262866301
 20
166.2929201828463
 30
0.0
 10
66.83287665861656
 20
166.5200058529159
 30
0.0
 10
66.83261270354684
 20
166.747592130187
 30
0.0
 10
66.8325247185236
 20
166.8046412464131
 30
0.0
 10
66.83239274098875
 20
166.8617838926976
 30
0.0
 10
66.83234874847713
 20
166.8760943678603
 30
0.0
 10
66.83226076345389
 20
166.8952209619207
 30
0.0
 10
66.83221677094227
 20
166.9000341674013
 30
0.0
 10
66.83217277843066
 20
166.9000999763195
 30
0.0
  0
ARC
  5
158
330
1F
100
AcDbEntity
  8
0
  6
SLD-Сплошная
 62
     7
370
    25
100
AcDbCircle
 10
63.3254247873
 20
145.181381816
 30
0.0
 40
21.99999999999999
100
AcDbArc
 50
9.1719345986
 51
80.8280654014
  0
SPLINE
  5
159
330
1F
100
AcDbEntity
  8
0
  6
SLD-Сплошная
 62
     7
370
    25
100
AcDbSpline
210
0.0
220
0.0
230
1.0
 70
    24
 71
     3
 72
    16
 73
    12
 74
     0
 42
0.00000001
 43
0.00000001
 40
0.0
 40
0.0
 40
0.0
 40
0.0
 40
0.0624999999999996
 40
0.0624999999999996
 40
0.1249999999999991
 40
0.1249999999999991
 40
0.2499999999999983
 40
0.2499999999999983
 40
0.5
 40
0.5
 40
1.0
 40
1.0
 40
1.0
 40
1.0
 10
85.04414294759621
 20
148.6881298071538
 30
0.0
 10
85.04413996649582
 20
148.6881298071538
 30
0.0
 10
85.03938958881535
 20
148.6881298071538
 30
0.0
 10
85.02038840302347
 20
148.6881298071538
 30
0.0
 10
85.00614050831715
 20
148.6881298071538
 30
0.0
 10
84.94918486235963
 20
148.6881298071538
 30
0.0
 10
84.89225942416522
 20
148.6881298071538
 30
0.0
 10
84.66503827532989
 20
148.6881298071538
 30
0.0
 10
84.43818812260132
 20
148.6881298071538
 30
0.0
 10
83.53848891098856
 20
148.6881298071538
 30
0.0
 10
82.64543172435377
 20
148.6881298071538
 30
0.0
 10
81.49488702159002
 20
148.6881298071538
 30
0.0
  0
LWPOLYLINE
  5
15A
330
1F
100
AcDbEntity
  8
0
  6
SLD-Сплошная
 62
     7
370
    25
100
AcDbPolyline
 90
       12
 70
   128
 43
0.0
 10
81.4948870216
 20
141.6746338249
 10
80.9536366909
 20
141.8166817583
 10
80.4562352432
 20
142.2313176797
 10
80.0429791854
 20
142.8849502528
 10
79.7473480656
 20
143.7246260537
 10
79.5932921591
 20
144.6823195428
 10
79.5932921591
 20
145.6804440892
 10
79.7473480656
 20
146.6381375783
 10
80.0429791854
 20
147.4778133793
 10
80.4562352432
 20
148.1314459523
 10
80.9536366909
 20
148.5460818737
 10
81.4948870216
 20
148.6881298072
  0
SPLINE
  5
15B
330
1F
100
AcDbEntity
  8
0
  6
SLD-Сплошная
 62
     7
370
    25
100
AcDbSpline
210
0.0
220
0.0
230
1.0
 70
     8
 71
     3
 72
    16
 73
    12
 74
     0
 42
0.00000001
 43
0.00000001
 40
0.0
 40
0.0
 40
0.0
 40
0.0
 40
0.4999999999999999
 40
0.4999999999999999
 40
0.7499999999999983
 40
0.7499999999999983
 40
0.8749999999999991
 40
0.8749999999999991
 40
0.9374999999999996
 40
0.9374999999999996
 40
1.0
 40
1.0
 40
1.0
 40
1.0
 10
81.49236411543173
 20
141.6725221843222
 30
0.0
 10
82.64316954459167
 20
141.6728741244152
 30
0.0
 10
83.53660391762944
 20
141.6732260645081
 30
0.0
 10
84.43696315412286
 20
141.6737539746475
 30
0.0
 10
84.66404882419246
 20
141.673929944694
 30
0.0
 10
84.89163510146366
 20
141.6741938997637
 30
0.0
 10
84.94868421769075
 20
141.6742818847869
 30
0.0
 10
85.00582686397381
 20
141.6744138623218
 30
0.0
 10
85.02013733913675
 20
141.6744578548334
 30
0.0
 10
85.03926393319755
 20
141.6745458398566
 30
0.0
 10
85.044077138678
 20
141.6745898323682
 30
0.0
 10
85.04414294759617
 20
141.6746338248799
 30
0.0
  0
ARC
  5
15C
330
1F
100
AcDbEntity
  8
0
  6
SLD-Сплошная
 62
     7
370
    25
100
AcDbCircle
 10
63.3254247873
 20
145.181381816
 30
0.0
 40
21.99999999999999
100
AcDbArc
 50
279.1719345986
 51
350.8280654014
  0
SPLINE
  5
15D
330
1F
100
AcDbEntity
  8
0
  6
SLD-Сплошная
 62
     7
370
    25
100
AcDbSpline
210
0.0
220
0.0
230
1.0
 70
    24
 71
     3
 72
    16
 73
    12
 74
     0
 42
0.00000001
 43
0.00000001
 40
0.0
 40
0.0
 40
0.0
 40
0.0
 40
0.062499999999998
 40
0.062499999999998
 40
0.1249999999999959
 40
0.1249999999999959
 40
0.249999999999995
 40
0.249999999999995
 40
0.4999999999999968
 40
0.4999999999999968
 40
1.0
 40
1.0
 40
1.0
 40
1.0
 10
66.8321727784304
 20
123.4626636557144
 30
0.0
 10
66.8321727784304
 20
123.4626666368147
 30
0.0
 10
66.8321727784304
 20
123.4674170144952
 30
0.0
 10
66.8321727784304
 20
123.4864182002871
 30
0.0
 10
66.8321727784304
 20
123.5006660949932
 30
0.0
 10
66.8321727784304
 20
123.5576217409514
 30
0.0
 10
66.8321727784304
 20
123.6145471791458
 30
0.0
 10
66.8321727784304
 20
123.8417683279798
 30
0.0
 10
66.8321727784304
 20
124.0686184807083
 30
0.0
 10
66.8321727784304
 20
124.968317692324
 30
0.0
 10
66.83217277843043
 20
125.8613748789557
 30
0.0
 10
66.83217277843043
 20
127.0119195817206
 30
0.0
  0
LWPOLYLINE
  5
15E
330
1F
100
AcDbEntity
  8
0
  6
SLD-Сплошная
 62
     7
370
    25
100
AcDbPolyline
 90
        9
 70
   128
 43
0.0
 10
63.3254247873
 20
128.933068975
 10
64.0095573821
 20
128.8961546281
 10
64.667399145
 20
128.7868301851
 10
65.2736695859
 20
128.6092969229
 10
65.8050700717
 20
128.3703773454
 10
66.2411791799
 20
128.0792529978
 10
66.565237482
 20
127.7471116256
 10
66.7647915991
 20
127.3867172355
 10
66.8321727784
 20
127.0119195817
  0
ARC
  5
15F
330
1F
100
AcDbEntity
  8
0
  6
SLD-Сплошная
 62
     7
370
    25
100
AcDbCircle
 10
63.3254247873
 20
145.181381816
 30
0.0
 40
10.29999999999995
100
AcDbArc
 50
270.0
 51
0.0
  0
ARC
  5
160
330
1F
100
AcDbEntity
  8
0
  6
SLD-Сплошная
 62
     7
370
    25
100
AcDbCircle
 10
63.3254247873
 20
145.181381816
 30
0.0
 40
10.29999999999998
100
AcDbArc
 50
0.0
 51
90.0
  0
LWPOLYLINE
  5
161
330
1F
100
AcDbEntity
  8
0
  6
SLD-Сплошная
 62
     7
370
    25
100
AcDbPolyline
 90
        9
 70
   128
 43
0.0
 10
59.8186767962
 20
127.0119195817
 10
59.8860579755
 20
127.3867172355
 10
60.0856120926
 20
127.7471116256
 10
60.4096703947
 20
128.0792529978
 10
60.8457795028
 20
128.3703773454
 10
61.3771799887
 20
128.6092969229
 10
61.9834504296
 20
128.7868301851
 10
62.6412921925
 20
128.8961546281
 10
63.3254247873
 20
128.933068975
  0
SPLINE
  5
162
330
1F
100
AcDbEntity
  8
0
  6
SLD-Сплошная
 62
     7
370
    25
100
AcDbSpline
210
0.0
220
0.0
230
1.0
 70
    24
 71
     3
 72
    16
 73
    12
 74
     0
 42
0.00000001
 43
0.00000001
 40
0.0
 40
0.0
 40
0.0
 40
0.0
 40
0.4999999999999983
 40
0.4999999999999983
 40
0.7499999999999976
 40
0.7499999999999976
 40
0.8749999999999971
 40
0.8749999999999971
 40
0.9374999999999986
 40
0.9374999999999986
 40
1.0
 40
1.0
 40
1.0
 40
1.0
 10
59.81867679615652
 20
127.0119195817206
 30
0.0
 10
59.81867679615652
 20
125.8613748789554
 30
0.0
 10
59.81867679615649
 20
124.9683176923257
 30
0.0
 10
59.81867679615649
 20
124.0686184807074
 30
0.0
 10
59.81867679615649
 20
123.8417683279789
 30
0.0
 10
59.81867679615649
 20
123.6145471791463
 30
0.0
 10
59.81867679615649
 20
123.5576217409514
 30
0.0
 10
59.81867679615649
 20
123.5006660949932
 30
0.0
 10
59.81867679615649
 20
123.4864182002871
 30
0.0
 10
59.81867679615649
 20
123.4674170144952
 30
0.0
 10
59.81867679615649
 20
123.4626666368148
 30
0.0
 10
59.81867679615649
 20
123.4626636557144
 30
0.0
  0
ARC
  5
163
330
1F
100
AcDbEntity
  8
0
  6
SLD-Сплошная
 62
     7
370
    25
100
AcDbCircle
 10
63.3254247873
 20
145.181381816
 30
0.0
 40
22.00000000000004
100
AcDbArc
 50
189.1719345986
 51
260.8280654014
  0
SPLINE
  5
164
330
1F
100
AcDbEntity
  8
0
  6
SLD-Сплошная
 62
     7
370
    25
100
AcDbSpline
210
0.0
220
0.0
230
1.0
 70
    24
 71
     3
 72
    16
 73
    12
 74
     0
 42
0.00000001
 43
0.00000001
 40
0.0
 40
0.0
 40
0.0
 40
0.0
 40
0.0624999999999977
 40
0.0624999999999977
 40
0.1249999999999953
 40
0.1249999999999953
 40
0.2499999999999941
 40
0.2499999999999941
 40
0.4999999999999951
 40
0.4999999999999951
 40
1.0
 40
1.0
 40
1.0
 40
1.0
 10
41.60670662699098
 20
141.6746338248803
 30
0.0
 10
41.60670960809163
 20
141.6746338248803
 30
0.0
 10
41.61145998577164
 20
141.6746338248803
 30
0.0
 10
41.63046117156401
 20
141.6746338248803
 30
0.0
 10
41.64470906627051
 20
141.6746338248802
 30
0.0
 10
41.70166471222664
 20
141.6746338248803
 30
0.0
 10
41.75859015042203
 20
141.6746338248803
 30
0.0
 10
41.98581129925734
 20
141.6746338248803
 30
0.0
 10
42.212661451984
 20
141.6746338248803
 30
0.0
 10
43.11236066360252
 20
141.6746338248803
 30
0.0
 10
44.00541785023133
 20
141.6746338248802
 30
0.0
 10
45.15596255299721
 20
141.6746338248802
 30
0.0
  0
LWPOLYLINE
  5
165
330
1F
100
AcDbEntity
  8
0
  6
SLD-Сплошная
 62
     7
370
    25
100
AcDbPolyline
 90
       12
 70
   128
 43
0.0
 10
45.155962553
 20
148.6881298072
 10
45.6972128836
 20
148.5460818737
 10
46.1946143314
 20
148.1314459523
 10
46.6078703892
 20
147.4778133793
 10
46.903501509
 20
146.6381375783
 10
47.0575574155
 20
145.6804440892
 10
47.0575574155
 20
144.6823195428
 10
46.903501509
 20
143.7246260537
 10
46.6078703892
 20
142.8849502528
 10
46.1946143314
 20
142.2313176797
 10
45.6972128836
 20
141.8166817583
 10
45.155962553
 20
141.6746338249
  0
SPLINE
  5
166
330
1F
100
AcDbEntity
  8
0
  6
SLD-Сплошная
 62
     7
370
    25
100
AcDbSpline
210
0.0
220
0.0
230
1.0
 70
    24
 71
     3
 72
    16
 73
    12
 74
     0
 42
0.00000001
 43
0.00000001
 40
0.0
 40
0.0
 40
0.0
 40
0.0
 40
0.5000000000000016
 40
0.5000000000000016
 40
0.7500000000000009
 40
0.7500000000000009
 40
0.875000000000002
 40
0.875000000000002
 40
0.937500000000001
 40
0.937500000000001
 40
1.0
 40
1.0
 40
1.0
 40
1.0
 10
45.15596255299725
 20
148.6881298071542
 30
0.0
 10
44.00541785023166
 20
148.6881298071542
 30
0.0
 10
43.11236066360437
 20
148.6881298071542
 30
0.0
 10
42.21266145198319
 20
148.6881298071542
 30
0.0
 10
41.98581129925658
 20
148.6881298071542
 30
0.0
 10
41.75859015042253
 20
148.6881298071542
 30
0.0
 10
41.70166471222764
 20
148.6881298071543
 30
0.0
 10
41.6447090662701
 20
148.6881298071542
 30
0.0
 10
41.63046117156357
 20
148.6881298071542
 30
0.0
 10
41.61145998577216
 20
148.6881298071542
 30
0.0
 10
41.60670960809147
 20
148.6881298071542
 30
0.0
 10
41.60670662699106
 20
148.6881298071542
 30
0.0
  0
ARC
  5
167
330
1F
100
AcDbEntity
  8
0
  6
SLD-Сплошная
 62
     7
370
    25
100
AcDbCircle
 10
63.3254247873
 20
145.181381816
 30
0.0
 40
22.00000000000001
100
AcDbArc
 50
99.1719345986
 51
170.8280654014
  0
SPLINE
  5
168
330
1F
100
AcDbEntity
  8
0
  6
SLD-Сплошная
 62
     7
370
    25
100
AcDbSpline
210
0.0
220
0.0
230
1.0
 70
    24
 71
     3
 72
    16
 73
    12
 74
     0
 42
0.00000001
 43
0.00000001
 40
0.0
 40
0.0
 40
0.0
 40
0.0
 40
0.0624999999999993
 40
0.0624999999999993
 40
0.1249999999999988
 40
0.1249999999999988
 40
0.2499999999999976
 40
0.2499999999999976
 40
0.4999999999999984
 40
0.4999999999999984
 40
1.0
 40
1.0
 40
1.0
 40
1.0
 10
59.81867679615671
 20
166.9000999763196
 30
0.0
 10
59.81867679615671
 20
166.9000969952189
 30
0.0
 10
59.81867679615671
 20
166.8953466175385
 30
0.0
 10
59.81867679615671
 20
166.8763454317471
 30
0.0
 10
59.81867679615671
 20
166.8620975370405
 30
0.0
 10
59.81867679615671
 20
166.8051418910829
 30
0.0
 10
59.81867679615671
 20
166.748216452889
 30
0.0
 10
59.81867679615671
 20
166.5209953040523
 30
0.0
 10
59.81867679615671
 20
166.2941451513256
 30
0.0
 10
59.81867679615671
 20
165.3944459397101
 30
0.0
 10
59.81867679615671
 20
164.5013887530781
 30
0.0
 10
59.81867679615668
 20
163.3508440503134
 30
0.0
  0
LWPOLYLINE
  5
169
330
1F
100
AcDbEntity
  8
0
  6
SLD-Сплошная
 62
     7
370
    25
100
AcDbPolyline
 90
        9
 70
   128
 43
0.0
 10
63.3254247873
 20
161.429694657
 10
62.6412921925
 20
161.4666090039
 10
61.9834504296
 20
161.575933447
 10
61.3771799887
 20
161.7534667091
 10
60.8457795028
 20
161.9923862867
 10
60.4096703947
 20
162.2835106342
 10
60.0856120926
 20
162.6156520064
 10
59.8860579755
 20
162.9760463965
 10
59.8186767962
 20
163.3508440503
  0
ARC
  5
16A
330
1F
100
AcDbEntity
  8
0
  6
SLD-Сплошная
 62
     7
370
    25
100
AcDbCircle
 10
63.3254247873
 20
145.181381816
 30
0.0
 40
10.30000000000003
100
AcDbArc
 50
180.0
 51
270.0
  0
ARC
  5
16B
330
1F
100
AcDbEntity
  8
0
  6
SLD-Сплошная
 62
     7
370
    25
100
AcDbCircle
 10
63.3254247873
 20
145.181381816
 30
0.0
 40
10.30000000000003
100
AcDbArc
 50
90.0
 51
180.0
  0
LWPOLYLINE
  5
16C
330
1F
100
AcDbEntity
  8
0
  6
SLD-Сплошная
 62
     7
370
    25
100
AcDbPolyline
 90
       11
 70
   128
 43
0.0
 10
66.1600732605
 20
164.1538424615
 10
66.0213356891
 20
163.6739563793
 10
65.6187035752
 20
163.2410448904
 10
64.9915893553
 20
162.8974843875
 10
64.2013793386
 20
162.6769049666
 10
63.3254247873
 20
162.600898478
 10
62.449470236
 20
162.6769049666
 10
61.6592602193
 20
162.8974843875
 10
61.0321459994
 20
163.2410448904
 10
60.6295138855
 20
163.6739563793
 10
60.4907763141
 20
164.1538424615
  0
LWPOLYLINE
  5
16D
330
1F
100
AcDbEntity
  8
0
  6
SLD-Сплошная
 62
     7
370
    25
100
AcDbPolyline
 90
       11
 70
   128
 43
0.0
 10
60.4907763141
 20
126.2089211706
 10
60.6295138855
 20
126.6888072528
 10
61.0321459994
 20
127.1217187417
 10
61.6592602193
 20
127.4652792445
 10
62.449470236
 20
127.6858586655
 10
63.3254247873
 20
127.761865154
 10
64.2013793386
 20
127.6858586655
 10
64.9915893553
 20
127.4652792445
 10
65.6187035752
 20
127.1217187417
 10
66.0213356891
 20
126.6888072528
 10
66.1600732605
 20
126.2089211706
  0
LWPOLYLINE
  5
16E
330
1F
100
AcDbEntity
  8
0
  6
SLD-Сплошная
 62
     7
370
    25
100
AcDbPolyline
 90
       11
 70
   128
 43
0.0
 10
82.2978854328
 20
142.3467333428
 10
81.8179993506
 20
142.4854709142
 10
81.3850878616
 20
142.8881030281
 10
81.0415273588
 20
143.515217248
 10
80.8209479378
 20
144.3054272647
 10
80.7449414493
 20
145.181381816
 10
80.8209479378
 20
146.0573363673
 10
81.0415273588
 20
146.847546384
 10
81.3850878616
 20
147.4746606039
 10
81.8179993506
 20
147.8772927178
 10
82.2978854328
 20
148.0160302892
  0
LWPOLYLINE
  5
16F
330
1F
100
AcDbEntity
  8
0
  6
SLD-Сплошная
 62
     7
370
    25
100
AcDbPolyline
 90
       11
 70
   128
 43
0.0
 10
44.3529641418
 20
148.0160302892
 10
44.832850224
 20
147.8772927178
 10
45.265761713
 20
147.4746606039
 10
45.6093222158
 20
146.847546384
 10
45.8299016368
 20
146.0573363673
 10
45.9059081253
 20
145.181381816
 10
45.8299016368
 20
144.3054272647
 10
45.6093222158
 20
143.515217248
 10
45.265761713
 20
142.8881030281
 10
44.832850224
 20
142.4854709142
 10
44.3529641418
 20
142.3467333428
  0
SPLINE
  5
170
330
1F
100
AcDbEntity
  8
0
  6
SLD-Сплошная
 62
     7
370
    25
100
AcDbSpline
210
0.0
220
0.0
230
1.0
 70
    24
 71
     3
 72
    20
 73
    16
 74
     0
 42
0.00000001
 43
0.00000001
 40
0.0
 40
0.0
 40
0.0
 40
0.0
 40
0.2500000000000011
 40
0.2500000000000011
 40
0.5000000000000022
 40
0.5000000000000022
 40
0.6250000000000028
 40
0.6250000000000028
 40
0.6562500000000034
 40
0.6562500000000034
 40
0.6875000000000042
 40
0.6875000000000042
 40
0.7500000000000033
 40
0.7500000000000033
 40
1.0
 40
1.0
 40
1.0
 40
1.0
 10
82.29788543275681
 20
148.0160302892056
 30
0.0
 10
83.22576493283076
 20
148.0160302892056
 30
0.0
 10
83.9932642309625
 20
148.0160302892056
 30
0.0
 10
85.17308705753291
 20
148.0160302892056
 30
0.0
 10
85.5842071491454
 20
148.0160302892056
 30
0.0
 10
85.91814265068098
 20
148.0160302892056
 30
0.0
 10
85.98248390704849
 20
148.0160302892056
 30
0.0
 10
86.00368216526566
 20
148.0160302892056
 30
0.0
 10
86.00400107821483
 20
148.0160302892056
 30
0.0
 10
86.00400260213043
 20
148.0160302892056
 30
0.0
 10
86.00400098335061
 20
148.0160302892056
 30
0.0
 10
86.00399986129248
 20
148.0160302892056
 30
0.0
 10
86.00400053448631
 20
148.0160302892056
 30
0.0
 10
86.00400053448631
 20
148.0160302892056
 30
0.0
 10
86.00400053448631
 20
148.0160302892056
 30
0.0
 10
86.00400053448631
 20
148.0160302892056
 30
0.0
  0
SPLINE
  5
171
330
1F
100
AcDbEntity
  8
0
  6
SLD-Сплошная
 62
     7
370
    25
100
AcDbSpline
210
0.0
220
0.0
230
1.0
 70
    24
 71
     3
 72
    20
 73
    16
 74
     0
 42
0.00000001
 43
0.00000001
 40
0.0
 40
0.0
 40
0.0
 40
0.0
 40
0.2500000000000073
 40
0.2500000000000073
 40
0.5000000000000145
 40
0.5000000000000145
 40
0.6250000000000182
 40
0.6250000000000182
 40
0.6562500000000175
 40
0.6562500000000175
 40
0.6875000000000169
 40
0.6875000000000169
 40
0.7500000000000134
 40
0.7500000000000134
 40
1.0
 40
1.0
 40
1.0
 40
1.0
 10
82.29788543275681
 20
142.3467333428281
 30
0.0
 10
83.22576493283107
 20
142.3467333428281
 30
0.0
 10
83.99326423096484
 20
142.3467333428281
 30
0.0
 10
85.17308705753368
 20
142.3467333428281
 30
0.0
 10
85.5842071491454
 20
142.3467333428281
 30
0.0
 10
85.91814265068098
 20
142.3467333428281
 30
0.0
 10
85.98248390704849
 20
142.3467333428281
 30
0.0
 10
86.00368216526566
 20
142.3467333428281
 30
0.0
 10
86.00400107821483
 20
142.3467333428281
 30
0.0
 10
86.00400260213043
 20
142.3467333428281
 30
0.0
 10
86.00400098335061
 20
142.3467333428281
 30
0.0
 10
86.00399986129248
 20
142.3467333428281
 30
0.0
 10
86.00400053448631
 20
142.3467333428281
 30
0.0
 10
86.00400053448631
 20
142.3467333428281
 30
0.0
 10
86.00400053448631
 20
142.3467333428281
 30
0.0
 10
86.00400053448631
 20
142.3467333428281
 30
0.0
  0
SPLINE
  5
172
330
1F
100
AcDbEntity
  8
0
  6
SLD-Сплошная
 62
     7
370
    25
100
AcDbSpline
210
0.0
220
0.0
230
1.0
 70
    24
 71
     3
 72
    20
 73
    16
 74
     0
 42
0.00000001
 43
0.00000001
 40
0.0
 40
0.0
 40
0.0
 40
0.0
 40
0.2500000000000073
 40
0.2500000000000073
 40
0.5000000000000145
 40
0.5000000000000145
 40
0.6250000000000182
 40
0.6250000000000182
 40
0.6562500000000175
 40
0.6562500000000175
 40
0.6875000000000169
 40
0.6875000000000169
 40
0.7500000000000134
 40
0.7500000000000134
 40
1.0
 40
1.0
 40
1.0
 40
1.0
 10
66.1600732604822
 20
126.2089211705538
 30
0.0
 10
66.16007326048222
 20
125.2810416704795
 30
0.0
 10
66.16007326048218
 20
124.5135423723457
 30
0.0
 10
66.16007326048215
 20
123.3337195457769
 30
0.0
 10
66.16007326048216
 20
122.9225994541651
 30
0.0
 10
66.16007326048216
 20
122.5886639526296
 30
0.0
 10
66.16007326048216
 20
122.5243226962621
 30
0.0
 10
66.16007326048215
 20
122.5031244380449
 30
0.0
 10
66.16007326048216
 20
122.5028055250958
 30
0.0
 10
66.16007326048215
 20
122.5028040011802
 30
0.0
 10
66.16007326048215
 20
122.50280561996
 30
0.0
 10
66.16007326048215
 20
122.5028067420181
 30
0.0
 10
66.16007326048215
 20
122.5028060688243
 30
0.0
 10
66.16007326048216
 20
122.5028060688243
 30
0.0
 10
66.16007326048216
 20
122.5028060688243
 30
0.0
 10
66.16007326048216
 20
122.5028060688243
 30
0.0
  0
SPLINE
  5
173
330
1F
100
AcDbEntity
  8
0
  6
SLD-Сплошная
 62
     7
370
    25
100
AcDbSpline
210
0.0
220
0.0
230
1.0
 70
    24
 71
     3
 72
    20
 73
    16
 74
     0
 42
0.00000001
 43
0.00000001
 40
0.0
 40
0.0
 40
0.0
 40
0.0
 40
0.2500000000000012
 40
0.2500000000000012
 40
0.5000000000000023
 40
0.5000000000000023
 40
0.6250000000000029
 40
0.6250000000000029
 40
0.6562500000000036
 40
0.6562500000000036
 40
0.6875000000000041
 40
0.6875000000000041
 40
0.7500000000000032
 40
0.7500000000000032
 40
1.0
 40
1.0
 40
1.0
 40
1.0
 10
60.49077631410474
 20
126.2089211705538
 30
0.0
 10
60.49077631410471
 20
125.2810416704805
 30
0.0
 10
60.4907763141047
 20
124.5135423723462
 30
0.0
 10
60.49077631410469
 20
123.3337195457768
 30
0.0
 10
60.49077631410469
 20
122.9225994541651
 30
0.0
 10
60.49077631410469
 20
122.5886639526296
 30
0.0
 10
60.49077631410469
 20
122.5243226962624
 30
0.0
 10
60.49077631410469
 20
122.5031244380447
 30
0.0
 10
60.49077631410469
 20
122.5028055250959
 30
0.0
 10
60.49077631410469
 20
122.5028040011805
 30
0.0
 10
60.49077631410469
 20
122.5028056199601
 30
0.0
 10
60.49077631410469
 20
122.5028067420181
 30
0.0
 10
60.49077631410469
 20
122.5028060688243
 30
0.0
 10
60.49077631410469
 20
122.5028060688243
 30
0.0
 10
60.49077631410469
 20
122.5028060688243
 30
0.0
 10
60.49077631410469
 20
122.5028060688243
 30
0.0
  0
SPLINE
  5
174
330
1F
100
AcDbEntity
  8
0
  6
SLD-Сплошная
 62
     7
370
    25
100
AcDbSpline
210
0.0
220
0.0
230
1.0
 70
    24
 71
     3
 72
    20
 73
    16
 74
     0
 42
0.00000001
 43
0.00000001
 40
0.0
 40
0.0
 40
0.0
 40
0.0
 40
0.2500000000000019
 40
0.2500000000000019
 40
0.5000000000000039
 40
0.5000000000000039
 40
0.6250000000000049
 40
0.6250000000000049
 40
0.6562500000000036
 40
0.6562500000000036
 40
0.6875000000000022
 40
0.6875000000000022
 40
0.7500000000000018
 40
0.7500000000000018
 40
1.0
 40
1.0
 40
1.0
 40
1.0
 10
60.49077631410491
 20
164.1538424614802
 30
0.0
 10
60.49077631410491
 20
165.0817219615534
 30
0.0
 10
60.49077631410491
 20
165.8492212596878
 30
0.0
 10
60.49077631410491
 20
167.0290440862572
 30
0.0
 10
60.49077631410491
 20
167.4401641778675
 30
0.0
 10
60.49077631410491
 20
167.7740996794052
 30
0.0
 10
60.49077631410491
 20
167.838440935772
 30
0.0
 10
60.49077631410491
 20
167.8596391939894
 30
0.0
 10
60.49077631410491
 20
167.8599581069381
 30
0.0
 10
60.49077631410491
 20
167.8599596308535
 30
0.0
 10
60.49077631410491
 20
167.8599580120738
 30
0.0
 10
60.49077631410491
 20
167.8599568900159
 30
0.0
 10
60.49077631410491
 20
167.8599575632096
 30
0.0
 10
60.49077631410491
 20
167.8599575632096
 30
0.0
 10
60.49077631410491
 20
167.8599575632096
 30
0.0
 10
60.49077631410491
 20
167.8599575632096
 30
0.0
  0
SPLINE
  5
175
330
1F
100
AcDbEntity
  8
0
  6
SLD-Сплошная
 62
     7
370
    25
100
AcDbSpline
210
0.0
220
0.0
230
1.0
 70
    24
 71
     3
 72
    20
 73
    16
 74
     0
 42
0.00000001
 43
0.00000001
 40
0.0
 40
0.0
 40
0.0
 40
0.0
 40
0.2500000000000009
 40
0.2500000000000009
 40
0.5000000000000018
 40
0.5000000000000018
 40
0.6250000000000033
 40
0.6250000000000033
 40
0.6562500000000022
 40
0.6562500000000022
 40
0.6875000000000011
 40
0.6875000000000011
 40
0.7500000000000009
 40
0.7500000000000009
 40
1.0
 40
1.0
 40
1.0
 40
1.0
 10
66.16007326048238
 20
164.1538424614802
 30
0.0
 10
66.16007326048238
 20
165.0817219615528
 30
0.0
 10
66.16007326048238
 20
165.8492212596897
 30
0.0
 10
66.16007326048238
 20
167.0290440862581
 30
0.0
 10
66.16007326048238
 20
167.4401641778681
 30
0.0
 10
66.16007326048239
 20
167.7740996794048
 30
0.0
 10
66.16007326048238
 20
167.8384409357714
 30
0.0
 10
66.16007326048238
 20
167.8596391939889
 30
0.0
 10
66.16007326048238
 20
167.8599581069382
 30
0.0
 10
66.16007326048238
 20
167.8599596308538
 30
0.0
 10
66.16007326048238
 20
167.8599580120739
 30
0.0
 10
66.16007326048238
 20
167.8599568900158
 30
0.0
 10
66.16007326048238
 20
167.8599575632097
 30
0.0
 10
66.16007326048238
 20
167.8599575632097
 30
0.0
 10
66.16007326048238
 20
167.8599575632097
 30
0.0
 10
66.16007326048238
 20
167.8599575632097
 30
0.0
  0
SPLINE
  5
176
330
1F
100
AcDbEntity
  8
0
  6
SLD-Сплошная
 62
     7
370
    25
100
AcDbSpline
210
0.0
220
0.0
230
1.0
 70
    24
 71
     3
 72
    20
 73
    16
 74
     0
 42
0.00000001
 43
0.00000001
 40
0.0
 40
0.0
 40
0.0
 40
0.0
 40
0.2500000000000019
 40
0.2500000000000019
 40
0.5000000000000039
 40
0.5000000000000039
 40
0.6250000000000049
 40
0.6250000000000049
 40
0.6562500000000036
 40
0.6562500000000036
 40
0.6875000000000022
 40
0.6875000000000022
 40
0.7500000000000018
 40
0.7500000000000018
 40
1.0
 40
1.0
 40
1.0
 40
1.0
 10
44.35296414183042
 20
142.3467333428285
 30
0.0
 10
43.4250846417571
 20
142.3467333428285
 30
0.0
 10
42.65758534362281
 20
142.3467333428285
 30
0.0
 10
41.4777625170534
 20
142.3467333428285
 30
0.0
 10
41.06664242544031
 20
142.3467333428284
 30
0.0
 10
40.73270692390801
 20
142.3467333428286
 30
0.0
 10
40.6683656675391
 20
142.3467333428285
 30
0.0
 10
40.64716740932168
 20
142.3467333428285
 30
0.0
 10
40.64684849637242
 20
142.3467333428285
 30
0.0
 10
40.6468469724568
 20
142.3467333428285
 30
0.0
 10
40.64684859123658
 20
142.3467333428285
 30
0.0
 10
40.64684971329468
 20
142.3467333428285
 30
0.0
 10
40.64684904010088
 20
142.3467333428285
 30
0.0
 10
40.64684904010088
 20
142.3467333428285
 30
0.0
 10
40.64684904010088
 20
142.3467333428285
 30
0.0
 10
40.64684904010087
 20
142.3467333428285
 30
0.0
  0
SPLINE
  5
177
330
1F
100
AcDbEntity
  8
0
  6
SLD-Сплошная
 62
     7
370
    25
100
AcDbSpline
210
0.0
220
0.0
230
1.0
 70
    24
 71
     3
 72
    20
 73
    16
 74
     0
 42
0.00000001
 43
0.00000001
 40
0.0
 40
0.0
 40
0.0
 40
0.0
 40
0.2500000000000009
 40
0.2500000000000009
 40
0.5000000000000018
 40
0.5000000000000018
 40
0.6250000000000033
 40
0.6250000000000033
 40
0.6562500000000022
 40
0.6562500000000022
 40
0.6875000000000011
 40
0.6875000000000011
 40
0.7500000000000009
 40
0.7500000000000009
 40
1.0
 40
1.0
 40
1.0
 40
1.0
 10
44.35296414183047
 20
148.016030289206
 30
0.0
 10
43.42508464175715
 20
148.016030289206
 30
0.0
 10
42.65758534362286
 20
148.016030289206
 30
0.0
 10
41.47776251705348
 20
148.016030289206
 30
0.0
 10
41.06664242544253
 20
148.0160302892059
 30
0.0
 10
40.73270692390585
 20
148.0160302892061
 30
0.0
 10
40.66836566753942
 20
148.016030289206
 30
0.0
 10
40.64716740932112
 20
148.016030289206
 30
0.0
 10
40.64684849637263
 20
148.016030289206
 30
0.0
 10
40.6468469724575
 20
148.016030289206
 30
0.0
 10
40.64684859123685
 20
148.016030289206
 30
0.0
 10
40.64684971329466
 20
148.016030289206
 30
0.0
 10
40.64684904010101
 20
148.016030289206
 30
0.0
 10
40.64684904010102
 20
148.016030289206
 30
0.0
 10
40.64684904010101
 20
148.016030289206
 30
0.0
 10
40.64684904010102
 20
148.016030289206
 30
0.0
  0
LINE
  5
178
330
1F
100
AcDbEntity
  8
0
  6
SLD-Сплошная
 62
     7
370
    25
100
AcDbLine
 10
85.0441429476
 20
148.6881298072
 30
0.0
 11
86.0040005345
 21
148.0160302892
 31
0.0
  0
LWPOLYLINE
  5
179
330
1F
100
AcDbEntity
  8
0
  6
SLD-Сплошная
 62
     7
370
    25
100
AcDbPolyline
 90
        2
 70
   128
 43
0.0
 10
85.0441429476
 20
148.6881298072
 10
85.0441429476
 20
148.6881298072
  0
LINE
  5
17A
330
1F
100
AcDbEntity
  8
0
  6
SLD-Сплошная
 62
     7
370
    25
100
AcDbLine
 10
86.0040005345
 20
142.3467333428
 30
0.0
 11
85.0441429476
 21
141.6746338249
 31
0.0
  0
LINE
  5
17B
330
1F
100
AcDbEntity
  8
0
  6
SLD-Сплошная
 62
     7
370
    25
100
AcDbLine
 10
66.1600732605
 20
167.8599575632
 30
0.0
 11
66.8321727784
 21
166.9000999763
 31
0.0
  0
LINE
  5
17C
330
1F
100
AcDbEntity
  8
0
  6
SLD-Сплошная
 62
     7
370
    25
100
AcDbLine
 10
66.8321727784
 20
166.9000999763
 30
0.0
 11
66.83217369
 21
166.9000998291
 31
0.0
  0
LWPOLYLINE
  5
17D
330
1F
100
AcDbEntity
  8
0
  6
SLD-Сплошная
 62
     7
370
    25
100
AcDbPolyline
 90
        2
 70
   128
 43
0.0
 10
66.8321727784
 20
123.4626636557
 10
66.8321727784
 20
123.4626636557
  0
LINE
  5
17E
330
1F
100
AcDbEntity
  8
0
  6
SLD-Сплошная
 62
     7
370
    25
100
AcDbLine
 10
66.1600732605
 20
122.5028060688
 30
0.0
 11
66.8321727784
 21
123.4626636557
 31
0.0
  0
LINE
  5
17F
330
1F
100
AcDbEntity
  8
0
  6
SLD-Сплошная
 62
     7
370
    25
100
AcDbLine
 10
60.4907763141
 20
122.5028060688
 30
0.0
 11
59.8186767962
 21
123.4626636557
 31
0.0
  0
LINE
  5
180
330
1F
100
AcDbEntity
  8
0
  6
SLD-Сплошная
 62
     7
370
    25
100
AcDbLine
 10
59.8186767962
 20
166.9000999763
 30
0.0
 11
60.4907763141
 21
167.8599575632
 31
0.0
  0
LWPOLYLINE
  5
181
330
1F
100
AcDbEntity
  8
0
  6
SLD-Сплошная
 62
     7
370
    25
100
AcDbPolyline
 90
        2
 70
   128
 43
0.0
 10
59.8186767962
 20
166.9000999763
 10
59.8186767962
 20
166.9000999763
  0
LWPOLYLINE
  5
182
330
1F
100
AcDbEntity
  8
0
  6
SLD-Сплошная
 62
     7
370
    25
100
AcDbPolyline
 90
        2
 70
   128
 43
0.0
 10
41.606706627
 20
141.6746338249
 10
41.606706627
 20
141.6746338249
  0
LINE
  5
183
330
1F
100
AcDbEntity
  8
0
  6
SLD-Сплошная
 62
     7
370
    25
100
AcDbLine
 10
40.6468490401
 20
142.3467333428
 30
0.0
 11
41.606706627
 21
141.6746338249
 31
0.0
  0
LINE
  5
184
330
1F
100
AcDbEntity
  8
0
  6
SLD-Сплошная
 62
     7
370
    25
100
AcDbLine
 10
40.6468490401
 20
148.0160302892
 30
0.0
 11
41.606706627
 21
148.6881298072
 31
0.0
  0
ARC
  5
185
330
1F
100
AcDbEntity
  8
0
  6
SLD-Сплошная
 62
     7
370
    25
100
AcDbCircle
 10
63.3254247873
 20
145.181381816
 30
0.0
 40
8.93495180123015
100
AcDbArc
 50
355.5534273277
 51
175.5534273277
  0
ARC
  5
186
330
1F
100
AcDbEntity
  8
0
  6
SLD-Сплошная
 62
     7
370
    25
100
AcDbCircle
 10
63.3254247873
 20
145.181381816
 30
0.0
 40
8.93495180123015
100
AcDbArc
 50
175.5534273277
 51
355.5534273277
  0
LINE
  5
187
330
1F
100
AcDbEntity
  8
0
  6
SLD-Сплошная
 62
     7
370
    25
100
AcDbLine
 10
36.3754247873
 20
132.1217920614
 30
0.0
 11
38.5404882968
 21
128.3717920614
 31
0.0
  0
LINE
  5
188
330
1F
100
AcDbEntity
  8
0
  6
SLD-Сплошная
 62
     7
370
    25
100
AcDbLine
 10
36.3754247873
 20
158.2409715707
 30
0.0
 11
36.3754247873
 21
132.1217920614
 31
0.0
  0
LINE
  5
189
330
1F
100
AcDbEntity
  8
0
  6
SLD-Сплошная
 62
     7
370
    25
100
AcDbLine
 10
38.5404882968
 20
161.9909715707
 30
0.0
 11
36.3754247873
 21
158.2409715707
 31
0.0
  0
LINE
  5
18A
330
1F
100
AcDbEntity
  8
0
  6
SLD-Сплошная
 62
     7
370
    25
100
AcDbLine
 10
61.1603612778
 20
175.0505613253
 30
0.0
 11
38.5404882968
 21
161.9909715707
 31
0.0
  0
LINE
  5
18B
330
1F
100
AcDbEntity
  8
0
  6
SLD-Сплошная
 62
     7
370
    25
100
AcDbLine
 10
65.4904882968
 20
175.0505613253
 30
0.0
 11
61.1603612778
 21
175.0505613253
 31
0.0
  0
LINE
  5
18C
330
1F
100
AcDbEntity
  8
0
  6
SLD-Сплошная
 62
     7
370
    25
100
AcDbLine
 10
65.4904882968
 20
175.0505613253
 30
0.0
 11
88.1103612778
 21
161.9909715707
 31
0.0
  0
LINE
  5
18D
330
1F
100
AcDbEntity
  8
0
  6
SLD-Сплошная
 62
     7
370
    25
100
AcDbLine
 10
88.1103612778
 20
161.9909715707
 30
0.0
 11
90.2754247873
 21
158.2409715707
 31
0.0
  0
LINE
  5
18E
330
1F
100
AcDbEntity
  8
0
  6
SLD-Сплошная
 62
     7
370
    25
100
AcDbLine
 10
90.2754247873
 20
158.2409715707
 30
0.0
 11
90.2754247873
 21
132.1217920614
 31
0.0
  0
LINE
  5
18F
330
1F
100
AcDbEntity
  8
0
  6
SLD-Сплошная
 62
     7
370
    25
100
AcDbLine
 10
90.2754247873
 20
132.1217920614
 30
0.0
 11
88.1103612778
 21
128.3717920614
 31
0.0
  0
LINE
  5
190
330
1F
100
AcDbEntity
  8
0
  6
SLD-Сплошная
 62
     7
370
    25
100
AcDbLine
 10
88.1103612778
 20
128.3717920614
 30
0.0
 11
65.4904882968
 21
115.3122023067
 31
0.0
  0
LINE
  5
191
330
1F
100
AcDbEntity
  8
0
  6
SLD-Сплошная
 62
     7
370
    25
100
AcDbLine
 10
61.1603612778
 20
115.3122023067
 30
0.0
 11
65.4904882968
 21
115.3122023067
 31
0.0
  0
LINE
  5
192
330
1F
100
AcDbEntity
  8
0
  6
SLD-Сплошная
 62
     7
370
    25
100
AcDbLine
 10
38.5404882968
 20
128.3717920614
 30
0.0
 11
61.1603612778
 21
115.3122023067
 31
0.0
  0
ARC
  5
193
330
1F
100
AcDbEntity
  8
0
  6
SLD-Сплошная
 62
     7
370
    25
100
AcDbCircle
 10
63.3254247873
 20
145.181381816
 30
0.0
 40
29.94754388192844
100
AcDbArc
 50
0.0
 51
25.8541736882
  0
ARC
  5
194
330
1F
100
AcDbEntity
  8
0
  6
SLD-Сплошная
 62
     7
370
    25
100
AcDbCircle
 10
63.3254247873
 20
145.181381816
 30
0.0
 40
29.94754388192849
100
AcDbArc
 50
334.1458263118
 51
0.0
  0
ARC
  5
195
330
1F
100
AcDbEntity
  8
0
  6
SLD-Сплошная
 62
     7
370
    25
100
AcDbCircle
 10
63.3254247873
 20
145.181381816
 30
0.0
 40
29.94754388192849
100
AcDbArc
 50
325.8541736882
 51
334.1458263118
  0
ARC
  5
196
330
1F
100
AcDbEntity
  8
0
  6
SLD-Сплошная
 62
     7
370
    25
100
AcDbCircle
 10
63.3254247873
 20
145.181381816
 30
0.0
 40
29.9475438819285
100
AcDbArc
 50
25.8541736882
 51
34.1458263118
  0
ARC
  5
197
330
1F
100
AcDbEntity
  8
0
  6
SLD-Сплошная
 62
     7
370
    25
100
AcDbCircle
 10
63.3254247873
 20
145.181381816
 30
0.0
 40
29.94754388192847
100
AcDbArc
 50
274.1458263118
 51
325.8541736882
  0
ARC
  5
198
330
1F
100
AcDbEntity
  8
0
  6
SLD-Сплошная
 62
     7
370
    25
100
AcDbCircle
 10
63.3254247873
 20
145.181381816
 30
0.0
 40
29.9475438819285
100
AcDbArc
 50
34.1458263118
 51
85.8541736882
  0
ARC
  5
199
330
1F
100
AcDbEntity
  8
0
  6
SLD-Сплошная
 62
     7
370
    25
100
AcDbCircle
 10
63.3254247873
 20
145.181381816
 30
0.0
 40
29.94754388192849
100
AcDbArc
 50
265.8541736882
 51
274.1458263118
  0
ARC
  5
19A
330
1F
100
AcDbEntity
  8
0
  6
SLD-Сплошная
 62
     7
370
    25
100
AcDbCircle
 10
63.3254247873
 20
145.181381816
 30
0.0
 40
29.94754388192849
100
AcDbArc
 50
85.8541736882
 51
94.1458263118
  0
ARC
  5
19B
330
1F
100
AcDbEntity
  8
0
  6
SLD-Сплошная
 62
     7
370
    25
100
AcDbCircle
 10
63.3254247873
 20
145.181381816
 30
0.0
 40
29.94754388192848
100
AcDbArc
 50
94.1458263118
 51
145.8541736882
  0
ARC
  5
19C
330
1F
100
AcDbEntity
  8
0
  6
SLD-Сплошная
 62
     7
370
    25
100
AcDbCircle
 10
63.3254247873
 20
145.181381816
 30
0.0
 40
29.94754388192852
100
AcDbArc
 50
214.1458263118
 51
265.8541736882
  0
ARC
  5
19D
330
1F
100
AcDbEntity
  8
0
  6
SLD-Сплошная
 62
     7
370
    25
100
AcDbCircle
 10
63.3254247873
 20
145.181381816
 30
0.0
 40
29.94754388192862
100
AcDbArc
 50
145.8541736882
 51
154.1458263118
  0
ARC
  5
19E
330
1F
100
AcDbEntity
  8
0
  6
SLD-Сплошная
 62
     7
370
    25
100
AcDbCircle
 10
63.3254247873
 20
145.181381816
 30
0.0
 40
29.94754388192854
100
AcDbArc
 50
205.8541736882
 51
214.1458263118
  0
ARC
  5
19F
330
1F
100
AcDbEntity
  8
0
  6
SLD-Сплошная
 62
     7
370
    25
100
AcDbCircle
 10
63.3254247873
 20
145.181381816
 30
0.0
 40
29.94754388192854
100
AcDbArc
 50
180.0
 51
205.8541736882
  0
ARC
  5
1A0
330
1F
100
AcDbEntity
  8
0
  6
SLD-Сплошная
 62
     7
370
    25
100
AcDbCircle
 10
63.3254247873
 20
145.181381816
 30
0.0
 40
29.94754388192862
100
AcDbArc
 50
154.1458263118
 51
180.0
  0
ARC
  5
1A1
330
1F
100
AcDbEntity
  8
0
  6
SLD-Сплошная
 62
     7
370
    25
100
AcDbCircle
 10
63.3254247873
 20
145.1813818159
 30
0.0
 40
30.39999999999999
100
AcDbArc
 50
21.1280523115
 51
159.051417394
  0
LINE
  5
1A2
330
1F
100
AcDbEntity
  8
0
  6
SLD-Сплошная
 62
     7
370
    25
100
AcDbLine
 10
93.7248321526
 20
145.0241810722
 30
0.0
 11
93.7253918037
 21
145.2261635565
 31
0.0
  0
SPLINE
  5
1A3
330
1F
100
AcDbEntity
  8
0
  6
SLD-Сплошная
 62
     7
370
    25
100
AcDbSpline
210
0.0
220
0.0
230
1.0
 70
     8
 71
     3
 72
    11
 73
     7
 74
     0
 42
0.00000001
 43
0.00000001
 40
0.0
 40
0.0
 40
0.0
 40
0.0
 40
0.2367940269568025
 40
0.474273686373964
 40
0.9472109329889983
 40
1.0
 40
1.0
 40
1.0
 40
1.0
 10
93.72539180365247
 20
145.2261635564649
 30
0.0
 10
93.71893298416852
 20
145.4469579979003
 30
0.0
 10
93.70599664381547
 20
145.8891861867452
 30
0.0
 10
93.53374135522898
 20
147.0309026932867
 30
0.0
 10
93.34190886260346
 20
147.8864802266209
 30
0.0
 10
93.0433291786478
 20
148.4911516059364
 30
0.0
 10
93.01334828833293
 20
148.5518676803177
 30
0.0
  0
SPLINE
  5
1A4
330
1F
100
AcDbEntity
  8
0
  6
SLD-Сплошная
 62
     7
370
    25
100
AcDbSpline
210
0.0
220
0.0
230
1.0
 70
     8
 71
     3
 72
    11
 73
     7
 74
     0
 42
0.00000001
 43
0.00000001
 40
0.0
 40
0.0
 40
0.0
 40
0.0
 40
0.111345679317506
 40
0.5102830658438878
 40
0.9097524462835727
 40
1.0
 40
1.0
 40
1.0
 40
1.0
 10
33.69214291830082
 20
148.5875152316548
 30
0.0
 10
33.6197494654952
 20
148.4577402717752
 30
0.0
 10
33.28797949228107
 20
147.8629981605141
 30
0.0
 10
33.08214299665549
 20
146.8517622238334
 30
0.0
 10
32.93140209967566
 20
145.6789851619548
 30
0.0
 10
32.92638276054796
 20
145.2966265641489
 30
0.0
 10
32.92545777093466
 20
145.2261635564649
 30
0.0
  0
LINE
  5
1A5
330
1F
100
AcDbEntity
  8
0
  6
SLD-Сплошная
 62
     7
370
    25
100
AcDbLine
 10
32.9254577709
 20
145.2261635565
 30
0.0
 11
32.9262080984
 21
144.9651325901
 31
0.0
  0
SPLINE
  5
1A6
330
1F
100
AcDbEntity
  8
0
  6
SLD-Сплошная
 62
     7
370
    25
100
AcDbSpline
210
0.0
220
0.0
230
1.0
 70
     8
 71
     3
 72
    11
 73
     7
 74
     0
 42
0.00000001
 43
0.00000001
 40
0.0
 40
0.0
 40
0.0
 40
0.0
 40
0.0946667187284545
 40
0.388835805658303
 40
0.6899815344045708
 40
1.0
 40
1.0
 40
1.0
 40
1.0
 10
44.16649626337159
 20
121.74689037518
 30
0.0
 10
43.71453704025554
 20
122.0856383542995
 30
0.0
 10
41.85815149097791
 20
123.4770179768875
 30
0.0
 10
39.24382401169805
 20
126.595773679951
 30
0.0
 10
36.36588766935477
 20
130.9964231548685
 30
0.0
 10
35.19451892068397
 20
134.2870459890457
 30
0.0
 10
34.60033171948426
 20
135.9562436471377
 30
0.0
  0
SPLINE
  5
1A7
330
1F
100
AcDbEntity
  8
0
  6
SLD-Сплошная
 62
     7
370
    25
100
AcDbSpline
210
0.0
220
0.0
230
1.0
 70
     8
 71
     3
 72
    14
 73
    10
 74
     0
 42
0.00000001
 43
0.00000001
 40
0.0
 40
0.0
 40
0.0
 40
0.0
 40
0.0581399829274504
 40
0.2174850143554705
 40
0.3777646260633444
 40
0.5420849355959679
 40
0.7116956727226921
 40
0.8856302585208767
 40
1.0
 40
1.0
 40
1.0
 40
1.0
 10
33.43222388738461
 20
140.3408949762828
 30
0.0
 10
33.43369012972961
 20
140.3556852385629
 30
0.0
 10
33.43917492214599
 20
140.411011371154
 30
0.0
 10
33.51108050516128
 20
140.1471955975994
 30
0.0
 10
33.64512068282152
 20
139.583422817654
 30
0.0
 10
33.8439359823634
 20
138.7354328190437
 30
0.0
 10
34.10042512614673
 20
137.7147291493531
 30
0.0
 10
34.36753530007726
 20
136.7409678028553
 30
0.0
 10
34.53472675119195
 20
136.1779346353769
 30
0.0
 10
34.60105126051197
 20
135.9545805205885
 30
0.0
  0
ARC
  5
1A8
330
1F
100
AcDbEntity
  8
0
  6
SLD-Сплошная
 62
     7
370
    25
100
AcDbCircle
 10
63.3254247873
 20
145.1813818159
 30
0.0
 40
30.40000000000001
100
AcDbArc
 50
179.9155984979
 51
189.3063665735
  0
ARC
  5
1A9
330
1F
100
AcDbEntity
  8
0
  6
SLD-Сплошная
 62
     7
370
    25
100
AcDbCircle
 10
63.3254247873
 20
145.1813818159
 30
0.0
 40
30.39999999999999
100
AcDbArc
 50
350.6936334265
 51
0.0844015021
  0
SPLINE
  5
1AA
330
1F
100
AcDbEntity
  8
0
  6
SLD-Сплошная
 62
     7
370
    25
100
AcDbSpline
210
0.0
220
0.0
230
1.0
 70
     8
 71
     3
 72
    13
 73
     9
 74
     0
 42
0.00000001
 43
0.00000001
 40
0.0
 40
0.0
 40
0.0
 40
0.0
 40
0.1752174884477703
 40
0.3504986837728438
 40
0.5261890786912412
 40
0.6991918818507551
 40
0.867021374091683
 40
1.0
 40
1.0
 40
1.0
 40
1.0
 10
92.04979831408201
 20
135.9545805206114
 30
0.0
 10
92.15233619111056
 20
136.3022430673898
 30
0.0
 10
92.35744922665143
 20
136.9976945666806
 30
0.0
 10
92.65287265170244
 20
138.1112438569963
 30
0.0
 10
92.89794376931881
 20
139.118284148724
 30
0.0
 10
93.07682757279463
 20
139.8879406139393
 30
0.0
 10
93.18835206672551
 20
140.3416582792527
 30
0.0
 10
93.21106445475422
 20
140.3511775267447
 30
0.0
 10
93.22110494890622
 20
140.3553857125443
 30
0.0
  0
SPLINE
  5
1AB
330
1F
100
AcDbEntity
  8
0
  6
SLD-Сплошная
 62
     7
370
    25
100
AcDbSpline
210
0.0
220
0.0
230
1.0
 70
     8
 71
     3
 72
    12
 73
     8
 74
     0
 42
0.00000001
 43
0.00000001
 40
0.0
 40
0.0
 40
0.0
 40
0.0
 40
0.1942774719887007
 40
0.3910363567102196
 40
0.6662923889961693
 40
0.9496174195545436
 40
1.0
 40
1.0
 40
1.0
 40
1.0
 10
92.05051785510463
 20
135.9562436471375
 30
0.0
 10
91.67602284405956
 20
134.8514693248208
 30
0.0
 10
90.92224957726653
 20
132.6278099289911
 30
0.0
 10
89.06977595690519
 20
129.0270775092345
 30
0.0
 10
86.35543456628167
 20
125.2857127807169
 30
0.0
 10
83.76773966656333
 20
122.4809428625017
 30
0.0
 10
82.01986121549018
 20
121.3045641409492
 30
0.0
 10
81.75596964165052
 20
121.1269565778653
 30
0.0
  0
LWPOLYLINE
  5
1AC
330
1F
100
AcDbEntity
  8
0
  6
SLD-Сплошная
 62
     7
370
    25
100
AcDbPolyline
 90
        3
 70
   128
 43
0.0
 10
60.4754247873
 20
137.6813818159
 10
60.6149137159
 20
136.8006833819
 10
60.6683385017
 20
136.65065757
  0
ARC
  5
1AD
330
1F
100
AcDbEntity
  8
0
  6
SLD-Сплошная
 62
     7
370
    25
100
AcDbCircle
 10
63.3254247873
 20
137.6813818159
 30
0.0
 40
2.850000000000001
100
AcDbArc
 50
338.7979682874
 51
180.0
  0
LWPOLYLINE
  5
1AE
330
1F
100
AcDbEntity
  8
0
  6
SLD-Сплошная
 62
     7
370
    25
100
AcDbPolyline
 90
        3
 70
   128
 43
0.0
 10
60.8254247873
 20
137.6813818159
 10
60.960881683
 20
136.8696331429
 10
61.1085155241
 20
136.5258242367
  0
ARC
  5
1AF
330
1F
100
AcDbEntity
  8
0
  6
SLD-Сплошная
 62
     7
370
    25
100
AcDbCircle
 10
63.3254247873
 20
137.6813818159
 30
0.0
 40
2.500000000000007
100
AcDbArc
 50
332.4693510385
 51
180.0
  0
LINE
  5
1B0
330
1F
100
AcDbEntity
  8
0
  6
SLD-Сплошная
 62
     7
370
    25
100
AcDbLine
 10
61.6479121607
 20
137.4813818159
 30
0.0
 11
65.0029374139
 21
137.4813818159
 31
0.0
  0
ARC
  5
1B1
330
1F
100
AcDbEntity
  8
0
  6
SLD-Сплошная
 62
     7
370
    25
100
AcDbCircle
 10
61.6479121607
 20
137.6563818159
 30
0.0
 40
0.1749999999999829
100
AcDbArc
 50
90.0
 51
270.0
  0
LINE
  5
1B2
330
1F
100
AcDbEntity
  8
0
  6
SLD-Сплошная
 62
     7
370
    25
100
AcDbLine
 10
63.1504247873
 20
137.8313818159
 30
0.0
 11
61.6479121607
 21
137.8313818159
 31
0.0
  0
LINE
  5
1B3
330
1F
100
AcDbEntity
  8
0
  6
SLD-Сплошная
 62
     7
370
    25
100
AcDbLine
 10
63.1504247873
 20
137.8313818159
 30
0.0
 11
63.1504247873
 21
138.4063818159
 31
0.0
  0
ARC
  5
1B4
330
1F
100
AcDbEntity
  8
0
  6
SLD-Сплошная
 62
     7
370
    25
100
AcDbCircle
 10
63.3254247873
 20
138.4063818159
 30
0.0
 40
0.1749999999999829
100
AcDbArc
 50
0.0
 51
180.0
  0
LINE
  5
1B5
330
1F
100
AcDbEntity
  8
0
  6
SLD-Сплошная
 62
     7
370
    25
100
AcDbLine
 10
63.5004247873
 20
138.4063818159
 30
0.0
 11
63.5004247873
 21
137.8313818159
 31
0.0
  0
LINE
  5
1B6
330
1F
100
AcDbEntity
  8
0
  6
SLD-Сплошная
 62
     7
370
    25
100
AcDbLine
 10
65.0029374139
 20
137.8313818159
 30
0.0
 11
63.5004247873
 21
137.8313818159
 31
0.0
  0
ARC
  5
1B7
330
1F
100
AcDbEntity
  8
0
  6
SLD-Сплошная
 62
     7
370
    25
100
AcDbCircle
 10
65.0029374139
 20
137.6563818159
 30
0.0
 40
0.1749999999999829
100
AcDbArc
 50
270.0
 51
90.0
  0
ARC
  5
1B8
330
1F
100
AcDbEntity
  8
0
  6
SLD-Сплошная
 62
     7
370
    25
100
AcDbCircle
 10
62.3479121607
 20
136.9563818159
 30
0.0
 40
0.1749999999999829
100
AcDbArc
 50
90.0
 51
270.0
  0
LINE
  5
1B9
330
1F
100
AcDbEntity
  8
0
  6
SLD-Сплошная
 62
     7
370
    25
100
AcDbLine
 10
64.3029374139
 20
137.1313818159
 30
0.0
 11
62.3479121607
 21
137.1313818159
 31
0.0
  0
ARC
  5
1BA
330
1F
100
AcDbEntity
  8
0
  6
SLD-Сплошная
 62
     7
370
    25
100
AcDbCircle
 10
64.3029374139
 20
136.9563818159
 30
0.0
 40
0.1750000000000114
100
AcDbArc
 50
270.0
 51
90.0
  0
LINE
  5
1BB
330
1F
100
AcDbEntity
  8
0
  6
SLD-Сплошная
 62
     7
370
    25
100
AcDbLine
 10
62.3479121607
 20
136.7813818159
 30
0.0
 11
64.3029374139
 21
136.7813818159
 31
0.0
  0
ARC
  5
1BC
330
1F
100
AcDbEntity
  8
0
  6
SLD-Сплошная
 62
     7
370
    25
100
AcDbCircle
 10
63.0479121607
 20
136.2563818159
 30
0.0
 40
0.1750000000000114
100
AcDbArc
 50
90.0
 51
179.5042951388
  0
LINE
  5
1BD
330
1F
100
AcDbEntity
  8
0
  6
SLD-Сплошная
 62
     7
370
    25
100
AcDbLine
 10
63.0479121607
 20
136.4313818159
 30
0.0
 11
63.6029374139
 21
136.4313818159
 31
0.0
  0
ARC
  5
1BE
330
1F
100
AcDbEntity
  8
0
  6
SLD-Сплошная
 62
     7
370
    25
100
AcDbCircle
 10
63.6029374139
 20
136.2563818159
 30
0.0
 40
0.1750000000000114
100
AcDbArc
 50
0.4957048612
 51
90.0
  0
LINE
  5
1BF
330
1F
100
AcDbEntity
  8
0
  6
SLD-Сплошная
 62
     7
370
    25
100
AcDbLine
 10
58.9254247873
 20
142.1444825021
 30
0.0
 11
58.9254247873
 21
137.4049196583
 31
0.0
  0
LINE
  5
1C0
330
1F
100
AcDbEntity
  8
0
  6
SLD-Сплошная
 62
     7
370
    25
100
AcDbLine
 10
67.7254247873
 20
142.1444825021
 30
0.0
 11
58.9254247873
 21
142.1444825021
 31
0.0
  0
LINE
  5
1C1
330
1F
100
AcDbEntity
  8
0
  6
SLD-Сплошная
 62
     7
370
    25
100
AcDbLine
 10
67.7254247873
 20
137.4049196583
 30
0.0
 11
67.7254247873
 21
142.1444825021
 31
0.0
  0
LINE
  5
1C2
330
1F
100
AcDbEntity
  8
0
  6
SLD-Сплошная
 62
     7
370
    25
100
AcDbLine
 10
60.1254247873
 20
142.1444825021
 30
0.0
 11
60.1254247873
 21
153.523645519
 31
0.0
  0
LINE
  5
1C3
330
1F
100
AcDbEntity
  8
0
  6
SLD-Сплошная
 62
     7
370
    25
100
AcDbLine
 10
66.5254247873
 20
153.523645519
 30
0.0
 11
66.5254247873
 21
142.1444825021
 31
0.0
  0
ELLIPSE
  5
1C4
330
1F
100
AcDbEntity
  8
0
  6
SLD-Сплошная
 62
     7
370
    25
100
AcDbEllipse
 10
37.3815039409
 20
156.8937585582
 30
0.0
 11
-1.887380891928629
 21
-5.08641586383348
 31
0.0
210
0.0
220
0.0
230
1.0
 40
0.6912065695
 41
3.455397840505515
 42
4.712388980384698
  0
ELLIPSE
  5
1C5
330
1F
100
AcDbEntity
  8
0
  6
SLD-Сплошная
 62
     7
370
    25
100
AcDbEllipse
 10
89.2693456336
 20
156.8937585582
 30
0.0
 11
1.887380891928629
 21
-5.08641586383348
 31
0.0
210
0.0
220
0.0
230
1.0
 40
0.6912065695
 41
1.570796326794887
 42
2.827787466674093
  0
ARC
  5
1C6
330
1F
100
AcDbEntity
  8
0
  6
SLD-Сплошная
 62
     7
370
    25
100
AcDbCircle
 10
63.3254247873
 20
110.0813818159
 30
0.0
 40
6.800000000000006
100
AcDbArc
 50
176.1370265409
 51
3.8629734591
  0
ARC
  5
1C7
330
1F
100
AcDbEntity
  8
0
  6
SLD-Сплошная
 62
     7
370
    25
100
AcDbCircle
 10
63.3254247873
 20
145.1813818159
 30
0.0
 40
35.30000000000001
100
AcDbArc
 50
281.081020604
 51
258.918979396
  0
LINE
  5
1C8
330
1F
100
AcDbEntity
  8
0
  6
SLD-Сплошная
 62
     7
370
    25
100
AcDbLine
 10
49.0254247873
 20
177.4552102222
 30
0.0
 11
49.0254247873
 21
197.0778584069
 31
0.0
  0
LINE
  5
1C9
330
1F
100
AcDbEntity
  8
0
  6
SLD-Сплошная
 62
     7
370
    25
100
AcDbLine
 10
53.0254247873
 20
197.0778584069
 30
0.0
 11
53.0254247873
 21
189.1001387653
 31
0.0
  0
LINE
  5
1CA
330
1F
100
AcDbEntity
  8
0
  6
SLD-Сплошная
 62
     7
370
    25
100
AcDbLine
 10
73.6254247873
 20
189.1001387653
 30
0.0
 11
53.0254247873
 21
189.1001387653
 31
0.0
  0
LINE
  5
1CB
330
1F
100
AcDbEntity
  8
0
  6
SLD-Сплошная
 62
     7
370
    25
100
AcDbLine
 10
73.6254247873
 20
189.1001387653
 30
0.0
 11
73.6254247873
 21
197.0778584069
 31
0.0
  0
LINE
  5
1CC
330
1F
100
AcDbEntity
  8
0
  6
SLD-Сплошная
 62
     7
370
    25
100
AcDbLine
 10
77.6254247873
 20
177.4552102222
 30
0.0
 11
77.6254247873
 21
197.0778584069
 31
0.0
  0
LINE
  5
1CD
330
1F
100
AcDbEntity
  8
0
  6
SLD-Сплошная
 62
     7
370
    25
100
AcDbLine
 10
73.6254247873
 20
197.0778584069
 30
0.0
 11
73.6254247873
 21
197.8813818159
 31
0.0
  0
LINE
  5
1CE
330
1F
100
AcDbEntity
  8
0
  6
SLD-Сплошная
 62
     7
370
    25
100
AcDbLine
 10
77.6254247873
 20
197.0778584069
 30
0.0
 11
77.6254247873
 21
197.8813818159
 31
0.0
  0
LINE
  5
1CF
330
1F
100
AcDbEntity
  8
0
  6
SLD-Сплошная
 62
     7
370
    25
100
AcDbLine
 10
53.0254247873
 20
197.8813818159
 30
0.0
 11
53.0254247873
 21
197.0778584069
 31
0.0
  0
LINE
  5
1D0
330
1F
100
AcDbEntity
  8
0
  6
SLD-Сплошная
 62
     7
370
    25
100
AcDbLine
 10
49.0254247873
 20
197.0778584069
 30
0.0
 11
49.0254247873
 21
197.8813818159
 31
0.0
  0
LINE
  5
1D1
330
1F
100
AcDbEntity
  8
0
  6
SLD-Сплошная
 62
     7
370
    25
100
AcDbLine
 10
56.3254247873
 20
199.030473958
 30
0.0
 11
70.3254247873
 21
199.030473958
 31
0.0
  0
LINE
  5
1D2
330
1F
100
AcDbEntity
  8
0
  6
SLD-Сплошная
 62
     7
370
    25
100
AcDbLine
 10
70.3254247873
 20
199.030473958
 30
0.0
 11
73.3254247873
 21
199.030473958
 31
0.0
  0
LINE
  5
1D3
330
1F
100
AcDbEntity
  8
0
  6
SLD-Сплошная
 62
     7
370
    25
100
AcDbLine
 10
53.3254247873
 20
199.030473958
 30
0.0
 11
53.3254247873
 21
189.1001387653
 31
0.0
  0
LINE
  5
1D4
330
1F
100
AcDbEntity
  8
0
  6
SLD-Сплошная
 62
     7
370
    25
100
AcDbLine
 10
53.3254247873
 20
199.030473958
 30
0.0
 11
56.3254247873
 21
199.030473958
 31
0.0
  0
LINE
  5
1D5
330
1F
100
AcDbEntity
  8
0
  6
SLD-Сплошная
 62
     7
370
    25
100
AcDbLine
 10
73.3254247873
 20
189.1001387653
 30
0.0
 11
73.3254247873
 21
199.030473958
 31
0.0
  0
LINE
  5
1D6
330
1F
100
AcDbEntity
  8
0
  6
SLD-Сплошная
 62
     7
370
    25
100
AcDbLine
 10
56.3254247873
 20
199.030473958
 30
0.0
 11
56.3254247873
 21
208.688507927
 31
0.0
  0
LINE
  5
1D7
330
1F
100
AcDbEntity
  8
0
  6
SLD-Сплошная
 62
     7
370
    25
100
AcDbLine
 10
70.3254247873
 20
208.688507927
 30
0.0
 11
56.3254247873
 21
208.688507927
 31
0.0
  0
LINE
  5
1D8
330
1F
100
AcDbEntity
  8
0
  6
SLD-Сплошная
 62
     7
370
    25
100
AcDbLine
 10
70.3254247873
 20
208.688507927
 30
0.0
 11
70.3254247873
 21
199.030473958
 31
0.0
  0
LINE
  5
1D9
330
1F
100
AcDbEntity
  8
0
  6
SLD-Сплошная
 62
     7
370
    25
100
AcDbLine
 10
56.3254247873
 20
208.688507927
 30
0.0
 11
56.3254247873
 21
210.2024460849
 31
0.0
  0
LINE
  5
1DA
330
1F
100
AcDbEntity
  8
0
  6
SLD-Сплошная
 62
     7
370
    25
100
AcDbLine
 10
70.3254247873
 20
210.2024460849
 30
0.0
 11
56.3254247873
 21
210.2024460849
 31
0.0
  0
LINE
  5
1DB
330
1F
100
AcDbEntity
  8
0
  6
SLD-Сплошная
 62
     7
370
    25
100
AcDbLine
 10
70.3254247873
 20
208.688507927
 30
0.0
 11
70.3254247873
 21
210.2024460849
 31
0.0
  0
LINE
  5
1DC
330
1F
100
AcDbEntity
  8
0
  6
SLD-Сплошная
 62
     7
370
    25
100
AcDbLine
 10
70.1173302613
 20
110.5409427304
 30
0.0
 11
70.1251242239
 21
110.1453159347
 31
0.0
  0
LINE
  5
1DD
330
1F
100
AcDbEntity
  8
0
  6
SLD-Сплошная
 62
     7
370
    25
100
AcDbLine
 10
56.5257253507
 20
110.1453159347
 30
0.0
 11
56.5335193133
 21
110.5409427304
 31
0.0
  0
ARC
  5
1DE
330
1F
100
AcDbEntity
  8
0
  6
SLD-Сплошная
 62
     7
370
    25
100
AcDbCircle
 10
63.3254247873
 20
134.4073775722
 30
0.0
 40
31.51217741109848
100
AcDbArc
 50
255.0182040421
 51
284.9817959579
  0
ARC
  5
1DF
330
1F
100
AcDbEntity
  8
0
  6
SLD-Сплошная
 62
     7
370
    25
100
AcDbCircle
 10
55.8254247873
 20
106.3813818159
 30
0.0
 40
2.5
100
AcDbArc
 50
180.0
 51
255.0182040421
  0
LINE
  5
1E0
330
1F
100
AcDbEntity
  8
0
  6
SLD-Сплошная
 62
     7
370
    25
100
AcDbLine
 10
53.3254247873
 20
111.3274307909
 30
0.0
 11
53.3254247873
 21
106.3813818159
 31
0.0
  0
LINE
  5
1E1
330
1F
100
AcDbEntity
  8
0
  6
SLD-Сплошная
 62
     7
370
    25
100
AcDbLine
 10
73.3254247873
 20
106.3813818159
 30
0.0
 11
73.3254247873
 21
111.3274307909
 31
0.0
  0
ARC
  5
1E2
330
1F
100
AcDbEntity
  8
0
  6
SLD-Сплошная
 62
     7
370
    25
100
AcDbCircle
 10
70.8254247873
 20
106.3813818159
 30
0.0
 40
2.499999999999986
100
AcDbArc
 50
284.9817959579
 51
0.0
  0
LINE
  5
1E3
330
1F
100
AcDbEntity
  8
0
  6
SLD-Сплошная
 62
     7
370
    25
100
AcDbLine
 10
133.9707705667
 20
256.4537991365
 30
0.0
 11
186.5707705667
 21
256.4537991365
 31
0.0
  0
LINE
  5
1E4
330
1F
100
AcDbEntity
  8
0
  6
SLD-Сплошная
 62
     7
370
    25
100
AcDbLine
 10
186.5707705667
 20
270.0537991365
 30
0.0
 11
133.9707705667
 21
270.0537991365
 31
0.0
  0
LINE
  5
1E5
330
1F
100
AcDbEntity
  8
0
  6
SLD-Сплошная
 62
     7
370
    25
100
AcDbLine
 10
148.8607705667
 20
298.5537991365
 30
0.0
 11
133.9707705667
 21
298.5537991365
 31
0.0
  0
LINE
  5
1E6
330
1F
100
AcDbEntity
  8
0
  6
SLD-Сплошная
 62
     7
370
    25
100
AcDbLine
 10
186.5707705667
 20
298.5537991365
 30
0.0
 11
171.0174372333
 21
298.5537991365
 31
0.0
  0
LINE
  5
1E7
330
1F
100
AcDbEntity
  8
0
  6
SLD-Сплошная
 62
     7
370
    25
100
AcDbLine
 10
133.9707705667
 20
227.9537991365
 30
0.0
 11
186.5707705667
 21
227.9537991365
 31
0.0
  0
LINE
  5
1E8
330
1F
100
AcDbEntity
  8
0
  6
SLD-Сплошная
 62
     7
370
    25
100
AcDbLine
 10
211.998439391
 20
232.8541923665
 30
0.0
 11
216.8679801427
 21
232.9141358684
 31
0.0
  0
ARC
  5
1E9
330
1F
100
AcDbEntity
  8
0
  6
SLD-Сплошная
 62
     7
370
    25
100
AcDbCircle
 10
211.5707705667
 20
465.4158631927
 30
0.0
 40
232.5620640561955
100
AcDbArc
 50
272.3604165776
 51
278.1626961362
  0
ARC
  5
1EA
330
1F
100
AcDbEntity
  8
0
  6
SLD-Сплошная
 62
     7
370
    25
100
AcDbCircle
 10
211.5707705667
 20
465.4158631927
 30
0.0
 40
232.5620640561955
100
AcDbArc
 50
279.1384315097
 51
282.9537181095
  0
ARC
  5
1EB
330
1F
100
AcDbEntity
  8
0
  6
SLD-Сплошная
 62
     7
370
    25
100
AcDbCircle
 10
211.5707705667
 20
465.4158631927
 30
0.0
 40
232.5620640561954
100
AcDbArc
 50
270.0
 51
270.1053638416
  0
ARC
  5
1EC
330
1F
100
AcDbEntity
  8
0
  6
SLD-Сплошная
 62
     7
370
    25
100
AcDbCircle
 10
211.5707705667
 20
61.0917350803
 30
0.0
 40
232.5620640561955
100
AcDbArc
 50
89.8773328924
 51
90.0
  0
ARC
  5
1ED
330
1F
100
AcDbEntity
  8
0
  6
SLD-Сплошная
 62
     7
370
    25
100
AcDbCircle
 10
211.5707705667
 20
61.0917350803
 30
0.0
 40
232.5620640561956
100
AcDbArc
 50
77.0459279295
 51
80.8615684903
  0
ARC
  5
1EE
330
1F
100
AcDbEntity
  8
0
  6
SLD-Сплошная
 62
     7
370
    25
100
AcDbCircle
 10
211.5707705667
 20
61.0917350803
 30
0.0
 40
232.5620640561955
100
AcDbArc
 50
81.8373038638
 51
87.6395834224
  0
LINE
  5
1EF
330
1F
100
AcDbEntity
  8
0
  6
SLD-Сплошная
 62
     7
370
    25
100
AcDbLine
 10
216.7994962526
 20
293.595012618
 30
0.0
 11
212.068672754
 21
293.6532661457
 31
0.0
  0
SPLINE
  5
1F0
330
1F
100
AcDbEntity
  8
0
  6
SLD-Сплошная
 62
     7
370
    25
100
AcDbSpline
210
0.0
220
0.0
230
1.0
 70
     8
 71
     3
 72
     9
 73
     5
 74
     0
 42
0.00000001
 43
0.00000001
 40
0.0
 40
0.0
 40
0.0
 40
0.0
 40
0.2928026265740042
 40
0.9999999999999999
 40
0.9999999999999999
 40
0.9999999999999999
 40
0.9999999999999999
 10
213.3516924618125
 20
235.9997071389105
 30
0.0
 10
213.6805679371593
 20
235.5990520634891
 30
0.0
 10
214.8037664521279
 20
234.2307068402601
 30
0.0
 10
216.0877091547261
 20
233.4463520828057
 30
0.0
 10
216.995710061633
 20
232.8916584584998
 30
0.0
  0
SPLINE
  5
1F1
330
1F
100
AcDbEntity
  8
0
  6
SLD-Сплошная
 62
     7
370
    25
100
AcDbSpline
210
0.0
220
0.0
230
1.0
 70
     8
 71
     3
 72
     9
 73
     5
 74
     0
 42
0.00000001
 43
0.00000001
 40
0.0
 40
0.0
 40
0.0
 40
0.0
 40
0.7246904687913159
 40
1.0
 40
1.0
 40
1.0
 40
1.0
 10
216.9957857268946
 20
293.6159837104254
 30
0.0
 10
216.0871672527402
 20
293.0637349879794
 30
0.0
 10
214.8333650940478
 20
292.3016872638428
 30
0.0
 10
213.7364112590581
 20
290.9698128461092
 30
0.0
 10
213.4344094129895
 20
290.6031351245342
 30
0.0
  0
SPLINE
  5
1F2
330
1F
100
AcDbEntity
  8
0
  6
SLD-Сплошная
 62
     7
370
    25
100
AcDbSpline
210
0.0
220
0.0
230
1.0
 70
     8
 71
     3
 72
     9
 73
     5
 74
     0
 42
0.00000001
 43
0.00000001
 40
0.0
 40
0.0
 40
0.0
 40
0.0
 40
0.3370020206175946
 40
1.0
 40
1.0
 40
1.0
 40
1.0
 10
241.7022420141095
 20
237.142685120134
 30
0.0
 10
241.9821567489703
 20
236.8875497694541
 30
0.0
 10
242.8127592906046
 20
236.1304761168619
 30
0.0
 10
243.7171601736648
 20
235.6531329001677
 30
0.0
 10
244.3167761316853
 20
235.3366553120276
 30
0.0
  0
SPLINE
  5
1F3
330
1F
100
AcDbEntity
  8
0
  6
SLD-Сплошная
 62
     7
370
    25
100
AcDbSpline
210
0.0
220
0.0
230
1.0
 70
     8
 71
     3
 72
     9
 73
     5
 74
     0
 42
0.00000001
 43
0.00000001
 40
0.0
 40
0.0
 40
0.0
 40
0.0
 40
0.6547124771546234
 40
1.0
 40
1.0
 40
1.0
 40
1.0
 10
244.3164666432127
 20
291.1707895731132
 30
0.0
 10
243.7170790093968
 20
290.8538311470056
 30
0.0
 10
242.8015815128149
 20
290.369712641299
 30
0.0
 10
241.9607839961153
 20
289.6023907553275
 30
0.0
 10
241.6704671043595
 20
289.3374440820953
 30
0.0
  0
LINE
  5
1F4
330
1F
100
AcDbEntity
  8
0
  6
SLD-Сплошная
 62
     7
370
    25
100
AcDbLine
 10
203.9925181068
 20
293.6537991365
 30
0.0
 11
186.5707705667
 21
293.6537991365
 31
0.0
  0
LINE
  5
1F5
330
1F
100
AcDbEntity
  8
0
  6
SLD-Сплошная
 62
     7
370
    25
100
AcDbLine
 10
186.5707705667
 20
232.8537991365
 30
0.0
 11
204.7242951494
 21
232.8537991365
 31
0.0
  0
SPLINE
  5
1F6
330
1F
100
AcDbEntity
  8
0
  6
SLD-Сплошная
 62
     7
370
    25
100
AcDbSpline
210
0.0
220
0.0
230
1.0
 70
     8
 71
     3
 72
    21
 73
    17
 74
     0
 42
0.00000001
 43
0.00000001
 40
0.0
 40
0.0
 40
0.0
 40
0.0
 40
0.0179192414554961
 40
0.0800764957992616
 40
0.1399907855455039
 40
0.2256270817631608
 40
0.3075036297749051
 40
0.384921665671626
 40
0.4595183268737873
 40
0.5320860091666908
 40
0.6012902697138446
 40
0.7058156379364106
 40
0.8062561573498983
 40
0.9030436305338388
 40
0.9962813681598022
 40
1.0
 40
1.0
 40
1.0
 40
1.0
 10
188.2832724696964
 20
232.8537991364668
 30
0.0
 10
188.5396351608292
 20
232.7771136568142
 30
0.0
 10
189.6852542993722
 20
232.4344259094271
 30
0.0
 10
191.9761314940693
 20
232.1098942737303
 30
0.0
 10
195.521660818716
 20
231.7459411709877
 30
0.0
 10
199.6851619980794
 20
231.5719537804867
 30
0.0
 10
204.3407677452729
 20
231.5001471552939
 30
0.0
 10
208.8527976274412
 20
231.4900390391388
 30
0.0
 10
213.14151164148
 20
231.5163558580945
 30
0.0
 10
217.1810995755021
 20
231.6714139660383
 30
0.0
 10
221.8041706376762
 20
231.9447361339192
 30
0.0
 10
226.9402067407503
 20
232.4022828697861
 30
0.0
 10
232.5735291512931
 20
233.1018617904466
 30
0.0
 10
237.9713163167932
 20
233.981854786054
 30
0.0
 10
241.5469000886691
 20
234.6612942117767
 30
0.0
 10
243.3328230828535
 20
235.0673777499018
 30
0.0
 10
243.4013197700426
 20
235.0829525407378
 30
0.0
  0
SPLINE
  5
1F7
330
1F
100
AcDbEntity
  8
0
  6
SLD-Сплошная
 62
     7
370
    25
100
AcDbSpline
210
0.0
220
0.0
230
1.0
 70
     8
 71
     3
 72
    18
 73
    14
 74
     0
 42
0.00000001
 43
0.00000001
 40
0.0
 40
0.0
 40
0.0
 40
0.0
 40
0.0037007759115616
 40
0.1354619372328892
 40
0.3073539574835531
 40
0.467016850049669
 40
0.6117424164008647
 40
0.6742394642724014
 40
0.7498678534033133
 40
0.8355125291955425
 40
0.9119797625966956
 40
0.9775830117878155
 40
0.9999999999999999
 40
0.9999999999999999
 40
0.9999999999999999
 40
0.9999999999999999
 10
256.8486321723427
 20
237.3859302711359
 30
0.0
 10
256.8743169994819
 20
237.3882419435565
 30
0.0
 10
257.8144756378102
 20
237.4728576111406
 30
0.0
 10
259.8010802689034
 20
237.5357427187544
 30
0.0
 10
262.5400631553887
 20
237.6058776499795
 30
0.0
 10
264.9933290415743
 20
237.703395250661
 30
0.0
 10
266.6290380102672
 20
237.9048729534451
 30
0.0
 10
267.9546804259773
 20
238.2550821332545
 30
0.0
 10
268.978041685124
 20
238.6734398557193
 30
0.0
 10
269.9586682343821
 20
239.2979580943826
 30
0.0
 10
270.7606974009847
 20
240.1141190457513
 30
0.0
 10
271.2605569987778
 20
240.8815614576945
 30
0.0
 10
271.3999641390497
 20
241.2566646860207
 30
0.0
 10
271.4354683402694
 20
241.3521959512821
 30
0.0
  0
SPLINE
  5
1F8
330
1F
100
AcDbEntity
  8
0
  6
SLD-Сплошная
 62
     7
370
    25
100
AcDbSpline
210
0.0
220
0.0
230
1.0
 70
     8
 71
     3
 72
    18
 73
    14
 74
     0
 42
0.00000001
 43
0.00000001
 40
0.0
 40
0.0
 40
0.0
 40
0.0
 40
0.0078773023924114
 40
0.0702919853452902
 40
0.1245626918691336
 40
0.1739825328473283
 40
0.2895683782398112
 40
0.4154846215486629
 40
0.5512142527603903
 40
0.7031585174892069
 40
0.8723141964893223
 40
0.9631182184964177
 40
1.0
 40
1.0
 40
1.0
 40
1.0
 10
271.4596677790037
 20
285.1116594599725
 30
0.0
 10
271.4495535321479
 20
285.1443384922181
 30
0.0
 10
271.3593004916597
 20
285.435945179544
 30
0.0
 10
271.0226239056652
 20
286.0015781749391
 30
0.0
 10
270.5042066407578
 20
286.6717676836074
 30
0.0
 10
269.6165147499934
 20
287.4775231350787
 30
0.0
 10
268.3791277607071
 20
288.142280502004
 30
0.0
 10
266.7250658905552
 20
288.5910323691539
 30
0.0
 10
264.9014031950957
 20
288.7989947103337
 30
0.0
 10
262.4902032348677
 20
288.9002904636259
 30
0.0
 10
260.0024128206406
 20
288.9603040317539
 30
0.0
 10
258.0788647628569
 20
289.0361851848502
 30
0.0
 10
257.2056613532418
 20
289.1007206963
 30
0.0
 10
256.9534383458586
 20
289.1193616459362
 30
0.0
  0
SPLINE
  5
1F9
330
1F
100
AcDbEntity
  8
0
  6
SLD-Сплошная
 62
     7
370
    25
100
AcDbSpline
210
0.0
220
0.0
230
1.0
 70
     8
 71
     3
 72
    28
 73
    24
 74
     0
 42
0.00000001
 43
0.00000001
 40
0.0
 40
0.0
 40
0.0
 40
0.0
 40
0.0141039659817466
 40
0.1009945010732245
 40
0.1808409310912069
 40
0.2571348924387568
 40
0.3367382245447654
 40
0.4199047966457101
 40
0.5017717188086023
 40
0.5430651734772688
 40
0.5775095538061626
 40
0.6123012620062153
 40
0.6560937614225242
 40
0.7043444014421852
 40
0.7325354515337884
 40
0.7590360894108056
 40
0.7847566499807072
 40
0.8175415937620564
 40
0.8593540057266725
 40
0.9106886743201684
 40
0.9504286001302414
 40
0.9944138687219427
 40
0.9999999999999999
 40
0.9999999999999999
 40
0.9999999999999999
 40
0.9999999999999999
 10
244.1986539910758
 20
291.2460430733345
 30
0.0
 10
243.9359092342506
 20
291.3060243908604
 30
0.0
 10
242.0544685345561
 20
291.7355335973548
 30
0.0
 10
238.6628723126739
 20
292.3978395791747
 30
0.0
 10
234.0854252495235
 20
293.169342185518
 30
0.0
 10
229.6253763003275
 20
293.7833466023785
 30
0.0
 10
225.0875707494422
 20
294.2806485808208
 30
0.0
 10
220.4332633472454
 20
294.6580246037867
 30
0.0
 10
216.4967533660897
 20
294.8649041586437
 30
0.0
 10
213.4967353782476
 20
294.968123151631
 30
0.0
 10
211.3685140323602
 20
295.0016953013912
 30
0.0
 10
209.1720206696189
 20
295.0151751138426
 30
0.0
 10
206.6962470971235
 20
295.0181963824521
 30
0.0
 10
204.3542599520277
 20
295.00589982746
 30
0.0
 10
202.367957543225
 20
294.9836458102238
 30
0.0
 10
200.8302047527391
 20
294.9562227449086
 30
0.0
 10
199.2232633193731
 20
294.9147077534384
 30
0.0
 10
197.3468099540023
 20
294.845299671638
 30
0.0
 10
195.0428116189176
 20
294.7142835870604
 30
0.0
 10
192.6938312292638
 20
294.4998481398534
 30
0.0
 10
190.4364477713869
 20
294.1620189937658
 30
0.0
 10
188.9809019989459
 20
293.9031976207723
 30
0.0
 10
188.2533061377594
 20
293.6790572044928
 30
0.0
 10
188.1713143842758
 20
293.6537991364668
 30
0.0
  0
ARC
  5
1FA
330
1F
100
AcDbEntity
  8
0
  6
SLD-Сплошная
 62
     7
370
    25
100
AcDbCircle
 10
211.5707705667
 20
465.4158631927
 30
0.0
 40
232.5620640561955
100
AcDbArc
 50
284.8345934773
 51
284.9511640551
  0
ARC
  5
1FB
330
1F
100
AcDbEntity
  8
0
  6
SLD-Сплошная
 62
     7
370
    25
100
AcDbCircle
 10
211.5707705667
 20
61.0917350803
 30
0.0
 40
232.5620640561955
100
AcDbArc
 50
75.0488359449
 51
75.1742052893
  0
ARC
  5
1FC
330
1F
100
AcDbEntity
  8
0
  6
SLD-Сплошная
 62
     7
370
    25
100
AcDbCircle
 10
298.0182116834
 20
263.2537991365
 30
0.0
 40
21.99999999999997
100
AcDbArc
 50
312.3911339443
 51
332.0836609946
  0
ARC
  5
1FD
330
1F
100
AcDbEntity
  8
0
  6
SLD-Сплошная
 62
     7
370
    25
100
AcDbCircle
 10
298.0182116834
 20
263.2537991365
 30
0.0
 40
21.99999999999996
100
AcDbArc
 50
27.9163390054
 51
47.6088660557
  0
LINE
  5
1FE
330
1F
100
AcDbEntity
  8
0
  6
SLD-Сплошная
 62
     7
370
    25
100
AcDbLine
 10
154.1978048869
 20
298.3537991365
 30
0.0
 11
148.8607705667
 21
298.3537991365
 31
0.0
  0
LINE
  5
1FF
330
1F
100
AcDbEntity
  8
0
  6
SLD-Сплошная
 62
     7
370
    25
100
AcDbLine
 10
158.373298525
 20
298.3537991365
 30
0.0
 11
157.3294156369
 21
298.3537991365
 31
0.0
  0
LINE
  5
200
330
1F
100
AcDbEntity
  8
0
  6
SLD-Сплошная
 62
     7
370
    25
100
AcDbLine
 10
162.5487921631
 20
298.3537991365
 30
0.0
 11
161.504909275
 21
298.3537991365
 31
0.0
  0
LINE
  5
201
330
1F
100
AcDbEntity
  8
0
  6
SLD-Сплошная
 62
     7
370
    25
100
AcDbLine
 10
171.0174372333
 20
298.3537991365
 30
0.0
 11
165.6804029131
 21
298.3537991365
 31
0.0
  0
LINE
  5
202
330
1F
100
AcDbEntity
  8
0
  6
SLD-Сплошная
 62
     7
370
    25
100
AcDbLine
 10
157.3294156369
 20
298.5537991365
 30
0.0
 11
154.1978048869
 21
298.5537991365
 31
0.0
  0
LINE
  5
203
330
1F
100
AcDbEntity
  8
0
  6
SLD-Сплошная
 62
     7
370
    25
100
AcDbLine
 10
161.504909275
 20
298.5537991365
 30
0.0
 11
158.373298525
 21
298.5537991365
 31
0.0
  0
LINE
  5
204
330
1F
100
AcDbEntity
  8
0
  6
SLD-Сплошная
 62
     7
370
    25
100
AcDbLine
 10
165.6804029131
 20
298.5537991365
 30
0.0
 11
162.5487921631
 21
298.5537991365
 31
0.0
  0
ARC
  5
205
330
1F
100
AcDbEntity
  8
0
  6
SLD-Сплошная
 62
     7
370
    25
100
AcDbCircle
 10
246.0433155962
 20
238.8294025619
 30
0.0
 40
3.899999999999983
100
AcDbArc
 50
243.9521579189
 51
331.2662598625
  0
ARC
  5
206
330
1F
100
AcDbEntity
  8
0
  6
SLD-Сплошная
 62
     7
370
    25
100
AcDbCircle
 10
246.0433155962
 20
287.678195711
 30
0.0
 40
3.900000000000034
100
AcDbArc
 50
28.9127624854
 51
90.0
  0
ARC
  5
207
330
1F
100
AcDbEntity
  8
0
  6
SLD-Сплошная
 62
     7
370
    25
100
AcDbCircle
 10
246.0433155962
 20
287.678195711
 30
0.0
 40
3.900000000000034
100
AcDbArc
 50
90.0
 51
116.001953516
  0
ARC
  5
208
330
1F
100
AcDbEntity
  8
0
  6
SLD-Сплошная
 62
     7
370
    25
100
AcDbCircle
 10
218.9423566273
 20
236.266871043
 30
0.0
 40
3.900000000000027
100
AcDbArc
 50
240.9777232061
 51
324.4313786543
  0
ARC
  5
209
330
1F
100
AcDbEntity
  8
0
  6
SLD-Сплошная
 62
     7
370
    25
100
AcDbCircle
 10
218.9423566273
 20
290.2407272299
 30
0.0
 40
3.900000000000005
100
AcDbArc
 50
35.4138970366
 51
90.0
  0
ARC
  5
20A
330
1F
100
AcDbEntity
  8
0
  6
SLD-Сплошная
 62
     7
370
    25
100
AcDbCircle
 10
218.9423566273
 20
290.2407272299
 30
0.0
 40
3.899999999999977
100
AcDbArc
 50
90.0
 51
118.8675530721
  0
LINE
  5
20B
330
1F
100
AcDbEntity
  8
0
  6
SLD-Сплошная
 62
     7
370
    25
100
AcDbLine
 10
312.813936375
 20
245.8342824745
 30
0.0
 11
312.8503500936
 21
247.0054862954
 31
0.0
  0
LINE
  5
20C
330
1F
100
AcDbEntity
  8
0
  6
SLD-Сплошная
 62
     7
370
    25
100
AcDbLine
 10
312.8503500936
 20
279.5021119775
 30
0.0
 11
312.813936375
 21
280.6733157985
 31
0.0
  0
ARC
  5
20D
330
1F
100
AcDbEntity
  8
0
  6
SLD-Сплошная
 62
     7
370
    25
100
AcDbCircle
 10
308.9750833955
 20
246.5221834857
 30
0.0
 40
3.900000000000068
100
AcDbArc
 50
303.1931986079
 51
349.840740668
  0
ARC
  5
20E
330
1F
100
AcDbEntity
  8
0
  6
SLD-Сплошная
 62
     7
370
    25
100
AcDbCircle
 10
308.9750833955
 20
279.9854147873
 30
0.0
 40
3.900000000000063
100
AcDbArc
 50
10.159259332
 51
56.7523103784
  0
SPLINE
  5
20F
330
1F
100
AcDbEntity
  8
0
  6
SLD-Сплошная
 62
     7
370
    25
100
AcDbSpline
210
0.0
220
0.0
230
1.0
 70
     8
 71
     3
 72
    14
 73
    10
 74
     0
 42
0.00000001
 43
0.00000001
 40
0.0
 40
0.0
 40
0.0
 40
0.0
 40
0.2590389089760471
 40
0.3872144952269393
 40
0.5177568502771303
 40
0.6443105763397843
 40
0.7668665689181295
 40
0.8854229200212158
 40
1.0
 40
1.0
 40
1.0
 40
1.0
 10
291.0707705666637
 20
239.3537991364668
 30
0.0
 10
292.8662762507109
 20
239.3593860193774
 30
0.0
 10
295.550219870894
 20
239.3677373595473
 30
0.0
 10
299.1418132829349
 20
239.3288272055203
 30
0.0
 10
301.8052022910918
 20
239.6055553540788
 30
0.0
 10
304.3821446291935
 20
240.1670168416747
 30
0.0
 10
306.8011944019611
 20
240.9825496166954
 30
0.0
 10
309.05584847343
 20
241.9970173808937
 30
0.0
 10
310.434240839393
 20
242.8435008573508
 30
0.0
 10
311.1116733793088
 20
243.2595184337775
 30
0.0
  0
SPLINE
  5
210
330
1F
100
AcDbEntity
  8
0
  6
SLD-Сплошная
 62
     7
370
    25
100
AcDbSpline
210
0.0
220
0.0
230
1.0
 70
     8
 71
     3
 72
    14
 73
    10
 74
     0
 42
0.00000001
 43
0.00000001
 40
0.0
 40
0.0
 40
0.0
 40
0.0
 40
0.1179373309070503
 40
0.2572473724704799
 40
0.4179351563529745
 40
0.5525139979457769
 40
0.6966137432249657
 40
0.8427082361514785
 40
1.0
 40
1.0
 40
1.0
 40
1.0
 10
311.1116733793087
 20
283.2480798391559
 30
0.0
 10
310.4139380837992
 20
283.6754084112425
 30
0.0
 10
308.8920232662493
 20
284.6075064289383
 30
0.0
 10
306.226467911045
 20
285.7685901941567
 30
0.0
 10
303.329567096463
 20
286.6215593129023
 30
0.0
 10
300.3139688157571
 20
287.1126190188785
 30
0.0
 10
297.365025584457
 20
287.1652427995285
 30
0.0
 10
294.2643764319553
 20
287.1506633463172
 30
0.0
 10
292.1611805213404
 20
287.1527284668417
 30
0.0
 10
291.0707705666637
 20
287.1537991364669
 30
0.0
  0
LINE
  5
211
330
1F
100
AcDbEntity
  8
0
  6
SLD-Сплошная
 62
     7
370
    25
100
AcDbLine
 10
133.9707705667
 20
270.0537991365
 30
0.0
 11
130.9707705667
 21
270.0537991365
 31
0.0
  0
LINE
  5
212
330
1F
100
AcDbEntity
  8
0
  6
SLD-Сплошная
 62
     7
370
    25
100
AcDbLine
 10
130.9707705667
 20
256.4537991365
 30
0.0
 11
133.9707705667
 21
256.4537991365
 31
0.0
  0
LINE
  5
213
330
1F
100
AcDbEntity
  8
0
  6
SLD-Сплошная
 62
     7
370
    25
100
AcDbLine
 10
128.183562623
 20
227.9537991365
 30
0.0
 11
133.9707705667
 21
227.9537991365
 31
0.0
  0
LINE
  5
214
330
1F
100
AcDbEntity
  8
0
  6
SLD-Сплошная
 62
     7
370
    25
100
AcDbLine
 10
133.9707705667
 20
298.5537991365
 30
0.0
 11
128.183562623
 21
298.5537991365
 31
0.0
  0
ARC
  5
215
330
1F
100
AcDbEntity
  8
0
  6
SLD-Сплошная
 62
     7
370
    25
100
AcDbCircle
 10
273.9707705667
 20
263.2537991365
 30
0.0
 40
150.0000000000001
100
AcDbArc
 50
166.388727559
 51
176.5147222306
  0
ARC
  5
216
330
1F
100
AcDbEntity
  8
0
  6
SLD-Сплошная
 62
     7
370
    25
100
AcDbCircle
 10
273.9707705667
 20
263.2537991365
 30
0.0
 40
150.0
100
AcDbArc
 50
177.6760834024
 51
182.3239165976
  0
ARC
  5
217
330
1F
100
AcDbEntity
  8
0
  6
SLD-Сплошная
 62
     7
370
    25
100
AcDbCircle
 10
273.9707705667
 20
263.2537991365
 30
0.0
 40
150.0
100
AcDbArc
 50
183.4852777694
 51
193.611272441
  0
LINE
  5
218
330
1F
100
AcDbEntity
  8
0
  6
SLD-Сплошная
 62
     7
370
    25
100
AcDbLine
 10
186.5707705667
 20
256.4537991365
 30
0.0
 11
186.5707705667
 21
270.0537991365
 31
0.0
  0
LINE
  5
219
330
1F
100
AcDbEntity
  8
0
  6
SLD-Сплошная
 62
     7
370
    25
100
AcDbLine
 10
133.9707705667
 20
256.4537991365
 30
0.0
 11
133.9707705667
 21
270.0537991365
 31
0.0
  0
LINE
  5
21A
330
1F
100
AcDbEntity
  8
0
  6
SLD-Сплошная
 62
     7
370
    25
100
AcDbLine
 10
148.8607705667
 20
298.5537991365
 30
0.0
 11
148.8607705667
 21
293.8898629468
 31
0.0
  0
LINE
  5
21B
330
1F
100
AcDbEntity
  8
0
  6
SLD-Сплошная
 62
     7
370
    25
100
AcDbLine
 10
148.8607705667
 20
293.8898629468
 30
0.0
 11
171.0174372333
 21
293.8898629468
 31
0.0
  0
LINE
  5
21C
330
1F
100
AcDbEntity
  8
0
  6
SLD-Сплошная
 62
     7
370
    25
100
AcDbLine
 10
171.0174372333
 20
298.5537991365
 30
0.0
 11
171.0174372333
 21
293.8898629468
 31
0.0
  0
LINE
  5
21D
330
1F
100
AcDbEntity
  8
0
  6
SLD-Сплошная
 62
     7
370
    25
100
AcDbLine
 10
186.5707705667
 20
256.4692485707
 30
0.0
 11
186.5707705667
 21
227.9537991365
 31
0.0
  0
LINE
  5
21E
330
1F
100
AcDbEntity
  8
0
  6
SLD-Сплошная
 62
     7
370
    25
100
AcDbLine
 10
186.5707705667
 20
298.5537991365
 30
0.0
 11
186.5707705667
 21
270.0383497022
 31
0.0
  0
LINE
  5
21F
330
1F
100
AcDbEntity
  8
0
  6
SLD-Сплошная
 62
     7
370
    25
100
AcDbLine
 10
133.9707705667
 20
256.4692485707
 30
0.0
 11
133.9707705667
 21
227.9537991365
 31
0.0
  0
LINE
  5
220
330
1F
100
AcDbEntity
  8
0
  6
SLD-Сплошная
 62
     7
370
    25
100
AcDbLine
 10
133.9707705667
 20
298.5537991365
 30
0.0
 11
133.9707705667
 21
270.0383497022
 31
0.0
  0
SPLINE
  5
221
330
1F
100
AcDbEntity
  8
0
  6
SLD-Сплошная
 62
     7
370
    25
100
AcDbSpline
210
0.0
220
0.0
230
1.0
 70
     8
 71
     3
 72
    30
 73
    26
 74
     0
 42
0.00000001
 43
0.00000001
 40
0.0
 40
0.0
 40
0.0
 40
0.0
 40
0.1250000000000002
 40
0.1250000000000002
 40
0.1875000000000004
 40
0.1875000000000004
 40
0.2187500000000005
 40
0.2187500000000005
 40
0.2500000000000005
 40
0.2500000000000005
 40
0.3750000000000007
 40
0.3750000000000007
 40
0.4375000000000007
 40
0.4375000000000007
 40
0.5000000000000006
 40
0.5000000000000006
 40
0.6250000000000004
 40
0.6250000000000004
 40
0.6875000000000003
 40
0.6875000000000003
 40
0.7500000000000002
 40
0.7500000000000002
 40
0.8750000000000002
 40
0.8750000000000002
 40
1.0
 40
1.0
 40
1.0
 40
1.0
 10
212.4587666961195
 20
263.2537991364666
 30
0.0
 10
212.4587666961135
 20
264.9232138271037
 30
0.0
 10
212.5198230729638
 20
266.5711741956182
 30
0.0
 10
212.7022131226112
 20
269.011912525653
 30
0.0
 10
212.7781574431609
 20
269.8202679472465
 30
0.0
 10
212.9148288749633
 20
271.0248761831335
 30
0.0
 10
212.9642091075384
 20
271.425136715143
 30
0.0
 10
213.0695031790688
 20
272.215700356488
 30
0.0
 10
213.125508826303
 20
272.606944405817
 30
0.0
 10
213.4217830277873
 20
274.5434402355135
 30
0.0
 10
213.7109405156779
 20
276.0298259138758
 30
0.0
 10
214.2222619733636
 20
278.1681002821329
 30
0.0
 10
214.4056610946917
 20
278.8655706704041
 30
0.0
 10
214.7983337467082
 20
280.2296221668549
 30
0.0
 10
215.0057212150451
 20
280.8895141658389
 30
0.0
 10
215.6541312237104
 20
282.7928230124901
 30
0.0
 10
216.1235271517662
 20
283.9661661370415
 30
0.0
 10
216.8824182699448
 20
285.5889446906345
 30
0.0
 10
217.1445283367888
 20
286.1068933534348
 30
0.0
 10
217.6868273060129
 20
287.0966599057183
 30
0.0
 10
217.9676145570227
 20
287.5691886846975
 30
0.0
 10
218.821559696352
 20
288.8943547302401
 30
0.0
 10
219.4112971269583
 20
289.6635997745663
 30
0.0
 10
220.6305454059087
 20
290.9850886812898
 30
0.0
 10
221.2600850184409
 20
291.5373031556524
 30
0.0
 10
221.9093029290544
 20
291.9788922042761
 30
0.0
  0
SPLINE
  5
222
330
1F
100
AcDbEntity
  8
0
  6
SLD-Сплошная
 62
     7
370
    25
100
AcDbSpline
210
0.0
220
0.0
230
1.0
 70
     8
 71
     3
 72
    10
 73
     6
 74
     0
 42
0.00000001
 43
0.00000001
 40
0.0
 40
0.0
 40
0.0
 40
0.0
 40
0.0450021864518895
 40
0.621154305659906
 40
0.9999999999999999
 40
0.9999999999999999
 40
0.9999999999999999
 40
0.9999999999999999
 10
222.111096222408
 20
292.4948268944461
 30
0.0
 10
222.1205074361206
 20
292.4880644921609
 30
0.0
 10
222.2504081449515
 20
292.3947246874267
 30
0.0
 10
222.1848257839848
 20
292.2099186672502
 30
0.0
 10
221.9903975787636
 20
292.0439944596416
 30
0.0
 10
221.9132683043701
 20
291.9781726632484
 30
0.0
  0
SPLINE
  5
223
330
1F
100
AcDbEntity
  8
0
  6
SLD-Сплошная
 62
     7
370
    25
100
AcDbSpline
210
0.0
220
0.0
230
1.0
 70
     8
 71
     3
 72
     9
 73
     5
 74
     0
 42
0.00000001
 43
0.00000001
 40
0.0
 40
0.0
 40
0.0
 40
0.0
 40
0.2841197576250036
 40
1.0
 40
1.0
 40
1.0
 40
1.0
 10
213.9946109338282
 20
291.2481388944784
 30
0.0
 10
213.7529752299054
 20
291.0279362816947
 30
0.0
 10
212.9025039147717
 20
290.2529017870002
 30
0.0
 10
212.126381365412
 20
289.0732543072488
 30
0.0
 10
211.5707705666636
 20
288.2287679835274
 30
0.0
  0
SPLINE
  5
224
330
1F
100
AcDbEntity
  8
0
  6
SLD-Сплошная
 62
     7
370
    25
100
AcDbSpline
210
0.0
220
0.0
230
1.0
 70
     8
 71
     3
 72
    19
 73
    15
 74
     0
 42
0.00000001
 43
0.00000001
 40
0.0
 40
0.0
 40
0.0
 40
0.0
 40
0.0974956130446003
 40
0.1974316719861632
 40
0.2949238947794328
 40
0.3948505819380573
 40
0.4994738519433985
 40
0.6071288484035036
 40
0.7117744409383407
 40
0.7656271731906319
 40
0.8194363342675056
 40
0.8894895805660122
 40
0.9615534221393783
 40
1.0
 40
1.0
 40
1.0
 40
1.0
 10
265.801187044769
 20
263.2537991364668
 30
0.0
 10
265.8024219123277
 20
264.4923209682274
 30
0.0
 10
265.8049225578354
 20
267.0003664935578
 30
0.0
 10
265.8097468517523
 20
270.6561046793766
 30
0.0
 10
265.8044102063487
 20
274.1591189341179
 30
0.0
 10
265.8003585352663
 20
277.4454240989717
 30
0.0
 10
265.8011944974208
 20
280.4629760107925
 30
0.0
 10
265.8047305922032
 20
283.0398118354532
 30
0.0
 10
265.7903823297913
 20
284.7389752247443
 30
0.0
 10
265.8205549172147
 20
285.7739724113539
 30
0.0
 10
265.7459467129684
 20
286.4857541169389
 30
0.0
 10
265.3067004726207
 20
287.099950694951
 30
0.0
 10
264.6244104250348
 20
287.5132557439405
 30
0.0
 10
263.9370122705647
 20
287.6577041845088
 30
0.0
 10
263.69786643434
 20
287.7079578008248
 30
0.0
  0
SPLINE
  5
225
330
1F
100
AcDbEntity
  8
0
  6
SLD-Сплошная
 62
     7
370
    25
100
AcDbSpline
210
0.0
220
0.0
230
1.0
 70
     8
 71
     3
 72
    19
 73
    15
 74
     0
 42
0.00000001
 43
0.00000001
 40
0.0
 40
0.0
 40
0.0
 40
0.0
 40
0.0381352523310643
 40
0.1076223698236519
 40
0.1791028651182883
 40
0.2295524421167903
 40
0.2800443286220408
 40
0.3833740979111175
 40
0.4875988499600176
 40
0.5948204666188837
 40
0.6994705127081807
 40
0.8071614842188535
 40
0.9024471729652916
 40
1.0
 40
1.0
 40
1.0
 40
1.0
 10
263.6965396186373
 20
238.799645849748
 30
0.0
 10
263.9343399989242
 20
238.8492967432806
 30
0.0
 10
264.6054419035152
 20
238.9894176681259
 30
0.0
 10
265.2900721126026
 20
239.3956056176454
 30
0.0
 10
265.7323995758842
 20
239.9898323849715
 30
0.0
 10
265.8161701883384
 20
240.6721981707316
 30
0.0
 10
265.7923320455418
 20
241.644224793317
 30
0.0
 10
265.8040832536695
 20
243.2507072846351
 30
0.0
 10
265.8011388375122
 20
245.753650332107
 30
0.0
 10
265.8006054645332
 20
248.7605030695441
 30
0.0
 10
265.8039328019003
 20
252.2112955391515
 30
0.0
 10
265.8098861585235
 20
255.8380560890037
 30
0.0
 10
265.8048344065618
 20
259.5645935576686
 30
0.0
 10
265.8024123239067
 20
262.0144631761238
 30
0.0
 10
265.801187044769
 20
263.2537991364668
 30
0.0
  0
SPLINE
  5
226
330
1F
100
AcDbEntity
  8
0
  6
SLD-Сплошная
 62
     7
370
    25
100
AcDbSpline
210
0.0
220
0.0
230
1.0
 70
     8
 71
     3
 72
     9
 73
     5
 74
     0
 42
0.00000001
 43
0.00000001
 40
0.0
 40
0.0
 40
0.0
 40
0.0
 40
0.5238474661224568
 40
1.0
 40
1.0
 40
1.0
 40
1.0
 10
211.5707705666636
 20
238.2788302894062
 30
0.0
 10
212.0036523567367
 20
237.6205623676314
 30
0.0
 10
212.8300031898854
 20
236.3639600848196
 30
0.0
 10
213.7307286775341
 20
235.4870088348067
 30
0.0
 10
214.1596114008061
 20
235.069446275026
 30
0.0
  0
SPLINE
  5
227
330
1F
100
AcDbEntity
  8
0
  6
SLD-Сплошная
 62
     7
370
    25
100
AcDbSpline
210
0.0
220
0.0
230
1.0
 70
     8
 71
     3
 72
     9
 73
     5
 74
     0
 42
0.00000001
 43
0.00000001
 40
0.0
 40
0.0
 40
0.0
 40
0.0
 40
0.5817607957389737
 40
1.0
 40
1.0
 40
1.0
 40
1.0
 10
221.9132683043802
 20
234.5294256096784
 30
0.0
 10
222.0358893214564
 20
234.4259789130545
 30
0.0
 10
222.2466649838496
 20
234.248162364773
 30
0.0
 10
222.1338549508476
 20
234.0845519214574
 30
0.0
 10
222.0866733724121
 20
234.0161236198363
 30
0.0
  0
SPLINE
  5
228
330
1F
100
AcDbEntity
  8
0
  6
SLD-Сплошная
 62
     7
370
    25
100
AcDbSpline
210
0.0
220
0.0
230
1.0
 70
     8
 71
     3
 72
    30
 73
    26
 74
     0
 42
0.00000001
 43
0.00000001
 40
0.0
 40
0.0
 40
0.0
 40
0.0
 40
0.1249999999999998
 40
0.1249999999999998
 40
0.1874999999999997
 40
0.1874999999999997
 40
0.2499999999999998
 40
0.2499999999999998
 40
0.3750000000000002
 40
0.3750000000000002
 40
0.4375000000000003
 40
0.4375000000000003
 40
0.5000000000000004
 40
0.5000000000000004
 40
0.6250000000000004
 40
0.6250000000000004
 40
0.6875000000000003
 40
0.6875000000000003
 40
0.7187500000000003
 40
0.7187500000000003
 40
0.7500000000000002
 40
0.7500000000000002
 40
0.8750000000000001
 40
0.8750000000000001
 40
1.0
 40
1.0
 40
1.0
 40
1.0
 10
221.9093029290539
 20
234.5287060686558
 30
0.0
 10
221.2597511035599
 20
234.9705222415655
 30
0.0
 10
220.6272477988573
 20
235.5248781877927
 30
0.0
 10
219.705138402818
 20
236.5261322502107
 30
0.0
 10
219.4022082948961
 20
236.8882927255
 30
0.0
 10
218.8054265096941
 20
237.6711335605245
 30
0.0
 10
218.5139787095678
 20
238.0887545671854
 30
0.0
 10
217.663386587619
 20
239.414327593853
 30
0.0
 10
217.1256955344667
 20
240.3963613781893
 30
0.0
 10
216.3673098743227
 20
242.0212067778489
 30
0.0
 10
216.1225278302034
 20
242.5882272365393
 30
0.0
 10
215.6495267674919
 20
243.7751768207025
 30
0.0
 10
215.4206802033056
 20
244.3973596157392
 30
0.0
 10
214.7716206466873
 20
246.3109402884864
 30
0.0
 10
214.3844660545983
 20
247.6579661836622
 30
0.0
 10
213.8765064086781
 20
249.7870507421189
 30
0.0
 10
213.7192903074951
 20
250.5149082909882
 30
0.0
 10
213.502110962825
 20
251.6348484270914
 30
0.0
 10
213.4328259894456
 20
252.012859479678
 30
0.0
 10
213.3005701469699
 20
252.7784999019899
 30
0.0
 10
213.2374424093365
 20
253.1672019451516
 30
0.0
 10
212.940189363773
 20
255.1198289120379
 30
0.0
 10
212.7606053154631
 20
256.7090267139522
 30
0.0
 10
212.5198990346125
 20
259.9407149850192
 30
0.0
 10
212.4587666961136
 20
261.5831961662328
 30
0.0
 10
212.4587666961196
 20
263.253799136467
 30
0.0
  0
SPLINE
  5
229
330
1F
100
AcDbEntity
  8
0
  6
SLD-Сплошная
 62
     7
370
    25
100
AcDbSpline
210
0.0
220
0.0
230
1.0
 70
     8
 71
     3
 72
    30
 73
    26
 74
     0
 42
0.00000001
 43
0.00000001
 40
0.0
 40
0.0
 40
0.0
 40
0.0
 40
0.1249999999999999
 40
0.1249999999999999
 40
0.1874999999999999
 40
0.1874999999999999
 40
0.2499999999999998
 40
0.2499999999999998
 40
0.3749999999999998
 40
0.3749999999999998
 40
0.4374999999999998
 40
0.4374999999999998
 40
0.4999999999999998
 40
0.4999999999999998
 40
0.6249999999999998
 40
0.6249999999999998
 40
0.6874999999999998
 40
0.6874999999999998
 40
0.7499999999999997
 40
0.7499999999999997
 40
0.8749999999999999
 40
0.8749999999999999
 40
0.9374999999999999
 40
0.9374999999999999
 40
1.0
 40
1.0
 40
1.0
 40
1.0
 10
249.2363080193183
 20
237.4966577732089
 30
0.0
 10
248.6396018573396
 20
237.8680663357584
 30
0.0
 10
248.0585285651648
 20
238.3425604298656
 30
0.0
 10
247.2100053916421
 20
239.2081583110626
 30
0.0
 10
246.9310389145038
 20
239.5224515191331
 30
0.0
 10
246.3811037611462
 20
240.2039124308457
 30
0.0
 10
246.1092733975737
 20
240.5724706495224
 30
0.0
 10
245.3159853017355
 20
241.7463487997679
 30
0.0
 10
244.8146428759824
 20
242.620716035031
 30
0.0
 10
244.1054902342568
 20
244.0732206316323
 30
0.0
 10
243.8762308519681
 20
244.5809710821654
 30
0.0
 10
243.4327221615524
 20
245.6456556649388
 30
0.0
 10
243.2196617307
 20
246.1999972058177
 30
0.0
 10
242.6141126695667
 20
247.9097306787212
 30
0.0
 10
242.2518560130426
 20
249.1187551893035
 30
0.0
 10
241.7731709915084
 20
251.0388386711033
 30
0.0
 10
241.6244113882406
 20
251.6967004158862
 30
0.0
 10
241.3496525350565
 20
253.0497131716753
 30
0.0
 10
241.2232654575406
 20
253.7479267113488
 30
0.0
 10
240.8872269928336
 20
255.8576091791602
 30
0.0
 10
240.7177145572358
 20
257.2946528328085
 30
0.0
 10
240.5458059239527
 20
259.496087101709
 30
0.0
 10
240.502294772805
 20
260.2375818520337
 30
0.0
 10
240.4438045759618
 20
261.7364291188978
 30
0.0
 10
240.4288953889579
 20
262.4956129032592
 30
0.0
 10
240.4288953889896
 20
263.2537991364668
 30
0.0
  0
SPLINE
  5
22A
330
1F
100
AcDbEntity
  8
0
  6
SLD-Сплошная
 62
     7
370
    25
100
AcDbSpline
210
0.0
220
0.0
230
1.0
 70
     8
 71
     3
 72
    30
 73
    26
 74
     0
 42
0.00000001
 43
0.00000001
 40
0.0
 40
0.0
 40
0.0
 40
0.0
 40
0.1249999999999998
 40
0.1249999999999998
 40
0.1874999999999997
 40
0.1874999999999997
 40
0.2499999999999996
 40
0.2499999999999996
 40
0.3749999999999994
 40
0.3749999999999994
 40
0.4374999999999995
 40
0.4374999999999995
 40
0.4999999999999996
 40
0.4999999999999996
 40
0.6249999999999994
 40
0.6249999999999994
 40
0.6874999999999996
 40
0.6874999999999996
 40
0.7499999999999997
 40
0.7499999999999997
 40
0.875
 40
0.875
 40
0.9375
 40
0.9375
 40
1.0
 40
1.0
 40
1.0
 40
1.0
 10
240.4288953889896
 20
263.2537991364668
 30
0.0
 10
240.4288953889262
 20
264.7680678321957
 30
0.0
 10
240.4875102406001
 20
266.2603515916338
 30
0.0
 10
240.6593035568769
 20
268.4672285379531
 30
0.0
 10
240.7306171436847
 20
269.1975670894248
 30
0.0
 10
240.9015277524433
 20
270.6475682914806
 30
0.0
 10
241.0014548322728
 20
271.3684018029795
 30
0.0
 10
241.3377957893611
 20
273.4761059068214
 30
0.0
 10
241.6118040239068
 20
274.8216351846958
 30
0.0
 10
242.0936196619987
 20
276.7540588778961
 30
0.0
 10
242.2667353349078
 20
277.3860117113119
 30
0.0
 10
242.6337642579773
 20
278.610188734916
 30
0.0
 10
242.8267524387662
 20
279.199872611558
 30
0.0
 10
243.4323870616789
 20
280.9048269883103
 30
0.0
 10
243.8717504895955
 20
281.9563278257839
 30
0.0
 10
244.5818482637846
 20
283.4097117416918
 30
0.0
 10
244.8281278866017
 20
283.8751877088943
 30
0.0
 10
245.3317927658683
 20
284.7531429619656
 30
0.0
 10
245.5891285018214
 20
285.1659909698222
 30
0.0
 10
246.3764435004271
 20
286.329345654561
 30
0.0
 10
246.9220448437187
 20
287.0049575552648
 30
0.0
 10
247.7705095837721
 20
287.8715817819611
 30
0.0
 10
248.0589803581857
 20
288.1363560492299
 30
0.0
 10
248.6432177305393
 20
288.6135029281911
 30
0.0
 10
248.9382819334676
 20
288.825439750443
 30
0.0
 10
249.2363080193183
 20
289.0109404997247
 30
0.0
  0
SPLINE
  5
22B
330
1F
100
AcDbEntity
  8
0
  6
SLD-Сплошная
 62
     7
370
    25
100
AcDbSpline
210
0.0
220
0.0
230
1.0
 70
     8
 71
     3
 72
     9
 73
     5
 74
     0
 42
0.00000001
 43
0.00000001
 40
0.0
 40
0.0
 40
0.0
 40
0.0
 40
0.5932389314240607
 40
1.0
 40
1.0
 40
1.0
 40
1.0
 10
249.2405140179531
 20
289.0096186523304
 30
0.0
 10
249.3663531939282
 20
289.1090571567609
 30
0.0
 10
249.5784754423334
 20
289.2766768107707
 30
0.0
 10
249.4722071964381
 20
289.4643389059243
 30
0.0
 10
249.4289814111821
 20
289.5406725402802
 30
0.0
  0
SPLINE
  5
22C
330
1F
100
AcDbEntity
  8
0
  6
SLD-Сплошная
 62
     7
370
    25
100
AcDbSpline
210
0.0
220
0.0
230
1.0
 70
     8
 71
     3
 72
    16
 73
    12
 74
     0
 42
0.00000001
 43
0.00000001
 40
0.0
 40
0.0
 40
0.0
 40
0.0
 40
0.0110188785841334
 40
0.115787068751144
 40
0.2560797505922576
 40
0.3963250202646447
 40
0.5357016471478119
 40
0.6750214701784734
 40
0.8044025842603041
 40
0.9337577175130477
 40
1.0
 40
1.0
 40
1.0
 40
1.0
 10
242.2294805418083
 20
289.8209903958426
 30
0.0
 10
242.178809877316
 20
289.7908169453297
 30
0.0
 10
241.6463593499376
 20
289.4737524307949
 30
0.0
 10
240.5197250114168
 20
288.2953509521033
 30
0.0
 10
238.9091818992358
 20
286.1012403309356
 30
0.0
 10
237.3415322029943
 20
282.9280497092666
 30
0.0
 10
236.0198221906794
 20
279.1122843423749
 30
0.0
 10
235.0076473476157
 20
274.8623848694925
 30
0.0
 10
234.3421636726072
 20
270.3247064814579
 30
0.0
 10
234.0451657145302
 20
266.4294727823611
 30
0.0
 10
234.0193210634622
 20
264.057206229289
 30
0.0
 10
234.0105683472244
 20
263.2537991364668
 30
0.0
  0
SPLINE
  5
22D
330
1F
100
AcDbEntity
  8
0
  6
SLD-Сплошная
 62
     7
370
    25
100
AcDbSpline
210
0.0
220
0.0
230
1.0
 70
     8
 71
     3
 72
    16
 73
    12
 74
     0
 42
0.00000001
 43
0.00000001
 40
0.0
 40
0.0
 40
0.0
 40
0.0
 40
0.1138491764059893
 40
0.2277072774959965
 40
0.3414417320865534
 40
0.4551964328678999
 40
0.5824029503436805
 40
0.7096432306522272
 40
0.8448261880620132
 40
0.9800405739969119
 40
1.0
 40
1.0
 40
1.0
 40
1.0
 10
234.0105683472244
 20
263.2537991364668
 30
0.0
 10
234.0350731330604
 20
261.8995383115889
 30
0.0
 10
234.0840846256727
 20
259.1909105007668
 30
0.0
 10
234.466377127359
 20
255.2271597768226
 30
0.0
 10
235.0666641621802
 20
251.461030065073
 30
0.0
 10
235.9144139053671
 20
247.8278014672848
 30
0.0
 10
237.0135141567745
 20
244.4585996158138
 30
0.0
 10
238.3748942069671
 20
241.3824927628597
 30
0.0
 10
239.948575086482
 20
238.9202606518293
 30
0.0
 10
241.1727415366859
 20
237.4149942874519
 30
0.0
 10
241.8703172060308
 20
236.97613313093
 30
0.0
 10
241.9600437506066
 20
236.9196840647517
 30
0.0
  0
SPLINE
  5
22E
330
1F
100
AcDbEntity
  8
0
  6
SLD-Сплошная
 62
     7
370
    25
100
AcDbSpline
210
0.0
220
0.0
230
1.0
 70
     8
 71
     3
 72
    10
 73
     6
 74
     0
 42
0.00000001
 43
0.00000001
 40
0.0
 40
0.0
 40
0.0
 40
0.0
 40
0.1198195619724561
 40
0.7108545344320267
 40
0.9999999999999999
 40
0.9999999999999999
 40
0.9999999999999999
 40
0.9999999999999999
 10
249.4404879449204
 20
236.96690290404
 30
0.0
 10
249.4618180167697
 20
236.9890299929162
 30
0.0
 10
249.5883631154523
 20
237.1203035612925
 30
0.0
 10
249.4926577611564
 20
237.3083434096204
 30
0.0
 10
249.3028629488943
 20
237.4510872612192
 30
0.0
 10
249.2405140179445
 20
237.4979796206085
 30
0.0
  0
SPLINE
  5
22F
330
1F
100
AcDbEntity
  8
0
  6
SLD-Сплошная
 62
     7
370
    25
100
AcDbSpline
210
0.0
220
0.0
230
1.0
 70
     8
 71
     3
 72
    26
 73
    22
 74
     0
 42
0.00000001
 43
0.00000001
 40
0.0
 40
0.0
 40
0.0
 40
0.0
 40
0.1250000000000001
 40
0.1250000000000001
 40
0.2500000000000002
 40
0.2500000000000002
 40
0.3125000000000002
 40
0.3125000000000002
 40
0.3750000000000002
 40
0.3750000000000002
 40
0.5000000000000001
 40
0.5000000000000001
 40
0.5625
 40
0.5625
 40
0.625
 40
0.625
 40
0.75
 40
0.75
 40
0.8750000000000001
 40
0.8750000000000001
 40
1.0
 40
1.0
 40
1.0
 40
1.0
 10
206.0243791914126
 20
263.2537991364667
 30
0.0
 10
206.0243791914125
 20
261.9942946881947
 30
0.0
 10
206.0594185844891
 20
260.7470880662903
 30
0.0
 10
206.1906712812925
 20
258.2760662330672
 30
0.0
 10
206.2869572327135
 20
257.0522579858792
 30
0.0
 10
206.4785734756645
 20
255.2343361107849
 30
0.0
 10
206.5503695640541
 20
254.6321655899444
 30
0.0
 10
206.7084093089501
 20
253.4500563107653
 30
0.0
 10
206.7949657647502
 20
252.8680808267035
 30
0.0
 10
207.0769452264186
 20
251.148691253015
 30
0.0
 10
207.2938513554892
 20
250.0375919544954
 30
0.0
 10
207.6585605229349
 20
248.4220918831088
 30
0.0
 10
207.7867503140718
 20
247.892148680894
 30
0.0
 10
208.0564532787527
 20
246.8494832915385
 30
0.0
 10
208.1984025859577
 20
246.3354220457619
 30
0.0
 10
208.6394902508246
 20
244.837992811653
 30
0.0
 10
208.9552517792596
 20
243.894262596533
 30
0.0
 10
209.6317251644466
 20
242.1108722853734
 30
0.0
 10
209.9915286872141
 20
241.2710209658597
 30
0.0
 10
210.7521173535394
 20
239.6933992185923
 30
0.0
 10
211.1535726565233
 20
238.9552160832403
 30
0.0
 10
211.5707705666636
 20
238.2788302894061
 30
0.0
  0
SPLINE
  5
230
330
1F
100
AcDbEntity
  8
0
  6
SLD-Сплошная
 62
     7
370
    25
100
AcDbSpline
210
0.0
220
0.0
230
1.0
 70
     8
 71
     3
 72
    26
 73
    22
 74
     0
 42
0.00000001
 43
0.00000001
 40
0.0
 40
0.0
 40
0.0
 40
0.0
 40
0.1250000000000001
 40
0.1250000000000001
 40
0.2500000000000002
 40
0.2500000000000002
 40
0.3750000000000002
 40
0.3750000000000002
 40
0.5000000000000003
 40
0.5000000000000003
 40
0.5625000000000003
 40
0.5625000000000003
 40
0.6250000000000004
 40
0.6250000000000004
 40
0.7500000000000003
 40
0.7500000000000003
 40
0.8750000000000002
 40
0.8750000000000002
 40
0.9375000000000002
 40
0.9375000000000002
 40
1.0
 40
1.0
 40
1.0
 40
1.0
 10
211.5707705666636
 20
288.2287679835274
 30
0.0
 10
211.1529419853425
 20
287.5513597084753
 30
0.0
 10
210.7542108234418
 20
286.8182390977361
 30
0.0
 10
209.9930847791502
 20
285.2401057808036
 30
0.0
 10
209.6306886041002
 20
284.3951325276677
 30
0.0
 10
208.9457936942497
 20
282.5872444639498
 30
0.0
 10
208.629082883263
 20
281.6364922271917
 30
0.0
 10
208.0461432154656
 20
279.6529989879139
 30
0.0
 10
207.7788147978127
 20
278.6187547028956
 30
0.0
 10
207.4140040566147
 20
277.0019395358484
 30
0.0
 10
207.2984922549055
 20
276.4520563743608
 30
0.0
 10
207.0804126040319
 20
275.3296209572256
 30
0.0
 10
206.9775125904934
 20
274.7548311256249
 30
0.0
 10
206.6938992662842
 20
273.0185968000368
 30
0.0
 10
206.5381519548906
 20
271.8419646141149
 30
0.0
 10
206.2869344944735
 20
269.4516014166963
 30
0.0
 10
206.19116766072
 20
268.237898539494
 30
0.0
 10
206.0927205849371
 20
266.3889411248115
 30
0.0
 10
206.0675078929879
 20
265.7678710320895
 30
0.0
 10
206.0333171670535
 20
264.5158927359591
 30
0.0
 10
206.0243791914125
 20
263.8843472790254
 30
0.0
 10
206.0243791914126
 20
263.2537991364669
 30
0.0
  0
SPLINE
  5
231
330
1F
100
AcDbEntity
  8
0
  6
SLD-Сплошная
 62
     7
370
    25
100
AcDbSpline
210
0.0
220
0.0
230
1.0
 70
     8
 71
     3
 72
     9
 73
     5
 74
     0
 42
0.00000001
 43
0.00000001
 40
0.0
 40
0.0
 40
0.0
 40
0.0
 40
0.3183121239903421
 40
1.0
 40
1.0
 40
1.0
 40
1.0
 10
204.7242951494226
 20
232.8546158671113
 30
0.0
 10
205.4487420466297
 20
232.8546069894642
 30
0.0
 10
207.7246430965974
 20
232.8545790997095
 30
0.0
 10
210.0117069001329
 20
232.8541349152611
 30
0.0
 10
211.5707705666636
 20
232.8538321201079
 30
0.0
  0
SPLINE
  5
232
330
1F
100
AcDbEntity
  8
0
  6
SLD-Сплошная
 62
     7
370
    25
100
AcDbSpline
210
0.0
220
0.0
230
1.0
 70
     8
 71
     3
 72
    10
 73
     6
 74
     0
 42
0.00000001
 43
0.00000001
 40
0.0
 40
0.0
 40
0.0
 40
0.0
 40
0.4896750972971471
 40
0.9869411673188503
 40
1.0
 40
1.0
 40
1.0
 40
1.0
 10
211.5707705666636
 20
293.6537661528257
 30
0.0
 10
210.3377260970526
 20
293.6528026466876
 30
0.0
 10
207.8525224285158
 20
293.6508606980815
 30
0.0
 10
205.2912408189783
 20
293.6576630539588
 30
0.0
 10
204.0249222520529
 20
293.6535893158129
 30
0.0
 10
203.9925181067743
 20
293.6534850718998
 30
0.0
  0
LINE
  5
233
330
1F
100
AcDbEntity
  8
0
  6
SLD-Сплошная
 62
     7
370
    25
100
AcDbLine
 10
283.0707705667
 20
290.2037991365
 30
0.0
 11
283.0707705667
 21
293.2013430184
 31
0.0
  0
LINE
  5
234
330
1F
100
AcDbEntity
  8
0
  6
SLD-Сплошная
 62
     7
370
    25
100
AcDbLine
 10
283.0707705667
 20
288.038735627
 30
0.0
 11
283.0707705667
 21
290.2037991365
 31
0.0
  0
LINE
  5
235
330
1F
100
AcDbEntity
  8
0
  6
SLD-Сплошная
 62
     7
370
    25
100
AcDbLine
 10
283.0707705667
 20
265.4188626459
 30
0.0
 11
283.0707705667
 21
288.038735627
 31
0.0
  0
LINE
  5
236
330
1F
100
AcDbEntity
  8
0
  6
SLD-Сплошная
 62
     7
370
    25
100
AcDbLine
 10
283.0707705667
 20
261.088735627
 30
0.0
 11
283.0707705667
 21
265.4188626459
 31
0.0
  0
LINE
  5
237
330
1F
100
AcDbEntity
  8
0
  6
SLD-Сплошная
 62
     7
370
    25
100
AcDbLine
 10
283.0707705667
 20
238.4688626459
 30
0.0
 11
283.0707705667
 21
261.088735627
 31
0.0
  0
LINE
  5
238
330
1F
100
AcDbEntity
  8
0
  6
SLD-Сплошная
 62
     7
370
    25
100
AcDbLine
 10
283.0707705667
 20
236.3037991365
 30
0.0
 11
283.0707705667
 21
238.4688626459
 31
0.0
  0
LINE
  5
239
330
1F
100
AcDbEntity
  8
0
  6
SLD-Сплошная
 62
     7
370
    25
100
AcDbLine
 10
283.0707705667
 20
233.3062552545
 30
0.0
 11
283.0707705667
 21
236.3037991365
 31
0.0
  0
LINE
  5
23A
330
1F
100
AcDbEntity
  8
0
  6
SLD-Сплошная
 62
     7
370
    25
100
AcDbLine
 10
281.0707705667
 20
233.3062552545
 30
0.0
 11
283.0707705667
 21
233.3062552545
 31
0.0
  0
LINE
  5
23B
330
1F
100
AcDbEntity
  8
0
  6
SLD-Сплошная
 62
     7
370
    25
100
AcDbLine
 10
281.0707705667
 20
293.2013430184
 30
0.0
 11
283.0707705667
 21
293.2013430184
 31
0.0
  0
LINE
  5
23C
330
1F
100
AcDbEntity
  8
0
  6
SLD-Сплошная
 62
     7
370
    25
100
AcDbLine
 10
281.0707705667
 20
233.3062552545
 30
0.0
 11
281.0707705667
 21
293.2013430184
 31
0.0
  0
LINE
  5
23D
330
1F
100
AcDbEntity
  8
0
  6
SLD-Сплошная
 62
     7
370
    25
100
AcDbLine
 10
291.0707705667
 20
261.088735627
 30
0.0
 11
283.0707705667
 21
261.088735627
 31
0.0
  0
LINE
  5
23E
330
1F
100
AcDbEntity
  8
0
  6
SLD-Сплошная
 62
     7
370
    25
100
AcDbLine
 10
283.0707705667
 20
238.4688626459
 30
0.0
 11
291.0707705667
 21
238.4688626459
 31
0.0
  0
LINE
  5
23F
330
1F
100
AcDbEntity
  8
0
  6
SLD-Сплошная
 62
     7
370
    25
100
AcDbLine
 10
291.0707705667
 20
238.4688626459
 30
0.0
 11
291.0707705667
 21
261.088735627
 31
0.0
  0
LINE
  5
240
330
1F
100
AcDbEntity
  8
0
  6
SLD-Сплошная
 62
     7
370
    25
100
AcDbLine
 10
283.0707705667
 20
265.4188626459
 30
0.0
 11
291.0707705667
 21
265.4188626459
 31
0.0
  0
LINE
  5
241
330
1F
100
AcDbEntity
  8
0
  6
SLD-Сплошная
 62
     7
370
    25
100
AcDbLine
 10
291.0707705667
 20
265.4188626459
 30
0.0
 11
291.0707705667
 21
261.088735627
 31
0.0
  0
LINE
  5
242
330
1F
100
AcDbEntity
  8
0
  6
SLD-Сплошная
 62
     7
370
    25
100
AcDbLine
 10
291.0707705667
 20
288.038735627
 30
0.0
 11
283.0707705667
 21
288.038735627
 31
0.0
  0
LINE
  5
243
330
1F
100
AcDbEntity
  8
0
  6
SLD-Сплошная
 62
     7
370
    25
100
AcDbLine
 10
291.0707705667
 20
288.038735627
 30
0.0
 11
291.0707705667
 21
265.4188626459
 31
0.0
  0
SPLINE
  5
244
330
1F
100
AcDbEntity
  8
0
  6
SLD-Сплошная
 62
     7
370
    25
100
AcDbSpline
210
0.0
220
0.0
230
1.0
 70
     8
 71
     3
 72
    15
 73
    11
 74
     0
 42
0.00000001
 43
0.00000001
 40
0.0
 40
0.0
 40
0.0
 40
0.0
 40
0.1230227387495293
 40
0.2494977595933169
 40
0.3725229269518809
 40
0.4990019844933336
 40
0.6239645395934519
 40
0.7525535412271185
 40
0.8774799297428894
 40
1.0
 40
1.0
 40
1.0
 40
1.0
 10
271.5662592558144
 20
263.2537991364668
 30
0.0
 10
271.565623450326
 20
262.0244287186133
 30
0.0
 10
271.5643339972823
 20
259.531189110371
 30
0.0
 10
271.5621271438786
 20
255.9088855601125
 30
0.0
 10
271.5656679098502
 20
252.4577089620398
 30
0.0
 10
271.5657041540527
 20
249.3166034621796
 30
0.0
 10
271.5686166070626
 20
246.5189636893594
 30
0.0
 10
271.5563168200017
 20
244.2141833722111
 30
0.0
 10
271.6020161796
 20
242.4250500963776
 30
0.0
 10
271.4906547587401
 20
241.7074682169014
 30
0.0
 10
271.4355155210426
 20
241.3521663761531
 30
0.0
  0
SPLINE
  5
245
330
1F
100
AcDbEntity
  8
0
  6
SLD-Сплошная
 62
     7
370
    25
100
AcDbSpline
210
0.0
220
0.0
230
1.0
 70
     8
 71
     3
 72
    16
 73
    12
 74
     0
 42
0.00000001
 43
0.00000001
 40
0.0
 40
0.0
 40
0.0
 40
0.0
 40
0.0290774146886096
 40
0.1393869733510912
 40
0.256461355421287
 40
0.376474589171014
 40
0.5018948106240606
 40
0.6309503785697421
 40
0.7564232742021796
 40
0.8855478232564193
 40
1.0
 40
1.0
 40
1.0
 40
1.0
 10
271.4159110887358
 20
285.1022600193512
 30
0.0
 10
271.4557415894881
 20
285.0349627273097
 30
0.0
 10
271.6466751028829
 20
284.7123630067757
 30
0.0
 10
271.5329407151669
 20
283.7667109835742
 30
0.0
 10
271.5756974481294
 20
282.1005911575077
 30
0.0
 10
271.5633031933963
 20
279.8625031518139
 30
0.0
 10
271.567216977073
 20
277.1100831670059
 30
0.0
 10
271.5651316150422
 20
273.9230112055964
 30
0.0
 10
271.5621662547977
 20
270.4025885351717
 30
0.0
 10
271.5644969414245
 20
266.8173256773547
 30
0.0
 10
271.5656958914698
 20
264.3929623900283
 30
0.0
 10
271.5662592558144
 20
263.2537991364668
 30
0.0
  0
LINE
  5
246
330
1F
100
AcDbEntity
  8
0
  6
SLD-Сплошная
 62
     7
370
    25
100
AcDbLine
 10
271.5707705667
 20
263.2537991365
 30
0.0
 11
271.5707705667
 21
240.726936812
 31
0.0
  0
LINE
  5
247
330
1F
100
AcDbEntity
  8
0
  6
SLD-Сплошная
 62
     7
370
    25
100
AcDbLine
 10
271.5707705667
 20
285.7806614609
 30
0.0
 11
271.5707705667
 21
263.2537991365
 31
0.0
  0
SPLINE
  5
248
330
1F
100
AcDbEntity
  8
0
  6
SLD-Сплошная
 62
     7
370
    25
100
AcDbSpline
210
0.0
220
0.0
230
1.0
 70
    24
 71
     3
 72
    20
 73
    16
 74
     0
 42
0.00000001
 43
0.00000001
 40
0.0
 40
0.0
 40
0.0
 40
0.0
 40
0.2500000000000073
 40
0.2500000000000073
 40
0.5000000000000145
 40
0.5000000000000145
 40
0.6250000000000182
 40
0.6250000000000182
 40
0.6562500000000175
 40
0.6562500000000175
 40
0.6875000000000169
 40
0.6875000000000169
 40
0.7500000000000134
 40
0.7500000000000134
 40
1.0
 40
1.0
 40
1.0
 40
1.0
 10
310.4425239371087
 20
260.4191506632781
 30
0.0
 10
309.0256119229526
 20
260.4191506632781
 30
0.0
 10
307.50507872048
 20
260.4191506632782
 30
0.0
 10
304.3322640991463
 20
260.4191506632782
 30
0.0
 10
302.6794791356773
 20
260.4191506632782
 30
0.0
 10
300.163553830006
 20
260.4191506632782
 30
0.0
 10
299.3211643083893
 20
260.4191506632782
 30
0.0
 10
298.2590373818178
 20
260.4191506632782
 30
0.0
 10
298.0480936014427
 20
260.4191506632782
 30
0.0
 10
297.6356144381685
 20
260.4191506632782
 30
0.0
 10
297.4325091812347
 20
260.4191506632782
 30
0.0
 10
296.8182770978996
 20
260.4191506632782
 30
0.0
 10
296.4069179397239
 20
260.4191506632782
 30
0.0
 10
294.3545535654695
 20
260.4191506632782
 30
0.0
 10
292.7126620660678
 20
260.4191506632782
 30
0.0
 10
291.0707705666637
 20
260.4191506632782
 30
0.0
  0
SPLINE
  5
249
330
1F
100
AcDbEntity
  8
0
  6
SLD-Сплошная
 62
     7
370
    25
100
AcDbSpline
210
0.0
220
0.0
230
1.0
 70
    24
 71
     3
 72
    20
 73
    16
 74
     0
 42
0.00000001
 43
0.00000001
 40
0.0
 40
0.0
 40
0.0
 40
0.0
 40
0.2500000000000012
 40
0.2500000000000012
 40
0.5000000000000023
 40
0.5000000000000023
 40
0.6250000000000029
 40
0.6250000000000029
 40
0.6562500000000036
 40
0.6562500000000036
 40
0.6875000000000041
 40
0.6875000000000041
 40
0.7500000000000032
 40
0.7500000000000032
 40
1.0
 40
1.0
 40
1.0
 40
1.0
 10
310.4425239371087
 20
266.0884476096556
 30
0.0
 10
309.0256119229541
 20
266.0884476096556
 30
0.0
 10
307.5050787204786
 20
266.0884476096556
 30
0.0
 10
304.3322640991454
 20
266.0884476096556
 30
0.0
 10
302.6794791356775
 20
266.0884476096556
 30
0.0
 10
300.1635538300054
 20
266.0884476096556
 30
0.0
 10
299.3211643083899
 20
266.0884476096556
 30
0.0
 10
298.2590373818179
 20
266.0884476096556
 30
0.0
 10
298.0480936014427
 20
266.0884476096556
 30
0.0
 10
297.6356144381686
 20
266.0884476096556
 30
0.0
 10
297.4325091812346
 20
266.0884476096556
 30
0.0
 10
296.8182770978996
 20
266.0884476096556
 30
0.0
 10
296.406917939724
 20
266.0884476096556
 30
0.0
 10
294.3545535654695
 20
266.0884476096556
 30
0.0
 10
292.7126620660678
 20
266.0884476096556
 30
0.0
 10
291.0707705666637
 20
266.0884476096556
 30
0.0
  0
SPLINE
  5
24A
330
1F
100
AcDbEntity
  8
0
  6
SLD-Сплошная
 62
     7
370
    25
100
AcDbSpline
210
0.0
220
0.0
230
1.0
 70
    24
 71
     3
 72
    16
 73
    12
 74
     0
 42
0.00000001
 43
0.00000001
 40
0.0
 40
0.0
 40
0.0
 40
0.0
 40
0.062499999999998
 40
0.062499999999998
 40
0.1249999999999959
 40
0.1249999999999959
 40
0.249999999999995
 40
0.249999999999995
 40
0.4999999999999968
 40
0.4999999999999968
 40
1.0
 40
1.0
 40
1.0
 40
1.0
 10
298.0182116833999
 20
259.74705114533
 30
0.0
 10
298.2822473958493
 20
259.74705114533
 30
0.0
 10
298.542844082295
 20
259.74705114533
 30
0.0
 10
299.0670492627989
 20
259.74705114533
 30
0.0
 10
299.3289589521208
 20
259.74705114533
 30
0.0
 10
300.1136388353883
 20
259.74705114533
 30
0.0
 10
300.6353633561972
 20
259.74705114533
 30
0.0
 10
302.1924298295117
 20
259.74705114533
 30
0.0
 10
303.2196637074088
 20
259.74705114533
 30
0.0
 10
306.2364474061175
 20
259.74705114533
 30
0.0
 10
308.1597407332835
 20
259.7470511453299
 30
0.0
 10
309.9166721150388
 20
259.7470511453299
 30
0.0
  0
LINE
  5
24B
330
1F
100
AcDbEntity
  8
0
  6
SLD-Сплошная
 62
     7
370
    25
100
AcDbLine
 10
291.0707705667
 20
259.7470511453
 30
0.0
 11
298.0182116834
 21
259.7470511453
 31
0.0
  0
LWPOLYLINE
  5
24C
330
1F
100
AcDbEntity
  8
0
  6
SLD-Сплошная
 62
     7
370
    25
100
AcDbPolyline
 90
        3
 70
   128
 43
0.0
 10
298.0182116834
 20
266.7605471276
 10
294.127644658
 20
266.7605480391
 10
291.0707705667
 20
266.7605471276
  0
SPLINE
  5
24D
330
1F
100
AcDbEntity
  8
0
  6
SLD-Сплошная
 62
     7
370
    25
100
AcDbSpline
210
0.0
220
0.0
230
1.0
 70
    24
 71
     3
 72
    16
 73
    12
 74
     0
 42
0.00000001
 43
0.00000001
 40
0.0
 40
0.0
 40
0.0
 40
0.0
 40
0.4999999999999983
 40
0.4999999999999983
 40
0.7499999999999976
 40
0.7499999999999976
 40
0.8749999999999971
 40
0.8749999999999971
 40
0.9374999999999986
 40
0.9374999999999986
 40
1.0
 40
1.0
 40
1.0
 40
1.0
 10
309.9166721150388
 20
266.7605471276038
 30
0.0
 10
308.1597407332829
 20
266.7605471276038
 30
0.0
 10
306.236447406117
 20
266.7605471276039
 30
0.0
 10
303.2196637074088
 20
266.7605471276039
 30
0.0
 10
302.1924298295116
 20
266.7605471276039
 30
0.0
 10
300.635363356197
 20
266.7605471276039
 30
0.0
 10
300.1136388353883
 20
266.7605471276039
 30
0.0
 10
299.3289589521209
 20
266.7605471276039
 30
0.0
 10
299.0670492627987
 20
266.7605471276039
 30
0.0
 10
298.5428440822952
 20
266.7605471276039
 30
0.0
 10
298.2822473958492
 20
266.7605471276039
 30
0.0
 10
298.0182116833999
 20
266.7605471276039
 30
0.0
  0
LWPOLYLINE
  5
24E
330
1F
100
AcDbEntity
  8
0
  6
SLD-Сплошная
 62
     7
370
    25
100
AcDbPolyline
 90
        3
 70
   128
 43
0.0
 10
298.0182116834
 20
241.5350809762
 10
294.127644658
 20
241.5350811233
 10
291.0707705667
 20
241.5350809762
  0
LINE
  5
24F
330
1F
100
AcDbEntity
  8
0
  6
SLD-Сплошная
 62
     7
370
    25
100
AcDbLine
 10
309.916672115
 20
245.0843369022
 30
0.0
 11
312.8503500936
 21
247.0054862954
 31
0.0
  0
SPLINE
  5
250
330
1F
100
AcDbEntity
  8
0
  6
SLD-Сплошная
 62
     7
370
    25
100
AcDbSpline
210
0.0
220
0.0
230
1.0
 70
     8
 71
     3
 72
    16
 73
    12
 74
     0
 42
0.00000001
 43
0.00000001
 40
0.0
 40
0.0
 40
0.0
 40
0.0
 40
0.4999999999999999
 40
0.4999999999999999
 40
0.7499999999999983
 40
0.7499999999999983
 40
0.8749999999999991
 40
0.8749999999999991
 40
0.9374999999999996
 40
0.9374999999999996
 40
1.0
 40
1.0
 40
1.0
 40
1.0
 10
309.9150199638242
 20
245.0868598083286
 30
0.0
 10
308.1586078979068
 20
243.9360543791687
 30
0.0
 10
306.235733192097
 20
243.0426200061309
 30
0.0
 10
303.219374408553
 20
242.1422607696375
 30
0.0
 10
302.1922486383419
 20
241.9151750995679
 30
0.0
 10
300.6352906501971
 20
241.6875888222967
 30
0.0
 10
300.1135933688079
 20
241.6305397060696
 30
0.0
 10
299.3289407501446
 20
241.5733970597865
 30
0.0
 10
299.0670378847217
 20
241.5590865846236
 30
0.0
 10
298.5428418052015
 20
241.5399599905628
 30
0.0
 10
298.2822473958551
 20
241.5351467850823
 30
0.0
 10
298.018211683406
 20
241.5350809761642
 30
0.0
  0
ARC
  5
251
330
1F
100
AcDbEntity
  8
0
  6
SLD-Сплошная
 62
     7
370
    25
100
AcDbCircle
 10
309.6021509731
 20
262.9906767934
 30
0.0
 40
3.258838887367194
100
AcDbArc
 50
275.5384230882
 51
4.6311673259
  0
LINE
  5
252
330
1F
100
AcDbEntity
  8
0
  6
SLD-Сплошная
 62
     7
370
    25
100
AcDbLine
 10
317.4581190906
 20
252.9537991365
 30
0.0
 11
317.4581190906
 21
263.2537991365
 31
0.0
  0
ARC
  5
253
330
1F
100
AcDbEntity
  8
0
  6
SLD-Сплошная
 62
     7
370
    25
100
AcDbCircle
 10
309.6021509731
 20
263.5169214795
 30
0.0
 40
3.258838887367108
100
AcDbArc
 50
355.3688326741
 51
84.4615769118
  0
SPLINE
  5
254
330
1F
100
AcDbEntity
  8
0
  6
SLD-Сплошная
 62
     7
370
    25
100
AcDbSpline
210
0.0
220
0.0
230
1.0
 70
     8
 71
     3
 72
    16
 73
    12
 74
     0
 42
0.00000001
 43
0.00000001
 40
0.0
 40
0.0
 40
0.0
 40
0.0
 40
0.0624999999999977
 40
0.0624999999999977
 40
0.1249999999999953
 40
0.1249999999999953
 40
0.2499999999999941
 40
0.2499999999999941
 40
0.4999999999999951
 40
0.4999999999999951
 40
1.0
 40
1.0
 40
1.0
 40
1.0
 10
298.0182116833999
 20
284.9725172967694
 30
0.0
 10
298.2822473958491
 20
284.9725143156687
 30
0.0
 10
298.5428440822948
 20
284.9677639379887
 30
0.0
 10
299.0670492627992
 20
284.9487627521964
 30
0.0
 10
299.328958952121
 20
284.9345148574899
 30
0.0
 10
300.1136388353883
 20
284.8775592115338
 30
0.0
 10
300.6353633561968
 20
284.8206337733383
 30
0.0
 10
302.1924298295127
 20
284.593412624503
 30
0.0
 10
303.2196637074081
 20
284.3665624717764
 30
0.0
 10
306.2364474061189
 20
283.4668632601579
 30
0.0
 10
308.159740733282
 20
282.5738060735291
 30
0.0
 10
309.9166721150388
 20
281.4232613707632
 30
0.0
  0
LINE
  5
255
330
1F
100
AcDbEntity
  8
0
  6
SLD-Сплошная
 62
     7
370
    25
100
AcDbLine
 10
312.8503500936
 20
279.5021119775
 30
0.0
 11
309.916672115
 21
281.4232613708
 31
0.0
  0
LINE
  5
256
330
1F
100
AcDbEntity
  8
0
  6
SLD-Сплошная
 62
     7
370
    25
100
AcDbLine
 10
317.4581190906
 20
263.2537991365
 30
0.0
 11
317.4581190906
 21
273.5537991365
 31
0.0
  0
LINE
  5
257
330
1F
100
AcDbEntity
  8
0
  6
SLD-Сплошная
 62
     7
370
    25
100
AcDbLine
 10
291.0707705667
 20
284.9725172968
 30
0.0
 11
298.0182116834
 21
284.9725172968
 31
0.0
  0
LWPOLYLINE
  5
258
330
1F
100
AcDbEntity
  8
0
  6
SLD-Сплошная
 62
     7
370
    25
100
AcDbPolyline
 90
       11
 70
   128
 43
0.0
 10
310.4425239371
 20
266.0884476097
 10
311.1753306811
 20
265.9497100383
 10
311.8364051952
 20
265.5470779244
 10
312.3610369001
 20
264.9199637044
 10
312.697871189
 20
264.1297536878
 10
312.813936375
 20
263.2537991365
 10
312.697871189
 20
262.3778445852
 10
312.3610369001
 20
261.5876345685
 10
311.8364051952
 20
260.9605203486
 10
311.1753306811
 20
260.5578882346
 10
310.4425239371
 20
260.4191506633
  0
LINE
  5
259
330
1F
100
AcDbEntity
  8
0
  6
SLD-Сплошная
 62
     7
370
    25
100
AcDbLine
 10
154.1978048869
 20
295.42272067
 30
0.0
 11
157.3294156369
 21
295.42272067
 31
0.0
  0
LINE
  5
25A
330
1F
100
AcDbEntity
  8
0
  6
SLD-Сплошная
 62
     7
370
    25
100
AcDbLine
 10
158.373298525
 20
295.42272067
 30
0.0
 11
165.6804029131
 21
295.42272067
 31
0.0
  0
LINE
  5
25B
330
1F
100
AcDbEntity
  8
0
  6
SLD-Сплошная
 62
     7
370
    25
100
AcDbLine
 10
158.373298525
 20
297.0086250979
 30
0.0
 11
165.6804029131
 21
297.0086250979
 31
0.0
  0
LINE
  5
25C
330
1F
100
AcDbEntity
  8
0
  6
SLD-Сплошная
 62
     7
370
    25
100
AcDbLine
 10
154.1978048869
 20
297.0086250979
 30
0.0
 11
157.3294156369
 21
297.0086250979
 31
0.0
  0
LINE
  5
25D
330
1F
100
AcDbEntity
  8
0
  6
SLD-Сплошная
 62
     7
370
    25
100
AcDbLine
 10
291.0707705667
 20
236.3037991365
 30
0.0
 11
283.0707705667
 21
236.3037991365
 31
0.0
  0
LINE
  5
25E
330
1F
100
AcDbEntity
  8
0
  6
SLD-Сплошная
 62
     7
370
    25
100
AcDbLine
 10
291.0707705667
 20
236.3037991365
 30
0.0
 11
291.0707705667
 21
238.4688626459
 31
0.0
  0
LINE
  5
25F
330
1F
100
AcDbEntity
  8
0
  6
SLD-Сплошная
 62
     7
370
    25
100
AcDbLine
 10
283.0707705667
 20
290.2037991365
 30
0.0
 11
291.0707705667
 21
290.2037991365
 31
0.0
  0
LINE
  5
260
330
1F
100
AcDbEntity
  8
0
  6
SLD-Сплошная
 62
     7
370
    25
100
AcDbLine
 10
291.0707705667
 20
290.2037991365
 30
0.0
 11
291.0707705667
 21
288.038735627
 31
0.0
  0
LINE
  5
261
330
1F
100
AcDbEntity
  8
0
  6
SLD-Сплошная
 62
     7
370
    25
100
AcDbLine
 10
281.0707705667
 20
280.0537991365
 30
0.0
 11
271.5707705667
 21
280.0537991365
 31
0.0
  0
LINE
  5
262
330
1F
100
AcDbEntity
  8
0
  6
SLD-Сплошная
 62
     7
370
    25
100
AcDbLine
 10
281.0707705667
 20
246.4537991365
 30
0.0
 11
271.5707705667
 21
246.4537991365
 31
0.0
  0
LINE
  5
263
330
1F
100
AcDbEntity
  8
0
  6
SLD-Сплошная
 62
     7
370
    25
100
AcDbLine
 10
158.373298525
 20
296.9173058933
 30
0.0
 11
158.373298525
 21
295.6408260551
 31
0.0
  0
LINE
  5
264
330
1F
100
AcDbEntity
  8
0
  6
SLD-Сплошная
 62
     7
370
    25
100
AcDbLine
 10
165.6804029131
 20
296.9173058933
 30
0.0
 11
158.373298525
 21
296.9173058933
 31
0.0
  0
LINE
  5
265
330
1F
100
AcDbEntity
  8
0
  6
SLD-Сплошная
 62
     7
370
    25
100
AcDbLine
 10
165.6804029131
 20
296.9173058933
 30
0.0
 11
165.6804029131
 21
295.6408260551
 31
0.0
  0
LINE
  5
266
330
1F
100
AcDbEntity
  8
0
  6
SLD-Сплошная
 62
     7
370
    25
100
AcDbLine
 10
158.373298525
 20
295.6408260551
 30
0.0
 11
165.6804029131
 21
295.6408260551
 31
0.0
  0
LINE
  5
267
330
1F
100
AcDbEntity
  8
0
  6
SLD-Сплошная
 62
     7
370
    25
100
AcDbLine
 10
154.1978048869
 20
295.6408260551
 30
0.0
 11
157.3294156369
 21
295.6408260551
 31
0.0
  0
LINE
  5
268
330
1F
100
AcDbEntity
  8
0
  6
SLD-Сплошная
 62
     7
370
    25
100
AcDbLine
 10
154.1978048869
 20
295.42272067
 30
0.0
 11
154.1978048869
 21
295.6408260551
 31
0.0
  0
LINE
  5
269
330
1F
100
AcDbEntity
  8
0
  6
SLD-Сплошная
 62
     7
370
    25
100
AcDbLine
 10
157.3294156369
 20
295.42272067
 30
0.0
 11
157.3294156369
 21
295.6408260551
 31
0.0
  0
LINE
  5
26A
330
1F
100
AcDbEntity
  8
0
  6
SLD-Сплошная
 62
     7
370
    25
100
AcDbLine
 10
157.3294156369
 20
296.9173058933
 30
0.0
 11
154.1978048869
 21
296.9173058933
 31
0.0
  0
LINE
  5
26B
330
1F
100
AcDbEntity
  8
0
  6
SLD-Сплошная
 62
     7
370
    25
100
AcDbLine
 10
154.1978048869
 20
296.9173058933
 30
0.0
 11
154.1978048869
 21
295.6408260551
 31
0.0
  0
LINE
  5
26C
330
1F
100
AcDbEntity
  8
0
  6
SLD-Сплошная
 62
     7
370
    25
100
AcDbLine
 10
157.3294156369
 20
296.9173058933
 30
0.0
 11
157.3294156369
 21
295.6408260551
 31
0.0
  0
LINE
  5
26D
330
1F
100
AcDbEntity
  8
0
  6
SLD-Сплошная
 62
     7
370
    25
100
AcDbLine
 10
158.373298525
 20
295.42272067
 30
0.0
 11
158.373298525
 21
295.6408260551
 31
0.0
  0
LINE
  5
26E
330
1F
100
AcDbEntity
  8
0
  6
SLD-Сплошная
 62
     7
370
    25
100
AcDbLine
 10
165.6804029131
 20
295.42272067
 30
0.0
 11
165.6804029131
 21
295.6408260551
 31
0.0
  0
LINE
  5
26F
330
1F
100
AcDbEntity
  8
0
  6
SLD-Сплошная
 62
     7
370
    25
100
AcDbLine
 10
154.1978048869
 20
297.2165474894
 30
0.0
 11
157.3294156369
 21
297.2165474894
 31
0.0
  0
LINE
  5
270
330
1F
100
AcDbEntity
  8
0
  6
SLD-Сплошная
 62
     7
370
    25
100
AcDbLine
 10
157.3294156369
 20
297.0086250979
 30
0.0
 11
157.3294156369
 21
297.2165474894
 31
0.0
  0
LINE
  5
271
330
1F
100
AcDbEntity
  8
0
  6
SLD-Сплошная
 62
     7
370
    25
100
AcDbLine
 10
154.1978048869
 20
297.0086250979
 30
0.0
 11
154.1978048869
 21
297.2165474894
 31
0.0
  0
LINE
  5
272
330
1F
100
AcDbEntity
  8
0
  6
SLD-Сплошная
 62
     7
370
    25
100
AcDbLine
 10
157.3294156369
 20
298.5537991365
 30
0.0
 11
157.3294156369
 21
297.2165474894
 31
0.0
  0
LINE
  5
273
330
1F
100
AcDbEntity
  8
0
  6
SLD-Сплошная
 62
     7
370
    25
100
AcDbLine
 10
154.1978048869
 20
298.5537991365
 30
0.0
 11
154.1978048869
 21
297.2165474894
 31
0.0
  0
LINE
  5
274
330
1F
100
AcDbEntity
  8
0
  6
SLD-Сплошная
 62
     7
370
    25
100
AcDbLine
 10
161.504909275
 20
298.5537991365
 30
0.0
 11
161.504909275
 21
298.0288917097
 31
0.0
  0
LINE
  5
275
330
1F
100
AcDbEntity
  8
0
  6
SLD-Сплошная
 62
     7
370
    25
100
AcDbLine
 10
162.5487921631
 20
298.0288917097
 30
0.0
 11
161.504909275
 21
298.0288917097
 31
0.0
  0
LINE
  5
276
330
1F
100
AcDbEntity
  8
0
  6
SLD-Сплошная
 62
     7
370
    25
100
AcDbLine
 10
162.5487921631
 20
298.5537991365
 30
0.0
 11
162.5487921631
 21
298.0288917097
 31
0.0
  0
LINE
  5
277
330
1F
100
AcDbEntity
  8
0
  6
SLD-Сплошная
 62
     7
370
    25
100
AcDbLine
 10
158.373298525
 20
297.2165474894
 30
0.0
 11
165.6804029131
 21
297.2165474894
 31
0.0
  0
LINE
  5
278
330
1F
100
AcDbEntity
  8
0
  6
SLD-Сплошная
 62
     7
370
    25
100
AcDbLine
 10
158.373298525
 20
298.5537991365
 30
0.0
 11
158.373298525
 21
297.2165474894
 31
0.0
  0
LINE
  5
279
330
1F
100
AcDbEntity
  8
0
  6
SLD-Сплошная
 62
     7
370
    25
100
AcDbLine
 10
165.6804029131
 20
298.5537991365
 30
0.0
 11
165.6804029131
 21
297.2165474894
 31
0.0
  0
LINE
  5
27A
330
1F
100
AcDbEntity
  8
0
  6
SLD-Сплошная
 62
     7
370
    25
100
AcDbLine
 10
158.373298525
 20
297.0086250979
 30
0.0
 11
158.373298525
 21
297.2165474894
 31
0.0
  0
LINE
  5
27B
330
1F
100
AcDbEntity
  8
0
  6
SLD-Сплошная
 62
     7
370
    25
100
AcDbLine
 10
165.6804029131
 20
297.0086250979
 30
0.0
 11
165.6804029131
 21
297.2165474894
 31
0.0
  0
LINE
  5
27C
330
1F
100
AcDbEntity
  8
0
  6
SLD-Сплошная
 62
     7
370
    25
100
AcDbLine
 10
310.4425239371
 20
244.281338491
 30
0.0
 11
312.813936375
 21
245.8342824745
 31
0.0
  0
SPLINE
  5
27D
330
1F
100
AcDbEntity
  8
0
  6
SLD-Сплошная
 62
     7
370
    25
100
AcDbSpline
210
0.0
220
0.0
230
1.0
 70
     8
 71
     3
 72
    20
 73
    16
 74
     0
 42
0.00000001
 43
0.00000001
 40
0.0
 40
0.0
 40
0.0
 40
0.0
 40
0.2500000000000073
 40
0.2500000000000073
 40
0.5000000000000145
 40
0.5000000000000145
 40
0.6250000000000182
 40
0.6250000000000182
 40
0.6562500000000175
 40
0.6562500000000175
 40
0.6875000000000169
 40
0.6875000000000169
 40
0.7500000000000134
 40
0.7500000000000134
 40
1.0
 40
1.0
 40
1.0
 40
1.0
 10
310.4425239371087
 20
244.2813384910036
 30
0.0
 10
309.0256119229526
 20
243.3534589909293
 30
0.0
 10
307.50507872048
 20
242.5859596927955
 30
0.0
 10
304.3322640991463
 20
241.4061368662267
 30
0.0
 10
302.6794791356787
 20
240.995016774615
 30
0.0
 10
300.1635538300041
 20
240.6610812730794
 30
0.0
 10
299.3211643083893
 20
240.5967400167119
 30
0.0
 10
298.2590373818178
 20
240.5755417584947
 30
0.0
 10
298.0480936014427
 20
240.5752228455456
 30
0.0
 10
297.6356144381685
 20
240.57522132163
 30
0.0
 10
297.4325091812347
 20
240.5752229404098
 30
0.0
 10
296.8182770978996
 20
240.5752240624679
 30
0.0
 10
296.4069179397239
 20
240.5752233892741
 30
0.0
 10
294.3545535654695
 20
240.5752233892741
 30
0.0
 10
292.7126620660678
 20
240.5752233892741
 30
0.0
 10
291.0707705666637
 20
240.5752233892741
 30
0.0
  0
SPLINE
  5
27E
330
1F
100
AcDbEntity
  8
0
  6
SLD-Сплошная
 62
     7
370
    25
100
AcDbSpline
210
0.0
220
0.0
230
1.0
 70
     8
 71
     3
 72
    20
 73
    16
 74
     0
 42
0.00000001
 43
0.00000001
 40
0.0
 40
0.0
 40
0.0
 40
0.0
 40
0.2500000000000019
 40
0.2500000000000019
 40
0.5000000000000039
 40
0.5000000000000039
 40
0.6250000000000049
 40
0.6250000000000049
 40
0.6562500000000036
 40
0.6562500000000036
 40
0.6875000000000022
 40
0.6875000000000022
 40
0.7500000000000018
 40
0.7500000000000018
 40
1.0
 40
1.0
 40
1.0
 40
1.0
 10
310.4425239371087
 20
282.22625978193
 30
0.0
 10
309.0256119229541
 20
283.1541392820033
 30
0.0
 10
307.5050787204786
 20
283.9216385801375
 30
0.0
 10
304.3322640991455
 20
285.101461406707
 30
0.0
 10
302.6794791356767
 20
285.5125814983201
 30
0.0
 10
300.1635538300064
 20
285.8465169998524
 30
0.0
 10
299.3211643083901
 20
285.9108582562213
 30
0.0
 10
298.2590373818177
 20
285.9320565144387
 30
0.0
 10
298.0480936014428
 20
285.9323754273879
 30
0.0
 10
297.6356144381689
 20
285.9323769513036
 30
0.0
 10
297.4325091812348
 20
285.9323753325238
 30
0.0
 10
296.8182770978996
 20
285.9323742104657
 30
0.0
 10
296.4069179397239
 20
285.9323748836595
 30
0.0
 10
294.3545535654695
 20
285.9323748836595
 30
0.0
 10
292.7126620660678
 20
285.9323748836595
 30
0.0
 10
291.0707705666637
 20
285.9323748836595
 30
0.0
  0
LINE
  5
27F
330
1F
100
AcDbEntity
  8
0
  6
SLD-Сплошная
 62
     7
370
    25
100
AcDbLine
 10
312.813936375
 20
280.6733157985
 30
0.0
 11
310.4425239371
 21
282.2262597819
 31
0.0
  0
LINE
  5
280
330
1F
100
AcDbEntity
  8
0
  6
SLD-Сплошная
 62
     7
370
    25
100
AcDbLine
 10
157.3294156369
 20
298.4759462916
 30
0.0
 11
158.373298525
 21
298.4759462916
 31
0.0
  0
LINE
  5
281
330
1F
100
AcDbEntity
  8
0
  6
SLD-Сплошная
 62
     7
370
    25
100
AcDbLine
 10
161.504909275
 20
298.4759462916
 30
0.0
 11
162.5487921631
 21
298.4759462916
 31
0.0
  0
LINE
  5
282
330
1F
100
AcDbEntity
  8
0
  6
SLD-Сплошная
 62
     7
370
    25
100
AcDbLine
 10
127.9707705667
 20
255.1075187924
 30
0.0
 11
127.9707705667
 21
271.4000794806
 31
0.0
  0
LINE
  5
283
330
1F
100
AcDbEntity
  8
0
  6
SLD-Сплошная
 62
     7
370
    25
100
AcDbLine
 10
130.9707705667
 20
271.4000794806
 30
0.0
 11
130.9707705667
 21
255.1075187924
 31
0.0
  0
ARC
  5
284
330
1F
100
AcDbEntity
  8
0
  6
SLD-Сплошная
 62
     7
370
    25
100
AcDbCircle
 10
126.1533155757
 20
255.7537991365
 30
0.0
 40
2.5
100
AcDbArc
 50
90.0
 51
270.0
  0
LINE
  5
285
330
1F
100
AcDbEntity
  8
0
  6
SLD-Сплошная
 62
     7
370
    25
100
AcDbLine
 10
130.9707705667
 20
253.2537991365
 30
0.0
 11
126.1533155757
 21
253.2537991365
 31
0.0
  0
LINE
  5
286
330
1F
100
AcDbEntity
  8
0
  6
SLD-Сплошная
 62
     7
370
    25
100
AcDbLine
 10
127.9707705667
 20
258.2537991365
 30
0.0
 11
126.1533155757
 21
258.2537991365
 31
0.0
  0
LINE
  5
287
330
1F
100
AcDbEntity
  8
0
  6
SLD-Сплошная
 62
     7
370
    25
100
AcDbLine
 10
130.9707705667
 20
255.1075187924
 30
0.0
 11
130.9707705667
 21
253.2537991365
 31
0.0
  0
LINE
  5
288
330
1F
100
AcDbEntity
  8
0
  6
SLD-Сплошная
 62
     7
370
    25
100
AcDbLine
 10
130.9707705667
 20
273.2537991365
 30
0.0
 11
126.1533155757
 21
273.2537991365
 31
0.0
  0
LINE
  5
289
330
1F
100
AcDbEntity
  8
0
  6
SLD-Сплошная
 62
     7
370
    25
100
AcDbLine
 10
127.9707705667
 20
268.2537991365
 30
0.0
 11
126.1533155757
 21
268.2537991365
 31
0.0
  0
LINE
  5
28A
330
1F
100
AcDbEntity
  8
0
  6
SLD-Сплошная
 62
     7
370
    25
100
AcDbLine
 10
130.9707705667
 20
273.2537991365
 30
0.0
 11
130.9707705667
 21
271.4000794806
 31
0.0
  0
ARC
  5
28B
330
1F
100
AcDbEntity
  8
0
  6
SLD-Сплошная
 62
     7
370
    25
100
AcDbCircle
 10
126.1533155757
 20
270.7537991365
 30
0.0
 40
2.5
100
AcDbArc
 50
90.0
 51
270.0
  0
LINE
  5
28C
330
1F
100
AcDbEntity
  8
0
  6
SLD-Сплошная
 62
     7
370
    25
100
AcDbLine
 10
128.183562623
 20
227.9537991365
 30
0.0
 11
128.183562623
 21
253.2537991365
 31
0.0
  0
LINE
  5
28D
330
1F
100
AcDbEntity
  8
0
  6
SLD-Сплошная
 62
     7
370
    25
100
AcDbLine
 10
133.9707705667
 20
227.9537991365
 30
0.0
 11
133.9707705667
 21
256.4618936624
 31
0.0
  0
LINE
  5
28E
330
1F
100
AcDbEntity
  8
0
  6
SLD-Сплошная
 62
     7
370
    25
100
AcDbLine
 10
128.183562623
 20
273.2537991365
 30
0.0
 11
128.183562623
 21
298.5537991365
 31
0.0
  0
LINE
  5
28F
330
1F
100
AcDbEntity
  8
0
  6
SLD-Сплошная
 62
     7
370
    25
100
AcDbLine
 10
133.9707705667
 20
270.0457046105
 30
0.0
 11
133.9707705667
 21
298.5537991365
 31
0.0
  0
ARC
  5
290
330
1F
100
AcDbEntity
  8
0
  6
SLD-Сплошная
 62
     7
370
    25
100
AcDbCircle
 10
126.0020217875
 20
255.7537991365
 30
0.0
 40
2.50000000000002
100
AcDbArc
 50
140.0114460116
 51
225.7918187772
  0
ARC
  5
291
330
1F
100
AcDbEntity
  8
0
  6
SLD-Сплошная
 62
     7
370
    25
100
AcDbCircle
 10
126.0020217875
 20
270.7537991365
 30
0.0
 40
2.500000000000032
100
AcDbArc
 50
134.2081812228
 51
219.9885539884
  0
LINE
  5
292
330
1F
100
AcDbEntity
  8
0
  6
SLD-Сплошная
 62
     7
370
    25
100
AcDbLine
 10
186.5707705667
 20
61.2155710278
 30
0.0
 11
133.9707705667
 21
61.2155710278
 31
0.0
  0
LINE
  5
293
330
1F
100
AcDbEntity
  8
0
  6
SLD-Сплошная
 62
     7
370
    25
100
AcDbLine
 10
171.0174372333
 20
-9.3844289722
 30
0.0
 11
186.5707705667
 21
-9.3844289722
 31
0.0
  0
LINE
  5
294
330
1F
100
AcDbEntity
  8
0
  6
SLD-Сплошная
 62
     7
370
    25
100
AcDbLine
 10
133.9707705667
 20
-9.3844289722
 30
0.0
 11
148.8607705667
 21
-9.3844289722
 31
0.0
  0
ARC
  5
295
330
1F
100
AcDbEntity
  8
0
  6
SLD-Сплошная
 62
     7
370
    25
100
AcDbCircle
 10
211.5707705667
 20
228.077635084
 30
0.0
 40
232.5620640561955
100
AcDbArc
 50
284.6073374206
 51
284.9511640551
  0
ARC
  5
296
330
1F
100
AcDbEntity
  8
0
  6
SLD-Сплошная
 62
     7
370
    25
100
AcDbCircle
 10
211.5707705667
 20
-176.2464930284
 30
0.0
 40
232.5620640561955
100
AcDbArc
 50
75.0488359449
 51
75.4008368891
  0
ARC
  5
297
330
1F
100
AcDbEntity
  8
0
  6
SLD-Сплошная
 62
     7
370
    25
100
AcDbCircle
 10
298.0182116834
 20
25.9155710278
 30
0.0
 40
21.99999999999996
100
AcDbArc
 50
27.9163390054
 51
47.6088660557
  0
ARC
  5
298
330
1F
100
AcDbEntity
  8
0
  6
SLD-Сплошная
 62
     7
370
    25
100
AcDbCircle
 10
298.0182116834
 20
25.9155710278
 30
0.0
 40
21.99999999999996
100
AcDbArc
 50
312.3911339443
 51
332.0836609946
  0
LINE
  5
299
330
1F
100
AcDbEntity
  8
0
  6
SLD-Сплошная
 62
     7
370
    25
100
AcDbLine
 10
165.6804029131
 20
-9.1844289722
 30
0.0
 11
171.0174372333
 21
-9.1844289722
 31
0.0
  0
LINE
  5
29A
330
1F
100
AcDbEntity
  8
0
  6
SLD-Сплошная
 62
     7
370
    25
100
AcDbLine
 10
148.8607705667
 20
-9.1844289722
 30
0.0
 11
154.1978048869
 21
-9.1844289722
 31
0.0
  0
SPLINE
  5
29B
330
1F
100
AcDbEntity
  8
0
  6
SLD-Сплошная
 62
     7
370
    25
100
AcDbSpline
210
0.0
220
0.0
230
1.0
 70
     8
 71
     3
 72
    33
 73
    29
 74
     0
 42
0.00000001
 43
0.00000001
 40
0.0
 40
0.0
 40
0.0
 40
0.0
 40
0.0075678361529343
 40
0.0252505289707377
 40
0.0450554627463524
 40
0.0625441767199775
 40
0.0769963289736686
 40
0.1104634444798046
 40
0.1473847473447538
 40
0.1871339792278887
 40
0.217603136242363
 40
0.2486501700999607
 40
0.2804051284050782
 40
0.3131553034880299
 40
0.3678369237989355
 40
0.4247241388669335
 40
0.4837771569162444
 40
0.5450590109691406
 40
0.6088331570771534
 40
0.6510568076462062
 40
0.6953325854020256
 40
0.7408463056746658
 40
0.7880814335353012
 40
0.838036836941318
 40
0.890286178512687
 40
0.9268417318028576
 40
0.964765786868147
 40
1.0
 40
1.0
 40
1.0
 40
1.0
 10
271.049240872433
 20
48.53992998348411
 30
0.0
 10
270.9627477580037
 20
48.68696245134159
 30
0.0
 10
270.6741584112559
 20
49.17754489977833
 30
0.0
 10
269.9469314102192
 20
49.86962153173445
 30
0.0
 10
268.9809197778208
 20
50.49637576503321
 30
0.0
 10
267.9541250270499
 20
50.91418296627231
 30
0.0
 10
266.6293125982833
 20
51.26463460323237
 30
0.0
 10
264.9940320308287
 20
51.46512447093129
 30
0.0
 10
262.5365772644366
 20
51.56696766084305
 30
0.0
 10
259.8138771713651
 20
51.62103868377153
 30
0.0
 10
256.934843784017
 20
51.7583701131501
 30
0.0
 10
254.1246596531798
 20
52.00204596657208
 30
0.0
 10
251.1582540040148
 20
52.41606573404599
 30
0.0
 10
247.4509005306967
 20
53.12036514034203
 30
0.0
 10
243.142697114653
 20
54.19099044040836
 30
0.0
 10
237.9683616791633
 20
55.19200464722913
 30
0.0
 10
232.5743669398216
 20
56.06623550771936
 30
0.0
 10
226.9399648292521
 20
56.76745456765646
 30
0.0
 10
221.804213841074
 20
57.2245693483429
 30
0.0
 10
217.1810858505401
 20
57.49797474020306
 30
0.0
 10
213.1415308347995
 20
57.65299447729405
 30
0.0
 10
208.8527324663293
 20
57.67939365913858
 30
0.0
 10
204.3410243033192
 20
57.66897837558073
 30
0.0
 10
199.6841252693183
 20
57.59840445580311
 30
0.0
 10
195.5252020517471
 20
57.42005407903254
 30
0.0
 10
191.9671208914314
 20
57.06806328264123
 30
0.0
 10
189.0678602172501
 20
56.60983249792278
 30
0.0
 10
187.372148548381
 20
56.07789247770713
 30
0.0
 10
186.5554661989561
 20
55.82170150288616
 30
0.0
  0
SPLINE
  5
29C
330
1F
100
AcDbEntity
  8
0
  6
SLD-Сплошная
 62
     7
370
    25
100
AcDbSpline
210
0.0
220
0.0
230
1.0
 70
     8
 71
     3
 72
    40
 73
    36
 74
     0
 42
0.00000001
 43
0.00000001
 40
0.0
 40
0.0
 40
0.0
 40
0.0
 40
0.026009527616142
 40
0.0532356568953716
 40
0.0778339915718177
 40
0.115239198410557
 40
0.1442488625464563
 40
0.16544101860808
 40
0.1847303681259619
 40
0.205545813861651
 40
0.2354121351333303
 40
0.2625189435886037
 40
0.2840544161599495
 40
0.3053748987170194
 40
0.3309348411975622
 40
0.3920825094334534
 40
0.4530577177371919
 40
0.5108796669325526
 40
0.5687749721568528
 40
0.6327883306814343
 40
0.6613475936870994
 40
0.6908845845538633
 40
0.7212755159830706
 40
0.7446736349407527
 40
0.7676184142789498
 40
0.7895921875039309
 40
0.8106056788673275
 40
0.8497509867641592
 40
0.8849133003271771
 40
0.9163232904375475
 40
0.9454623068907513
 40
0.9722107053669338
 40
0.9836472406505214
 40
0.9962063431838342
 40
1.0
 40
1.0
 40
1.0
 40
1.0
 10
186.5603739831764
 20
-3.996883291230179
 30
0.0
 10
187.1692259231439
 20
-4.194800326722266
 30
0.0
 10
188.4154089932306
 20
-4.59989201276529
 30
0.0
 10
190.4296090932964
 20
-4.999510741785146
 30
0.0
 10
192.8488098185604
 20
-5.350236129701161
 30
0.0
 10
195.457562641671
 20
-5.579136819781221
 30
0.0
 10
198.0690451375
 20
-5.70766509648616
 30
0.0
 10
200.1809903986219
 20
-5.772943737328124
 30
0.0
 10
202.068287429267
 20
-5.81056294106997
 30
0.0
 10
204.2484929195102
 20
-5.835997235334019
 30
0.0
 10
206.6962069661216
 20
-5.848819933973355
 30
0.0
 10
209.1720270901427
 20
-5.845805277526934
 30
0.0
 10
211.3685169000411
 20
-5.832327665268997
 30
0.0
 10
213.496716710977
 20
-5.798741641125711
 30
0.0
 10
216.8189749911414
 20
-5.684536007792625
 30
0.0
 10
221.3709535832372
 20
-5.433013061254544
 30
0.0
 10
226.8981541528308
 20
-4.937736923516529
 30
0.0
 10
232.3089614662959
 20
-4.269268966091394
 30
0.0
 10
237.7853965695778
 20
-3.400074051509196
 30
0.0
 10
242.3479771443569
 20
-2.508363729395974
 30
0.0
 10
246.0151691769628
 20
-1.666643028276394
 30
0.0
 10
248.6963466548145
 20
-1.039139113358383
 30
0.0
 10
251.2949237299227
 20
-0.5713488398137387
 30
0.0
 10
253.671303274554
 20
-0.2348528151891183
 30
0.0
 10
255.7497935483741
 20
-0.0248007582944743
 30
0.0
 10
257.6922378842809
 20
0.1101952146825187
 30
0.0
 10
260.0078288320152
 20
0.2133481911389921
 30
0.0
 10
262.4886547997515
 20
0.2678027359957133
 30
0.0
 10
264.9015606338314
 20
0.3706703217969121
 30
0.0
 10
266.7256443462938
 20
0.5782486037866006
 30
0.0
 10
268.3769375494149
 20
1.027176850819631
 30
0.0
 10
269.6222308598335
 20
1.691662477471628
 30
0.0
 10
270.4955317449222
 20
2.49788029047025
 30
0.0
 10
270.9050379541865
 20
2.981274798743633
 30
0.0
 10
271.0653909851676
 20
3.289400633466194
 30
0.0
 10
271.1025910904203
 20
3.36088237230615
 30
0.0
  0
LINE
  5
29D
330
1F
100
AcDbEntity
  8
0
  6
SLD-Сплошная
 62
     7
370
    25
100
AcDbLine
 10
188.2832724697
 20
56.3155710278
 30
0.0
 11
186.5707705667
 21
56.3155710278
 31
0.0
  0
LINE
  5
29E
330
1F
100
AcDbEntity
  8
0
  6
SLD-Сплошная
 62
     7
370
    25
100
AcDbLine
 10
186.5707705667
 20
-4.4844289722
 30
0.0
 11
188.1713143843
 21
-4.4844289722
 31
0.0
  0
ARC
  5
29F
330
1F
100
AcDbEntity
  8
0
  6
SLD-Сплошная
 62
     7
370
    25
100
AcDbCircle
 10
211.5707705667
 20
-176.2464930284
 30
0.0
 40
232.5620640561955
100
AcDbArc
 50
78.7349179669
 51
81.9309583129
  0
LINE
  5
2A0
330
1F
100
AcDbEntity
  8
0
  6
SLD-Сплошная
 62
     7
370
    25
100
AcDbLine
 10
312.8503500936
 20
42.1638838688
 30
0.0
 11
312.813936375
 21
43.3350876898
 31
0.0
  0
LINE
  5
2A1
330
1F
100
AcDbEntity
  8
0
  6
SLD-Сплошная
 62
     7
370
    25
100
AcDbLine
 10
312.813936375
 20
8.4960543658
 30
0.0
 11
312.8503500936
 21
9.6672581868
 31
0.0
  0
ARC
  5
2A2
330
1F
100
AcDbEntity
  8
0
  6
SLD-Сплошная
 62
     7
370
    25
100
AcDbCircle
 10
308.9750833955
 20
9.183955377
 30
0.0
 40
3.900000000000062
100
AcDbArc
 50
303.1931986079
 51
349.840740668
  0
ARC
  5
2A3
330
1F
100
AcDbEntity
  8
0
  6
SLD-Сплошная
 62
     7
370
    25
100
AcDbCircle
 10
308.9750833955
 20
42.6471866786
 30
0.0
 40
3.900000000000063
100
AcDbArc
 50
10.159259332
 51
56.7523103784
  0
SPLINE
  5
2A4
330
1F
100
AcDbEntity
  8
0
  6
SLD-Сплошная
 62
     7
370
    25
100
AcDbSpline
210
0.0
220
0.0
230
1.0
 70
     8
 71
     3
 72
    14
 73
    10
 74
     0
 42
0.00000001
 43
0.00000001
 40
0.0
 40
0.0
 40
0.0
 40
0.0
 40
0.2590389089760478
 40
0.3872144952269404
 40
0.5177568502771323
 40
0.6443105763397695
 40
0.766866568918166
 40
0.8854229200212042
 40
1.0
 40
1.0
 40
1.0
 40
1.0
 10
291.0707705666637
 20
2.015571027812021
 30
0.0
 10
292.8662762507109
 20
2.021157910722604
 30
0.0
 10
295.5502198708939
 20
2.029509250892569
 30
0.0
 10
299.141813282935
 20
1.990599096865258
 30
0.0
 10
301.8052022910916
 20
2.267327245424729
 30
0.0
 10
304.3821446291938
 20
2.828788733019526
 30
0.0
 10
306.8011944019609
 20
3.644321508041393
 30
0.0
 10
309.0558484734302
 20
4.658789272239165
 30
0.0
 10
310.4342408393929
 20
5.505272748696076
 30
0.0
 10
311.1116733793087
 20
5.921290325122889
 30
0.0
  0
SPLINE
  5
2A5
330
1F
100
AcDbEntity
  8
0
  6
SLD-Сплошная
 62
     7
370
    25
100
AcDbSpline
210
0.0
220
0.0
230
1.0
 70
     8
 71
     3
 72
    14
 73
    10
 74
     0
 42
0.00000001
 43
0.00000001
 40
0.0
 40
0.0
 40
0.0
 40
0.0
 40
0.1179373309070385
 40
0.2572473724705184
 40
0.417935156352961
 40
0.5525139979457785
 40
0.6966137432249654
 40
0.8427082361514763
 40
1.0
 40
1.0
 40
1.0
 40
1.0
 10
311.1116733793087
 20
45.90985173050132
 30
0.0
 10
310.4139380837993
 20
46.33718030258776
 30
0.0
 10
308.8920232662492
 20
47.26927832028382
 30
0.0
 10
306.2264679110452
 20
48.43036208550259
 30
0.0
 10
303.3295670964629
 20
49.28333120424774
 30
0.0
 10
300.3139688157572
 20
49.77439091022372
 30
0.0
 10
297.365025584457
 20
49.82701469087381
 30
0.0
 10
294.2643764319553
 20
49.81243523766235
 30
0.0
 10
292.1611805213405
 20
49.81450035818678
 30
0.0
 10
291.0707705666637
 20
49.81557102781202
 30
0.0
  0
LINE
  5
2A6
330
1F
100
AcDbEntity
  8
0
  6
SLD-Сплошная
 62
     7
370
    25
100
AcDbLine
 10
162.5487921631
 20
-9.3844289722
 30
0.0
 11
165.6804029131
 21
-9.3844289722
 31
0.0
  0
LINE
  5
2A7
330
1F
100
AcDbEntity
  8
0
  6
SLD-Сплошная
 62
     7
370
    25
100
AcDbLine
 10
158.373298525
 20
-9.3844289722
 30
0.0
 11
161.504909275
 21
-9.3844289722
 31
0.0
  0
LINE
  5
2A8
330
1F
100
AcDbEntity
  8
0
  6
SLD-Сплошная
 62
     7
370
    25
100
AcDbLine
 10
154.1978048869
 20
-9.3844289722
 30
0.0
 11
157.3294156369
 21
-9.3844289722
 31
0.0
  0
ARC
  5
2A9
330
1F
100
AcDbEntity
  8
0
  6
SLD-Сплошная
 62
     7
370
    25
100
AcDbCircle
 10
246.0433155962
 20
1.4911744533
 30
0.0
 40
3.899999999999999
100
AcDbArc
 50
248.1366055833
 51
309.1645220626
  0
ARC
  5
2AA
330
1F
100
AcDbEntity
  8
0
  6
SLD-Сплошная
 62
     7
370
    25
100
AcDbCircle
 10
246.0433155962
 20
50.3399676024
 30
0.0
 40
3.899999999999991
100
AcDbArc
 50
50.8354779374
 51
111.8633944167
  0
LINE
  5
2AB
330
1F
100
AcDbEntity
  8
0
  6
SLD-Сплошная
 62
     7
370
    25
100
AcDbLine
 10
158.6707705667
 20
15.9155710278
 30
0.0
 11
158.6707705667
 21
35.9155710278
 31
0.0
  0
ARC
  5
2AC
330
1F
100
AcDbEntity
  8
0
  6
SLD-Сплошная
 62
     7
370
    25
100
AcDbCircle
 10
273.9707705667
 20
25.9155710278
 30
0.0
 40
150.0
100
AcDbArc
 50
166.388727559
 51
176.4484329448
  0
ARC
  5
2AD
330
1F
100
AcDbEntity
  8
0
  6
SLD-Сплошная
 62
     7
370
    25
100
AcDbCircle
 10
273.9707705667
 20
25.9155710278
 30
0.0
 40
150.0
100
AcDbArc
 50
177.7483022664
 51
182.2516977336
  0
ARC
  5
2AE
330
1F
100
AcDbEntity
  8
0
  6
SLD-Сплошная
 62
     7
370
    25
100
AcDbCircle
 10
273.9707705667
 20
25.9155710278
 30
0.0
 40
150.0000000000001
100
AcDbArc
 50
183.5515670552
 51
193.611272441
  0
LINE
  5
2AF
330
1F
100
AcDbEntity
  8
0
  6
SLD-Сплошная
 62
     7
370
    25
100
AcDbLine
 10
133.9707705667
 20
61.2155710278
 30
0.0
 11
128.183562623
 21
61.2155710278
 31
0.0
  0
LINE
  5
2B0
330
1F
100
AcDbEntity
  8
0
  6
SLD-Сплошная
 62
     7
370
    25
100
AcDbLine
 10
128.183562623
 20
-9.3844289722
 30
0.0
 11
133.9707705667
 21
-9.3844289722
 31
0.0
  0
LINE
  5
2B1
330
1F
100
AcDbEntity
  8
0
  6
SLD-Сплошная
 62
     7
370
    25
100
AcDbLine
 10
155.098977213
 20
36.2155710278
 30
0.0
 11
147.7707705667
 21
36.2155710278
 31
0.0
  0
LINE
  5
2B2
330
1F
100
AcDbEntity
  8
0
  6
SLD-Сплошная
 62
     7
370
    25
100
AcDbLine
 10
147.7707705667
 20
36.2155710278
 30
0.0
 11
147.7707705667
 21
40.2155710278
 31
0.0
  0
LINE
  5
2B3
330
1F
100
AcDbEntity
  8
0
  6
SLD-Сплошная
 62
     7
370
    25
100
AcDbLine
 10
155.098977213
 20
40.2155710278
 30
0.0
 11
147.7707705667
 21
40.2155710278
 31
0.0
  0
LINE
  5
2B4
330
1F
100
AcDbEntity
  8
0
  6
SLD-Сплошная
 62
     7
370
    25
100
AcDbLine
 10
155.098977213
 20
11.6155710278
 30
0.0
 11
147.7707705667
 21
11.6155710278
 31
0.0
  0
LINE
  5
2B5
330
1F
100
AcDbEntity
  8
0
  6
SLD-Сплошная
 62
     7
370
    25
100
AcDbLine
 10
147.7707705667
 20
15.6155710278
 30
0.0
 11
147.7707705667
 21
11.6155710278
 31
0.0
  0
LINE
  5
2B6
330
1F
100
AcDbEntity
  8
0
  6
SLD-Сплошная
 62
     7
370
    25
100
AcDbLine
 10
147.7707705667
 20
15.6155710278
 30
0.0
 11
155.098977213
 21
15.6155710278
 31
0.0
  0
LINE
  5
2B7
330
1F
100
AcDbEntity
  8
0
  6
SLD-Сплошная
 62
     7
370
    25
100
AcDbLine
 10
166.9264329714
 20
36.2155710278
 30
0.0
 11
166.9264329714
 21
15.6155710278
 31
0.0
  0
ELLIPSE
  5
2B8
330
1F
100
AcDbEntity
  8
0
  6
SLD-Сплошная
 62
     7
370
    25
100
AcDbEllipse
 10
232.0386678101
 20
25.9155710278
 30
0.0
 11
52.33440218849952
 21
0.0
 31
0.0
210
0.0
220
0.0
230
1.0
 40
0.6745085168
 41
2.724505378571207
 42
3.558679928608399
  0
LINE
  5
2B9
330
1F
100
AcDbEntity
  8
0
  6
SLD-Сплошная
 62
     7
370
    25
100
AcDbLine
 10
184.1907495105
 20
11.6155710278
 30
0.0
 11
155.098977213
 21
11.6155710278
 31
0.0
  0
LINE
  5
2BA
330
1F
100
AcDbEntity
  8
0
  6
SLD-Сплошная
 62
     7
370
    25
100
AcDbLine
 10
155.098977213
 20
15.6155710278
 30
0.0
 11
166.9264329714
 21
15.6155710278
 31
0.0
  0
LINE
  5
2BB
330
1F
100
AcDbEntity
  8
0
  6
SLD-Сплошная
 62
     7
370
    25
100
AcDbLine
 10
166.9264329714
 20
36.2155710278
 30
0.0
 11
155.098977213
 21
36.2155710278
 31
0.0
  0
LINE
  5
2BC
330
1F
100
AcDbEntity
  8
0
  6
SLD-Сплошная
 62
     7
370
    25
100
AcDbLine
 10
184.1907495105
 20
40.2155710278
 30
0.0
 11
155.098977213
 21
40.2155710278
 31
0.0
  0
LINE
  5
2BD
330
1F
100
AcDbEntity
  8
0
  6
SLD-Сплошная
 62
     7
370
    25
100
AcDbLine
 10
165.8080471644
 20
36.2155710278
 30
0.0
 11
165.8080471644
 21
15.6155710278
 31
0.0
  0
LINE
  5
2BE
330
1F
100
AcDbEntity
  8
0
  6
SLD-Сплошная
 62
     7
370
    25
100
AcDbLine
 10
148.8607705667
 20
-4.4989068321
 30
0.0
 11
148.8607705667
 21
-9.3844289722
 31
0.0
  0
LINE
  5
2BF
330
1F
100
AcDbEntity
  8
0
  6
SLD-Сплошная
 62
     7
370
    25
100
AcDbLine
 10
171.0174372333
 20
-4.4989068321
 30
0.0
 11
171.0174372333
 21
-9.3844289722
 31
0.0
  0
LINE
  5
2C0
330
1F
100
AcDbEntity
  8
0
  6
SLD-Сплошная
 62
     7
370
    25
100
AcDbLine
 10
171.0174372333
 20
-4.4989068321
 30
0.0
 11
148.8607705667
 21
-4.4989068321
 31
0.0
  0
LINE
  5
2C1
330
1F
100
AcDbEntity
  8
0
  6
SLD-Сплошная
 62
     7
370
    25
100
AcDbLine
 10
186.5707705667
 20
61.2155710278
 30
0.0
 11
186.5707705667
 21
-9.3844289722
 31
0.0
  0
LINE
  5
2C2
330
1F
100
AcDbEntity
  8
0
  6
SLD-Сплошная
 62
     7
370
    25
100
AcDbLine
 10
133.9707705667
 20
61.2155710278
 30
0.0
 11
133.9707705667
 21
35.9155710278
 31
0.0
  0
LINE
  5
2C3
330
1F
100
AcDbEntity
  8
0
  6
SLD-Сплошная
 62
     7
370
    25
100
AcDbLine
 10
133.9707705667
 20
15.9155710278
 30
0.0
 11
133.9707705667
 21
-9.3844289722
 31
0.0
  0
SPLINE
  5
2C4
330
1F
100
AcDbEntity
  8
0
  6
SLD-Сплошная
 62
     7
370
    25
100
AcDbSpline
210
0.0
220
0.0
230
1.0
 70
     8
 71
     3
 72
    23
 73
    19
 74
     0
 42
0.00000001
 43
0.00000001
 40
0.0
 40
0.0
 40
0.0
 40
0.0
 40
0.056313417185458
 40
0.1127086597642491
 40
0.2252098236807576
 40
0.3379641519904635
 40
0.4285135969861636
 40
0.5192361729974847
 40
0.5724450162198688
 40
0.6270929769506131
 40
0.6803569005491586
 40
0.7352918762484214
 40
0.7865763940500793
 40
0.8392876748578205
 40
0.8917175512047586
 40
0.9456956994969372
 40
0.9974132120768507
 40
1.0
 40
1.0
 40
1.0
 40
1.0
 10
211.5707705666636
 20
-3.825266043594677
 30
0.0
 10
212.7876802280453
 20
-3.762515763795792
 30
0.0
 10
215.2232677637261
 20
-3.636924025814902
 30
0.0
 10
220.0599324706798
 20
-3.226570426877306
 30
0.0
 10
226.1002234380641
 20
-2.519222695204791
 30
0.0
 10
232.8231411958538
 20
-1.384463081915064
 30
0.0
 10
239.0455766398981
 20
-0.0534873805294912
 30
0.0
 10
243.9167447816232
 20
1.282345556077934
 30
0.0
 10
248.1065635176996
 20
2.445507032669988
 30
0.0
 10
251.6336791238298
 20
3.10438613021953
 30
0.0
 10
255.1812468527824
 20
3.496840495265316
 30
0.0
 10
258.542312216628
 20
3.597240048206052
 30
0.0
 10
261.6661367281589
 20
3.474898119581817
 30
0.0
 10
264.4304626956666
 20
3.231620058951848
 30
0.0
 10
266.8651160268105
 20
2.966110225027838
 30
0.0
 10
268.7684270444619
 20
2.870685174973242
 30
0.0
 10
269.8845113766013
 20
2.87046182674237
 30
0.0
 10
270.2030082652038
 20
3.035787688241164
 30
0.0
 10
270.2181798795577
 20
3.043662993473851
 30
0.0
  0
SPLINE
  5
2C5
330
1F
100
AcDbEntity
  8
0
  6
SLD-Сплошная
 62
     7
370
    25
100
AcDbSpline
210
0.0
220
0.0
230
1.0
 70
     8
 71
     3
 72
    24
 73
    20
 74
     0
 42
0.00000001
 43
0.00000001
 40
0.0
 40
0.0
 40
0.0
 40
0.0
 40
0.0148862375118511
 40
0.0626137551830564
 40
0.1115968510065714
 40
0.1618594393593442
 40
0.2134486253127241
 40
0.2659606785510585
 40
0.3200428323584273
 40
0.3716977578511849
 40
0.4248480331493953
 40
0.4720755245969583
 40
0.5194400851583972
 40
0.614476494865858
 40
0.710435723447512
 40
0.8065698193343227
 40
0.9031966133655743
 40
0.9516179031928751
 40
1.0
 40
1.0
 40
1.0
 40
1.0
 10
270.1772094106431
 20
48.76535490568229
 30
0.0
 10
270.0800192186807
 20
48.8033865952013
 30
0.0
 10
269.6712226452766
 20
48.96335360465186
 30
0.0
 10
268.4994567370429
 20
48.96041784354229
 30
0.0
 10
266.6635955296681
 20
48.84087155491137
 30
0.0
 10
264.3427132076779
 20
48.59180096014178
 30
0.0
 10
261.6096864516526
 20
48.35243237375622
 30
0.0
 10
258.4963451729184
 20
48.23319882511838
 30
0.0
 10
255.1595424797058
 20
48.33807437031548
 30
0.0
 10
251.6997019426648
 20
48.71895676101231
 30
0.0
 10
248.3740359868081
 20
49.33410083126701
 30
0.0
 10
245.2382190296485
 20
50.16820860015782
 30
0.0
 10
241.3056276120946
 20
51.30356906782649
 30
0.0
 10
236.2885827568115
 20
52.5036810329614
 30
0.0
 10
230.2014021165972
 20
53.68831686312074
 30
0.0
 10
224.0401553908296
 20
54.61386032746364
 30
0.0
 10
218.8572892090087
 20
55.16284565991289
 30
0.0
 10
214.7184558671893
 20
55.50727812912364
 30
0.0
 10
212.619715759519
 20
55.60671152846701
 30
0.0
 10
211.5707705666636
 20
55.65640809921882
 30
0.0
  0
LINE
  5
2C6
330
1F
100
AcDbEntity
  8
0
  6
SLD-Сплошная
 62
     7
370
    25
100
AcDbLine
 10
271.5707705667
 20
48.4424333522
 30
0.0
 11
271.5707705667
 21
3.3887087034
 31
0.0
  0
SPLINE
  5
2C7
330
1F
100
AcDbEntity
  8
0
  6
SLD-Сплошная
 62
     7
370
    25
100
AcDbSpline
210
0.0
220
0.0
230
1.0
 70
     8
 71
     3
 72
    18
 73
    14
 74
     0
 42
0.00000001
 43
0.00000001
 40
0.0
 40
0.0
 40
0.0
 40
0.0
 40
0.2499999999999996
 40
0.2499999999999996
 40
0.3749999999999996
 40
0.3749999999999996
 40
0.4999999999999997
 40
0.4999999999999997
 40
0.6249999999999997
 40
0.6249999999999997
 40
0.7499999999999997
 40
0.7499999999999997
 40
1.0
 40
1.0
 40
1.0
 40
1.0
 10
211.5707705666636
 20
55.65640809921882
 30
0.0
 10
209.579460813928
 20
55.72683729376855
 30
0.0
 10
207.5857990290121
 20
55.74234946995114
 30
0.0
 10
204.591746614811
 20
55.69206527739789
 30
0.0
 10
203.5875919381679
 20
55.66182227418017
 30
0.0
 10
201.6277190008848
 20
55.571623699718
 30
0.0
 10
200.666978841599
 20
55.51191079543872
 30
0.0
 10
198.784962305453
 20
55.35313426541383
 30
0.0
 10
197.8637256853066
 20
55.25404353623949
 30
0.0
 10
196.0611737871262
 20
55.00225106254482
 30
0.0
 10
195.1967253354496
 20
54.85154180748157
 30
0.0
 10
192.7284123872852
 20
54.30826819959164
 30
0.0
 10
191.2395917354285
 20
53.8260776840264
 30
0.0
 10
189.9113071463024
 20
53.14729099303552
 30
0.0
  0
SPLINE
  5
2C8
330
1F
100
AcDbEntity
  8
0
  6
SLD-Сплошная
 62
     7
370
    25
100
AcDbSpline
210
0.0
220
0.0
230
1.0
 70
     8
 71
     3
 72
    24
 73
    20
 74
     0
 42
0.00000001
 43
0.00000001
 40
0.0
 40
0.0
 40
0.0
 40
0.0
 40
0.2500000000000002
 40
0.2500000000000002
 40
0.3125000000000002
 40
0.3125000000000002
 40
0.3750000000000002
 40
0.3750000000000002
 40
0.5
 40
0.5
 40
0.5625
 40
0.5625
 40
0.6250000000000001
 40
0.6250000000000001
 40
0.75
 40
0.75
 40
0.875
 40
0.875
 40
1.0
 40
1.0
 40
1.0
 40
1.0
 10
189.9113071463024
 20
-1.316148937411478
 30
0.0
 10
191.2362783382435
 20
-1.99324239945917
 30
0.0
 10
192.7274551906475
 20
-2.477630346843763
 30
0.0
 10
194.7994746791495
 20
-2.932783488091933
 30
0.0
 10
195.2254675482434
 20
-3.016303715069308
 30
0.0
 10
196.0941459700242
 20
-3.168799841613269
 30
0.0
 10
196.5346096520232
 20
-3.237441679638596
 30
0.0
 10
197.8739801093951
 20
-3.423921118960164
 30
0.0
 10
198.7906555844596
 20
-3.522557545203239
 30
0.0
 10
200.2019369134176
 20
-3.641492539658738
 30
0.0
 10
200.6784537940165
 20
-3.676247186513527
 30
0.0
 10
201.6434263117996
 20
-3.73739432608217
 30
0.0
 10
202.1335565051161
 20
-3.763853719236425
 30
0.0
 10
203.6078564241374
 20
-3.831423712130688
 30
0.0
 10
204.5948224155515
 20
-3.860941374361576
 30
0.0
 10
206.5769764030446
 20
-3.894297921701539
 30
0.0
 10
207.57206541966
 20
-3.898436869666441
 30
0.0
 10
209.5705076689114
 20
-3.881665718077937
 30
0.0
 10
210.5766318113175
 20
-3.860427018281563
 30
0.0
 10
211.5707705666636
 20
-3.825266043594677
 30
0.0
  0
SPLINE
  5
2C9
330
1F
100
AcDbEntity
  8
0
  6
SLD-Сплошная
 62
     7
370
    25
100
AcDbSpline
210
0.0
220
0.0
230
1.0
 70
     8
 71
     3
 72
     8
 73
     4
 74
     0
 42
0.00000001
 43
0.00000001
 40
0.0
 40
0.0
 40
0.0
 40
0.0
 40
1.0
 40
1.0
 40
1.0
 40
1.0
 10
186.5707705666637
 20
0.6816156289716213
 30
0.0
 10
187.6740181160681
 20
-0.064322083210399
 30
0.0
 10
188.7734398121426
 20
-0.7345352007094886
 30
0.0
 10
189.9113338873575
 20
-1.316137505060579
 30
0.0
  0
SPLINE
  5
2CA
330
1F
100
AcDbEntity
  8
0
  6
SLD-Сплошная
 62
     7
370
    25
100
AcDbSpline
210
0.0
220
0.0
230
1.0
 70
     8
 71
     3
 72
     8
 73
     4
 74
     0
 42
0.00000001
 43
0.00000001
 40
0.0
 40
0.0
 40
0.0
 40
0.0
 40
1.0
 40
1.0
 40
1.0
 40
1.0
 10
186.5707705666637
 20
51.14952642665252
 30
0.0
 10
187.6753159679851
 20
51.89634165421202
 30
0.0
 10
188.7748665055537
 20
52.56640647023294
 30
0.0
 10
189.9113338873573
 20
53.14727956068473
 30
0.0
  0
LINE
  5
2CB
330
1F
100
AcDbEntity
  8
0
  6
SLD-Сплошная
 62
     7
370
    25
100
AcDbLine
 10
281.0707705667
 20
55.8631149097
 30
0.0
 11
283.0707705667
 21
55.8631149097
 31
0.0
  0
LINE
  5
2CC
330
1F
100
AcDbEntity
  8
0
  6
SLD-Сплошная
 62
     7
370
    25
100
AcDbLine
 10
283.0707705667
 20
52.8655710278
 30
0.0
 11
283.0707705667
 21
55.8631149097
 31
0.0
  0
LINE
  5
2CD
330
1F
100
AcDbEntity
  8
0
  6
SLD-Сплошная
 62
     7
370
    25
100
AcDbLine
 10
283.0707705667
 20
50.7005075184
 30
0.0
 11
283.0707705667
 21
52.8655710278
 31
0.0
  0
LINE
  5
2CE
330
1F
100
AcDbEntity
  8
0
  6
SLD-Сплошная
 62
     7
370
    25
100
AcDbLine
 10
283.0707705667
 20
28.0806345373
 30
0.0
 11
283.0707705667
 21
50.7005075184
 31
0.0
  0
LINE
  5
2CF
330
1F
100
AcDbEntity
  8
0
  6
SLD-Сплошная
 62
     7
370
    25
100
AcDbLine
 10
283.0707705667
 20
23.7505075184
 30
0.0
 11
283.0707705667
 21
28.0806345373
 31
0.0
  0
LINE
  5
2D0
330
1F
100
AcDbEntity
  8
0
  6
SLD-Сплошная
 62
     7
370
    25
100
AcDbLine
 10
283.0707705667
 20
1.1306345373
 30
0.0
 11
283.0707705667
 21
23.7505075184
 31
0.0
  0
LINE
  5
2D1
330
1F
100
AcDbEntity
  8
0
  6
SLD-Сплошная
 62
     7
370
    25
100
AcDbLine
 10
283.0707705667
 20
-1.0344289722
 30
0.0
 11
283.0707705667
 21
1.1306345373
 31
0.0
  0
LINE
  5
2D2
330
1F
100
AcDbEntity
  8
0
  6
SLD-Сплошная
 62
     7
370
    25
100
AcDbLine
 10
283.0707705667
 20
-4.0319728541
 30
0.0
 11
283.0707705667
 21
-1.0344289722
 31
0.0
  0
LINE
  5
2D3
330
1F
100
AcDbEntity
  8
0
  6
SLD-Сплошная
 62
     7
370
    25
100
AcDbLine
 10
281.0707705667
 20
-4.0319728541
 30
0.0
 11
283.0707705667
 21
-4.0319728541
 31
0.0
  0
LINE
  5
2D4
330
1F
100
AcDbEntity
  8
0
  6
SLD-Сплошная
 62
     7
370
    25
100
AcDbLine
 10
281.0707705667
 20
-4.0319728541
 30
0.0
 11
281.0707705667
 21
55.8631149097
 31
0.0
  0
LINE
  5
2D5
330
1F
100
AcDbEntity
  8
0
  6
SLD-Сплошная
 62
     7
370
    25
100
AcDbLine
 10
291.0707705667
 20
50.7005075184
 30
0.0
 11
283.0707705667
 21
50.7005075184
 31
0.0
  0
LINE
  5
2D6
330
1F
100
AcDbEntity
  8
0
  6
SLD-Сплошная
 62
     7
370
    25
100
AcDbLine
 10
283.0707705667
 20
28.0806345373
 30
0.0
 11
291.0707705667
 21
28.0806345373
 31
0.0
  0
LINE
  5
2D7
330
1F
100
AcDbEntity
  8
0
  6
SLD-Сплошная
 62
     7
370
    25
100
AcDbLine
 10
291.0707705667
 20
28.0806345373
 30
0.0
 11
291.0707705667
 21
50.7005075184
 31
0.0
  0
LINE
  5
2D8
330
1F
100
AcDbEntity
  8
0
  6
SLD-Сплошная
 62
     7
370
    25
100
AcDbLine
 10
291.0707705667
 20
23.7505075184
 30
0.0
 11
283.0707705667
 21
23.7505075184
 31
0.0
  0
LINE
  5
2D9
330
1F
100
AcDbEntity
  8
0
  6
SLD-Сплошная
 62
     7
370
    25
100
AcDbLine
 10
291.0707705667
 20
28.0806345373
 30
0.0
 11
291.0707705667
 21
23.7505075184
 31
0.0
  0
LINE
  5
2DA
330
1F
100
AcDbEntity
  8
0
  6
SLD-Сплошная
 62
     7
370
    25
100
AcDbLine
 10
283.0707705667
 20
1.1306345373
 30
0.0
 11
291.0707705667
 21
1.1306345373
 31
0.0
  0
LINE
  5
2DB
330
1F
100
AcDbEntity
  8
0
  6
SLD-Сплошная
 62
     7
370
    25
100
AcDbLine
 10
291.0707705667
 20
23.7505075184
 30
0.0
 11
291.0707705667
 21
1.1306345373
 31
0.0
  0
SPLINE
  5
2DC
330
1F
100
AcDbEntity
  8
0
  6
SLD-Сплошная
 62
     7
370
    25
100
AcDbSpline
210
0.0
220
0.0
230
1.0
 70
    24
 71
     3
 72
    20
 73
    16
 74
     0
 42
0.00000001
 43
0.00000001
 40
0.0
 40
0.0
 40
0.0
 40
0.0
 40
0.2500000000000019
 40
0.2500000000000019
 40
0.5000000000000039
 40
0.5000000000000039
 40
0.6250000000000049
 40
0.6250000000000049
 40
0.6562500000000036
 40
0.6562500000000036
 40
0.6875000000000022
 40
0.6875000000000022
 40
0.7500000000000018
 40
0.7500000000000018
 40
1.0
 40
1.0
 40
1.0
 40
1.0
 10
310.4425239371087
 20
23.08092255462342
 30
0.0
 10
309.0256119229541
 20
23.08092255462342
 30
0.0
 10
307.5050787204786
 20
23.08092255462342
 30
0.0
 10
304.3322640991455
 20
23.08092255462342
 30
0.0
 10
302.6794791356774
 20
23.08092255462342
 30
0.0
 10
300.163553830006
 20
23.08092255462342
 30
0.0
 10
299.3211643083901
 20
23.08092255462342
 30
0.0
 10
298.2590373818177
 20
23.08092255462342
 30
0.0
 10
298.0480936014428
 20
23.08092255462342
 30
0.0
 10
297.6356144381689
 20
23.08092255462342
 30
0.0
 10
297.4325091812348
 20
23.08092255462342
 30
0.0
 10
296.8182770978996
 20
23.08092255462342
 30
0.0
 10
296.4069179397239
 20
23.08092255462342
 30
0.0
 10
294.3545535654695
 20
23.08092255462342
 30
0.0
 10
292.7126620660678
 20
23.08092255462342
 30
0.0
 10
291.0707705666637
 20
23.08092255462342
 30
0.0
  0
SPLINE
  5
2DD
330
1F
100
AcDbEntity
  8
0
  6
SLD-Сплошная
 62
     7
370
    25
100
AcDbSpline
210
0.0
220
0.0
230
1.0
 70
    24
 71
     3
 72
    20
 73
    16
 74
     0
 42
0.00000001
 43
0.00000001
 40
0.0
 40
0.0
 40
0.0
 40
0.0
 40
0.2500000000000009
 40
0.2500000000000009
 40
0.5000000000000018
 40
0.5000000000000018
 40
0.6250000000000033
 40
0.6250000000000033
 40
0.6562500000000022
 40
0.6562500000000022
 40
0.6875000000000011
 40
0.6875000000000011
 40
0.7500000000000009
 40
0.7500000000000009
 40
1.0
 40
1.0
 40
1.0
 40
1.0
 10
310.4425239371087
 20
28.75021950100088
 30
0.0
 10
309.0256119229551
 20
28.75021950100088
 30
0.0
 10
307.505078720479
 20
28.75021950100088
 30
0.0
 10
304.3322640991453
 20
28.75021950100088
 30
0.0
 10
302.6794791356781
 20
28.75021950100088
 30
0.0
 10
300.1635538300045
 20
28.75021950100088
 30
0.0
 10
299.3211643083902
 20
28.75021950100088
 30
0.0
 10
298.2590373818177
 20
28.75021950100088
 30
0.0
 10
298.0480936014428
 20
28.75021950100088
 30
0.0
 10
297.6356144381689
 20
28.75021950100088
 30
0.0
 10
297.4325091812347
 20
28.75021950100088
 30
0.0
 10
296.8182770978996
 20
28.75021950100088
 30
0.0
 10
296.4069179397239
 20
28.75021950100088
 30
0.0
 10
294.3545535654695
 20
28.75021950100088
 30
0.0
 10
292.7126620660678
 20
28.75021950100088
 30
0.0
 10
291.0707705666637
 20
28.75021950100088
 30
0.0
  0
LWPOLYLINE
  5
2DE
330
1F
100
AcDbEntity
  8
0
  6
SLD-Сплошная
 62
     7
370
    25
100
AcDbPolyline
 90
        3
 70
   128
 43
0.0
 10
298.0182116834
 20
29.4223190189
 10
294.127644658
 20
29.4223199305
 10
291.0707705667
 20
29.4223190189
  0
SPLINE
  5
2DF
330
1F
100
AcDbEntity
  8
0
  6
SLD-Сплошная
 62
     7
370
    25
100
AcDbSpline
210
0.0
220
0.0
230
1.0
 70
     8
 71
     3
 72
    16
 73
    12
 74
     0
 42
0.00000001
 43
0.00000001
 40
0.0
 40
0.0
 40
0.0
 40
0.0
 40
0.4999999999999984
 40
0.4999999999999984
 40
0.7499999999999977
 40
0.7499999999999977
 40
0.8749999999999972
 40
0.8749999999999972
 40
0.9374999999999987
 40
0.9374999999999987
 40
1.0
 40
1.0
 40
1.0
 40
1.0
 10
309.9150199638242
 20
29.42443065950684
 30
0.0
 10
308.1586078979086
 20
29.4240787194139
 30
0.0
 10
306.2357331920931
 20
29.42372677932095
 30
0.0
 10
303.2193744085548
 20
29.42319886918153
 30
0.0
 10
302.1922486383411
 20
29.42302289913506
 30
0.0
 10
300.6352906501976
 20
29.42275894406535
 30
0.0
 10
300.1135933688078
 20
29.42267095904211
 30
0.0
 10
299.3289407501446
 20
29.42253898150726
 30
0.0
 10
299.0670378847216
 20
29.42249498899563
 30
0.0
 10
298.5428418052014
 20
29.4224070039724
 30
0.0
 10
298.2822473958551
 20
29.42236301146078
 30
0.0
 10
298.018211683406
 20
29.42231901894916
 30
0.0
  0
SPLINE
  5
2E0
330
1F
100
AcDbEntity
  8
0
  6
SLD-Сплошная
 62
     7
370
    25
100
AcDbSpline
210
0.0
220
0.0
230
1.0
 70
    24
 71
     3
 72
    16
 73
    12
 74
     0
 42
0.00000001
 43
0.00000001
 40
0.0
 40
0.0
 40
0.0
 40
0.0
 40
0.0624999999999993
 40
0.0624999999999993
 40
0.1249999999999988
 40
0.1249999999999988
 40
0.2499999999999976
 40
0.2499999999999976
 40
0.4999999999999984
 40
0.4999999999999984
 40
1.0
 40
1.0
 40
1.0
 40
1.0
 10
298.0182116833997
 20
22.40882303667522
 30
0.0
 10
298.282247395849
 20
22.40882303667522
 30
0.0
 10
298.5428440822947
 20
22.40882303667522
 30
0.0
 10
299.0670492627992
 20
22.40882303667522
 30
0.0
 10
299.328958952121
 20
22.40882303667522
 30
0.0
 10
300.1136388353877
 20
22.40882303667522
 30
0.0
 10
300.6353633561966
 20
22.40882303667522
 30
0.0
 10
302.1924298295123
 20
22.40882303667522
 30
0.0
 10
303.2196637074088
 20
22.40882303667522
 30
0.0
 10
306.236447406117
 20
22.40882303667522
 30
0.0
 10
308.1597407332836
 20
22.40882303667522
 30
0.0
 10
309.9166721150388
 20
22.40882303667519
 30
0.0
  0
LINE
  5
2E1
330
1F
100
AcDbEntity
  8
0
  6
SLD-Сплошная
 62
     7
370
    25
100
AcDbLine
 10
291.0707705667
 20
22.4088230367
 30
0.0
 11
298.0182116834
 21
22.4088230367
 31
0.0
  0
ARC
  5
2E2
330
1F
100
AcDbEntity
  8
0
  6
SLD-Сплошная
 62
     7
370
    25
100
AcDbCircle
 10
309.6021509731
 20
26.1786933708
 30
0.0
 40
3.258838887367101
100
AcDbArc
 50
355.3688326741
 51
84.4615769118
  0
SPLINE
  5
2E3
330
1F
100
AcDbEntity
  8
0
  6
SLD-Сплошная
 62
     7
370
    25
100
AcDbSpline
210
0.0
220
0.0
230
1.0
 70
     8
 71
     3
 72
    16
 73
    12
 74
     0
 42
0.00000001
 43
0.00000001
 40
0.0
 40
0.0
 40
0.0
 40
0.0
 40
0.0624999999999996
 40
0.0624999999999996
 40
0.1249999999999991
 40
0.1249999999999991
 40
0.2499999999999983
 40
0.2499999999999983
 40
0.5
 40
0.5
 40
1.0
 40
1.0
 40
1.0
 40
1.0
 10
298.0182116833999
 20
47.63428918811471
 30
0.0
 10
298.2822473958492
 20
47.63428620701433
 30
0.0
 10
298.5428440822951
 20
47.62953582933385
 30
0.0
 10
299.0670492627991
 20
47.610534643542
 30
0.0
 10
299.3289589521207
 20
47.59628674883565
 30
0.0
 10
300.1136388353888
 20
47.53933110287813
 30
0.0
 10
300.6353633561976
 20
47.48240566468372
 30
0.0
 10
302.192429829511
 20
47.2551845158484
 30
0.0
 10
303.2196637074098
 20
47.02833436311982
 30
0.0
 10
306.2364474061154
 20
46.12863515150706
 30
0.0
 10
308.1597407332852
 20
45.23557796487228
 30
0.0
 10
309.9166721150388
 20
44.08503326210852
 30
0.0
  0
LINE
  5
2E4
330
1F
100
AcDbEntity
  8
0
  6
SLD-Сплошная
 62
     7
370
    25
100
AcDbLine
 10
312.8503500936
 20
42.1638838688
 30
0.0
 11
309.916672115
 21
44.0850332621
 31
0.0
  0
LINE
  5
2E5
330
1F
100
AcDbEntity
  8
0
  6
SLD-Сплошная
 62
     7
370
    25
100
AcDbLine
 10
317.4581190906
 20
25.9155710278
 30
0.0
 11
317.4581190906
 21
36.2155710278
 31
0.0
  0
LINE
  5
2E6
330
1F
100
AcDbEntity
  8
0
  6
SLD-Сплошная
 62
     7
370
    25
100
AcDbLine
 10
291.0707705667
 20
47.6342891881
 30
0.0
 11
298.0182116834
 21
47.6342891881
 31
0.0
  0
LINE
  5
2E7
330
1F
100
AcDbEntity
  8
0
  6
SLD-Сплошная
 62
     7
370
    25
100
AcDbLine
 10
309.916672115
 20
7.7461087935
 30
0.0
 11
312.8503500936
 21
9.6672581868
 31
0.0
  0
SPLINE
  5
2E8
330
1F
100
AcDbEntity
  8
0
  6
SLD-Сплошная
 62
     7
370
    25
100
AcDbSpline
210
0.0
220
0.0
230
1.0
 70
     8
 71
     3
 72
    16
 73
    12
 74
     0
 42
0.00000001
 43
0.00000001
 40
0.0
 40
0.0
 40
0.0
 40
0.0
 40
0.5000000000000016
 40
0.5000000000000016
 40
0.7500000000000009
 40
0.7500000000000009
 40
0.875000000000002
 40
0.875000000000002
 40
0.937500000000001
 40
0.937500000000001
 40
1.0
 40
1.0
 40
1.0
 40
1.0
 10
309.9166721150388
 20
7.746108793515751
 30
0.0
 10
308.1597407332824
 20
6.595564090750166
 30
0.0
 10
306.236447406117
 20
5.702506904122873
 30
0.0
 10
303.2196637074089
 20
4.802807692501697
 30
0.0
 10
302.192429829511
 20
4.575957539775084
 30
0.0
 10
300.6353633561976
 20
4.348736390941036
 30
0.0
 10
300.1136388353877
 20
4.291810952746139
 30
0.0
 10
299.3289589521212
 20
4.234855306788607
 30
0.0
 10
299.0670492627987
 20
4.220607412082085
 30
0.0
 10
298.5428440822952
 20
4.20160622629066
 30
0.0
 10
298.2822473958492
 20
4.196855848609974
 30
0.0
 10
298.0182116833999
 20
4.196852867509565
 30
0.0
  0
ARC
  5
2E9
330
1F
100
AcDbEntity
  8
0
  6
SLD-Сплошная
 62
     7
370
    25
100
AcDbCircle
 10
309.6021509731
 20
25.6524486848
 30
0.0
 40
3.258838887367166
100
AcDbArc
 50
275.5384230882
 51
4.6311673259
  0
LINE
  5
2EA
330
1F
100
AcDbEntity
  8
0
  6
SLD-Сплошная
 62
     7
370
    25
100
AcDbLine
 10
317.4581190906
 20
15.6155710278
 30
0.0
 11
317.4581190906
 21
25.9155710278
 31
0.0
  0
LWPOLYLINE
  5
2EB
330
1F
100
AcDbEntity
  8
0
  6
SLD-Сплошная
 62
     7
370
    25
100
AcDbPolyline
 90
        3
 70
   128
 43
0.0
 10
298.0182116834
 20
4.1968528675
 10
294.127644658
 20
4.1968530147
 10
291.0707705667
 20
4.1968528675
  0
LWPOLYLINE
  5
2EC
330
1F
100
AcDbEntity
  8
0
  6
SLD-Сплошная
 62
     7
370
    25
100
AcDbPolyline
 90
       11
 70
   128
 43
0.0
 10
310.4425239371
 20
28.750219501
 10
311.1753306811
 20
28.6114819296
 10
311.8364051952
 20
28.2088498157
 10
312.3610369001
 20
27.5817355958
 10
312.697871189
 20
26.7915255791
 10
312.813936375
 20
25.9155710278
 10
312.697871189
 20
25.0396164765
 10
312.3610369001
 20
24.2494064598
 10
311.8364051952
 20
23.6222922399
 10
311.1753306811
 20
23.219660126
 10
310.4425239371
 20
23.0809225546
  0
SPLINE
  5
2ED
330
1F
100
AcDbEntity
  8
0
  6
SLD-Сплошная
 62
     7
370
    25
100
AcDbSpline
210
0.0
220
0.0
230
1.0
 70
     8
 71
     3
 72
     8
 73
     4
 74
     0
 42
0.00000001
 43
0.00000001
 40
0.0
 40
0.0
 40
0.0
 40
0.0
 40
1.0
 40
1.0
 40
1.0
 40
1.0
 10
165.680402913096
 20
-6.074295781190731
 30
0.0
 10
163.7664445367912
 20
-6.733556088342612
 30
0.0
 10
161.8530622763884
 20
-7.292549246132679
 30
0.0
 10
159.9391038999985
 20
-7.746385413203876
 30
0.0
  0
SPLINE
  5
2EE
330
1F
100
AcDbEntity
  8
0
  6
SLD-Сплошная
 62
     7
370
    25
100
AcDbSpline
210
0.0
220
0.0
230
1.0
 70
     8
 71
     3
 72
     8
 73
     4
 74
     0
 42
0.00000001
 43
0.00000001
 40
0.0
 40
0.0
 40
0.0
 40
0.0
 40
1.0
 40
1.0
 40
1.0
 40
1.0
 10
159.9391038999985
 20
-7.74638541320382
 30
0.0
 10
158.0251455223433
 20
-7.292549245832975
 30
0.0
 10
156.1117632646248
 20
-6.733556088832561
 30
0.0
 10
154.1978048868959
 20
-6.074295781190731
 30
0.0
  0
LINE
  5
2EF
330
1F
100
AcDbEntity
  8
0
  6
SLD-Сплошная
 62
     7
370
    25
100
AcDbLine
 10
158.7316088642
 20
-8.67314753
 30
0.0
 11
154.1978048869
 21
-8.67314753
 31
0.0
  0
LINE
  5
2F0
330
1F
100
AcDbEntity
  8
0
  6
SLD-Сплошная
 62
     7
370
    25
100
AcDbLine
 10
165.6804029131
 20
-8.67314753
 30
0.0
 11
161.2373803251
 21
-8.67314753
 31
0.0
  0
LINE
  5
2F1
330
1F
100
AcDbEntity
  8
0
  6
SLD-Сплошная
 62
     7
370
    25
100
AcDbLine
 10
283.0707705667
 20
52.8655710278
 30
0.0
 11
291.0707705667
 21
52.8655710278
 31
0.0
  0
LINE
  5
2F2
330
1F
100
AcDbEntity
  8
0
  6
SLD-Сплошная
 62
     7
370
    25
100
AcDbLine
 10
291.0707705667
 20
50.7005075184
 30
0.0
 11
291.0707705667
 21
52.8655710278
 31
0.0
  0
LINE
  5
2F3
330
1F
100
AcDbEntity
  8
0
  6
SLD-Сплошная
 62
     7
370
    25
100
AcDbLine
 10
291.0707705667
 20
-1.0344289722
 30
0.0
 11
283.0707705667
 21
-1.0344289722
 31
0.0
  0
LINE
  5
2F4
330
1F
100
AcDbEntity
  8
0
  6
SLD-Сплошная
 62
     7
370
    25
100
AcDbLine
 10
291.0707705667
 20
1.1306345373
 30
0.0
 11
291.0707705667
 21
-1.0344289722
 31
0.0
  0
LINE
  5
2F5
330
1F
100
AcDbEntity
  8
0
  6
SLD-Сплошная
 62
     7
370
    25
100
AcDbLine
 10
281.0707705667
 20
9.1155710278
 30
0.0
 11
271.5707705667
 21
9.1155710278
 31
0.0
  0
LINE
  5
2F6
330
1F
100
AcDbEntity
  8
0
  6
SLD-Сплошная
 62
     7
370
    25
100
AcDbLine
 10
281.0707705667
 20
42.7155710278
 30
0.0
 11
271.5707705667
 21
42.7155710278
 31
0.0
  0
SPLINE
  5
2F7
330
1F
100
AcDbEntity
  8
0
  6
SLD-Сплошная
 62
     7
370
    25
100
AcDbSpline
210
0.0
220
0.0
230
1.0
 70
     8
 71
     3
 72
     8
 73
     4
 74
     0
 42
0.00000001
 43
0.00000001
 40
0.0
 40
0.0
 40
0.0
 40
0.0
 40
1.0
 40
1.0
 40
1.0
 40
1.0
 10
159.9391038999985
 20
-7.954877912774029
 30
0.0
 10
158.0253849688505
 20
-7.503891801326268
 30
0.0
 10
156.1120418492039
 20
-6.948480258589844
 30
0.0
 10
154.1978048868959
 20
-6.293613663169176
 30
0.0
  0
LINE
  5
2F8
330
1F
100
AcDbEntity
  8
0
  6
SLD-Сплошная
 62
     7
370
    25
100
AcDbLine
 10
159.9391039
 20
-7.7463854132
 30
0.0
 11
159.9391039
 21
-7.9548779128
 31
0.0
  0
LINE
  5
2F9
330
1F
100
AcDbEntity
  8
0
  6
SLD-Сплошная
 62
     7
370
    25
100
AcDbLine
 10
154.1978048869
 20
-6.0742957812
 30
0.0
 11
154.1978048869
 21
-6.2936136632
 31
0.0
  0
LINE
  5
2FA
330
1F
100
AcDbEntity
  8
0
  6
SLD-Сплошная
 62
     7
370
    25
100
AcDbLine
 10
154.1978048869
 20
-8.8760867578
 30
0.0
 11
154.1978048869
 21
-9.3065761274
 31
0.0
  0
LINE
  5
2FB
330
1F
100
AcDbEntity
  8
0
  6
SLD-Сплошная
 62
     7
370
    25
100
AcDbLine
 10
159.7925049143
 20
-8.8760867578
 30
0.0
 11
154.1978048869
 21
-8.8760867578
 31
0.0
  0
LINE
  5
2FC
330
1F
100
AcDbEntity
  8
0
  6
SLD-Сплошная
 62
     7
370
    25
100
AcDbLine
 10
159.7925049143
 20
-8.8551320259
 30
0.0
 11
159.7925049143
 21
-8.8760867578
 31
0.0
  0
SPLINE
  5
2FD
330
1F
100
AcDbEntity
  8
0
  6
SLD-Сплошная
 62
     7
370
    25
100
AcDbSpline
210
0.0
220
0.0
230
1.0
 70
     8
 71
     3
 72
     8
 73
     4
 74
     0
 42
0.00000001
 43
0.00000001
 40
0.0
 40
0.0
 40
0.0
 40
0.0
 40
1.0
 40
1.0
 40
1.0
 40
1.0
 10
154.1978048868959
 20
-7.74466359699022
 30
0.0
 10
156.0630483135976
 20
-8.214684108714335
 30
0.0
 10
157.9275650000581
 20
-8.585888341393206
 30
0.0
 10
159.7925049143251
 20
-8.855132025866977
 30
0.0
  0
SPLINE
  5
2FE
330
1F
100
AcDbEntity
  8
0
  6
SLD-Сплошная
 62
     7
370
    25
100
AcDbSpline
210
0.0
220
0.0
230
1.0
 70
     8
 71
     3
 72
     8
 73
     4
 74
     0
 42
0.00000001
 43
0.00000001
 40
0.0
 40
0.0
 40
0.0
 40
0.0
 40
1.0
 40
1.0
 40
1.0
 40
1.0
 10
165.680402913096
 20
-6.293613663169176
 30
0.0
 10
163.7661658113181
 20
-6.948480306303518
 30
0.0
 10
161.8528229495004
 20
-7.503891773434662
 30
0.0
 10
159.9391038999985
 20
-7.954877912774029
 30
0.0
  0
LINE
  5
2FF
330
1F
100
AcDbEntity
  8
0
  6
SLD-Сплошная
 62
     7
370
    25
100
AcDbLine
 10
165.6804029131
 20
-6.2936136632
 30
0.0
 11
165.6804029131
 21
-7.744663597
 31
0.0
  0
SPLINE
  5
300
330
1F
100
AcDbEntity
  8
0
  6
SLD-Сплошная
 62
     7
370
    25
100
AcDbSpline
210
0.0
220
0.0
230
1.0
 70
     8
 71
     3
 72
     8
 73
     4
 74
     0
 42
0.00000001
 43
0.00000001
 40
0.0
 40
0.0
 40
0.0
 40
0.0
 40
1.0
 40
1.0
 40
1.0
 40
1.0
 10
160.0857028856659
 20
-8.855132025866672
 30
0.0
 10
161.9506427354417
 20
-8.585888350703632
 30
0.0
 10
163.8151595658295
 20
-8.214684088697217
 30
0.0
 10
165.680402913096
 20
-7.744663596990171
 30
0.0
  0
LINE
  5
301
330
1F
100
AcDbEntity
  8
0
  6
SLD-Сплошная
 62
     7
370
    25
100
AcDbLine
 10
160.0857028857
 20
-8.8551320259
 30
0.0
 11
160.0857028857
 21
-8.8760867578
 31
0.0
  0
LINE
  5
302
330
1F
100
AcDbEntity
  8
0
  6
SLD-Сплошная
 62
     7
370
    25
100
AcDbLine
 10
165.6804029131
 20
-8.8760867578
 30
0.0
 11
160.0857028857
 21
-8.8760867578
 31
0.0
  0
LINE
  5
303
330
1F
100
AcDbEntity
  8
0
  6
SLD-Сплошная
 62
     7
370
    25
100
AcDbLine
 10
165.6804029131
 20
-8.8760867578
 30
0.0
 11
165.6804029131
 21
-9.3065761274
 31
0.0
  0
LINE
  5
304
330
1F
100
AcDbEntity
  8
0
  6
SLD-Сплошная
 62
     7
370
    25
100
AcDbLine
 10
154.1978048869
 20
-9.3065761274
 30
0.0
 11
165.6804029131
 21
-9.3065761274
 31
0.0
  0
LINE
  5
305
330
1F
100
AcDbEntity
  8
0
  6
SLD-Сплошная
 62
     7
370
    25
100
AcDbLine
 10
154.1978048869
 20
-6.2936136632
 30
0.0
 11
154.1978048869
 21
-7.744663597
 31
0.0
  0
LINE
  5
306
330
1F
100
AcDbEntity
  8
0
  6
SLD-Сплошная
 62
     7
370
    25
100
AcDbLine
 10
165.6804029131
 20
-6.0742957812
 30
0.0
 11
165.6804029131
 21
-6.2936136632
 31
0.0
  0
LINE
  5
307
330
1F
100
AcDbEntity
  8
0
  6
SLD-Сплошная
 62
     7
370
    25
100
AcDbLine
 10
154.1978048869
 20
-8.67314753
 30
0.0
 11
154.1978048869
 21
-8.8760867578
 31
0.0
  0
LINE
  5
308
330
1F
100
AcDbEntity
  8
0
  6
SLD-Сплошная
 62
     7
370
    25
100
AcDbLine
 10
165.6804029131
 20
-8.67314753
 30
0.0
 11
165.6804029131
 21
-8.8760867578
 31
0.0
  0
SPLINE
  5
309
330
1F
100
AcDbEntity
  8
0
  6
SLD-Сплошная
 62
     7
370
    25
100
AcDbSpline
210
0.0
220
0.0
230
1.0
 70
     8
 71
     3
 72
    20
 73
    16
 74
     0
 42
0.00000001
 43
0.00000001
 40
0.0
 40
0.0
 40
0.0
 40
0.0
 40
0.2500000000000009
 40
0.2500000000000009
 40
0.5000000000000018
 40
0.5000000000000018
 40
0.6250000000000033
 40
0.6250000000000033
 40
0.6562500000000022
 40
0.6562500000000022
 40
0.6875000000000011
 40
0.6875000000000011
 40
0.7500000000000009
 40
0.7500000000000009
 40
1.0
 40
1.0
 40
1.0
 40
1.0
 10
310.4425239371087
 20
6.943110382348971
 30
0.0
 10
309.0256119229541
 20
6.015230882275652
 30
0.0
 10
307.5050787204786
 20
5.247731584141369
 30
0.0
 10
304.3322640991454
 20
4.067908757571983
 30
0.0
 10
302.6794791356782
 20
3.656788665961038
 30
0.0
 10
300.1635538300045
 20
3.322853164424353
 30
0.0
 10
299.3211643083902
 20
3.258511908057923
 30
0.0
 10
298.2590373818177
 20
3.237313649839629
 30
0.0
 10
298.0480936014428
 20
3.236994736891138
 30
0.0
 10
297.6356144381689
 20
3.236993212976002
 30
0.0
 10
297.4325091812347
 20
3.236994831755359
 30
0.0
 10
296.8182770978996
 20
3.23699595381316
 30
0.0
 10
296.4069179397239
 20
3.236995280619517
 30
0.0
 10
294.3545535654695
 20
3.236995280619527
 30
0.0
 10
292.7126620660678
 20
3.236995280619517
 30
0.0
 10
291.0707705666637
 20
3.236995280619523
 30
0.0
  0
SPLINE
  5
30A
330
1F
100
AcDbEntity
  8
0
  6
SLD-Сплошная
 62
     7
370
    25
100
AcDbSpline
210
0.0
220
0.0
230
1.0
 70
     8
 71
     3
 72
    20
 73
    16
 74
     0
 42
0.00000001
 43
0.00000001
 40
0.0
 40
0.0
 40
0.0
 40
0.0
 40
0.2500000000000011
 40
0.2500000000000011
 40
0.5000000000000022
 40
0.5000000000000022
 40
0.6250000000000028
 40
0.6250000000000028
 40
0.6562500000000034
 40
0.6562500000000034
 40
0.6875000000000042
 40
0.6875000000000042
 40
0.7500000000000033
 40
0.7500000000000033
 40
1.0
 40
1.0
 40
1.0
 40
1.0
 10
310.4425239371087
 20
44.88803167327532
 30
0.0
 10
309.025611922953
 20
45.81591117334926
 30
0.0
 10
307.5050787204781
 20
46.583410471481
 30
0.0
 10
304.3322640991457
 20
47.76323329805142
 30
0.0
 10
302.6794791356767
 20
48.1743533896639
 30
0.0
 10
300.1635538300064
 20
48.50828889119948
 30
0.0
 10
299.3211643083899
 20
48.572630147567
 30
0.0
 10
298.2590373818179
 20
48.59382840578416
 30
0.0
 10
298.0480936014427
 20
48.59414731873332
 30
0.0
 10
297.6356144381686
 20
48.59414884264893
 30
0.0
 10
297.4325091812347
 20
48.59414722386911
 30
0.0
 10
296.8182770978996
 20
48.59414610181098
 30
0.0
 10
296.4069179397239
 20
48.59414677500482
 30
0.0
 10
294.3545535654695
 20
48.59414677500482
 30
0.0
 10
292.7126620660678
 20
48.59414677500482
 30
0.0
 10
291.0707705666637
 20
48.59414677500482
 30
0.0
  0
LINE
  5
30B
330
1F
100
AcDbEntity
  8
0
  6
SLD-Сплошная
 62
     7
370
    25
100
AcDbLine
 10
312.813936375
 20
43.3350876898
 30
0.0
 11
310.4425239371
 21
44.8880316733
 31
0.0
  0
LINE
  5
30C
330
1F
100
AcDbEntity
  8
0
  6
SLD-Сплошная
 62
     7
370
    25
100
AcDbLine
 10
310.4425239371
 20
6.9431103823
 30
0.0
 11
312.813936375
 21
8.4960543658
 31
0.0
  0
LINE
  5
30D
330
1F
100
AcDbEntity
  8
0
  6
SLD-Сплошная
 62
     7
370
    25
100
AcDbLine
 10
161.504909275
 20
-9.3604569048
 30
0.0
 11
158.373298525
 21
-9.3604569048
 31
0.0
  0
LINE
  5
30E
330
1F
100
AcDbEntity
  8
0
  6
SLD-Сплошная
 62
     7
370
    25
100
AcDbLine
 10
161.504909275
 20
-9.3604569048
 30
0.0
 11
161.504909275
 21
-9.3844289722
 31
0.0
  0
LINE
  5
30F
330
1F
100
AcDbEntity
  8
0
  6
SLD-Сплошная
 62
     7
370
    25
100
AcDbLine
 10
162.5487921631
 20
-9.3604569048
 30
0.0
 11
162.5487921631
 21
-9.3844289722
 31
0.0
  0
LINE
  5
310
330
1F
100
AcDbEntity
  8
0
  6
SLD-Сплошная
 62
     7
370
    25
100
AcDbLine
 10
165.6804029131
 20
-9.3604569048
 30
0.0
 11
162.5487921631
 21
-9.3604569048
 31
0.0
  0
LINE
  5
311
330
1F
100
AcDbEntity
  8
0
  6
SLD-Сплошная
 62
     7
370
    25
100
AcDbLine
 10
165.6804029131
 20
-9.3604569048
 30
0.0
 11
165.6804029131
 21
-9.3844289722
 31
0.0
  0
LINE
  5
312
330
1F
100
AcDbEntity
  8
0
  6
SLD-Сплошная
 62
     7
370
    25
100
AcDbLine
 10
158.373298525
 20
-9.3604569048
 30
0.0
 11
158.373298525
 21
-9.3844289722
 31
0.0
  0
LINE
  5
313
330
1F
100
AcDbEntity
  8
0
  6
SLD-Сплошная
 62
     7
370
    25
100
AcDbLine
 10
165.6804029131
 20
-9.3065761274
 30
0.0
 11
165.6804029131
 21
-9.3604569048
 31
0.0
  0
LINE
  5
314
330
1F
100
AcDbEntity
  8
0
  6
SLD-Сплошная
 62
     7
370
    25
100
AcDbLine
 10
162.5487921631
 20
-9.3065761274
 30
0.0
 11
162.5487921631
 21
-9.3604569048
 31
0.0
  0
LINE
  5
315
330
1F
100
AcDbEntity
  8
0
  6
SLD-Сплошная
 62
     7
370
    25
100
AcDbLine
 10
154.1978048869
 20
-9.3604569048
 30
0.0
 11
154.1978048869
 21
-9.3844289722
 31
0.0
  0
LINE
  5
316
330
1F
100
AcDbEntity
  8
0
  6
SLD-Сплошная
 62
     7
370
    25
100
AcDbLine
 10
157.3294156369
 20
-9.3604569048
 30
0.0
 11
154.1978048869
 21
-9.3604569048
 31
0.0
  0
LINE
  5
317
330
1F
100
AcDbEntity
  8
0
  6
SLD-Сплошная
 62
     7
370
    25
100
AcDbLine
 10
157.3294156369
 20
-9.3604569048
 30
0.0
 11
157.3294156369
 21
-9.3844289722
 31
0.0
  0
LINE
  5
318
330
1F
100
AcDbEntity
  8
0
  6
SLD-Сплошная
 62
     7
370
    25
100
AcDbLine
 10
161.504909275
 20
-9.3065761274
 30
0.0
 11
161.504909275
 21
-9.3604569048
 31
0.0
  0
LINE
  5
319
330
1F
100
AcDbEntity
  8
0
  6
SLD-Сплошная
 62
     7
370
    25
100
AcDbLine
 10
158.373298525
 20
-9.3065761274
 30
0.0
 11
158.373298525
 21
-9.3604569048
 31
0.0
  0
LINE
  5
31A
330
1F
100
AcDbEntity
  8
0
  6
SLD-Сплошная
 62
     7
370
    25
100
AcDbLine
 10
154.1978048869
 20
-9.3065761274
 30
0.0
 11
154.1978048869
 21
-9.3604569048
 31
0.0
  0
LINE
  5
31B
330
1F
100
AcDbEntity
  8
0
  6
SLD-Сплошная
 62
     7
370
    25
100
AcDbLine
 10
157.3294156369
 20
-9.3065761274
 30
0.0
 11
157.3294156369
 21
-9.3604569048
 31
0.0
  0
LINE
  5
31C
330
1F
100
AcDbEntity
  8
0
  6
SLD-Сплошная
 62
     7
370
    25
100
AcDbLine
 10
150.7918612749
 20
18.9155710278
 30
0.0
 11
155.5365812217
 21
18.9155710278
 31
0.0
  0
LINE
  5
31D
330
1F
100
AcDbEntity
  8
0
  6
SLD-Сплошная
 62
     7
370
    25
100
AcDbLine
 10
150.7918612749
 20
20.9155710278
 30
0.0
 11
150.7918612749
 21
18.9155710278
 31
0.0
  0
LINE
  5
31E
330
1F
100
AcDbEntity
  8
0
  6
SLD-Сплошная
 62
     7
370
    25
100
AcDbLine
 10
150.9234740669
 20
20.9155710278
 30
0.0
 11
150.9234740693
 21
30.9155710278
 31
0.0
  0
LINE
  5
31F
330
1F
100
AcDbEntity
  8
0
  6
SLD-Сплошная
 62
     7
370
    25
100
AcDbLine
 10
150.7918612749
 20
30.9155710278
 30
0.0
 11
150.7918612749
 21
32.9155710278
 31
0.0
  0
LINE
  5
320
330
1F
100
AcDbEntity
  8
0
  6
SLD-Сплошная
 62
     7
370
    25
100
AcDbLine
 10
155.5365812217
 20
32.9155710278
 30
0.0
 11
155.5365812217
 21
18.9155710278
 31
0.0
  0
LINE
  5
321
330
1F
100
AcDbEntity
  8
0
  6
SLD-Сплошная
 62
     7
370
    25
100
AcDbLine
 10
150.7918612749
 20
32.9155710278
 30
0.0
 11
155.5365812217
 21
32.9155710278
 31
0.0
  0
LINE
  5
322
330
1F
100
AcDbEntity
  8
0
  6
SLD-Сплошная
 62
     7
370
    25
100
AcDbLine
 10
157.444792173
 20
18.9155710278
 30
0.0
 11
155.5365812217
 21
18.9155710278
 31
0.0
  0
LINE
  5
323
330
1F
100
AcDbEntity
  8
0
  6
SLD-Сплошная
 62
     7
370
    25
100
AcDbLine
 10
157.444792173
 20
32.9155710278
 30
0.0
 11
157.444792173
 21
18.9155710278
 31
0.0
  0
LINE
  5
324
330
1F
100
AcDbEntity
  8
0
  6
SLD-Сплошная
 62
     7
370
    25
100
AcDbLine
 10
157.444792173
 20
32.9155710278
 30
0.0
 11
155.5365812217
 21
32.9155710278
 31
0.0
  0
LINE
  5
325
330
1F
100
AcDbEntity
  8
0
  6
SLD-Сплошная
 62
     7
370
    25
100
AcDbLine
 10
148.962890904
 20
20.9155710278
 30
0.0
 11
148.962890904
 21
30.9155710278
 31
0.0
  0
LINE
  5
326
330
1F
100
AcDbEntity
  8
0
  6
SLD-Сплошная
 62
     7
370
    25
100
AcDbLine
 10
150.4145310103
 20
30.9155710278
 30
0.0
 11
150.9234740693
 21
30.9155710278
 31
0.0
  0
LINE
  5
327
330
1F
100
AcDbEntity
  8
0
  6
SLD-Сплошная
 62
     7
370
    25
100
AcDbLine
 10
150.4145310103
 20
20.9155710278
 30
0.0
 11
150.9234740669
 21
20.9155710278
 31
0.0
  0
SPLINE
  5
328
330
1F
100
AcDbEntity
  8
0
  6
SLD-Сплошная
 62
     7
370
    25
100
AcDbSpline
210
0.0
220
0.0
230
1.0
 70
     8
 71
     3
 72
    26
 73
    22
 74
     0
 42
0.00000001
 43
0.00000001
 40
0.0
 40
0.0
 40
0.0
 40
0.0
 40
0.125000000000001
 40
0.125000000000001
 40
0.2500000000000019
 40
0.2500000000000019
 40
0.3750000000000029
 40
0.3750000000000029
 40
0.4375000000000033
 40
0.4375000000000033
 40
0.5000000000000037
 40
0.5000000000000037
 40
0.5625000000000037
 40
0.5625000000000037
 40
0.6250000000000038
 40
0.6250000000000038
 40
0.7500000000000024
 40
0.7500000000000024
 40
0.8750000000000012
 40
0.8750000000000012
 40
1.0
 40
1.0
 40
1.0
 40
1.0
 10
126.2297125681738
 20
30.91557102781213
 30
0.0
 10
126.1094794248362
 20
30.91557102781214
 30
0.0
 10
125.9734716930926
 20
30.94090436114547
 30
0.0
 10
125.6779867200261
 20
31.0902376944788
 30
0.0
 10
125.5179323596149
 20
31.21557102781214
 30
0.0
 10
125.2101355126706
 20
31.61557102781214
 30
0.0
 10
125.0631598556522
 20
31.89307967833117
 30
0.0
 10
124.9034037067191
 20
32.41211082019967
 30
0.0
 10
124.860449154012
 20
32.60136984438018
 30
0.0
 10
124.8021680942355
 20
32.99900298047486
 30
0.0
 10
124.7869148481221
 20
33.20723769447879
 30
0.0
 10
124.7869148481221
 20
33.62390436114546
 30
0.0
 10
124.8021680942355
 20
33.83213907514941
 30
0.0
 10
124.860449154012
 20
34.22977221124408
 30
0.0
 10
124.9034037067191
 20
34.41903123542458
 30
0.0
 10
125.0631598556522
 20
34.93806237729309
 30
0.0
 10
125.2101355126706
 20
35.21557102781212
 30
0.0
 10
125.517932359615
 20
35.61557102781212
 30
0.0
 10
125.6779867200261
 20
35.74090436114546
 30
0.0
 10
125.9734716930926
 20
35.89023769447878
 30
0.0
 10
126.1094794248362
 20
35.91557102781212
 30
0.0
 10
126.2297125681738
 20
35.91557102781212
 30
0.0
  0
LINE
  5
329
330
1F
100
AcDbEntity
  8
0
  6
SLD-Сплошная
 62
     7
370
    25
100
AcDbLine
 10
126.2297125682
 20
35.9155710278
 30
0.0
 11
149.1902520094
 21
35.9155710278
 31
0.0
  0
SPLINE
  5
32A
330
1F
100
AcDbEntity
  8
0
  6
SLD-Сплошная
 62
     7
370
    25
100
AcDbSpline
210
0.0
220
0.0
230
1.0
 70
     8
 71
     3
 72
    30
 73
    26
 74
     0
 42
0.00000001
 43
0.00000001
 40
0.0
 40
0.0
 40
0.0
 40
0.0
 40
0.1249999999999993
 40
0.1249999999999993
 40
0.2499999999999986
 40
0.2499999999999986
 40
0.3749999999999979
 40
0.3749999999999979
 40
0.4374999999999977
 40
0.4374999999999977
 40
0.4999999999999976
 40
0.4999999999999976
 40
0.5312499999999973
 40
0.5312499999999973
 40
0.5624999999999972
 40
0.5624999999999972
 40
0.6249999999999977
 40
0.6249999999999977
 40
0.6874999999999981
 40
0.6874999999999981
 40
0.7499999999999984
 40
0.7499999999999984
 40
0.8749999999999992
 40
0.8749999999999992
 40
1.0
 40
1.0
 40
1.0
 40
1.0
 10
149.1902520093757
 20
35.91557102781212
 30
0.0
 10
148.739952414093
 20
35.91557102781212
 30
0.0
 10
148.2904995544835
 20
35.87409153322047
 30
0.0
 10
147.4103766018769
 20
35.70215032532864
 30
0.0
 10
146.9852351182533
 20
35.57404720112104
 30
0.0
 10
146.1754404460128
 20
35.20350618415958
 30
0.0
 10
145.7838299742309
 20
34.95759242415289
 30
0.0
 10
145.317652652074
 20
34.46312469315325
 30
0.0
 10
145.1866329493989
 20
34.28172361744668
 30
0.0
 10
144.9952167249513
 20
33.87088310812934
 30
0.0
 10
144.9402636565478
 20
33.64536500424735
 30
0.0
 10
144.9395561314149
 20
33.30526249724024
 30
0.0
 10
144.952370084397
 20
33.19337956279007
 30
0.0
 10
145.0028039929901
 20
32.97243566892749
 30
0.0
 10
145.04093623975
 20
32.86318945463268
 30
0.0
 10
145.1822918841259
 20
32.55671079230242
 30
0.0
 10
145.3141216258581
 20
32.37254795278817
 30
0.0
 10
145.6237613053524
 20
32.04256744318762
 30
0.0
 10
145.7971269583196
 20
31.90068784768247
 30
0.0
 10
146.1695122341684
 20
31.64889706653501
 30
0.0
 10
146.3690438314336
 20
31.53951614747186
 30
0.0
 10
146.9789177094005
 20
31.25907630520738
 30
0.0
 10
147.4095337662962
 20
31.12910167919913
 30
0.0
 10
148.2928740337513
 20
30.95664144585898
 30
0.0
 10
148.7393690366222
 20
30.91557102781218
 30
0.0
 10
149.1902520093756
 20
30.91557102781213
 30
0.0
  0
LINE
  5
32B
330
1F
100
AcDbEntity
  8
0
  6
SLD-Сплошная
 62
     7
370
    25
100
AcDbLine
 10
126.2297125682
 20
30.9155710278
 30
0.0
 11
149.1902520094
 21
30.9155710278
 31
0.0
  0
LINE
  5
32C
330
1F
100
AcDbEntity
  8
0
  6
SLD-Сплошная
 62
     7
370
    25
100
AcDbLine
 10
126.2297125682
 20
15.9155710278
 30
0.0
 11
149.1902520094
 21
15.9155710278
 31
0.0
  0
SPLINE
  5
32D
330
1F
100
AcDbEntity
  8
0
  6
SLD-Сплошная
 62
     7
370
    25
100
AcDbSpline
210
0.0
220
0.0
230
1.0
 70
     8
 71
     3
 72
    26
 73
    22
 74
     0
 42
0.00000001
 43
0.00000001
 40
0.0
 40
0.0
 40
0.0
 40
0.0
 40
0.1250000000000006
 40
0.1250000000000006
 40
0.2500000000000012
 40
0.2500000000000012
 40
0.3750000000000018
 40
0.3750000000000018
 40
0.437500000000002
 40
0.437500000000002
 40
0.5000000000000022
 40
0.5000000000000022
 40
0.5625000000000024
 40
0.5625000000000024
 40
0.6250000000000026
 40
0.6250000000000026
 40
0.7500000000000018
 40
0.7500000000000018
 40
0.8750000000000009
 40
0.8750000000000009
 40
1.0
 40
1.0
 40
1.0
 40
1.0
 10
126.2297125681738
 20
15.91557102781211
 30
0.0
 10
126.1094794248362
 20
15.91557102781212
 30
0.0
 10
125.9734716930926
 20
15.94090436114545
 30
0.0
 10
125.6779867200261
 20
16.09023769447879
 30
0.0
 10
125.517932359615
 20
16.21557102781212
 30
0.0
 10
125.2101355126706
 20
16.61557102781213
 30
0.0
 10
125.0631598556522
 20
16.89307967833116
 30
0.0
 10
124.9034037067191
 20
17.41211082019968
 30
0.0
 10
124.860449154012
 20
17.60136984438019
 30
0.0
 10
124.8021680942355
 20
17.99900298047486
 30
0.0
 10
124.7869148481221
 20
18.20723769447881
 30
0.0
 10
124.7869148481221
 20
18.62390436114547
 30
0.0
 10
124.8021680942355
 20
18.83213907514942
 30
0.0
 10
124.860449154012
 20
19.22977221124409
 30
0.0
 10
124.9034037067191
 20
19.4190312354246
 30
0.0
 10
125.0631598556522
 20
19.93806237729311
 30
0.0
 10
125.2101355126706
 20
20.21557102781214
 30
0.0
 10
125.517932359615
 20
20.61557102781213
 30
0.0
 10
125.6779867200261
 20
20.74090436114546
 30
0.0
 10
125.9734716930926
 20
20.89023769447879
 30
0.0
 10
126.1094794248362
 20
20.91557102781212
 30
0.0
 10
126.2297125681738
 20
20.91557102781212
 30
0.0
  0
LINE
  5
32E
330
1F
100
AcDbEntity
  8
0
  6
SLD-Сплошная
 62
     7
370
    25
100
AcDbLine
 10
126.2297125682
 20
20.9155710278
 30
0.0
 11
149.1902520094
 21
20.9155710278
 31
0.0
  0
SPLINE
  5
32F
330
1F
100
AcDbEntity
  8
0
  6
SLD-Сплошная
 62
     7
370
    25
100
AcDbSpline
210
0.0
220
0.0
230
1.0
 70
     8
 71
     3
 72
    34
 73
    30
 74
     0
 42
0.00000001
 43
0.00000001
 40
0.0
 40
0.0
 40
0.0
 40
0.0
 40
0.125
 40
0.125
 40
0.2499999999999999
 40
0.2499999999999999
 40
0.3124999999999999
 40
0.3124999999999999
 40
0.3749999999999998
 40
0.3749999999999998
 40
0.4374999999999997
 40
0.4374999999999997
 40
0.4999999999999997
 40
0.4999999999999997
 40
0.5312499999999999
 40
0.5312499999999999
 40
0.5625000000000001
 40
0.5625000000000001
 40
0.6250000000000001
 40
0.6250000000000001
 40
0.6875000000000001
 40
0.6875000000000001
 40
0.75
 40
0.75
 40
0.8125
 40
0.8125
 40
0.875
 40
0.875
 40
1.0
 40
1.0
 40
1.0
 40
1.0
 10
149.1902520093757
 20
20.91557102781212
 30
0.0
 10
148.7399017623146
 20
20.91557102781212
 30
0.0
 10
148.2903970501606
 20
20.8740820873311
 30
0.0
 10
147.4101821063905
 20
20.70210174563414
 30
0.0
 10
146.9849979068135
 20
20.57396979319183
 30
0.0
 10
146.3775978220197
 20
20.29599256802329
 30
0.0
 10
146.1785384411403
 20
20.18762019177859
 30
0.0
 10
145.8037217664385
 20
19.9356114937429
 30
0.0
 10
145.629167967605
 20
19.79351267053124
 30
0.0
 10
145.3172596792961
 20
19.46273977570892
 30
0.0
 10
145.1856178882394
 20
19.28045176215587
 30
0.0
 10
144.9937092335948
 20
18.86672878463057
 30
0.0
 10
144.9400004791522
 20
18.6445737689394
 30
0.0
 10
144.9396838953558
 20
18.30311461752203
 30
0.0
 10
144.9528758049021
 20
18.19050521452163
 30
0.0
 10
145.0032060275224
 20
17.97134529667124
 30
0.0
 10
145.0409854965122
 20
17.86298184058228
 30
0.0
 10
145.1830254566775
 20
17.55532283119016
 30
0.0
 10
145.3163888832087
 20
17.36978645369187
 30
0.0
 10
145.6251718108057
 20
17.04141372084308
 30
0.0
 10
145.7986285470541
 20
16.89946706564072
 30
0.0
 10
146.1725350061851
 20
16.647061174539
 30
0.0
 10
146.3708875649355
 20
16.53858057741546
 30
0.0
 10
146.7768514078799
 20
16.35208138933659
 30
0.0
 10
146.9858765287312
 20
16.27331524949786
 30
0.0
 10
147.4139789817057
 20
16.13987463591309
 30
0.0
 10
147.6336692803928
 20
16.08525227668684
 30
0.0
 10
148.2938969089199
 20
15.95662326403965
 30
0.0
 10
148.7395488241486
 20
15.91557102781218
 30
0.0
 10
149.1902520093753
 20
15.91557102781211
 30
0.0
  0
LINE
  5
330
330
1F
100
AcDbEntity
  8
0
  6
SLD-Сплошная
 62
     7
370
    25
100
AcDbLine
 10
154.5270101231
 20
32.9155710278
 30
0.0
 11
154.5270101231
 21
35.9155710278
 31
0.0
  0
LINE
  5
331
330
1F
100
AcDbEntity
  8
0
  6
SLD-Сплошная
 62
     7
370
    25
100
AcDbLine
 10
149.1902520094
 20
35.9155710278
 30
0.0
 11
154.5270101231
 21
35.9155710278
 31
0.0
  0
LINE
  5
332
330
1F
100
AcDbEntity
  8
0
  6
SLD-Сплошная
 62
     7
370
    25
100
AcDbLine
 10
150.4145310103
 20
30.9155710278
 30
0.0
 11
149.1902520094
 21
30.9155710278
 31
0.0
  0
LINE
  5
333
330
1F
100
AcDbEntity
  8
0
  6
SLD-Сплошная
 62
     7
370
    25
100
AcDbLine
 10
154.5270101231
 20
15.9155710278
 30
0.0
 11
154.5270101231
 21
18.9155710278
 31
0.0
  0
LINE
  5
334
330
1F
100
AcDbEntity
  8
0
  6
SLD-Сплошная
 62
     7
370
    25
100
AcDbLine
 10
154.5270101231
 20
15.9155710278
 30
0.0
 11
158.6707705667
 21
15.9155710278
 31
0.0
  0
LINE
  5
335
330
1F
100
AcDbEntity
  8
0
  6
SLD-Сплошная
 62
     7
370
    25
100
AcDbLine
 10
158.6707705667
 20
35.9155710278
 30
0.0
 11
154.5270101231
 21
35.9155710278
 31
0.0
  0
LINE
  5
336
330
1F
100
AcDbEntity
  8
0
  6
SLD-Сплошная
 62
     7
370
    25
100
AcDbLine
 10
149.1902520094
 20
15.9155710278
 30
0.0
 11
154.5270101231
 21
15.9155710278
 31
0.0
  0
LINE
  5
337
330
1F
100
AcDbEntity
  8
0
  6
SLD-Сплошная
 62
     7
370
    25
100
AcDbLine
 10
150.4145310103
 20
20.9155710278
 30
0.0
 11
149.1902520094
 21
20.9155710278
 31
0.0
  0
ARC
  5
338
330
1F
100
AcDbEntity
  8
0
  6
SLD-Сплошная
 62
     7
370
    25
100
AcDbCircle
 10
245.8560002166
 20
25.9155710278
 30
0.0
 40
116.8303226804079
100
AcDbArc
 50
177.5471571485
 51
182.4528428515
  0
ARC
  5
339
330
1F
100
AcDbEntity
  8
0
  6
SLD-Сплошная
 62
     7
370
    25
100
AcDbCircle
 10
126.0020217875
 20
33.4155710278
 30
0.0
 40
2.5
100
AcDbArc
 50
90.0
 51
270.0
  0
SPLINE
  5
33A
330
1F
100
AcDbEntity
  8
0
  6
SLD-Сплошная
 62
     7
370
    25
100
AcDbSpline
210
0.0
220
0.0
230
1.0
 70
    24
 71
     3
 72
    19
 73
    15
 74
     0
 42
0.00000001
 43
0.00000001
 40
0.0
 40
0.0
 40
0.0
 40
0.0
 40
0.044835325683877
 40
0.08978343164152
 40
0.2117990047389592
 40
0.3465643432605637
 40
0.3910347769834333
 40
0.4249939925383859
 40
0.4598518215713041
 40
0.5051560031418516
 40
0.6322388300185177
 40
0.6831585099568144
 40
0.7683812740963604
 40
0.9999999999999999
 40
0.9999999999999999
 40
0.9999999999999999
 40
0.9999999999999999
 10
126.0020217874623
 20
35.91557102781212
 30
0.0
 10
126.0020796832194
 20
35.91557102781212
 30
0.0
 10
126.0021956203666
 20
35.91557102781212
 30
0.0
 10
126.0055587644123
 20
35.91557102781212
 30
0.0
 10
126.0164608943032
 20
35.91557102781212
 30
0.0
 10
126.0286400542997
 20
35.91557102781212
 30
0.0
 10
126.0393410327874
 20
35.91557102781212
 30
0.0
 10
126.0468336877639
 20
35.91557102781212
 30
0.0
 10
126.0559206485148
 20
35.91557102781212
 30
0.0
 10
126.0724851523207
 20
35.91557102781212
 30
0.0
 10
126.0930566319846
 20
35.91557102781212
 30
0.0
 10
126.1205888995043
 20
35.91557102781212
 30
0.0
 10
126.1620167011134
 20
35.91557102781212
 30
0.0
 10
126.2011241126731
 20
35.91557102781212
 30
0.0
 10
126.2297125681738
 20
35.91557102781212
 30
0.0
  0
SPLINE
  5
33B
330
1F
100
AcDbEntity
  8
0
  6
SLD-Сплошная
 62
     7
370
    25
100
AcDbSpline
210
0.0
220
0.0
230
1.0
 70
    24
 71
     3
 72
    20
 73
    16
 74
     0
 42
0.00000001
 43
0.00000001
 40
0.0
 40
0.0
 40
0.0
 40
0.0
 40
0.125
 40
0.125
 40
0.25
 40
0.25
 40
0.375
 40
0.375
 40
0.5
 40
0.5
 40
0.625
 40
0.625
 40
0.75
 40
0.75
 40
1.0
 40
1.0
 40
1.0
 40
1.0
 10
126.0020217874624
 20
30.91557102781213
 30
0.0
 10
126.0020217874624
 20
30.91557102781213
 30
0.0
 10
126.0025031470764
 20
30.91557102781211
 30
0.0
 10
126.0066570280978
 20
30.91557102781207
 30
0.0
 10
126.0107669668517
 20
30.91557102781207
 30
0.0
 10
126.0217316638487
 20
30.91557102781211
 30
0.0
 10
126.0281714806948
 20
30.91557102781214
 30
0.0
 10
126.0383885247162
 20
30.91557102781217
 30
0.0
 10
126.0422398742493
 20
30.91557102781218
 30
0.0
 10
126.05176066574
 20
30.91557102781217
 30
0.0
 10
126.0575253851508
 20
30.91557102781215
 30
0.0
 10
126.0746626283182
 20
30.91557102781211
 30
0.0
 10
126.0859228140278
 20
30.91557102781208
 30
0.0
 10
126.1317683959841
 20
30.91557102781206
 30
0.0
 10
126.1826514030354
 20
30.91557102781213
 30
0.0
 10
126.2297125681738
 20
30.91557102781213
 30
0.0
  0
ARC
  5
33C
330
1F
100
AcDbEntity
  8
0
  6
SLD-Сплошная
 62
     7
370
    25
100
AcDbCircle
 10
126.0020217875
 20
18.4155710278
 30
0.0
 40
2.500000000000007
100
AcDbArc
 50
90.0
 51
270.0
  0
SPLINE
  5
33D
330
1F
100
AcDbEntity
  8
0
  6
SLD-Сплошная
 62
     7
370
    25
100
AcDbSpline
210
0.0
220
0.0
230
1.0
 70
    24
 71
     3
 72
    20
 73
    16
 74
     0
 42
0.00000001
 43
0.00000001
 40
0.0
 40
0.0
 40
0.0
 40
0.0
 40
0.1250000000000035
 40
0.1250000000000035
 40
0.250000000000007
 40
0.250000000000007
 40
0.3750000000000105
 40
0.3750000000000105
 40
0.5000000000000141
 40
0.5000000000000141
 40
0.6250000000000177
 40
0.6250000000000177
 40
0.7500000000000211
 40
0.7500000000000211
 40
1.0
 40
1.0
 40
1.0
 40
1.0
 10
126.0020217874623
 20
15.91557102781211
 30
0.0
 10
126.0020217874623
 20
15.91557102781211
 30
0.0
 10
126.0025031470764
 20
15.91557102781214
 30
0.0
 10
126.0066570280979
 20
15.91557102781217
 30
0.0
 10
126.0107669668518
 20
15.91557102781216
 30
0.0
 10
126.0217316638488
 20
15.9155710278121
 30
0.0
 10
126.0281714806948
 20
15.91557102781206
 30
0.0
 10
126.0383885247161
 20
15.91557102781203
 30
0.0
 10
126.0422398742492
 20
15.91557102781203
 30
0.0
 10
126.05176066574
 20
15.91557102781206
 30
0.0
 10
126.0575253851508
 20
15.91557102781208
 30
0.0
 10
126.0746626283183
 20
15.91557102781213
 30
0.0
 10
126.0859228140279
 20
15.91557102781216
 30
0.0
 10
126.1317683959841
 20
15.91557102781218
 30
0.0
 10
126.1826514030354
 20
15.91557102781212
 30
0.0
 10
126.2297125681738
 20
15.91557102781211
 30
0.0
  0
SPLINE
  5
33E
330
1F
100
AcDbEntity
  8
0
  6
SLD-Сплошная
 62
     7
370
    25
100
AcDbSpline
210
0.0
220
0.0
230
1.0
 70
    24
 71
     3
 72
    19
 73
    15
 74
     0
 42
0.00000001
 43
0.00000001
 40
0.0
 40
0.0
 40
0.0
 40
0.0
 40
0.0448353256987435
 40
0.0897834317529781
 40
0.2117990050631943
 40
0.3465643435091973
 40
0.391034777242274
 40
0.4249939925470252
 40
0.4598518221051659
 40
0.5051560035285623
 40
0.6322388306151266
 40
0.6831585107275356
 40
0.768381274104393
 40
0.9999999999999999
 40
0.9999999999999999
 40
0.9999999999999999
 40
0.9999999999999999
 10
126.0020217914795
 20
20.91557102781211
 30
0.0
 10
126.0020796870355
 20
20.91557102781211
 30
0.0
 10
126.0021956237801
 20
20.9155710278121
 30
0.0
 10
126.0055587685968
 20
20.91557102781211
 30
0.0
 10
126.0164608984942
 20
20.9155710278121
 30
0.0
 10
126.0286400579595
 20
20.91557102781211
 30
0.0
 10
126.0393410366757
 20
20.9155710278121
 30
0.0
 10
126.0468336910868
 20
20.91557102781211
 30
0.0
 10
126.0559206525783
 20
20.9155710278121
 30
0.0
 10
126.0724851557951
 20
20.91557102781211
 30
0.0
 10
126.0930566357964
 20
20.9155710278121
 30
0.0
 10
126.1205889033658
 20
20.91557102781211
 30
0.0
 10
126.1620167043299
 20
20.91557102781211
 30
0.0
 10
126.2011241158898
 20
20.91557102781211
 30
0.0
 10
126.2297125714591
 20
20.91557102781211
 30
0.0
  0
LINE
  5
33F
330
1F
100
AcDbEntity
  8
0
  6
SLD-Сплошная
 62
     7
370
    25
100
AcDbLine
 10
128.183562623
 20
35.9155710278
 30
0.0
 11
128.183562623
 21
61.2155710278
 31
0.0
  0
LINE
  5
340
330
1F
100
AcDbEntity
  8
0
  6
SLD-Сплошная
 62
     7
370
    25
100
AcDbLine
 10
128.183562623
 20
-9.3844289722
 30
0.0
 11
128.183562623
 21
15.9155710278
 31
0.0
  0
ENDSEC
  0
SECTION
  2
OBJECTS
  0
DICTIONARY
  5
C
330
0
100
AcDbDictionary
281
     1
  3
ACAD_GROUP
350
D
  3
ACAD_LAYOUT
350
1A
  3
ACAD_MLINESTYLE
350
17
  3
ACAD_PLOTSETTINGS
350
19
  3
ACAD_PLOTSTYLENAME
350
E
  3
ACAD_SCALELIST
350
47
  3
DWGPROPS
350
341
  0
DICTIONARY
  5
D
102
{ACAD_REACTORS
330
C
102
}
330
C
100
AcDbDictionary
281
     1
  0
DICTIONARY
  5
1A
102
{ACAD_REACTORS
330
C
102
}
330
C
100
AcDbDictionary
281
     1
  3
Layout1
350
1E
  3
Layout2
350
26
  3
Model
350
22
  0
DICTIONARY
  5
17
102
{ACAD_REACTORS
330
C
102
}
330
C
100
AcDbDictionary
281
     1
  3
Standard
350
18
  0
DICTIONARY
  5
19
102
{ACAD_REACTORS
330
C
102
}
330
C
100
AcDbDictionary
281
     1
  0
ACDBDICTIONARYWDFLT
  5
E
102
{ACAD_REACTORS
330
C
102
}
330
C
100
AcDbDictionary
281
     1
  3
Normal
350
F
100
AcDbDictionaryWithDefault
340
F
  0
DICTIONARY
  5
47
102
{ACAD_REACTORS
330
C
102
}
330
C
100
AcDbDictionary
281
     1
  3
A0
350
48
  3
A1
350
49
  3
A2
350
4A
  3
A3
350
4B
  3
A4
350
4C
  3
A5
350
4D
  3
A6
350
4E
  3
A7
350
4F
  3
A8
350
50
  3
A9
350
51
  3
B0
350
52
  3
B1
350
53
  3
B2
350
54
  3
B3
350
55
  3
B4
350
56
  3
B5
350
57
  3
B6
350
58
  0
XRECORD
  5
341
102
{ACAD_REACTORS
330
C
102
}
330
C
100
AcDbXrecord
280
     1
  1
DWGPROPS COOKIE
  2

  3

  4

  6

  7

  8
inyankin
  9

300
=
301
=
302
=
303
=
304
=
305
=
306
=
307
=
308
=
309
=
 40
0.0
 41
2460921.524797685
 42
2460921.524798414
  1

 90
        0
  0
LAYOUT
  5
1E
102
{ACAD_REACTORS
330
1A
102
}
330
1A
100
AcDbPlotSettings
  1

  2
none_device
  4

  6

 40
0.0
 41
0.0
 42
0.0
 43
0.0
 44
0.0
 45
0.0
 46
0.0
 47
0.0
 48
0.0
 49
0.0
140
0.0
141
0.0
142
1.0
143
1.0
 70
   688
 72
     1
 73
     0
 74
     5
  7

 75
    16
147
1.0
148
0.0
149
0.0
100
AcDbLayout
  1
Layout1
 70
     1
 71
     1
 10
0.0
 20
0.0
 11
420.0
 21
297.0
 12
0.0
 22
0.0
 32
0.0
 14
1.0000000000E+20
 24
1.0000000000E+20
 34
1.0000000000E+20
 15
-1.0000000000E+20
 25
-1.0000000000E+20
 35
-1.0000000000E+20
146
0.0
 13
0.0
 23
0.0
 33
0.0
 16
1.0
 26
0.0
 36
0.0
 17
0.0
 27
1.0
 37
0.0
 76
     0
330
1B
  0
LAYOUT
  5
26
102
{ACAD_REACTORS
330
1A
102
}
330
1A
100
AcDbPlotSettings
  1

  2
none_device
  4

  6

 40
0.0
 41
0.0
 42
0.0
 43
0.0
 44
0.0
 45
0.0
 46
0.0
 47
0.0
 48
0.0
 49
0.0
140
0.0
141
0.0
142
1.0
143
1.0
 70
   688
 72
     1
 73
     0
 74
     5
  7

 75
    16
147
1.0
148
0.0
149
0.0
100
AcDbLayout
  1
Layout2
 70
     1
 71
     2
 10
0.0
 20
0.0
 11
0.0
 21
0.0
 12
0.0
 22
0.0
 32
0.0
 14
0.0
 24
0.0
 34
0.0
 15
0.0
 25
0.0
 35
0.0
146
0.0
 13
0.0
 23
0.0
 33
0.0
 16
1.0
 26
0.0
 36
0.0
 17
0.0
 27
1.0
 37
0.0
 76
     0
330
23
  0
LAYOUT
  5
22
102
{ACAD_REACTORS
330
1A
102
}
330
1A
100
AcDbPlotSettings
  1

  2
none_device
  4
Letter_(8.50_x_11.00_Inches)
  6

 40
6.35
 41
6.35
 42
6.35000508
 43
6.35000508
 44
215.9
 45
279.4
 46
0.0
 47
0.0
 48
0.0
 49
0.0
140
0.0
141
0.0
142
1.0
143
1.0
 70
  1712
 72
     1
 73
     0
 74
     0
  7

 75
     0
147
1.0
148
0.0
149
0.0
100
AcDbLayout
  1
Model
 70
     1
 71
     0
 10
0.0
 20
0.0
 11
431.8
 21
279.4
 12
0.0
 22
0.0
 32
0.0
 14
0.0
 24
0.0
 34
0.0
 15
431.8
 25
279.4
 35
0.0
146
0.0
 13
0.0
 23
0.0
 33
0.0
 16
1.0
 26
0.0
 36
0.0
 17
0.0
 27
1.0
 37
0.0
 76
     0
330
1F
331
29
  0
MLINESTYLE
  5
18
102
{ACAD_REACTORS
330
17
102
}
330
17
100
AcDbMlineStyle
  2
Standard
 70
     0
  3

 62
   256
 51
90.0
 52
90.0
 71
     2
 49
0.5
 62
   256
  6
BYLAYER
 49
-0.5
 62
   256
  6
BYLAYER
  0
ACDBPLACEHOLDER
  5
F
102
{ACAD_REACTORS
330
E
102
}
330
E
  0
SCALE
  5
48
102
{ACAD_REACTORS
330
47
102
}
330
47
100
AcDbScale
 70
     0
300
1:1
140
1.0
141
1.0
290
     1
  0
SCALE
  5
49
102
{ACAD_REACTORS
330
47
102
}
330
47
100
AcDbScale
 70
     0
300
1:2
140
1.0
141
2.0
290
     0
  0
SCALE
  5
4A
102
{ACAD_REACTORS
330
47
102
}
330
47
100
AcDbScale
 70
     0
300
1:4
140
1.0
141
4.0
290
     0
  0
SCALE
  5
4B
102
{ACAD_REACTORS
330
47
102
}
330
47
100
AcDbScale
 70
     0
300
1:5
140
1.0
141
5.0
290
     0
  0
SCALE
  5
4C
102
{ACAD_REACTORS
330
47
102
}
330
47
100
AcDbScale
 70
     0
300
1:8
140
1.0
141
8.0
290
     0
  0
SCALE
  5
4D
102
{ACAD_REACTORS
330
47
102
}
330
47
100
AcDbScale
 70
     0
300
1:10
140
1.0
141
10.0
290
     0
  0
SCALE
  5
4E
102
{ACAD_REACTORS
330
47
102
}
330
47
100
AcDbScale
 70
     0
300
1:16
140
1.0
141
16.0
290
     0
  0
SCALE
  5
4F
102
{ACAD_REACTORS
330
47
102
}
330
47
100
AcDbScale
 70
     0
300
1:20
140
1.0
141
20.0
290
     0
  0
SCALE
  5
50
102
{ACAD_REACTORS
330
47
102
}
330
47
100
AcDbScale
 70
     0
300
1:30
140
1.0
141
30.0
290
     0
  0
SCALE
  5
51
102
{ACAD_REACTORS
330
47
102
}
330
47
100
AcDbScale
 70
     0
300
1:40
140
1.0
141
40.0
290
     0
  0
SCALE
  5
52
102
{ACAD_REACTORS
330
47
102
}
330
47
100
AcDbScale
 70
     0
300
1:50
140
1.0
141
50.0
290
     0
  0
SCALE
  5
53
102
{ACAD_REACTORS
330
47
102
}
330
47
100
AcDbScale
 70
     0
300
1:100
140
1.0
141
100.0
290
     0
  0
SCALE
  5
54
102
{ACAD_REACTORS
330
47
102
}
330
47
100
AcDbScale
 70
     0
300
2:1
140
2.0
141
1.0
290
     0
  0
SCALE
  5
55
102
{ACAD_REACTORS
330
47
102
}
330
47
100
AcDbScale
 70
     0
300
4:1
140
4.0
141
1.0
290
     0
  0
SCALE
  5
56
102
{ACAD_REACTORS
330
47
102
}
330
47
100
AcDbScale
 70
     0
300
8:1
140
8.0
141
1.0
290
     0
  0
SCALE
  5
57
102
{ACAD_REACTORS
330
47
102
}
330
47
100
AcDbScale
 70
     0
300
10:1
140
10.0
141
1.0
290
     0
  0
SCALE
  5
58
102
{ACAD_REACTORS
330
47
102
}
330
47
100
AcDbScale
 70
     0
300
100:1
140
100.0
141
1.0
290
     0
  0
ENDSEC
  0
EOF
