ISO-10303-21;
HEADER;
FILE_DESCRIPTION (( 'STEP AP203' ),
    '1' );
FILE_NAME ('CTR10-020-K41-062I-D2 Òðóáà ãëàäêàÿ æåñòêàÿ ÏÂÕ d20 ÈÝÊ ñåðàÿ (62ì),2ì.STEP',
    '2016-04-27T08:19:58',
    ( '' ),
    ( '' ),
    'SwSTEP 2.0',
    'SolidWorks 2014',
    '' );
FILE_SCHEMA (( 'CONFIG_CONTROL_DESIGN' ));
ENDSEC;

DATA;
#1 = CARTESIAN_POINT ( 'NONE',  ( 0.0000000000000000000, 0.0000000000000000000, -9.099999999999999600 ) ) ;
#2 = CALENDAR_DATE ( 2016, 27, 4 ) ;
#3 = MECHANICAL_CONTEXT ( 'NONE', #160, 'mechanical' ) ;
#4 = AXIS2_PLACEMENT_3D ( 'NONE', #100, #121, #52 ) ;
#5 = FACE_OUTER_BOUND ( 'NONE', #45, .T. ) ;
#6 =( GEOMETRIC_REPRESENTATION_CONTEXT ( 3 ) GLOBAL_UNCERTAINTY_ASSIGNED_CONTEXT ( ( #64 ) ) GLOBAL_UNIT_ASSIGNED_CONTEXT ( ( #116, #43, #124 ) ) REPRESENTATION_CONTEXT ( 'NONE', 'WORKASPACE' ) );
#7 = EDGE_LOOP ( 'NONE', ( #108 ) ) ;
#8 = PERSON_AND_ORGANIZATION_ROLE ( 'creator' ) ;
#9 = CC_DESIGN_SECURITY_CLASSIFICATION ( #123, ( #87 ) ) ;
#10 = PERSON_AND_ORGANIZATION ( #138, #58 ) ;
#11 = EDGE_LOOP ( 'NONE', ( #78 ) ) ;
#12 = COORDINATED_UNIVERSAL_TIME_OFFSET ( 3, 0, .AHEAD. ) ;
#13 = AXIS2_PLACEMENT_3D ( 'NONE', #25, #109, #37 ) ;
#14 = CALENDAR_DATE ( 2016, 27, 4 ) ;
#15 = PRODUCT_RELATED_PRODUCT_CATEGORY ( 'detail', '', ( #169 ) ) ;
#16 = LOCAL_TIME ( 11, 19, 58.00000000000000000, #140 ) ;
#17 = AXIS2_PLACEMENT_3D ( 'NONE', #73, #164, #86 ) ;
#18 = DIRECTION ( 'NONE',  ( 0.0000000000000000000, 0.0000000000000000000, 1.000000000000000000 ) ) ;
#19 = ORIENTED_EDGE ( 'NONE', *, *, #30, .T. ) ;
#20 = PERSON_AND_ORGANIZATION ( #138, #58 ) ;
#21 = SECURITY_CLASSIFICATION_LEVEL ( 'unclassified' ) ;
#22 = AXIS2_PLACEMENT_3D ( 'NONE', #131, #50, #98 ) ;
#23 = ADVANCED_FACE ( 'NONE', ( #117, #89 ), #55, .T. ) ;
#24 = PRODUCT_DEFINITION_SHAPE ( 'NONE', 'NONE',  #44 ) ;
#25 = CARTESIAN_POINT ( 'NONE',  ( 0.0000000000000000000, 0.0000000000000000000, 0.0000000000000000000 ) ) ;
#26 = AXIS2_PLACEMENT_3D ( 'NONE', #77, #168, #56 ) ;
#27 = ADVANCED_BREP_SHAPE_REPRESENTATION ( 'CTR10-020-K41-062I-D2 T¨ºñð óûðôúð  öõ¸ªúð  ¦T- d20 L¦¦ ¸õ¨ð  (62ü),2ü', ( #47, #28 ), #6 ) ;
#28 = AXIS2_PLACEMENT_3D ( 'NONE', #159, #18, #82 ) ;
#29 = AXIS2_PLACEMENT_3D ( 'NONE', #60, #144, #51 ) ;
#30 = EDGE_CURVE ( 'NONE', #99, #99, #135, .T. ) ;
#31 = EDGE_CURVE ( 'NONE', #163, #163, #39, .T. ) ;
#32 = DATE_TIME_ROLE ( 'classification_date' ) ;
#33 = EDGE_CURVE ( 'NONE', #122, #122, #105, .T. ) ;
#34 = COORDINATED_UNIVERSAL_TIME_OFFSET ( 3, 0, .AHEAD. ) ;
#35 = FACE_BOUND ( 'NONE', #11, .T. ) ;
#36 = CC_DESIGN_PERSON_AND_ORGANIZATION_ASSIGNMENT ( #20, #91, ( #169 ) ) ;
#37 = DIRECTION ( 'NONE',  ( 0.0000000000000000000, 0.0000000000000000000, -1.000000000000000000 ) ) ;
#38 = EDGE_CURVE ( 'NONE', #94, #94, #41, .T. ) ;
#39 = CIRCLE ( 'NONE', #29, 10.00000000000000000 ) ;
#40 = LOCAL_TIME ( 11, 19, 58.00000000000000000, #71 ) ;
#41 = CIRCLE ( 'NONE', #13, 10.00000000000000000 ) ;
#42 = APPROVAL_DATE_TIME ( #76, #95 ) ;
#43 =( NAMED_UNIT ( * ) PLANE_ANGLE_UNIT ( ) SI_UNIT ( $, .RADIAN. ) );
#44 = PRODUCT_DEFINITION ( 'UNKNOWN', '', #87, #93 ) ;
#45 = EDGE_LOOP ( 'NONE', ( #80 ) ) ;
#46 = APPLICATION_PROTOCOL_DEFINITION ( 'international standard', 'config_control_design', 1994, #126 ) ;
#47 = MANIFOLD_SOLID_BREP ( 'Áîáûøêà-Âûòÿíóòü1', #156 ) ;
#48 = APPROVAL_ROLE ( '' ) ;
#49 = APPROVAL_PERSON_ORGANIZATION ( #81, #95, #85 ) ;
#50 = DIRECTION ( 'NONE',  ( -1.000000000000000000, -0.0000000000000000000, -0.0000000000000000000 ) ) ;
#51 = DIRECTION ( 'NONE',  ( 0.0000000000000000000, 0.0000000000000000000, -1.000000000000000000 ) ) ;
#52 = DIRECTION ( 'NONE',  ( 0.0000000000000000000, 0.0000000000000000000, -1.000000000000000000 ) ) ;
#53 = EDGE_LOOP ( 'NONE', ( #139 ) ) ;
#54 = LOCAL_TIME ( 11, 19, 58.00000000000000000, #84 ) ;
#55 = CYLINDRICAL_SURFACE ( 'NONE', #22, 10.00000000000000000 ) ;
#56 = DIRECTION ( 'NONE',  ( 0.0000000000000000000, 0.0000000000000000000, -1.000000000000000000 ) ) ;
#57 = APPROVAL ( #128, 'UNSPECIFIED' ) ;
#58 = ORGANIZATION ( 'UNSPECIFIED', 'UNSPECIFIED', '' ) ;
#59 = DIRECTION ( 'NONE',  ( 1.000000000000000000, 0.0000000000000000000, 0.0000000000000000000 ) ) ;
#60 = CARTESIAN_POINT ( 'NONE',  ( 2000.000000000000000, 0.0000000000000000000, 0.0000000000000000000 ) ) ;
#61 = APPROVAL_ROLE ( '' ) ;
#62 = CC_DESIGN_APPROVAL ( #57, ( #44 ) ) ;
#63 = CARTESIAN_POINT ( 'NONE',  ( 2000.000000000000000, 0.0000000000000000000, 0.0000000000000000000 ) ) ;
#64 = UNCERTAINTY_MEASURE_WITH_UNIT (LENGTH_MEASURE( 1.000000000000000100E-005 ), #116, 'distance_accuracy_value', 'NONE');
#65 = APPROVAL_DATE_TIME ( #97, #157 ) ;
#66 = CARTESIAN_POINT ( 'NONE',  ( 2000.000000000000000, 0.0000000000000000000, -9.099999999999999600 ) ) ;
#67 = APPROVAL_PERSON_ORGANIZATION ( #101, #157, #48 ) ;
#68 = SHAPE_DEFINITION_REPRESENTATION ( #24, #27 ) ;
#69 = CC_DESIGN_PERSON_AND_ORGANIZATION_ASSIGNMENT ( #158, #147, ( #44 ) ) ;
#70 = DATE_TIME_ROLE ( 'creation_date' ) ;
#71 = COORDINATED_UNIVERSAL_TIME_OFFSET ( 3, 0, .AHEAD. ) ;
#72 = FACE_OUTER_BOUND ( 'NONE', #134, .T. ) ;
#73 = CARTESIAN_POINT ( 'NONE',  ( 0.0000000000000000000, 0.0000000000000000000, 0.0000000000000000000 ) ) ;
#74 = CARTESIAN_POINT ( 'NONE',  ( 2000.000000000000000, 0.0000000000000000000, 0.0000000000000000000 ) ) ;
#75 = EDGE_LOOP ( 'NONE', ( #152 ) ) ;
#76 = DATE_AND_TIME ( #107, #141 ) ;
#77 = CARTESIAN_POINT ( 'NONE',  ( 2000.000000000000000, 0.0000000000000000000, 0.0000000000000000000 ) ) ;
#78 = ORIENTED_EDGE ( 'NONE', *, *, #30, .F. ) ;
#79 = CC_DESIGN_DATE_AND_TIME_ASSIGNMENT ( #112, #70, ( #44 ) ) ;
#80 = ORIENTED_EDGE ( 'NONE', *, *, #38, .F. ) ;
#81 = PERSON_AND_ORGANIZATION ( #138, #58 ) ;
#82 = DIRECTION ( 'NONE',  ( 1.000000000000000000, 0.0000000000000000000, 0.0000000000000000000 ) ) ;
#83 = ORIENTED_EDGE ( 'NONE', *, *, #33, .F. ) ;
#84 = COORDINATED_UNIVERSAL_TIME_OFFSET ( 3, 0, .AHEAD. ) ;
#85 = APPROVAL_ROLE ( '' ) ;
#86 = DIRECTION ( 'NONE',  ( 0.0000000000000000000, 0.0000000000000000000, -1.000000000000000000 ) ) ;
#87 = PRODUCT_DEFINITION_FORMATION_WITH_SPECIFIED_SOURCE ( 'ANY', '', #169, .NOT_KNOWN. ) ;
#88 = CARTESIAN_POINT ( 'NONE',  ( 2000.000000000000000, 0.0000000000000000000, -10.00000000000000000 ) ) ;
#89 = FACE_OUTER_BOUND ( 'NONE', #7, .T. ) ;
#90 = CARTESIAN_POINT ( 'NONE',  ( 0.0000000000000000000, 0.0000000000000000000, -10.00000000000000000 ) ) ;
#91 = PERSON_AND_ORGANIZATION_ROLE ( 'design_owner' ) ;
#92 = ADVANCED_FACE ( 'NONE', ( #5, #137 ), #153, .F. ) ;
#93 = DESIGN_CONTEXT ( 'detailed design', #126, 'design' ) ;
#94 = VERTEX_POINT ( 'NONE', #90 ) ;
#95 = APPROVAL ( #162, 'UNSPECIFIED' ) ;
#96 = PERSON_AND_ORGANIZATION_ROLE ( 'design_supplier' ) ;
#97 = DATE_AND_TIME ( #125, #167 ) ;
#98 = DIRECTION ( 'NONE',  ( 0.0000000000000000000, 0.0000000000000000000, 1.000000000000000000 ) ) ;
#99 = VERTEX_POINT ( 'NONE', #66 ) ;
#100 = CARTESIAN_POINT ( 'NONE',  ( 0.0000000000000000000, 0.0000000000000000000, 0.0000000000000000000 ) ) ;
#101 = PERSON_AND_ORGANIZATION ( #138, #58 ) ;
#102 = FACE_OUTER_BOUND ( 'NONE', #120, .T. ) ;
#103 = CC_DESIGN_APPROVAL ( #95, ( #87 ) ) ;
#104 = PERSON_AND_ORGANIZATION ( #138, #58 ) ;
#105 = CIRCLE ( 'NONE', #17, 9.099999999999999600 ) ;
#106 = PERSON_AND_ORGANIZATION_ROLE ( 'classification_officer' ) ;
#107 = CALENDAR_DATE ( 2016, 27, 4 ) ;
#108 = ORIENTED_EDGE ( 'NONE', *, *, #38, .T. ) ;
#109 = DIRECTION ( 'NONE',  ( 1.000000000000000000, 0.0000000000000000000, 0.0000000000000000000 ) ) ;
#110 = CC_DESIGN_PERSON_AND_ORGANIZATION_ASSIGNMENT ( #10, #8, ( #87 ) ) ;
#111 = APPROVAL_DATE_TIME ( #149, #57 ) ;
#112 = DATE_AND_TIME ( #150, #16 ) ;
#113 = EDGE_LOOP ( 'NONE', ( #83 ) ) ;
#114 = ADVANCED_FACE ( 'NONE', ( #72, #130 ), #127, .F. ) ;
#115 = APPROVAL_PERSON_ORGANIZATION ( #155, #57, #61 ) ;
#116 =( LENGTH_UNIT ( ) NAMED_UNIT ( * ) SI_UNIT ( .MILLI., .METRE. ) );
#117 = FACE_OUTER_BOUND ( 'NONE', #75, .T. ) ;
#118 = CC_DESIGN_PERSON_AND_ORGANIZATION_ASSIGNMENT ( #136, #96, ( #87 ) ) ;
#119 = APPROVAL_STATUS ( 'not_yet_approved' ) ;
#120 = EDGE_LOOP ( 'NONE', ( #146 ) ) ;
#121 = DIRECTION ( 'NONE',  ( 1.000000000000000000, 0.0000000000000000000, 0.0000000000000000000 ) ) ;
#122 = VERTEX_POINT ( 'NONE', #1 ) ;
#123 = SECURITY_CLASSIFICATION ( '', '', #21 ) ;
#124 =( NAMED_UNIT ( * ) SI_UNIT ( $, .STERADIAN. ) SOLID_ANGLE_UNIT ( ) );
#125 = CALENDAR_DATE ( 2016, 27, 4 ) ;
#126 = APPLICATION_CONTEXT ( 'configuration controlled 3d designs of mechanical parts and assemblies' ) ;
#127 = CYLINDRICAL_SURFACE ( 'NONE', #151, 9.099999999999999600 ) ;
#128 = APPROVAL_STATUS ( 'not_yet_approved' ) ;
#129 = DATE_AND_TIME ( #2, #40 ) ;
#130 = FACE_OUTER_BOUND ( 'NONE', #113, .T. ) ;
#131 = CARTESIAN_POINT ( 'NONE',  ( 2000.000000000000000, 0.0000000000000000000, 0.0000000000000000000 ) ) ;
#132 = DIRECTION ( 'NONE',  ( 0.0000000000000000000, 0.0000000000000000000, 1.000000000000000000 ) ) ;
#133 = CC_DESIGN_PERSON_AND_ORGANIZATION_ASSIGNMENT ( #104, #106, ( #123 ) ) ;
#134 = EDGE_LOOP ( 'NONE', ( #19 ) ) ;
#135 = CIRCLE ( 'NONE', #26, 9.099999999999999600 ) ;
#136 = PERSON_AND_ORGANIZATION ( #138, #58 ) ;
#137 = FACE_BOUND ( 'NONE', #53, .T. ) ;
#138 = PERSON ( 'UNSPECIFIED', 'UNSPECIFIED', 'UNSPECIFIED', ('UNSPECIFIED'), ('UNSPECIFIED'), ('UNSPECIFIED') ) ;
#139 = ORIENTED_EDGE ( 'NONE', *, *, #33, .T. ) ;
#140 = COORDINATED_UNIVERSAL_TIME_OFFSET ( 3, 0, .AHEAD. ) ;
#141 = LOCAL_TIME ( 11, 19, 58.00000000000000000, #12 ) ;
#142 = DIRECTION ( 'NONE',  ( 0.0000000000000000000, 0.0000000000000000000, -1.000000000000000000 ) ) ;
#143 = APPLICATION_PROTOCOL_DEFINITION ( 'international standard', 'config_control_design', 1994, #160 ) ;
#144 = DIRECTION ( 'NONE',  ( 1.000000000000000000, 0.0000000000000000000, 0.0000000000000000000 ) ) ;
#145 = ADVANCED_FACE ( 'NONE', ( #102, #35 ), #165, .T. ) ;
#146 = ORIENTED_EDGE ( 'NONE', *, *, #31, .T. ) ;
#147 = PERSON_AND_ORGANIZATION_ROLE ( 'creator' ) ;
#148 = CC_DESIGN_DATE_AND_TIME_ASSIGNMENT ( #129, #32, ( #123 ) ) ;
#149 = DATE_AND_TIME ( #14, #54 ) ;
#150 = CALENDAR_DATE ( 2016, 27, 4 ) ;
#151 = AXIS2_PLACEMENT_3D ( 'NONE', #63, #154, #132 ) ;
#152 = ORIENTED_EDGE ( 'NONE', *, *, #31, .F. ) ;
#153 = PLANE ( 'NONE',  #4 ) ;
#154 = DIRECTION ( 'NONE',  ( -1.000000000000000000, -0.0000000000000000000, -0.0000000000000000000 ) ) ;
#155 = PERSON_AND_ORGANIZATION ( #138, #58 ) ;
#156 = CLOSED_SHELL ( 'NONE', ( #145, #92, #23, #114 ) ) ;
#157 = APPROVAL ( #119, 'UNSPECIFIED' ) ;
#158 = PERSON_AND_ORGANIZATION ( #138, #58 ) ;
#159 = CARTESIAN_POINT ( 'NONE',  ( 0.0000000000000000000, 0.0000000000000000000, 0.0000000000000000000 ) ) ;
#160 = APPLICATION_CONTEXT ( 'configuration controlled 3d designs of mechanical parts and assemblies' ) ;
#161 = AXIS2_PLACEMENT_3D ( 'NONE', #74, #59, #142 ) ;
#162 = APPROVAL_STATUS ( 'not_yet_approved' ) ;
#163 = VERTEX_POINT ( 'NONE', #88 ) ;
#164 = DIRECTION ( 'NONE',  ( 1.000000000000000000, 0.0000000000000000000, 0.0000000000000000000 ) ) ;
#165 = PLANE ( 'NONE',  #161 ) ;
#166 = CC_DESIGN_APPROVAL ( #157, ( #123 ) ) ;
#167 = LOCAL_TIME ( 11, 19, 58.00000000000000000, #34 ) ;
#168 = DIRECTION ( 'NONE',  ( 1.000000000000000000, 0.0000000000000000000, 0.0000000000000000000 ) ) ;
#169 = PRODUCT ( 'CTR10-020-K41-062I-D2 Òðóáà ãëàäêàÿ æåñòêàÿ ÏÂÕ d20 ÈÝÊ ñåðàÿ (62ì),2ì', 'CTR10-020-K41-062I-D2 Òðóáà ãëàäêàÿ æåñòêàÿ ÏÂÕ d20 ÈÝÊ ñåðàÿ (62ì),2ì', '', ( #3 ) ) ;
ENDSEC;
END-ISO-10303-21;
