ISO-10303-21;
HEADER;
FILE_DESCRIPTION (( 'STEP AP203' ),
    '1' );
FILE_NAME ('CTR10-032-K41-020I-D2 Òðóáà ãëàäêàÿ æåñòêàÿ ÏÂÕ d32 ÈÝÊ ñåðàÿ (20ì),2ì.STEP',
    '2016-04-27T08:20:41',
    ( '' ),
    ( '' ),
    'SwSTEP 2.0',
    'SolidWorks 2014',
    '' );
FILE_SCHEMA (( 'CONFIG_CONTROL_DESIGN' ));
ENDSEC;

DATA;
#1 = AXIS2_PLACEMENT_3D ( 'NONE', #79, #57, #130 ) ;
#2 = PERSON_AND_ORGANIZATION ( #145, #127 ) ;
#3 = EDGE_LOOP ( 'NONE', ( #44 ) ) ;
#4 = PERSON_AND_ORGANIZATION ( #145, #127 ) ;
#5 = CARTESIAN_POINT ( 'NONE',  ( 0.0000000000000000000, 0.0000000000000000000, -14.90000000000000000 ) ) ;
#6 = APPROVAL ( #160, 'UNSPECIFIED' ) ;
#7 = PERSON_AND_ORGANIZATION_ROLE ( 'creator' ) ;
#8 = EDGE_LOOP ( 'NONE', ( #68 ) ) ;
#9 = ADVANCED_FACE ( 'NONE', ( #96, #104 ), #92, .F. ) ;
#10 = PLANE ( 'NONE',  #1 ) ;
#11 = DIRECTION ( 'NONE',  ( 0.0000000000000000000, 0.0000000000000000000, -1.000000000000000000 ) ) ;
#12 = CALENDAR_DATE ( 2016, 27, 4 ) ;
#13 = AXIS2_PLACEMENT_3D ( 'NONE', #159, #35, #108 ) ;
#14 = DATE_AND_TIME ( #53, #84 ) ;
#15 = AXIS2_PLACEMENT_3D ( 'NONE', #163, #91, #11 ) ;
#16 = CC_DESIGN_APPROVAL ( #6, ( #165 ) ) ;
#17 = VERTEX_POINT ( 'NONE', #97 ) ;
#18 = APPROVAL_DATE_TIME ( #56, #132 ) ;
#19 = AXIS2_PLACEMENT_3D ( 'NONE', #139, #162, #152 ) ;
#20 = CARTESIAN_POINT ( 'NONE',  ( 0.0000000000000000000, 0.0000000000000000000, 0.0000000000000000000 ) ) ;
#21 = DIRECTION ( 'NONE',  ( 1.000000000000000000, 0.0000000000000000000, 0.0000000000000000000 ) ) ;
#22 = AXIS2_PLACEMENT_3D ( 'NONE', #102, #26, #114 ) ;
#23 = SECURITY_CLASSIFICATION_LEVEL ( 'unclassified' ) ;
#24 = CIRCLE ( 'NONE', #15, 14.90000000000000000 ) ;
#25 = APPROVAL_PERSON_ORGANIZATION ( #59, #132, #62 ) ;
#26 = DIRECTION ( 'NONE',  ( 1.000000000000000000, 0.0000000000000000000, 0.0000000000000000000 ) ) ;
#27 = AXIS2_PLACEMENT_3D ( 'NONE', #52, #140, #66 ) ;
#28 = EDGE_CURVE ( 'NONE', #17, #17, #126, .T. ) ;
#29 = CC_DESIGN_PERSON_AND_ORGANIZATION_ASSIGNMENT ( #80, #7, ( #165 ) ) ;
#30 = EDGE_CURVE ( 'NONE', #51, #51, #58, .T. ) ;
#31 = FACE_OUTER_BOUND ( 'NONE', #3, .T. ) ;
#32 = EDGE_CURVE ( 'NONE', #143, #143, #24, .T. ) ;
#33 = EDGE_CURVE ( 'NONE', #78, #78, #155, .T. ) ;
#34 = EDGE_LOOP ( 'NONE', ( #77 ) ) ;
#35 = DIRECTION ( 'NONE',  ( 1.000000000000000000, 0.0000000000000000000, 0.0000000000000000000 ) ) ;
#36 = CALENDAR_DATE ( 2016, 27, 4 ) ;
#37 = CARTESIAN_POINT ( 'NONE',  ( 0.0000000000000000000, 0.0000000000000000000, -16.00000000000000000 ) ) ;
#38 = PERSON_AND_ORGANIZATION_ROLE ( 'design_owner' ) ;
#39 = CC_DESIGN_PERSON_AND_ORGANIZATION_ASSIGNMENT ( #45, #99, ( #165 ) ) ;
#40 = DATE_TIME_ROLE ( 'classification_date' ) ;
#41 = ORIENTED_EDGE ( 'NONE', *, *, #33, .T. ) ;
#42 = DATE_AND_TIME ( #73, #106 ) ;
#43 = PRODUCT_DEFINITION_SHAPE ( 'NONE', 'NONE',  #122 ) ;
#44 = ORIENTED_EDGE ( 'NONE', *, *, #28, .F. ) ;
#45 = PERSON_AND_ORGANIZATION ( #145, #127 ) ;
#46 = SECURITY_CLASSIFICATION ( '', '', #23 ) ;
#47 = LOCAL_TIME ( 11, 20, 41.00000000000000000, #82 ) ;
#48 = DIRECTION ( 'NONE',  ( 1.000000000000000000, 0.0000000000000000000, 0.0000000000000000000 ) ) ;
#49 = APPLICATION_PROTOCOL_DEFINITION ( 'international standard', 'config_control_design', 1994, #123 ) ;
#50 = APPROVAL_ROLE ( '' ) ;
#51 = VERTEX_POINT ( 'NONE', #110 ) ;
#52 = CARTESIAN_POINT ( 'NONE',  ( 2000.000000000000000, 0.0000000000000000000, 0.0000000000000000000 ) ) ;
#53 = CALENDAR_DATE ( 2016, 27, 4 ) ;
#54 = CC_DESIGN_PERSON_AND_ORGANIZATION_ASSIGNMENT ( #4, #112, ( #46 ) ) ;
#55 = FACE_OUTER_BOUND ( 'NONE', #101, .T. ) ;
#56 = DATE_AND_TIME ( #90, #119 ) ;
#57 = DIRECTION ( 'NONE',  ( 1.000000000000000000, 0.0000000000000000000, 0.0000000000000000000 ) ) ;
#58 = CIRCLE ( 'NONE', #27, 14.90000000000000000 ) ;
#59 = PERSON_AND_ORGANIZATION ( #145, #127 ) ;
#60 = DIRECTION ( 'NONE',  ( 0.0000000000000000000, 0.0000000000000000000, -1.000000000000000000 ) ) ;
#61 =( LENGTH_UNIT ( ) NAMED_UNIT ( * ) SI_UNIT ( .MILLI., .METRE. ) );
#62 = APPROVAL_ROLE ( '' ) ;
#63 = CC_DESIGN_DATE_AND_TIME_ASSIGNMENT ( #42, #40, ( #46 ) ) ;
#64 = ADVANCED_FACE ( 'NONE', ( #158, #65 ), #10, .T. ) ;
#65 = FACE_BOUND ( 'NONE', #134, .T. ) ;
#66 = DIRECTION ( 'NONE',  ( 0.0000000000000000000, 0.0000000000000000000, -1.000000000000000000 ) ) ;
#67 = AXIS2_PLACEMENT_3D ( 'NONE', #120, #48, #60 ) ;
#68 = ORIENTED_EDGE ( 'NONE', *, *, #30, .T. ) ;
#69 = LOCAL_TIME ( 11, 20, 41.00000000000000000, #103 ) ;
#70 = APPROVAL ( #124, 'UNSPECIFIED' ) ;
#71 = EDGE_LOOP ( 'NONE', ( #94 ) ) ;
#72 = SHAPE_DEFINITION_REPRESENTATION ( #43, #169 ) ;
#73 = CALENDAR_DATE ( 2016, 27, 4 ) ;
#74 =( GEOMETRIC_REPRESENTATION_CONTEXT ( 3 ) GLOBAL_UNCERTAINTY_ASSIGNED_CONTEXT ( ( #154 ) ) GLOBAL_UNIT_ASSIGNED_CONTEXT ( ( #61, #149, #75 ) ) REPRESENTATION_CONTEXT ( 'NONE', 'WORKASPACE' ) );
#75 =( NAMED_UNIT ( * ) SI_UNIT ( $, .STERADIAN. ) SOLID_ANGLE_UNIT ( ) );
#76 = DATE_TIME_ROLE ( 'creation_date' ) ;
#77 = ORIENTED_EDGE ( 'NONE', *, *, #32, .F. ) ;
#78 = VERTEX_POINT ( 'NONE', #37 ) ;
#79 = CARTESIAN_POINT ( 'NONE',  ( 2000.000000000000000, 0.0000000000000000000, 0.0000000000000000000 ) ) ;
#80 = PERSON_AND_ORGANIZATION ( #145, #127 ) ;
#81 = CC_DESIGN_APPROVAL ( #70, ( #46 ) ) ;
#82 = COORDINATED_UNIVERSAL_TIME_OFFSET ( 3, 0, .AHEAD. ) ;
#83 = AXIS2_PLACEMENT_3D ( 'NONE', #148, #135, #85 ) ;
#84 = LOCAL_TIME ( 11, 20, 41.00000000000000000, #118 ) ;
#85 = DIRECTION ( 'NONE',  ( 0.0000000000000000000, 0.0000000000000000000, 1.000000000000000000 ) ) ;
#86 = APPLICATION_PROTOCOL_DEFINITION ( 'international standard', 'config_control_design', 1994, #98 ) ;
#87 = APPROVAL_ROLE ( '' ) ;
#88 = CC_DESIGN_SECURITY_CLASSIFICATION ( #46, ( #165 ) ) ;
#89 = FACE_BOUND ( 'NONE', #129, .T. ) ;
#90 = CALENDAR_DATE ( 2016, 27, 4 ) ;
#91 = DIRECTION ( 'NONE',  ( 1.000000000000000000, 0.0000000000000000000, 0.0000000000000000000 ) ) ;
#92 = CYLINDRICAL_SURFACE ( 'NONE', #19, 14.90000000000000000 ) ;
#93 = PERSON_AND_ORGANIZATION ( #145, #127 ) ;
#94 = ORIENTED_EDGE ( 'NONE', *, *, #28, .T. ) ;
#95 = PRODUCT_RELATED_PRODUCT_CATEGORY ( 'detail', '', ( #166 ) ) ;
#96 = FACE_OUTER_BOUND ( 'NONE', #8, .T. ) ;
#97 = CARTESIAN_POINT ( 'NONE',  ( 2000.000000000000000, 0.0000000000000000000, -16.00000000000000000 ) ) ;
#98 = APPLICATION_CONTEXT ( 'configuration controlled 3d designs of mechanical parts and assemblies' ) ;
#99 = PERSON_AND_ORGANIZATION_ROLE ( 'design_supplier' ) ;
#100 = MANIFOLD_SOLID_BREP ( 'Áîáûøêà-Âûòÿíóòü1', #146 ) ;
#101 = EDGE_LOOP ( 'NONE', ( #167 ) ) ;
#102 = CARTESIAN_POINT ( 'NONE',  ( 2000.000000000000000, 0.0000000000000000000, 0.0000000000000000000 ) ) ;
#103 = COORDINATED_UNIVERSAL_TIME_OFFSET ( 3, 0, .AHEAD. ) ;
#104 = FACE_OUTER_BOUND ( 'NONE', #34, .T. ) ;
#105 = EDGE_LOOP ( 'NONE', ( #41 ) ) ;
#106 = LOCAL_TIME ( 11, 20, 41.00000000000000000, #141 ) ;
#107 = AXIS2_PLACEMENT_3D ( 'NONE', #20, #121, #21 ) ;
#108 = DIRECTION ( 'NONE',  ( 0.0000000000000000000, 0.0000000000000000000, -1.000000000000000000 ) ) ;
#109 = APPROVAL_DATE_TIME ( #144, #6 ) ;
#110 = CARTESIAN_POINT ( 'NONE',  ( 2000.000000000000000, 0.0000000000000000000, -14.90000000000000000 ) ) ;
#111 = MECHANICAL_CONTEXT ( 'NONE', #98, 'mechanical' ) ;
#112 = PERSON_AND_ORGANIZATION_ROLE ( 'classification_officer' ) ;
#113 = ADVANCED_FACE ( 'NONE', ( #55, #89 ), #128, .F. ) ;
#114 = DIRECTION ( 'NONE',  ( 0.0000000000000000000, 0.0000000000000000000, -1.000000000000000000 ) ) ;
#115 = APPROVAL_PERSON_ORGANIZATION ( #147, #6, #87 ) ;
#116 = CC_DESIGN_PERSON_AND_ORGANIZATION_ASSIGNMENT ( #93, #38, ( #166 ) ) ;
#117 = FACE_OUTER_BOUND ( 'NONE', #105, .T. ) ;
#118 = COORDINATED_UNIVERSAL_TIME_OFFSET ( 3, 0, .AHEAD. ) ;
#119 = LOCAL_TIME ( 11, 20, 41.00000000000000000, #156 ) ;
#120 = CARTESIAN_POINT ( 'NONE',  ( 0.0000000000000000000, 0.0000000000000000000, 0.0000000000000000000 ) ) ;
#121 = DIRECTION ( 'NONE',  ( 0.0000000000000000000, 0.0000000000000000000, 1.000000000000000000 ) ) ;
#122 = PRODUCT_DEFINITION ( 'UNKNOWN', '', #165, #133 ) ;
#123 = APPLICATION_CONTEXT ( 'configuration controlled 3d designs of mechanical parts and assemblies' ) ;
#124 = APPROVAL_STATUS ( 'not_yet_approved' ) ;
#125 = ADVANCED_FACE ( 'NONE', ( #31, #117 ), #168, .T. ) ;
#126 = CIRCLE ( 'NONE', #22, 16.00000000000000000 ) ;
#127 = ORGANIZATION ( 'UNSPECIFIED', 'UNSPECIFIED', '' ) ;
#128 = PLANE ( 'NONE',  #67 ) ;
#129 = EDGE_LOOP ( 'NONE', ( #161 ) ) ;
#130 = DIRECTION ( 'NONE',  ( 0.0000000000000000000, 0.0000000000000000000, -1.000000000000000000 ) ) ;
#131 = APPROVAL_DATE_TIME ( #164, #70 ) ;
#132 = APPROVAL ( #137, 'UNSPECIFIED' ) ;
#133 = DESIGN_CONTEXT ( 'detailed design', #123, 'design' ) ;
#134 = EDGE_LOOP ( 'NONE', ( #138 ) ) ;
#135 = DIRECTION ( 'NONE',  ( -1.000000000000000000, -0.0000000000000000000, -0.0000000000000000000 ) ) ;
#136 = APPROVAL_PERSON_ORGANIZATION ( #2, #70, #50 ) ;
#137 = APPROVAL_STATUS ( 'not_yet_approved' ) ;
#138 = ORIENTED_EDGE ( 'NONE', *, *, #30, .F. ) ;
#139 = CARTESIAN_POINT ( 'NONE',  ( 2000.000000000000000, 0.0000000000000000000, 0.0000000000000000000 ) ) ;
#140 = DIRECTION ( 'NONE',  ( 1.000000000000000000, 0.0000000000000000000, 0.0000000000000000000 ) ) ;
#141 = COORDINATED_UNIVERSAL_TIME_OFFSET ( 3, 0, .AHEAD. ) ;
#142 = CC_DESIGN_APPROVAL ( #132, ( #122 ) ) ;
#143 = VERTEX_POINT ( 'NONE', #5 ) ;
#144 = DATE_AND_TIME ( #12, #47 ) ;
#145 = PERSON ( 'UNSPECIFIED', 'UNSPECIFIED', 'UNSPECIFIED', ('UNSPECIFIED'), ('UNSPECIFIED'), ('UNSPECIFIED') ) ;
#146 = CLOSED_SHELL ( 'NONE', ( #64, #113, #125, #9 ) ) ;
#147 = PERSON_AND_ORGANIZATION ( #145, #127 ) ;
#148 = CARTESIAN_POINT ( 'NONE',  ( 2000.000000000000000, 0.0000000000000000000, 0.0000000000000000000 ) ) ;
#149 =( NAMED_UNIT ( * ) PLANE_ANGLE_UNIT ( ) SI_UNIT ( $, .RADIAN. ) );
#150 = CC_DESIGN_PERSON_AND_ORGANIZATION_ASSIGNMENT ( #153, #151, ( #122 ) ) ;
#151 = PERSON_AND_ORGANIZATION_ROLE ( 'creator' ) ;
#152 = DIRECTION ( 'NONE',  ( 0.0000000000000000000, 0.0000000000000000000, 1.000000000000000000 ) ) ;
#153 = PERSON_AND_ORGANIZATION ( #145, #127 ) ;
#154 = UNCERTAINTY_MEASURE_WITH_UNIT (LENGTH_MEASURE( 1.000000000000000100E-005 ), #61, 'distance_accuracy_value', 'NONE');
#155 = CIRCLE ( 'NONE', #13, 16.00000000000000000 ) ;
#156 = COORDINATED_UNIVERSAL_TIME_OFFSET ( 3, 0, .AHEAD. ) ;
#157 = CC_DESIGN_DATE_AND_TIME_ASSIGNMENT ( #14, #76, ( #122 ) ) ;
#158 = FACE_OUTER_BOUND ( 'NONE', #71, .T. ) ;
#159 = CARTESIAN_POINT ( 'NONE',  ( 0.0000000000000000000, 0.0000000000000000000, 0.0000000000000000000 ) ) ;
#160 = APPROVAL_STATUS ( 'not_yet_approved' ) ;
#161 = ORIENTED_EDGE ( 'NONE', *, *, #32, .T. ) ;
#162 = DIRECTION ( 'NONE',  ( -1.000000000000000000, -0.0000000000000000000, -0.0000000000000000000 ) ) ;
#163 = CARTESIAN_POINT ( 'NONE',  ( 0.0000000000000000000, 0.0000000000000000000, 0.0000000000000000000 ) ) ;
#164 = DATE_AND_TIME ( #36, #69 ) ;
#165 = PRODUCT_DEFINITION_FORMATION_WITH_SPECIFIED_SOURCE ( 'ANY', '', #166, .NOT_KNOWN. ) ;
#166 = PRODUCT ( 'CTR10-032-K41-020I-D2 Òðóáà ãëàäêàÿ æåñòêàÿ ÏÂÕ d32 ÈÝÊ ñåðàÿ (20ì),2ì', 'CTR10-032-K41-020I-D2 Òðóáà ãëàäêàÿ æåñòêàÿ ÏÂÕ d32 ÈÝÊ ñåðàÿ (20ì),2ì', '', ( #111 ) ) ;
#167 = ORIENTED_EDGE ( 'NONE', *, *, #33, .F. ) ;
#168 = CYLINDRICAL_SURFACE ( 'NONE', #83, 16.00000000000000000 ) ;
#169 = ADVANCED_BREP_SHAPE_REPRESENTATION ( 'CTR10-032-K41-020I-D2 T¨ºñð óûðôúð  öõ¸ªúð  ¦T- d32 L¦¦ ¸õ¨ð  (20ü),2ü', ( #100, #107 ), #74 ) ;
ENDSEC;
END-ISO-10303-21;
