  0
SECTION
  2
HEADER
  9
$ACADVER
  1
AC1015
  9
$ACADMAINTVER
 70
     6
  9
$DWGCODEPAGE
  3
ANSI_1251
  9
$INSBASE
 10
0.0
 20
0.0
 30
0.0
  9
$EXTMIN
 10
0.0
 20
0.0
 30
0.0
  9
$EXTMAX
 10
431.8
 20
279.4
 30
0.0
  9
$LIMMIN
 10
0.0
 20
0.0
  9
$LIMMAX
 10
431.8
 20
279.4
  9
$ORTHOMODE
 70
     0
  9
$REGENMODE
 70
     1
  9
$FILLMODE
 70
     1
  9
$QTEXTMODE
 70
     0
  9
$MIRRTEXT
 70
     1
  9
$LTSCALE
 40
1.0
  9
$ATTMODE
 70
     1
  9
$TEXTSIZE
 40
3.5
  9
$TRACEWID
 40
1.0
  9
$TEXTSTYLE
  7
STANDARD
  9
$CLAYER
  8
0
  9
$CELTYPE
  6
ByLayer
  9
$CECOLOR
 62
   256
  9
$CELTSCALE
 40
1.0
  9
$DISPSILH
 70
     0
  9
$DIMSCALE
 40
1.0
  9
$DIMASZ
 40
5.0
  9
$DIMEXO
 40
0.0
  9
$DIMDLI
 40
3.75
  9
$DIMRND
 40
0.0
  9
$DIMDLE
 40
0.0
  9
$DIMEXE
 40
1.0
  9
$DIMTP
 40
0.0
  9
$DIMTM
 40
0.0
  9
$DIMTXT
 40
3.5
  9
$DIMCEN
 40
2.5
  9
$DIMTSZ
 40
0.0
  9
$DIMTOL
 70
     0
  9
$DIMLIM
 70
     0
  9
$DIMTIH
 70
     1
  9
$DIMTOH
 70
     1
  9
$DIMSE1
 70
     0
  9
$DIMSE2
 70
     0
  9
$DIMTAD
 70
     1
  9
$DIMZIN
 70
     0
  9
$DIMBLK
  1

  9
$DIMASO
 70
     1
  9
$DIMSHO
 70
     1
  9
$DIMPOST
  1

  9
$DIMAPOST
  1

  9
$DIMALT
 70
     0
  9
$DIMALTD
 70
     3
  9
$DIMALTF
 40
0.0393700787
  9
$DIMLFAC
 40
1.0
  9
$DIMTOFL
 70
     1
  9
$DIMTVP
 40
0.0
  9
$DIMTIX
 70
     0
  9
$DIMSOXD
 70
     0
  9
$DIMSAH
 70
     0
  9
$DIMBLK1
  1

  9
$DIMBLK2
  1

  9
$DIMSTYLE
  2
ISO-25
  9
$DIMCLRD
 70
     0
  9
$DIMCLRE
 70
     0
  9
$DIMCLRT
 70
     0
  9
$DIMTFAC
 40
1.0
  9
$DIMGAP
 40
1.5
  9
$DIMJUST
 70
     0
  9
$DIMSD1
 70
     0
  9
$DIMSD2
 70
     0
  9
$DIMTOLJ
 70
     0
  9
$DIMTZIN
 70
     0
  9
$DIMALTZ
 70
     0
  9
$DIMALTTZ
 70
     0
  9
$DIMUPT
 70
     0
  9
$DIMDEC
 70
     1
  9
$DIMTDEC
 70
     3
  9
$DIMALTU
 70
     2
  9
$DIMALTTD
 70
     3
  9
$DIMTXSTY
  7
STANDARD
  9
$DIMAUNIT
 70
     0
  9
$DIMADEC
 70
     2
  9
$DIMALTRND
 40
0.0
  9
$DIMAZIN
 70
     0
  9
$DIMDSEP
 70
    44
  9
$DIMATFIT
 70
     3
  9
$DIMFRAC
 70
     0
  9
$DIMLDRBLK
  1

  9
$DIMLUNIT
 70
     2
  9
$DIMLWD
 70
    -2
  9
$DIMLWE
 70
    -2
  9
$DIMTMOVE
 70
     0
  9
$LUNITS
 70
     2
  9
$LUPREC
 70
     1
  9
$SKETCHINC
 40
1.0
  9
$FILLETRAD
 40
0.0
  9
$AUNITS
 70
     0
  9
$AUPREC
 70
     2
  9
$MENU
  1
.
  9
$ELEVATION
 40
0.0
  9
$PELEVATION
 40
0.0
  9
$THICKNESS
 40
0.0
  9
$LIMCHECK
 70
     0
  9
$CHAMFERA
 40
0.0
  9
$CHAMFERB
 40
0.0
  9
$CHAMFERC
 40
0.0
  9
$CHAMFERD
 40
0.0
  9
$SKPOLY
 70
     0
  9
$TDCREATE
 40
2460921.589737512
  9
$TDUCREATE
 40
2460921.464737512
  9
$TDUPDATE
 40
2460921.589738461
  9
$TDUUPDATE
 40
2460921.464738461
  9
$TDINDWG
 40
0.0000000116
  9
$TDUSRTIMER
 40
0.0000000116
  9
$USRTIMER
 70
     1
  9
$ANGBASE
 50
0.0
  9
$ANGDIR
 70
     0
  9
$PDMODE
 70
     0
  9
$PDSIZE
 40
-1.0
  9
$PLINEWID
 40
0.0
  9
$SPLFRAME
 70
     0
  9
$SPLINETYPE
 70
     6
  9
$SPLINESEGS
 70
     8
  9
$HANDSEED
  5
335
  9
$SURFTAB1
 70
     6
  9
$SURFTAB2
 70
     6
  9
$SURFTYPE
 70
     6
  9
$SURFU
 70
     6
  9
$SURFV
 70
     6
  9
$UCSBASE
  2

  9
$UCSNAME
  2

  9
$UCSORG
 10
0.0
 20
0.0
 30
0.0
  9
$UCSXDIR
 10
1.0
 20
0.0
 30
0.0
  9
$UCSYDIR
 10
0.0
 20
1.0
 30
0.0
  9
$UCSORTHOREF
  2

  9
$UCSORTHOVIEW
 70
     0
  9
$UCSORGTOP
 10
0.0
 20
0.0
 30
0.0
  9
$UCSORGBOTTOM
 10
0.0
 20
0.0
 30
0.0
  9
$UCSORGLEFT
 10
0.0
 20
0.0
 30
0.0
  9
$UCSORGRIGHT
 10
0.0
 20
0.0
 30
0.0
  9
$UCSORGFRONT
 10
0.0
 20
0.0
 30
0.0
  9
$UCSORGBACK
 10
0.0
 20
0.0
 30
0.0
  9
$PUCSBASE
  2

  9
$PUCSNAME
  2

  9
$PUCSORG
 10
0.0
 20
0.0
 30
0.0
  9
$PUCSXDIR
 10
1.0
 20
0.0
 30
0.0
  9
$PUCSYDIR
 10
0.0
 20
1.0
 30
0.0
  9
$PUCSORTHOREF
  2

  9
$PUCSORTHOVIEW
 70
     0
  9
$PUCSORGTOP
 10
0.0
 20
0.0
 30
0.0
  9
$PUCSORGBOTTOM
 10
0.0
 20
0.0
 30
0.0
  9
$PUCSORGLEFT
 10
0.0
 20
0.0
 30
0.0
  9
$PUCSORGRIGHT
 10
0.0
 20
0.0
 30
0.0
  9
$PUCSORGFRONT
 10
0.0
 20
0.0
 30
0.0
  9
$PUCSORGBACK
 10
0.0
 20
0.0
 30
0.0
  9
$USERI1
 70
     0
  9
$USERI2
 70
     0
  9
$USERI3
 70
     0
  9
$USERI4
 70
     0
  9
$USERI5
 70
     0
  9
$USERR1
 40
0.0
  9
$USERR2
 40
0.0
  9
$USERR3
 40
0.0
  9
$USERR4
 40
0.0
  9
$USERR5
 40
0.0
  9
$WORLDVIEW
 70
     1
  9
$SHADEDGE
 70
     3
  9
$SHADEDIF
 70
    70
  9
$TILEMODE
 70
     1
  9
$MAXACTVP
 70
    64
  9
$PINSBASE
 10
0.0
 20
0.0
 30
0.0
  9
$PLIMCHECK
 70
     0
  9
$PEXTMIN
 10
1.0000000000E+20
 20
1.0000000000E+20
 30
1.0000000000E+20
  9
$PEXTMAX
 10
-1.0000000000E+20
 20
-1.0000000000E+20
 30
-1.0000000000E+20
  9
$PLIMMIN
 10
0.0
 20
0.0
  9
$PLIMMAX
 10
420.0
 20
297.0
  9
$UNITMODE
 70
     0
  9
$VISRETAIN
 70
     1
  9
$PLINEGEN
 70
     0
  9
$PSLTSCALE
 70
     1
  9
$TREEDEPTH
 70
  3020
  9
$CMLSTYLE
  2
Standard
  9
$CMLJUST
 70
     0
  9
$CMLSCALE
 40
20.0
  9
$PROXYGRAPHICS
 70
     1
  9
$MEASUREMENT
 70
     1
  9
$CELWEIGHT
370
    -1
  9
$ENDCAPS
280
     0
  9
$JOINSTYLE
280
     0
  9
$LWDISPLAY
290
     1
  9
$INSUNITS
 70
     4
  9
$HYPERLINKBASE
  1

  9
$STYLESHEET
  1

  9
$XEDIT
290
     1
  9
$CEPSNTYPE
380
     0
  9
$PSTYLEMODE
290
     1
  9
$FINGERPRINTGUID
  2
{c025d042-2b67-4e1d-b100-ea97072dacd8}
  9
$VERSIONGUID
  2
{FAEB1C32-E019-11D5-929B-00C0DF256EC4}
  9
$EXTNAMES
290
     1
  9
$PSVPSCALE
 40
0.0
  9
$OLESTARTUP
290
     0
  0
ENDSEC
  0
SECTION
  2
CLASSES
  0
CLASS
  1
ACDBDICTIONARYWDFLT
  2
AcDbDictionaryWithDefault
  3
ObjectDBX Classes
 90
        0
280
     0
281
     0
  0
CLASS
  1
VISUALSTYLE
  2
AcDbVisualStyle
  3
ObjectDBX Classes
 90
     4095
280
     0
281
     0
  0
CLASS
  1
MATERIAL
  2
AcDbMaterial
  3
ObjectDBX Classes
 90
     1153
280
     0
281
     0
  0
CLASS
  1
SCALE
  2
AcDbScale
  3
ObjectDBX Classes
 90
     1153
280
     0
281
     0
  0
CLASS
  1
TABLESTYLE
  2
AcDbTableStyle
  3
ObjectDBX Classes
 90
     4095
280
     0
281
     0
  0
CLASS
  1
MLEADERSTYLE
  2
AcDbMLeaderStyle
  3
ACDB_MLEADERSTYLE_CLASS
 90
     4095
280
     0
281
     0
  0
CLASS
  1
SUN
  2
AcDbSun
  3
SCENEOE
 90
     1153
280
     0
281
     0
  0
CLASS
  1
ACDBPLACEHOLDER
  2
AcDbPlaceHolder
  3
ObjectDBX Classes
 90
        0
280
     0
281
     0
  0
CLASS
  1
LAYOUT
  2
AcDbLayout
  3
ObjectDBX Classes
 90
        0
280
     0
281
     0
  0
ENDSEC
  0
SECTION
  2
TABLES
  0
TABLE
  2
VPORT
  5
8
330
0
100
AcDbSymbolTable
 70
     1
  0
VPORT
  5
29
330
8
100
AcDbSymbolTableRecord
100
AcDbViewportTableRecord
  2
*Active
 70
     0
 10
0.0
 20
0.0
 11
1.0
 21
1.0
 12
215.9
 22
139.7
 13
0.0
 23
0.0
 14
10.0
 24
10.0
 15
10.0
 25
10.0
 16
0.0
 26
0.0
 36
1.0
 17
0.0
 27
0.0
 37
0.0
 40
279.4
 41
1.5454545455
 42
50.0
 43
0.0
 44
0.0
 50
0.0
 51
0.0
 71
     0
 72
  2000
 73
     1
 74
     3
 75
     0
 76
     0
 77
     0
 78
     0
281
     0
 65
     1
110
0.0
120
0.0
130
0.0
111
1.0
121
0.0
131
0.0
112
0.0
122
1.0
132
0.0
 79
     0
146
0.0
  0
ENDTAB
  0
TABLE
  2
LTYPE
  5
5
330
0
100
AcDbSymbolTable
 70
     8
  0
LTYPE
  5
14
330
5
100
AcDbSymbolTableRecord
100
AcDbLinetypeTableRecord
  2
ByBlock
 70
     0
  3

 72
    65
 73
     0
 40
0.0
  0
LTYPE
  5
15
330
5
100
AcDbSymbolTableRecord
100
AcDbLinetypeTableRecord
  2
ByLayer
 70
     0
  3

 72
    65
 73
     0
 40
0.0
  0
LTYPE
  5
16
330
5
100
AcDbSymbolTableRecord
100
AcDbLinetypeTableRecord
  2
Continuous
 70
     0
  3
Solid line
 72
    65
 73
     0
 40
0.0
  0
LTYPE
  5
5E
330
5
100
AcDbSymbolTableRecord
100
AcDbLinetypeTableRecord
  2
SLD-Сплошная
 70
     0
  3
SolidWorks Line Style
 72
    65
 73
     0
 40
0.0
  0
LTYPE
  5
5F
330
5
100
AcDbSymbolTableRecord
100
AcDbLinetypeTableRecord
  2
SLD-Штриховая
 70
     0
  3
SolidWorks Line Style
 72
    65
 73
     2
 40
1.905
 49
1.27
 74
     0
 49
-0.635
 74
     0
  0
LTYPE
  5
60
330
5
100
AcDbSymbolTableRecord
100
AcDbLinetypeTableRecord
  2
SLD-Штрихпункт.-с-двумя-точками
 70
     0
  3
SolidWorks Line Style
 72
    65
 73
     6
 40
12.7
 49
6.35
 74
     0
 49
-1.27
 74
     0
 49
1.27
 74
     0
 49
-1.27
 74
     0
 49
1.27
 74
     0
 49
-1.27
 74
     0
  0
LTYPE
  5
61
330
5
100
AcDbSymbolTableRecord
100
AcDbLinetypeTableRecord
  2
SLD-Штрихпункт.-утолщ.
 70
     0
  3
SolidWorks Line Style
 72
    65
 73
     4
 40
10.16
 49
6.35
 74
     0
 49
-1.27
 74
     0
 49
1.27
 74
     0
 49
-1.27
 74
     0
  0
LTYPE
  5
62
330
5
100
AcDbSymbolTableRecord
100
AcDbLinetypeTableRecord
  2
SLD-Осевая
 70
     0
  3
SolidWorks Line Style
 72
    65
 73
     4
 40
19.05
 49
15.24
 74
     0
 49
-1.27
 74
     0
 49
1.27
 74
     0
 49
-1.27
 74
     0
  0
LTYPE
  5
63
330
5
100
AcDbSymbolTableRecord
100
AcDbLinetypeTableRecord
  2
SLD-Сшитая
 70
     0
  3
SolidWorks Line Style
 72
    65
 73
     2
 40
0.635
 49
0.0
 74
     0
 49
-0.635
 74
     0
  0
LTYPE
  5
64
330
5
100
AcDbSymbolTableRecord
100
AcDbLinetypeTableRecord
  2
SLD-Тонкая-Толстая
 70
     0
  3
SolidWorks Line Style
 72
    65
 73
     2
 40
5.080508
 49
0.000508
 74
     0
 49
-5.08
 74
     0
  0
ENDTAB
  0
TABLE
  2
LAYER
  5
2
330
0
100
AcDbSymbolTable
 70
     3
  0
LAYER
  5
10
330
2
100
AcDbSymbolTableRecord
100
AcDbLayerTableRecord
  2
0
 70
     0
 62
     7
  6
Continuous
370
    -3
390
F
  0
LAYER
  5
65
330
2
100
AcDbSymbolTableRecord
100
AcDbLayerTableRecord
  2
ВОДЯНОЙ_ЗНАК
 70
     0
 62
    11
  6
SLD-Сплошная
370
    -3
390
F
  0
LAYER
  5
66
330
2
100
AcDbSymbolTableRecord
100
AcDbLayerTableRecord
  2
ОСНОВНОЙ
 70
     0
 62
     7
  6
SLD-Сплошная
370
    -3
390
F
  0
ENDTAB
  0
TABLE
  2
STYLE
  5
3
330
0
100
AcDbSymbolTable
 70
     1
  0
STYLE
  5
11
330
3
100
AcDbSymbolTableRecord
100
AcDbTextStyleTableRecord
  2
STANDARD
 70
     0
 40
0.0
 41
1.0
 50
0.0
 71
     0
 42
3.5
  3
GOST-TYPE-A.TTF
  4

1001
ACAD
1000
GOST TYPE A
1071
 16777250
  0
ENDTAB
  0
TABLE
  2
VIEW
  5
6
330
0
100
AcDbSymbolTable
 70
     0
  0
ENDTAB
  0
TABLE
  2
UCS
  5
7
330
0
100
AcDbSymbolTable
 70
     0
  0
ENDTAB
  0
TABLE
  2
APPID
  5
9
330
0
100
AcDbSymbolTable
 70
     1
  0
APPID
  5
12
330
9
100
AcDbSymbolTableRecord
100
AcDbRegAppTableRecord
  2
ACAD
 70
     0
  0
ENDTAB
  0
TABLE
  2
DIMSTYLE
  5
A
330
0
100
AcDbSymbolTable
 70
     1
100
AcDbDimStyleTable
  0
DIMSTYLE
105
27
330
A
100
AcDbSymbolTableRecord
100
AcDbDimStyleTableRecord
  2
ISO-25
 70
     0
 41
2.5
 42
0.625
 43
3.75
 44
1.25
 73
     0
 74
     0
 77
     1
 78
     8
140
2.5
141
2.5
143
0.0393700787
147
0.625
171
     3
172
     1
178
     0
271
     2
272
     2
274
     3
278
    44
283
     0
284
     8
340
11
  0
ENDTAB
  0
TABLE
  2
BLOCK_RECORD
  5
1
330
0
100
AcDbSymbolTable
 70
     1
  0
BLOCK_RECORD
  5
1F
330
1
100
AcDbSymbolTableRecord
100
AcDbBlockTableRecord
  2
*Model_Space
340
22
  0
BLOCK_RECORD
  5
1B
330
1
100
AcDbSymbolTableRecord
100
AcDbBlockTableRecord
  2
*Paper_Space
340
1E
  0
BLOCK_RECORD
  5
23
330
1
100
AcDbSymbolTableRecord
100
AcDbBlockTableRecord
  2
*Paper_Space0
340
26
  0
ENDTAB
  0
ENDSEC
  0
SECTION
  2
BLOCKS
  0
BLOCK
  5
20
330
1F
100
AcDbEntity
  8
0
100
AcDbBlockBegin
  2
*Model_Space
 70
     0
 10
0.0
 20
0.0
 30
0.0
  3
*Model_Space
  1

  0
ENDBLK
  5
21
330
1F
100
AcDbEntity
  8
0
100
AcDbBlockEnd
  0
BLOCK
  5
1C
330
1B
100
AcDbEntity
 67
     1
  8
0
100
AcDbBlockBegin
  2
*Paper_Space
 70
     0
 10
0.0
 20
0.0
 30
0.0
  3
*Paper_Space
  1

  0
ENDBLK
  5
1D
330
1B
100
AcDbEntity
 67
     1
  8
0
100
AcDbBlockEnd
  0
BLOCK
  5
24
330
23
100
AcDbEntity
  8
0
100
AcDbBlockBegin
  2
*Paper_Space0
 70
     0
 10
0.0
 20
0.0
 30
0.0
  3
*Paper_Space0
  1

  0
ENDBLK
  5
25
330
23
100
AcDbEntity
  8
0
100
AcDbBlockEnd
  0
ENDSEC
  0
SECTION
  2
ENTITIES
  0
ARC
  5
67
330
1F
100
AcDbEntity
  8
0
  6
SLD-Сплошная
 62
     7
370
    25
100
AcDbCircle
 10
273.8915556051
 20
151.1802665892
 30
0.0
 40
150.0
100
AcDbArc
 50
171.364314849
 51
188.635685151
  0
ARC
  5
68
330
1F
100
AcDbEntity
  8
0
  6
SLD-Сплошная
 62
     7
370
    25
100
AcDbCircle
 10
125.9280099714
 20
176.1802665892
 30
0.0
 40
2.500000000000052
100
AcDbArc
 50
180.0
 51
266.5851575402
  0
LINE
  5
69
330
1F
100
AcDbEntity
  8
0
  6
SLD-Сплошная
 62
     7
370
    25
100
AcDbLine
 10
123.4280099714
 20
187.9611828844
 30
0.0
 11
123.4280099714
 21
176.1802665892
 31
0.0
  0
ARC
  5
6A
330
1F
100
AcDbEntity
  8
0
  6
SLD-Сплошная
 62
     7
370
    25
100
AcDbCircle
 10
125.9280099714
 20
187.9611828844
 30
0.0
 40
2.499999999999986
100
AcDbArc
 50
123.801636395
 51
180.0
  0
LINE
  5
6B
330
1F
100
AcDbEntity
  8
0
  6
SLD-Сплошная
 62
     7
370
    25
100
AcDbLine
 10
142.0741973502
 20
201.7793183822
 30
0.0
 11
124.5372115999
 21
190.0386043366
 31
0.0
  0
LINE
  5
6C
330
1F
100
AcDbEntity
  8
0
  6
SLD-Сплошная
 62
     7
370
    25
100
AcDbLine
 10
123.4280099714
 20
126.1802665892
 30
0.0
 11
123.4280099714
 21
115.6302665892
 31
0.0
  0
ARC
  5
6D
330
1F
100
AcDbEntity
  8
0
  6
SLD-Сплошная
 62
     7
370
    25
100
AcDbCircle
 10
125.9280099714
 20
126.1802665892
 30
0.0
 40
2.500000000000106
100
AcDbArc
 50
93.4148424598
 51
180.0
  0
LINE
  5
6E
330
1F
100
AcDbEntity
  8
0
  6
SLD-Сплошная
 62
     7
370
    25
100
AcDbLine
 10
125.9280099714
 20
113.1302665892
 30
0.0
 11
127.8915556051
 21
113.1302665892
 31
0.0
  0
ARC
  5
6F
330
1F
100
AcDbEntity
  8
0
  6
SLD-Сплошная
 62
     7
370
    25
100
AcDbCircle
 10
125.9280099714
 20
115.6302665892
 30
0.0
 40
2.5
100
AcDbArc
 50
180.0
 51
270.0
  0
LINE
  5
70
330
1F
100
AcDbEntity
  8
0
  6
SLD-Сплошная
 62
     7
370
    25
100
AcDbLine
 10
127.8915556051
 20
112.2003907755
 30
0.0
 11
130.8915556051
 21
112.2003907755
 31
0.0
  0
LINE
  5
71
330
1F
100
AcDbEntity
  8
0
  6
SLD-Сплошная
 62
     7
370
    25
100
AcDbLine
 10
130.8915556051
 20
112.6802665892
 30
0.0
 11
133.8915556051
 21
112.6802665892
 31
0.0
  0
LINE
  5
72
330
1F
100
AcDbEntity
  8
0
  6
SLD-Сплошная
 62
     7
370
    25
100
AcDbLine
 10
147.6915556051
 20
183.2302665892
 30
0.0
 11
133.8915556051
 21
183.2302665892
 31
0.0
  0
LINE
  5
73
330
1F
100
AcDbEntity
  8
0
  6
SLD-Сплошная
 62
     7
370
    25
100
AcDbLine
 10
186.4915556051
 20
183.2302665892
 30
0.0
 11
179.6250506601
 21
183.2302665892
 31
0.0
  0
ARC
  5
74
330
1F
100
AcDbEntity
  8
0
  6
SLD-Сплошная
 62
     7
370
    25
100
AcDbCircle
 10
211.4915556051
 20
354.9923306454
 30
0.0
 40
232.5620640561955
100
AcDbArc
 50
277.1254665008
 51
283.4847162271
  0
ARC
  5
75
330
1F
100
AcDbEntity
  8
0
  6
SLD-Сплошная
 62
     7
370
    25
100
AcDbCircle
 10
211.4915556051
 20
354.9923306454
 30
0.0
 40
232.5620640561955
100
AcDbArc
 50
270.2168178752
 51
275.53511955
  0
LINE
  5
76
330
1F
100
AcDbEntity
  8
0
  6
SLD-Сплошная
 62
     7
370
    25
100
AcDbLine
 10
280.9915556051
 20
121.2327227073
 30
0.0
 11
282.9915556051
 21
121.2327227073
 31
0.0
  0
LINE
  5
77
330
1F
100
AcDbEntity
  8
0
  6
SLD-Сплошная
 62
     7
370
    25
100
AcDbLine
 10
282.9915556051
 20
181.1278104711
 30
0.0
 11
280.9915556051
 21
181.1278104711
 31
0.0
  0
ARC
  5
78
330
1F
100
AcDbEntity
  8
0
  6
SLD-Сплошная
 62
     7
370
    25
100
AcDbCircle
 10
211.4915556051
 20
-52.631797467
 30
0.0
 40
232.5620640561955
100
AcDbArc
 50
75.0488359449
 51
90.0
  0
LINE
  5
79
330
1F
100
AcDbEntity
  8
0
  6
SLD-Сплошная
 62
     7
370
    25
100
AcDbLine
 10
211.4915556051
 20
179.9302665892
 30
0.0
 11
186.4915556051
 21
179.9302665892
 31
0.0
  0
LINE
  5
7A
330
1F
100
AcDbEntity
  8
0
  6
SLD-Сплошная
 62
     7
370
    25
100
AcDbLine
 10
186.4915556051
 20
122.4302665892
 30
0.0
 11
205.9384534476
 21
122.4302665892
 31
0.0
  0
LINE
  5
7B
330
1F
100
AcDbEntity
  8
0
  6
SLD-Сплошная
 62
     7
370
    25
100
AcDbLine
 10
271.4915556051
 20
134.3802665892
 30
0.0
 11
280.9915556051
 21
134.3802665892
 31
0.0
  0
LINE
  5
7C
330
1F
100
AcDbEntity
  8
0
  6
SLD-Сплошная
 62
     7
370
    25
100
AcDbLine
 10
280.9915556051
 20
167.9802665892
 30
0.0
 11
271.4915556051
 21
167.9802665892
 31
0.0
  0
LINE
  5
7D
330
1F
100
AcDbEntity
  8
0
  6
SLD-Сплошная
 62
     7
370
    25
100
AcDbLine
 10
133.8915556051
 20
112.7302665892
 30
0.0
 11
186.4915556051
 21
112.7302665892
 31
0.0
  0
LINE
  5
7E
330
1F
100
AcDbEntity
  8
0
  6
SLD-Сплошная
 62
     7
370
    25
100
AcDbLine
 10
312.7711351321
 20
167.4285794302
 30
0.0
 11
312.7347214135
 21
168.5997832512
 31
0.0
  0
LINE
  5
7F
330
1F
100
AcDbEntity
  8
0
  6
SLD-Сплошная
 62
     7
370
    25
100
AcDbLine
 10
312.7347214135
 20
133.7607499272
 30
0.0
 11
312.7711351321
 21
134.9319537482
 31
0.0
  0
ARC
  5
80
330
1F
100
AcDbEntity
  8
0
  6
SLD-Сплошная
 62
     7
370
    25
100
AcDbCircle
 10
308.8958684339
 20
134.4486509384
 30
0.0
 40
3.900000000000068
100
AcDbArc
 50
303.1904410878
 51
349.840740668
  0
ARC
  5
81
330
1F
100
AcDbEntity
  8
0
  6
SLD-Сплошная
 62
     7
370
    25
100
AcDbCircle
 10
308.8958684339
 20
167.91188224
 30
0.0
 40
3.900000000000073
100
AcDbArc
 50
10.159259332
 51
56.7768331922
  0
SPLINE
  5
82
330
1F
100
AcDbEntity
  8
0
  6
SLD-Сплошная
 62
     7
370
    25
100
AcDbSpline
210
0.0
220
0.0
230
1.0
 70
     8
 71
     3
 72
    14
 73
    10
 74
     0
 42
0.00000001
 43
0.00000001
 40
0.0
 40
0.0
 40
0.0
 40
0.0
 40
0.259038908976047
 40
0.3872144952269499
 40
0.517756850277137
 40
0.6443105763397928
 40
0.7668665689181347
 40
0.8854229200212219
 40
1.0
 40
1.0
 40
1.0
 40
1.0
 10
290.9915556051471
 20
127.2802665892106
 30
0.0
 10
292.7870612891943
 20
127.2858534721212
 30
0.0
 10
295.4710049093773
 20
127.2942048122911
 30
0.0
 10
299.0625983214185
 20
127.2552946582639
 30
0.0
 10
301.7259873295753
 20
127.5320228068228
 30
0.0
 10
304.3029296676771
 20
128.0934842944185
 30
0.0
 10
306.7219794404446
 20
128.9090170694393
 30
0.0
 10
308.9766335119135
 20
129.9234848336376
 30
0.0
 10
310.3550258778764
 20
130.7699683100947
 30
0.0
 10
311.0324584177922
 20
131.1859858865215
 30
0.0
  0
SPLINE
  5
83
330
1F
100
AcDbEntity
  8
0
  6
SLD-Сплошная
 62
     7
370
    25
100
AcDbSpline
210
0.0
220
0.0
230
1.0
 70
     8
 71
     3
 72
    14
 73
    10
 74
     0
 42
0.00000001
 43
0.00000001
 40
0.0
 40
0.0
 40
0.0
 40
0.0
 40
0.1179373309070494
 40
0.2572473724704458
 40
0.4179351563530102
 40
0.5525139979457715
 40
0.6966137432249666
 40
0.8427082361514792
 40
1.0
 40
1.0
 40
1.0
 40
1.0
 10
311.0324584177921
 20
171.1745472919
 30
0.0
 10
310.3347231222826
 20
171.6018758639865
 30
0.0
 10
308.8128083047331
 20
172.5339738816825
 30
0.0
 10
306.1472529495286
 20
173.695057646901
 30
0.0
 10
303.2503521349465
 20
174.5480267656464
 30
0.0
 10
300.2347538542403
 20
175.0390864716226
 30
0.0
 10
297.2858106229405
 20
175.0917102522723
 30
0.0
 10
294.1851614704387
 20
175.077130799061
 30
0.0
 10
292.0819655598239
 20
175.0791959195854
 30
0.0
 10
290.9915556051471
 20
175.0802665892106
 30
0.0
  0
ARC
  5
84
330
1F
100
AcDbEntity
  8
0
  6
SLD-Сплошная
 62
     7
370
    25
100
AcDbCircle
 10
124.8512360067
 20
174.2413607244
 30
0.0
 40
1.082031461843221
100
AcDbArc
 50
329.0390458236
 51
354.3495476922
  0
SPLINE
  5
85
330
1F
100
AcDbEntity
  8
0
  6
SLD-Сплошная
 62
     7
370
    25
100
AcDbSpline
210
0.0
220
0.0
230
1.0
 70
     8
 71
     3
 72
    14
 73
    10
 74
     0
 42
0.00000001
 43
0.00000001
 40
0.0
 40
0.0
 40
0.0
 40
0.0
 40
0.25
 40
0.25
 40
0.5
 40
0.5
 40
0.75
 40
0.75
 40
1.0
 40
1.0
 40
1.0
 40
1.0
 10
126.3280099714101
 20
176.1802665892106
 30
0.0
 10
126.2939087652495
 20
175.9789827935529
 30
0.0
 10
126.259317815752
 20
175.7819261662956
 30
0.0
 10
126.1891974948692
 20
175.3959368529431
 30
0.0
 10
126.153425637579
 20
175.2059336308564
 30
0.0
 10
126.0845571137404
 20
174.8536406822822
 30
0.0
 10
126.0507579503636
 20
174.6876054554672
 30
0.0
 10
125.9862146417899
 20
174.3850577086195
 30
0.0
 10
125.9560421129054
 20
174.2510974169139
 30
0.0
 10
125.9280099714095
 20
174.1348247526599
 30
0.0
  0
ARC
  5
86
330
1F
100
AcDbEntity
  8
0
  6
SLD-Сплошная
 62
     7
370
    25
100
AcDbCircle
 10
273.8915556051
 20
151.1802665892
 30
0.0
 40
149.6662954709575
100
AcDbArc
 50
168.2610681021
 51
170.3843374027
  0
LINE
  5
87
330
1F
100
AcDbEntity
  8
0
  6
SLD-Сплошная
 62
     7
370
    25
100
AcDbLine
 10
127.3555617333
 20
120.7302665892
 30
0.0
 11
127.3555617333
 21
181.6302665892
 31
0.0
  0
ARC
  5
88
330
1F
100
AcDbEntity
  8
0
  6
SLD-Сплошная
 62
     7
370
    25
100
AcDbCircle
 10
273.8915556051
 20
151.1802665892
 30
0.0
 40
149.6662954709574
100
AcDbArc
 50
189.6156625973
 51
191.7389318979
  0
SPLINE
  5
89
330
1F
100
AcDbEntity
  8
0
  6
SLD-Сплошная
 62
     7
370
    25
100
AcDbSpline
210
0.0
220
0.0
230
1.0
 70
     8
 71
     3
 72
    14
 73
    10
 74
     0
 42
0.00000001
 43
0.00000001
 40
0.0
 40
0.0
 40
0.0
 40
0.0
 40
0.25
 40
0.25
 40
0.5
 40
0.5
 40
0.75
 40
0.75
 40
1.0
 40
1.0
 40
1.0
 40
1.0
 10
126.3280099714101
 20
126.1802665892106
 30
0.0
 10
126.2939107522002
 20
126.3815386568086
 30
0.0
 10
126.2593202522133
 20
126.5785934361919
 30
0.0
 10
126.1891976166733
 20
126.9645958189962
 30
0.0
 10
126.1534262134875
 20
127.1545965008299
 30
0.0
 10
126.0845580576383
 20
127.5068877683902
 30
0.0
 10
126.0507550646539
 20
127.6729414922214
 30
0.0
 10
125.9862144322214
 20
127.9754762096871
 30
0.0
 10
125.9560423245369
 20
128.1094348836947
 30
0.0
 10
125.9280099714102
 20
128.2257084257581
 30
0.0
  0
ARC
  5
8A
330
1F
100
AcDbEntity
  8
0
  6
SLD-Сплошная
 62
     7
370
    25
100
AcDbCircle
 10
124.8512360067
 20
128.119172454
 30
0.0
 40
1.082031461854226
100
AcDbArc
 50
5.6504523078
 51
30.9609541763
  0
LINE
  5
8B
330
1F
100
AcDbEntity
  8
0
  6
SLD-Сплошная
 62
     7
370
    25
100
AcDbLine
 10
133.8915556051
 20
119.857671952
 30
0.0
 11
133.8915556051
 21
181.6302665892
 31
0.0
  0
LINE
  5
8C
330
1F
100
AcDbEntity
  8
0
  6
SLD-Сплошная
 62
     7
370
    25
100
AcDbLine
 10
130.8915556051
 20
119.857671952
 30
0.0
 11
133.8915556051
 21
119.857671952
 31
0.0
  0
LINE
  5
8D
330
1F
100
AcDbEntity
  8
0
  6
SLD-Сплошная
 62
     7
370
    25
100
AcDbLine
 10
130.8915556051
 20
120.7302665892
 30
0.0
 11
127.3555617333
 21
120.7302665892
 31
0.0
  0
LINE
  5
8E
330
1F
100
AcDbEntity
  8
0
  6
SLD-Сплошная
 62
     7
370
    25
100
AcDbLine
 10
127.3555617333
 20
181.6302665892
 30
0.0
 11
133.8915556051
 21
181.6302665892
 31
0.0
  0
LINE
  5
8F
330
1F
100
AcDbEntity
  8
0
  6
SLD-Сплошная
 62
     7
370
    25
100
AcDbLine
 10
142.0741973502
 20
201.7793183822
 30
0.0
 11
146.5680191206
 21
201.7793183822
 31
0.0
  0
LINE
  5
90
330
1F
100
AcDbEntity
  8
0
  6
SLD-Сплошная
 62
     7
370
    25
100
AcDbLine
 10
130.8915556051
 20
120.7302665892
 30
0.0
 11
130.8915556051
 21
115.6302665892
 31
0.0
  0
LINE
  5
91
330
1F
100
AcDbEntity
  8
0
  6
SLD-Сплошная
 62
     7
370
    25
100
AcDbLine
 10
147.6915556051
 20
189.7302665892
 30
0.0
 11
142.7711726094
 21
189.7302665892
 31
0.0
  0
LINE
  5
92
330
1F
100
AcDbEntity
  8
0
  6
SLD-Сплошная
 62
     7
370
    25
100
AcDbLine
 10
133.8915556051
 20
183.7855138497
 30
0.0
 11
142.7711726094
 21
189.7302665892
 31
0.0
  0
ARC
  5
93
330
1F
100
AcDbEntity
  8
0
  6
SLD-Сплошная
 62
     7
370
    25
100
AcDbCircle
 10
152.3915556051
 20
195.9302665892
 30
0.0
 40
6.200000000000077
100
AcDbArc
 50
15.2938657321
 51
70.6298277121
  0
LINE
  5
94
330
1F
100
AcDbEntity
  8
0
  6
SLD-Сплошная
 62
     7
370
    25
100
AcDbLine
 10
154.4479099333
 20
201.7793183822
 30
0.0
 11
146.5680191206
 21
201.7793183822
 31
0.0
  0
LINE
  5
95
330
1F
100
AcDbEntity
  8
0
  6
SLD-Сплошная
 62
     7
370
    25
100
AcDbLine
 10
133.8915556051
 20
183.7855138497
 30
0.0
 11
133.8915556051
 21
181.6302665892
 31
0.0
  0
LINE
  5
96
330
1F
100
AcDbEntity
  8
0
  6
SLD-Сплошная
 62
     7
370
    25
100
AcDbLine
 10
130.8915556051
 20
115.6302665892
 30
0.0
 11
130.8915556051
 21
113.2059624694
 31
0.0
  0
LINE
  5
97
330
1F
100
AcDbEntity
  8
0
  6
SLD-Сплошная
 62
     7
370
    25
100
AcDbLine
 10
127.8915556051
 20
112.2003907755
 30
0.0
 11
127.8915556051
 21
113.2059624694
 31
0.0
  0
LINE
  5
98
330
1F
100
AcDbEntity
  8
0
  6
SLD-Сплошная
 62
     7
370
    25
100
AcDbLine
 10
130.8915556051
 20
113.2059624694
 30
0.0
 11
130.8915556051
 21
112.2003907755
 31
0.0
  0
ARC
  5
99
330
1F
100
AcDbEntity
  8
0
  6
SLD-Сплошная
 62
     7
370
    25
100
AcDbCircle
 10
135.5444556051
 20
214.8147134538
 30
0.0
 40
20.00000000000017
100
AcDbArc
 50
319.3248330178
 51
344.8904042347
  0
LINE
  5
9A
330
1F
100
AcDbEntity
  8
0
  6
SLD-Сплошная
 62
     7
370
    25
100
AcDbLine
 10
154.853035378
 20
209.6013894514
 30
0.0
 11
155.8953851273
 21
208.7744192729
 31
0.0
  0
ARC
  5
9B
330
1F
100
AcDbEntity
  8
0
  6
SLD-Сплошная
 62
     7
370
    25
100
AcDbCircle
 10
155.5846234163
 20
208.3827214825
 30
0.0
 40
0.5000000000000093
100
AcDbArc
 50
345.9533504974
 51
51.5725316321
  0
LINE
  5
9C
330
1F
100
AcDbEntity
  8
0
  6
SLD-Сплошная
 62
     7
370
    25
100
AcDbLine
 10
154.4479099333
 20
201.7793183822
 30
0.0
 11
156.0696726337
 21
208.2613655736
 31
0.0
  0
LINE
  5
9D
330
1F
100
AcDbEntity
  8
0
  6
SLD-Сплошная
 62
     7
370
    25
100
AcDbLine
 10
133.8915556051
 20
112.6802665892
 30
0.0
 11
133.8915556051
 21
119.5302665892
 31
0.0
  0
ARC
  5
9E
330
1F
100
AcDbEntity
  8
0
  6
SLD-Сплошная
 62
     7
370
    25
100
AcDbCircle
 10
152.3915556051
 20
195.9302665892
 30
0.0
 40
6.200000000000037
100
AcDbArc
 50
104.4495180551
 51
109.3701722879
  0
LINE
  5
9F
330
1F
100
AcDbEntity
  8
0
  6
SLD-Сплошная
 62
     7
370
    25
100
AcDbLine
 10
186.4915556051
 20
183.2302665892
 30
0.0
 11
186.4915556051
 21
119.8582286745
 31
0.0
  0
LINE
  5
A0
330
1F
100
AcDbEntity
  8
0
  6
SLD-Сплошная
 62
     7
370
    25
100
AcDbLine
 10
186.4915556051
 20
119.8582286745
 30
0.0
 11
133.8915556051
 21
119.8582286745
 31
0.0
  0
LINE
  5
A1
330
1F
100
AcDbEntity
  8
0
  6
SLD-Сплошная
 62
     7
370
    25
100
AcDbLine
 10
133.8915556051
 20
181.6302665892
 30
0.0
 11
133.8915556051
 21
119.8582286745
 31
0.0
  0
LINE
  5
A2
330
1F
100
AcDbEntity
  8
0
  6
SLD-Сплошная
 62
     7
370
    25
100
AcDbLine
 10
148.7815556051
 20
133.9241940619
 30
0.0
 11
170.9382222718
 21
133.9241940619
 31
0.0
  0
LINE
  5
A3
330
1F
100
AcDbEntity
  8
0
  6
SLD-Сплошная
 62
     7
370
    25
100
AcDbLine
 10
170.9382222718
 20
169.0228219946
 30
0.0
 11
148.7815556051
 21
169.0228219946
 31
0.0
  0
LINE
  5
A4
330
1F
100
AcDbEntity
  8
0
  6
SLD-Сплошная
 62
     7
370
    25
100
AcDbLine
 10
147.6915556051
 20
179.8632319171
 30
0.0
 11
184.6168848446
 21
179.8632319171
 31
0.0
  0
LINE
  5
A5
330
1F
100
AcDbEntity
  8
0
  6
SLD-Сплошная
 62
     7
370
    25
100
AcDbLine
 10
148.7815556051
 20
169.0228219946
 30
0.0
 11
148.7815556051
 21
133.9241940619
 31
0.0
  0
LINE
  5
A6
330
1F
100
AcDbEntity
  8
0
  6
SLD-Сплошная
 62
     7
370
    25
100
AcDbLine
 10
170.9382222718
 20
169.0228219946
 30
0.0
 11
170.9382222718
 21
133.9241940619
 31
0.0
  0
LINE
  5
A7
330
1F
100
AcDbEntity
  8
0
  6
SLD-Сплошная
 62
     7
370
    25
100
AcDbLine
 10
161.4256943135
 20
152.6106382617
 30
0.0
 11
158.2940835635
 21
152.6106382617
 31
0.0
  0
LINE
  5
A8
330
1F
100
AcDbEntity
  8
0
  6
SLD-Сплошная
 62
     7
370
    25
100
AcDbLine
 10
162.4695772016
 20
145.2494443619
 30
0.0
 11
161.4256943135
 21
145.2494443619
 31
0.0
  0
LINE
  5
A9
330
1F
100
AcDbEntity
  8
0
  6
SLD-Сплошная
 62
     7
370
    25
100
AcDbLine
 10
165.6011879516
 20
152.6106382617
 30
0.0
 11
162.4695772016
 21
152.6106382617
 31
0.0
  0
LINE
  5
AA
330
1F
100
AcDbEntity
  8
0
  6
SLD-Сплошная
 62
     7
370
    25
100
AcDbLine
 10
165.6011879516
 20
152.6106382617
 30
0.0
 11
165.6011879516
 21
141.7067915125
 31
0.0
  0
LINE
  5
AB
330
1F
100
AcDbEntity
  8
0
  6
SLD-Сплошная
 62
     7
370
    25
100
AcDbLine
 10
158.2940835635
 20
141.7067915125
 30
0.0
 11
165.6011879516
 21
141.7067915125
 31
0.0
  0
LINE
  5
AC
330
1F
100
AcDbEntity
  8
0
  6
SLD-Сплошная
 62
     7
370
    25
100
AcDbLine
 10
158.2940835635
 20
152.6106382617
 30
0.0
 11
158.2940835635
 21
141.7067915125
 31
0.0
  0
LINE
  5
AD
330
1F
100
AcDbEntity
  8
0
  6
SLD-Сплошная
 62
     7
370
    25
100
AcDbLine
 10
161.4256943135
 20
152.6106382617
 30
0.0
 11
161.4256943135
 21
145.2494443619
 31
0.0
  0
LINE
  5
AE
330
1F
100
AcDbEntity
  8
0
  6
SLD-Сплошная
 62
     7
370
    25
100
AcDbLine
 10
162.4695772016
 20
152.6106382617
 30
0.0
 11
162.4695772016
 21
145.2494443619
 31
0.0
  0
LINE
  5
AF
330
1F
100
AcDbEntity
  8
0
  6
SLD-Сплошная
 62
     7
370
    25
100
AcDbLine
 10
157.2502006754
 20
152.6106382617
 30
0.0
 11
154.1185899254
 21
152.6106382617
 31
0.0
  0
LINE
  5
B0
330
1F
100
AcDbEntity
  8
0
  6
SLD-Сплошная
 62
     7
370
    25
100
AcDbLine
 10
154.1185899254
 20
141.7067915125
 30
0.0
 11
157.2502006754
 21
141.7067915125
 31
0.0
  0
LINE
  5
B1
330
1F
100
AcDbEntity
  8
0
  6
SLD-Сплошная
 62
     7
370
    25
100
AcDbLine
 10
157.2502006754
 20
152.6106382617
 30
0.0
 11
157.2502006754
 21
141.7067915125
 31
0.0
  0
LINE
  5
B2
330
1F
100
AcDbEntity
  8
0
  6
SLD-Сплошная
 62
     7
370
    25
100
AcDbLine
 10
154.1185899254
 20
152.6106382617
 30
0.0
 11
154.1185899254
 21
141.7067915125
 31
0.0
  0
LINE
  5
B3
330
1F
100
AcDbEntity
  8
0
  6
SLD-Сплошная
 62
     7
370
    25
100
AcDbLine
 10
154.1185899254
 20
157.2706542384
 30
0.0
 11
154.1185899254
 21
153.6525130539
 31
0.0
  0
LINE
  5
B4
330
1F
100
AcDbEntity
  8
0
  6
SLD-Сплошная
 62
     7
370
    25
100
AcDbLine
 10
159.7132899528
 20
157.2706542384
 30
0.0
 11
154.1185899254
 21
157.2706542384
 31
0.0
  0
LINE
  5
B5
330
1F
100
AcDbEntity
  8
0
  6
SLD-Сплошная
 62
     7
370
    25
100
AcDbLine
 10
159.7132899528
 20
157.3910445649
 30
0.0
 11
159.7132899528
 21
157.2706542384
 31
0.0
  0
SPLINE
  5
B6
330
1F
100
AcDbEntity
  8
0
  6
SLD-Сплошная
 62
     7
370
    25
100
AcDbSpline
210
0.0
220
0.0
230
1.0
 70
     8
 71
     3
 72
     8
 73
     4
 74
     0
 42
0.00000001
 43
0.00000001
 40
0.0
 40
0.0
 40
0.0
 40
0.0
 40
1.0
 40
1.0
 40
1.0
 40
1.0
 10
154.1185899253793
 20
161.9002574176479
 30
0.0
 10
155.9839359294001
 20
160.4300954524167
 30
0.0
 10
157.8483648343037
 20
158.9219797740606
 30
0.0
 10
159.7132899528086
 20
157.3910445648592
 30
0.0
  0
LINE
  5
B7
330
1F
100
AcDbEntity
  8
0
  6
SLD-Сплошная
 62
     7
370
    25
100
AcDbLine
 10
154.1185899254
 20
165.6472264699
 30
0.0
 11
154.1185899254
 21
161.9002574176
 31
0.0
  0
SPLINE
  5
B8
330
1F
100
AcDbEntity
  8
0
  6
SLD-Сплошная
 62
     7
370
    25
100
AcDbSpline
210
0.0
220
0.0
230
1.0
 70
     8
 71
     3
 72
     8
 73
     4
 74
     0
 42
0.00000001
 43
0.00000001
 40
0.0
 40
0.0
 40
0.0
 40
0.0
 40
1.0
 40
1.0
 40
1.0
 40
1.0
 10
159.859888938482
 20
161.2180865587791
 30
0.0
 10
157.946225738579
 20
162.7381547880136
 30
0.0
 10
156.0329843110566
 20
164.2197516317929
 30
0.0
 10
154.1185899253793
 20
165.6472264698704
 30
0.0
  0
SPLINE
  5
B9
330
1F
100
AcDbEntity
  8
0
  6
SLD-Сплошная
 62
     7
370
    25
100
AcDbSpline
210
0.0
220
0.0
230
1.0
 70
     8
 71
     3
 72
     8
 73
     4
 74
     0
 42
0.00000001
 43
0.00000001
 40
0.0
 40
0.0
 40
0.0
 40
0.0
 40
1.0
 40
1.0
 40
1.0
 40
1.0
 10
165.6011879515794
 20
165.6472264698704
 30
0.0
 10
163.6867933274668
 20
164.2197514540015
 30
0.0
 10
161.7735523393346
 20
162.738154947634
 30
0.0
 10
159.859888938482
 20
161.2180865587791
 30
0.0
  0
LINE
  5
BA
330
1F
100
AcDbEntity
  8
0
  6
SLD-Сплошная
 62
     7
370
    25
100
AcDbLine
 10
165.6011879516
 20
165.6472264699
 30
0.0
 11
165.6011879516
 21
161.9002574176
 31
0.0
  0
SPLINE
  5
BB
330
1F
100
AcDbEntity
  8
0
  6
SLD-Сплошная
 62
     7
370
    25
100
AcDbSpline
210
0.0
220
0.0
230
1.0
 70
     8
 71
     3
 72
     8
 73
     4
 74
     0
 42
0.00000001
 43
0.00000001
 40
0.0
 40
0.0
 40
0.0
 40
0.0
 40
1.0
 40
1.0
 40
1.0
 40
1.0
 10
160.0064879241493
 20
157.3910445648609
 30
0.0
 10
161.8714129346846
 20
158.9219796854282
 30
0.0
 10
163.7358420808861
 20
160.4300955574987
 30
0.0
 10
165.6011879515794
 20
161.9002574176479
 30
0.0
  0
LINE
  5
BC
330
1F
100
AcDbEntity
  8
0
  6
SLD-Сплошная
 62
     7
370
    25
100
AcDbLine
 10
160.0064879241
 20
157.3910445649
 30
0.0
 11
160.0064879242
 21
157.2706542384
 31
0.0
  0
LINE
  5
BD
330
1F
100
AcDbEntity
  8
0
  6
SLD-Сплошная
 62
     7
370
    25
100
AcDbLine
 10
165.6011879516
 20
157.2706542384
 30
0.0
 11
160.0064879242
 21
157.2706542384
 31
0.0
  0
LINE
  5
BE
330
1F
100
AcDbEntity
  8
0
  6
SLD-Сплошная
 62
     7
370
    25
100
AcDbLine
 10
154.1185899254
 20
153.6525130539
 30
0.0
 11
165.6011879516
 21
153.6525130539
 31
0.0
  0
LINE
  5
BF
330
1F
100
AcDbEntity
  8
0
  6
SLD-Сплошная
 62
     7
370
    25
100
AcDbLine
 10
165.6011879516
 20
157.2706542384
 30
0.0
 11
165.6011879516
 21
153.6525130539
 31
0.0
  0
SPLINE
  5
C0
330
1F
100
AcDbEntity
  8
0
  6
SLD-Сплошная
 62
     7
370
    25
100
AcDbSpline
210
0.0
220
0.0
230
1.0
 70
     8
 71
     3
 72
    28
 73
    24
 74
     0
 42
0.00000001
 43
0.00000001
 40
0.0
 40
0.0
 40
0.0
 40
0.0
 40
0.125
 40
0.125
 40
0.1874999999999999
 40
0.1874999999999999
 40
0.2499999999999998
 40
0.2499999999999998
 40
0.3749999999999998
 40
0.3749999999999998
 40
0.4374999999999997
 40
0.4374999999999997
 40
0.4999999999999997
 40
0.4999999999999997
 40
0.6249999999999996
 40
0.6249999999999996
 40
0.6874999999999996
 40
0.6874999999999996
 40
0.7499999999999996
 40
0.7499999999999996
 40
0.8749999999999998
 40
0.8749999999999998
 40
1.0
 40
1.0
 40
1.0
 40
1.0
 10
240.3384204590939
 20
124.2262758925979
 30
0.0
 10
240.3384204591219
 20
124.2262758926014
 30
0.0
 10
240.3919345875601
 20
124.3420341681559
 30
0.0
 10
240.5483553045019
 20
124.6809932002493
 30
0.0
 10
240.6132512809779
 20
124.8216851729654
 30
0.0
 10
240.7686135111967
 20
125.1588374416918
 30
0.0
 10
240.8596061112209
 20
125.3564493902392
 30
0.0
 10
241.1672613433334
 20
126.0253781094416
 30
0.0
 10
241.4175507369613
 20
126.5705067121821
 30
0.0
 10
241.8560831654365
 20
127.5289656548807
 30
0.0
 10
242.0128146676848
 20
127.8720421643046
 30
0.0
 10
242.3474739728327
 20
128.6055042604359
 30
0.0
 10
242.5255980397245
 20
128.9963750387365
 30
0.0
 10
243.081604945638
 20
130.2187784872359
 30
0.0
 10
243.4839607244011
 20
131.1059210832131
 30
0.0
 10
244.1318371599103
 20
132.5396679257212
 30
0.0
 10
244.3551998902332
 20
133.0348482218056
 30
0.0
 10
244.8169817598949
 20
134.0598207623009
 30
0.0
 10
245.0552108286091
 20
134.5892699798893
 30
0.0
 10
245.7796792545013
 20
136.202341591598
 30
0.0
 10
246.279864207036
 20
137.3189744694824
 30
0.0
 10
247.3120955270399
 20
139.6308887849609
 30
0.0
 10
247.8441147250918
 20
140.8262000561829
 30
0.0
 10
248.3927563157083
 20
142.0615833317997
 30
0.0
  0
SPLINE
  5
C1
330
1F
100
AcDbEntity
  8
0
  6
SLD-Сплошная
 62
     7
370
    25
100
AcDbSpline
210
0.0
220
0.0
230
1.0
 70
     8
 71
     3
 72
    38
 73
    34
 74
     0
 42
0.00000001
 43
0.00000001
 40
0.0
 40
0.0
 40
0.0
 40
0.0
 40
0.0625
 40
0.0625
 40
0.125
 40
0.125
 40
0.1875
 40
0.1875
 40
0.25
 40
0.25
 40
0.3125
 40
0.3125
 40
0.375
 40
0.375
 40
0.4375
 40
0.4375
 40
0.5
 40
0.5
 40
0.5625
 40
0.5625
 40
0.625
 40
0.625
 40
0.6875
 40
0.6875
 40
0.75
 40
0.75
 40
0.8125
 40
0.8125
 40
0.875
 40
0.875
 40
0.9375
 40
0.9375
 40
1.0
 40
1.0
 40
1.0
 40
1.0
 10
242.6666947246097
 20
144.3312917506506
 30
0.0
 10
242.7476603952963
 20
144.5242341426932
 30
0.0
 10
242.8453912338601
 20
144.7079789341309
 30
0.0
 10
243.0738996799655
 20
145.0571604786246
 30
0.0
 10
243.2063294508731
 20
145.2242346554927
 30
0.0
 10
243.4991103653652
 20
145.5293979643385
 30
0.0
 10
243.6581479933591
 20
145.6668320959451
 30
0.0
 10
244.0019227659599
 20
145.9108635291323
 30
0.0
 10
244.1886963539835
 20
146.0180196122956
 30
0.0
 10
244.5730311703616
 20
146.1903469496399
 30
0.0
 10
244.7719353935137
 20
146.2569322991949
 30
0.0
 10
245.1837766608082
 20
146.349499853863
 30
0.0
 10
245.3945383172092
 20
146.374471807401
 30
0.0
 10
245.8109328557279
 20
146.3808087652961
 30
0.0
 10
246.0204911344236
 20
146.3623415095149
 30
0.0
 10
246.4305594988662
 20
146.2822376377618
 30
0.0
 10
246.6279177417055
 20
146.2216301808668
 30
0.0
 10
247.0076833643492
 20
146.0608799029056
 30
0.0
 10
247.1910694256787
 20
145.9595542955031
 30
0.0
 10
247.5272490378773
 20
145.7260656826874
 30
0.0
 10
247.68208681943
 20
145.5933292249769
 30
0.0
 10
247.9650146850875
 20
145.2961371494641
 30
0.0
 10
248.0900127963881
 20
145.1346130223846
 30
0.0
 10
248.3046304217742
 20
144.7925733495826
 30
0.0
 10
248.395603862318
 20
144.6095214512874
 30
0.0
 10
248.5390379737598
 20
144.2308303644748
 30
0.0
 10
248.5912487300717
 20
144.0370161589325
 30
0.0
 10
248.6576846209242
 20
143.6408955383553
 30
0.0
 10
248.6716118965223
 20
143.4367069324043
 30
0.0
 10
248.6596141152799
 20
143.0346344062312
 30
0.0
 10
248.6342533658517
 20
142.8354947803358
 30
0.0
 10
248.5444193855525
 20
142.4409445790908
 30
0.0
 10
248.4793414022867
 20
142.2454402326316
 30
0.0
 10
248.3969489306361
 20
142.0599585586052
 30
0.0
  0
SPLINE
  5
C2
330
1F
100
AcDbEntity
  8
0
  6
SLD-Сплошная
 62
     7
370
    25
100
AcDbSpline
210
0.0
220
0.0
230
1.0
 70
     8
 71
     3
 72
    30
 73
    26
 74
     0
 42
0.00000001
 43
0.00000001
 40
0.0
 40
0.0
 40
0.0
 40
0.0
 40
0.1249999999999999
 40
0.1249999999999999
 40
0.1875
 40
0.1875
 40
0.25
 40
0.25
 40
0.3750000000000001
 40
0.3750000000000001
 40
0.4375000000000001
 40
0.4375000000000001
 40
0.5000000000000002
 40
0.5000000000000002
 40
0.625
 40
0.625
 40
0.6875
 40
0.6875
 40
0.75
 40
0.75
 40
0.8749999999999999
 40
0.8749999999999999
 40
0.9375
 40
0.9375
 40
1.0
 40
1.0
 40
1.0
 40
1.0
 10
242.6674216564614
 20
144.3309973638538
 30
0.0
 10
242.0747503450119
 20
142.9178957085478
 30
0.0
 10
241.4959945014573
 20
141.5398496000506
 30
0.0
 10
240.6505092963521
 20
139.5244884332827
 30
0.0
 10
240.372440638033
 20
138.8613757191899
 30
0.0
 10
239.8238444507613
 20
137.5530701318473
 30
0.0
 10
239.5536701248696
 20
136.9089277337871
 30
0.0
 10
238.7669307974322
 20
135.034301210868
 30
0.0
 10
238.2698920570057
 20
133.8508662459143
 30
0.0
 10
237.5666617196336
 20
132.1770424245328
 30
0.0
 10
237.3391853370237
 20
131.6361004896446
 30
0.0
 10
236.8994196123276
 20
130.5895567110474
 30
0.0
 10
236.686717341252
 20
130.0831976163184
 30
0.0
 10
236.0839756245859
 20
128.6488768771792
 30
0.0
 10
235.7245653268556
 20
127.7944641254687
 30
0.0
 10
235.2505160644696
 20
126.6676162113788
 30
0.0
 10
235.103201972942
 20
126.3179344982788
 30
0.0
 10
234.831717819471
 20
125.672587038965
 30
0.0
 10
234.7071187754547
 20
125.3759413682802
 30
0.0
 10
234.3754189860043
 20
124.5876523357954
 30
0.0
 10
234.2084160068088
 20
124.190853023549
 30
0.0
 10
234.0389940641962
 20
123.7883154356887
 30
0.0
 10
233.9961154825956
 20
123.686426212182
 30
0.0
 10
233.9384604137242
 20
123.5494507870931
 30
0.0
 10
233.9238141001761
 20
123.5146699157146
 30
0.0
 10
233.9238141002299
 20
123.5146699157198
 30
0.0
  0
SPLINE
  5
C3
330
1F
100
AcDbEntity
  8
0
  6
SLD-Сплошная
 62
     7
370
    25
100
AcDbSpline
210
0.0
220
0.0
230
1.0
 70
     8
 71
     3
 72
    30
 73
    26
 74
     0
 42
0.00000001
 43
0.00000001
 40
0.0
 40
0.0
 40
0.0
 40
0.0
 40
0.1250000000000006
 40
0.1250000000000006
 40
0.1875000000000008
 40
0.1875000000000008
 40
0.2500000000000011
 40
0.2500000000000011
 40
0.3750000000000014
 40
0.3750000000000014
 40
0.4375000000000017
 40
0.4375000000000017
 40
0.4687500000000017
 40
0.4687500000000017
 40
0.5000000000000017
 40
0.5000000000000017
 40
0.6250000000000012
 40
0.6250000000000012
 40
0.7500000000000008
 40
0.7500000000000008
 40
0.8125000000000007
 40
0.8125000000000007
 40
0.8750000000000006
 40
0.8750000000000006
 40
1.0
 40
1.0
 40
1.0
 40
1.0
 10
221.0648662830077
 20
141.964784486784
 30
0.0
 10
220.4647748856904
 20
140.6020075398171
 30
0.0
 10
219.8813044390252
 20
139.2799282016591
 30
0.0
 10
219.0319807318587
 20
137.3576369681605
 30
0.0
 10
218.7531814465505
 20
136.727063629668
 30
0.0
 10
218.2043569460988
 20
135.4868941751065
 30
0.0
 10
217.9345718792508
 20
134.877892885364
 30
0.0
 10
217.1499366738727
 20
133.1089327553284
 30
0.0
 10
216.6559500654113
 20
131.9976245109175
 30
0.0
 10
215.9593778639761
 20
130.4342364942557
 30
0.0
 10
215.7345674342146
 20
129.9304545861491
 30
0.0
 10
215.409206273961
 20
129.2016621239668
 30
0.0
 10
215.3027208582334
 20
128.9632192356306
 30
0.0
 10
215.0937412548386
 20
128.4955473293462
 30
0.0
 10
214.9910920140287
 20
128.2659762255772
 30
0.0
 10
214.4923566808242
 20
127.1519599141601
 30
0.0
 10
214.1368685287569
 20
126.3607290530898
 30
0.0
 10
213.5162855900112
 20
124.9771252557462
 30
0.0
 10
213.2509896310409
 20
124.3847039539646
 30
0.0
 10
212.9232943964919
 20
123.6567294290716
 30
0.0
 10
212.8267031368787
 20
123.442973303157
 30
0.0
 10
212.6615505700366
 20
123.0775713332586
 30
0.0
 10
212.5925846087794
 20
122.9250391706917
 30
0.0
 10
212.4267389936498
 20
122.5575049476987
 30
0.0
 10
212.3708676818611
 20
122.4319289250154
 30
0.0
 10
212.370867681831
 20
122.4319289250153
 30
0.0
  0
SPLINE
  5
C4
330
1F
100
AcDbEntity
  8
0
  6
SLD-Сплошная
 62
     7
370
    25
100
AcDbSpline
210
0.0
220
0.0
230
1.0
 70
     8
 71
     3
 72
    38
 73
    34
 74
     0
 42
0.00000001
 43
0.00000001
 40
0.0
 40
0.0
 40
0.0
 40
0.0
 40
0.0625
 40
0.0625
 40
0.125
 40
0.125
 40
0.1875
 40
0.1875
 40
0.25
 40
0.25
 40
0.3125
 40
0.3125
 40
0.375
 40
0.375
 40
0.4375
 40
0.4375
 40
0.5
 40
0.5
 40
0.5625
 40
0.5625
 40
0.625
 40
0.625
 40
0.6875
 40
0.6875
 40
0.75
 40
0.75
 40
0.8125
 40
0.8125
 40
0.875
 40
0.875
 40
0.9375
 40
0.9375
 40
1.0
 40
1.0
 40
1.0
 40
1.0
 10
215.2632931952893
 20
144.424133526023
 30
0.0
 10
215.3441397398684
 20
144.6131059744147
 30
0.0
 10
215.4425292605426
 20
144.7941327057083
 30
0.0
 10
215.6756533553011
 20
145.1394943867388
 30
0.0
 10
215.8100610085262
 20
145.3024494876854
 30
0.0
 10
216.1045706961122
 20
145.5965676969309
 30
0.0
 10
216.2658470215915
 20
145.7296325849673
 30
0.0
 10
216.6183634615223
 20
145.965627970775
 30
0.0
 10
216.8038941485836
 20
146.0646550624018
 30
0.0
 10
217.1915729041805
 20
146.2246376597073
 30
0.0
 10
217.3964373862093
 20
146.2861424179429
 30
0.0
 10
217.8117581391188
 20
146.3656043849031
 30
0.0
 10
218.0209524575577
 20
146.3839236343333
 30
0.0
 10
218.4424017851097
 20
146.3778856158742
 30
0.0
 10
218.6554380724327
 20
146.3527947021948
 30
0.0
 10
219.0650516245345
 20
146.2615714633299
 30
0.0
 10
219.2641453958625
 20
146.1956177548229
 30
0.0
 10
219.6506138636172
 20
146.0222111013298
 30
0.0
 10
219.8318460738484
 20
145.9174674782837
 30
0.0
 10
220.1703510431023
 20
145.6748525163046
 30
0.0
 10
220.3293045164304
 20
145.5350831675003
 30
0.0
 10
220.6131101256566
 20
145.2312878719852
 30
0.0
 10
220.7385392553483
 20
145.0675175774989
 30
0.0
 10
220.9570788906892
 20
144.716970598243
 30
0.0
 10
221.0497097185702
 20
144.5299214366914
 30
0.0
 10
221.1951371214982
 20
144.1483605641862
 30
0.0
 10
221.2492172657947
 20
143.9520155548373
 30
0.0
 10
221.3192999693937
 20
143.5481146211717
 30
0.0
 10
221.3343485686888
 20
143.3451004733734
 30
0.0
 10
221.3255851301717
 20
142.9421176881746
 30
0.0
 10
221.3016513383691
 20
142.7401619996162
 30
0.0
 10
221.2140402557851
 20
142.3428763771048
 30
0.0
 10
221.1511731031334
 20
142.1500754799858
 30
0.0
 10
221.0688728118501
 20
141.963121486896
 30
0.0
  0
SPLINE
  5
C5
330
1F
100
AcDbEntity
  8
0
  6
SLD-Сплошная
 62
     7
370
    25
100
AcDbSpline
210
0.0
220
0.0
230
1.0
 70
     8
 71
     3
 72
    10
 73
     6
 74
     0
 42
0.00000001
 43
0.00000001
 40
0.0
 40
0.0
 40
0.0
 40
0.0
 40
0.5
 40
0.5
 40
1.0
 40
1.0
 40
1.0
 40
1.0
 10
211.4915556051471
 20
135.5929201460847
 30
0.0
 10
212.076219201716
 20
136.963535054308
 30
0.0
 10
212.6840918176061
 20
138.3873878617829
 30
0.0
 10
213.9436319140088
 20
141.3365920946799
 30
0.0
 10
214.5971879347258
 20
142.8672638584999
 30
0.0
 10
215.2633580530873
 20
144.4241054621923
 30
0.0
  0
SPLINE
  5
C6
330
1F
100
AcDbEntity
  8
0
  6
SLD-Сплошная
 62
     7
370
    25
100
AcDbSpline
210
0.0
220
0.0
230
1.0
 70
     8
 71
     3
 72
    70
 73
    66
 74
     0
 42
0.00000001
 43
0.00000001
 40
0.0
 40
0.0
 40
0.0
 40
0.0
 40
0.0624999999999997
 40
0.0624999999999997
 40
0.0781249999999996
 40
0.0781249999999996
 40
0.0937499999999995
 40
0.0937499999999995
 40
0.1249999999999993
 40
0.1249999999999993
 40
0.1562499999999992
 40
0.1562499999999992
 40
0.1718749999999991
 40
0.1718749999999991
 40
0.1874999999999989
 40
0.1874999999999989
 40
0.2499999999999986
 40
0.2499999999999986
 40
0.2656249999999986
 40
0.2656249999999986
 40
0.2812499999999985
 40
0.2812499999999985
 40
0.3124999999999984
 40
0.3124999999999984
 40
0.3281249999999983
 40
0.3281249999999983
 40
0.3437499999999982
 40
0.3437499999999982
 40
0.3749999999999981
 40
0.3749999999999981
 40
0.3906249999999979
 40
0.3906249999999979
 40
0.4062499999999977
 40
0.4062499999999977
 40
0.4374999999999976
 40
0.4374999999999976
 40
0.4531249999999977
 40
0.4531249999999977
 40
0.4687499999999978
 40
0.4687499999999978
 40
0.4999999999999981
 40
0.4999999999999981
 40
0.5156249999999982
 40
0.5156249999999982
 40
0.5312499999999983
 40
0.5312499999999983
 40
0.5624999999999987
 40
0.5624999999999987
 40
0.5781249999999988
 40
0.5781249999999988
 40
0.5937499999999989
 40
0.5937499999999989
 40
0.624999999999999
 40
0.624999999999999
 40
0.7499999999999993
 40
0.7499999999999993
 40
0.8749999999999997
 40
0.8749999999999997
 40
0.9374999999999999
 40
0.9374999999999999
 40
0.96875
 40
0.96875
 40
0.9843750000000001
 40
0.9843750000000001
 40
1.0
 40
1.0
 40
1.0
 40
1.0
 10
265.7219720832524
 20
128.8415500438588
 30
0.0
 10
265.7219720833211
 20
128.8415500438753
 30
0.0
 10
265.7255832220013
 20
129.0739002619393
 30
0.0
 10
265.7261666145604
 20
129.6433466495228
 30
0.0
 10
265.7261385632443
 20
129.7714047708523
 30
0.0
 10
265.7257953338171
 20
130.0564575825225
 30
0.0
 10
265.7254786153038
 20
130.2138106024715
 30
0.0
 10
265.724264312255
 20
130.7229701741821
 30
0.0
 10
265.7230654064934
 20
131.1134391006632
 30
0.0
 10
265.7217411710929
 20
131.9941954932967
 30
0.0
 10
265.7220293276873
 20
132.4845714401486
 30
0.0
 10
265.7222142079011
 20
133.296322575384
 30
0.0
 10
265.7222563803606
 20
133.5804606736855
 30
0.0
 10
265.7222526384082
 20
134.1710986624897
 30
0.0
 10
265.7222070741826
 20
134.4762703104749
 30
0.0
 10
265.7218943519684
 20
136.050252265842
 30
0.0
 10
265.7219741259249
 20
137.4613136252861
 30
0.0
 10
265.72197273995
 20
139.4190609463907
 30
0.0
 10
265.7219721273709
 20
139.819748479017
 30
0.0
 10
265.7219720431038
 20
140.6305491943899
 30
0.0
 10
265.7263953253502
 20
141.0427060061471
 30
0.0
 10
265.6908877013314
 20
142.2873301610335
 30
0.0
 10
265.6101186379261
 20
143.1293844399911
 30
0.0
 10
265.3896569873019
 20
144.4069568261513
 30
0.0
 10
265.2995503817349
 20
144.8352236654081
 30
0.0
 10
265.0830713121392
 20
145.6958385407385
 30
0.0
 10
264.9558526364953
 20
146.1306885878
 30
0.0
 10
264.5219090809504
 20
147.418340624454
 30
0.0
 10
264.1640647856539
 20
148.253204336903
 30
0.0
 10
263.5202188190515
 20
149.4641028332433
 30
0.0
 10
263.2877718056906
 20
149.8608496032793
 30
0.0
 10
262.7860636218833
 20
150.6393745274839
 30
0.0
 10
262.5156277431201
 20
151.0224341527905
 30
0.0
 10
261.6630035807956
 20
152.125948480572
 30
0.0
 10
261.0365875105936
 20
152.8077076572671
 30
0.0
 10
260.0069311865685
 20
153.7430554146367
 30
0.0
 10
259.6485951716862
 20
154.0401780527068
 30
0.0
 10
258.9017386315104
 20
154.6046802111719
 30
0.0
 10
258.5134274567049
 20
154.871571573666
 30
0.0
 10
257.3270998064406
 20
155.6117093986735
 30
0.0
 10
256.5005740123897
 20
156.0310670432173
 30
0.0
 10
255.2076320597507
 20
156.5459257496903
 30
0.0
 10
254.7676391658117
 20
156.6981920643001
 30
0.0
 10
253.868933150958
 20
156.9620379946889
 30
0.0
 10
253.41515827711
 20
157.0726640341514
 30
0.0
 10
252.0523165337779
 20
157.340081673539
 30
0.0
 10
251.1370913948106
 20
157.4343844490948
 30
0.0
 10
249.7547226585111
 20
157.4514619965589
 30
0.0
 10
249.2909445105077
 20
157.43640925851
 30
0.0
 10
248.3666336832177
 20
157.3648923419118
 30
0.0
 10
247.9084028913279
 20
157.3076452849852
 30
0.0
 10
246.5433483138357
 20
157.0811599020648
 30
0.0
 10
245.6320091944658
 20
156.9298999888699
 30
0.0
 10
241.0688025328186
 20
156.1730279521667
 30
0.0
 10
237.3956288161534
 20
155.5655701897734
 30
0.0
 10
230.0268206820817
 20
154.3550045919366
 30
0.0
 10
226.3269506229949
 20
153.7510296375335
 30
0.0
 10
220.7693631287462
 20
152.8463928246194
 30
0.0
 10
218.9156713962239
 20
152.5450340049923
 30
0.0
 10
216.1335267351708
 20
152.0925258707145
 30
0.0
 10
215.2058775585953
 20
151.941609164779
 30
0.0
 10
213.8140207665831
 20
151.7150023834697
 30
0.0
 10
213.3500036347802
 20
151.6394344150388
 30
0.0
 10
212.4218491988946
 20
151.4881747365963
 30
0.0
 10
211.9577035597022
 20
151.4126324599225
 30
0.0
 10
211.4915556051471
 20
151.3505350583729
 30
0.0
  0
SPLINE
  5
C7
330
1F
100
AcDbEntity
  8
0
  6
SLD-Сплошная
 62
     7
370
    25
100
AcDbSpline
210
0.0
220
0.0
230
1.0
 70
     8
 71
     3
 72
    12
 73
     8
 74
     0
 42
0.00000001
 43
0.00000001
 40
0.6435741536213803
 40
0.6435741536213803
 40
0.6435741536213803
 40
0.6435741536213803
 40
0.7041255633417064
 40
0.7041255633417064
 40
0.8291255633417064
 40
0.8291255633417064
 40
0.9355514097203261
 40
0.9355514097203261
 40
0.9355514097203261
 40
0.9355514097203261
 10
271.4893038958572
 20
130.3074649677988
 30
0.0
 10
271.3021183477647
 20
129.8703861255777
 30
0.0
 10
271.0339016082418
 20
129.4680519886253
 30
0.0
 10
270.0034226177447
 20
128.4375729981282
 30
0.0
 10
269.0277203516292
 20
128.033423886665
 30
0.0
 10
267.2101060045445
 20
128.033423886665
 30
0.0
 10
266.3786216604507
 20
128.3263889464545
 30
0.0
 10
265.7215255635025
 20
128.8419002965216
 30
0.0
  0
SPLINE
  5
C8
330
1F
100
AcDbEntity
  8
0
  6
SLD-Сплошная
 62
     7
370
    25
100
AcDbSpline
210
0.0
220
0.0
230
1.0
 70
     8
 71
     3
 72
    22
 73
    18
 74
     0
 42
0.00000001
 43
0.00000001
 40
0.0
 40
0.0
 40
0.0
 40
0.0
 40
0.2499999999999993
 40
0.2499999999999993
 40
0.3124999999999993
 40
0.3124999999999993
 40
0.3749999999999993
 40
0.3749999999999993
 40
0.4999999999999996
 40
0.4999999999999996
 40
0.6249999999999998
 40
0.6249999999999998
 40
0.6874999999999998
 40
0.6874999999999998
 40
0.7499999999999998
 40
0.7499999999999998
 40
1.0
 40
1.0
 40
1.0
 40
1.0
 10
211.4915556051471
 20
151.3505350583725
 30
0.0
 10
209.2262909383771
 20
151.048770246892
 30
0.0
 10
206.9592257492076
 20
151.0044102759142
 30
0.0
 10
204.1231630176299
 20
151.2679643010212
 30
0.0
 10
203.5549032843742
 20
151.3369877908056
 30
0.0
 10
202.4302942773381
 20
151.5060236801093
 30
0.0
 10
201.8725442324791
 20
151.6059801859717
 30
0.0
 10
200.212597403313
 20
151.9508659542054
 30
0.0
 10
199.1236240853985
 20
152.2405485715901
 30
0.0
 10
196.9810800255174
 20
152.9391348890547
 30
0.0
 10
195.9274927886635
 20
153.34798404288
 30
0.0
 10
194.3741785776233
 20
154.0517807581352
 30
0.0
 10
193.8597404579394
 20
154.3023080500193
 30
0.0
 10
192.8522276981739
 20
154.8278366144986
 30
0.0
 10
192.3579028465497
 20
155.1033201391077
 30
0.0
 10
189.9323878260979
 20
156.5417244451983
 30
0.0
 10
188.1371824242171
 20
157.8848735770888
 30
0.0
 10
186.4915556051472
 20
159.4085640696718
 30
0.0
  0
SPLINE
  5
C9
330
1F
100
AcDbEntity
  8
0
  6
SLD-Сплошная
 62
     7
370
    25
100
AcDbSpline
210
0.0
220
0.0
230
1.0
 70
     8
 71
     3
 72
    26
 73
    22
 74
     0
 42
0.00000001
 43
0.00000001
 40
0.0
 40
0.0
 40
0.0
 40
0.0
 40
0.2499999999999998
 40
0.2499999999999998
 40
0.3124999999999998
 40
0.3124999999999998
 40
0.3749999999999998
 40
0.3749999999999998
 40
0.4999999999999996
 40
0.4999999999999996
 40
0.5624999999999997
 40
0.5624999999999997
 40
0.6249999999999996
 40
0.6249999999999996
 40
0.7499999999999996
 40
0.7499999999999996
 40
0.8749999999999997
 40
0.8749999999999997
 40
0.9374999999999998
 40
0.9374999999999998
 40
1.0
 40
1.0
 40
1.0
 40
1.0
 10
190.0312577686356
 20
164.8061635682995
 30
0.0
 10
191.3385430398466
 20
163.4714994097726
 30
0.0
 10
192.8136989357205
 20
162.2649706410877
 30
0.0
 10
194.8664871552292
 20
160.9571835112863
 30
0.0
 10
195.2889783859486
 20
160.7049896192098
 30
0.0
 10
196.1487747602675
 20
160.2259121128266
 30
0.0
 10
196.5848735035314
 20
159.9995777080806
 30
0.0
 10
197.9114027378823
 20
159.3602882448806
 30
0.0
 10
198.819846135183
 20
158.9865710220128
 30
0.0
 10
200.2194642018508
 20
158.5096341200553
 30
0.0
 10
200.692197527056
 20
158.3646686388344
 30
0.0
 10
201.6498361330341
 20
158.102654307734
 30
0.0
 10
202.1361685377921
 20
157.9853722201767
 30
0.0
 10
203.5956292518366
 20
157.6802346977064
 30
0.0
 10
204.5733074577962
 20
157.5378272210324
 30
0.0
 10
206.5381267347644
 20
157.3770797432886
 30
0.0
 10
207.5251561172339
 20
157.3572737251326
 30
0.0
 10
209.0128748006275
 20
157.4217634444047
 30
0.0
 10
209.5110027843464
 20
157.4590494607833
 30
0.0
 10
210.5044455716388
 20
157.5649463163575
 30
0.0
 10
210.9988307604976
 20
157.6348827484484
 30
0.0
 10
211.4915556051471
 20
157.7168137638313
 30
0.0
  0
SPLINE
  5
CA
330
1F
100
AcDbEntity
  8
0
  6
SLD-Сплошная
 62
     7
370
    25
100
AcDbSpline
210
0.0
220
0.0
230
1.0
 70
     8
 71
     3
 72
    76
 73
    72
 74
     0
 42
0.00000001
 43
0.00000001
 40
0.0
 40
0.0
 40
0.0
 40
0.0
 40
0.1250000000000009
 40
0.1250000000000009
 40
0.1875000000000012
 40
0.1875000000000012
 40
0.2500000000000015
 40
0.2500000000000015
 40
0.3125000000000018
 40
0.3125000000000018
 40
0.3437500000000019
 40
0.3437500000000019
 40
0.3593750000000018
 40
0.3593750000000018
 40
0.3671875000000017
 40
0.3671875000000017
 40
0.3750000000000016
 40
0.3750000000000016
 40
0.4062500000000017
 40
0.4062500000000017
 40
0.4218750000000017
 40
0.4218750000000017
 40
0.4375000000000018
 40
0.4375000000000018
 40
0.4687500000000019
 40
0.4687500000000019
 40
0.5000000000000021
 40
0.5000000000000021
 40
0.5156250000000023
 40
0.5156250000000023
 40
0.5312500000000026
 40
0.5312500000000026
 40
0.5625000000000031
 40
0.5625000000000031
 40
0.5781250000000032
 40
0.5781250000000032
 40
0.5937500000000033
 40
0.5937500000000033
 40
0.6250000000000032
 40
0.6250000000000032
 40
0.6562500000000031
 40
0.6562500000000031
 40
0.687500000000003
 40
0.687500000000003
 40
0.7187500000000029
 40
0.7187500000000029
 40
0.7343750000000028
 40
0.7343750000000028
 40
0.7500000000000026
 40
0.7500000000000026
 40
0.7656250000000024
 40
0.7656250000000024
 40
0.7812500000000023
 40
0.7812500000000023
 40
0.7968750000000022
 40
0.7968750000000022
 40
0.8125000000000021
 40
0.8125000000000021
 40
0.8437500000000019
 40
0.8437500000000019
 40
0.8593750000000017
 40
0.8593750000000017
 40
0.8750000000000014
 40
0.8750000000000014
 40
0.9062500000000011
 40
0.9062500000000011
 40
0.9375000000000008
 40
0.9375000000000008
 40
0.9687500000000004
 40
0.9687500000000004
 40
1.0
 40
1.0
 40
1.0
 40
1.0
 10
211.4915556051471
 20
157.7168137638314
 30
0.0
 10
215.4954569436396
 20
158.3825883958959
 30
0.0
 10
219.4945281993269
 20
159.0476698352077
 30
0.0
 10
225.468451116375
 20
160.0362412259596
 30
0.0
 10
227.4558173094198
 20
160.3643624655457
 30
0.0
 10
231.422393222681
 20
161.0174477948402
 30
0.0
 10
233.402608060475
 20
161.3425742114039
 30
0.0
 10
237.3485996174134
 20
161.9884552259267
 30
0.0
 10
239.314266910792
 20
162.3092154876174
 30
0.0
 10
242.2510645987578
 20
162.7866323962415
 30
0.0
 10
243.2280443280961
 20
162.9451467392374
 30
0.0
 10
244.6904759572859
 20
163.1818621191364
 30
0.0
 10
245.1774467036875
 20
163.2605906522887
 30
0.0
 10
245.9071283867282
 20
163.3783973528512
 30
0.0
 10
246.1500797344
 20
163.4189280329448
 30
0.0
 10
246.6368040011301
 20
163.4903141517639
 30
0.0
 10
246.8805105748116
 20
163.5217891834029
 30
0.0
 10
248.1008077049555
 20
163.6584449321301
 30
0.0
 10
249.0826771165171
 20
163.7020481621538
 30
0.0
 10
250.5647965990428
 20
163.6697778790916
 30
0.0
 10
251.0604046191177
 20
163.6425194922725
 30
0.0
 10
252.0547900510746
 20
163.5549642991395
 30
0.0
 10
252.5547947428334
 20
163.4943675129303
 30
0.0
 10
254.0518112818687
 20
163.2610543400451
 30
0.0
 10
255.0305540303546
 20
163.0396142669198
 30
0.0
 10
256.9506413674082
 20
162.4703615181699
 30
0.0
 10
257.8915997695424
 20
162.1211933175873
 30
0.0
 10
259.2726400323961
 20
161.4968863211278
 30
0.0
 10
259.7296736418416
 20
161.2709527243666
 30
0.0
 10
260.6234145583591
 20
160.7890713702425
 30
0.0
 10
261.0593818113151
 20
160.5337159292293
 30
0.0
 10
262.3349623609822
 20
159.7247235188183
 30
0.0
 10
263.1423597455705
 20
159.1283077011031
 30
0.0
 10
264.2879182476745
 20
158.1457669751547
 30
0.0
 10
264.6588521658041
 20
157.8036038443228
 30
0.0
 10
265.3779304875969
 20
157.0885486606525
 30
0.0
 10
265.7262873065589
 20
156.7153123227676
 30
0.0
 10
266.7207323340509
 20
155.5692872474055
 30
0.0
 10
267.3227554187002
 20
154.7644826412335
 30
0.0
 10
268.413147311525
 20
153.0798210913032
 30
0.0
 10
268.9019076826347
 20
152.2002267165965
 30
0.0
 10
269.7620255579097
 20
150.3643618695953
 30
0.0
 10
270.1216769180227
 20
149.4329258224264
 30
0.0
 10
270.7126003014259
 20
147.5568590474427
 30
0.0
 10
270.9466428858917
 20
146.6120784962392
 30
0.0
 10
271.2053055646362
 20
145.1873859578857
 30
0.0
 10
271.2766407305924
 20
144.7095000625945
 30
0.0
 10
271.3873639341205
 20
143.7681912239723
 30
0.0
 10
271.4272426764774
 20
143.3033352118784
 30
0.0
 10
271.4781448834287
 20
142.38546510962
 30
0.0
 10
271.4870145641475
 20
141.9321190129553
 30
0.0
 10
271.4871041116938
 20
141.0390661252507
 30
0.0
 10
271.4870446286616
 20
140.6006963030297
 30
0.0
 10
271.487043722489
 20
139.7405160340849
 30
0.0
 10
271.4870468106796
 20
139.3171715406233
 30
0.0
 10
271.4870391099635
 20
138.4967090494401
 30
0.0
 10
271.4870333648577
 20
138.0994704109937
 30
0.0
 10
271.4870430251259
 20
136.945840617973
 30
0.0
 10
271.4869887650918
 20
136.227323869644
 30
0.0
 10
271.4869109747172
 20
135.2254822418249
 30
0.0
 10
271.4869058090153
 20
134.9042427525277
 30
0.0
 10
271.4869452941026
 20
134.2878016787308
 30
0.0
 10
271.4869900258537
 20
133.9931649277318
 30
0.0
 10
271.4870804821098
 20
133.1625561105585
 30
0.0
 10
271.4867626750577
 20
132.6744419267994
 30
0.0
 10
271.4857162574731
 20
131.827050576495
 30
0.0
 10
271.4852124081427
 20
131.467414201597
 30
0.0
 10
271.4850429691445
 20
130.8846601205876
 30
0.0
 10
271.4853800084643
 20
130.6673195214841
 30
0.0
 10
271.4863821105043
 20
130.3760893876612
 30
0.0
 10
271.4870442942793
 20
130.3021996315359
 30
0.0
 10
271.4870442942979
 20
130.3021996315408
 30
0.0
  0
LINE
  5
CB
330
1F
100
AcDbEntity
  8
0
  6
SLD-Сплошная
 62
     7
370
    25
100
AcDbLine
 10
157.2502006754
 20
140.7154324424
 30
0.0
 11
154.1185899254
 21
140.7154324424
 31
0.0
  0
LINE
  5
CC
330
1F
100
AcDbEntity
  8
0
  6
SLD-Сплошная
 62
     7
370
    25
100
AcDbLine
 10
157.2502006754
 20
140.7154324424
 30
0.0
 11
157.2502006754
 21
137.3412048351
 31
0.0
  0
LINE
  5
CD
330
1F
100
AcDbEntity
  8
0
  6
SLD-Сплошная
 62
     7
370
    25
100
AcDbLine
 10
154.1185899254
 20
137.3412048351
 30
0.0
 11
157.2502006754
 21
137.3412048351
 31
0.0
  0
LINE
  5
CE
330
1F
100
AcDbEntity
  8
0
  6
SLD-Сплошная
 62
     7
370
    25
100
AcDbLine
 10
154.1185899254
 20
140.7154324424
 30
0.0
 11
154.1185899254
 21
137.3412048351
 31
0.0
  0
LINE
  5
CF
330
1F
100
AcDbEntity
  8
0
  6
SLD-Сплошная
 62
     7
370
    25
100
AcDbLine
 10
158.2940835635
 20
140.7154324424
 30
0.0
 11
158.2940835635
 21
137.3412048351
 31
0.0
  0
LINE
  5
D0
330
1F
100
AcDbEntity
  8
0
  6
SLD-Сплошная
 62
     7
370
    25
100
AcDbLine
 10
165.6011879516
 20
140.7154324424
 30
0.0
 11
165.6011879516
 21
137.3412048351
 31
0.0
  0
LINE
  5
D1
330
1F
100
AcDbEntity
  8
0
  6
SLD-Сплошная
 62
     7
370
    25
100
AcDbLine
 10
158.2940835635
 20
137.3412048351
 30
0.0
 11
165.6011879516
 21
137.3412048351
 31
0.0
  0
LINE
  5
D2
330
1F
100
AcDbEntity
  8
0
  6
SLD-Сплошная
 62
     7
370
    25
100
AcDbLine
 10
165.6011879516
 20
140.7154324424
 30
0.0
 11
158.2940835635
 21
140.7154324424
 31
0.0
  0
LINE
  5
D3
330
1F
100
AcDbEntity
  8
0
  6
SLD-Сплошная
 62
     7
370
    25
100
AcDbLine
 10
282.9915556051
 20
134.3706768346
 30
0.0
 11
282.9915556051
 21
138.1206768346
 31
0.0
  0
LINE
  5
D4
330
1F
100
AcDbEntity
  8
0
  6
SLD-Сплошная
 62
     7
370
    25
100
AcDbLine
 10
282.9915556051
 20
121.3110870799
 30
0.0
 11
282.9915556051
 21
134.3706768346
 31
0.0
  0
LINE
  5
D5
330
1F
100
AcDbEntity
  8
0
  6
SLD-Сплошная
 62
     7
370
    25
100
AcDbLine
 10
282.9915556051
 20
121.2327227073
 30
0.0
 11
282.9915556051
 21
121.3110870799
 31
0.0
  0
LINE
  5
D6
330
1F
100
AcDbEntity
  8
0
  6
SLD-Сплошная
 62
     7
370
    25
100
AcDbLine
 10
280.9915556051
 20
121.2327227073
 30
0.0
 11
280.9915556051
 21
151.1802665892
 31
0.0
  0
LINE
  5
D7
330
1F
100
AcDbEntity
  8
0
  6
SLD-Сплошная
 62
     7
370
    25
100
AcDbLine
 10
282.9915556051
 20
138.1206768346
 30
0.0
 11
282.9915556051
 21
151.1802665892
 31
0.0
  0
LINE
  5
D8
330
1F
100
AcDbEntity
  8
0
  6
SLD-Сплошная
 62
     7
370
    25
100
AcDbLine
 10
282.9915556051
 20
181.0494460985
 30
0.0
 11
282.9915556051
 21
181.1278104711
 31
0.0
  0
LINE
  5
D9
330
1F
100
AcDbEntity
  8
0
  6
SLD-Сплошная
 62
     7
370
    25
100
AcDbLine
 10
282.9915556051
 20
167.9898563439
 30
0.0
 11
282.9915556051
 21
181.0494460985
 31
0.0
  0
LINE
  5
DA
330
1F
100
AcDbEntity
  8
0
  6
SLD-Сплошная
 62
     7
370
    25
100
AcDbLine
 10
282.9915556051
 20
164.2398563439
 30
0.0
 11
282.9915556051
 21
167.9898563439
 31
0.0
  0
LINE
  5
DB
330
1F
100
AcDbEntity
  8
0
  6
SLD-Сплошная
 62
     7
370
    25
100
AcDbLine
 10
280.9915556051
 20
151.1802665892
 30
0.0
 11
280.9915556051
 21
181.1278104711
 31
0.0
  0
LINE
  5
DC
330
1F
100
AcDbEntity
  8
0
  6
SLD-Сплошная
 62
     7
370
    25
100
AcDbLine
 10
282.9915556051
 20
151.1802665892
 30
0.0
 11
282.9915556051
 21
164.2398563439
 31
0.0
  0
LINE
  5
DD
330
1F
100
AcDbEntity
  8
0
  6
SLD-Сплошная
 62
     7
370
    25
100
AcDbLine
 10
271.4915556051
 20
172.0571289136
 30
0.0
 11
271.4915556051
 21
130.3034042648
 31
0.0
  0
SPLINE
  5
DE
330
1F
100
AcDbEntity
  8
0
  6
SLD-Сплошная
 62
     7
370
    25
100
AcDbSpline
210
0.0
220
0.0
230
1.0
 70
     8
 71
     3
 72
    12
 73
     8
 74
     0
 42
0.00000001
 43
0.00000001
 40
0.6650128360480551
 40
0.6650128360480551
 40
0.6650128360480551
 40
0.6650128360480551
 40
0.75
 40
0.75
 40
0.875
 40
0.875
 40
0.974375741870156
 40
0.974375741870156
 40
0.974375741870156
 40
0.974375741870156
 10
205.9377626175928
 20
122.4312683483373
 30
0.0
 10
206.3315773616098
 20
121.8600174168635
 30
0.0
 10
206.8759779028021
 20
121.3917784671267
 30
0.0
 10
208.4304813170301
 20
120.6669016204442
 30
0.0
 10
209.5277721678737
 20
120.6189928672515
 30
0.0
 10
211.2499775374934
 20
121.2458243590866
 30
0.0
 10
211.9181471930185
 20
121.7717208837926
 30
0.0
 10
212.376852213986
 20
122.4406305699312
 30
0.0
  0
SPLINE
  5
DF
330
1F
100
AcDbEntity
  8
0
  6
SLD-Сплошная
 62
     7
370
    25
100
AcDbSpline
210
0.0
220
0.0
230
1.0
 70
     8
 71
     3
 72
    26
 73
    22
 74
     0
 42
0.00000001
 43
0.00000001
 40
0.0
 40
0.0
 40
0.0
 40
0.0
 40
0.1250000000000001
 40
0.1250000000000001
 40
0.2500000000000002
 40
0.2500000000000002
 40
0.3125000000000004
 40
0.3125000000000004
 40
0.3750000000000006
 40
0.3750000000000006
 40
0.5000000000000007
 40
0.5000000000000007
 40
0.5625000000000007
 40
0.5625000000000007
 40
0.6250000000000008
 40
0.6250000000000008
 40
0.7500000000000004
 40
0.7500000000000004
 40
0.8750000000000002
 40
0.8750000000000002
 40
1.0
 40
1.0
 40
1.0
 40
1.0
 10
205.9384534476304
 20
122.4302665892106
 30
0.0
 10
205.9384534476443
 20
122.4302665892106
 30
0.0
 10
205.9738080050534
 20
122.5092177378942
 30
0.0
 10
206.1057428461522
 20
122.8190707833194
 30
0.0
 10
206.2024059128781
 20
123.0499993509961
 30
0.0
 10
206.3946747308709
 20
123.5116184724871
 30
0.0
 10
206.4668562907657
 20
123.6850680923787
 30
0.0
 10
206.6258684310479
 20
124.0656237286009
 30
0.0
 10
206.7130095838548
 20
124.2731857306174
 30
0.0
 10
206.997057064466
 20
124.946402228663
 30
0.0
 10
207.2157204964628
 20
125.4624281408622
 30
0.0
 10
207.5837730242525
 20
126.3361847048132
 30
0.0
 10
207.7136214776802
 20
126.6451128567125
 30
0.0
 10
207.9847999944879
 20
127.291508793759
 30
0.0
 10
208.1258196389665
 20
127.6282315404989
 30
0.0
 10
208.565209265701
 20
128.6774569474627
 30
0.0
 10
208.8804659093641
 20
129.4287754381878
 30
0.0
 10
209.5560641266194
 20
131.0308686108539
 30
0.0
 10
209.9159162771062
 20
131.8836174889303
 30
0.0
 10
210.6779412117427
 20
133.6819064836974
 30
0.0
 10
211.0761242625498
 20
134.6190329486459
 30
0.0
 10
211.4915556051471
 20
135.592920146085
 30
0.0
  0
SPLINE
  5
E0
330
1F
100
AcDbEntity
  8
0
  6
SLD-Сплошная
 62
     7
370
    25
100
AcDbSpline
210
0.0
220
0.0
230
1.0
 70
     8
 71
     3
 72
     8
 73
     4
 74
     0
 42
0.00000001
 43
0.00000001
 40
0.0
 40
0.0
 40
0.0
 40
0.0
 40
1.0
 40
1.0
 40
1.0
 40
1.0
 10
186.4915556051471
 20
168.3774666368772
 30
0.0
 10
187.6694006805723
 20
167.2395050910601
 30
0.0
 10
188.8309224537721
 20
166.0349970974471
 30
0.0
 10
190.0324999666385
 20
164.8072083906465
 30
0.0
  0
LINE
  5
E1
330
1F
100
AcDbEntity
  8
0
  6
SLD-Сплошная
 62
     7
370
    25
100
AcDbLine
 10
282.9915556051
 20
138.1206768346
 30
0.0
 11
290.9915556051
 21
138.1206768346
 31
0.0
  0
LINE
  5
E2
330
1F
100
AcDbEntity
  8
0
  6
SLD-Сплошная
 62
     7
370
    25
100
AcDbLine
 10
290.9915556051
 20
134.3706768346
 30
0.0
 11
282.9915556051
 21
134.3706768346
 31
0.0
  0
LINE
  5
E3
330
1F
100
AcDbEntity
  8
0
  6
SLD-Сплошная
 62
     7
370
    25
100
AcDbLine
 10
290.9915556051
 20
138.1206768346
 30
0.0
 11
290.9915556051
 21
134.3706768346
 31
0.0
  0
LINE
  5
E4
330
1F
100
AcDbEntity
  8
0
  6
SLD-Сплошная
 62
     7
370
    25
100
AcDbLine
 10
282.9915556051
 20
167.9898563439
 30
0.0
 11
290.9915556051
 21
167.9898563439
 31
0.0
  0
LINE
  5
E5
330
1F
100
AcDbEntity
  8
0
  6
SLD-Сплошная
 62
     7
370
    25
100
AcDbLine
 10
290.9915556051
 20
164.2398563439
 30
0.0
 11
282.9915556051
 21
164.2398563439
 31
0.0
  0
LINE
  5
E6
330
1F
100
AcDbEntity
  8
0
  6
SLD-Сплошная
 62
     7
370
    25
100
AcDbLine
 10
290.9915556051
 20
167.9898563439
 30
0.0
 11
290.9915556051
 21
164.2398563439
 31
0.0
  0
LINE
  5
E7
330
1F
100
AcDbEntity
  8
0
  6
SLD-Сплошная
 62
     7
370
    25
100
AcDbLine
 10
290.9915556051
 20
164.2398563439
 30
0.0
 11
290.9915556051
 21
138.1206768346
 31
0.0
  0
SPLINE
  5
E8
330
1F
100
AcDbEntity
  8
0
  6
SLD-Сплошная
 62
     7
370
    25
100
AcDbSpline
210
0.0
220
0.0
230
1.0
 70
     8
 71
     3
 72
    12
 73
     8
 74
     0
 42
0.00000001
 43
0.00000001
 40
0.1818088348193992
 40
0.1818088348193992
 40
0.1818088348193992
 40
0.1818088348193992
 40
0.25
 40
0.25
 40
0.375
 40
0.375
 40
0.4922987703583163
 40
0.4922987703583163
 40
0.4922987703583163
 40
0.4922987703583163
 10
233.9229377674077
 20
123.5156955251395
 30
0.0
 10
234.2846171297487
 20
123.0922622125954
 30
0.0
 10
234.734866355646
 20
122.74428963855
 30
0.0
 10
236.1650315153633
 20
122.0773926721473
 30
0.0
 10
237.2623223662069
 20
122.0294839189546
 30
0.0
 10
239.1220966888911
 20
122.7063864148642
 30
0.0
 10
239.8906374811967
 20
123.3799852357142
 30
0.0
 10
240.3384787262074
 20
124.2263860105523
 30
0.0
  0
LINE
  5
E9
330
1F
100
AcDbEntity
  8
0
  6
SLD-Сплошная
 62
     7
370
    25
100
AcDbLine
 10
282.9915556051
 20
121.3110870799
 30
0.0
 11
290.9915556051
 21
121.3110870799
 31
0.0
  0
LINE
  5
EA
330
1F
100
AcDbEntity
  8
0
  6
SLD-Сплошная
 62
     7
370
    25
100
AcDbLine
 10
290.9915556051
 20
134.3706768346
 30
0.0
 11
290.9915556051
 21
121.3110870799
 31
0.0
  0
LINE
  5
EB
330
1F
100
AcDbEntity
  8
0
  6
SLD-Сплошная
 62
     7
370
    25
100
AcDbLine
 10
290.9915556051
 20
181.0494460985
 30
0.0
 11
282.9915556051
 21
181.0494460985
 31
0.0
  0
LINE
  5
EC
330
1F
100
AcDbEntity
  8
0
  6
SLD-Сплошная
 62
     7
370
    25
100
AcDbLine
 10
290.9915556051
 20
181.0494460985
 30
0.0
 11
290.9915556051
 21
167.9898563439
 31
0.0
  0
SPLINE
  5
ED
330
1F
100
AcDbEntity
  8
0
  6
SLD-Сплошная
 62
     7
370
    25
100
AcDbSpline
210
0.0
220
0.0
230
1.0
 70
    24
 71
     3
 72
    20
 73
    16
 74
     0
 42
0.00000001
 43
0.00000001
 40
0.0
 40
0.0
 40
0.0
 40
0.0
 40
0.249999999999998
 40
0.249999999999998
 40
0.499999999999996
 40
0.499999999999996
 40
0.624999999999995
 40
0.624999999999995
 40
0.6562499999999963
 40
0.6562499999999963
 40
0.6874999999999976
 40
0.6874999999999976
 40
0.7499999999999981
 40
0.7499999999999981
 40
1.0
 40
1.0
 40
1.0
 40
1.0
 10
310.3633089755921
 20
148.3456181160222
 30
0.0
 10
308.9463969614376
 20
148.3456181160222
 30
0.0
 10
307.4258637589621
 20
148.3456181160222
 30
0.0
 10
304.2530491376289
 20
148.3456181160222
 30
0.0
 10
302.6002641741601
 20
148.3456181160221
 30
0.0
 10
300.0843388684898
 20
148.3456181160223
 30
0.0
 10
299.2419493468733
 20
148.3456181160222
 30
0.0
 10
298.1798224203013
 20
148.3456181160222
 30
0.0
 10
297.9688786399263
 20
148.3456181160222
 30
0.0
 10
297.5563994766522
 20
148.3456181160222
 30
0.0
 10
297.3532942197182
 20
148.3456181160222
 30
0.0
 10
296.7390621363829
 20
148.3456181160222
 30
0.0
 10
296.3277029782074
 20
148.3456181160222
 30
0.0
 10
294.2753386039528
 20
148.3456181160222
 30
0.0
 10
292.6334471045512
 20
148.3456181160222
 30
0.0
 10
290.9915556051471
 20
148.3456181160222
 30
0.0
  0
SPLINE
  5
EE
330
1F
100
AcDbEntity
  8
0
  6
SLD-Сплошная
 62
     7
370
    25
100
AcDbSpline
210
0.0
220
0.0
230
1.0
 70
    24
 71
     3
 72
    20
 73
    16
 74
     0
 42
0.00000001
 43
0.00000001
 40
0.0
 40
0.0
 40
0.0
 40
0.0
 40
0.2499999999999981
 40
0.2499999999999981
 40
0.4999999999999961
 40
0.4999999999999961
 40
0.6249999999999951
 40
0.6249999999999951
 40
0.6562499999999964
 40
0.6562499999999964
 40
0.6874999999999978
 40
0.6874999999999978
 40
0.7499999999999981
 40
0.7499999999999981
 40
1.0
 40
1.0
 40
1.0
 40
1.0
 10
310.3633089755921
 20
154.0149150623996
 30
0.0
 10
308.9463969614376
 20
154.0149150623996
 30
0.0
 10
307.4258637589621
 20
154.0149150623997
 30
0.0
 10
304.2530491376289
 20
154.0149150623997
 30
0.0
 10
302.6002641741613
 20
154.0149150623996
 30
0.0
 10
300.084338868488
 20
154.0149150623998
 30
0.0
 10
299.2419493468733
 20
154.0149150623997
 30
0.0
 10
298.1798224203012
 20
154.0149150623997
 30
0.0
 10
297.9688786399263
 20
154.0149150623997
 30
0.0
 10
297.5563994766523
 20
154.0149150623997
 30
0.0
 10
297.3532942197181
 20
154.0149150623997
 30
0.0
 10
296.7390621363829
 20
154.0149150623997
 30
0.0
 10
296.3277029782074
 20
154.0149150623997
 30
0.0
 10
294.2753386039528
 20
154.0149150623997
 30
0.0
 10
292.6334471045512
 20
154.0149150623997
 30
0.0
 10
290.9915556051471
 20
154.0149150623997
 30
0.0
  0
SPLINE
  5
EF
330
1F
100
AcDbEntity
  8
0
  6
SLD-Сплошная
 62
     7
370
    25
100
AcDbSpline
210
0.0
220
0.0
230
1.0
 70
    24
 71
     3
 72
    16
 73
    12
 74
     0
 42
0.00000001
 43
0.00000001
 40
0.0
 40
0.0
 40
0.0
 40
0.0
 40
0.0625
 40
0.0625
 40
0.125
 40
0.125
 40
0.25
 40
0.25
 40
0.5
 40
0.5
 40
1.0
 40
1.0
 40
1.0
 40
1.0
 10
297.9389967218834
 20
147.673518598074
 30
0.0
 10
298.2030324343327
 20
147.673518598074
 30
0.0
 10
298.4636291207784
 20
147.673518598074
 30
0.0
 10
298.9878343012826
 20
147.673518598074
 30
0.0
 10
299.2497439906044
 20
147.673518598074
 30
0.0
 10
300.0344238738717
 20
147.673518598074
 30
0.0
 10
300.5561483946802
 20
147.673518598074
 30
0.0
 10
302.113214867996
 20
147.673518598074
 30
0.0
 10
303.1404487458915
 20
147.673518598074
 30
0.0
 10
306.1572324446024
 20
147.673518598074
 30
0.0
 10
308.0805257717655
 20
147.6735185980739
 30
0.0
 10
309.8374571535222
 20
147.6735185980739
 30
0.0
  0
LINE
  5
F0
330
1F
100
AcDbEntity
  8
0
  6
SLD-Сплошная
 62
     7
370
    25
100
AcDbLine
 10
290.9915556051
 20
147.6735185981
 30
0.0
 11
297.9389967219
 21
147.6735185981
 31
0.0
  0
LWPOLYLINE
  5
F1
330
1F
100
AcDbEntity
  8
0
  6
SLD-Сплошная
 62
     7
370
    25
100
AcDbPolyline
 90
        3
 70
   128
 43
0.0
 10
297.9389967219
 20
154.6870145803
 10
294.0484296965
 20
154.6870154919
 10
290.9915556051
 20
154.6870145803
  0
SPLINE
  5
F2
330
1F
100
AcDbEntity
  8
0
  6
SLD-Сплошная
 62
     7
370
    25
100
AcDbSpline
210
0.0
220
0.0
230
1.0
 70
    24
 71
     3
 72
    16
 73
    12
 74
     0
 42
0.00000001
 43
0.00000001
 40
0.0
 40
0.0
 40
0.0
 40
0.0
 40
0.4999999999999982
 40
0.4999999999999982
 40
0.7499999999999974
 40
0.7499999999999974
 40
0.8749999999999971
 40
0.8749999999999971
 40
0.9374999999999986
 40
0.9374999999999986
 40
1.0
 40
1.0
 40
1.0
 40
1.0
 10
309.8374571535222
 20
154.6870145803479
 30
0.0
 10
308.0805257717658
 20
154.6870145803479
 30
0.0
 10
306.1572324446006
 20
154.6870145803479
 30
0.0
 10
303.1404487458922
 20
154.6870145803479
 30
0.0
 10
302.1132148679945
 20
154.6870145803479
 30
0.0
 10
300.5561483946809
 20
154.6870145803479
 30
0.0
 10
300.0344238738712
 20
154.687014580348
 30
0.0
 10
299.2497439906048
 20
154.6870145803479
 30
0.0
 10
298.9878343012822
 20
154.6870145803479
 30
0.0
 10
298.4636291207786
 20
154.6870145803479
 30
0.0
 10
298.2030324343326
 20
154.6870145803479
 30
0.0
 10
297.9389967218834
 20
154.6870145803479
 30
0.0
  0
LINE
  5
F3
330
1F
100
AcDbEntity
  8
0
  6
SLD-Сплошная
 62
     7
370
    25
100
AcDbLine
 10
309.8374571535
 20
133.0108043549
 30
0.0
 11
312.7711351321
 21
134.9319537482
 31
0.0
  0
SPLINE
  5
F4
330
1F
100
AcDbEntity
  8
0
  6
SLD-Сплошная
 62
     7
370
    25
100
AcDbSpline
210
0.0
220
0.0
230
1.0
 70
     8
 71
     3
 72
    16
 73
    12
 74
     0
 42
0.00000001
 43
0.00000001
 40
0.0
 40
0.0
 40
0.0
 40
0.0
 40
0.500000000000005
 40
0.500000000000005
 40
0.7500000000000057
 40
0.7500000000000057
 40
0.8750000000000046
 40
0.8750000000000046
 40
0.9375000000000022
 40
0.9375000000000022
 40
1.0
 40
1.0
 40
1.0
 40
1.0
 10
309.8374571535222
 20
133.0108043549143
 30
0.0
 10
308.0805257717664
 20
131.8602596521491
 30
0.0
 10
306.1572324446006
 20
130.9672024655194
 30
0.0
 10
303.1404487458923
 20
130.0675032539011
 30
0.0
 10
302.1132148679953
 20
129.8406531011726
 30
0.0
 10
300.5561483946805
 20
129.61343195234
 30
0.0
 10
300.0344238738718
 20
129.5565065141451
 30
0.0
 10
299.2497439906044
 20
129.4995508681869
 30
0.0
 10
298.9878343012822
 20
129.4853029734808
 30
0.0
 10
298.4636291207786
 20
129.4663017876889
 30
0.0
 10
298.2030324343326
 20
129.4615514100085
 30
0.0
 10
297.9389967218834
 20
129.4615484289081
 30
0.0
  0
LWPOLYLINE
  5
F5
330
1F
100
AcDbEntity
  8
0
  6
SLD-Сплошная
 62
     7
370
    25
100
AcDbPolyline
 90
       12
 70
   128
 43
0.0
 10
309.8374571535
 20
154.6870145803
 10
310.6639697514
 20
154.5449666469
 10
311.423523214
 20
154.1303307255
 10
312.0545830371
 20
153.4766981524
 10
312.5060245069
 20
152.6370223515
 10
312.7412745203
 20
151.6793288624
 10
312.7412745203
 20
150.681204316
 10
312.5060245069
 20
149.7235108269
 10
312.0545830371
 20
148.883835026
 10
311.423523214
 20
148.2302024529
 10
310.6639697514
 20
147.8155665315
 10
309.8374571535
 20
147.6735185981
  0
SPLINE
  5
F6
330
1F
100
AcDbEntity
  8
0
  6
SLD-Сплошная
 62
     7
370
    25
100
AcDbSpline
210
0.0
220
0.0
230
1.0
 70
     8
 71
     3
 72
    16
 73
    12
 74
     0
 42
0.00000001
 43
0.00000001
 40
0.0
 40
0.0
 40
0.0
 40
0.0
 40
0.0624999999999986
 40
0.0624999999999986
 40
0.1249999999999971
 40
0.1249999999999971
 40
0.2499999999999976
 40
0.2499999999999976
 40
0.4999999999999983
 40
0.4999999999999983
 40
1.0
 40
1.0
 40
1.0
 40
1.0
 10
297.9389967218831
 20
172.8989847495133
 30
0.0
 10
298.2030324343323
 20
172.8989817684127
 30
0.0
 10
298.4636291207781
 20
172.8942313907323
 30
0.0
 10
298.9878343012826
 20
172.8752302049408
 30
0.0
 10
299.2497439906044
 20
172.8609823102343
 30
0.0
 10
300.0344238738711
 20
172.8040266642766
 30
0.0
 10
300.55614839468
 20
172.7471012260827
 30
0.0
 10
302.1132148679959
 20
172.519880077246
 30
0.0
 10
303.1404487458922
 20
172.2930299245193
 30
0.0
 10
306.1572324446005
 20
171.3933307129039
 30
0.0
 10
308.0805257717672
 20
170.5002735262719
 30
0.0
 10
309.8374571535222
 20
169.3497288235071
 30
0.0
  0
LINE
  5
F7
330
1F
100
AcDbEntity
  8
0
  6
SLD-Сплошная
 62
     7
370
    25
100
AcDbLine
 10
312.7711351321
 20
167.4285794302
 30
0.0
 11
309.8374571535
 21
169.3497288235
 31
0.0
  0
ARC
  5
F8
330
1F
100
AcDbEntity
  8
0
  6
SLD-Сплошная
 62
     7
370
    25
100
AcDbCircle
 10
297.9389967219
 20
151.1802665892
 30
0.0
 40
21.99999999999977
100
AcDbArc
 50
27.9163390054
 51
47.6088660557
  0
LINE
  5
F9
330
1F
100
AcDbEntity
  8
0
  6
SLD-Сплошная
 62
     7
370
    25
100
AcDbLine
 10
317.3789041291
 20
151.1802665892
 30
0.0
 11
317.3789041291
 21
161.4802665892
 31
0.0
  0
LINE
  5
FA
330
1F
100
AcDbEntity
  8
0
  6
SLD-Сплошная
 62
     7
370
    25
100
AcDbLine
 10
317.3789041291
 20
140.8802665892
 30
0.0
 11
317.3789041291
 21
151.1802665892
 31
0.0
  0
ARC
  5
FB
330
1F
100
AcDbEntity
  8
0
  6
SLD-Сплошная
 62
     7
370
    25
100
AcDbCircle
 10
297.9389967219
 20
151.1802665892
 30
0.0
 40
21.99999999999975
100
AcDbArc
 50
312.3911339443
 51
332.0836609946
  0
LWPOLYLINE
  5
FC
330
1F
100
AcDbEntity
  8
0
  6
SLD-Сплошная
 62
     7
370
    25
100
AcDbPolyline
 90
        3
 70
   128
 43
0.0
 10
297.9389967219
 20
129.4615484289
 10
294.0484296965
 20
129.4615485761
 10
290.9915556051
 20
129.4615484289
  0
LINE
  5
FD
330
1F
100
AcDbEntity
  8
0
  6
SLD-Сплошная
 62
     7
370
    25
100
AcDbLine
 10
290.9915556051
 20
172.8989847495
 30
0.0
 11
297.9389967219
 21
172.8989847495
 31
0.0
  0
LWPOLYLINE
  5
FE
330
1F
100
AcDbEntity
  8
0
  6
SLD-Сплошная
 62
     7
370
    25
100
AcDbPolyline
 90
       11
 70
   128
 43
0.0
 10
310.3633089756
 20
154.0149150624
 10
311.0961157196
 20
153.876177491
 10
311.7571902337
 20
153.4735453771
 10
312.2818219385
 20
152.8464311572
 10
312.6186562275
 20
152.0562211405
 10
312.7347214135
 20
151.1802665892
 10
312.6186562275
 20
150.3043120379
 10
312.2818219385
 20
149.5141020212
 10
311.7571902337
 20
148.8869878013
 10
311.0961157196
 20
148.4843556874
 10
310.3633089756
 20
148.345618116
  0
ARC
  5
FF
330
1F
100
AcDbEntity
  8
0
  6
SLD-Сплошная
 62
     7
370
    25
100
AcDbCircle
 10
152.3915556051
 20
195.9302665892
 30
0.0
 40
4.700000000000212
100
AcDbArc
 50
56.0
 51
180.0
  0
LINE
  5
100
330
1F
100
AcDbEntity
  8
0
  6
SLD-Сплошная
 62
     7
370
    25
100
AcDbLine
 10
184.6168848446
 20
179.8632319171
 30
0.0
 11
155.0197622515
 21
199.8267431802
 31
0.0
  0
LINE
  5
101
330
1F
100
AcDbEntity
  8
0
  6
SLD-Сплошная
 62
     7
370
    25
100
AcDbLine
 10
147.6915556051
 20
195.9302665892
 30
0.0
 11
147.6915556051
 21
179.8632319171
 31
0.0
  0
CIRCLE
  5
102
330
1F
100
AcDbEntity
  8
0
  6
SLD-Сплошная
 62
     7
370
    25
100
AcDbCircle
 10
152.3915556051
 20
195.9302665892
 30
0.0
 40
2.099999999999994
  0
LINE
  5
103
330
1F
100
AcDbEntity
  8
0
  6
SLD-Сплошная
 62
     7
370
    25
100
AcDbLine
 10
186.4915556051
 20
112.7302665892
 30
0.0
 11
186.4915556051
 21
119.8582286745
 31
0.0
  0
LINE
  5
104
330
1F
100
AcDbEntity
  8
0
  6
SLD-Сплошная
 62
     7
370
    25
100
AcDbLine
 10
133.8915556051
 20
119.5302665892
 30
0.0
 11
133.8915556051
 21
119.8582286745
 31
0.0
  0
SPLINE
  5
105
330
1F
100
AcDbEntity
  8
0
  6
SLD-Сплошная
 62
     7
370
    25
100
AcDbSpline
210
0.0
220
0.0
230
1.0
 70
     8
 71
     3
 72
    20
 73
    16
 74
     0
 42
0.00000001
 43
0.00000001
 40
0.0
 40
0.0
 40
0.0
 40
0.0
 40
0.2500000000000016
 40
0.2500000000000016
 40
0.5000000000000031
 40
0.5000000000000031
 40
0.6250000000000039
 40
0.6250000000000039
 40
0.6562500000000036
 40
0.6562500000000036
 40
0.6875000000000031
 40
0.6875000000000031
 40
0.7500000000000026
 40
0.7500000000000026
 40
1.0
 40
1.0
 40
1.0
 40
1.0
 10
310.3633089755921
 20
132.2078059437475
 30
0.0
 10
308.9463969614376
 20
131.2799264436742
 30
0.0
 10
307.4258637589621
 20
130.5124271455399
 30
0.0
 10
304.2530491376289
 20
129.3326043189705
 30
0.0
 10
302.600264174161
 20
128.9214842273588
 30
0.0
 10
300.0843388684888
 20
128.5875487258234
 30
0.0
 10
299.2419493468732
 20
128.5232074694561
 30
0.0
 10
298.1798224203014
 20
128.5020092112384
 30
0.0
 10
297.9688786399263
 20
128.5016902982895
 30
0.0
 10
297.5563994766521
 20
128.5016887743742
 30
0.0
 10
297.3532942197181
 20
128.5016903931538
 30
0.0
 10
296.7390621363829
 20
128.5016915152117
 30
0.0
 10
296.3277029782074
 20
128.501690842018
 30
0.0
 10
294.2753386039529
 20
128.501690842018
 30
0.0
 10
292.6334471045512
 20
128.501690842018
 30
0.0
 10
290.9915556051471
 20
128.501690842018
 30
0.0
  0
SPLINE
  5
106
330
1F
100
AcDbEntity
  8
0
  6
SLD-Сплошная
 62
     7
370
    25
100
AcDbSpline
210
0.0
220
0.0
230
1.0
 70
     8
 71
     3
 72
    20
 73
    16
 74
     0
 42
0.00000001
 43
0.00000001
 40
0.0
 40
0.0
 40
0.0
 40
0.0
 40
0.2499999999999981
 40
0.2499999999999981
 40
0.4999999999999962
 40
0.4999999999999962
 40
0.6249999999999953
 40
0.6249999999999953
 40
0.6562499999999966
 40
0.6562499999999966
 40
0.6874999999999979
 40
0.6874999999999979
 40
0.7499999999999983
 40
0.7499999999999983
 40
1.0
 40
1.0
 40
1.0
 40
1.0
 10
310.3633089755921
 20
170.1527272346739
 30
0.0
 10
308.9463969614376
 20
171.0806067347472
 30
0.0
 10
307.4258637589621
 20
171.8481060328815
 30
0.0
 10
304.2530491376289
 20
173.0279288594509
 30
0.0
 10
302.6002641741609
 20
173.4390489510612
 30
0.0
 10
300.0843388684893
 20
173.7729844525989
 30
0.0
 10
299.2419493468733
 20
173.8373257089657
 30
0.0
 10
298.1798224203013
 20
173.8585239671831
 30
0.0
 10
297.9688786399263
 20
173.8588428801318
 30
0.0
 10
297.5563994766522
 20
173.8588444040472
 30
0.0
 10
297.3532942197182
 20
173.8588427852676
 30
0.0
 10
296.7390621363829
 20
173.8588416632096
 30
0.0
 10
296.3277029782074
 20
173.8588423364034
 30
0.0
 10
294.2753386039528
 20
173.8588423364034
 30
0.0
 10
292.6334471045512
 20
173.8588423364033
 30
0.0
 10
290.9915556051471
 20
173.8588423364033
 30
0.0
  0
LINE
  5
107
330
1F
100
AcDbEntity
  8
0
  6
SLD-Сплошная
 62
     7
370
    25
100
AcDbLine
 10
312.7347214135
 20
168.5997832512
 30
0.0
 11
310.3633089756
 21
170.1527272347
 31
0.0
  0
LINE
  5
108
330
1F
100
AcDbEntity
  8
0
  6
SLD-Сплошная
 62
     7
370
    25
100
AcDbLine
 10
310.3633089756
 20
132.2078059437
 30
0.0
 11
312.7347214135
 21
133.7607499272
 31
0.0
  0
SPLINE
  5
109
330
1F
100
AcDbEntity
  8
0
  6
SLD-Сплошная
 62
     7
370
    25
100
AcDbSpline
210
0.0
220
0.0
230
1.0
 70
     8
 71
     3
 72
    15
 73
    11
 74
     0
 42
0.00000001
 43
0.00000001
 40
0.0
 40
0.0
 40
0.0
 40
0.0
 40
0.1251901241009903
 40
0.2501850772128828
 40
0.3750936152090146
 40
0.500000000000001
 40
0.6249063847909874
 40
0.7498149227871185
 40
0.87480987589901
 40
1.0
 40
1.0
 40
1.0
 40
1.0
 10
62.89563502748395
 20
173.8588423364034
 30
0.0
 10
62.7019943049001
 20
174.0400369678814
 30
0.0
 10
62.31501474497795
 20
174.4021437490068
 30
0.0
 10
61.61072592404794
 20
174.7813896148679
 30
0.0
 10
60.853624160249
 20
175.0244211066288
 30
0.0
 10
60.06098655429521
 20
175.1081890898298
 30
0.0
 10
59.26834894834142
 20
175.0244211066288
 30
0.0
 10
58.51124718454248
 20
174.7813896148679
 30
0.0
 10
57.80695836361247
 20
174.4021437490068
 30
0.0
 10
57.41997880369032
 20
174.0400369678814
 30
0.0
 10
57.22633808110646
 20
173.8588423364034
 30
0.0
  0
SPLINE
  5
10A
330
1F
100
AcDbEntity
  8
0
  6
SLD-Сплошная
 62
     7
370
    25
100
AcDbSpline
210
0.0
220
0.0
230
1.0
 70
     8
 71
     3
 72
    15
 73
    11
 74
     0
 42
0.00000001
 43
0.00000001
 40
0.0
 40
0.0
 40
0.0
 40
0.0
 40
0.1251901241009885
 40
0.2501850772128837
 40
0.3750936152090166
 40
0.5000000000000003
 40
0.6249063847909843
 40
0.7498149227871169
 40
0.874809875899011
 40
0.9999999999999999
 40
0.9999999999999999
 40
0.9999999999999999
 40
0.9999999999999999
 10
37.3824108071025
 20
154.0149150623997
 30
0.0
 10
37.20121617562443
 20
153.8212743398159
 30
0.0
 10
36.83910939449904
 20
153.4342947798937
 30
0.0
 10
36.45986352863786
 20
152.7300059589637
 30
0.0
 10
36.21683203687682
 20
151.9729041951648
 30
0.0
 10
36.13306405367582
 20
151.180266589211
 30
0.0
 10
36.21683203687681
 20
150.3876289832572
 30
0.0
 10
36.45986352863785
 20
149.6305272194582
 30
0.0
 10
36.83910939449899
 20
148.9262383985282
 30
0.0
 10
37.2012161756244
 20
148.5392588386061
 30
0.0
 10
37.38241080710246
 20
148.3456181160222
 30
0.0
  0
SPLINE
  5
10B
330
1F
100
AcDbEntity
  8
0
  6
SLD-Сплошная
 62
     7
370
    25
100
AcDbSpline
210
0.0
220
0.0
230
1.0
 70
     8
 71
     3
 72
    18
 73
    14
 74
     0
 42
0.00000001
 43
0.00000001
 40
0.0
 40
0.0
 40
0.0
 40
0.0
 40
0.0027762155423674
 40
0.0366550985941645
 40
0.1132070099260766
 40
0.2179922487804246
 40
0.308257357838853
 40
0.4141376710977414
 40
0.53541357612795
 40
0.6372753201713325
 40
0.7489125823593363
 40
0.8694909478371281
 40
1.0
 40
1.0
 40
1.0
 40
1.0
 10
89.94554360402418
 20
152.6064200645148
 30
0.0
 10
89.9532168020416
 20
152.6217660650908
 30
0.0
 10
90.05452803871185
 20
152.8243833170849
 30
0.0
 10
90.1612035675524
 20
153.3371413114523
 30
0.0
 10
90.21748245838162
 20
153.8576255196797
 30
0.0
 10
90.19610791017662
 20
154.2857494334798
 30
0.0
 10
90.15612309579782
 20
154.9790636968829
 30
0.0
 10
90.06947482567752
 20
155.8336312565447
 30
0.0
 10
89.92520170128958
 20
156.9171160916967
 30
0.0
 10
89.69970238249599
 20
158.1976500849558
 30
0.0
 10
89.37774546601601
 20
159.6438816757474
 30
0.0
 10
88.90651307195779
 20
161.3863490556345
 30
0.0
 10
88.40918041296872
 20
162.7305166036811
 30
0.0
 10
88.15067915255435
 20
163.4291817709445
 30
0.0
  0
SPLINE
  5
10C
330
1F
100
AcDbEntity
  8
0
  6
SLD-Сплошная
 62
     7
370
    25
100
AcDbSpline
210
0.0
220
0.0
230
1.0
 70
     8
 71
     3
 72
    15
 73
    11
 74
     0
 42
0.00000001
 43
0.00000001
 40
0.0
 40
0.0
 40
0.0
 40
0.0
 40
0.1489025702154793
 40
0.2855193724700425
 40
0.4105522389258081
 40
0.5751609502995785
 40
0.7145241662193681
 40
0.8308623189808153
 40
0.9315012732969924
 40
1.0
 40
1.0
 40
1.0
 40
1.0
 10
31.97134981889796
 20
163.4293236449388
 30
0.0
 10
31.68903339945798
 20
162.660484513216
 30
0.0
 10
31.14769414117759
 20
161.1862422210766
 30
0.0
 10
30.66745712704296
 20
159.3285259756677
 30
0.0
 10
30.31112103576533
 20
157.638949308393
 30
0.0
 10
30.10322445537718
 20
156.240648998398
 30
0.0
 10
29.98365169305605
 20
155.241522967449
 30
0.0
 10
29.94524504705122
 20
154.6052704374131
 30
0.0
 10
29.83502677216152
 20
153.7073528383767
 30
0.0
 10
30.12397566008407
 20
152.90644483574
 30
0.0
 10
30.24099648469086
 20
152.5820867266759
 30
0.0
  0
SPLINE
  5
10D
330
1F
100
AcDbEntity
  8
0
  6
SLD-Сплошная
 62
     7
370
    25
100
AcDbSpline
210
0.0
220
0.0
230
1.0
 70
     8
 71
     3
 72
    12
 73
     8
 74
     0
 42
0.00000001
 43
0.00000001
 40
0.0
 40
0.0
 40
0.0
 40
0.0
 40
0.2610604373261066
 40
0.5673404231157131
 40
0.8722170392702768
 40
0.975827513084903
 40
1.0
 40
1.0
 40
1.0
 40
1.0
 10
31.06990547639112
 20
158.2498975138882
 30
0.0
 10
30.94136673721616
 20
158.0079828855953
 30
0.0
 10
30.66202443848559
 20
157.4822504192771
 30
0.0
 10
30.40450877630639
 20
156.7756072597576
 30
0.0
 10
30.27691811025758
 20
156.2380904482835
 30
0.0
 10
30.24661749972071
 20
155.9805474264875
 30
0.0
 10
30.28689216080786
 20
155.9941023496551
 30
0.0
 10
30.29451085044049
 20
155.9966665115827
 30
0.0
  0
SPLINE
  5
10E
330
1F
100
AcDbEntity
  8
0
  6
SLD-Сплошная
 62
     7
370
    25
100
AcDbSpline
210
0.0
220
0.0
230
1.0
 70
     8
 71
     3
 72
    22
 73
    18
 74
     0
 42
0.00000001
 43
0.00000001
 40
0.0
 40
0.0
 40
0.0
 40
0.0
 40
0.0941419320079257
 40
0.1802681339466158
 40
0.257684852228668
 40
0.3257420357413562
 40
0.4012716638786236
 40
0.4602033898959717
 40
0.5123162307308378
 40
0.5487693535741773
 40
0.5830921683605003
 40
0.6169309405668675
 40
0.663208797663487
 40
0.7243534207575686
 40
0.80059651606683
 40
0.8924232734902894
 40
1.0
 40
1.0
 40
1.0
 40
1.0
 10
60.06098655429494
 20
120.7367294748416
 30
0.0
 10
61.33065777840435
 20
120.7839999752103
 30
0.0
 10
63.76189386432461
 20
120.8745161215273
 30
0.0
 10
67.17552158209742
 20
121.5342136827998
 30
0.0
 10
70.1495857362389
 20
122.4230358518432
 30
0.0
 10
72.87308886199249
 20
123.5462996296993
 30
0.0
 10
75.24750181392574
 20
124.7961017071281
 30
0.0
 10
77.31539948789178
 20
126.1248314372689
 30
0.0
 10
78.86236369476218
 20
127.2836314164727
 30
0.0
 10
80.08662760375132
 20
128.3174107445361
 30
0.0
 10
81.08403222236801
 20
129.240935945895
 30
0.0
 10
82.12669916975528
 20
130.2946205224622
 30
0.0
 10
83.34056969963812
 20
131.6560116494979
 30
0.0
 10
84.78692830815476
 20
133.5216895610525
 30
0.0
 10
86.36427605149865
 20
135.9863161862046
 30
0.0
 10
87.95314583250176
 20
139.1080799967023
 30
0.0
 10
88.71528846804854
 20
141.4958152922522
 30
0.0
 10
89.12645886611983
 20
142.7839810845462
 30
0.0
  0
SPLINE
  5
10F
330
1F
100
AcDbEntity
  8
0
  6
SLD-Сплошная
 62
     7
370
    25
100
AcDbSpline
210
0.0
220
0.0
230
1.0
 70
     8
 71
     3
 72
    21
 73
    17
 74
     0
 42
0.00000001
 43
0.00000001
 40
0.0
 40
0.0
 40
0.0
 40
0.0
 40
0.0950758178480256
 40
0.1746840115722322
 40
0.2389561490238006
 40
0.2887484882650758
 40
0.3739334500377312
 40
0.4522163991934788
 40
0.4944980060140746
 40
0.5394244682607271
 40
0.5889546849009886
 40
0.6494441371122239
 40
0.7213363949536749
 40
0.8042940708695991
 40
0.8974711950861237
 40
1.0
 40
1.0
 40
1.0
 40
1.0
 10
30.99552216535117
 20
142.783953034231
 30
0.0
 10
31.3545016081085
 20
141.6418226789898
 30
0.0
 10
32.01405911234216
 20
139.5433720244725
 30
0.0
 10
33.32478636678166
 20
136.8083275963111
 30
0.0
 10
34.57267722371113
 20
134.6823006975048
 30
0.0
 10
36.01963729879925
 20
132.5910387271011
 30
0.0
 10
37.7691829393781
 20
130.4761035433451
 30
0.0
 10
39.6804358617909
 20
128.6077751289886
 30
0.0
 10
41.33675145519496
 20
127.2235279357403
 30
0.0
 10
42.77543134423187
 20
126.1553118008118
 30
0.0
 10
44.48413019444168
 20
125.0415498983125
 30
0.0
 10
46.58690772668168
 20
123.8744324831486
 30
0.0
 10
49.20146769120539
 20
122.7016449941777
 30
0.0
 10
52.35855305984312
 20
121.6728796873565
 30
0.0
 10
56.03845103182652
 20
120.8997666620464
 30
0.0
 10
58.67809679410691
 20
120.7927792878187
 30
0.0
 10
60.06098655429529
 20
120.7367294396144
 30
0.0
  0
ARC
  5
110
330
1F
100
AcDbEntity
  8
0
  6
SLD-Сплошная
 62
     7
370
    25
100
AcDbCircle
 10
85.3681013303
 20
143.8221556142
 30
0.0
 40
3.899999999999992
100
AcDbArc
 50
344.5404887475
 51
8.2928311191
  0
ARC
  5
111
330
1F
100
AcDbEntity
  8
0
  6
SLD-Сплошная
 62
     7
370
    25
100
AcDbCircle
 10
34.7538717783
 20
143.8221556142
 30
0.0
 40
3.900000000000002
100
AcDbArc
 50
171.7071688809
 51
195.6125740645
  0
LINE
  5
112
330
1F
100
AcDbEntity
  8
0
  6
SLD-Сплошная
 62
     7
370
    25
100
AcDbLine
 10
32.3965147744
 20
164.5083773153
 30
0.0
 11
31.9672463591
 21
163.4232362702
 31
0.0
  0
LINE
  5
113
330
1F
100
AcDbEntity
  8
0
  6
SLD-Сплошная
 62
     7
370
    25
100
AcDbLine
 10
88.1547267495
 20
163.4232362702
 30
0.0
 11
87.7254583342
 21
164.5083773153
 31
0.0
  0
LINE
  5
114
330
1F
100
AcDbEntity
  8
0
  6
SLD-Сплошная
 62
     7
370
    25
100
AcDbLine
 10
74.3609865543
 20
200.6302665892
 30
0.0
 11
70.3609865543
 21
200.6302665892
 31
0.0
  0
LINE
  5
115
330
1F
100
AcDbEntity
  8
0
  6
SLD-Сплошная
 62
     7
370
    25
100
AcDbLine
 10
49.7609865543
 20
200.6302665892
 30
0.0
 11
45.7609865543
 21
200.6302665892
 31
0.0
  0
LINE
  5
116
330
1F
100
AcDbEntity
  8
0
  6
SLD-Сплошная
 62
     7
370
    25
100
AcDbLine
 10
50.0609865543
 20
201.7793183822
 30
0.0
 11
53.0609865543
 21
201.7793183822
 31
0.0
  0
LINE
  5
117
330
1F
100
AcDbEntity
  8
0
  6
SLD-Сплошная
 62
     7
370
    25
100
AcDbLine
 10
53.0609865543
 20
201.7793183822
 30
0.0
 11
67.0609865543
 21
201.7793183822
 31
0.0
  0
LINE
  5
118
330
1F
100
AcDbEntity
  8
0
  6
SLD-Сплошная
 62
     7
370
    25
100
AcDbLine
 10
67.0609865543
 20
201.7793183822
 30
0.0
 11
70.0609865543
 21
201.7793183822
 31
0.0
  0
LINE
  5
119
330
1F
100
AcDbEntity
  8
0
  6
SLD-Сплошная
 62
     7
370
    25
100
AcDbLine
 10
50.0609865543
 20
201.7793183822
 30
0.0
 11
50.0609865543
 21
191.8302846606
 31
0.0
  0
LINE
  5
11A
330
1F
100
AcDbEntity
  8
0
  6
SLD-Сплошная
 62
     7
370
    25
100
AcDbLine
 10
70.0609865543
 20
191.8302846606
 30
0.0
 11
70.0609865543
 21
201.7793183822
 31
0.0
  0
LINE
  5
11B
330
1F
100
AcDbEntity
  8
0
  6
SLD-Сплошная
 62
     7
370
    25
100
AcDbLine
 10
53.0609865543
 20
208.7744192729
 30
0.0
 11
53.0609865543
 21
208.2613655736
 31
0.0
  0
LINE
  5
11C
330
1F
100
AcDbEntity
  8
0
  6
SLD-Сплошная
 62
     7
370
    25
100
AcDbLine
 10
67.0609865543
 20
208.7744192729
 30
0.0
 11
67.0609865543
 21
208.2613655736
 31
0.0
  0
LINE
  5
11D
330
1F
100
AcDbEntity
  8
0
  6
SLD-Сплошная
 62
     7
370
    25
100
AcDbLine
 10
53.0609865543
 20
201.7793183822
 30
0.0
 11
53.0609865543
 21
208.2613655736
 31
0.0
  0
LINE
  5
11E
330
1F
100
AcDbEntity
  8
0
  6
SLD-Сплошная
 62
     7
370
    25
100
AcDbLine
 10
67.0609865543
 20
208.2613655736
 30
0.0
 11
67.0609865543
 21
201.7793183822
 31
0.0
  0
LINE
  5
11F
330
1F
100
AcDbEntity
  8
0
  6
SLD-Сплошная
 62
     7
370
    25
100
AcDbLine
 10
53.0609865543
 20
209.6013894514
 30
0.0
 11
67.0609865543
 21
209.6013894514
 31
0.0
  0
LINE
  5
120
330
1F
100
AcDbEntity
  8
0
  6
SLD-Сплошная
 62
     7
370
    25
100
AcDbLine
 10
53.0609865543
 20
209.6013894514
 30
0.0
 11
53.0609865543
 21
208.7744192729
 31
0.0
  0
LINE
  5
121
330
1F
100
AcDbEntity
  8
0
  6
SLD-Сплошная
 62
     7
370
    25
100
AcDbLine
 10
67.0609865543
 20
208.7744192729
 30
0.0
 11
67.0609865543
 21
209.6013894514
 31
0.0
  0
LINE
  5
122
330
1F
100
AcDbEntity
  8
0
  6
SLD-Сплошная
 62
     7
370
    25
100
AcDbLine
 10
72.5609865543
 20
201.7793183822
 30
0.0
 11
72.5609865543
 21
200.6302665892
 31
0.0
  0
LINE
  5
123
330
1F
100
AcDbEntity
  8
0
  6
SLD-Сплошная
 62
     7
370
    25
100
AcDbLine
 10
72.5609865543
 20
201.7793183822
 30
0.0
 11
70.0609865543
 21
201.7793183822
 31
0.0
  0
LINE
  5
124
330
1F
100
AcDbEntity
  8
0
  6
SLD-Сплошная
 62
     7
370
    25
100
AcDbLine
 10
70.3609865543
 20
199.4427771181
 30
0.0
 11
70.0609865543
 21
199.4427771181
 31
0.0
  0
ARC
  5
125
330
1F
100
AcDbEntity
  8
0
  6
SLD-Сплошная
 62
     7
370
    25
100
AcDbCircle
 10
60.0609865543
 20
119.4802665892
 30
0.0
 40
6.800000000000007
100
AcDbArc
 50
179.7893532895
 51
0.2106467109
  0
ARC
  5
126
330
1F
100
AcDbEntity
  8
0
  6
SLD-Сплошная
 62
     7
370
    25
100
AcDbCircle
 10
60.0609865543
 20
145.4113030225
 30
0.0
 40
33.2109122469768
100
AcDbArc
 50
255.864678464
 51
284.135321536
  0
ARC
  5
127
330
1F
100
AcDbEntity
  8
0
  6
SLD-Сплошная
 62
     7
370
    25
100
AcDbCircle
 10
52.5609865543
 20
115.6302665892
 30
0.0
 40
2.499999999999993
100
AcDbArc
 50
180.0
 51
255.864678464
  0
LINE
  5
128
330
1F
100
AcDbEntity
  8
0
  6
SLD-Сплошная
 62
     7
370
    25
100
AcDbLine
 10
50.0609865543
 20
120.7302665892
 30
0.0
 11
50.0609865543
 21
115.6302665892
 31
0.0
  0
LINE
  5
129
330
1F
100
AcDbEntity
  8
0
  6
SLD-Сплошная
 62
     7
370
    25
100
AcDbLine
 10
70.0609865543
 20
115.6302665892
 30
0.0
 11
70.0609865543
 21
120.7302665892
 31
0.0
  0
ARC
  5
12A
330
1F
100
AcDbEntity
  8
0
  6
SLD-Сплошная
 62
     7
370
    25
100
AcDbCircle
 10
67.5609865543
 20
115.6302665892
 30
0.0
 40
2.499999999999928
100
AcDbArc
 50
284.135321536
 51
0.0
  0
LWPOLYLINE
  5
12B
330
1F
100
AcDbEntity
  8
0
  6
SLD-Сплошная
 62
     7
370
    25
100
AcDbPolyline
 90
        9
 70
   128
 43
0.0
 10
63.5677345454
 20
169.3497288235
 10
63.5003533661
 20
168.9749311697
 10
63.300799249
 20
168.6145367796
 10
62.9767409469
 20
168.2823954074
 10
62.5406318387
 20
167.9912710599
 10
62.0092313529
 20
167.7523514823
 10
61.402960912
 20
167.5748182202
 10
60.7451191491
 20
167.4654937771
 10
60.0609865543
 20
167.4285794302
  0
SPLINE
  5
12C
330
1F
100
AcDbEntity
  8
0
  6
SLD-Сплошная
 62
     7
370
    25
100
AcDbSpline
210
0.0
220
0.0
230
1.0
 70
     8
 71
     3
 72
    16
 73
    12
 74
     0
 42
0.00000001
 43
0.00000001
 40
0.0
 40
0.0
 40
0.0
 40
0.0
 40
0.5000000000000017
 40
0.5000000000000017
 40
0.7500000000000024
 40
0.7500000000000024
 40
0.8750000000000029
 40
0.8750000000000029
 40
0.9375000000000014
 40
0.9375000000000014
 40
1.0
 40
1.0
 40
1.0
 40
1.0
 10
63.56984618598989
 20
169.3472059173489
 30
0.0
 10
63.56949424589695
 20
170.4980113465075
 30
0.0
 10
63.569142305804
 20
171.3914457195464
 30
0.0
 10
63.56861439566458
 20
172.2918049560401
 30
0.0
 10
63.56843842561811
 20
172.5188906261096
 30
0.0
 10
63.5681744705484
 20
172.7464769033807
 30
0.0
 10
63.56808648552516
 20
172.8035260196068
 30
0.0
 10
63.56795450799031
 20
172.8606686658913
 30
0.0
 10
63.56791051547869
 20
172.874979141054
 30
0.0
 10
63.56782253045545
 20
172.8941057351144
 30
0.0
 10
63.56777853794383
 20
172.8989189405951
 30
0.0
 10
63.56773454543222
 20
172.8989847495133
 30
0.0
  0
ARC
  5
12D
330
1F
100
AcDbEntity
  8
0
  6
SLD-Сплошная
 62
     7
370
    25
100
AcDbCircle
 10
60.0609865543
 20
151.1802665892
 30
0.0
 40
21.99999999999999
100
AcDbArc
 50
9.1719345986
 51
80.8280654014
  0
SPLINE
  5
12E
330
1F
100
AcDbEntity
  8
0
  6
SLD-Сплошная
 62
     7
370
    25
100
AcDbSpline
210
0.0
220
0.0
230
1.0
 70
    24
 71
     3
 72
    16
 73
    12
 74
     0
 42
0.00000001
 43
0.00000001
 40
0.0
 40
0.0
 40
0.0
 40
0.0
 40
0.0625
 40
0.0625
 40
0.125
 40
0.125
 40
0.25
 40
0.25
 40
0.5
 40
0.5
 40
1.0
 40
1.0
 40
1.0
 40
1.0
 10
81.77970471459776
 20
154.6870145803475
 30
0.0
 10
81.77970173349736
 20
154.6870145803475
 30
0.0
 10
81.77495135581692
 20
154.6870145803475
 30
0.0
 10
81.75595017002502
 20
154.6870145803475
 30
0.0
 10
81.74170227531869
 20
154.6870145803475
 30
0.0
 10
81.68474662936119
 20
154.6870145803475
 30
0.0
 10
81.62782119116673
 20
154.6870145803475
 30
0.0
 10
81.40060004233142
 20
154.6870145803475
 30
0.0
 10
81.17374988960286
 20
154.6870145803476
 30
0.0
 10
80.27405067799006
 20
154.6870145803476
 30
0.0
 10
79.3809934913553
 20
154.6870145803476
 30
0.0
 10
78.23044878859156
 20
154.6870145803476
 30
0.0
  0
LWPOLYLINE
  5
12F
330
1F
100
AcDbEntity
  8
0
  6
SLD-Сплошная
 62
     7
370
    25
100
AcDbPolyline
 90
       12
 70
   128
 43
0.0
 10
78.2304487886
 20
147.6735185981
 10
77.689198458
 20
147.8155665315
 10
77.1917970102
 20
148.2302024529
 10
76.7785409524
 20
148.883835026
 10
76.4829098326
 20
149.7235108269
 10
76.3288539261
 20
150.681204316
 10
76.3288539261
 20
151.6793288624
 10
76.4829098326
 20
152.6370223515
 10
76.7785409524
 20
153.4766981524
 10
77.1917970102
 20
154.1303307255
 10
77.689198458
 20
154.5449666469
 10
78.2304487886
 20
154.6870145803
  0
SPLINE
  5
130
330
1F
100
AcDbEntity
  8
0
  6
SLD-Сплошная
 62
     7
370
    25
100
AcDbSpline
210
0.0
220
0.0
230
1.0
 70
     8
 71
     3
 72
    16
 73
    12
 74
     0
 42
0.00000001
 43
0.00000001
 40
0.0
 40
0.0
 40
0.0
 40
0.0
 40
0.4999999999999968
 40
0.4999999999999968
 40
0.7499999999999967
 40
0.7499999999999967
 40
0.8749999999999983
 40
0.8749999999999983
 40
0.9374999999999992
 40
0.9374999999999992
 40
1.0
 40
1.0
 40
1.0
 40
1.0
 10
78.22792588243327
 20
147.6714069575159
 30
0.0
 10
79.37873131159319
 20
147.6717588976089
 30
0.0
 10
80.27216568463099
 20
147.6721108377018
 30
0.0
 10
81.1725249211244
 20
147.6726387478412
 30
0.0
 10
81.39961059119399
 20
147.6728147178877
 30
0.0
 10
81.6271968684652
 20
147.6730786729574
 30
0.0
 10
81.68424598469227
 20
147.6731666579806
 30
0.0
 10
81.74138863097534
 20
147.6732986355155
 30
0.0
 10
81.75569910613828
 20
147.6733426280271
 30
0.0
 10
81.7748257001991
 20
147.6734306130504
 30
0.0
 10
81.77963890567955
 20
147.6734746055619
 30
0.0
 10
81.77970471459773
 20
147.6735185980736
 30
0.0
  0
ARC
  5
131
330
1F
100
AcDbEntity
  8
0
  6
SLD-Сплошная
 62
     7
370
    25
100
AcDbCircle
 10
60.0609865543
 20
151.1802665892
 30
0.0
 40
22.00000000000001
100
AcDbArc
 50
279.1719345986
 51
350.8280654014
  0
SPLINE
  5
132
330
1F
100
AcDbEntity
  8
0
  6
SLD-Сплошная
 62
     7
370
    25
100
AcDbSpline
210
0.0
220
0.0
230
1.0
 70
    24
 71
     3
 72
    16
 73
    12
 74
     0
 42
0.00000001
 43
0.00000001
 40
0.0
 40
0.0
 40
0.0
 40
0.0
 40
0.0625000000000001
 40
0.0625000000000001
 40
0.1250000000000004
 40
0.1250000000000004
 40
0.2500000000000008
 40
0.2500000000000008
 40
0.5000000000000016
 40
0.5000000000000016
 40
1.0
 40
1.0
 40
1.0
 40
1.0
 10
63.56773454543196
 20
129.4615484289081
 30
0.0
 10
63.56773454543196
 20
129.4615514100085
 30
0.0
 10
63.56773454543196
 20
129.4663017876889
 30
0.0
 10
63.56773454543196
 20
129.4853029734808
 30
0.0
 10
63.56773454543196
 20
129.4995508681869
 30
0.0
 10
63.56773454543196
 20
129.5565065141451
 30
0.0
 10
63.56773454543196
 20
129.6134319523396
 30
0.0
 10
63.56773454543196
 20
129.8406531011734
 30
0.0
 10
63.56773454543196
 20
130.067503253902
 30
0.0
 10
63.56773454543196
 20
130.9672024655177
 30
0.0
 10
63.56773454543199
 20
131.8602596521494
 30
0.0
 10
63.56773454543199
 20
133.0108043549143
 30
0.0
  0
LWPOLYLINE
  5
133
330
1F
100
AcDbEntity
  8
0
  6
SLD-Сплошная
 62
     7
370
    25
100
AcDbPolyline
 90
        9
 70
   128
 43
0.0
 10
60.0609865543
 20
134.9319537482
 10
60.7451191491
 20
134.8950394013
 10
61.402960912
 20
134.7857149583
 10
62.0092313529
 20
134.6081816961
 10
62.5406318387
 20
134.3692621186
 10
62.9767409469
 20
134.078137771
 10
63.300799249
 20
133.7459963988
 10
63.5003533661
 20
133.3856020087
 10
63.5677345454
 20
133.0108043549
  0
ARC
  5
134
330
1F
100
AcDbEntity
  8
0
  6
SLD-Сплошная
 62
     7
370
    25
100
AcDbCircle
 10
60.0609865543
 20
151.1802665892
 30
0.0
 40
10.30000000000007
100
AcDbArc
 50
270.0
 51
0.0
  0
ARC
  5
135
330
1F
100
AcDbEntity
  8
0
  6
SLD-Сплошная
 62
     7
370
    25
100
AcDbCircle
 10
60.0609865543
 20
151.1802665892
 30
0.0
 40
10.29999999999995
100
AcDbArc
 50
0.0
 51
90.0
  0
LWPOLYLINE
  5
136
330
1F
100
AcDbEntity
  8
0
  6
SLD-Сплошная
 62
     7
370
    25
100
AcDbPolyline
 90
        9
 70
   128
 43
0.0
 10
56.5542385632
 20
133.0108043549
 10
56.6216197425
 20
133.3856020087
 10
56.8211738596
 20
133.7459963988
 10
57.1452321617
 20
134.078137771
 10
57.5813412698
 20
134.3692621186
 10
58.1127417557
 20
134.6081816961
 10
58.7190121966
 20
134.7857149583
 10
59.3768539595
 20
134.8950394013
 10
60.0609865543
 20
134.9319537482
  0
SPLINE
  5
137
330
1F
100
AcDbEntity
  8
0
  6
SLD-Сплошная
 62
     7
370
    25
100
AcDbSpline
210
0.0
220
0.0
230
1.0
 70
    24
 71
     3
 72
    16
 73
    12
 74
     0
 42
0.00000001
 43
0.00000001
 40
0.0
 40
0.0
 40
0.0
 40
0.0
 40
0.500000000000005
 40
0.500000000000005
 40
0.7500000000000057
 40
0.7500000000000057
 40
0.8750000000000046
 40
0.8750000000000046
 40
0.9375000000000022
 40
0.9375000000000022
 40
1.0
 40
1.0
 40
1.0
 40
1.0
 10
56.55423856315807
 20
133.0108043549143
 30
0.0
 10
56.55423856315807
 20
131.8602596521491
 30
0.0
 10
56.55423856315805
 20
130.9672024655194
 30
0.0
 10
56.55423856315804
 20
130.0675032539011
 30
0.0
 10
56.55423856315804
 20
129.8406531011726
 30
0.0
 10
56.55423856315804
 20
129.61343195234
 30
0.0
 10
56.55423856315804
 20
129.5565065141451
 30
0.0
 10
56.55423856315804
 20
129.4995508681869
 30
0.0
 10
56.55423856315804
 20
129.4853029734808
 30
0.0
 10
56.55423856315804
 20
129.4663017876889
 30
0.0
 10
56.55423856315804
 20
129.4615514100085
 30
0.0
 10
56.55423856315804
 20
129.4615484289081
 30
0.0
  0
ARC
  5
138
330
1F
100
AcDbEntity
  8
0
  6
SLD-Сплошная
 62
     7
370
    25
100
AcDbCircle
 10
60.0609865543
 20
151.1802665892
 30
0.0
 40
22.00000000000001
100
AcDbArc
 50
189.1719345986
 51
260.8280654014
  0
SPLINE
  5
139
330
1F
100
AcDbEntity
  8
0
  6
SLD-Сплошная
 62
     7
370
    25
100
AcDbSpline
210
0.0
220
0.0
230
1.0
 70
    24
 71
     3
 72
    16
 73
    12
 74
     0
 42
0.00000001
 43
0.00000001
 40
0.0
 40
0.0
 40
0.0
 40
0.0
 40
0.0625
 40
0.0625
 40
0.125
 40
0.125
 40
0.25
 40
0.25
 40
0.5
 40
0.5
 40
1.0
 40
1.0
 40
1.0
 40
1.0
 10
38.34226839399255
 20
147.673518598074
 30
0.0
 10
38.34227137509318
 20
147.673518598074
 30
0.0
 10
38.34702175277317
 20
147.673518598074
 30
0.0
 10
38.36602293856551
 20
147.673518598074
 30
0.0
 10
38.38027083327208
 20
147.673518598074
 30
0.0
 10
38.43722647922822
 20
147.673518598074
 30
0.0
 10
38.49415191742356
 20
147.673518598074
 30
0.0
 10
38.72137306625891
 20
147.673518598074
 30
0.0
 10
38.94822321898555
 20
147.673518598074
 30
0.0
 10
39.84792243060407
 20
147.673518598074
 30
0.0
 10
40.74097961723286
 20
147.6735185980739
 30
0.0
 10
41.89152431999874
 20
147.6735185980739
 30
0.0
  0
LWPOLYLINE
  5
13A
330
1F
100
AcDbEntity
  8
0
  6
SLD-Сплошная
 62
     7
370
    25
100
AcDbPolyline
 90
       12
 70
   128
 43
0.0
 10
41.89152432
 20
154.6870145803
 10
42.4327746506
 20
154.5449666469
 10
42.9301760984
 20
154.1303307255
 10
43.3434321562
 20
153.4766981524
 10
43.639063276
 20
152.6370223515
 10
43.7931191825
 20
151.6793288624
 10
43.7931191825
 20
150.681204316
 10
43.639063276
 20
149.7235108269
 10
43.3434321562
 20
148.883835026
 10
42.9301760984
 20
148.2302024529
 10
42.4327746506
 20
147.8155665315
 10
41.89152432
 20
147.6735185981
  0
SPLINE
  5
13B
330
1F
100
AcDbEntity
  8
0
  6
SLD-Сплошная
 62
     7
370
    25
100
AcDbSpline
210
0.0
220
0.0
230
1.0
 70
    24
 71
     3
 72
    16
 73
    12
 74
     0
 42
0.00000001
 43
0.00000001
 40
0.0
 40
0.0
 40
0.0
 40
0.0
 40
0.4999999999999982
 40
0.4999999999999982
 40
0.7499999999999974
 40
0.7499999999999974
 40
0.8749999999999971
 40
0.8749999999999971
 40
0.9374999999999986
 40
0.9374999999999986
 40
1.0
 40
1.0
 40
1.0
 40
1.0
 10
41.8915243199988
 20
154.6870145803479
 30
0.0
 10
40.74097961723315
 20
154.6870145803479
 30
0.0
 10
39.84792243060588
 20
154.6870145803479
 30
0.0
 10
38.94822321898472
 20
154.6870145803479
 30
0.0
 10
38.72137306625809
 20
154.6870145803479
 30
0.0
 10
38.49415191742407
 20
154.6870145803479
 30
0.0
 10
38.43722647922925
 20
154.687014580348
 30
0.0
 10
38.38027083327165
 20
154.6870145803479
 30
0.0
 10
38.36602293856512
 20
154.6870145803479
 30
0.0
 10
38.34702175277368
 20
154.6870145803479
 30
0.0
 10
38.34227137509301
 20
154.6870145803479
 30
0.0
 10
38.34226839399261
 20
154.6870145803479
 30
0.0
  0
ARC
  5
13C
330
1F
100
AcDbEntity
  8
0
  6
SLD-Сплошная
 62
     7
370
    25
100
AcDbCircle
 10
60.0609865543
 20
151.1802665892
 30
0.0
 40
22.0
100
AcDbArc
 50
99.1719345986
 51
170.8280654014
  0
SPLINE
  5
13D
330
1F
100
AcDbEntity
  8
0
  6
SLD-Сплошная
 62
     7
370
    25
100
AcDbSpline
210
0.0
220
0.0
230
1.0
 70
    24
 71
     3
 72
    16
 73
    12
 74
     0
 42
0.00000001
 43
0.00000001
 40
0.0
 40
0.0
 40
0.0
 40
0.0
 40
0.0624999999999986
 40
0.0624999999999986
 40
0.1249999999999971
 40
0.1249999999999971
 40
0.2499999999999976
 40
0.2499999999999976
 40
0.4999999999999983
 40
0.4999999999999983
 40
1.0
 40
1.0
 40
1.0
 40
1.0
 10
56.55423856315826
 20
172.8989847495133
 30
0.0
 10
56.55423856315826
 20
172.8989817684127
 30
0.0
 10
56.55423856315826
 20
172.8942313907323
 30
0.0
 10
56.55423856315826
 20
172.8752302049408
 30
0.0
 10
56.55423856315826
 20
172.8609823102343
 30
0.0
 10
56.55423856315826
 20
172.8040266642766
 30
0.0
 10
56.55423856315826
 20
172.7471012260827
 30
0.0
 10
56.55423856315826
 20
172.519880077246
 30
0.0
 10
56.55423856315826
 20
172.2930299245193
 30
0.0
 10
56.55423856315826
 20
171.3933307129039
 30
0.0
 10
56.55423856315826
 20
170.5002735262719
 30
0.0
 10
56.55423856315825
 20
169.3497288235071
 30
0.0
  0
LWPOLYLINE
  5
13E
330
1F
100
AcDbEntity
  8
0
  6
SLD-Сплошная
 62
     7
370
    25
100
AcDbPolyline
 90
        9
 70
   128
 43
0.0
 10
60.0609865543
 20
167.4285794302
 10
59.3768539595
 20
167.4654937771
 10
58.7190121966
 20
167.5748182202
 10
58.1127417557
 20
167.7523514823
 10
57.5813412699
 20
167.9912710599
 10
57.1452321617
 20
168.2823954074
 10
56.8211738596
 20
168.6145367796
 10
56.6216197425
 20
168.9749311697
 10
56.5542385632
 20
169.3497288235
  0
ARC
  5
13F
330
1F
100
AcDbEntity
  8
0
  6
SLD-Сплошная
 62
     7
370
    25
100
AcDbCircle
 10
60.0609865543
 20
151.1802665892
 30
0.0
 40
10.30000000000017
100
AcDbArc
 50
90.0
 51
180.0
  0
ARC
  5
140
330
1F
100
AcDbEntity
  8
0
  6
SLD-Сплошная
 62
     7
370
    25
100
AcDbCircle
 10
60.0609865543
 20
151.1802665892
 30
0.0
 40
10.30000000000017
100
AcDbArc
 50
180.0
 51
270.0
  0
LWPOLYLINE
  5
141
330
1F
100
AcDbEntity
  8
0
  6
SLD-Сплошная
 62
     7
370
    25
100
AcDbPolyline
 90
       11
 70
   128
 43
0.0
 10
57.2263380811
 20
132.2078059437
 10
57.3650756525
 20
132.687692026
 10
57.7677077664
 20
133.1206035149
 10
58.3948219863
 20
133.4641640177
 10
59.185032003
 20
133.6847434387
 10
60.0609865543
 20
133.7607499272
 10
60.9369411056
 20
133.6847434387
 10
61.7271511223
 20
133.4641640177
 10
62.3542653422
 20
133.1206035149
 10
62.7568974561
 20
132.687692026
 10
62.8956350275
 20
132.2078059437
  0
LWPOLYLINE
  5
142
330
1F
100
AcDbEntity
  8
0
  6
SLD-Сплошная
 62
     7
370
    25
100
AcDbPolyline
 90
       11
 70
   128
 43
0.0
 10
62.8956350275
 20
170.1527272347
 10
62.7568974561
 20
169.6728411525
 10
62.3542653422
 20
169.2399296636
 10
61.7271511223
 20
168.8963691607
 10
60.9369411056
 20
168.6757897397
 10
60.0609865543
 20
168.5997832512
 10
59.185032003
 20
168.6757897397
 10
58.3948219863
 20
168.8963691607
 10
57.7677077664
 20
169.2399296636
 10
57.3650756525
 20
169.6728411525
 10
57.2263380811
 20
170.1527272347
  0
LWPOLYLINE
  5
143
330
1F
100
AcDbEntity
  8
0
  6
SLD-Сплошная
 62
     7
370
    25
100
AcDbPolyline
 90
       11
 70
   128
 43
0.0
 10
79.0334471998
 20
148.345618116
 10
78.5535611176
 20
148.4843556874
 10
78.1206496286
 20
148.8869878013
 10
77.7770891258
 20
149.5141020212
 10
77.5565097048
 20
150.3043120379
 10
77.4805032163
 20
151.1802665892
 10
77.5565097048
 20
152.0562211405
 10
77.7770891258
 20
152.8464311572
 10
78.1206496286
 20
153.4735453771
 10
78.5535611176
 20
153.876177491
 10
79.0334471998
 20
154.0149150624
  0
LWPOLYLINE
  5
144
330
1F
100
AcDbEntity
  8
0
  6
SLD-Сплошная
 62
     7
370
    25
100
AcDbPolyline
 90
       11
 70
   128
 43
0.0
 10
41.0885259088
 20
154.0149150624
 10
41.568411991
 20
153.876177491
 10
42.00132348
 20
153.4735453771
 10
42.3448839828
 20
152.8464311572
 10
42.5654634038
 20
152.0562211405
 10
42.6414698923
 20
151.1802665892
 10
42.5654634038
 20
150.3043120379
 10
42.3448839828
 20
149.5141020212
 10
42.00132348
 20
148.8869878013
 10
41.568411991
 20
148.4843556874
 10
41.0885259088
 20
148.345618116
  0
SPLINE
  5
145
330
1F
100
AcDbEntity
  8
0
  6
SLD-Сплошная
 62
     7
370
    25
100
AcDbSpline
210
0.0
220
0.0
230
1.0
 70
    24
 71
     3
 72
    20
 73
    16
 74
     0
 42
0.00000001
 43
0.00000001
 40
0.0
 40
0.0
 40
0.0
 40
0.0
 40
0.2500000000000016
 40
0.2500000000000016
 40
0.5000000000000031
 40
0.5000000000000031
 40
0.6250000000000039
 40
0.6250000000000039
 40
0.6562500000000036
 40
0.6562500000000036
 40
0.6875000000000031
 40
0.6875000000000031
 40
0.7500000000000026
 40
0.7500000000000026
 40
1.0
 40
1.0
 40
1.0
 40
1.0
 10
79.03344719975836
 20
154.0149150623993
 30
0.0
 10
79.96132669983228
 20
154.0149150623993
 30
0.0
 10
80.72882599796402
 20
154.0149150623993
 30
0.0
 10
81.90864882453445
 20
154.0149150623993
 30
0.0
 10
82.31976891614698
 20
154.0149150623993
 30
0.0
 10
82.65370441768258
 20
154.0149150623993
 30
0.0
 10
82.71804567405003
 20
154.0149150623993
 30
0.0
 10
82.7392439322672
 20
154.0149150623993
 30
0.0
 10
82.73956284521635
 20
154.0149150623993
 30
0.0
 10
82.73956436913197
 20
154.0149150623993
 30
0.0
 10
82.73956275035215
 20
154.0149150623993
 30
0.0
 10
82.73956162829401
 20
154.0149150623993
 30
0.0
 10
82.73956230148785
 20
154.0149150623993
 30
0.0
 10
82.73956230148785
 20
154.0149150623993
 30
0.0
 10
82.73956230148785
 20
154.0149150623993
 30
0.0
 10
82.73956230148785
 20
154.0149150623993
 30
0.0
  0
SPLINE
  5
146
330
1F
100
AcDbEntity
  8
0
  6
SLD-Сплошная
 62
     7
370
    25
100
AcDbSpline
210
0.0
220
0.0
230
1.0
 70
    24
 71
     3
 72
    20
 73
    16
 74
     0
 42
0.00000001
 43
0.00000001
 40
0.0
 40
0.0
 40
0.0
 40
0.0
 40
0.25
 40
0.25
 40
0.5
 40
0.5
 40
0.625
 40
0.625
 40
0.65625
 40
0.65625
 40
0.6875
 40
0.6875
 40
0.75
 40
0.75
 40
1.0
 40
1.0
 40
1.0
 40
1.0
 10
79.03344719975836
 20
148.3456181160219
 30
0.0
 10
79.96132669983264
 20
148.3456181160219
 30
0.0
 10
80.72882599796641
 20
148.3456181160219
 30
0.0
 10
81.90864882453522
 20
148.3456181160219
 30
0.0
 10
82.31976891614701
 20
148.3456181160219
 30
0.0
 10
82.65370441768255
 20
148.3456181160219
 30
0.0
 10
82.71804567405003
 20
148.3456181160219
 30
0.0
 10
82.7392439322672
 20
148.3456181160219
 30
0.0
 10
82.73956284521635
 20
148.3456181160219
 30
0.0
 10
82.73956436913195
 20
148.3456181160219
 30
0.0
 10
82.73956275035215
 20
148.3456181160219
 30
0.0
 10
82.73956162829401
 20
148.3456181160219
 30
0.0
 10
82.73956230148785
 20
148.3456181160219
 30
0.0
 10
82.73956230148785
 20
148.3456181160219
 30
0.0
 10
82.73956230148785
 20
148.3456181160219
 30
0.0
 10
82.73956230148785
 20
148.3456181160219
 30
0.0
  0
SPLINE
  5
147
330
1F
100
AcDbEntity
  8
0
  6
SLD-Сплошная
 62
     7
370
    25
100
AcDbSpline
210
0.0
220
0.0
230
1.0
 70
    24
 71
     3
 72
    20
 73
    16
 74
     0
 42
0.00000001
 43
0.00000001
 40
0.0
 40
0.0
 40
0.0
 40
0.0
 40
0.25
 40
0.25
 40
0.5
 40
0.5
 40
0.625
 40
0.625
 40
0.65625
 40
0.65625
 40
0.6875
 40
0.6875
 40
0.75
 40
0.75
 40
1.0
 40
1.0
 40
1.0
 40
1.0
 10
62.89563502748376
 20
132.2078059437474
 30
0.0
 10
62.89563502748376
 20
131.2799264436732
 30
0.0
 10
62.89563502748374
 20
130.5124271455394
 30
0.0
 10
62.89563502748373
 20
129.3326043189706
 30
0.0
 10
62.89563502748374
 20
128.9214842273588
 30
0.0
 10
62.89563502748373
 20
128.5875487258233
 30
0.0
 10
62.89563502748373
 20
128.5232074694558
 30
0.0
 10
62.89563502748373
 20
128.5020092112386
 30
0.0
 10
62.89563502748373
 20
128.5016902982894
 30
0.0
 10
62.89563502748373
 20
128.5016887743738
 30
0.0
 10
62.89563502748373
 20
128.5016903931537
 30
0.0
 10
62.89563502748373
 20
128.5016915152118
 30
0.0
 10
62.89563502748373
 20
128.501690842018
 30
0.0
 10
62.89563502748373
 20
128.501690842018
 30
0.0
 10
62.89563502748373
 20
128.501690842018
 30
0.0
 10
62.89563502748373
 20
128.501690842018
 30
0.0
  0
SPLINE
  5
148
330
1F
100
AcDbEntity
  8
0
  6
SLD-Сплошная
 62
     7
370
    25
100
AcDbSpline
210
0.0
220
0.0
230
1.0
 70
    24
 71
     3
 72
    20
 73
    16
 74
     0
 42
0.00000001
 43
0.00000001
 40
0.0
 40
0.0
 40
0.0
 40
0.0
 40
0.2500000000000016
 40
0.2500000000000016
 40
0.5000000000000031
 40
0.5000000000000031
 40
0.6250000000000039
 40
0.6250000000000039
 40
0.6562500000000036
 40
0.6562500000000036
 40
0.6875000000000031
 40
0.6875000000000031
 40
0.7500000000000026
 40
0.7500000000000026
 40
1.0
 40
1.0
 40
1.0
 40
1.0
 10
57.22633808110628
 20
132.2078059437475
 30
0.0
 10
57.22633808110628
 20
131.2799264436742
 30
0.0
 10
57.22633808110627
 20
130.5124271455399
 30
0.0
 10
57.22633808110626
 20
129.3326043189705
 30
0.0
 10
57.22633808110624
 20
128.9214842273588
 30
0.0
 10
57.22633808110624
 20
128.5875487258234
 30
0.0
 10
57.22633808110624
 20
128.5232074694561
 30
0.0
 10
57.22633808110624
 20
128.5020092112384
 30
0.0
 10
57.22633808110624
 20
128.5016902982895
 30
0.0
 10
57.22633808110624
 20
128.5016887743742
 30
0.0
 10
57.22633808110624
 20
128.5016903931538
 30
0.0
 10
57.22633808110624
 20
128.5016915152117
 30
0.0
 10
57.22633808110624
 20
128.501690842018
 30
0.0
 10
57.22633808110624
 20
128.501690842018
 30
0.0
 10
57.22633808110624
 20
128.501690842018
 30
0.0
 10
57.22633808110624
 20
128.501690842018
 30
0.0
  0
SPLINE
  5
149
330
1F
100
AcDbEntity
  8
0
  6
SLD-Сплошная
 62
     7
370
    25
100
AcDbSpline
210
0.0
220
0.0
230
1.0
 70
    24
 71
     3
 72
    20
 73
    16
 74
     0
 42
0.00000001
 43
0.00000001
 40
0.0
 40
0.0
 40
0.0
 40
0.0
 40
0.2499999999999981
 40
0.2499999999999981
 40
0.4999999999999962
 40
0.4999999999999962
 40
0.6249999999999953
 40
0.6249999999999953
 40
0.6562499999999966
 40
0.6562499999999966
 40
0.6874999999999979
 40
0.6874999999999979
 40
0.7499999999999983
 40
0.7499999999999983
 40
1.0
 40
1.0
 40
1.0
 40
1.0
 10
57.22633808110646
 20
170.1527272346739
 30
0.0
 10
57.22633808110646
 20
171.0806067347472
 30
0.0
 10
57.22633808110646
 20
171.8481060328815
 30
0.0
 10
57.22633808110646
 20
173.0279288594509
 30
0.0
 10
57.22633808110646
 20
173.4390489510612
 30
0.0
 10
57.22633808110646
 20
173.7729844525989
 30
0.0
 10
57.22633808110646
 20
173.8373257089657
 30
0.0
 10
57.22633808110646
 20
173.8585239671831
 30
0.0
 10
57.22633808110646
 20
173.8588428801318
 30
0.0
 10
57.22633808110646
 20
173.8588444040472
 30
0.0
 10
57.22633808110646
 20
173.8588427852676
 30
0.0
 10
57.22633808110646
 20
173.8588416632096
 30
0.0
 10
57.22633808110646
 20
173.8588423364034
 30
0.0
 10
57.22633808110646
 20
173.8588423364034
 30
0.0
 10
57.22633808110646
 20
173.8588423364033
 30
0.0
 10
57.22633808110646
 20
173.8588423364033
 30
0.0
  0
SPLINE
  5
14A
330
1F
100
AcDbEntity
  8
0
  6
SLD-Сплошная
 62
     7
370
    25
100
AcDbSpline
210
0.0
220
0.0
230
1.0
 70
    24
 71
     3
 72
    20
 73
    16
 74
     0
 42
0.00000001
 43
0.00000001
 40
0.0
 40
0.0
 40
0.0
 40
0.0
 40
0.249999999999998
 40
0.249999999999998
 40
0.499999999999996
 40
0.499999999999996
 40
0.624999999999995
 40
0.624999999999995
 40
0.6562499999999963
 40
0.6562499999999963
 40
0.6874999999999976
 40
0.6874999999999976
 40
0.7499999999999981
 40
0.7499999999999981
 40
1.0
 40
1.0
 40
1.0
 40
1.0
 10
62.89563502748393
 20
170.1527272346739
 30
0.0
 10
62.89563502748393
 20
171.0806067347466
 30
0.0
 10
62.89563502748395
 20
171.8481060328834
 30
0.0
 10
62.89563502748395
 20
173.0279288594518
 30
0.0
 10
62.89563502748395
 20
173.4390489510619
 30
0.0
 10
62.89563502748396
 20
173.7729844525985
 30
0.0
 10
62.89563502748396
 20
173.8373257089651
 30
0.0
 10
62.89563502748396
 20
173.8585239671826
 30
0.0
 10
62.89563502748396
 20
173.8588428801319
 30
0.0
 10
62.89563502748396
 20
173.8588444040475
 30
0.0
 10
62.89563502748396
 20
173.8588427852677
 30
0.0
 10
62.89563502748395
 20
173.8588416632095
 30
0.0
 10
62.89563502748395
 20
173.8588423364034
 30
0.0
 10
62.89563502748396
 20
173.8588423364034
 30
0.0
 10
62.89563502748395
 20
173.8588423364034
 30
0.0
 10
62.89563502748396
 20
173.8588423364034
 30
0.0
  0
SPLINE
  5
14B
330
1F
100
AcDbEntity
  8
0
  6
SLD-Сплошная
 62
     7
370
    25
100
AcDbSpline
210
0.0
220
0.0
230
1.0
 70
    24
 71
     3
 72
    20
 73
    16
 74
     0
 42
0.00000001
 43
0.00000001
 40
0.0
 40
0.0
 40
0.0
 40
0.0
 40
0.249999999999998
 40
0.249999999999998
 40
0.499999999999996
 40
0.499999999999996
 40
0.624999999999995
 40
0.624999999999995
 40
0.6562499999999963
 40
0.6562499999999963
 40
0.6874999999999976
 40
0.6874999999999976
 40
0.7499999999999981
 40
0.7499999999999981
 40
1.0
 40
1.0
 40
1.0
 40
1.0
 10
41.08852590883195
 20
148.3456181160222
 30
0.0
 10
40.16064640875864
 20
148.3456181160222
 30
0.0
 10
39.39314711062435
 20
148.3456181160222
 30
0.0
 10
38.21332428405496
 20
148.3456181160222
 30
0.0
 10
37.80220419244184
 20
148.3456181160221
 30
0.0
 10
37.46826869090955
 20
148.3456181160223
 30
0.0
 10
37.40392743454077
 20
148.3456181160222
 30
0.0
 10
37.38272917632322
 20
148.3456181160222
 30
0.0
 10
37.38241026337394
 20
148.3456181160222
 30
0.0
 10
37.38240873945836
 20
148.3456181160222
 30
0.0
 10
37.38241035823815
 20
148.3456181160222
 30
0.0
 10
37.38241148029628
 20
148.3456181160222
 30
0.0
 10
37.38241080710247
 20
148.3456181160222
 30
0.0
 10
37.38241080710245
 20
148.3456181160222
 30
0.0
 10
37.38241080710246
 20
148.3456181160222
 30
0.0
 10
37.38241080710246
 20
148.3456181160222
 30
0.0
  0
SPLINE
  5
14C
330
1F
100
AcDbEntity
  8
0
  6
SLD-Сплошная
 62
     7
370
    25
100
AcDbSpline
210
0.0
220
0.0
230
1.0
 70
    24
 71
     3
 72
    20
 73
    16
 74
     0
 42
0.00000001
 43
0.00000001
 40
0.0
 40
0.0
 40
0.0
 40
0.0
 40
0.2499999999999981
 40
0.2499999999999981
 40
0.4999999999999961
 40
0.4999999999999961
 40
0.6249999999999951
 40
0.6249999999999951
 40
0.6562499999999964
 40
0.6562499999999964
 40
0.6874999999999978
 40
0.6874999999999978
 40
0.7499999999999981
 40
0.7499999999999981
 40
1.0
 40
1.0
 40
1.0
 40
1.0
 10
41.088525908832
 20
154.0149150623996
 30
0.0
 10
40.16064640875868
 20
154.0149150623996
 30
0.0
 10
39.3931471106244
 20
154.0149150623997
 30
0.0
 10
38.213324284055
 20
154.0149150623997
 30
0.0
 10
37.80220419244402
 20
154.0149150623996
 30
0.0
 10
37.46826869090743
 20
154.0149150623998
 30
0.0
 10
37.40392743454085
 20
154.0149150623997
 30
0.0
 10
37.38272917632267
 20
154.0149150623997
 30
0.0
 10
37.38241026337417
 20
154.0149150623997
 30
0.0
 10
37.38240873945902
 20
154.0149150623997
 30
0.0
 10
37.38241035823835
 20
154.0149150623997
 30
0.0
 10
37.38241148029613
 20
154.0149150623997
 30
0.0
 10
37.38241080710252
 20
154.0149150623997
 30
0.0
 10
37.3824108071025
 20
154.0149150623997
 30
0.0
 10
37.38241080710252
 20
154.0149150623997
 30
0.0
 10
37.3824108071025
 20
154.0149150623997
 30
0.0
  0
LINE
  5
14D
330
1F
100
AcDbEntity
  8
0
  6
SLD-Сплошная
 62
     7
370
    25
100
AcDbLine
 10
82.7395623015
 20
148.345618116
 30
0.0
 11
81.7797047146
 21
147.6735185981
 31
0.0
  0
LINE
  5
14E
330
1F
100
AcDbEntity
  8
0
  6
SLD-Сплошная
 62
     7
370
    25
100
AcDbLine
 10
81.7797047146
 20
154.6870145803
 30
0.0
 11
82.7395623015
 21
154.0149150624
 31
0.0
  0
LWPOLYLINE
  5
14F
330
1F
100
AcDbEntity
  8
0
  6
SLD-Сплошная
 62
     7
370
    25
100
AcDbPolyline
 90
        2
 70
   128
 43
0.0
 10
81.7797047146
 20
154.6870145803
 10
81.7797047146
 20
154.6870145803
  0
LINE
  5
150
330
1F
100
AcDbEntity
  8
0
  6
SLD-Сплошная
 62
     7
370
    25
100
AcDbLine
 10
62.8956350275
 20
173.8588423364
 30
0.0
 11
63.5677345454
 21
172.8989847495
 31
0.0
  0
LINE
  5
151
330
1F
100
AcDbEntity
  8
0
  6
SLD-Сплошная
 62
     7
370
    25
100
AcDbLine
 10
63.5677345454
 20
172.8989847495
 30
0.0
 11
63.567735457
 21
172.8989846023
 31
0.0
  0
LWPOLYLINE
  5
152
330
1F
100
AcDbEntity
  8
0
  6
SLD-Сплошная
 62
     7
370
    25
100
AcDbPolyline
 90
        2
 70
   128
 43
0.0
 10
63.5677345454
 20
129.4615484289
 10
63.5677345454
 20
129.4615484289
  0
LINE
  5
153
330
1F
100
AcDbEntity
  8
0
  6
SLD-Сплошная
 62
     7
370
    25
100
AcDbLine
 10
62.8956350275
 20
128.501690842
 30
0.0
 11
63.5677345454
 21
129.4615484289
 31
0.0
  0
LINE
  5
154
330
1F
100
AcDbEntity
  8
0
  6
SLD-Сплошная
 62
     7
370
    25
100
AcDbLine
 10
57.2263380811
 20
128.501690842
 30
0.0
 11
56.5542385632
 21
129.4615484289
 31
0.0
  0
LINE
  5
155
330
1F
100
AcDbEntity
  8
0
  6
SLD-Сплошная
 62
     7
370
    25
100
AcDbLine
 10
56.5542385632
 20
172.8989847495
 30
0.0
 11
57.2263380811
 21
173.8588423364
 31
0.0
  0
LWPOLYLINE
  5
156
330
1F
100
AcDbEntity
  8
0
  6
SLD-Сплошная
 62
     7
370
    25
100
AcDbPolyline
 90
        2
 70
   128
 43
0.0
 10
56.5542385632
 20
172.8989847495
 10
56.5542385632
 20
172.8989847495
  0
LWPOLYLINE
  5
157
330
1F
100
AcDbEntity
  8
0
  6
SLD-Сплошная
 62
     7
370
    25
100
AcDbPolyline
 90
        2
 70
   128
 43
0.0
 10
38.342268394
 20
147.6735185981
 10
38.342268394
 20
147.6735185981
  0
LINE
  5
158
330
1F
100
AcDbEntity
  8
0
  6
SLD-Сплошная
 62
     7
370
    25
100
AcDbLine
 10
37.3824108071
 20
148.345618116
 30
0.0
 11
38.342268394
 21
147.6735185981
 31
0.0
  0
LINE
  5
159
330
1F
100
AcDbEntity
  8
0
  6
SLD-Сплошная
 62
     7
370
    25
100
AcDbLine
 10
37.3824108071
 20
154.0149150624
 30
0.0
 11
38.342268394
 21
154.6870145803
 31
0.0
  0
ARC
  5
15A
330
1F
100
AcDbEntity
  8
0
  6
SLD-Сплошная
 62
     7
370
    25
100
AcDbCircle
 10
60.0609865543
 20
151.1802665892
 30
0.0
 40
8.934951801230179
100
AcDbArc
 50
355.5534273277
 51
175.5534273277
  0
ARC
  5
15B
330
1F
100
AcDbEntity
  8
0
  6
SLD-Сплошная
 62
     7
370
    25
100
AcDbCircle
 10
60.0609865543
 20
151.1802665892
 30
0.0
 40
8.934951801230179
100
AcDbArc
 50
175.5534273277
 51
355.5534273277
  0
LINE
  5
15C
330
1F
100
AcDbEntity
  8
0
  6
SLD-Сплошная
 62
     7
370
    25
100
AcDbLine
 10
33.1109865543
 20
138.1206768346
 30
0.0
 11
35.2760500638
 21
134.3706768346
 31
0.0
  0
LINE
  5
15D
330
1F
100
AcDbEntity
  8
0
  6
SLD-Сплошная
 62
     7
370
    25
100
AcDbLine
 10
33.1109865543
 20
164.2398563439
 30
0.0
 11
33.1109865543
 21
138.1206768346
 31
0.0
  0
LINE
  5
15E
330
1F
100
AcDbEntity
  8
0
  6
SLD-Сплошная
 62
     7
370
    25
100
AcDbLine
 10
35.2760500638
 20
167.9898563439
 30
0.0
 11
33.1109865543
 21
164.2398563439
 31
0.0
  0
LINE
  5
15F
330
1F
100
AcDbEntity
  8
0
  6
SLD-Сплошная
 62
     7
370
    25
100
AcDbLine
 10
57.8959230448
 20
181.0494460985
 30
0.0
 11
35.2760500638
 21
167.9898563439
 31
0.0
  0
LINE
  5
160
330
1F
100
AcDbEntity
  8
0
  6
SLD-Сплошная
 62
     7
370
    25
100
AcDbLine
 10
62.2260500638
 20
181.0494460985
 30
0.0
 11
57.8959230448
 21
181.0494460985
 31
0.0
  0
LINE
  5
161
330
1F
100
AcDbEntity
  8
0
  6
SLD-Сплошная
 62
     7
370
    25
100
AcDbLine
 10
62.2260500638
 20
181.0494460985
 30
0.0
 11
84.8459230448
 21
167.9898563439
 31
0.0
  0
LINE
  5
162
330
1F
100
AcDbEntity
  8
0
  6
SLD-Сплошная
 62
     7
370
    25
100
AcDbLine
 10
84.8459230448
 20
167.9898563439
 30
0.0
 11
87.0109865543
 21
164.2398563439
 31
0.0
  0
LINE
  5
163
330
1F
100
AcDbEntity
  8
0
  6
SLD-Сплошная
 62
     7
370
    25
100
AcDbLine
 10
87.0109865543
 20
164.2398563439
 30
0.0
 11
87.0109865543
 21
138.1206768346
 31
0.0
  0
LINE
  5
164
330
1F
100
AcDbEntity
  8
0
  6
SLD-Сплошная
 62
     7
370
    25
100
AcDbLine
 10
87.0109865543
 20
138.1206768346
 30
0.0
 11
84.8459230448
 21
134.3706768346
 31
0.0
  0
LINE
  5
165
330
1F
100
AcDbEntity
  8
0
  6
SLD-Сплошная
 62
     7
370
    25
100
AcDbLine
 10
84.8459230448
 20
134.3706768346
 30
0.0
 11
62.2260500638
 21
121.3110870799
 31
0.0
  0
LINE
  5
166
330
1F
100
AcDbEntity
  8
0
  6
SLD-Сплошная
 62
     7
370
    25
100
AcDbLine
 10
57.8959230448
 20
121.3110870799
 30
0.0
 11
62.2260500638
 21
121.3110870799
 31
0.0
  0
LINE
  5
167
330
1F
100
AcDbEntity
  8
0
  6
SLD-Сплошная
 62
     7
370
    25
100
AcDbLine
 10
35.2760500638
 20
134.3706768346
 30
0.0
 11
57.8959230448
 21
121.3110870799
 31
0.0
  0
ARC
  5
168
330
1F
100
AcDbEntity
  8
0
  6
SLD-Сплошная
 62
     7
370
    25
100
AcDbCircle
 10
60.0609865543
 20
151.1802665892
 30
0.0
 40
29.94754388192843
100
AcDbArc
 50
334.1458263118
 51
0.0
  0
ARC
  5
169
330
1F
100
AcDbEntity
  8
0
  6
SLD-Сплошная
 62
     7
370
    25
100
AcDbCircle
 10
60.0609865543
 20
151.1802665892
 30
0.0
 40
29.94754388192843
100
AcDbArc
 50
0.0
 51
25.8541736882
  0
ARC
  5
16A
330
1F
100
AcDbEntity
  8
0
  6
SLD-Сплошная
 62
     7
370
    25
100
AcDbCircle
 10
60.0609865543
 20
151.1802665892
 30
0.0
 40
29.94754388192849
100
AcDbArc
 50
25.8541736882
 51
34.1458263118
  0
ARC
  5
16B
330
1F
100
AcDbEntity
  8
0
  6
SLD-Сплошная
 62
     7
370
    25
100
AcDbCircle
 10
60.0609865543
 20
151.1802665892
 30
0.0
 40
29.94754388192844
100
AcDbArc
 50
325.8541736882
 51
334.1458263118
  0
ARC
  5
16C
330
1F
100
AcDbEntity
  8
0
  6
SLD-Сплошная
 62
     7
370
    25
100
AcDbCircle
 10
60.0609865543
 20
151.1802665892
 30
0.0
 40
29.94754388192849
100
AcDbArc
 50
274.1458263118
 51
325.8541736882
  0
ARC
  5
16D
330
1F
100
AcDbEntity
  8
0
  6
SLD-Сплошная
 62
     7
370
    25
100
AcDbCircle
 10
60.0609865543
 20
151.1802665892
 30
0.0
 40
29.94754388192855
100
AcDbArc
 50
34.1458263118
 51
85.8541736882
  0
ARC
  5
16E
330
1F
100
AcDbEntity
  8
0
  6
SLD-Сплошная
 62
     7
370
    25
100
AcDbCircle
 10
60.0609865543
 20
151.1802665892
 30
0.0
 40
29.9475438819285
100
AcDbArc
 50
265.8541736882
 51
274.1458263118
  0
ARC
  5
16F
330
1F
100
AcDbEntity
  8
0
  6
SLD-Сплошная
 62
     7
370
    25
100
AcDbCircle
 10
60.0609865543
 20
151.1802665892
 30
0.0
 40
29.94754388192855
100
AcDbArc
 50
85.8541736882
 51
94.1458263118
  0
ARC
  5
170
330
1F
100
AcDbEntity
  8
0
  6
SLD-Сплошная
 62
     7
370
    25
100
AcDbCircle
 10
60.0609865543
 20
151.1802665892
 30
0.0
 40
29.9475438819285
100
AcDbArc
 50
214.1458263118
 51
265.8541736882
  0
ARC
  5
171
330
1F
100
AcDbEntity
  8
0
  6
SLD-Сплошная
 62
     7
370
    25
100
AcDbCircle
 10
60.0609865543
 20
151.1802665892
 30
0.0
 40
29.94754388192854
100
AcDbArc
 50
94.1458263118
 51
145.8541736882
  0
ARC
  5
172
330
1F
100
AcDbEntity
  8
0
  6
SLD-Сплошная
 62
     7
370
    25
100
AcDbCircle
 10
60.0609865543
 20
151.1802665892
 30
0.0
 40
29.94754388192867
100
AcDbArc
 50
145.8541736882
 51
154.1458263118
  0
ARC
  5
173
330
1F
100
AcDbEntity
  8
0
  6
SLD-Сплошная
 62
     7
370
    25
100
AcDbCircle
 10
60.0609865543
 20
151.1802665892
 30
0.0
 40
29.94754388192858
100
AcDbArc
 50
205.8541736882
 51
214.1458263118
  0
ARC
  5
174
330
1F
100
AcDbEntity
  8
0
  6
SLD-Сплошная
 62
     7
370
    25
100
AcDbCircle
 10
60.0609865543
 20
151.1802665892
 30
0.0
 40
29.94754388192858
100
AcDbArc
 50
180.0
 51
205.8541736882
  0
ARC
  5
175
330
1F
100
AcDbEntity
  8
0
  6
SLD-Сплошная
 62
     7
370
    25
100
AcDbCircle
 10
60.0609865543
 20
151.1802665892
 30
0.0
 40
29.94754388192867
100
AcDbArc
 50
154.1458263118
 51
180.0
  0
ARC
  5
176
330
1F
100
AcDbEntity
  8
0
  6
SLD-Сплошная
 62
     7
370
    25
100
AcDbCircle
 10
57.7126948771
 20
145.4520778951
 30
0.0
 40
2.850000000000001
100
AcDbArc
 50
180.0
 51
228.8032957614
  0
ARC
  5
177
330
1F
100
AcDbEntity
  8
0
  6
SLD-Сплошная
 62
     7
370
    25
100
AcDbCircle
 10
57.7126948771
 20
145.4520778951
 30
0.0
 40
2.850000000000009
100
AcDbArc
 50
266.613996148
 51
180.0
  0
CIRCLE
  5
178
330
1F
100
AcDbEntity
  8
0
  6
SLD-Сплошная
 62
     7
370
    25
100
AcDbCircle
 10
57.7126948771
 20
145.4520778951
 30
0.0
 40
2.500000000000007
  0
LINE
  5
179
330
1F
100
AcDbEntity
  8
0
  6
SLD-Сплошная
 62
     7
370
    25
100
AcDbLine
 10
56.0351822505
 20
145.2520778951
 30
0.0
 11
59.3902075036
 21
145.2520778951
 31
0.0
  0
ARC
  5
17A
330
1F
100
AcDbEntity
  8
0
  6
SLD-Сплошная
 62
     7
370
    25
100
AcDbCircle
 10
56.0351822505
 20
145.4270778951
 30
0.0
 40
0.1750000000000114
100
AcDbArc
 50
90.0
 51
270.0
  0
LINE
  5
17B
330
1F
100
AcDbEntity
  8
0
  6
SLD-Сплошная
 62
     7
370
    25
100
AcDbLine
 10
57.5376948771
 20
145.6020778951
 30
0.0
 11
56.0351822505
 21
145.6020778951
 31
0.0
  0
LINE
  5
17C
330
1F
100
AcDbEntity
  8
0
  6
SLD-Сплошная
 62
     7
370
    25
100
AcDbLine
 10
57.5376948771
 20
145.6020778951
 30
0.0
 11
57.5376948771
 21
146.1770778951
 31
0.0
  0
ARC
  5
17D
330
1F
100
AcDbEntity
  8
0
  6
SLD-Сплошная
 62
     7
370
    25
100
AcDbCircle
 10
57.7126948771
 20
146.1770778951
 30
0.0
 40
0.1750000000000043
100
AcDbArc
 50
0.0
 51
180.0
  0
LINE
  5
17E
330
1F
100
AcDbEntity
  8
0
  6
SLD-Сплошная
 62
     7
370
    25
100
AcDbLine
 10
57.8876948771
 20
146.1770778951
 30
0.0
 11
57.8876948771
 21
145.6020778951
 31
0.0
  0
LINE
  5
17F
330
1F
100
AcDbEntity
  8
0
  6
SLD-Сплошная
 62
     7
370
    25
100
AcDbLine
 10
59.3902075036
 20
145.6020778951
 30
0.0
 11
57.8876948771
 21
145.6020778951
 31
0.0
  0
ARC
  5
180
330
1F
100
AcDbEntity
  8
0
  6
SLD-Сплошная
 62
     7
370
    25
100
AcDbCircle
 10
59.3902075036
 20
145.4270778951
 30
0.0
 40
0.1750000000000114
100
AcDbArc
 50
270.0
 51
90.0
  0
LINE
  5
181
330
1F
100
AcDbEntity
  8
0
  6
SLD-Сплошная
 62
     7
370
    25
100
AcDbLine
 10
56.7351822505
 20
144.5520778951
 30
0.0
 11
58.6902075036
 21
144.5520778951
 31
0.0
  0
ARC
  5
182
330
1F
100
AcDbEntity
  8
0
  6
SLD-Сплошная
 62
     7
370
    25
100
AcDbCircle
 10
56.7351822505
 20
144.7270778951
 30
0.0
 40
0.1750000000000114
100
AcDbArc
 50
90.0
 51
270.0
  0
ARC
  5
183
330
1F
100
AcDbEntity
  8
0
  6
SLD-Сплошная
 62
     7
370
    25
100
AcDbCircle
 10
58.6902075036
 20
144.7270778951
 30
0.0
 40
0.1750000000000114
100
AcDbArc
 50
270.0
 51
90.0
  0
LINE
  5
184
330
1F
100
AcDbEntity
  8
0
  6
SLD-Сплошная
 62
     7
370
    25
100
AcDbLine
 10
58.6902075036
 20
144.9020778951
 30
0.0
 11
56.7351822505
 21
144.9020778951
 31
0.0
  0
ARC
  5
185
330
1F
100
AcDbEntity
  8
0
  6
SLD-Сплошная
 62
     7
370
    25
100
AcDbCircle
 10
57.4351822505
 20
144.0270778951
 30
0.0
 40
0.1750000000000114
100
AcDbArc
 50
90.0
 51
270.0
  0
LINE
  5
186
330
1F
100
AcDbEntity
  8
0
  6
SLD-Сплошная
 62
     7
370
    25
100
AcDbLine
 10
57.4351822505
 20
144.2020778951
 30
0.0
 11
57.9902075036
 21
144.2020778951
 31
0.0
  0
ARC
  5
187
330
1F
100
AcDbEntity
  8
0
  6
SLD-Сплошная
 62
     7
370
    25
100
AcDbCircle
 10
57.9902075036
 20
144.0270778951
 30
0.0
 40
0.1750000000000114
100
AcDbArc
 50
270.0
 51
90.0
  0
LINE
  5
188
330
1F
100
AcDbEntity
  8
0
  6
SLD-Сплошная
 62
     7
370
    25
100
AcDbLine
 10
57.9902075036
 20
143.8520778951
 30
0.0
 11
57.4351822505
 21
143.8520778951
 31
0.0
  0
LINE
  5
189
330
1F
100
AcDbEntity
  8
0
  6
SLD-Сплошная
 62
     7
370
    25
100
AcDbLine
 10
52.1558181598
 20
148.1243706275
 30
0.0
 11
52.9383112616
 21
145.7857452606
 31
0.0
  0
LINE
  5
18A
330
1F
100
AcDbEntity
  8
0
  6
SLD-Сплошная
 62
     7
370
    25
100
AcDbLine
 10
60.6907310566
 20
150.9801125351
 30
0.0
 11
52.1558181598
 21
148.1243706275
 31
0.0
  0
LINE
  5
18B
330
1F
100
AcDbEntity
  8
0
  6
SLD-Сплошная
 62
     7
370
    25
100
AcDbLine
 10
62.1533433058
 20
146.6088252996
 30
0.0
 11
60.6907310566
 21
150.9801125351
 31
0.0
  0
ARC
  5
18C
330
1F
100
AcDbEntity
  8
0
  6
SLD-Сплошная
 62
     7
370
    25
100
AcDbCircle
 10
60.0609865543
 20
138.6802665892
 30
0.0
 40
8.200000000000056
100
AcDbArc
 50
44.4883384005
 51
75.2166104969
  0
ARC
  5
18D
330
1F
100
AcDbEntity
  8
0
  6
SLD-Сплошная
 62
     7
370
    25
100
AcDbCircle
 10
60.2545240708
 20
162.9040300082
 30
0.0
 40
2.999999999999996
100
AcDbArc
 50
250.3858351015
 51
287.7226433229
  0
LINE
  5
18E
330
1F
100
AcDbEntity
  8
0
  6
SLD-Сплошная
 62
     7
370
    25
100
AcDbLine
 10
51.6247702308
 20
154.1236690138
 30
0.0
 11
53.4834712771
 21
148.5685971464
 31
0.0
  0
LINE
  5
18F
330
1F
100
AcDbEntity
  8
0
  6
SLD-Сплошная
 62
     7
370
    25
100
AcDbLine
 10
56.4177016239
 20
159.3386879197
 30
0.0
 11
59.3630779393
 21
150.5358860162
 31
0.0
  0
ELLIPSE
  5
190
330
1F
100
AcDbEntity
  8
0
  6
SLD-Сплошная
 62
     7
370
    25
100
AcDbEllipse
 10
35.8835826531
 20
163.1289362656
 30
0.0
 11
-2.004293700431447
 21
-5.066623313622046
 31
0.0
210
0.0
220
0.0
230
1.0
 40
0.6882429703
 41
3.825462498658926
 42
4.712388980384683
  0
ELLIPSE
  5
191
330
1F
100
AcDbEntity
  8
0
  6
SLD-Сплошная
 62
     7
370
    25
100
AcDbEllipse
 10
84.2383904555
 20
163.1289362656
 30
0.0
 11
2.004293700431461
 21
-5.066623313622046
 31
0.0
210
0.0
220
0.0
230
1.0
 40
0.6882429703
 41
1.570796326794894
 42
2.457722808520187
  0
ARC
  5
192
330
1F
100
AcDbEntity
  8
0
  6
SLD-Сплошная
 62
     7
370
    25
100
AcDbCircle
 10
60.0609865543
 20
119.5302665892
 30
0.0
 40
6.800000000000014
100
AcDbArc
 50
177.2355682531
 51
2.7644317469
  0
ARC
  5
193
330
1F
100
AcDbEntity
  8
0
  6
SLD-Сплошная
 62
     7
370
    25
100
AcDbCircle
 10
60.0609865543
 20
151.1802665892
 30
0.0
 40
32.05
100
AcDbArc
 50
282.2349855497
 51
257.7650144503
  0
LINE
  5
194
330
1F
100
AcDbEntity
  8
0
  6
SLD-Сплошная
 62
     7
370
    25
100
AcDbLine
 10
45.7609865543
 20
179.8632319171
 30
0.0
 11
45.7609865543
 21
199.8267431802
 31
0.0
  0
LINE
  5
195
330
1F
100
AcDbEntity
  8
0
  6
SLD-Сплошная
 62
     7
370
    25
100
AcDbLine
 10
49.7609865543
 20
199.8267431802
 30
0.0
 11
49.7609865543
 21
191.8302846606
 31
0.0
  0
LINE
  5
196
330
1F
100
AcDbEntity
  8
0
  6
SLD-Сплошная
 62
     7
370
    25
100
AcDbLine
 10
70.3609865543
 20
191.8302846606
 30
0.0
 11
49.7609865543
 21
191.8302846606
 31
0.0
  0
LINE
  5
197
330
1F
100
AcDbEntity
  8
0
  6
SLD-Сплошная
 62
     7
370
    25
100
AcDbLine
 10
70.3609865543
 20
191.8302846606
 30
0.0
 11
70.3609865543
 21
199.8267431802
 31
0.0
  0
LINE
  5
198
330
1F
100
AcDbEntity
  8
0
  6
SLD-Сплошная
 62
     7
370
    25
100
AcDbLine
 10
74.3609865543
 20
179.8632319171
 30
0.0
 11
74.3609865543
 21
199.8267431802
 31
0.0
  0
LINE
  5
199
330
1F
100
AcDbEntity
  8
0
  6
SLD-Сплошная
 62
     7
370
    25
100
AcDbLine
 10
70.3609865543
 20
199.8267431802
 30
0.0
 11
70.3609865543
 21
200.6302665892
 31
0.0
  0
LINE
  5
19A
330
1F
100
AcDbEntity
  8
0
  6
SLD-Сплошная
 62
     7
370
    25
100
AcDbLine
 10
74.3609865543
 20
199.8267431802
 30
0.0
 11
74.3609865543
 21
200.6302665892
 31
0.0
  0
LINE
  5
19B
330
1F
100
AcDbEntity
  8
0
  6
SLD-Сплошная
 62
     7
370
    25
100
AcDbLine
 10
49.7609865543
 20
200.6302665892
 30
0.0
 11
49.7609865543
 21
199.8267431802
 31
0.0
  0
LINE
  5
19C
330
1F
100
AcDbEntity
  8
0
  6
SLD-Сплошная
 62
     7
370
    25
100
AcDbLine
 10
45.7609865543
 20
199.8267431802
 30
0.0
 11
45.7609865543
 21
200.6302665892
 31
0.0
  0
LINE
  5
19D
330
1F
100
AcDbEntity
  8
0
  6
SLD-Сплошная
 62
     7
370
    25
100
AcDbLine
 10
394.0205250178
 20
200.6302665892
 30
0.0
 11
390.0205250178
 21
200.6302665892
 31
0.0
  0
LINE
  5
19E
330
1F
100
AcDbEntity
  8
0
  6
SLD-Сплошная
 62
     7
370
    25
100
AcDbLine
 10
367.2205250178
 20
200.6302665892
 30
0.0
 11
365.4205250178
 21
200.6302665892
 31
0.0
  0
LINE
  5
19F
330
1F
100
AcDbEntity
  8
0
  6
SLD-Сплошная
 62
     7
370
    25
100
AcDbLine
 10
369.7205250178
 20
187.9611828844
 30
0.0
 11
369.7205250178
 21
176.1802665892
 31
0.0
  0
LINE
  5
1A0
330
1F
100
AcDbEntity
  8
0
  6
SLD-Сплошная
 62
     7
370
    25
100
AcDbLine
 10
374.7205250178
 20
187.9611828844
 30
0.0
 11
374.7205250178
 21
176.1802665892
 31
0.0
  0
ARC
  5
1A1
330
1F
100
AcDbEntity
  8
0
  6
SLD-Сплошная
 62
     7
370
    25
100
AcDbCircle
 10
372.2205250178
 20
176.1802665892
 30
0.0
 40
2.499999999999917
100
AcDbArc
 50
180.0
 51
234.9026921892
  0
ARC
  5
1A2
330
1F
100
AcDbEntity
  8
0
  6
SLD-Сплошная
 62
     7
370
    25
100
AcDbCircle
 10
372.2205250178
 20
176.1802665892
 30
0.0
 40
2.5
100
AcDbArc
 50
338.4957962787
 51
0.0
  0
ARC
  5
1A3
330
1F
100
AcDbEntity
  8
0
  6
SLD-Сплошная
 62
     7
370
    25
100
AcDbCircle
 10
372.2170301998
 20
176.1919159828
 30
0.0
 40
2.507540072267103
100
AcDbArc
 50
235.1210733988
 51
338.2774150692
  0
LINE
  5
1A4
330
1F
100
AcDbEntity
  8
0
  6
SLD-Сплошная
 62
     7
370
    25
100
AcDbLine
 10
384.7205250178
 20
187.9611828844
 30
0.0
 11
384.7205250178
 21
176.1802665892
 31
0.0
  0
LINE
  5
1A5
330
1F
100
AcDbEntity
  8
0
  6
SLD-Сплошная
 62
     7
370
    25
100
AcDbLine
 10
389.7205250178
 20
187.9611828844
 30
0.0
 11
389.7205250178
 21
176.1802665892
 31
0.0
  0
ARC
  5
1A6
330
1F
100
AcDbEntity
  8
0
  6
SLD-Сплошная
 62
     7
370
    25
100
AcDbCircle
 10
387.2205250178
 20
176.1802665892
 30
0.0
 40
2.500000000000079
100
AcDbArc
 50
180.0
 51
201.5042037213
  0
ARC
  5
1A7
330
1F
100
AcDbEntity
  8
0
  6
SLD-Сплошная
 62
     7
370
    25
100
AcDbCircle
 10
387.2205250178
 20
176.1802665892
 30
0.0
 40
2.500000000000114
100
AcDbArc
 50
305.0973078107
 51
0.0
  0
ARC
  5
1A8
330
1F
100
AcDbEntity
  8
0
  6
SLD-Сплошная
 62
     7
370
    25
100
AcDbCircle
 10
387.2240198359
 20
176.1919159828
 30
0.0
 40
2.507540072267386
100
AcDbArc
 50
201.7225849308
 51
304.8789266011
  0
LINE
  5
1A9
330
1F
100
AcDbEntity
  8
0
  6
SLD-Сплошная
 62
     7
370
    25
100
AcDbLine
 10
369.7205250178
 20
115.6302665892
 30
0.0
 11
369.7205250178
 21
126.1802665892
 31
0.0
  0
LINE
  5
1AA
330
1F
100
AcDbEntity
  8
0
  6
SLD-Сплошная
 62
     7
370
    25
100
AcDbLine
 10
374.7205250178
 20
115.6302665892
 30
0.0
 11
374.7205250178
 21
126.1802665892
 31
0.0
  0
ARC
  5
1AB
330
1F
100
AcDbEntity
  8
0
  6
SLD-Сплошная
 62
     7
370
    25
100
AcDbCircle
 10
387.2205250178
 20
115.6302665892
 30
0.0
 40
2.5
100
AcDbArc
 50
180.0
 51
0.0
  0
LINE
  5
1AC
330
1F
100
AcDbEntity
  8
0
  6
SLD-Сплошная
 62
     7
370
    25
100
AcDbLine
 10
384.7205250178
 20
115.6302665892
 30
0.0
 11
384.7205250178
 21
126.1802665892
 31
0.0
  0
LINE
  5
1AD
330
1F
100
AcDbEntity
  8
0
  6
SLD-Сплошная
 62
     7
370
    25
100
AcDbLine
 10
389.7205250178
 20
115.6302665892
 30
0.0
 11
389.7205250178
 21
126.1802665892
 31
0.0
  0
ARC
  5
1AE
330
1F
100
AcDbEntity
  8
0
  6
SLD-Сплошная
 62
     7
370
    25
100
AcDbCircle
 10
387.2205250178
 20
126.1802665892
 30
0.0
 40
2.500000000000053
100
AcDbArc
 50
158.4957962788
 51
180.0
  0
ARC
  5
1AF
330
1F
100
AcDbEntity
  8
0
  6
SLD-Сплошная
 62
     7
370
    25
100
AcDbCircle
 10
387.2240198359
 20
126.1686171957
 30
0.0
 40
2.507540072267137
100
AcDbArc
 50
55.1210733988
 51
158.2774150692
  0
ARC
  5
1B0
330
1F
100
AcDbEntity
  8
0
  6
SLD-Сплошная
 62
     7
370
    25
100
AcDbCircle
 10
387.2205250178
 20
126.1802665892
 30
0.0
 40
2.500000000000141
100
AcDbArc
 50
0.0
 51
54.9026921892
  0
ARC
  5
1B1
330
1F
100
AcDbEntity
  8
0
  6
SLD-Сплошная
 62
     7
370
    25
100
AcDbCircle
 10
372.2205250178
 20
115.6302665892
 30
0.0
 40
2.5
100
AcDbArc
 50
180.0
 51
0.0
  0
ARC
  5
1B2
330
1F
100
AcDbEntity
  8
0
  6
SLD-Сплошная
 62
     7
370
    25
100
AcDbCircle
 10
372.2205250178
 20
126.1802665892
 30
0.0
 40
2.500000000000141
100
AcDbArc
 50
125.0973078108
 51
180.0
  0
ARC
  5
1B3
330
1F
100
AcDbEntity
  8
0
  6
SLD-Сплошная
 62
     7
370
    25
100
AcDbCircle
 10
372.2170301998
 20
126.1686171957
 30
0.0
 40
2.507540072267327
100
AcDbArc
 50
21.7225849308
 51
124.8789266012
  0
ARC
  5
1B4
330
1F
100
AcDbEntity
  8
0
  6
SLD-Сплошная
 62
     7
370
    25
100
AcDbCircle
 10
372.2205250178
 20
126.1802665892
 30
0.0
 40
2.500000000000106
100
AcDbArc
 50
0.0
 51
21.5042037212
  0
ARC
  5
1B5
330
1F
100
AcDbEntity
  8
0
  6
SLD-Сплошная
 62
     7
370
    25
100
AcDbCircle
 10
379.7205250178
 20
151.1802665892
 30
0.0
 40
32.05
100
AcDbArc
 50
108.1805538416
 51
251.8194461584
  0
ARC
  5
1B6
330
1F
100
AcDbEntity
  8
0
  6
SLD-Сплошная
 62
     7
370
    25
100
AcDbCircle
 10
379.7205250178
 20
151.1802665892
 30
0.0
 40
32.05
100
AcDbArc
 50
81.0248404589
 51
98.9751595411
  0
ARC
  5
1B7
330
1F
100
AcDbEntity
  8
0
  6
SLD-Сплошная
 62
     7
370
    25
100
AcDbCircle
 10
379.7205250178
 20
151.1802665892
 30
0.0
 40
32.05000000000007
100
AcDbArc
 50
288.1805538416
 51
71.8194461584
  0
ARC
  5
1B8
330
1F
100
AcDbEntity
  8
0
  6
SLD-Сплошная
 62
     7
370
    25
100
AcDbCircle
 10
379.7205250178
 20
151.1802665892
 30
0.0
 40
34.4093010682206
100
AcDbArc
 50
261.644795141
 51
278.355204859
  0
LINE
  5
1B9
330
1F
100
AcDbEntity
  8
0
  6
SLD-Сплошная
 62
     7
370
    25
100
AcDbLine
 10
389.7205250178
 20
187.9611828844
 30
0.0
 11
389.7205250178
 21
201.7793183822
 31
0.0
  0
LINE
  5
1BA
330
1F
100
AcDbEntity
  8
0
  6
SLD-Сплошная
 62
     7
370
    25
100
AcDbLine
 10
384.7205250178
 20
187.9611828844
 30
0.0
 11
384.7205250178
 21
201.7793183822
 31
0.0
  0
LINE
  5
1BB
330
1F
100
AcDbEntity
  8
0
  6
SLD-Сплошная
 62
     7
370
    25
100
AcDbLine
 10
384.7205250178
 20
201.7793183822
 30
0.0
 11
389.7205250178
 21
201.7793183822
 31
0.0
  0
LINE
  5
1BC
330
1F
100
AcDbEntity
  8
0
  6
SLD-Сплошная
 62
     7
370
    25
100
AcDbLine
 10
369.7205250178
 20
187.9611828844
 30
0.0
 11
369.7205250178
 21
199.4427771181
 31
0.0
  0
LINE
  5
1BD
330
1F
100
AcDbEntity
  8
0
  6
SLD-Сплошная
 62
     7
370
    25
100
AcDbLine
 10
369.7205250178
 20
199.4427771181
 30
0.0
 11
369.7205250178
 21
201.7793183822
 31
0.0
  0
LINE
  5
1BE
330
1F
100
AcDbEntity
  8
0
  6
SLD-Сплошная
 62
     7
370
    25
100
AcDbLine
 10
374.7205250178
 20
201.7793183822
 30
0.0
 11
369.7205250178
 21
201.7793183822
 31
0.0
  0
LINE
  5
1BF
330
1F
100
AcDbEntity
  8
0
  6
SLD-Сплошная
 62
     7
370
    25
100
AcDbLine
 10
374.7205250178
 20
187.9611828844
 30
0.0
 11
374.7205250178
 21
201.7793183822
 31
0.0
  0
LINE
  5
1C0
330
1F
100
AcDbEntity
  8
0
  6
SLD-Сплошная
 62
     7
370
    25
100
AcDbLine
 10
374.7205250178
 20
186.6302665892
 30
0.0
 11
384.7205250178
 21
186.6302665892
 31
0.0
  0
ARC
  5
1C1
330
1F
100
AcDbEntity
  8
0
  6
SLD-Сплошная
 62
     7
370
    25
100
AcDbCircle
 10
379.7205250178
 20
145.4113030225
 30
0.0
 40
33.21091224697681
100
AcDbArc
 50
255.864678464
 51
284.135321536
  0
LINE
  5
1C2
330
1F
100
AcDbEntity
  8
0
  6
SLD-Сплошная
 62
     7
370
    25
100
AcDbLine
 10
367.2205250178
 20
199.4427771181
 30
0.0
 11
369.7205250178
 21
199.4427771181
 31
0.0
  0
LINE
  5
1C3
330
1F
100
AcDbEntity
  8
0
  6
SLD-Сплошная
 62
     7
370
    25
100
AcDbLine
 10
367.2205250178
 20
199.4427771181
 30
0.0
 11
367.2205250178
 21
201.7793183822
 31
0.0
  0
LINE
  5
1C4
330
1F
100
AcDbEntity
  8
0
  6
SLD-Сплошная
 62
     7
370
    25
100
AcDbLine
 10
367.2205250178
 20
201.7793183822
 30
0.0
 11
369.7205250178
 21
201.7793183822
 31
0.0
  0
LINE
  5
1C5
330
1F
100
AcDbEntity
  8
0
  6
SLD-Сплошная
 62
     7
370
    25
100
AcDbLine
 10
374.7205250178
 20
201.7793183822
 30
0.0
 11
374.7205250178
 21
201.9341473734
 31
0.0
  0
LINE
  5
1C6
330
1F
100
AcDbEntity
  8
0
  6
SLD-Сплошная
 62
     7
370
    25
100
AcDbLine
 10
384.7205250178
 20
201.9341473734
 30
0.0
 11
374.7205250178
 21
201.9341473734
 31
0.0
  0
LINE
  5
1C7
330
1F
100
AcDbEntity
  8
0
  6
SLD-Сплошная
 62
     7
370
    25
100
AcDbLine
 10
384.7205250178
 20
201.7793183822
 30
0.0
 11
384.7205250178
 21
201.9341473734
 31
0.0
  0
LINE
  5
1C8
330
1F
100
AcDbEntity
  8
0
  6
SLD-Сплошная
 62
     7
370
    25
100
AcDbLine
 10
386.7205250178
 20
201.7793183822
 30
0.0
 11
386.7205250178
 21
209.6013894514
 31
0.0
  0
LINE
  5
1C9
330
1F
100
AcDbEntity
  8
0
  6
SLD-Сплошная
 62
     7
370
    25
100
AcDbLine
 10
372.7205250178
 20
201.7793183822
 30
0.0
 11
372.7205250178
 21
209.6013894514
 31
0.0
  0
LINE
  5
1CA
330
1F
100
AcDbEntity
  8
0
  6
SLD-Сплошная
 62
     7
370
    25
100
AcDbLine
 10
386.7205250178
 20
209.6013894514
 30
0.0
 11
372.7205250178
 21
209.6013894514
 31
0.0
  0
LINE
  5
1CB
330
1F
100
AcDbEntity
  8
0
  6
SLD-Сплошная
 62
     7
370
    25
100
AcDbLine
 10
365.4205250178
 20
195.9302665892
 30
0.0
 11
365.4205250178
 21
179.8632319171
 31
0.0
  0
LINE
  5
1CC
330
1F
100
AcDbEntity
  8
0
  6
SLD-Сплошная
 62
     7
370
    25
100
AcDbLine
 10
369.4205250178
 20
195.9302665892
 30
0.0
 11
369.4205250178
 21
181.5301018441
 31
0.0
  0
LINE
  5
1CD
330
1F
100
AcDbEntity
  8
0
  6
SLD-Сплошная
 62
     7
370
    25
100
AcDbLine
 10
390.0205250178
 20
181.5301018441
 30
0.0
 11
390.0205250178
 21
195.9302665892
 31
0.0
  0
LINE
  5
1CE
330
1F
100
AcDbEntity
  8
0
  6
SLD-Сплошная
 62
     7
370
    25
100
AcDbLine
 10
394.0205250178
 20
195.9302665892
 30
0.0
 11
394.0205250178
 21
179.8632319171
 31
0.0
  0
LINE
  5
1CF
330
1F
100
AcDbEntity
  8
0
  6
SLD-Сплошная
 62
     7
370
    25
100
AcDbLine
 10
390.0205250178
 20
195.9302665892
 30
0.0
 11
390.0205250178
 21
200.6302665892
 31
0.0
  0
LINE
  5
1D0
330
1F
100
AcDbEntity
  8
0
  6
SLD-Сплошная
 62
     7
370
    25
100
AcDbLine
 10
394.0205250178
 20
200.6302665892
 30
0.0
 11
394.0205250178
 21
195.9302665892
 31
0.0
  0
LINE
  5
1D1
330
1F
100
AcDbEntity
  8
0
  6
SLD-Сплошная
 62
     7
370
    25
100
AcDbLine
 10
369.4205250178
 20
199.4427771181
 30
0.0
 11
369.4205250178
 21
195.9302665892
 31
0.0
  0
LINE
  5
1D2
330
1F
100
AcDbEntity
  8
0
  6
SLD-Сплошная
 62
     7
370
    25
100
AcDbLine
 10
365.4205250178
 20
200.6302665892
 30
0.0
 11
365.4205250178
 21
195.9302665892
 31
0.0
  0
LINE
  5
1D3
330
1F
100
AcDbEntity
  8
0
  6
SLD-Сплошная
 62
     7
370
    25
100
AcDbLine
 10
369.4205250178
 20
190.1722095155
 30
0.0
 11
369.7205250178
 21
190.1722095155
 31
0.0
  0
LINE
  5
1D4
330
1F
100
AcDbEntity
  8
0
  6
SLD-Сплошная
 62
     7
370
    25
100
AcDbLine
 10
389.7205250178
 20
190.1722095155
 30
0.0
 11
390.0205250178
 21
190.1722095155
 31
0.0
  0
LINE
  5
1D5
330
1F
100
AcDbEntity
  8
0
  6
SLD-Сплошная
 62
     7
370
    25
100
AcDbLine
 10
369.4205250178
 20
191.8302846606
 30
0.0
 11
369.7205250178
 21
191.8302846606
 31
0.0
  0
LINE
  5
1D6
330
1F
100
AcDbEntity
  8
0
  6
SLD-Сплошная
 62
     7
370
    25
100
AcDbLine
 10
389.7205250178
 20
191.8302846606
 30
0.0
 11
390.0205250178
 21
191.8302846606
 31
0.0
  0
LINE
  5
1D7
330
1F
100
AcDbEntity
  8
0
  6
SLD-Сплошная
 62
     7
370
    25
100
AcDbLine
 10
133.8915556051
 20
266.2226735818
 30
0.0
 11
130.8915556051
 21
266.2226735818
 31
0.0
  0
LINE
  5
1D8
330
1F
100
AcDbEntity
  8
0
  6
SLD-Сплошная
 62
     7
370
    25
100
AcDbLine
 10
130.8915556051
 20
252.6226735818
 30
0.0
 11
133.8915556051
 21
252.6226735818
 31
0.0
  0
ARC
  5
1D9
330
1F
100
AcDbEntity
  8
0
  6
SLD-Сплошная
 62
     7
370
    25
100
AcDbCircle
 10
273.8915556051
 20
259.4226735818
 30
0.0
 40
150.0
100
AcDbArc
 50
167.662684676
 51
176.4505011539
  0
LWPOLYLINE
  5
1DA
330
1F
100
AcDbEntity
  8
0
  6
SLD-Сплошная
 62
     7
370
    25
100
AcDbPolyline
 90
        3
 70
   128
 43
0.0
 10
124.0076085388
 20
265.3220304806
 10
123.8915556051
 20
259.4226735818
 10
124.0076085388
 20
253.5233166831
  0
ARC
  5
1DB
330
1F
100
AcDbEntity
  8
0
  6
SLD-Сплошная
 62
     7
370
    25
100
AcDbCircle
 10
273.8915556051
 20
259.4226735818
 30
0.0
 40
150.0
100
AcDbArc
 50
183.5494988461
 51
192.337315324
  0
LINE
  5
1DC
330
1F
100
AcDbEntity
  8
0
  6
SLD-Сплошная
 62
     7
370
    25
100
AcDbLine
 10
127.3555617333
 20
227.3726735818
 30
0.0
 11
133.8915556051
 21
227.3726735818
 31
0.0
  0
LINE
  5
1DD
330
1F
100
AcDbEntity
  8
0
  6
SLD-Сплошная
 62
     7
370
    25
100
AcDbLine
 10
133.8915556051
 20
291.4726735818
 30
0.0
 11
127.3555617333
 21
291.4726735818
 31
0.0
  0
LINE
  5
1DE
330
1F
100
AcDbEntity
  8
0
  6
SLD-Сплошная
 62
     7
370
    25
100
AcDbLine
 10
133.8915556051
 20
252.6226735818
 30
0.0
 11
186.4915556051
 21
252.6226735818
 31
0.0
  0
LINE
  5
1DF
330
1F
100
AcDbEntity
  8
0
  6
SLD-Сплошная
 62
     7
370
    25
100
AcDbLine
 10
186.4915556051
 20
266.2226735818
 30
0.0
 11
133.8915556051
 21
266.2226735818
 31
0.0
  0
LINE
  5
1E0
330
1F
100
AcDbEntity
  8
0
  6
SLD-Сплошная
 62
     7
370
    25
100
AcDbLine
 10
148.7815556051
 20
291.4726735818
 30
0.0
 11
133.8915556051
 21
291.4726735818
 31
0.0
  0
LINE
  5
1E1
330
1F
100
AcDbEntity
  8
0
  6
SLD-Сплошная
 62
     7
370
    25
100
AcDbLine
 10
186.4915556051
 20
291.4726735818
 30
0.0
 11
170.9382222718
 21
291.4726735818
 31
0.0
  0
LINE
  5
1E2
330
1F
100
AcDbEntity
  8
0
  6
SLD-Сплошная
 62
     7
370
    25
100
AcDbLine
 10
133.8915556051
 20
227.3726735818
 30
0.0
 11
186.4915556051
 21
227.3726735818
 31
0.0
  0
LINE
  5
1E3
330
1F
100
AcDbEntity
  8
0
  6
SLD-Сплошная
 62
     7
370
    25
100
AcDbLine
 10
211.5758631793
 20
230.6726888633
 30
0.0
 11
216.1830082943
 21
230.7199985144
 31
0.0
  0
ARC
  5
1E4
330
1F
100
AcDbEntity
  8
0
  6
SLD-Сплошная
 62
     7
370
    25
100
AcDbCircle
 10
211.4915556051
 20
463.234737638
 30
0.0
 40
232.5620640561955
100
AcDbArc
 50
272.1490196966
 51
277.9987919837
  0
ARC
  5
1E5
330
1F
100
AcDbEntity
  8
0
  6
SLD-Сплошная
 62
     7
370
    25
100
AcDbCircle
 10
211.4915556051
 20
463.234737638
 30
0.0
 40
232.5620640561955
100
AcDbArc
 50
278.9216396533
 51
282.6377445265
  0
ARC
  5
1E6
330
1F
100
AcDbEntity
  8
0
  6
SLD-Сплошная
 62
     7
370
    25
100
AcDbCircle
 10
211.4915556051
 20
55.6106095257
 30
0.0
 40
232.5620640561955
100
AcDbArc
 50
77.3670933374
 51
81.0783603467
  0
ARC
  5
1E7
330
1F
100
AcDbEntity
  8
0
  6
SLD-Сплошная
 62
     7
370
    25
100
AcDbCircle
 10
211.4915556051
 20
55.6106095257
 30
0.0
 40
232.5620640561955
100
AcDbArc
 50
82.0012080163
 51
87.8509803034
  0
LINE
  5
1E8
330
1F
100
AcDbEntity
  8
0
  6
SLD-Сплошная
 62
     7
370
    25
100
AcDbLine
 10
216.1830082943
 20
288.1253486493
 30
0.0
 11
211.4915556051
 21
288.1726735818
 31
0.0
  0
SPLINE
  5
1E9
330
1F
100
AcDbEntity
  8
0
  6
SLD-Сплошная
 62
     7
370
    25
100
AcDbSpline
210
0.0
220
0.0
230
1.0
 70
     8
 71
     3
 72
     9
 73
     5
 74
     0
 42
0.00000001
 43
0.00000001
 40
0.0
 40
0.0
 40
0.0
 40
0.0
 40
0.2898131504117403
 40
1.0
 40
1.0
 40
1.0
 40
1.0
 10
212.8319770769648
 20
233.6209770604985
 30
0.0
 10
213.1212640488193
 20
233.2683026134288
 30
0.0
 10
214.1194484702076
 20
232.0513997690664
 30
0.0
 10
215.2544696210818
 20
231.3174267061306
 30
0.0
 10
216.0605467164372
 20
230.7961686888815
 30
0.0
  0
SPLINE
  5
1EA
330
1F
100
AcDbEntity
  8
0
  6
SLD-Сплошная
 62
     7
370
    25
100
AcDbSpline
210
0.0
220
0.0
230
1.0
 70
     8
 71
     3
 72
     9
 73
     5
 74
     0
 42
0.00000001
 43
0.00000001
 40
0.0
 40
0.0
 40
0.0
 40
0.0
 40
0.7121223359969594
 40
1.0
 40
1.0
 40
1.0
 40
1.0
 10
216.0604320726972
 20
288.0491077217755
 30
0.0
 10
215.254354549851
 20
287.5281041700487
 30
0.0
 10
214.1224176871802
 20
286.7964833158909
 30
0.0
 10
213.1269197407977
 20
285.5833036686197
 30
0.0
 10
212.8403381174733
 20
285.2340563457471
 30
0.0
  0
SPLINE
  5
1EB
330
1F
100
AcDbEntity
  8
0
  6
SLD-Сплошная
 62
     7
370
    25
100
AcDbSpline
210
0.0
220
0.0
230
1.0
 70
     8
 71
     3
 72
     9
 73
     5
 74
     0
 42
0.00000001
 43
0.00000001
 40
0.0
 40
0.0
 40
0.0
 40
0.0
 40
0.3543942864674971
 40
1.0
 40
1.0
 40
1.0
 40
1.0
 10
241.0845986106707
 20
234.7960778735635
 30
0.0
 10
241.3445579161853
 20
234.558391163816
 30
0.0
 10
242.0780892270473
 20
233.8877067910042
 30
0.0
 10
242.8734805596381
 20
233.4375456502584
 30
0.0
 10
243.3869897484529
 20
233.1469190457825
 30
0.0
  0
SPLINE
  5
1EC
330
1F
100
AcDbEntity
  8
0
  6
SLD-Сплошная
 62
     7
370
    25
100
AcDbSpline
210
0.0
220
0.0
230
1.0
 70
     8
 71
     3
 72
     9
 73
     5
 74
     0
 42
0.00000001
 43
0.00000001
 40
0.0
 40
0.0
 40
0.0
 40
0.0
 40
0.6600978822753699
 40
1.0
 40
1.0
 40
1.0
 40
1.0
 10
243.3866008472046
 20
285.6982243962759
 30
0.0
 10
242.8729996951499
 20
285.4083198753662
 30
0.0
 10
242.0949315239805
 20
284.9691357351136
 30
0.0
 10
241.3773304595134
 20
284.3143324833327
 30
0.0
 10
241.1334163380196
 20
284.0917634713595
 30
0.0
  0
LINE
  5
1ED
330
1F
100
AcDbEntity
  8
0
  6
SLD-Сплошная
 62
     7
370
    25
100
AcDbLine
 10
203.8025884603
 20
288.1726735818
 30
0.0
 11
186.4915556051
 21
288.1726735818
 31
0.0
  0
LINE
  5
1EE
330
1F
100
AcDbEntity
  8
0
  6
SLD-Сплошная
 62
     7
370
    25
100
AcDbLine
 10
211.4915556051
 20
288.1726735818
 30
0.0
 11
210.8292974455
 21
288.1726735818
 31
0.0
  0
LINE
  5
1EF
330
1F
100
AcDbEntity
  8
0
  6
SLD-Сплошная
 62
     7
370
    25
100
AcDbLine
 10
210.6412399473
 20
230.6726735818
 30
0.0
 11
211.4915556051
 21
230.6726735818
 31
0.0
  0
LINE
  5
1F0
330
1F
100
AcDbEntity
  8
0
  6
SLD-Сплошная
 62
     7
370
    25
100
AcDbLine
 10
186.4915556051
 20
230.6726735818
 30
0.0
 11
204.6648576685
 21
230.6726735818
 31
0.0
  0
SPLINE
  5
1F1
330
1F
100
AcDbEntity
  8
0
  6
SLD-Сплошная
 62
     7
370
    25
100
AcDbSpline
210
0.0
220
0.0
230
1.0
 70
     8
 71
     3
 72
    23
 73
    19
 74
     0
 42
0.00000001
 43
0.00000001
 40
0.0
 40
0.0
 40
0.0
 40
0.0
 40
0.018801955549836
 40
0.0796294604291246
 40
0.1355413473799517
 40
0.1881268722386995
 40
0.2433586137948913
 40
0.3015617809980496
 40
0.3698534449701932
 40
0.4431681835214323
 40
0.5223396683215701
 40
0.6054043604940268
 40
0.6856140640213148
 40
0.7810467693817645
 40
0.8656562946418918
 40
0.9394646147320876
 40
0.9836811737888697
 40
1.0
 40
1.0
 40
1.0
 40
1.0
 10
188.3946213195116
 20
230.6726735818477
 30
0.0
 10
188.6782577301988
 20
230.5829490929139
 30
0.0
 10
189.8795058812868
 20
230.202950713376
 30
0.0
 10
192.1866570182833
 20
229.8726500981006
 30
0.0
 10
195.1602478491492
 20
229.5575128704579
 30
0.0
 10
198.1683770932604
 20
229.3982184549398
 30
0.0
 10
201.3268016912884
 20
229.3055830854459
 30
0.0
 10
204.8636122945063
 20
229.2646111484302
 30
0.0
 10
208.8038860092081
 20
229.2558423792738
 30
0.0
 10
213.1084679667875
 20
229.2909826739851
 30
0.0
 10
217.6726017712633
 20
229.4380423903575
 30
0.0
 10
222.3749604202043
 20
229.7009664711158
 30
0.0
 10
227.3822158295975
 20
230.1073900591474
 30
0.0
 10
232.4072715083864
 20
230.6550438072849
 30
0.0
 10
237.291632189493
 20
231.3289633947558
 30
0.0
 10
241.1746188030003
 20
231.9725806145157
 30
0.0
 10
243.7420302639774
 20
232.4400728828789
 30
0.0
 10
244.8946069855913
 20
232.6732546901775
 30
0.0
 10
245.2053128501327
 20
232.7361146748305
 30
0.0
  0
SPLINE
  5
1F2
330
1F
100
AcDbEntity
  8
0
  6
SLD-Сплошная
 62
     7
370
    25
100
AcDbSpline
210
0.0
220
0.0
230
1.0
 70
     8
 71
     3
 72
    21
 73
    17
 74
     0
 42
0.00000001
 43
0.00000001
 40
0.0
 40
0.0
 40
0.0
 40
0.0
 40
0.0075525342133272
 40
0.1016638196151576
 40
0.2042830704836728
 40
0.3163004588659304
 40
0.426920903528382
 40
0.5286741155799569
 40
0.6215519512260004
 40
0.7094059209191268
 40
0.7990674305547543
 40
0.8463971297445043
 40
0.8969838085327916
 40
0.9450036100635185
 40
0.9817977984692584
 40
1.0
 40
1.0
 40
1.0
 40
1.0
 10
246.6372108957165
 20
233.0231956159701
 30
0.0
 10
246.7152876117399
 20
233.0388306980875
 30
0.0
 10
247.7662695669011
 20
233.2492927924199
 30
0.0
 10
249.8933230215869
 20
233.6954547012801
 30
0.0
 10
253.1583269350801
 20
234.2070895544658
 30
0.0
 10
256.5126437348521
 20
234.5885900489081
 30
0.0
 10
259.6491844797798
 20
234.8275344434238
 30
0.0
 10
262.3485035319439
 20
235.0286517040652
 30
0.0
 10
264.5561202006093
 20
235.266775564896
 30
0.0
 10
266.4798145469795
 20
235.638997032343
 30
0.0
 10
268.0131409903308
 20
236.1882524823285
 30
0.0
 10
269.1923125224112
 20
236.8883189026138
 30
0.0
 10
270.0429913560653
 20
237.6059693583738
 30
0.0
 10
270.6969293575506
 20
238.410912818025
 30
0.0
 10
271.0869053101804
 20
239.082693916107
 30
0.0
 10
271.2318099347225
 20
239.4227074894187
 30
0.0
 10
271.2797691404394
 20
239.5352420683566
 30
0.0
  0
SPLINE
  5
1F3
330
1F
100
AcDbEntity
  8
0
  6
SLD-Сплошная
 62
     7
370
    25
100
AcDbSpline
210
0.0
220
0.0
230
1.0
 70
     8
 71
     3
 72
    21
 73
    17
 74
     0
 42
0.00000001
 43
0.00000001
 40
0.0
 40
0.0
 40
0.0
 40
0.0
 40
0.001709188413171
 40
0.03342439507055
 40
0.0757426412750187
 40
0.13113647599886
 40
0.1810542165522859
 40
0.218483086301434
 40
0.2538708597216421
 40
0.3361329149096917
 40
0.4336587443913794
 40
0.5444640698311063
 40
0.6589277101960365
 40
0.7756401937269068
 40
0.8952605701934727
 40
1.0
 40
1.0
 40
1.0
 40
1.0
 10
271.2264453584236
 20
279.4338042054301
 30
0.0
 10
271.2233321759817
 20
279.4442593225112
 30
0.0
 10
271.1624516790946
 20
279.6487165731801
 30
0.0
 10
270.8289390856964
 20
280.2045087973846
 30
0.0
 10
270.2856881950448
 20
280.9798772327113
 30
0.0
 10
269.4707928246513
 20
281.7552584639029
 30
0.0
 10
268.5682077006267
 20
282.342709028829
 30
0.0
 10
267.7688370399953
 20
282.7241767933678
 30
0.0
 10
266.7748163093352
 20
283.0938995499348
 30
0.0
 10
265.3141545218488
 20
283.4524598536206
 30
0.0
 10
263.139398701305
 20
283.7434298015305
 30
0.0
 10
260.4139597177712
 20
283.9550912750513
 30
0.0
 10
257.1585496170197
 20
284.1964753585993
 30
0.0
 10
253.5732541640649
 20
284.5763103895526
 30
0.0
 10
249.9722590005031
 20
285.1308677018721
 30
0.0
 10
247.6616902947435
 20
285.6128944659528
 30
0.0
 10
246.5830316312774
 20
285.8379223319506
 30
0.0
  0
SPLINE
  5
1F4
330
1F
100
AcDbEntity
  8
0
  6
SLD-Сплошная
 62
     7
370
    25
100
AcDbSpline
210
0.0
220
0.0
230
1.0
 70
     8
 71
     3
 72
    22
 73
    18
 74
     0
 42
0.00000001
 43
0.00000001
 40
0.0
 40
0.0
 40
0.0
 40
0.0
 40
0.0525601131464675
 40
0.1658032831995953
 40
0.2771189740286046
 40
0.3820136576051366
 40
0.4806177941556983
 40
0.5730028529103587
 40
0.6260082220024075
 40
0.6784792860341307
 40
0.7317852519715325
 40
0.7861380608451694
 40
0.8409993662605355
 40
0.8994323289443922
 40
0.9437040816627107
 40
0.9921726586339232
 40
0.9999999999999999
 40
0.9999999999999999
 40
0.9999999999999999
 40
0.9999999999999999
 10
245.0912298758436
 20
286.1283425439264
 30
0.0
 10
244.0903445140785
 20
286.3237426834579
 30
0.0
 10
240.933005818391
 20
286.940141369315
 30
0.0
 10
235.6159962201541
 20
287.7769076987105
 30
0.0
 10
229.2662323393903
 20
288.5617127233147
 30
0.0
 10
223.1785255916142
 20
289.098551125947
 30
0.0
 10
217.4401304265229
 20
289.424730961262
 30
0.0
 10
212.7178051042323
 20
289.5608260858891
 30
0.0
 10
208.8524292255042
 20
289.5861296094902
 30
0.0
 10
205.7280588209773
 20
289.5843495619183
 30
0.0
 10
202.5973574914462
 20
289.5590203236246
 30
0.0
 10
199.4707873998512
 20
289.4947640810561
 30
0.0
 10
196.3401547940246
 20
289.3617913373336
 30
0.0
 10
193.5114073525794
 20
289.1423263295269
 30
0.0
 10
190.9290365926576
 20
288.7755884563142
 30
0.0
 10
189.2529508233734
 20
288.484489375295
 30
0.0
 10
188.4081927698867
 20
288.2107360364068
 30
0.0
 10
188.2907382571675
 20
288.1726735818477
 30
0.0
  0
ARC
  5
1F5
330
1F
100
AcDbEntity
  8
0
  6
SLD-Сплошная
 62
     7
370
    25
100
AcDbCircle
 10
211.4915556051
 20
463.234737638
 30
0.0
 40
232.5620640561955
100
AcDbArc
 50
284.751588602
 51
284.9511640551
  0
ARC
  5
1F6
330
1F
100
AcDbEntity
  8
0
  6
SLD-Сплошная
 62
     7
370
    25
100
AcDbCircle
 10
211.4915556051
 20
55.6106095257
 30
0.0
 40
232.5620640561955
100
AcDbArc
 50
75.0488359449
 51
75.2586437386
  0
ARC
  5
1F7
330
1F
100
AcDbEntity
  8
0
  6
SLD-Сплошная
 62
     7
370
    25
100
AcDbCircle
 10
297.9389967219
 20
259.4226735818
 30
0.0
 40
21.99999999999988
100
AcDbArc
 50
312.3911339443
 51
332.0836609946
  0
ARC
  5
1F8
330
1F
100
AcDbEntity
  8
0
  6
SLD-Сплошная
 62
     7
370
    25
100
AcDbCircle
 10
297.9389967219
 20
259.4226735818
 30
0.0
 40
21.99999999999991
100
AcDbArc
 50
27.9163390054
 51
47.6088660557
  0
LINE
  5
1F9
330
1F
100
AcDbEntity
  8
0
  6
SLD-Сплошная
 62
     7
370
    25
100
AcDbLine
 10
154.1185899254
 20
291.2726735818
 30
0.0
 11
148.7815556051
 21
291.2726735818
 31
0.0
  0
LINE
  5
1FA
330
1F
100
AcDbEntity
  8
0
  6
SLD-Сплошная
 62
     7
370
    25
100
AcDbLine
 10
158.2940835635
 20
291.2726735818
 30
0.0
 11
157.2502006754
 21
291.2726735818
 31
0.0
  0
LINE
  5
1FB
330
1F
100
AcDbEntity
  8
0
  6
SLD-Сплошная
 62
     7
370
    25
100
AcDbLine
 10
162.4695772016
 20
291.2726735818
 30
0.0
 11
161.4256943135
 21
291.2726735818
 31
0.0
  0
LINE
  5
1FC
330
1F
100
AcDbEntity
  8
0
  6
SLD-Сплошная
 62
     7
370
    25
100
AcDbLine
 10
170.9382222718
 20
291.2726735818
 30
0.0
 11
165.6011879516
 21
291.2726735818
 31
0.0
  0
ARC
  5
1FD
330
1F
100
AcDbEntity
  8
0
  6
SLD-Сплошная
 62
     7
370
    25
100
AcDbCircle
 10
245.2023041517
 20
236.5944500261
 30
0.0
 40
3.900000000000017
100
AcDbArc
 50
241.8185168223
 51
330.8118502745
  0
ARC
  5
1FE
330
1F
100
AcDbEntity
  8
0
  6
SLD-Сплошная
 62
     7
370
    25
100
AcDbCircle
 10
245.2023041517
 20
282.2508971376
 30
0.0
 40
3.899999999999977
100
AcDbArc
 50
29.2660278773
 51
90.0
  0
ARC
  5
1FF
330
1F
100
AcDbEntity
  8
0
  6
SLD-Сплошная
 62
     7
370
    25
100
AcDbCircle
 10
245.2023041517
 20
282.2508971376
 30
0.0
 40
3.899999999999977
100
AcDbArc
 50
90.0
 51
117.9487055285
  0
ARC
  5
200
330
1F
100
AcDbEntity
  8
0
  6
SLD-Сплошная
 62
     7
370
    25
100
AcDbCircle
 10
218.1013852924
 20
234.1155588059
 30
0.0
 40
3.899999999999991
100
AcDbArc
 50
239.2770129718
 51
324.1050893997
  0
ARC
  5
201
330
1F
100
AcDbEntity
  8
0
  6
SLD-Сплошная
 62
     7
370
    25
100
AcDbCircle
 10
218.1013852924
 20
284.7297883578
 30
0.0
 40
3.900000000000034
100
AcDbArc
 50
35.8058451582
 51
90.0
  0
ARC
  5
202
330
1F
100
AcDbEntity
  8
0
  6
SLD-Сплошная
 62
     7
370
    25
100
AcDbCircle
 10
218.1013852924
 20
284.7297883578
 30
0.0
 40
3.900000000000034
100
AcDbArc
 50
90.0
 51
120.552183154
  0
LINE
  5
203
330
1F
100
AcDbEntity
  8
0
  6
SLD-Сплошная
 62
     7
370
    25
100
AcDbLine
 10
157.2502006754
 20
291.4726735818
 30
0.0
 11
154.1185899254
 21
291.4726735818
 31
0.0
  0
LINE
  5
204
330
1F
100
AcDbEntity
  8
0
  6
SLD-Сплошная
 62
     7
370
    25
100
AcDbLine
 10
161.4256943135
 20
291.4726735818
 30
0.0
 11
158.2940835635
 21
291.4726735818
 31
0.0
  0
LINE
  5
205
330
1F
100
AcDbEntity
  8
0
  6
SLD-Сплошная
 62
     7
370
    25
100
AcDbLine
 10
165.6011879516
 20
291.4726735818
 30
0.0
 11
162.4695772016
 21
291.4726735818
 31
0.0
  0
LINE
  5
206
330
1F
100
AcDbEntity
  8
0
  6
SLD-Сплошная
 62
     7
370
    25
100
AcDbLine
 10
312.7347214135
 20
242.0031569199
 30
0.0
 11
312.7711351321
 21
243.1743607408
 31
0.0
  0
LINE
  5
207
330
1F
100
AcDbEntity
  8
0
  6
SLD-Сплошная
 62
     7
370
    25
100
AcDbLine
 10
312.7711351321
 20
275.6709864229
 30
0.0
 11
312.7347214135
 21
276.8421902438
 31
0.0
  0
ARC
  5
208
330
1F
100
AcDbEntity
  8
0
  6
SLD-Сплошная
 62
     7
370
    25
100
AcDbCircle
 10
308.8958684339
 20
242.6910579311
 30
0.0
 40
3.900000000000068
100
AcDbArc
 50
303.1931986079
 51
349.840740668
  0
ARC
  5
209
330
1F
100
AcDbEntity
  8
0
  6
SLD-Сплошная
 62
     7
370
    25
100
AcDbCircle
 10
308.8958684339
 20
276.1542892326
 30
0.0
 40
3.900000000000073
100
AcDbArc
 50
10.159259332
 51
56.7523103784
  0
SPLINE
  5
20A
330
1F
100
AcDbEntity
  8
0
  6
SLD-Сплошная
 62
     7
370
    25
100
AcDbSpline
210
0.0
220
0.0
230
1.0
 70
     8
 71
     3
 72
    14
 73
    10
 74
     0
 42
0.00000001
 43
0.00000001
 40
0.0
 40
0.0
 40
0.0
 40
0.0
 40
0.2590389089760473
 40
0.3872144952269503
 40
0.5177568502771365
 40
0.6443105763397927
 40
0.7668665689181347
 40
0.8854229200212218
 40
1.0
 40
1.0
 40
1.0
 40
1.0
 10
290.9915556051471
 20
235.5226735818478
 30
0.0
 10
292.7870612891943
 20
235.5282604647583
 30
0.0
 10
295.4710049093774
 20
235.5366118049282
 30
0.0
 10
299.0625983214185
 20
235.4977016509011
 30
0.0
 10
301.7259873295753
 20
235.7744297994597
 30
0.0
 10
304.3029296676771
 20
236.3358912870555
 30
0.0
 10
306.7219794404445
 20
237.1514240620762
 30
0.0
 10
308.9766335119135
 20
238.1658918262745
 30
0.0
 10
310.3550258778764
 20
239.0123753027316
 30
0.0
 10
311.0324584177922
 20
239.4283928791583
 30
0.0
  0
SPLINE
  5
20B
330
1F
100
AcDbEntity
  8
0
  6
SLD-Сплошная
 62
     7
370
    25
100
AcDbSpline
210
0.0
220
0.0
230
1.0
 70
     8
 71
     3
 72
    14
 73
    10
 74
     0
 42
0.00000001
 43
0.00000001
 40
0.0
 40
0.0
 40
0.0
 40
0.0
 40
0.1179373309070463
 40
0.2572473724704761
 40
0.4179351563529689
 40
0.5525139979457729
 40
0.6966137432249655
 40
0.8427082361514786
 40
0.9999999999999999
 40
0.9999999999999999
 40
0.9999999999999999
 40
0.9999999999999999
 10
311.0324584177922
 20
279.4169542845368
 30
0.0
 10
310.3347231222827
 20
279.8442828566233
 30
0.0
 10
308.8128083047328
 20
280.7763808743192
 30
0.0
 10
306.1472529495285
 20
281.9374646395375
 30
0.0
 10
303.2503521349465
 20
282.7904337582831
 30
0.0
 10
300.2347538542406
 20
283.2814934642593
 30
0.0
 10
297.2858106229404
 20
283.3341172449094
 30
0.0
 10
294.1851614704388
 20
283.3195377916982
 30
0.0
 10
292.0819655598239
 20
283.3216029122225
 30
0.0
 10
290.9915556051471
 20
283.3226735818478
 30
0.0
  0
LINE
  5
20C
330
1F
100
AcDbEntity
  8
0
  6
SLD-Сплошная
 62
     7
370
    25
100
AcDbLine
 10
127.8915556051
 20
251.3121414085
 30
0.0
 11
127.8915556051
 21
267.5332057552
 31
0.0
  0
LINE
  5
20D
330
1F
100
AcDbEntity
  8
0
  6
SLD-Сплошная
 62
     7
370
    25
100
AcDbLine
 10
130.8915556051
 20
267.5332057552
 30
0.0
 11
130.8915556051
 21
251.3121414085
 31
0.0
  0
LINE
  5
20E
330
1F
100
AcDbEntity
  8
0
  6
SLD-Сплошная
 62
     7
370
    25
100
AcDbLine
 10
133.8915556051
 20
252.6226735818
 30
0.0
 11
133.8915556051
 21
266.2226735818
 31
0.0
  0
LINE
  5
20F
330
1F
100
AcDbEntity
  8
0
  6
SLD-Сплошная
 62
     7
370
    25
100
AcDbLine
 10
130.8915556051
 20
249.4226735818
 30
0.0
 11
125.9280099714
 21
249.4226735818
 31
0.0
  0
LINE
  5
210
330
1F
100
AcDbEntity
  8
0
  6
SLD-Сплошная
 62
     7
370
    25
100
AcDbLine
 10
127.8915556052
 20
254.4226735818
 30
0.0
 11
125.9280099714
 21
254.4226735818
 31
0.0
  0
LINE
  5
211
330
1F
100
AcDbEntity
  8
0
  6
SLD-Сплошная
 62
     7
370
    25
100
AcDbLine
 10
130.8915556051
 20
251.3121414085
 30
0.0
 11
130.8915556051
 21
249.4226735818
 31
0.0
  0
ARC
  5
212
330
1F
100
AcDbEntity
  8
0
  6
SLD-Сплошная
 62
     7
370
    25
100
AcDbCircle
 10
125.9280099714
 20
251.9226735818
 30
0.0
 40
2.499999999999943
100
AcDbArc
 50
90.0
 51
270.0
  0
LINE
  5
213
330
1F
100
AcDbEntity
  8
0
  6
SLD-Сплошная
 62
     7
370
    25
100
AcDbLine
 10
130.8915556051
 20
269.4226735818
 30
0.0
 11
125.9280099714
 21
269.4226735818
 31
0.0
  0
LINE
  5
214
330
1F
100
AcDbEntity
  8
0
  6
SLD-Сплошная
 62
     7
370
    25
100
AcDbLine
 10
127.8915556051
 20
264.4226735818
 30
0.0
 11
125.9280099714
 21
264.4226735818
 31
0.0
  0
LINE
  5
215
330
1F
100
AcDbEntity
  8
0
  6
SLD-Сплошная
 62
     7
370
    25
100
AcDbLine
 10
130.8915556051
 20
269.4226735818
 30
0.0
 11
130.8915556051
 21
267.5332057552
 31
0.0
  0
ARC
  5
216
330
1F
100
AcDbEntity
  8
0
  6
SLD-Сплошная
 62
     7
370
    25
100
AcDbCircle
 10
125.9280099714
 20
266.9226735818
 30
0.0
 40
2.5
100
AcDbArc
 50
90.0
 51
270.0
  0
LINE
  5
217
330
1F
100
AcDbEntity
  8
0
  6
SLD-Сплошная
 62
     7
370
    25
100
AcDbLine
 10
127.3555617333
 20
227.3726735818
 30
0.0
 11
127.3555617333
 21
249.4226735818
 31
0.0
  0
LINE
  5
218
330
1F
100
AcDbEntity
  8
0
  6
SLD-Сплошная
 62
     7
370
    25
100
AcDbLine
 10
127.3555617333
 20
269.4226735818
 30
0.0
 11
127.3555617333
 21
291.4726735818
 31
0.0
  0
LINE
  5
219
330
1F
100
AcDbEntity
  8
0
  6
SLD-Сплошная
 62
     7
370
    25
100
AcDbLine
 10
133.8915556051
 20
227.3726735818
 30
0.0
 11
133.8915556051
 21
252.6331548071
 31
0.0
  0
LINE
  5
21A
330
1F
100
AcDbEntity
  8
0
  6
SLD-Сплошная
 62
     7
370
    25
100
AcDbLine
 10
133.8915556051
 20
266.2121923566
 30
0.0
 11
133.8915556051
 21
291.4726735818
 31
0.0
  0
LINE
  5
21B
330
1F
100
AcDbEntity
  8
0
  6
SLD-Сплошная
 62
     7
370
    25
100
AcDbLine
 10
186.4915556051
 20
252.6226735818
 30
0.0
 11
186.4915556051
 21
266.2226735818
 31
0.0
  0
LINE
  5
21C
330
1F
100
AcDbEntity
  8
0
  6
SLD-Сплошная
 62
     7
370
    25
100
AcDbLine
 10
148.7815556051
 20
291.4726735818
 30
0.0
 11
148.7815556051
 21
286.4306439042
 31
0.0
  0
LINE
  5
21D
330
1F
100
AcDbEntity
  8
0
  6
SLD-Сплошная
 62
     7
370
    25
100
AcDbLine
 10
148.7815556051
 20
286.4306439042
 30
0.0
 11
170.9382222718
 21
286.4306439042
 31
0.0
  0
LINE
  5
21E
330
1F
100
AcDbEntity
  8
0
  6
SLD-Сплошная
 62
     7
370
    25
100
AcDbLine
 10
170.9382222718
 20
291.4726735818
 30
0.0
 11
170.9382222718
 21
286.4306439042
 31
0.0
  0
LINE
  5
21F
330
1F
100
AcDbEntity
  8
0
  6
SLD-Сплошная
 62
     7
370
    25
100
AcDbLine
 10
186.4915556051
 20
252.6305869459
 30
0.0
 11
186.4915556051
 21
227.3726735818
 31
0.0
  0
LINE
  5
220
330
1F
100
AcDbEntity
  8
0
  6
SLD-Сплошная
 62
     7
370
    25
100
AcDbLine
 10
186.4915556051
 20
291.4726735818
 30
0.0
 11
186.4915556051
 21
266.2147602178
 31
0.0
  0
LINE
  5
221
330
1F
100
AcDbEntity
  8
0
  6
SLD-Сплошная
 62
     7
370
    25
100
AcDbLine
 10
133.8915556051
 20
252.6305869459
 30
0.0
 11
133.8915556051
 21
227.3726735818
 31
0.0
  0
LINE
  5
222
330
1F
100
AcDbEntity
  8
0
  6
SLD-Сплошная
 62
     7
370
    25
100
AcDbLine
 10
133.8915556051
 20
291.4726735818
 30
0.0
 11
133.8915556051
 21
266.2147602178
 31
0.0
  0
SPLINE
  5
223
330
1F
100
AcDbEntity
  8
0
  6
SLD-Сплошная
 62
     7
370
    25
100
AcDbSpline
210
0.0
220
0.0
230
1.0
 70
     8
 71
     3
 72
    15
 73
    11
 74
     0
 42
0.00000001
 43
0.00000001
 40
0.0
 40
0.0
 40
0.0
 40
0.0
 40
0.1214561880972092
 40
0.2429242277794211
 40
0.3642273008572958
 40
0.4855582216594982
 40
0.6141784864708949
 40
0.7428338723204034
 40
0.8797642533144938
 40
1.0
 40
1.0
 40
1.0
 40
1.0
 10
233.9238141002299
 20
259.4226735818476
 30
0.0
 10
233.9497683402125
 20
258.0656867871615
 30
0.0
 10
234.0016793527689
 20
255.351580784245
 30
0.0
 10
234.404567681495
 20
251.3921449725682
 30
0.0
 10
235.0368682348955
 20
247.6544508092367
 30
0.0
 10
235.9081841979772
 20
244.1512455469916
 30
0.0
 10
237.0052203512207
 20
240.9883442724853
 30
0.0
 10
238.3330260470777
 20
238.208271081387
 30
0.0
 10
239.7755803157627
 20
235.9951543865339
 30
0.0
 10
240.8247758045582
 20
235.0412904418799
 30
0.0
 10
241.3153178683698
 20
234.5953197977025
 30
0.0
  0
SPLINE
  5
224
330
1F
100
AcDbEntity
  8
0
  6
SLD-Сплошная
 62
     7
370
    25
100
AcDbSpline
210
0.0
220
0.0
230
1.0
 70
     8
 71
     3
 72
    10
 73
     6
 74
     0
 42
0.00000001
 43
0.00000001
 40
0.0
 40
0.0
 40
0.0
 40
0.0
 40
0.057891201271113
 40
0.63696147531774
 40
0.9999999999999999
 40
0.9999999999999999
 40
0.9999999999999999
 40
0.9999999999999999
 10
248.3969489640173
 20
235.2851937778855
 30
0.0
 10
248.4111553089083
 20
235.2751897440573
 30
0.0
 10
248.5674639396143
 20
235.1651180232005
 30
0.0
 10
248.7306092045859
 20
234.9705722501238
 30
0.0
 10
248.6165646027911
 20
234.7837057569748
 30
0.0
 10
248.5726178908621
 20
234.7116973689024
 30
0.0
  0
SPLINE
  5
225
330
1F
100
AcDbEntity
  8
0
  6
SLD-Сплошная
 62
     7
370
    25
100
AcDbSpline
210
0.0
220
0.0
230
1.0
 70
     8
 71
     3
 72
    28
 73
    24
 74
     0
 42
0.00000001
 43
0.00000001
 40
0.0
 40
0.0
 40
0.0
 40
0.0
 40
0.1250000000000004
 40
0.1250000000000004
 40
0.1875000000000004
 40
0.1875000000000004
 40
0.2500000000000004
 40
0.2500000000000004
 40
0.3750000000000003
 40
0.3750000000000003
 40
0.4375000000000002
 40
0.4375000000000002
 40
0.5000000000000001
 40
0.5000000000000001
 40
0.6250000000000001
 40
0.6250000000000001
 40
0.75
 40
0.75
 40
0.8125
 40
0.8125
 40
0.875
 40
0.875
 40
1.0
 40
1.0
 40
1.0
 40
1.0
 10
248.392756315708
 20
235.2838596400289
 30
0.0
 10
247.8440174825106
 20
235.6563515220537
 30
0.0
 10
247.3106989445077
 20
236.1219291974822
 30
0.0
 10
246.5331069219688
 20
236.9586799301047
 30
0.0
 10
246.2776746630866
 20
237.2607659288389
 30
0.0
 10
245.7745902864081
 20
237.9123788336504
 30
0.0
 10
245.5263919435926
 20
238.2627508118641
 30
0.0
 10
244.7978407710581
 20
239.3824712547735
 30
0.0
 10
244.3390923919121
 20
240.2103432228692
 30
0.0
 10
243.6922507224136
 20
241.5752114627368
 30
0.0
 10
243.4835019082618
 20
242.0507541407163
 30
0.0
 10
243.080338597426
 20
243.0443878768409
 30
0.0
 10
242.8851206090753
 20
243.564774419748
 30
0.0
 10
242.3282956560562
 20
245.1755477503613
 30
0.0
 10
241.9971507049873
 20
246.3080419508063
 30
0.0
 10
241.4161972884258
 20
248.6904262395616
 30
0.0
 10
241.1662359537281
 20
249.9402258728449
 30
0.0
 10
240.8581403201256
 20
251.9103021718324
 30
0.0
 10
240.7676913972731
 20
252.5768943015562
 30
0.0
 10
240.6128153142153
 20
253.9168693023391
 30
0.0
 10
240.5480757457641
 20
254.5922417180354
 30
0.0
 10
240.3919576262473
 20
256.634461080244
 30
0.0
 10
240.3384204591221
 20
258.0172924940627
 30
0.0
 10
240.338420459094
 20
259.4226735818476
 30
0.0
  0
SPLINE
  5
226
330
1F
100
AcDbEntity
  8
0
  6
SLD-Сплошная
 62
     7
370
    25
100
AcDbSpline
210
0.0
220
0.0
230
1.0
 70
     8
 71
     3
 72
    28
 73
    24
 74
     0
 42
0.00000001
 43
0.00000001
 40
0.0
 40
0.0
 40
0.0
 40
0.0
 40
0.125
 40
0.125
 40
0.1874999999999999
 40
0.1874999999999999
 40
0.2499999999999998
 40
0.2499999999999998
 40
0.3749999999999998
 40
0.3749999999999998
 40
0.4374999999999997
 40
0.4374999999999997
 40
0.4999999999999997
 40
0.4999999999999997
 40
0.6249999999999996
 40
0.6249999999999996
 40
0.6874999999999996
 40
0.6874999999999996
 40
0.7499999999999996
 40
0.7499999999999996
 40
0.8749999999999998
 40
0.8749999999999998
 40
1.0
 40
1.0
 40
1.0
 40
1.0
 10
240.3384204590939
 20
259.4226735818476
 30
0.0
 10
240.3384204591219
 20
260.8277071461652
 30
0.0
 10
240.3919345875601
 20
262.2113713254188
 30
0.0
 10
240.5483553045019
 20
264.2563681015473
 30
0.0
 10
240.6132512809779
 20
264.932922810466
 30
0.0
 10
240.7686135111967
 20
266.2757520026706
 30
0.0
 10
240.8596061112209
 20
266.9451631145902
 30
0.0
 10
241.1672613433334
 20
268.9101728923083
 30
0.0
 10
241.4175507369613
 20
270.1621451038427
 30
0.0
 10
241.8560831654365
 20
271.9579619636023
 30
0.0
 10
242.0128146676848
 20
272.542806449067
 30
0.0
 10
242.3474739728327
 20
273.6848912822833
 30
0.0
 10
242.5255980397245
 20
274.2422935156844
 30
0.0
 10
243.081604945638
 20
275.8453103347823
 30
0.0
 10
243.4839607244011
 20
276.8323528986337
 30
0.0
 10
244.1318371599103
 20
278.1968011351166
 30
0.0
 10
244.3551998902332
 20
278.6321715981413
 30
0.0
 10
244.8169817598949
 20
279.4638372502544
 30
0.0
 10
245.0552108286091
 20
279.859513071701
 30
0.0
 10
245.7796792545013
 20
280.9696231530673
 30
0.0
 10
246.279864207036
 20
281.6146693465118
 30
0.0
 10
247.3120955270399
 20
282.724405771018
 30
0.0
 10
247.8441147250918
 20
283.1890616513153
 30
0.0
 10
248.3927563157083
 20
283.5614875236653
 30
0.0
  0
SPLINE
  5
227
330
1F
100
AcDbEntity
  8
0
  6
SLD-Сплошная
 62
     7
370
    25
100
AcDbSpline
210
0.0
220
0.0
230
1.0
 70
     8
 71
     3
 72
    10
 73
     6
 74
     0
 42
0.00000001
 43
0.00000001
 40
0.0
 40
0.0
 40
0.0
 40
0.0
 40
0.2019076746504176
 40
0.7873666916164188
 40
1.0
 40
1.0
 40
1.0
 40
1.0
 10
248.5758683998843
 20
284.1343916842627
 30
0.0
 10
248.609254193213
 20
284.0946198823253
 30
0.0
 10
248.73944667691
 20
283.9395242815008
 30
0.0
 10
248.6259397763217
 20
283.738295366819
 30
0.0
 10
248.4451233109849
 20
283.5976303226122
 30
0.0
 10
248.3969489306362
 20
283.5601533631508
 30
0.0
  0
SPLINE
  5
228
330
1F
100
AcDbEntity
  8
0
  6
SLD-Сплошная
 62
     7
370
    25
100
AcDbSpline
210
0.0
220
0.0
230
1.0
 70
     8
 71
     3
 72
    16
 73
    12
 74
     0
 42
0.00000001
 43
0.00000001
 40
0.0
 40
0.0
 40
0.0
 40
0.0
 40
0.0162531613382792
 40
0.1289540207195858
 40
0.2702721919156294
 40
0.4115416032223451
 40
0.5521686208779402
 40
0.6927395571475736
 40
0.8233477430271554
 40
0.9539322988806741
 40
1.0
 40
1.0
 40
1.0
 40
1.0
 10
241.4448096098601
 20
284.3627186818847
 30
0.0
 10
241.3759962331264
 20
284.3181520420854
 30
0.0
 10
240.8300248110504
 20
283.9645563770662
 30
0.0
 10
239.74280226958
 20
282.7296415717137
 30
0.0
 10
238.2417513165369
 20
280.5124723229316
 30
0.0
 10
236.817091856424
 20
277.4229742302139
 30
0.0
 10
235.6281307998057
 20
273.7473498930322
 30
0.0
 10
234.7318687557534
 20
269.6852760806982
 30
0.0
 10
234.1607527756061
 20
265.378389652651
 30
0.0
 10
233.9427856882288
 20
261.9347411310182
 30
0.0
 10
233.9277382094709
 20
259.942273073685
 30
0.0
 10
233.9238141002299
 20
259.4226735818476
 30
0.0
  0
SPLINE
  5
229
330
1F
100
AcDbEntity
  8
0
  6
SLD-Сплошная
 62
     7
370
    25
100
AcDbSpline
210
0.0
220
0.0
230
1.0
 70
     8
 71
     3
 72
    30
 73
    26
 74
     0
 42
0.00000001
 43
0.00000001
 40
0.0
 40
0.0
 40
0.0
 40
0.0
 40
0.1250000000000006
 40
0.1250000000000006
 40
0.1875000000000008
 40
0.1875000000000008
 40
0.2500000000000011
 40
0.2500000000000011
 40
0.3750000000000014
 40
0.3750000000000014
 40
0.4375000000000017
 40
0.4375000000000017
 40
0.4687500000000017
 40
0.4687500000000017
 40
0.5000000000000017
 40
0.5000000000000017
 40
0.6250000000000012
 40
0.6250000000000012
 40
0.7500000000000008
 40
0.7500000000000008
 40
0.8125000000000007
 40
0.8125000000000007
 40
0.8750000000000006
 40
0.8750000000000006
 40
1.0
 40
1.0
 40
1.0
 40
1.0
 10
221.0648662830077
 20
286.447506914972
 30
0.0
 10
220.4647748856904
 20
286.0089206335138
 30
0.0
 10
219.8813044390252
 20
285.46799149972
 30
0.0
 10
219.0319807318587
 20
284.5026550769898
 30
0.0
 10
218.7531814465505
 20
284.1551121627515
 30
0.0
 10
218.2043569460988
 20
283.4070799220084
 30
0.0
 10
217.9345718792508
 20
283.0066486046228
 30
0.0
 10
217.1499366738727
 20
281.7424001669045
 30
0.0
 10
216.6559500654113
 20
280.81078664593
 30
0.0
 10
215.9593778639761
 20
279.2780981893419
 30
0.0
 10
215.7345674342146
 20
278.7445743108075
 30
0.0
 10
215.409206273961
 20
277.9090219010253
 30
0.0
 10
215.3027208582334
 20
277.6246216708993
 30
0.0
 10
215.0937412548386
 20
277.0437679978764
 30
0.0
 10
214.9910920140287
 20
276.7468042980769
 30
0.0
 10
214.4923566808242
 20
275.2450434501426
 30
0.0
 10
214.1368685287569
 20
273.9808302478522
 30
0.0
 10
213.5162855900112
 20
271.3265764234978
 30
0.0
 10
213.2509896310409
 20
269.9366086470212
 30
0.0
 10
212.9232943964919
 20
267.7506563428559
 30
0.0
 10
212.8267031368787
 20
267.0102705727653
 30
0.0
 10
212.6615505700366
 20
265.5233889187103
 30
0.0
 10
212.5925846087794
 20
264.7742889341634
 30
0.0
 10
212.4267389936498
 20
262.5100651925537
 30
0.0
 10
212.3708676818611
 20
260.9781199059459
 30
0.0
 10
212.370867681831
 20
259.4226735818479
 30
0.0
  0
SPLINE
  5
22A
330
1F
100
AcDbEntity
  8
0
  6
SLD-Сплошная
 62
     7
370
    25
100
AcDbSpline
210
0.0
220
0.0
230
1.0
 70
     8
 71
     3
 72
    10
 73
     6
 74
     0
 42
0.00000001
 43
0.00000001
 40
0.0
 40
0.0
 40
0.0
 40
0.0
 40
0.0665178634984981
 40
0.6345304004922677
 40
1.0
 40
1.0
 40
1.0
 40
1.0
 10
221.2507907938197
 20
287.0022651727178
 30
0.0
 10
221.2650553037494
 20
286.9916077564369
 30
0.0
 10
221.4011280024572
 20
286.8899440188295
 30
0.0
 10
221.3375027178176
 20
286.6912970947853
 30
0.0
 10
221.1444538064549
 20
286.5155661384596
 30
0.0
 10
221.0688728118517
 20
286.4467653336898
 30
0.0
  0
SPLINE
  5
22B
330
1F
100
AcDbEntity
  8
0
  6
SLD-Сплошная
 62
     7
370
    25
100
AcDbSpline
210
0.0
220
0.0
230
1.0
 70
     8
 71
     3
 72
     9
 73
     5
 74
     0
 42
0.00000001
 43
0.00000001
 40
0.0
 40
0.0
 40
0.0
 40
0.0
 40
0.734234795011035
 40
1.0
 40
1.0
 40
1.0
 40
1.0
 10
211.4915556051471
 20
283.5804286692304
 30
0.0
 10
211.9274335736506
 20
284.2147111894342
 30
0.0
 10
212.5210828687606
 20
285.0785799743427
 30
0.0
 10
213.1650203475828
 20
285.6546372194986
 30
0.0
 10
213.3361565236421
 20
285.8077331913428
 30
0.0
  0
LINE
  5
22C
330
1F
100
AcDbEntity
  8
0
  6
SLD-Сплошная
 62
     7
370
    25
100
AcDbLine
 10
211.4915556051
 20
288.17216938
 30
0.0
 11
211.4915556051
 21
288.1726735818
 31
0.0
  0
SPLINE
  5
22D
330
1F
100
AcDbEntity
  8
0
  6
SLD-Сплошная
 62
     7
370
    25
100
AcDbSpline
210
0.0
220
0.0
230
1.0
 70
     8
 71
     3
 72
    18
 73
    14
 74
     0
 42
0.00000001
 43
0.00000001
 40
0.0
 40
0.0
 40
0.0
 40
0.0
 40
0.103144071429092
 40
0.2092706124217289
 40
0.3124123922978407
 40
0.4185413593593696
 40
0.5217762346552612
 40
0.6280020470948869
 40
0.7312672223276049
 40
0.8382221893822126
 40
0.91142936104851
 40
0.9867791638751552
 40
1.0
 40
1.0
 40
1.0
 40
1.0
 10
265.7219720832524
 20
259.4226735818476
 30
0.0
 10
265.723033270676
 20
260.659032005133
 30
0.0
 10
265.725186330362
 20
263.1674988595907
 30
0.0
 10
265.7269399584205
 20
266.8081431318281
 30
0.0
 10
265.7212540230697
 20
270.2726153763484
 30
0.0
 10
265.721874433317
 20
273.4005724969294
 30
0.0
 10
265.7246817247246
 20
276.1593619253663
 30
0.0
 10
265.7110020861217
 20
278.4253954576363
 30
0.0
 10
265.7623714156227
 20
280.1608074421981
 30
0.0
 10
265.1570594536456
 20
281.3201575410711
 30
0.0
 10
264.0438025243962
 20
282.0401593030044
 30
0.0
 10
263.1361498304855
 20
282.3871686465132
 30
0.0
 10
262.4526018494677
 20
282.5111520840929
 30
0.0
 10
262.3505694384172
 20
282.5296589474264
 30
0.0
  0
SPLINE
  5
22E
330
1F
100
AcDbEntity
  8
0
  6
SLD-Сплошная
 62
     7
370
    25
100
AcDbSpline
210
0.0
220
0.0
230
1.0
 70
     8
 71
     3
 72
    18
 73
    14
 74
     0
 42
0.00000001
 43
0.00000001
 40
0.0
 40
0.0
 40
0.0
 40
0.0
 40
0.0663836684815893
 40
0.1412556652993529
 40
0.2142757638293629
 40
0.2892628717143302
 40
0.3940291281542027
 40
0.5017162723878302
 40
0.6067391172197403
 40
0.7149161171140038
 40
0.8181625642733964
 40
0.9243895266905185
 40
1.0
 40
1.0
 40
1.0
 40
1.0
 10
262.3712473075245
 20
236.3152139436675
 30
0.0
 10
262.8219542444548
 20
236.4285142007758
 30
0.0
 10
263.7809989867441
 20
236.6696021605479
 30
0.0
 10
264.7768536331393
 20
237.234930325239
 30
0.0
 10
265.4553744039504
 20
238.0248442929681
 30
0.0
 10
265.7829366419335
 20
239.1805392899036
 30
0.0
 10
265.7028335729079
 20
240.8552342665505
 30
0.0
 10
265.7269706442398
 20
243.2685272022052
 30
0.0
 10
265.7208558996821
 20
246.175104383523
 30
0.0
 10
265.7225761228941
 20
249.4297389623558
 30
0.0
 10
265.7275515934817
 20
252.9830092215931
 30
0.0
 10
265.7240432816761
 20
256.3395582083677
 30
0.0
 10
265.7225803783197
 20
258.5171862794672
 30
0.0
 10
265.7219720832524
 20
259.4226735818476
 30
0.0
  0
LINE
  5
22F
330
1F
100
AcDbEntity
  8
0
  6
SLD-Сплошная
 62
     7
370
    25
100
AcDbLine
 10
211.4915556051
 20
230.6726735818
 30
0.0
 11
211.4915556051
 21
230.6731777837
 31
0.0
  0
SPLINE
  5
230
330
1F
100
AcDbEntity
  8
0
  6
SLD-Сплошная
 62
     7
370
    25
100
AcDbSpline
210
0.0
220
0.0
230
1.0
 70
     8
 71
     3
 72
     9
 73
     5
 74
     0
 42
0.00000001
 43
0.00000001
 40
0.0
 40
0.0
 40
0.0
 40
0.0
 40
0.4680145887920301
 40
1.0
 40
1.0
 40
1.0
 40
1.0
 10
213.3481074707633
 20
233.0237856584025
 30
0.0
 10
213.0474708938989
 20
233.3145857645932
 30
0.0
 10
212.4051050701317
 20
233.9359341437994
 30
0.0
 10
211.8087877303574
 20
234.8034256622843
 30
0.0
 10
211.4915556051471
 20
235.2649184944649
 30
0.0
  0
SPLINE
  5
231
330
1F
100
AcDbEntity
  8
0
  6
SLD-Сплошная
 62
     7
370
    25
100
AcDbSpline
210
0.0
220
0.0
230
1.0
 70
     8
 71
     3
 72
     9
 73
     5
 74
     0
 42
0.00000001
 43
0.00000001
 40
0.0
 40
0.0
 40
0.0
 40
0.0
 40
0.5740971929214943
 40
1.0
 40
1.0
 40
1.0
 40
1.0
 10
221.0688728118515
 20
232.3985818300056
 30
0.0
 10
221.1903022537693
 20
232.288066927797
 30
0.0
 10
221.4018159894485
 20
232.0955648504988
 30
0.0
 10
221.2841552880629
 20
231.9205767263027
 30
0.0
 10
221.23404326506
 20
231.8460487930022
 30
0.0
  0
SPLINE
  5
232
330
1F
100
AcDbEntity
  8
0
  6
SLD-Сплошная
 62
     7
370
    25
100
AcDbSpline
210
0.0
220
0.0
230
1.0
 70
     8
 71
     3
 72
    28
 73
    24
 74
     0
 42
0.00000001
 43
0.00000001
 40
0.0
 40
0.0
 40
0.0
 40
0.0
 40
0.1249999999999998
 40
0.1249999999999998
 40
0.1874999999999998
 40
0.1874999999999998
 40
0.2499999999999997
 40
0.2499999999999997
 40
0.3749999999999996
 40
0.3749999999999996
 40
0.4374999999999994
 40
0.4374999999999994
 40
0.4999999999999996
 40
0.4999999999999996
 40
0.6249999999999997
 40
0.6249999999999997
 40
0.6874999999999998
 40
0.6874999999999998
 40
0.7499999999999998
 40
0.7499999999999998
 40
0.8749999999999998
 40
0.8749999999999998
 40
1.0
 40
1.0
 40
1.0
 40
1.0
 10
212.3708676818309
 20
259.4226735818474
 30
0.0
 10
212.370867681861
 20
257.8703073832118
 30
0.0
 10
212.4265219517217
 20
256.338713430641
 30
0.0
 10
212.592542156883
 20
254.0714039909426
 30
0.0
 10
212.6616488759256
 20
253.32066992348
 30
0.0
 10
212.8273836037918
 20
251.8293554590164
 30
0.0
 10
212.9243407867085
 20
251.0874385030371
 30
0.0
 10
213.2503120240507
 20
248.9138047499665
 30
0.0
 10
213.5154036293375
 20
247.5216541283419
 30
0.0
 10
213.9845750067662
 20
245.5163291925941
 30
0.0
 10
214.1534834616788
 20
244.8597874065403
 30
0.0
 10
214.5126634364739
 20
243.5839700407028
 30
0.0
 10
214.7018991935298
 20
242.9679878292165
 30
0.0
 10
215.2961640481124
 20
241.1827285874176
 30
0.0
 10
215.7279291403614
 20
240.0758615743067
 30
0.0
 10
216.4277653933912
 20
238.5369705193967
 30
0.0
 10
216.670503231684
 20
238.0428680836469
 30
0.0
 10
217.1697804857482
 20
237.102657675524
 30
0.0
 10
217.4250275080062
 20
236.6586266948541
 30
0.0
 10
218.207185605774
 20
235.4016858089252
 30
0.0
 10
218.7499612388178
 20
234.6633974102164
 30
0.0
 10
219.877946745207
 20
233.3810087324539
 30
0.0
 10
220.4657020667318
 20
232.8357488852644
 30
0.0
 10
221.0648662830077
 20
232.3978402487232
 30
0.0
  0
SPLINE
  5
233
330
1F
100
AcDbEntity
  8
0
  6
SLD-Сплошная
 62
     7
370
    25
100
AcDbSpline
210
0.0
220
0.0
230
1.0
 70
     8
 71
     3
 72
    26
 73
    22
 74
     0
 42
0.00000001
 43
0.00000001
 40
0.0
 40
0.0
 40
0.0
 40
0.0
 40
0.2500000000000005
 40
0.2500000000000005
 40
0.3125000000000005
 40
0.3125000000000005
 40
0.3750000000000005
 40
0.3750000000000005
 40
0.5000000000000006
 40
0.5000000000000006
 40
0.5625000000000004
 40
0.5625000000000004
 40
0.6250000000000003
 40
0.6250000000000003
 40
0.7500000000000002
 40
0.7500000000000002
 40
0.8750000000000002
 40
0.8750000000000002
 40
0.9375000000000001
 40
0.9375000000000001
 40
1.0
 40
1.0
 40
1.0
 40
1.0
 10
211.4915556051471
 20
235.2649184944647
 30
0.0
 10
210.6585299475358
 20
236.5249557604114
 30
0.0
 10
209.9002892641862
 20
238.0122164274492
 30
0.0
 10
209.0452141641022
 20
240.1709480960246
 30
0.0
 10
208.8795261919823
 20
240.6165411255945
 30
0.0
 10
208.5622341827168
 20
241.528019163298
 30
0.0
 10
208.4100626303602
 20
241.9949503303518
 30
0.0
 10
207.9717117315229
 20
243.4290629588477
 30
0.0
 10
207.7034352647638
 20
244.4293944124856
 30
0.0
 10
207.3368249978838
 20
245.9981273129043
 30
0.0
 10
207.2206542835478
 20
246.5324513544278
 30
0.0
 10
207.001172065193
 20
247.6247857629384
 30
0.0
 10
206.897610408419
 20
248.1846098783573
 30
0.0
 10
206.6125661494711
 20
249.8742322712246
 30
0.0
 10
206.456005929653
 20
251.0210164913956
 30
0.0
 10
206.2033273521296
 20
253.3540709665718
 30
0.0
 10
206.1068768572221
 20
254.5403078146234
 30
0.0
 10
206.0075581516287
 20
256.3499855590732
 30
0.0
 10
205.9820842018707
 20
256.958284538223
 30
0.0
 10
205.9475062007141
 20
258.1854208823691
 30
0.0
 10
205.9384534476373
 20
258.8045984536626
 30
0.0
 10
205.9384534476304
 20
259.4226735818478
 30
0.0
  0
SPLINE
  5
234
330
1F
100
AcDbEntity
  8
0
  6
SLD-Сплошная
 62
     7
370
    25
100
AcDbSpline
210
0.0
220
0.0
230
1.0
 70
     8
 71
     3
 72
    26
 73
    22
 74
     0
 42
0.00000001
 43
0.00000001
 40
0.0
 40
0.0
 40
0.0
 40
0.0
 40
0.1250000000000001
 40
0.1250000000000001
 40
0.2500000000000002
 40
0.2500000000000002
 40
0.3125000000000004
 40
0.3125000000000004
 40
0.3750000000000006
 40
0.3750000000000006
 40
0.5000000000000007
 40
0.5000000000000007
 40
0.5625000000000007
 40
0.5625000000000007
 40
0.6250000000000008
 40
0.6250000000000008
 40
0.7500000000000004
 40
0.7500000000000004
 40
0.8750000000000002
 40
0.8750000000000002
 40
1.0
 40
1.0
 40
1.0
 40
1.0
 10
205.9384534476304
 20
259.4226735818475
 30
0.0
 10
205.9384534476443
 20
260.6555113409082
 30
0.0
 10
205.9738080050534
 20
261.8751722804163
 30
0.0
 10
206.1057428461522
 20
264.28953751676
 30
0.0
 10
206.2024059128781
 20
265.4842331680184
 30
0.0
 10
206.3946747308709
 20
267.2573016055921
 30
0.0
 10
206.4668562907657
 20
267.845618547771
 30
0.0
 10
206.6258684310479
 20
269.0001515808173
 30
0.0
 10
206.7130095838548
 20
269.5683484407823
 30
0.0
 10
206.997057064466
 20
271.2463673959156
 30
0.0
 10
207.2157204964628
 20
272.3298497064076
 30
0.0
 10
207.5837730242525
 20
273.903490990157
 30
0.0
 10
207.7136214776802
 20
274.4209390686775
 30
0.0
 10
207.9847999944879
 20
275.4304525433714
 30
0.0
 10
208.1258196389665
 20
275.9216111050696
 30
0.0
 10
208.565209265701
 20
277.3555828703865
 30
0.0
 10
208.8804659093641
 20
278.2588984970132
 30
0.0
 10
209.5560641266194
 20
279.9636691141367
 30
0.0
 10
209.9159162771062
 20
280.766780967907
 30
0.0
 10
210.6779412117427
 20
282.2642799225752
 30
0.0
 10
211.0761242625498
 20
282.9520458957445
 30
0.0
 10
211.4915556051471
 20
283.5804286692307
 30
0.0
  0
LINE
  5
235
330
1F
100
AcDbEntity
  8
0
  6
SLD-Сплошная
 62
     7
370
    25
100
AcDbLine
 10
282.9915556051
 20
286.3726735818
 30
0.0
 11
282.9915556051
 21
289.3702174638
 31
0.0
  0
LINE
  5
236
330
1F
100
AcDbEntity
  8
0
  6
SLD-Сплошная
 62
     7
370
    25
100
AcDbLine
 10
282.9915556051
 20
284.2076100724
 30
0.0
 11
282.9915556051
 21
286.3726735818
 31
0.0
  0
LINE
  5
237
330
1F
100
AcDbEntity
  8
0
  6
SLD-Сплошная
 62
     7
370
    25
100
AcDbLine
 10
282.9915556051
 20
261.5877370913
 30
0.0
 11
282.9915556051
 21
284.2076100724
 31
0.0
  0
LINE
  5
238
330
1F
100
AcDbEntity
  8
0
  6
SLD-Сплошная
 62
     7
370
    25
100
AcDbLine
 10
282.9915556051
 20
257.2576100724
 30
0.0
 11
282.9915556051
 21
261.5877370913
 31
0.0
  0
LINE
  5
239
330
1F
100
AcDbEntity
  8
0
  6
SLD-Сплошная
 62
     7
370
    25
100
AcDbLine
 10
282.9915556051
 20
234.6377370913
 30
0.0
 11
282.9915556051
 21
257.2576100724
 31
0.0
  0
LINE
  5
23A
330
1F
100
AcDbEntity
  8
0
  6
SLD-Сплошная
 62
     7
370
    25
100
AcDbLine
 10
282.9915556051
 20
232.4726735818
 30
0.0
 11
282.9915556051
 21
234.6377370913
 31
0.0
  0
LINE
  5
23B
330
1F
100
AcDbEntity
  8
0
  6
SLD-Сплошная
 62
     7
370
    25
100
AcDbLine
 10
282.9915556051
 20
229.4751296999
 30
0.0
 11
282.9915556051
 21
232.4726735818
 31
0.0
  0
LINE
  5
23C
330
1F
100
AcDbEntity
  8
0
  6
SLD-Сплошная
 62
     7
370
    25
100
AcDbLine
 10
280.9915556051
 20
229.4751296999
 30
0.0
 11
282.9915556051
 21
229.4751296999
 31
0.0
  0
LINE
  5
23D
330
1F
100
AcDbEntity
  8
0
  6
SLD-Сплошная
 62
     7
370
    25
100
AcDbLine
 10
280.9915556051
 20
229.4751296999
 30
0.0
 11
280.9915556051
 21
289.3702174638
 31
0.0
  0
LINE
  5
23E
330
1F
100
AcDbEntity
  8
0
  6
SLD-Сплошная
 62
     7
370
    25
100
AcDbLine
 10
280.9915556051
 20
289.3702174638
 30
0.0
 11
282.9915556051
 21
289.3702174638
 31
0.0
  0
LINE
  5
23F
330
1F
100
AcDbEntity
  8
0
  6
SLD-Сплошная
 62
     7
370
    25
100
AcDbLine
 10
290.9915556051
 20
257.2576100724
 30
0.0
 11
282.9915556051
 21
257.2576100724
 31
0.0
  0
LINE
  5
240
330
1F
100
AcDbEntity
  8
0
  6
SLD-Сплошная
 62
     7
370
    25
100
AcDbLine
 10
282.9915556051
 20
234.6377370913
 30
0.0
 11
290.9915556051
 21
234.6377370913
 31
0.0
  0
LINE
  5
241
330
1F
100
AcDbEntity
  8
0
  6
SLD-Сплошная
 62
     7
370
    25
100
AcDbLine
 10
290.9915556051
 20
234.6377370913
 30
0.0
 11
290.9915556051
 21
257.2576100724
 31
0.0
  0
LINE
  5
242
330
1F
100
AcDbEntity
  8
0
  6
SLD-Сплошная
 62
     7
370
    25
100
AcDbLine
 10
282.9915556051
 20
261.5877370913
 30
0.0
 11
290.9915556051
 21
261.5877370913
 31
0.0
  0
LINE
  5
243
330
1F
100
AcDbEntity
  8
0
  6
SLD-Сплошная
 62
     7
370
    25
100
AcDbLine
 10
290.9915556051
 20
261.5877370913
 30
0.0
 11
290.9915556051
 21
257.2576100724
 31
0.0
  0
LINE
  5
244
330
1F
100
AcDbEntity
  8
0
  6
SLD-Сплошная
 62
     7
370
    25
100
AcDbLine
 10
290.9915556051
 20
284.2076100724
 30
0.0
 11
282.9915556051
 21
284.2076100724
 31
0.0
  0
LINE
  5
245
330
1F
100
AcDbEntity
  8
0
  6
SLD-Сплошная
 62
     7
370
    25
100
AcDbLine
 10
290.9915556051
 20
284.2076100724
 30
0.0
 11
290.9915556051
 21
261.5877370913
 31
0.0
  0
SPLINE
  5
246
330
1F
100
AcDbEntity
  8
0
  6
SLD-Сплошная
 62
     7
370
    25
100
AcDbSpline
210
0.0
220
0.0
230
1.0
 70
     8
 71
     3
 72
     9
 73
     5
 74
     0
 42
0.00000001
 43
0.00000001
 40
0.0
 40
0.0
 40
0.0
 40
0.0
 40
0.3582951749455989
 40
1.0
 40
1.0
 40
1.0
 40
1.0
 10
204.6769776823002
 20
230.6738144946583
 30
0.0
 10
205.3865374560498
 20
230.6734088089668
 30
0.0
 10
207.3669151540118
 20
230.6722765422777
 30
0.0
 10
209.3572511833929
 20
230.6727842958737
 30
0.0
 10
210.6344594169264
 20
230.6731101238062
 30
0.0
  0
SPLINE
  5
247
330
1F
100
AcDbEntity
  8
0
  6
SLD-Сплошная
 62
     7
370
    25
100
AcDbSpline
210
0.0
220
0.0
230
1.0
 70
     8
 71
     3
 72
    10
 73
     6
 74
     0
 42
0.00000001
 43
0.00000001
 40
0.0
 40
0.0
 40
0.0
 40
0.0
 40
0.4459481290190844
 40
0.9975052801231317
 40
0.9999999999999999
 40
0.9999999999999999
 40
0.9999999999999999
 40
0.9999999999999999
 10
210.8206221036656
 20
288.1722314300272
 30
0.0
 10
209.7945627723244
 20
288.1717824493788
 30
0.0
 10
207.4994536909525
 20
288.1707781609014
 30
0.0
 10
205.157359177496
 20
288.1779591807492
 30
0.0
 10
203.9019863905428
 20
288.1723844342839
 30
0.0
 10
203.8963338449807
 20
288.1723593329684
 30
0.0
  0
SPLINE
  5
248
330
1F
100
AcDbEntity
  8
0
  6
SLD-Сплошная
 62
     7
370
    25
100
AcDbSpline
210
0.0
220
0.0
230
1.0
 70
    24
 71
     3
 72
    20
 73
    16
 74
     0
 42
0.00000001
 43
0.00000001
 40
0.0
 40
0.0
 40
0.0
 40
0.0
 40
0.25
 40
0.25
 40
0.5
 40
0.5
 40
0.625
 40
0.625
 40
0.65625
 40
0.65625
 40
0.6875
 40
0.6875
 40
0.75
 40
0.75
 40
1.0
 40
1.0
 40
1.0
 40
1.0
 10
310.3633089755921
 20
256.5880251086589
 30
0.0
 10
308.9463969614361
 20
256.5880251086589
 30
0.0
 10
307.4258637589635
 20
256.588025108659
 30
0.0
 10
304.2530491376296
 20
256.588025108659
 30
0.0
 10
302.6002641741609
 20
256.588025108659
 30
0.0
 10
300.0843388684893
 20
256.588025108659
 30
0.0
 10
299.241949346873
 20
256.588025108659
 30
0.0
 10
298.1798224203013
 20
256.588025108659
 30
0.0
 10
297.9688786399263
 20
256.588025108659
 30
0.0
 10
297.5563994766521
 20
256.588025108659
 30
0.0
 10
297.3532942197181
 20
256.588025108659
 30
0.0
 10
296.739062136383
 20
256.588025108659
 30
0.0
 10
296.3277029782074
 20
256.588025108659
 30
0.0
 10
294.2753386039528
 20
256.588025108659
 30
0.0
 10
292.6334471045512
 20
256.588025108659
 30
0.0
 10
290.9915556051471
 20
256.588025108659
 30
0.0
  0
SPLINE
  5
249
330
1F
100
AcDbEntity
  8
0
  6
SLD-Сплошная
 62
     7
370
    25
100
AcDbSpline
210
0.0
220
0.0
230
1.0
 70
    24
 71
     3
 72
    20
 73
    16
 74
     0
 42
0.00000001
 43
0.00000001
 40
0.0
 40
0.0
 40
0.0
 40
0.0
 40
0.2500000000000016
 40
0.2500000000000016
 40
0.5000000000000031
 40
0.5000000000000031
 40
0.6250000000000039
 40
0.6250000000000039
 40
0.6562500000000036
 40
0.6562500000000036
 40
0.6875000000000031
 40
0.6875000000000031
 40
0.7500000000000026
 40
0.7500000000000026
 40
1.0
 40
1.0
 40
1.0
 40
1.0
 10
310.3633089755921
 20
262.2573220550365
 30
0.0
 10
308.9463969614376
 20
262.2573220550365
 30
0.0
 10
307.4258637589621
 20
262.2573220550365
 30
0.0
 10
304.2530491376289
 20
262.2573220550365
 30
0.0
 10
302.600264174161
 20
262.2573220550365
 30
0.0
 10
300.0843388684888
 20
262.2573220550365
 30
0.0
 10
299.2419493468732
 20
262.2573220550365
 30
0.0
 10
298.1798224203014
 20
262.2573220550365
 30
0.0
 10
297.9688786399263
 20
262.2573220550365
 30
0.0
 10
297.5563994766521
 20
262.2573220550365
 30
0.0
 10
297.3532942197181
 20
262.2573220550365
 30
0.0
 10
296.7390621363829
 20
262.2573220550365
 30
0.0
 10
296.3277029782074
 20
262.2573220550365
 30
0.0
 10
294.2753386039529
 20
262.2573220550365
 30
0.0
 10
292.6334471045512
 20
262.2573220550365
 30
0.0
 10
290.9915556051471
 20
262.2573220550365
 30
0.0
  0
SPLINE
  5
24A
330
1F
100
AcDbEntity
  8
0
  6
SLD-Сплошная
 62
     7
370
    25
100
AcDbSpline
210
0.0
220
0.0
230
1.0
 70
     8
 71
     3
 72
    15
 73
    11
 74
     0
 42
0.00000001
 43
0.00000001
 40
0.0
 40
0.0
 40
0.0
 40
0.0
 40
0.132350882733438
 40
0.2685453191273501
 40
0.4008977950612006
 40
0.5370904483608676
 40
0.6693902225885557
 40
0.8055287289488495
 40
0.9377636704935627
 40
1.0
 40
1.0
 40
1.0
 40
1.0
 10
271.4870442942979
 20
259.4226735818476
 30
0.0
 10
271.4865613665843
 20
258.264831279517
 30
0.0
 10
271.4855814866298
 20
255.915522199314
 30
0.0
 10
271.4845796674362
 20
252.5061509263184
 30
0.0
 10
271.4879685720097
 20
249.2631360819367
 30
0.0
 10
271.4848759450776
 20
246.3384901570749
 30
0.0
 10
271.4938661581432
 20
243.7552082688971
 30
0.0
 10
271.4613573723894
 20
241.6611882887268
 30
0.0
 10
271.5590203701775
 20
240.2801819204827
 30
0.0
 10
271.293332368694
 20
239.7416691076166
 30
0.0
 10
271.2083046629725
 20
239.5693297143282
 30
0.0
  0
SPLINE
  5
24B
330
1F
100
AcDbEntity
  8
0
  6
SLD-Сплошная
 62
     7
370
    25
100
AcDbSpline
210
0.0
220
0.0
230
1.0
 70
     8
 71
     3
 72
    16
 73
    12
 74
     0
 42
0.00000001
 43
0.00000001
 40
0.0
 40
0.0
 40
0.0
 40
0.0
 40
0.0045071260743301
 40
0.1210569377339785
 40
0.2403705545103918
 40
0.3699437265993589
 40
0.5032104773098222
 40
0.6338369248865491
 40
0.768247321793013
 40
0.882858255157176
 40
0.9999999999999999
 40
0.9999999999999999
 40
0.9999999999999999
 40
0.9999999999999999
 10
271.2195257739268
 20
279.4338233313176
 30
0.0
 10
271.2279379879346
 20
279.4231056934518
 30
0.0
 10
271.4538817158344
 20
279.1352405664555
 30
0.0
 10
271.4939423167197
 20
278.2250494285348
 30
0.0
 10
271.4849946966528
 20
276.6380295674493
 30
0.0
 10
271.4876526559181
 20
274.4710839216511
 30
0.0
 10
271.4867502403395
 20
271.8383966436598
 30
0.0
 10
271.4870368868555
 20
268.817763536464
 30
0.0
 10
271.4845193132663
 20
265.6836808595385
 30
0.0
 10
271.4858688497503
 20
262.5124902834057
 30
0.0
 10
271.4866496373009
 20
260.4600834564484
 30
0.0
 10
271.4870442942979
 20
259.4226735818476
 30
0.0
  0
SPLINE
  5
24C
330
1F
100
AcDbEntity
  8
0
  6
SLD-Сплошная
 62
     7
370
    25
100
AcDbSpline
210
0.0
220
0.0
230
1.0
 70
    24
 71
     3
 72
    16
 73
    12
 74
     0
 42
0.00000001
 43
0.00000001
 40
0.0
 40
0.0
 40
0.0
 40
0.0
 40
0.0625000000000001
 40
0.0625000000000001
 40
0.1250000000000004
 40
0.1250000000000004
 40
0.2500000000000008
 40
0.2500000000000008
 40
0.5000000000000016
 40
0.5000000000000016
 40
1.0
 40
1.0
 40
1.0
 40
1.0
 10
297.9389967218834
 20
255.9159255907108
 30
0.0
 10
298.2030324343328
 20
255.9159255907108
 30
0.0
 10
298.4636291207785
 20
255.9159255907108
 30
0.0
 10
298.9878343012824
 20
255.9159255907108
 30
0.0
 10
299.2497439906044
 20
255.9159255907108
 30
0.0
 10
300.0344238738717
 20
255.9159255907108
 30
0.0
 10
300.5561483946806
 20
255.9159255907108
 30
0.0
 10
302.1132148679951
 20
255.9159255907108
 30
0.0
 10
303.1404487458923
 20
255.9159255907108
 30
0.0
 10
306.1572324446007
 20
255.9159255907108
 30
0.0
 10
308.080525771767
 20
255.9159255907107
 30
0.0
 10
309.8374571535222
 20
255.9159255907107
 30
0.0
  0
LINE
  5
24D
330
1F
100
AcDbEntity
  8
0
  6
SLD-Сплошная
 62
     7
370
    25
100
AcDbLine
 10
290.9915556051
 20
255.9159255907
 30
0.0
 11
297.9389967219
 21
255.9159255907
 31
0.0
  0
LWPOLYLINE
  5
24E
330
1F
100
AcDbEntity
  8
0
  6
SLD-Сплошная
 62
     7
370
    25
100
AcDbPolyline
 90
        3
 70
   128
 43
0.0
 10
297.9389967219
 20
262.929421573
 10
294.0484296965
 20
262.9294224845
 10
290.9915556051
 20
262.929421573
  0
SPLINE
  5
24F
330
1F
100
AcDbEntity
  8
0
  6
SLD-Сплошная
 62
     7
370
    25
100
AcDbSpline
210
0.0
220
0.0
230
1.0
 70
    24
 71
     3
 72
    16
 73
    12
 74
     0
 42
0.00000001
 43
0.00000001
 40
0.0
 40
0.0
 40
0.0
 40
0.0
 40
0.500000000000005
 40
0.500000000000005
 40
0.7500000000000057
 40
0.7500000000000057
 40
0.8750000000000046
 40
0.8750000000000046
 40
0.9375000000000022
 40
0.9375000000000022
 40
1.0
 40
1.0
 40
1.0
 40
1.0
 10
309.8374571535222
 20
262.9294215729847
 30
0.0
 10
308.0805257717664
 20
262.9294215729847
 30
0.0
 10
306.1572324446006
 20
262.9294215729847
 30
0.0
 10
303.1404487458923
 20
262.9294215729847
 30
0.0
 10
302.1132148679953
 20
262.9294215729847
 30
0.0
 10
300.5561483946805
 20
262.9294215729847
 30
0.0
 10
300.0344238738718
 20
262.9294215729847
 30
0.0
 10
299.2497439906044
 20
262.9294215729847
 30
0.0
 10
298.9878343012822
 20
262.9294215729847
 30
0.0
 10
298.4636291207786
 20
262.9294215729847
 30
0.0
 10
298.2030324343326
 20
262.9294215729847
 30
0.0
 10
297.9389967218834
 20
262.9294215729847
 30
0.0
  0
LINE
  5
250
330
1F
100
AcDbEntity
  8
0
  6
SLD-Сплошная
 62
     7
370
    25
100
AcDbLine
 10
271.4915556051
 20
259.4226735818
 30
0.0
 11
271.4915556051
 21
238.5458112574
 31
0.0
  0
LINE
  5
251
330
1F
100
AcDbEntity
  8
0
  6
SLD-Сплошная
 62
     7
370
    25
100
AcDbLine
 10
271.4915556051
 20
280.2995359063
 30
0.0
 11
271.4915556051
 21
259.4226735818
 31
0.0
  0
LWPOLYLINE
  5
252
330
1F
100
AcDbEntity
  8
0
  6
SLD-Сплошная
 62
     7
370
    25
100
AcDbPolyline
 90
        3
 70
   128
 43
0.0
 10
297.9389967219
 20
237.7039554215
 10
294.0484296965
 20
237.7039555687
 10
290.9915556051
 20
237.7039554215
  0
LINE
  5
253
330
1F
100
AcDbEntity
  8
0
  6
SLD-Сплошная
 62
     7
370
    25
100
AcDbLine
 10
309.8374571535
 20
241.2532113476
 30
0.0
 11
312.7711351321
 21
243.1743607408
 31
0.0
  0
SPLINE
  5
254
330
1F
100
AcDbEntity
  8
0
  6
SLD-Сплошная
 62
     7
370
    25
100
AcDbSpline
210
0.0
220
0.0
230
1.0
 70
     8
 71
     3
 72
    16
 73
    12
 74
     0
 42
0.00000001
 43
0.00000001
 40
0.0
 40
0.0
 40
0.0
 40
0.0
 40
0.4999999999999968
 40
0.4999999999999968
 40
0.7499999999999967
 40
0.7499999999999967
 40
0.8749999999999983
 40
0.8749999999999983
 40
0.9374999999999992
 40
0.9374999999999992
 40
1.0
 40
1.0
 40
1.0
 40
1.0
 10
309.8358050023077
 20
241.2557342537095
 30
0.0
 10
308.0793929363904
 20
240.1049288245496
 30
0.0
 10
306.1565182305803
 20
239.2114944515118
 30
0.0
 10
303.1401594470364
 20
238.3111352150183
 30
0.0
 10
302.1130336768254
 20
238.0840495449488
 30
0.0
 10
300.5560756886806
 20
237.8564632676776
 30
0.0
 10
300.0343784072913
 20
237.7994141514505
 30
0.0
 10
299.2497257886281
 20
237.7422715051674
 30
0.0
 10
298.9878229232051
 20
237.7279610300045
 30
0.0
 10
298.4636268436848
 20
237.7088344359437
 30
0.0
 10
298.2030324343385
 20
237.7040212304632
 30
0.0
 10
297.9389967218895
 20
237.703955421545
 30
0.0
  0
ARC
  5
255
330
1F
100
AcDbEntity
  8
0
  6
SLD-Сплошная
 62
     7
370
    25
100
AcDbCircle
 10
309.5229360116
 20
259.1595512388
 30
0.0
 40
3.25883888736751
100
AcDbArc
 50
275.5384230883
 51
4.6311673259
  0
LINE
  5
256
330
1F
100
AcDbEntity
  8
0
  6
SLD-Сплошная
 62
     7
370
    25
100
AcDbLine
 10
317.3789041291
 20
249.1226735818
 30
0.0
 11
317.3789041291
 21
259.4226735818
 31
0.0
  0
ARC
  5
257
330
1F
100
AcDbEntity
  8
0
  6
SLD-Сплошная
 62
     7
370
    25
100
AcDbCircle
 10
309.5229360116
 20
259.6857959249
 30
0.0
 40
3.258838887367406
100
AcDbArc
 50
355.3688326741
 51
84.4615769118
  0
SPLINE
  5
258
330
1F
100
AcDbEntity
  8
0
  6
SLD-Сплошная
 62
     7
370
    25
100
AcDbSpline
210
0.0
220
0.0
230
1.0
 70
     8
 71
     3
 72
    16
 73
    12
 74
     0
 42
0.00000001
 43
0.00000001
 40
0.0
 40
0.0
 40
0.0
 40
0.0
 40
0.0625
 40
0.0625
 40
0.125
 40
0.125
 40
0.25
 40
0.25
 40
0.5
 40
0.5
 40
1.0
 40
1.0
 40
1.0
 40
1.0
 10
297.9389967218834
 20
281.1413917421502
 30
0.0
 10
298.2030324343327
 20
281.1413887610496
 30
0.0
 10
298.4636291207784
 20
281.1366383833696
 30
0.0
 10
298.9878343012826
 20
281.1176371975772
 30
0.0
 10
299.2497439906044
 20
281.1033893028707
 30
0.0
 10
300.0344238738717
 20
281.0464336569145
 30
0.0
 10
300.5561483946802
 20
280.9895082187192
 30
0.0
 10
302.113214867996
 20
280.7622870698838
 30
0.0
 10
303.1404487458915
 20
280.5354369171572
 30
0.0
 10
306.1572324446024
 20
279.6357377055387
 30
0.0
 10
308.0805257717655
 20
278.7426805189099
 30
0.0
 10
309.8374571535222
 20
277.592135816144
 30
0.0
  0
LINE
  5
259
330
1F
100
AcDbEntity
  8
0
  6
SLD-Сплошная
 62
     7
370
    25
100
AcDbLine
 10
312.7711351321
 20
275.6709864229
 30
0.0
 11
309.8374571535
 21
277.5921358161
 31
0.0
  0
LINE
  5
25A
330
1F
100
AcDbEntity
  8
0
  6
SLD-Сплошная
 62
     7
370
    25
100
AcDbLine
 10
317.3789041291
 20
259.4226735818
 30
0.0
 11
317.3789041291
 21
269.7226735818
 31
0.0
  0
LINE
  5
25B
330
1F
100
AcDbEntity
  8
0
  6
SLD-Сплошная
 62
     7
370
    25
100
AcDbLine
 10
290.9915556051
 20
281.1413917422
 30
0.0
 11
297.9389967219
 21
281.1413917422
 31
0.0
  0
LWPOLYLINE
  5
25C
330
1F
100
AcDbEntity
  8
0
  6
SLD-Сплошная
 62
     7
370
    25
100
AcDbPolyline
 90
       11
 70
   128
 43
0.0
 10
310.3633089756
 20
262.257322055
 10
311.0961157196
 20
262.1185844837
 10
311.7571902337
 20
261.7159523697
 10
312.2818219385
 20
261.0888381498
 10
312.6186562275
 20
260.2986281331
 10
312.7347214135
 20
259.4226735818
 10
312.6186562275
 20
258.5467190306
 10
312.2818219385
 20
257.7565090139
 10
311.7571902337
 20
257.129394794
 10
311.0961157196
 20
256.72676268
 10
310.3633089756
 20
256.5880251087
  0
LINE
  5
25D
330
1F
100
AcDbEntity
  8
0
  6
SLD-Сплошная
 62
     7
370
    25
100
AcDbLine
 10
154.1185899254
 20
288.1089572339
 30
0.0
 11
157.2502006754
 21
288.1089572339
 31
0.0
  0
LINE
  5
25E
330
1F
100
AcDbEntity
  8
0
  6
SLD-Сплошная
 62
     7
370
    25
100
AcDbLine
 10
158.2940835635
 20
288.1089572339
 30
0.0
 11
165.6011879516
 21
288.1089572339
 31
0.0
  0
LINE
  5
25F
330
1F
100
AcDbEntity
  8
0
  6
SLD-Сплошная
 62
     7
370
    25
100
AcDbLine
 10
158.2940835635
 20
289.8311554573
 30
0.0
 11
165.6011879516
 21
289.8311554573
 31
0.0
  0
LINE
  5
260
330
1F
100
AcDbEntity
  8
0
  6
SLD-Сплошная
 62
     7
370
    25
100
AcDbLine
 10
154.1185899254
 20
289.8311554573
 30
0.0
 11
157.2502006754
 21
289.8311554573
 31
0.0
  0
LINE
  5
261
330
1F
100
AcDbEntity
  8
0
  6
SLD-Сплошная
 62
     7
370
    25
100
AcDbLine
 10
280.9915556051
 20
276.2226735818
 30
0.0
 11
271.4915556051
 21
276.2226735818
 31
0.0
  0
LINE
  5
262
330
1F
100
AcDbEntity
  8
0
  6
SLD-Сплошная
 62
     7
370
    25
100
AcDbLine
 10
280.9915556051
 20
242.6226735818
 30
0.0
 11
271.4915556051
 21
242.6226735818
 31
0.0
  0
LINE
  5
263
330
1F
100
AcDbEntity
  8
0
  6
SLD-Сплошная
 62
     7
370
    25
100
AcDbLine
 10
290.9915556051
 20
232.4726735818
 30
0.0
 11
282.9915556051
 21
232.4726735818
 31
0.0
  0
LINE
  5
264
330
1F
100
AcDbEntity
  8
0
  6
SLD-Сплошная
 62
     7
370
    25
100
AcDbLine
 10
290.9915556051
 20
232.4726735818
 30
0.0
 11
290.9915556051
 21
234.6377370913
 31
0.0
  0
LINE
  5
265
330
1F
100
AcDbEntity
  8
0
  6
SLD-Сплошная
 62
     7
370
    25
100
AcDbLine
 10
282.9915556051
 20
286.3726735818
 30
0.0
 11
290.9915556051
 21
286.3726735818
 31
0.0
  0
LINE
  5
266
330
1F
100
AcDbEntity
  8
0
  6
SLD-Сплошная
 62
     7
370
    25
100
AcDbLine
 10
290.9915556051
 20
286.3726735818
 30
0.0
 11
290.9915556051
 21
284.2076100724
 31
0.0
  0
LINE
  5
267
330
1F
100
AcDbEntity
  8
0
  6
SLD-Сплошная
 62
     7
370
    25
100
AcDbLine
 10
158.2940835635
 20
289.7160680149
 30
0.0
 11
158.2940835635
 21
288.330853562
 31
0.0
  0
LINE
  5
268
330
1F
100
AcDbEntity
  8
0
  6
SLD-Сплошная
 62
     7
370
    25
100
AcDbLine
 10
165.6011879516
 20
289.7160680149
 30
0.0
 11
158.2940835635
 21
289.7160680149
 31
0.0
  0
LINE
  5
269
330
1F
100
AcDbEntity
  8
0
  6
SLD-Сплошная
 62
     7
370
    25
100
AcDbLine
 10
165.6011879516
 20
289.7160680149
 30
0.0
 11
165.6011879516
 21
288.330853562
 31
0.0
  0
LINE
  5
26A
330
1F
100
AcDbEntity
  8
0
  6
SLD-Сплошная
 62
     7
370
    25
100
AcDbLine
 10
158.2940835635
 20
288.330853562
 30
0.0
 11
165.6011879516
 21
288.330853562
 31
0.0
  0
LINE
  5
26B
330
1F
100
AcDbEntity
  8
0
  6
SLD-Сплошная
 62
     7
370
    25
100
AcDbLine
 10
157.2502006754
 20
289.7160680149
 30
0.0
 11
154.1185899254
 21
289.7160680149
 31
0.0
  0
LINE
  5
26C
330
1F
100
AcDbEntity
  8
0
  6
SLD-Сплошная
 62
     7
370
    25
100
AcDbLine
 10
154.1185899254
 20
288.330853562
 30
0.0
 11
157.2502006754
 21
288.330853562
 31
0.0
  0
LINE
  5
26D
330
1F
100
AcDbEntity
  8
0
  6
SLD-Сплошная
 62
     7
370
    25
100
AcDbLine
 10
154.1185899254
 20
289.7160680149
 30
0.0
 11
154.1185899254
 21
288.330853562
 31
0.0
  0
LINE
  5
26E
330
1F
100
AcDbEntity
  8
0
  6
SLD-Сплошная
 62
     7
370
    25
100
AcDbLine
 10
157.2502006754
 20
289.7160680149
 30
0.0
 11
157.2502006754
 21
288.330853562
 31
0.0
  0
LINE
  5
26F
330
1F
100
AcDbEntity
  8
0
  6
SLD-Сплошная
 62
     7
370
    25
100
AcDbLine
 10
165.6011879516
 20
288.1089572339
 30
0.0
 11
165.6011879516
 21
288.330853562
 31
0.0
  0
LINE
  5
270
330
1F
100
AcDbEntity
  8
0
  6
SLD-Сплошная
 62
     7
370
    25
100
AcDbLine
 10
158.2940835635
 20
288.1089572339
 30
0.0
 11
158.2940835635
 21
288.330853562
 31
0.0
  0
LINE
  5
271
330
1F
100
AcDbEntity
  8
0
  6
SLD-Сплошная
 62
     7
370
    25
100
AcDbLine
 10
154.1185899254
 20
288.1089572339
 30
0.0
 11
154.1185899254
 21
288.330853562
 31
0.0
  0
LINE
  5
272
330
1F
100
AcDbEntity
  8
0
  6
SLD-Сплошная
 62
     7
370
    25
100
AcDbLine
 10
157.2502006754
 20
288.1089572339
 30
0.0
 11
157.2502006754
 21
288.330853562
 31
0.0
  0
LINE
  5
273
330
1F
100
AcDbEntity
  8
0
  6
SLD-Сплошная
 62
     7
370
    25
100
AcDbLine
 10
154.1185899254
 20
290.0405730848
 30
0.0
 11
157.2502006754
 21
290.0405730848
 31
0.0
  0
LINE
  5
274
330
1F
100
AcDbEntity
  8
0
  6
SLD-Сплошная
 62
     7
370
    25
100
AcDbLine
 10
157.2502006754
 20
289.8311554573
 30
0.0
 11
157.2502006754
 21
290.0405730848
 31
0.0
  0
LINE
  5
275
330
1F
100
AcDbEntity
  8
0
  6
SLD-Сплошная
 62
     7
370
    25
100
AcDbLine
 10
154.1185899254
 20
289.8311554573
 30
0.0
 11
154.1185899254
 21
290.0405730848
 31
0.0
  0
LINE
  5
276
330
1F
100
AcDbEntity
  8
0
  6
SLD-Сплошная
 62
     7
370
    25
100
AcDbLine
 10
157.2502006754
 20
291.4726735818
 30
0.0
 11
157.2502006754
 21
290.0405730848
 31
0.0
  0
LINE
  5
277
330
1F
100
AcDbEntity
  8
0
  6
SLD-Сплошная
 62
     7
370
    25
100
AcDbLine
 10
154.1185899254
 20
291.4726735818
 30
0.0
 11
154.1185899254
 21
290.0405730848
 31
0.0
  0
LINE
  5
278
330
1F
100
AcDbEntity
  8
0
  6
SLD-Сплошная
 62
     7
370
    25
100
AcDbLine
 10
158.2940835635
 20
289.8311554573
 30
0.0
 11
158.2940835635
 21
290.0405730848
 31
0.0
  0
LINE
  5
279
330
1F
100
AcDbEntity
  8
0
  6
SLD-Сплошная
 62
     7
370
    25
100
AcDbLine
 10
158.2940835635
 20
290.0405730848
 30
0.0
 11
165.6011879516
 21
290.0405730848
 31
0.0
  0
LINE
  5
27A
330
1F
100
AcDbEntity
  8
0
  6
SLD-Сплошная
 62
     7
370
    25
100
AcDbLine
 10
165.6011879516
 20
289.8311554573
 30
0.0
 11
165.6011879516
 21
290.0405730848
 31
0.0
  0
LINE
  5
27B
330
1F
100
AcDbEntity
  8
0
  6
SLD-Сплошная
 62
     7
370
    25
100
AcDbLine
 10
161.4256943135
 20
291.4726735818
 30
0.0
 11
161.4256943135
 21
290.9191471576
 31
0.0
  0
LINE
  5
27C
330
1F
100
AcDbEntity
  8
0
  6
SLD-Сплошная
 62
     7
370
    25
100
AcDbLine
 10
162.4695772016
 20
290.9191471576
 30
0.0
 11
161.4256943135
 21
290.9191471576
 31
0.0
  0
LINE
  5
27D
330
1F
100
AcDbEntity
  8
0
  6
SLD-Сплошная
 62
     7
370
    25
100
AcDbLine
 10
162.4695772016
 20
291.4726735818
 30
0.0
 11
162.4695772016
 21
290.9191471576
 31
0.0
  0
LINE
  5
27E
330
1F
100
AcDbEntity
  8
0
  6
SLD-Сплошная
 62
     7
370
    25
100
AcDbLine
 10
165.6011879516
 20
291.4726735818
 30
0.0
 11
165.6011879516
 21
290.0405730848
 31
0.0
  0
LINE
  5
27F
330
1F
100
AcDbEntity
  8
0
  6
SLD-Сплошная
 62
     7
370
    25
100
AcDbLine
 10
158.2940835635
 20
291.4726735818
 30
0.0
 11
158.2940835635
 21
290.0405730848
 31
0.0
  0
LINE
  5
280
330
1F
100
AcDbEntity
  8
0
  6
SLD-Сплошная
 62
     7
370
    25
100
AcDbLine
 10
310.3633089756
 20
240.4502129364
 30
0.0
 11
312.7347214135
 21
242.0031569199
 31
0.0
  0
SPLINE
  5
281
330
1F
100
AcDbEntity
  8
0
  6
SLD-Сплошная
 62
     7
370
    25
100
AcDbSpline
210
0.0
220
0.0
230
1.0
 70
     8
 71
     3
 72
    20
 73
    16
 74
     0
 42
0.00000001
 43
0.00000001
 40
0.0
 40
0.0
 40
0.0
 40
0.0
 40
0.25
 40
0.25
 40
0.5
 40
0.5
 40
0.625
 40
0.625
 40
0.65625
 40
0.65625
 40
0.6875
 40
0.6875
 40
0.75
 40
0.75
 40
1.0
 40
1.0
 40
1.0
 40
1.0
 10
310.3633089755921
 20
240.4502129363844
 30
0.0
 10
308.9463969614361
 20
239.5223334363101
 30
0.0
 10
307.4258637589635
 20
238.7548341381764
 30
0.0
 10
304.2530491376296
 20
237.5750113116075
 30
0.0
 10
302.6002641741621
 20
237.1638912199957
 30
0.0
 10
300.0843388684875
 20
236.8299557184602
 30
0.0
 10
299.241949346873
 20
236.7656144620927
 30
0.0
 10
298.1798224203013
 20
236.7444162038755
 30
0.0
 10
297.9688786399263
 20
236.7440972909264
 30
0.0
 10
297.5563994766521
 20
236.7440957670108
 30
0.0
 10
297.3532942197181
 20
236.7440973857906
 30
0.0
 10
296.739062136383
 20
236.7440985078487
 30
0.0
 10
296.3277029782074
 20
236.7440978346549
 30
0.0
 10
294.2753386039528
 20
236.7440978346549
 30
0.0
 10
292.6334471045512
 20
236.7440978346549
 30
0.0
 10
290.9915556051471
 20
236.7440978346549
 30
0.0
  0
SPLINE
  5
282
330
1F
100
AcDbEntity
  8
0
  6
SLD-Сплошная
 62
     7
370
    25
100
AcDbSpline
210
0.0
220
0.0
230
1.0
 70
     8
 71
     3
 72
    20
 73
    16
 74
     0
 42
0.00000001
 43
0.00000001
 40
0.0
 40
0.0
 40
0.0
 40
0.0
 40
0.249999999999998
 40
0.249999999999998
 40
0.499999999999996
 40
0.499999999999996
 40
0.624999999999995
 40
0.624999999999995
 40
0.6562499999999963
 40
0.6562499999999963
 40
0.6874999999999976
 40
0.6874999999999976
 40
0.7499999999999981
 40
0.7499999999999981
 40
1.0
 40
1.0
 40
1.0
 40
1.0
 10
310.3633089755921
 20
278.3951342273108
 30
0.0
 10
308.9463969614376
 20
279.3230137273841
 30
0.0
 10
307.4258637589621
 20
280.0905130255184
 30
0.0
 10
304.2530491376289
 20
281.2703358520878
 30
0.0
 10
302.6002641741601
 20
281.6814559437009
 30
0.0
 10
300.0843388684898
 20
282.0153914452332
 30
0.0
 10
299.2419493468733
 20
282.079732701602
 30
0.0
 10
298.1798224203013
 20
282.1009309598196
 30
0.0
 10
297.9688786399263
 20
282.1012498727688
 30
0.0
 10
297.5563994766522
 20
282.1012513966844
 30
0.0
 10
297.3532942197182
 20
282.1012497779046
 30
0.0
 10
296.7390621363829
 20
282.1012486558465
 30
0.0
 10
296.3277029782074
 20
282.1012493290403
 30
0.0
 10
294.2753386039528
 20
282.1012493290403
 30
0.0
 10
292.6334471045512
 20
282.1012493290403
 30
0.0
 10
290.9915556051471
 20
282.1012493290403
 30
0.0
  0
LINE
  5
283
330
1F
100
AcDbEntity
  8
0
  6
SLD-Сплошная
 62
     7
370
    25
100
AcDbLine
 10
312.7347214135
 20
276.8421902438
 30
0.0
 11
310.3633089756
 21
278.3951342273
 31
0.0
  0
LINE
  5
284
330
1F
100
AcDbEntity
  8
0
  6
SLD-Сплошная
 62
     7
370
    25
100
AcDbLine
 10
157.2502006754
 20
291.3771802658
 30
0.0
 11
158.2940835635
 21
291.3771802658
 31
0.0
  0
LINE
  5
285
330
1F
100
AcDbEntity
  8
0
  6
SLD-Сплошная
 62
     7
370
    25
100
AcDbLine
 10
161.4256943135
 20
291.3771802658
 30
0.0
 11
162.4695772016
 21
291.3771802658
 31
0.0
  0
LINE
  5
286
330
1F
100
AcDbEntity
  8
0
  6
SLD-Сплошная
 62
     7
370
    25
100
AcDbLine
 10
156.0846234163
 20
34.5274076629
 30
0.0
 11
156.0846234163
 21
48.5274076629
 31
0.0
  0
LINE
  5
287
330
1F
100
AcDbEntity
  8
0
  6
SLD-Сплошная
 62
     7
370
    25
100
AcDbLine
 10
158.5915556051
 20
31.5274076629
 30
0.0
 11
158.5915556051
 21
51.5274076629
 31
0.0
  0
ARC
  5
288
330
1F
100
AcDbEntity
  8
0
  6
SLD-Сплошная
 62
     7
370
    25
100
AcDbCircle
 10
273.8915556051
 20
41.5274076629
 30
0.0
 40
150.0
100
AcDbArc
 50
167.662684676
 51
176.4505011539
  0
LWPOLYLINE
  5
289
330
1F
100
AcDbEntity
  8
0
  6
SLD-Сплошная
 62
     7
370
    25
100
AcDbPolyline
 90
        3
 70
   128
 43
0.0
 10
124.0076085388
 20
47.4267645616
 10
123.8915556051
 20
41.5274076629
 10
124.0076085388
 20
35.6280507642
  0
ARC
  5
28A
330
1F
100
AcDbEntity
  8
0
  6
SLD-Сплошная
 62
     7
370
    25
100
AcDbCircle
 10
273.8915556051
 20
41.5274076629
 30
0.0
 40
150.0
100
AcDbArc
 50
183.5494988461
 51
192.337315324
  0
LINE
  5
28B
330
1F
100
AcDbEntity
  8
0
  6
SLD-Сплошная
 62
     7
370
    25
100
AcDbLine
 10
133.8915556051
 20
73.5774076629
 30
0.0
 11
127.3555617333
 21
73.5774076629
 31
0.0
  0
LINE
  5
28C
330
1F
100
AcDbEntity
  8
0
  6
SLD-Сплошная
 62
     7
370
    25
100
AcDbLine
 10
127.3555617333
 20
9.4774076629
 30
0.0
 11
133.8915556051
 21
9.4774076629
 31
0.0
  0
LINE
  5
28D
330
1F
100
AcDbEntity
  8
0
  6
SLD-Сплошная
 62
     7
370
    25
100
AcDbLine
 10
186.4915556051
 20
73.5774076629
 30
0.0
 11
133.8915556051
 21
73.5774076629
 31
0.0
  0
LINE
  5
28E
330
1F
100
AcDbEntity
  8
0
  6
SLD-Сплошная
 62
     7
370
    25
100
AcDbLine
 10
170.9382222718
 20
9.4774076629
 30
0.0
 11
186.4915556051
 21
9.4774076629
 31
0.0
  0
LINE
  5
28F
330
1F
100
AcDbEntity
  8
0
  6
SLD-Сплошная
 62
     7
370
    25
100
AcDbLine
 10
133.8915556051
 20
9.4774076629
 30
0.0
 11
148.7815556051
 21
9.4774076629
 31
0.0
  0
ARC
  5
290
330
1F
100
AcDbEntity
  8
0
  6
SLD-Сплошная
 62
     7
370
    25
100
AcDbCircle
 10
211.4915556051
 20
245.3394717191
 30
0.0
 40
232.5620640561955
100
AcDbArc
 50
284.4132172191
 51
284.9511640551
  0
ARC
  5
291
330
1F
100
AcDbEntity
  8
0
  6
SLD-Сплошная
 62
     7
370
    25
100
AcDbCircle
 10
211.4915556051
 20
-162.2846563933
 30
0.0
 40
232.5620640561955
100
AcDbArc
 50
75.0488359449
 51
75.6015381343
  0
ARC
  5
292
330
1F
100
AcDbEntity
  8
0
  6
SLD-Сплошная
 62
     7
370
    25
100
AcDbCircle
 10
297.9389967219
 20
41.5274076629
 30
0.0
 40
21.99999999999989
100
AcDbArc
 50
27.9163390054
 51
47.6088660557
  0
ARC
  5
293
330
1F
100
AcDbEntity
  8
0
  6
SLD-Сплошная
 62
     7
370
    25
100
AcDbCircle
 10
297.9389967219
 20
41.5274076629
 30
0.0
 40
21.99999999999989
100
AcDbArc
 50
312.3911339443
 51
332.0836609946
  0
LINE
  5
294
330
1F
100
AcDbEntity
  8
0
  6
SLD-Сплошная
 62
     7
370
    25
100
AcDbLine
 10
165.6011879516
 20
9.6774076629
 30
0.0
 11
170.9382222718
 21
9.6774076629
 31
0.0
  0
LINE
  5
295
330
1F
100
AcDbEntity
  8
0
  6
SLD-Сплошная
 62
     7
370
    25
100
AcDbLine
 10
148.7815556051
 20
9.6774076629
 30
0.0
 11
154.1185899254
 21
9.6774076629
 31
0.0
  0
SPLINE
  5
296
330
1F
100
AcDbEntity
  8
0
  6
SLD-Сплошная
 62
     7
370
    25
100
AcDbSpline
210
0.0
220
0.0
230
1.0
 70
     8
 71
     3
 72
    34
 73
    30
 74
     0
 42
0.00000001
 43
0.00000001
 40
0.0
 40
0.0
 40
0.0
 40
0.0
 40
0.0301292847090749
 40
0.0608171359949944
 40
0.0888477704490179
 40
0.1258445667466052
 40
0.1605799703244349
 40
0.1949934196129677
 40
0.2287440609060034
 40
0.2840957068378392
 40
0.3439578595091966
 40
0.4083903770934293
 40
0.4771361209863703
 40
0.5502844163766986
 40
0.6250031540555251
 40
0.6539571414972816
 40
0.6823620365590236
 40
0.7106368981852853
 40
0.7515686202090542
 40
0.7915053189028965
 40
0.8306725080360582
 40
0.868587894307391
 40
0.9019593002534143
 40
0.9301077451548754
 40
0.9422167398551294
 40
0.9550241572658594
 40
0.9721050187439911
 40
0.9910596911143834
 40
1.0
 40
1.0
 40
1.0
 40
1.0
 10
186.4917255595549
 20
13.34654280846502
 30
0.0
 10
187.1970960176178
 20
13.10483617134856
 30
0.0
 10
188.6209137912255
 20
12.61694189963432
 30
0.0
 10
190.9216388066193
 20
12.16572360078015
 30
0.0
 10
193.5140090249227
 20
11.81084226386
 30
0.0
 10
196.3394318422517
 20
11.58741455411404
 30
0.0
 10
199.4709679176259
 20
11.45559460463754
 30
0.0
 10
202.597333119921
 20
11.3907991273444
 30
0.0
 10
206.4113116542759
 20
11.36117982594863
 30
0.0
 10
211.0514526199257
 20
11.36260395365904
 30
0.0
 10
216.5368993055559
 20
11.485698426566
 30
0.0
 10
222.4533501376667
 20
11.79841772317567
 30
0.0
 10
228.7557611121732
 20
12.33342199867072
 30
0.0
 10
235.3531386490537
 20
13.12870450117218
 30
0.0
 10
240.7075510213419
 20
13.98393027135256
 30
0.0
 10
244.6893942828696
 20
14.7254901323589
 30
0.0
 10
247.2524822481148
 20
15.25714554459671
 30
0.0
 10
250.2089472925525
 20
15.85508919332628
 30
0.0
 10
253.5722704993618
 20
16.37379232047088
 30
0.0
 10
257.158805662965
 20
16.753598896052
 30
0.0
 10
260.4138921629985
 20
16.99499686687971
 30
0.0
 10
263.1394198424067
 20
17.20663234461437
 30
0.0
 10
265.3141332759551
 20
17.49767833481048
 30
0.0
 10
266.7748591478814
 20
17.85604708817817
 30
0.0
 10
267.7687729264231
 20
18.22610721707116
 30
0.0
 10
268.5685064476143
 20
18.60642662372743
 30
0.0
 10
269.4691834012438
 20
19.19991726194189
 30
0.0
 10
270.2014848531497
 20
19.86881022016072
 30
0.0
 10
270.5512660409826
 20
20.37967437753787
 30
0.0
 10
270.6633705028177
 20
20.54340574281915
 30
0.0
  0
SPLINE
  5
297
330
1F
100
AcDbEntity
  8
0
  6
SLD-Сплошная
 62
     7
370
    25
100
AcDbSpline
210
0.0
220
0.0
230
1.0
 70
     8
 71
     3
 72
    34
 73
    30
 74
     0
 42
0.00000001
 43
0.00000001
 40
0.0
 40
0.0
 40
0.0
 40
0.0
 40
0.0150374254825332
 40
0.0324439033067052
 40
0.0487296800982407
 40
0.0795814995206252
 40
0.1098113586823427
 40
0.1417698905578204
 40
0.1767823695649259
 40
0.2148459934880468
 40
0.2533902947448624
 40
0.2887007708892186
 40
0.3210837231128116
 40
0.3499098726687034
 40
0.3779357691838173
 40
0.4201822292085268
 40
0.4680865405292996
 40
0.521656091072987
 40
0.5809201619007183
 40
0.6435475205252983
 40
0.7029285934232492
 40
0.7437384687693187
 40
0.7822718284280804
 40
0.819162893126101
 40
0.8541705713856315
 40
0.8875009912401403
 40
0.9229397678223784
 40
0.9614942232884932
 40
0.9999999999999999
 40
0.9999999999999999
 40
0.9999999999999999
 40
0.9999999999999999
 10
270.6606458678858
 20
62.53302683602015
 30
0.0
 10
270.4600257735653
 20
62.79844159479813
 30
0.0
 10
270.0271791437302
 20
63.37108554771203
 30
0.0
 10
269.1898949569822
 20
64.06027969155289
 30
0.0
 10
268.0144215008336
 20
64.76261398509439
 30
0.0
 10
266.4793960396983
 20
65.31082832636922
 30
0.0
 10
264.5562387974794
 20
65.68337555370854
 30
0.0
 10
262.348464783974
 20
65.92141758613779
 30
0.0
 10
259.6492085250362
 20
66.12251105050518
 30
0.0
 10
256.5125866540502
 20
66.36166343779514
 30
0.0
 10
253.1585242328366
 20
66.7423584997834
 30
0.0
 10
249.8926809889142
 20
67.256695749857
 30
0.0
 10
246.9747057070551
 20
67.86055105400028
 30
0.0
 10
244.2993866634065
 20
68.40379484461445
 30
0.0
 10
241.3113226527644
 20
68.95448972121781
 30
0.0
 10
237.7392834242933
 20
69.54810730760133
 30
0.0
 10
233.3787977937839
 20
70.16763225065883
 30
0.0
 10
228.4860254280179
 20
70.7347665859236
 30
0.0
 10
223.1312443904283
 20
71.20361457942552
 30
0.0
 10
217.5822612616711
 20
71.52381676073722
 30
0.0
 10
212.6113274308532
 20
71.6696625788684
 30
0.0
 10
208.3296996998849
 20
71.69325700800067
 30
0.0
 10
204.7180370107194
 20
71.68396570398659
 30
0.0
 10
201.3268620407972
 20
71.64427672151004
 30
0.0
 10
198.1678603414285
 20
71.5525227858295
 30
0.0
 10
195.162205518595
 20
71.39019708844694
 30
0.0
 10
192.1785015577554
 20
71.08726986578057
 30
0.0
 10
189.1988169999065
 20
70.60468142246657
 30
0.0
 10
187.3838851694982
 20
70.00142586006818
 30
0.0
 10
186.4769924982274
 20
69.69998861637879
 30
0.0
  0
LINE
  5
298
330
1F
100
AcDbEntity
  8
0
  6
SLD-Сплошная
 62
     7
370
    25
100
AcDbLine
 10
188.3946213195
 20
70.2774076629
 30
0.0
 11
186.4915556051
 21
70.2774076629
 31
0.0
  0
LINE
  5
299
330
1F
100
AcDbEntity
  8
0
  6
SLD-Сплошная
 62
     7
370
    25
100
AcDbLine
 10
186.4915556051
 20
12.7774076629
 30
0.0
 11
188.2907382572
 21
12.7774076629
 31
0.0
  0
LINE
  5
29A
330
1F
100
AcDbEntity
  8
0
  6
SLD-Сплошная
 62
     7
370
    25
100
AcDbLine
 10
312.7711351321
 20
57.7757205039
 30
0.0
 11
312.7347214135
 21
58.9469243249
 31
0.0
  0
LINE
  5
29B
330
1F
100
AcDbEntity
  8
0
  6
SLD-Сплошная
 62
     7
370
    25
100
AcDbLine
 10
312.7347214135
 20
24.1078910009
 30
0.0
 11
312.7711351321
 21
25.2790948219
 31
0.0
  0
ARC
  5
29C
330
1F
100
AcDbEntity
  8
0
  6
SLD-Сплошная
 62
     7
370
    25
100
AcDbCircle
 10
308.8958684339
 20
24.7957920121
 30
0.0
 40
3.900000000000066
100
AcDbArc
 50
303.1931986079
 51
349.840740668
  0
ARC
  5
29D
330
1F
100
AcDbEntity
  8
0
  6
SLD-Сплошная
 62
     7
370
    25
100
AcDbCircle
 10
308.8958684339
 20
58.2590233137
 30
0.0
 40
3.900000000000067
100
AcDbArc
 50
10.159259332
 51
56.7523103784
  0
SPLINE
  5
29E
330
1F
100
AcDbEntity
  8
0
  6
SLD-Сплошная
 62
     7
370
    25
100
AcDbSpline
210
0.0
220
0.0
230
1.0
 70
     8
 71
     3
 72
    14
 73
    10
 74
     0
 42
0.00000001
 43
0.00000001
 40
0.0
 40
0.0
 40
0.0
 40
0.0
 40
0.2590389089760477
 40
0.3872144952269509
 40
0.5177568502771382
 40
0.6443105763397774
 40
0.766866568918171
 40
0.8854229200212084
 40
1.0
 40
1.0
 40
1.0
 40
1.0
 10
290.9915556051471
 20
17.62740766288492
 30
0.0
 10
292.7870612891943
 20
17.6329945457955
 30
0.0
 10
295.4710049093774
 20
17.64134588596545
 30
0.0
 10
299.0625983214185
 20
17.6024357319382
 30
0.0
 10
301.7259873295752
 20
17.87916388049771
 30
0.0
 10
304.3029296676773
 20
18.44062536809246
 30
0.0
 10
306.7219794404444
 20
19.25615814311437
 30
0.0
 10
308.9766335119136
 20
20.27062590731211
 30
0.0
 10
310.3550258778763
 20
21.11710938376903
 30
0.0
 10
311.0324584177922
 20
21.53312696019585
 30
0.0
  0
SPLINE
  5
29F
330
1F
100
AcDbEntity
  8
0
  6
SLD-Сплошная
 62
     7
370
    25
100
AcDbSpline
210
0.0
220
0.0
230
1.0
 70
     8
 71
     3
 72
    14
 73
    10
 74
     0
 42
0.00000001
 43
0.00000001
 40
0.0
 40
0.0
 40
0.0
 40
0.0
 40
0.1179373309070334
 40
0.2572473724705145
 40
0.417935156352954
 40
0.5525139979457743
 40
0.6966137432249656
 40
0.8427082361514757
 40
1.0
 40
1.0
 40
1.0
 40
1.0
 10
311.0324584177922
 20
61.52168836557433
 30
0.0
 10
310.3347231222828
 20
61.94901693766075
 30
0.0
 10
308.8128083047326
 20
62.88111495535681
 30
0.0
 10
306.1472529495286
 20
64.04219872057553
 30
0.0
 10
303.2503521349464
 20
64.89516783932073
 30
0.0
 10
300.2347538542407
 20
65.38622754529676
 30
0.0
 10
297.2858106229405
 20
65.43885132594669
 30
0.0
 10
294.1851614704388
 20
65.42427187273528
 30
0.0
 10
292.0819655598239
 20
65.42633699325968
 30
0.0
 10
290.9915556051471
 20
65.42740766288492
 30
0.0
  0
LINE
  5
2A0
330
1F
100
AcDbEntity
  8
0
  6
SLD-Сплошная
 62
     7
370
    25
100
AcDbLine
 10
154.1185899254
 20
9.4774076629
 30
0.0
 11
157.2502006754
 21
9.4774076629
 31
0.0
  0
LINE
  5
2A1
330
1F
100
AcDbEntity
  8
0
  6
SLD-Сплошная
 62
     7
370
    25
100
AcDbLine
 10
162.4695772016
 20
9.4774076629
 30
0.0
 11
165.6011879516
 21
9.4774076629
 31
0.0
  0
LINE
  5
2A2
330
1F
100
AcDbEntity
  8
0
  6
SLD-Сплошная
 62
     7
370
    25
100
AcDbLine
 10
158.2940835635
 20
9.4774076629
 30
0.0
 11
161.4256943135
 21
9.4774076629
 31
0.0
  0
ARC
  5
2A3
330
1F
100
AcDbEntity
  8
0
  6
SLD-Сплошная
 62
     7
370
    25
100
AcDbCircle
 10
245.2023041517
 20
64.3556312186
 30
0.0
 40
3.900000000000006
100
AcDbArc
 50
68.6266636745
 51
90.0
  0
LINE
  5
2A4
330
1F
100
AcDbEntity
  8
0
  6
SLD-Сплошная
 62
     7
370
    25
100
AcDbLine
 10
154.853035378
 20
34.5274076629
 30
0.0
 11
155.8953851273
 21
34.5274076629
 31
0.0
  0
LINE
  5
2A5
330
1F
100
AcDbEntity
  8
0
  6
SLD-Сплошная
 62
     7
370
    25
100
AcDbLine
 10
154.853035378
 20
34.5274076629
 30
0.0
 11
154.853035378
 21
48.5274076629
 31
0.0
  0
LINE
  5
2A6
330
1F
100
AcDbEntity
  8
0
  6
SLD-Сплошная
 62
     7
370
    25
100
AcDbLine
 10
155.8953851273
 20
48.5274076629
 30
0.0
 11
154.853035378
 21
48.5274076629
 31
0.0
  0
LINE
  5
2A7
330
1F
100
AcDbEntity
  8
0
  6
SLD-Сплошная
 62
     7
370
    25
100
AcDbLine
 10
150.7127935275
 20
34.5274076629
 30
0.0
 11
154.853035378
 21
34.5274076629
 31
0.0
  0
LINE
  5
2A8
330
1F
100
AcDbEntity
  8
0
  6
SLD-Сплошная
 62
     7
370
    25
100
AcDbLine
 10
150.7127935275
 20
36.5274076629
 30
0.0
 11
150.7127935275
 21
34.5274076629
 31
0.0
  0
LINE
  5
2A9
330
1F
100
AcDbEntity
  8
0
  6
SLD-Сплошная
 62
     7
370
    25
100
AcDbLine
 10
150.844488855
 20
36.5274076629
 30
0.0
 11
150.844488855
 21
46.5274076629
 31
0.0
  0
LINE
  5
2AA
330
1F
100
AcDbEntity
  8
0
  6
SLD-Сплошная
 62
     7
370
    25
100
AcDbLine
 10
150.7127935275
 20
46.5274076629
 30
0.0
 11
150.7127935275
 21
48.5274076629
 31
0.0
  0
LINE
  5
2AB
330
1F
100
AcDbEntity
  8
0
  6
SLD-Сплошная
 62
     7
370
    25
100
AcDbLine
 10
150.7127935275
 20
48.5274076629
 30
0.0
 11
154.853035378
 21
48.5274076629
 31
0.0
  0
LINE
  5
2AC
330
1F
100
AcDbEntity
  8
0
  6
SLD-Сплошная
 62
     7
370
    25
100
AcDbLine
 10
155.8953851273
 20
34.5274076629
 30
0.0
 11
156.0846234163
 21
34.5274076629
 31
0.0
  0
LINE
  5
2AD
330
1F
100
AcDbEntity
  8
0
  6
SLD-Сплошная
 62
     7
370
    25
100
AcDbLine
 10
155.8953851273
 20
48.5274076629
 30
0.0
 11
156.0846234163
 21
48.5274076629
 31
0.0
  0
LINE
  5
2AE
330
1F
100
AcDbEntity
  8
0
  6
SLD-Сплошная
 62
     7
370
    25
100
AcDbLine
 10
150.335201277
 20
46.5274076629
 30
0.0
 11
150.844488855
 21
46.5274076629
 31
0.0
  0
LINE
  5
2AF
330
1F
100
AcDbEntity
  8
0
  6
SLD-Сплошная
 62
     7
370
    25
100
AcDbLine
 10
150.335201277
 20
36.5274076629
 30
0.0
 11
150.844488855
 21
36.5274076629
 31
0.0
  0
LINE
  5
2B0
330
1F
100
AcDbEntity
  8
0
  6
SLD-Сплошная
 62
     7
370
    25
100
AcDbLine
 10
143.077951081
 20
54.0274076629
 30
0.0
 11
143.077951081
 21
51.5274076629
 31
0.0
  0
LINE
  5
2B1
330
1F
100
AcDbEntity
  8
0
  6
SLD-Сплошная
 62
     7
370
    25
100
AcDbLine
 10
143.077951081
 20
54.0274076629
 30
0.0
 11
146.5680191206
 21
54.0274076629
 31
0.0
  0
LINE
  5
2B2
330
1F
100
AcDbEntity
  8
0
  6
SLD-Сплошная
 62
     7
370
    25
100
AcDbLine
 10
146.5680191206
 20
54.0274076629
 30
0.0
 11
146.5680191206
 21
51.5274076629
 31
0.0
  0
LINE
  5
2B3
330
1F
100
AcDbEntity
  8
0
  6
SLD-Сплошная
 62
     7
370
    25
100
AcDbLine
 10
143.077951081
 20
51.5274076629
 30
0.0
 11
146.5680191206
 21
51.5274076629
 31
0.0
  0
LINE
  5
2B4
330
1F
100
AcDbEntity
  8
0
  6
SLD-Сплошная
 62
     7
370
    25
100
AcDbLine
 10
146.5680191206
 20
54.0274076629
 30
0.0
 11
150.1680191206
 21
54.0274076629
 31
0.0
  0
LINE
  5
2B5
330
1F
100
AcDbEntity
  8
0
  6
SLD-Сплошная
 62
     7
370
    25
100
AcDbLine
 10
150.1680191206
 20
54.0274076629
 30
0.0
 11
150.1680191206
 21
51.5274076629
 31
0.0
  0
LINE
  5
2B6
330
1F
100
AcDbEntity
  8
0
  6
SLD-Сплошная
 62
     7
370
    25
100
AcDbLine
 10
150.1680191206
 20
51.5274076629
 30
0.0
 11
154.4479099333
 21
51.5274076629
 31
0.0
  0
LINE
  5
2B7
330
1F
100
AcDbEntity
  8
0
  6
SLD-Сплошная
 62
     7
370
    25
100
AcDbLine
 10
154.4479099333
 20
48.5274076629
 30
0.0
 11
154.4479099333
 21
51.5274076629
 31
0.0
  0
ELLIPSE
  5
2B8
330
1F
100
AcDbEntity
  8
0
  6
SLD-Сплошная
 62
     7
370
    25
100
AcDbEllipse
 10
146.5680191206
 20
49.0274076629
 30
0.0
 11
4.493821770427928
 21
0.0
 31
0.0
210
0.0
220
0.0
230
1.0
 40
0.5563193486
 41
1.570796326794897
 42
4.712388980393033
  0
LINE
  5
2B9
330
1F
100
AcDbEntity
  8
0
  6
SLD-Сплошная
 62
     7
370
    25
100
AcDbLine
 10
150.335201277
 20
46.5274076629
 30
0.0
 11
146.5680191207
 21
46.5274076629
 31
0.0
  0
LINE
  5
2BA
330
1F
100
AcDbEntity
  8
0
  6
SLD-Сплошная
 62
     7
370
    25
100
AcDbLine
 10
125.9280099714
 20
51.5274076629
 30
0.0
 11
143.077951081
 21
51.5274076629
 31
0.0
  0
LINE
  5
2BB
330
1F
100
AcDbEntity
  8
0
  6
SLD-Сплошная
 62
     7
370
    25
100
AcDbLine
 10
125.9280099714
 20
46.5274076629
 30
0.0
 11
146.5680191207
 21
46.5274076629
 31
0.0
  0
LINE
  5
2BC
330
1F
100
AcDbEntity
  8
0
  6
SLD-Сплошная
 62
     7
370
    25
100
AcDbLine
 10
154.4479099333
 20
31.5274076629
 30
0.0
 11
154.4479099333
 21
34.5274076629
 31
0.0
  0
LINE
  5
2BD
330
1F
100
AcDbEntity
  8
0
  6
SLD-Сплошная
 62
     7
370
    25
100
AcDbLine
 10
154.4479099333
 20
31.5274076629
 30
0.0
 11
158.5915556051
 21
31.5274076629
 31
0.0
  0
LINE
  5
2BE
330
1F
100
AcDbEntity
  8
0
  6
SLD-Сплошная
 62
     7
370
    25
100
AcDbLine
 10
158.5915556051
 20
51.5274076629
 30
0.0
 11
154.4479099333
 21
51.5274076629
 31
0.0
  0
LINE
  5
2BF
330
1F
100
AcDbEntity
  8
0
  6
SLD-Сплошная
 62
     7
370
    25
100
AcDbLine
 10
154.4479099333
 20
31.5274076629
 30
0.0
 11
146.5680191206
 21
31.5274076629
 31
0.0
  0
ELLIPSE
  5
2C0
330
1F
100
AcDbEntity
  8
0
  6
SLD-Сплошная
 62
     7
370
    25
100
AcDbEllipse
 10
146.5680191206
 20
34.0274076629
 30
0.0
 11
4.493821770427928
 21
0.0
 31
0.0
210
0.0
220
0.0
230
1.0
 40
0.5563193486
 41
1.570796326786561
 42
4.712388980384698
  0
LINE
  5
2C1
330
1F
100
AcDbEntity
  8
0
  6
SLD-Сплошная
 62
     7
370
    25
100
AcDbLine
 10
150.335201277
 20
36.5274076629
 30
0.0
 11
146.5680191207
 21
36.5274076629
 31
0.0
  0
LINE
  5
2C2
330
1F
100
AcDbEntity
  8
0
  6
SLD-Сплошная
 62
     7
370
    25
100
AcDbLine
 10
125.9280099714
 20
31.5274076629
 30
0.0
 11
146.5680191206
 21
31.5274076629
 31
0.0
  0
LINE
  5
2C3
330
1F
100
AcDbEntity
  8
0
  6
SLD-Сплошная
 62
     7
370
    25
100
AcDbLine
 10
125.9280099714
 20
36.5274076629
 30
0.0
 11
146.5680191207
 21
36.5274076629
 31
0.0
  0
LINE
  5
2C4
330
1F
100
AcDbEntity
  8
0
  6
SLD-Сплошная
 62
     7
370
    25
100
AcDbLine
 10
127.3555617333
 20
46.5274076629
 30
0.0
 11
127.3555617333
 21
36.5274076629
 31
0.0
  0
ARC
  5
2C5
330
1F
100
AcDbEntity
  8
0
  6
SLD-Сплошная
 62
     7
370
    25
100
AcDbCircle
 10
125.9280099714
 20
49.0274076629
 30
0.0
 40
2.499999999999993
100
AcDbArc
 50
90.0
 51
270.0
  0
ARC
  5
2C6
330
1F
100
AcDbEntity
  8
0
  6
SLD-Сплошная
 62
     7
370
    25
100
AcDbCircle
 10
125.9280099714
 20
34.0274076629
 30
0.0
 40
2.500000000000096
100
AcDbArc
 50
90.0
 51
270.0
  0
LINE
  5
2C7
330
1F
100
AcDbEntity
  8
0
  6
SLD-Сплошная
 62
     7
370
    25
100
AcDbLine
 10
127.3555617333
 20
51.5274076629
 30
0.0
 11
127.3555617333
 21
73.5774076629
 31
0.0
  0
LINE
  5
2C8
330
1F
100
AcDbEntity
  8
0
  6
SLD-Сплошная
 62
     7
370
    25
100
AcDbLine
 10
127.3555617333
 20
9.4774076629
 30
0.0
 11
127.3555617333
 21
31.5274076629
 31
0.0
  0
LINE
  5
2C9
330
1F
100
AcDbEntity
  8
0
  6
SLD-Сплошная
 62
     7
370
    25
100
AcDbLine
 10
133.8915556051
 20
51.5274076629
 30
0.0
 11
133.8915556051
 21
73.5774076629
 31
0.0
  0
LINE
  5
2CA
330
1F
100
AcDbEntity
  8
0
  6
SLD-Сплошная
 62
     7
370
    25
100
AcDbLine
 10
133.8915556051
 20
9.4774076629
 30
0.0
 11
133.8915556051
 21
31.5274076629
 31
0.0
  0
LINE
  5
2CB
330
1F
100
AcDbEntity
  8
0
  6
SLD-Сплошная
 62
     7
370
    25
100
AcDbLine
 10
155.0197622515
 20
51.8274076629
 30
0.0
 11
150.1680191206
 21
51.8274076629
 31
0.0
  0
LINE
  5
2CC
330
1F
100
AcDbEntity
  8
0
  6
SLD-Сплошная
 62
     7
370
    25
100
AcDbLine
 10
147.6915556051
 20
54.0274076629
 30
0.0
 11
147.6915556051
 21
55.8274076629
 31
0.0
  0
LINE
  5
2CD
330
1F
100
AcDbEntity
  8
0
  6
SLD-Сплошная
 62
     7
370
    25
100
AcDbLine
 10
155.0197622515
 20
55.8274076629
 30
0.0
 11
147.6915556051
 21
55.8274076629
 31
0.0
  0
LINE
  5
2CE
330
1F
100
AcDbEntity
  8
0
  6
SLD-Сплошная
 62
     7
370
    25
100
AcDbLine
 10
155.0197622515
 20
27.2274076629
 30
0.0
 11
147.6915556051
 21
27.2274076629
 31
0.0
  0
LINE
  5
2CF
330
1F
100
AcDbEntity
  8
0
  6
SLD-Сплошная
 62
     7
370
    25
100
AcDbLine
 10
147.6915556051
 20
31.2274076629
 30
0.0
 11
147.6915556051
 21
27.2274076629
 31
0.0
  0
LINE
  5
2D0
330
1F
100
AcDbEntity
  8
0
  6
SLD-Сплошная
 62
     7
370
    25
100
AcDbLine
 10
147.6915556051
 20
31.2274076629
 30
0.0
 11
155.0197622515
 21
31.2274076629
 31
0.0
  0
LINE
  5
2D1
330
1F
100
AcDbEntity
  8
0
  6
SLD-Сплошная
 62
     7
370
    25
100
AcDbLine
 10
166.874999539
 20
51.8274076629
 30
0.0
 11
166.874999539
 21
31.2274076629
 31
0.0
  0
ELLIPSE
  5
2D2
330
1F
100
AcDbEntity
  8
0
  6
SLD-Сплошная
 62
     7
370
    25
100
AcDbEllipse
 10
227.141129701
 20
41.5274076629
 30
0.0
 11
47.5160790408332
 21
1.421085471520200E-14
 31
0.0
210
0.0
220
0.0
230
1.0
 40
0.6745085168
 41
2.679102711698749
 42
3.604082595480862
  0
LINE
  5
2D3
330
1F
100
AcDbEntity
  8
0
  6
SLD-Сплошная
 62
     7
370
    25
100
AcDbLine
 10
184.6168848446
 20
27.2274076629
 30
0.0
 11
155.0197622515
 21
27.2274076629
 31
0.0
  0
LINE
  5
2D4
330
1F
100
AcDbEntity
  8
0
  6
SLD-Сплошная
 62
     7
370
    25
100
AcDbLine
 10
155.0197622515
 20
31.2274076629
 30
0.0
 11
166.874999539
 21
31.2274076629
 31
0.0
  0
LINE
  5
2D5
330
1F
100
AcDbEntity
  8
0
  6
SLD-Сплошная
 62
     7
370
    25
100
AcDbLine
 10
166.874999539
 20
51.8274076629
 30
0.0
 11
155.0197622515
 21
51.8274076629
 31
0.0
  0
LINE
  5
2D6
330
1F
100
AcDbEntity
  8
0
  6
SLD-Сплошная
 62
     7
370
    25
100
AcDbLine
 10
184.6168848446
 20
55.8274076629
 30
0.0
 11
155.0197622515
 21
55.8274076629
 31
0.0
  0
LINE
  5
2D7
330
1F
100
AcDbEntity
  8
0
  6
SLD-Сплошная
 62
     7
370
    25
100
AcDbLine
 10
165.7566137321
 20
51.8274076629
 30
0.0
 11
165.7566137321
 21
31.2274076629
 31
0.0
  0
LINE
  5
2D8
330
1F
100
AcDbEntity
  8
0
  6
SLD-Сплошная
 62
     7
370
    25
100
AcDbLine
 10
186.4915556051
 20
73.5774076629
 30
0.0
 11
186.4915556051
 21
9.4774076629
 31
0.0
  0
LINE
  5
2D9
330
1F
100
AcDbEntity
  8
0
  6
SLD-Сплошная
 62
     7
370
    25
100
AcDbLine
 10
148.7815556051
 20
14.9032510263
 30
0.0
 11
148.7815556051
 21
9.4774076629
 31
0.0
  0
LINE
  5
2DA
330
1F
100
AcDbEntity
  8
0
  6
SLD-Сплошная
 62
     7
370
    25
100
AcDbLine
 10
170.9382222718
 20
14.9032510263
 30
0.0
 11
170.9382222718
 21
9.4774076629
 31
0.0
  0
LINE
  5
2DB
330
1F
100
AcDbEntity
  8
0
  6
SLD-Сплошная
 62
     7
370
    25
100
AcDbLine
 10
170.9382222718
 20
14.9032510263
 30
0.0
 11
148.7815556051
 21
14.9032510263
 31
0.0
  0
LINE
  5
2DC
330
1F
100
AcDbEntity
  8
0
  6
SLD-Сплошная
 62
     7
370
    25
100
AcDbLine
 10
280.9915556051
 20
71.4749515448
 30
0.0
 11
282.9915556051
 21
71.4749515448
 31
0.0
  0
LINE
  5
2DD
330
1F
100
AcDbEntity
  8
0
  6
SLD-Сплошная
 62
     7
370
    25
100
AcDbLine
 10
282.9915556051
 20
68.4774076629
 30
0.0
 11
282.9915556051
 21
71.4749515448
 31
0.0
  0
LINE
  5
2DE
330
1F
100
AcDbEntity
  8
0
  6
SLD-Сплошная
 62
     7
370
    25
100
AcDbLine
 10
282.9915556051
 20
66.3123441534
 30
0.0
 11
282.9915556051
 21
68.4774076629
 31
0.0
  0
LINE
  5
2DF
330
1F
100
AcDbEntity
  8
0
  6
SLD-Сплошная
 62
     7
370
    25
100
AcDbLine
 10
282.9915556051
 20
43.6924711723
 30
0.0
 11
282.9915556051
 21
66.3123441534
 31
0.0
  0
LINE
  5
2E0
330
1F
100
AcDbEntity
  8
0
  6
SLD-Сплошная
 62
     7
370
    25
100
AcDbLine
 10
282.9915556051
 20
39.3623441534
 30
0.0
 11
282.9915556051
 21
43.6924711723
 31
0.0
  0
LINE
  5
2E1
330
1F
100
AcDbEntity
  8
0
  6
SLD-Сплошная
 62
     7
370
    25
100
AcDbLine
 10
282.9915556051
 20
16.7424711723
 30
0.0
 11
282.9915556051
 21
39.3623441534
 31
0.0
  0
LINE
  5
2E2
330
1F
100
AcDbEntity
  8
0
  6
SLD-Сплошная
 62
     7
370
    25
100
AcDbLine
 10
282.9915556051
 20
14.5774076629
 30
0.0
 11
282.9915556051
 21
16.7424711723
 31
0.0
  0
LINE
  5
2E3
330
1F
100
AcDbEntity
  8
0
  6
SLD-Сплошная
 62
     7
370
    25
100
AcDbLine
 10
282.9915556051
 20
11.579863781
 30
0.0
 11
282.9915556051
 21
14.5774076629
 31
0.0
  0
LINE
  5
2E4
330
1F
100
AcDbEntity
  8
0
  6
SLD-Сплошная
 62
     7
370
    25
100
AcDbLine
 10
280.9915556051
 20
11.579863781
 30
0.0
 11
282.9915556051
 21
11.579863781
 31
0.0
  0
LINE
  5
2E5
330
1F
100
AcDbEntity
  8
0
  6
SLD-Сплошная
 62
     7
370
    25
100
AcDbLine
 10
280.9915556051
 20
11.579863781
 30
0.0
 11
280.9915556051
 21
71.4749515448
 31
0.0
  0
LINE
  5
2E6
330
1F
100
AcDbEntity
  8
0
  6
SLD-Сплошная
 62
     7
370
    25
100
AcDbLine
 10
290.9915556051
 20
66.3123441534
 30
0.0
 11
282.9915556051
 21
66.3123441534
 31
0.0
  0
LINE
  5
2E7
330
1F
100
AcDbEntity
  8
0
  6
SLD-Сплошная
 62
     7
370
    25
100
AcDbLine
 10
282.9915556051
 20
43.6924711723
 30
0.0
 11
290.9915556051
 21
43.6924711723
 31
0.0
  0
LINE
  5
2E8
330
1F
100
AcDbEntity
  8
0
  6
SLD-Сплошная
 62
     7
370
    25
100
AcDbLine
 10
290.9915556051
 20
43.6924711723
 30
0.0
 11
290.9915556051
 21
66.3123441534
 31
0.0
  0
LINE
  5
2E9
330
1F
100
AcDbEntity
  8
0
  6
SLD-Сплошная
 62
     7
370
    25
100
AcDbLine
 10
290.9915556051
 20
39.3623441534
 30
0.0
 11
282.9915556051
 21
39.3623441534
 31
0.0
  0
LINE
  5
2EA
330
1F
100
AcDbEntity
  8
0
  6
SLD-Сплошная
 62
     7
370
    25
100
AcDbLine
 10
290.9915556051
 20
43.6924711723
 30
0.0
 11
290.9915556051
 21
39.3623441534
 31
0.0
  0
LINE
  5
2EB
330
1F
100
AcDbEntity
  8
0
  6
SLD-Сплошная
 62
     7
370
    25
100
AcDbLine
 10
282.9915556051
 20
16.7424711723
 30
0.0
 11
290.9915556051
 21
16.7424711723
 31
0.0
  0
LINE
  5
2EC
330
1F
100
AcDbEntity
  8
0
  6
SLD-Сплошная
 62
     7
370
    25
100
AcDbLine
 10
290.9915556051
 20
39.3623441534
 30
0.0
 11
290.9915556051
 21
16.7424711723
 31
0.0
  0
SPLINE
  5
2ED
330
1F
100
AcDbEntity
  8
0
  6
SLD-Сплошная
 62
     7
370
    25
100
AcDbSpline
210
0.0
220
0.0
230
1.0
 70
     8
 71
     3
 72
    21
 73
    17
 74
     0
 42
0.00000001
 43
0.00000001
 40
0.0
 40
0.0
 40
0.0
 40
0.0
 40
0.1169996676283102
 40
0.2340007830652424
 40
0.3512093751994727
 40
0.4505112713571611
 40
0.5499735149265674
 40
0.6062991013664495
 40
0.6641198002287634
 40
0.7205316068840499
 40
0.778736828552148
 40
0.8328304946685544
 40
0.8884595529953695
 40
0.9428717004633804
 40
0.9989623890171156
 40
1.0
 40
1.0
 40
1.0
 40
1.0
 10
211.4915556051471
 20
13.53033547606597
 30
0.0
 10
213.9450634015895
 20
13.65413044172508
 30
0.0
 10
218.8521093553275
 20
13.90172190494015
 30
0.0
 10
226.1923866892477
 20
14.65400918119851
 30
0.0
 10
233.1263674533836
 20
15.65038325190632
 30
0.0
 10
239.6628275580802
 20
16.85874176202001
 30
0.0
 10
244.8652644352195
 20
18.09294647105001
 30
0.0
 10
249.2647818132534
 20
19.16909343944735
 30
0.0
 10
252.8661345058104
 20
19.73862441748694
 30
0.0
 10
256.4456605292515
 20
20.05435937098698
 30
0.0
 10
259.7856253827675
 20
20.11395188431637
 30
0.0
 10
262.8310954290994
 20
20.01966596764856
 30
0.0
 10
265.474308094774
 20
19.8732963275412
 30
0.0
 10
267.6518626903921
 20
19.86131438660657
 30
0.0
 10
268.9465176342416
 20
19.90672614329887
 30
0.0
 10
269.3703902599612
 20
20.09779200910646
 30
0.0
 10
269.3780889818794
 20
20.10126230390648
 30
0.0
  0
SPLINE
  5
2EE
330
1F
100
AcDbEntity
  8
0
  6
SLD-Сплошная
 62
     7
370
    25
100
AcDbSpline
210
0.0
220
0.0
230
1.0
 70
     8
 71
     3
 72
    20
 73
    16
 74
     0
 42
0.00000001
 43
0.00000001
 40
0.0
 40
0.0
 40
0.0
 40
0.0
 40
0.0273253047269245
 40
0.076380928034135
 40
0.1266469579513952
 40
0.1796470753609789
 40
0.2340900435769496
 40
0.2887038259976347
 40
0.3449333911108354
 40
0.3989775570224619
 40
0.4544648244525055
 40
0.5899160819251311
 40
0.6920838967721399
 40
0.7944040143866173
 40
1.0
 40
1.0
 40
1.0
 40
1.0
 10
269.3067034791673
 20
62.91892378927308
 30
0.0
 10
269.0749126244602
 20
62.98892537570408
 30
0.0
 10
268.4270003406166
 20
63.18459697713335
 30
0.0
 10
266.8825372914407
 20
63.20818137599647
 30
0.0
 10
264.7304112654147
 20
63.13902130855474
 30
0.0
 10
262.1042365603928
 20
63.00429320857788
 30
0.0
 10
259.0953618234772
 20
62.93845245442743
 30
0.0
 10
255.7862639139481
 20
63.04137530636425
 30
0.0
 10
252.349182559706
 20
63.38638969522896
 30
0.0
 10
248.8546128228787
 20
63.97226288258595
 30
0.0
 10
243.8304184964563
 20
65.23302041598915
 30
0.0
 10
237.8357593480397
 20
66.58015806319962
 30
0.0
 10
230.7901954762682
 20
67.76265279116794
 30
0.0
 10
222.2545207505028
 20
68.89874503523302
 30
0.0
 10
215.8007480764971
 20
69.27395299997777
 30
0.0
 10
211.4915556051471
 20
69.52447984970412
 30
0.0
  0
LINE
  5
2EF
330
1F
100
AcDbEntity
  8
0
  6
SLD-Сплошная
 62
     7
370
    25
100
AcDbLine
 10
271.4915556051
 20
62.4042699873
 30
0.0
 11
271.4915556051
 21
20.6505453385
 31
0.0
  0
SPLINE
  5
2F0
330
1F
100
AcDbEntity
  8
0
  6
SLD-Сплошная
 62
     7
370
    25
100
AcDbSpline
210
0.0
220
0.0
230
1.0
 70
     8
 71
     3
 72
    24
 73
    20
 74
     0
 42
0.00000001
 43
0.00000001
 40
0.0
 40
0.0
 40
0.0
 40
0.0
 40
0.0624999999999999
 40
0.0624999999999999
 40
0.1249999999999998
 40
0.1249999999999998
 40
0.2499999999999996
 40
0.2499999999999996
 40
0.3749999999999993
 40
0.3749999999999993
 40
0.4999999999999993
 40
0.4999999999999993
 40
0.6249999999999993
 40
0.6249999999999993
 40
0.6874999999999993
 40
0.6874999999999993
 40
0.7499999999999993
 40
0.7499999999999993
 40
1.0
 40
1.0
 40
1.0
 40
1.0
 10
211.4915556051471
 20
69.52447984970412
 30
0.0
 10
210.9981420548986
 20
69.54363522789092
 30
0.0
 10
210.5046095197665
 20
69.55953567751952
 30
0.0
 10
209.517217049933
 20
69.58333081812225
 30
0.0
 10
209.0233716595216
 20
69.59157957037515
 30
0.0
 10
207.5413903916837
 20
69.60598918538834
 30
0.0
 10
206.552808443515
 20
69.60194403239139
 30
0.0
 10
204.5744588400999
 20
69.56588364564992
 30
0.0
 10
203.5786873701663
 20
69.53311148046687
 30
0.0
 10
201.6350374247311
 20
69.43530391954685
 30
0.0
 10
200.6826679848189
 20
69.37057402463752
 30
0.0
 10
198.8177688559843
 20
69.19904476601498
 30
0.0
 10
197.9053194788364
 20
69.09218323583335
 30
0.0
 10
196.5668121448402
 20
68.88930427737469
 30
0.0
 10
196.127364410869
 20
68.81468228370939
 30
0.0
 10
195.2717584520879
 20
68.65144315848823
 30
0.0
 10
194.8540871869308
 20
68.56260472527347
 30
0.0
 10
192.8155774661412
 20
68.0778735769343
 30
0.0
 10
191.3422616974279
 20
67.56376434728512
 30
0.0
 10
190.0312577686356
 20
66.84335977840416
 30
0.0
  0
SPLINE
  5
2F1
330
1F
100
AcDbEntity
  8
0
  6
SLD-Сплошная
 62
     7
370
    25
100
AcDbSpline
210
0.0
220
0.0
230
1.0
 70
     8
 71
     3
 72
    26
 73
    22
 74
     0
 42
0.00000001
 43
0.00000001
 40
0.0
 40
0.0
 40
0.0
 40
0.0
 40
0.2499999999999998
 40
0.2499999999999998
 40
0.3124999999999998
 40
0.3124999999999998
 40
0.3749999999999998
 40
0.3749999999999998
 40
0.4999999999999996
 40
0.4999999999999996
 40
0.5624999999999997
 40
0.5624999999999997
 40
0.6249999999999996
 40
0.6249999999999996
 40
0.7499999999999996
 40
0.7499999999999996
 40
0.8749999999999997
 40
0.8749999999999997
 40
0.9374999999999998
 40
0.9374999999999998
 40
1.0
 40
1.0
 40
1.0
 40
1.0
 10
190.0312577686356
 20
16.21145554736587
 30
0.0
 10
191.3385430398466
 20
15.49309440326254
 30
0.0
 10
192.8136989357205
 20
14.97673140803982
 30
0.0
 10
194.8664871552292
 20
14.48942870100558
 30
0.0
 10
195.2889783859486
 20
14.3998163236723
 30
0.0
 10
196.1487747602675
 20
14.23633114094088
 30
0.0
 10
196.5848735035314
 20
14.16261036514947
 30
0.0
 10
197.9114027378823
 20
13.96204416549789
 30
0.0
 10
198.819846135183
 20
13.85553446800521
 30
0.0
 10
200.2194642018508
 20
13.72686836324959
 30
0.0
 10
200.692197527056
 20
13.68921215291968
 30
0.0
 10
201.6498361330341
 20
13.62290425687311
 30
0.0
 10
202.1361685377921
 20
13.59420201904306
 30
0.0
 10
203.5956292518366
 20
13.52103918449006
 30
0.0
 10
204.5733074577962
 20
13.48902849935887
 30
0.0
 10
206.5381267347644
 20
13.45306368055137
 30
0.0
 10
207.5251561172339
 20
13.44878550973761
 30
0.0
 10
209.0128748006275
 20
13.46307617609011
 30
0.0
 10
209.5110027843464
 20
13.47135070365744
 30
0.0
 10
210.5044455716388
 20
13.49525984596708
 30
0.0
 10
210.9988307604976
 20
13.51120683491584
 30
0.0
 10
211.4915556051471
 20
13.53033547606592
 30
0.0
  0
SPLINE
  5
2F2
330
1F
100
AcDbEntity
  8
0
  6
SLD-Сплошная
 62
     7
370
    25
100
AcDbSpline
210
0.0
220
0.0
230
1.0
 70
     8
 71
     3
 72
     8
 73
     4
 74
     0
 42
0.00000001
 43
0.00000001
 40
0.0
 40
0.0
 40
0.0
 40
0.0
 40
1.0
 40
1.0
 40
1.0
 40
1.0
 10
186.4915556051471
 20
18.48790223154952
 30
0.0
 10
187.6694006805723
 20
17.6385023862146
 30
0.0
 10
188.8309224537721
 20
16.87292046892227
 30
0.0
 10
190.0324999666385
 20
16.21201793370485
 30
0.0
  0
SPLINE
  5
2F3
330
1F
100
AcDbEntity
  8
0
  6
SLD-Сплошная
 62
     7
370
    25
100
AcDbSpline
210
0.0
220
0.0
230
1.0
 70
     8
 71
     3
 72
     8
 73
     4
 74
     0
 42
0.00000001
 43
0.00000001
 40
0.0
 40
0.0
 40
0.0
 40
0.0
 40
1.0
 40
1.0
 40
1.0
 40
1.0
 10
186.4915556051471
 20
64.56691309422052
 30
0.0
 10
187.6694006805723
 20
65.41631293955544
 30
0.0
 10
188.8309224537721
 20
66.18189485684778
 30
0.0
 10
190.0324999666385
 20
66.84279739206521
 30
0.0
  0
SPLINE
  5
2F4
330
1F
100
AcDbEntity
  8
0
  6
SLD-Сплошная
 62
     7
370
    25
100
AcDbSpline
210
0.0
220
0.0
230
1.0
 70
    24
 71
     3
 72
    20
 73
    16
 74
     0
 42
0.00000001
 43
0.00000001
 40
0.0
 40
0.0
 40
0.0
 40
0.0
 40
0.2499999999999981
 40
0.2499999999999981
 40
0.4999999999999962
 40
0.4999999999999962
 40
0.6249999999999953
 40
0.6249999999999953
 40
0.6562499999999966
 40
0.6562499999999966
 40
0.6874999999999979
 40
0.6874999999999979
 40
0.7499999999999983
 40
0.7499999999999983
 40
1.0
 40
1.0
 40
1.0
 40
1.0
 10
310.3633089755921
 20
38.69275918969637
 30
0.0
 10
308.9463969614376
 20
38.69275918969637
 30
0.0
 10
307.4258637589621
 20
38.69275918969638
 30
0.0
 10
304.2530491376289
 20
38.69275918969638
 30
0.0
 10
302.6002641741609
 20
38.69275918969638
 30
0.0
 10
300.0843388684893
 20
38.69275918969638
 30
0.0
 10
299.2419493468733
 20
38.69275918969638
 30
0.0
 10
298.1798224203013
 20
38.69275918969638
 30
0.0
 10
297.9688786399263
 20
38.69275918969638
 30
0.0
 10
297.5563994766522
 20
38.69275918969638
 30
0.0
 10
297.3532942197182
 20
38.69275918969638
 30
0.0
 10
296.7390621363829
 20
38.69275918969637
 30
0.0
 10
296.3277029782074
 20
38.69275918969638
 30
0.0
 10
294.2753386039528
 20
38.69275918969638
 30
0.0
 10
292.6334471045512
 20
38.69275918969638
 30
0.0
 10
290.9915556051471
 20
38.69275918969638
 30
0.0
  0
SPLINE
  5
2F5
330
1F
100
AcDbEntity
  8
0
  6
SLD-Сплошная
 62
     7
370
    25
100
AcDbSpline
210
0.0
220
0.0
230
1.0
 70
    24
 71
     3
 72
    20
 73
    16
 74
     0
 42
0.00000001
 43
0.00000001
 40
0.0
 40
0.0
 40
0.0
 40
0.0
 40
0.249999999999998
 40
0.249999999999998
 40
0.499999999999996
 40
0.499999999999996
 40
0.624999999999995
 40
0.624999999999995
 40
0.6562499999999963
 40
0.6562499999999963
 40
0.6874999999999976
 40
0.6874999999999976
 40
0.7499999999999981
 40
0.7499999999999981
 40
1.0
 40
1.0
 40
1.0
 40
1.0
 10
310.3633089755921
 20
44.36205613607387
 30
0.0
 10
308.9463969614384
 20
44.36205613607387
 30
0.0
 10
307.4258637589625
 20
44.36205613607387
 30
0.0
 10
304.2530491376288
 20
44.36205613607387
 30
0.0
 10
302.6002641741613
 20
44.36205613607387
 30
0.0
 10
300.084338868488
 20
44.36205613607387
 30
0.0
 10
299.2419493468733
 20
44.36205613607387
 30
0.0
 10
298.1798224203013
 20
44.36205613607387
 30
0.0
 10
297.9688786399263
 20
44.36205613607387
 30
0.0
 10
297.5563994766522
 20
44.36205613607387
 30
0.0
 10
297.3532942197182
 20
44.36205613607387
 30
0.0
 10
296.7390621363829
 20
44.36205613607387
 30
0.0
 10
296.3277029782074
 20
44.36205613607387
 30
0.0
 10
294.2753386039528
 20
44.36205613607387
 30
0.0
 10
292.6334471045512
 20
44.36205613607387
 30
0.0
 10
290.9915556051471
 20
44.36205613607387
 30
0.0
  0
LWPOLYLINE
  5
2F6
330
1F
100
AcDbEntity
  8
0
  6
SLD-Сплошная
 62
     7
370
    25
100
AcDbPolyline
 90
        3
 70
   128
 43
0.0
 10
297.9389967219
 20
45.034155654
 10
294.0484296965
 20
45.0341565656
 10
290.9915556051
 20
45.034155654
  0
SPLINE
  5
2F7
330
1F
100
AcDbEntity
  8
0
  6
SLD-Сплошная
 62
     7
370
    25
100
AcDbSpline
210
0.0
220
0.0
230
1.0
 70
     8
 71
     3
 72
    16
 73
    12
 74
     0
 42
0.00000001
 43
0.00000001
 40
0.0
 40
0.0
 40
0.0
 40
0.0
 40
0.5000000000000017
 40
0.5000000000000017
 40
0.7500000000000024
 40
0.7500000000000024
 40
0.8750000000000029
 40
0.8750000000000029
 40
0.9375000000000014
 40
0.9375000000000014
 40
1.0
 40
1.0
 40
1.0
 40
1.0
 10
309.8358050023077
 20
45.03626729457981
 30
0.0
 10
308.0793929363921
 20
45.03591535448686
 30
0.0
 10
306.1565182305766
 20
45.03556341439391
 30
0.0
 10
303.1401594470382
 20
45.0350355042545
 30
0.0
 10
302.1130336768247
 20
45.03485953420803
 30
0.0
 10
300.5560756886811
 20
45.03459557913832
 30
0.0
 10
300.0343784072912
 20
45.03450759411508
 30
0.0
 10
299.2497257886281
 20
45.03437561658023
 30
0.0
 10
298.9878229232052
 20
45.03433162406861
 30
0.0
 10
298.4636268436848
 20
45.03424363904537
 30
0.0
 10
298.2030324343385
 20
45.03419964653376
 30
0.0
 10
297.9389967218895
 20
45.03415565402214
 30
0.0
  0
SPLINE
  5
2F8
330
1F
100
AcDbEntity
  8
0
  6
SLD-Сплошная
 62
     7
370
    25
100
AcDbSpline
210
0.0
220
0.0
230
1.0
 70
    24
 71
     3
 72
    16
 73
    12
 74
     0
 42
0.00000001
 43
0.00000001
 40
0.0
 40
0.0
 40
0.0
 40
0.0
 40
0.0624999999999986
 40
0.0624999999999986
 40
0.1249999999999971
 40
0.1249999999999971
 40
0.2499999999999976
 40
0.2499999999999976
 40
0.4999999999999983
 40
0.4999999999999983
 40
1.0
 40
1.0
 40
1.0
 40
1.0
 10
297.9389967218831
 20
38.02065967174818
 30
0.0
 10
298.2030324343323
 20
38.02065967174818
 30
0.0
 10
298.4636291207781
 20
38.02065967174818
 30
0.0
 10
298.9878343012826
 20
38.02065967174818
 30
0.0
 10
299.2497439906044
 20
38.02065967174818
 30
0.0
 10
300.0344238738711
 20
38.02065967174818
 30
0.0
 10
300.55614839468
 20
38.02065967174818
 30
0.0
 10
302.1132148679959
 20
38.02065967174818
 30
0.0
 10
303.1404487458922
 20
38.02065967174818
 30
0.0
 10
306.1572324446005
 20
38.02065967174818
 30
0.0
 10
308.0805257717672
 20
38.02065967174818
 30
0.0
 10
309.8374571535222
 20
38.02065967174817
 30
0.0
  0
LINE
  5
2F9
330
1F
100
AcDbEntity
  8
0
  6
SLD-Сплошная
 62
     7
370
    25
100
AcDbLine
 10
290.9915556051
 20
38.0206596717
 30
0.0
 11
297.9389967219
 21
38.0206596717
 31
0.0
  0
ARC
  5
2FA
330
1F
100
AcDbEntity
  8
0
  6
SLD-Сплошная
 62
     7
370
    25
100
AcDbCircle
 10
309.5229360116
 20
41.7905300059
 30
0.0
 40
3.258838887367255
100
AcDbArc
 50
355.3688326741
 51
84.4615769118
  0
SPLINE
  5
2FB
330
1F
100
AcDbEntity
  8
0
  6
SLD-Сплошная
 62
     7
370
    25
100
AcDbSpline
210
0.0
220
0.0
230
1.0
 70
     8
 71
     3
 72
    16
 73
    12
 74
     0
 42
0.00000001
 43
0.00000001
 40
0.0
 40
0.0
 40
0.0
 40
0.0
 40
0.0625
 40
0.0625
 40
0.125
 40
0.125
 40
0.25
 40
0.25
 40
0.5
 40
0.5
 40
1.0
 40
1.0
 40
1.0
 40
1.0
 10
297.9389967218834
 20
63.24612582318767
 30
0.0
 10
298.2030324343326
 20
63.24612284208727
 30
0.0
 10
298.4636291207785
 20
63.24137246440685
 30
0.0
 10
298.9878343012824
 20
63.22237127861494
 30
0.0
 10
299.2497439906041
 20
63.20812338390861
 30
0.0
 10
300.0344238738722
 20
63.15116773795111
 30
0.0
 10
300.5561483946809
 20
63.09424229975666
 30
0.0
 10
302.1132148679944
 20
62.86702115092134
 30
0.0
 10
303.1404487458932
 20
62.64017099819277
 30
0.0
 10
306.1572324445988
 20
61.74047178658
 30
0.0
 10
308.0805257717687
 20
60.84741459994522
 30
0.0
 10
309.8374571535222
 20
59.69686989718148
 30
0.0
  0
LINE
  5
2FC
330
1F
100
AcDbEntity
  8
0
  6
SLD-Сплошная
 62
     7
370
    25
100
AcDbLine
 10
312.7711351321
 20
57.7757205039
 30
0.0
 11
309.8374571535
 21
59.6968698972
 31
0.0
  0
LINE
  5
2FD
330
1F
100
AcDbEntity
  8
0
  6
SLD-Сплошная
 62
     7
370
    25
100
AcDbLine
 10
317.3789041291
 20
41.5274076629
 30
0.0
 11
317.3789041291
 21
51.8274076629
 31
0.0
  0
LINE
  5
2FE
330
1F
100
AcDbEntity
  8
0
  6
SLD-Сплошная
 62
     7
370
    25
100
AcDbLine
 10
290.9915556051
 20
63.2461258232
 30
0.0
 11
297.9389967219
 21
63.2461258232
 31
0.0
  0
LINE
  5
2FF
330
1F
100
AcDbEntity
  8
0
  6
SLD-Сплошная
 62
     7
370
    25
100
AcDbLine
 10
309.8374571535
 20
23.3579454286
 30
0.0
 11
312.7711351321
 21
25.2790948219
 31
0.0
  0
SPLINE
  5
300
330
1F
100
AcDbEntity
  8
0
  6
SLD-Сплошная
 62
     7
370
    25
100
AcDbSpline
210
0.0
220
0.0
230
1.0
 70
     8
 71
     3
 72
    16
 73
    12
 74
     0
 42
0.00000001
 43
0.00000001
 40
0.0
 40
0.0
 40
0.0
 40
0.0
 40
0.4999999999999982
 40
0.4999999999999982
 40
0.7499999999999974
 40
0.7499999999999974
 40
0.8749999999999971
 40
0.8749999999999971
 40
0.9374999999999986
 40
0.9374999999999986
 40
1.0
 40
1.0
 40
1.0
 40
1.0
 10
309.8374571535222
 20
23.35794542858872
 30
0.0
 10
308.0805257717658
 20
22.20740072582307
 30
0.0
 10
306.1572324446006
 20
21.3143435391958
 30
0.0
 10
303.1404487458922
 20
20.41464432757465
 30
0.0
 10
302.1132148679945
 20
20.187794174848
 30
0.0
 10
300.5561483946809
 20
19.96057302601399
 30
0.0
 10
300.0344238738712
 20
19.90364758781917
 30
0.0
 10
299.2497439906048
 20
19.84669194186158
 30
0.0
 10
298.9878343012822
 20
19.83244404715504
 30
0.0
 10
298.4636291207786
 20
19.8134428613636
 30
0.0
 10
298.2030324343326
 20
19.80869248368293
 30
0.0
 10
297.9389967218834
 20
19.80868950258253
 30
0.0
  0
ARC
  5
301
330
1F
100
AcDbEntity
  8
0
  6
SLD-Сплошная
 62
     7
370
    25
100
AcDbCircle
 10
309.5229360116
 20
41.2642853199
 30
0.0
 40
3.258838887367418
100
AcDbArc
 50
275.5384230882
 51
4.6311673259
  0
LINE
  5
302
330
1F
100
AcDbEntity
  8
0
  6
SLD-Сплошная
 62
     7
370
    25
100
AcDbLine
 10
317.3789041291
 20
31.2274076629
 30
0.0
 11
317.3789041291
 21
41.5274076629
 31
0.0
  0
LWPOLYLINE
  5
303
330
1F
100
AcDbEntity
  8
0
  6
SLD-Сплошная
 62
     7
370
    25
100
AcDbPolyline
 90
        3
 70
   128
 43
0.0
 10
297.9389967219
 20
19.8086895026
 10
294.0484296965
 20
19.8086896498
 10
290.9915556051
 20
19.8086895026
  0
LWPOLYLINE
  5
304
330
1F
100
AcDbEntity
  8
0
  6
SLD-Сплошная
 62
     7
370
    25
100
AcDbPolyline
 90
       11
 70
   128
 43
0.0
 10
310.3633089756
 20
44.3620561361
 10
311.0961157196
 20
44.2233185647
 10
311.7571902337
 20
43.8206864508
 10
312.2818219385
 20
43.1935722309
 10
312.6186562275
 20
42.4033622142
 10
312.7347214135
 20
41.5274076629
 10
312.6186562275
 20
40.6514531116
 10
312.2818219385
 20
39.8612430949
 10
311.7571902337
 20
39.234128875
 10
311.0961157196
 20
38.8314967611
 10
310.3633089756
 20
38.6927591897
  0
SPLINE
  5
305
330
1F
100
AcDbEntity
  8
0
  6
SLD-Сплошная
 62
     7
370
    25
100
AcDbSpline
210
0.0
220
0.0
230
1.0
 70
     8
 71
     3
 72
     8
 73
     4
 74
     0
 42
0.00000001
 43
0.00000001
 40
0.0
 40
0.0
 40
0.0
 40
0.0
 40
1.0
 40
1.0
 40
1.0
 40
1.0
 10
165.6011879515794
 20
13.15260243339702
 30
0.0
 10
163.6874216138803
 20
12.42503986231592
 30
0.0
 10
161.7736552761812
 20
11.80533637640343
 30
0.0
 10
159.859888938482
 20
11.30052111698797
 30
0.0
  0
SPLINE
  5
306
330
1F
100
AcDbEntity
  8
0
  6
SLD-Сплошная
 62
     7
370
    25
100
AcDbSpline
210
0.0
220
0.0
230
1.0
 70
     8
 71
     3
 72
     8
 73
     4
 74
     0
 42
0.00000001
 43
0.00000001
 40
0.0
 40
0.0
 40
0.0
 40
0.0
 40
1.0
 40
1.0
 40
1.0
 40
1.0
 10
159.859888938482
 20
11.30052111698797
 30
0.0
 10
157.9461226007811
 20
11.80533637640343
 30
0.0
 10
156.0323562630802
 20
12.42503986231592
 30
0.0
 10
154.1185899253793
 20
13.15260243339702
 30
0.0
  0
LINE
  5
307
330
1F
100
AcDbEntity
  8
0
  6
SLD-Сплошная
 62
     7
370
    25
100
AcDbLine
 10
158.7743090458
 20
10.2651352202
 30
0.0
 11
154.1185899254
 21
10.2651352202
 31
0.0
  0
LINE
  5
308
330
1F
100
AcDbEntity
  8
0
  6
SLD-Сплошная
 62
     7
370
    25
100
AcDbLine
 10
165.6011879516
 20
10.2651352202
 30
0.0
 11
161.0238873936
 21
10.2651352202
 31
0.0
  0
LINE
  5
309
330
1F
100
AcDbEntity
  8
0
  6
SLD-Сплошная
 62
     7
370
    25
100
AcDbLine
 10
280.9915556051
 20
24.7274076629
 30
0.0
 11
271.4915556051
 21
24.7274076629
 31
0.0
  0
LINE
  5
30A
330
1F
100
AcDbEntity
  8
0
  6
SLD-Сплошная
 62
     7
370
    25
100
AcDbLine
 10
280.9915556051
 20
58.3274076629
 30
0.0
 11
271.4915556051
 21
58.3274076629
 31
0.0
  0
LINE
  5
30B
330
1F
100
AcDbEntity
  8
0
  6
SLD-Сплошная
 62
     7
370
    25
100
AcDbLine
 10
282.9915556051
 20
68.4774076629
 30
0.0
 11
290.9915556051
 21
68.4774076629
 31
0.0
  0
LINE
  5
30C
330
1F
100
AcDbEntity
  8
0
  6
SLD-Сплошная
 62
     7
370
    25
100
AcDbLine
 10
290.9915556051
 20
66.3123441534
 30
0.0
 11
290.9915556051
 21
68.4774076629
 31
0.0
  0
LINE
  5
30D
330
1F
100
AcDbEntity
  8
0
  6
SLD-Сплошная
 62
     7
370
    25
100
AcDbLine
 10
290.9915556051
 20
14.5774076629
 30
0.0
 11
282.9915556051
 21
14.5774076629
 31
0.0
  0
LINE
  5
30E
330
1F
100
AcDbEntity
  8
0
  6
SLD-Сплошная
 62
     7
370
    25
100
AcDbLine
 10
290.9915556051
 20
16.7424711723
 30
0.0
 11
290.9915556051
 21
14.5774076629
 31
0.0
  0
SPLINE
  5
30F
330
1F
100
AcDbEntity
  8
0
  6
SLD-Сплошная
 62
     7
370
    25
100
AcDbSpline
210
0.0
220
0.0
230
1.0
 70
     8
 71
     3
 72
     8
 73
     4
 74
     0
 42
0.00000001
 43
0.00000001
 40
0.0
 40
0.0
 40
0.0
 40
0.0
 40
1.0
 40
1.0
 40
1.0
 40
1.0
 10
159.859888938482
 20
11.08985404472227
 30
0.0
 10
157.946225738579
 20
11.5911483148837
 30
0.0
 10
156.0329843110566
 20
12.20619635709632
 30
0.0
 10
154.1185899253793
 20
12.92828928816272
 30
0.0
  0
LINE
  5
310
330
1F
100
AcDbEntity
  8
0
  6
SLD-Сплошная
 62
     7
370
    25
100
AcDbLine
 10
154.1185899254
 20
13.1526024334
 30
0.0
 11
154.1185899254
 21
12.9282892882
 31
0.0
  0
LINE
  5
311
330
1F
100
AcDbEntity
  8
0
  6
SLD-Сплошная
 62
     7
370
    25
100
AcDbLine
 10
159.8598889385
 20
11.300521117
 30
0.0
 11
159.8598889385
 21
11.0898540447
 31
0.0
  0
SPLINE
  5
312
330
1F
100
AcDbEntity
  8
0
  6
SLD-Сплошная
 62
     7
370
    25
100
AcDbSpline
210
0.0
220
0.0
230
1.0
 70
     8
 71
     3
 72
     8
 73
     4
 74
     0
 42
0.00000001
 43
0.00000001
 40
0.0
 40
0.0
 40
0.0
 40
0.0
 40
1.0
 40
1.0
 40
1.0
 40
1.0
 10
165.6011879515794
 20
12.92828928816267
 30
0.0
 10
163.6867933274668
 20
12.20619626715986
 30
0.0
 10
161.7735523393346
 20
11.59114836752402
 30
0.0
 10
159.859888938482
 20
11.08985404472232
 30
0.0
  0
LINE
  5
313
330
1F
100
AcDbEntity
  8
0
  6
SLD-Сплошная
 62
     7
370
    25
100
AcDbLine
 10
165.6011879516
 20
13.1526024334
 30
0.0
 11
165.6011879516
 21
12.9282892882
 31
0.0
  0
LINE
  5
314
330
1F
100
AcDbEntity
  8
0
  6
SLD-Сплошная
 62
     7
370
    25
100
AcDbLine
 10
154.1185899254
 20
10.0613993637
 30
0.0
 11
154.1185899254
 21
9.5729009789
 31
0.0
  0
LINE
  5
315
330
1F
100
AcDbEntity
  8
0
  6
SLD-Сплошная
 62
     7
370
    25
100
AcDbLine
 10
159.7132899528
 20
10.0613993637
 30
0.0
 11
154.1185899254
 21
10.0613993637
 31
0.0
  0
LINE
  5
316
330
1F
100
AcDbEntity
  8
0
  6
SLD-Сплошная
 62
     7
370
    25
100
AcDbLine
 10
159.7132899528
 20
10.0849405692
 30
0.0
 11
159.7132899528
 21
10.0613993637
 31
0.0
  0
SPLINE
  5
317
330
1F
100
AcDbEntity
  8
0
  6
SLD-Сплошная
 62
     7
370
    25
100
AcDbSpline
210
0.0
220
0.0
230
1.0
 70
     8
 71
     3
 72
     8
 73
     4
 74
     0
 42
0.00000001
 43
0.00000001
 40
0.0
 40
0.0
 40
0.0
 40
0.0
 40
1.0
 40
1.0
 40
1.0
 40
1.0
 10
154.1185899253793
 20
11.32336328736768
 30
0.0
 10
155.9839359294001
 20
10.80157479481828
 30
0.0
 10
157.8483648343037
 20
10.38734364244665
 30
0.0
 10
159.7132899528086
 20
10.08494056920422
 30
0.0
  0
SPLINE
  5
318
330
1F
100
AcDbEntity
  8
0
  6
SLD-Сплошная
 62
     7
370
    25
100
AcDbSpline
210
0.0
220
0.0
230
1.0
 70
     8
 71
     3
 72
     8
 73
     4
 74
     0
 42
0.00000001
 43
0.00000001
 40
0.0
 40
0.0
 40
0.0
 40
0.0
 40
1.0
 40
1.0
 40
1.0
 40
1.0
 10
160.0064879241493
 20
10.08494056920457
 30
0.0
 10
161.8714129346846
 20
10.38734362493935
 30
0.0
 10
163.7358420808861
 20
10.80157483211391
 30
0.0
 10
165.6011879515794
 20
11.32336328736768
 30
0.0
  0
LINE
  5
319
330
1F
100
AcDbEntity
  8
0
  6
SLD-Сплошная
 62
     7
370
    25
100
AcDbLine
 10
160.0064879241
 20
10.0849405692
 30
0.0
 11
160.0064879242
 21
10.0613993637
 31
0.0
  0
LINE
  5
31A
330
1F
100
AcDbEntity
  8
0
  6
SLD-Сплошная
 62
     7
370
    25
100
AcDbLine
 10
165.6011879516
 20
10.0613993637
 30
0.0
 11
160.0064879242
 21
10.0613993637
 31
0.0
  0
LINE
  5
31B
330
1F
100
AcDbEntity
  8
0
  6
SLD-Сплошная
 62
     7
370
    25
100
AcDbLine
 10
165.6011879516
 20
10.0613993637
 30
0.0
 11
165.6011879516
 21
9.5729009789
 31
0.0
  0
LINE
  5
31C
330
1F
100
AcDbEntity
  8
0
  6
SLD-Сплошная
 62
     7
370
    25
100
AcDbLine
 10
154.1185899254
 20
9.5729009789
 30
0.0
 11
165.6011879516
 21
9.5729009789
 31
0.0
  0
LINE
  5
31D
330
1F
100
AcDbEntity
  8
0
  6
SLD-Сплошная
 62
     7
370
    25
100
AcDbLine
 10
165.6011879516
 20
12.9282892882
 30
0.0
 11
165.6011879516
 21
11.3233632874
 31
0.0
  0
LINE
  5
31E
330
1F
100
AcDbEntity
  8
0
  6
SLD-Сплошная
 62
     7
370
    25
100
AcDbLine
 10
154.1185899254
 20
12.9282892882
 30
0.0
 11
154.1185899254
 21
11.3233632874
 31
0.0
  0
LINE
  5
31F
330
1F
100
AcDbEntity
  8
0
  6
SLD-Сплошная
 62
     7
370
    25
100
AcDbLine
 10
154.1185899254
 20
10.2651352202
 30
0.0
 11
154.1185899254
 21
10.0613993637
 31
0.0
  0
LINE
  5
320
330
1F
100
AcDbEntity
  8
0
  6
SLD-Сплошная
 62
     7
370
    25
100
AcDbLine
 10
165.6011879516
 20
10.2651352202
 30
0.0
 11
165.6011879516
 21
10.0613993637
 31
0.0
  0
SPLINE
  5
321
330
1F
100
AcDbEntity
  8
0
  6
SLD-Сплошная
 62
     7
370
    25
100
AcDbSpline
210
0.0
220
0.0
230
1.0
 70
     8
 71
     3
 72
    20
 73
    16
 74
     0
 42
0.00000001
 43
0.00000001
 40
0.0
 40
0.0
 40
0.0
 40
0.0
 40
0.2499999999999981
 40
0.2499999999999981
 40
0.4999999999999961
 40
0.4999999999999961
 40
0.6249999999999951
 40
0.6249999999999951
 40
0.6562499999999964
 40
0.6562499999999964
 40
0.6874999999999978
 40
0.6874999999999978
 40
0.7499999999999981
 40
0.7499999999999981
 40
1.0
 40
1.0
 40
1.0
 40
1.0
 10
310.3633089755921
 20
22.55494701742192
 30
0.0
 10
308.9463969614376
 20
21.6270675173486
 30
0.0
 10
307.4258637589621
 20
20.85956821921432
 30
0.0
 10
304.2530491376289
 20
19.67974539264492
 30
0.0
 10
302.6002641741613
 20
19.26862530103394
 30
0.0
 10
300.084338868488
 20
18.93468979949735
 30
0.0
 10
299.2419493468733
 20
18.87034854313077
 30
0.0
 10
298.1798224203012
 20
18.84915028491259
 30
0.0
 10
297.9688786399263
 20
18.84883137196409
 30
0.0
 10
297.5563994766523
 20
18.84882984804893
 30
0.0
 10
297.3532942197181
 20
18.84883146682827
 30
0.0
 10
296.7390621363829
 20
18.84883258888605
 30
0.0
 10
296.3277029782074
 20
18.84883191569243
 30
0.0
 10
294.2753386039528
 20
18.84883191569242
 30
0.0
 10
292.6334471045512
 20
18.84883191569243
 30
0.0
 10
290.9915556051471
 20
18.84883191569243
 30
0.0
  0
SPLINE
  5
322
330
1F
100
AcDbEntity
  8
0
  6
SLD-Сплошная
 62
     7
370
    25
100
AcDbSpline
210
0.0
220
0.0
230
1.0
 70
     8
 71
     3
 72
    20
 73
    16
 74
     0
 42
0.00000001
 43
0.00000001
 40
0.0
 40
0.0
 40
0.0
 40
0.0
 40
0.2500000000000016
 40
0.2500000000000016
 40
0.5000000000000031
 40
0.5000000000000031
 40
0.6250000000000039
 40
0.6250000000000039
 40
0.6562500000000036
 40
0.6562500000000036
 40
0.6875000000000031
 40
0.6875000000000031
 40
0.7500000000000026
 40
0.7500000000000026
 40
1.0
 40
1.0
 40
1.0
 40
1.0
 10
310.3633089755921
 20
60.49986830834828
 30
0.0
 10
308.9463969614364
 20
61.42774780842221
 30
0.0
 10
307.4258637589616
 20
62.19524710655394
 30
0.0
 10
304.2530491376291
 20
63.37506993312437
 30
0.0
 10
302.6002641741601
 20
63.7861900247369
 30
0.0
 10
300.0843388684898
 20
64.1201255262725
 30
0.0
 10
299.2419493468732
 20
64.18446678263994
 30
0.0
 10
298.1798224203014
 20
64.20566504085711
 30
0.0
 10
297.9688786399263
 20
64.20598395380628
 30
0.0
 10
297.5563994766521
 20
64.20598547772188
 30
0.0
 10
297.3532942197181
 20
64.20598385894206
 30
0.0
 10
296.7390621363829
 20
64.20598273688394
 30
0.0
 10
296.3277029782074
 20
64.20598341007778
 30
0.0
 10
294.2753386039529
 20
64.20598341007778
 30
0.0
 10
292.6334471045512
 20
64.20598341007778
 30
0.0
 10
290.9915556051471
 20
64.20598341007778
 30
0.0
  0
LINE
  5
323
330
1F
100
AcDbEntity
  8
0
  6
SLD-Сплошная
 62
     7
370
    25
100
AcDbLine
 10
312.7347214135
 20
58.9469243249
 30
0.0
 11
310.3633089756
 21
60.4998683083
 31
0.0
  0
LINE
  5
324
330
1F
100
AcDbEntity
  8
0
  6
SLD-Сплошная
 62
     7
370
    25
100
AcDbLine
 10
310.3633089756
 20
22.5549470174
 30
0.0
 11
312.7347214135
 21
24.1078910009
 31
0.0
  0
LINE
  5
325
330
1F
100
AcDbEntity
  8
0
  6
SLD-Сплошная
 62
     7
370
    25
100
AcDbLine
 10
157.2502006754
 20
9.5093418737
 30
0.0
 11
154.1185899254
 21
9.5093418737
 31
0.0
  0
LINE
  5
326
330
1F
100
AcDbEntity
  8
0
  6
SLD-Сплошная
 62
     7
370
    25
100
AcDbLine
 10
157.2502006754
 20
9.5729009789
 30
0.0
 11
157.2502006754
 21
9.5093418737
 31
0.0
  0
LINE
  5
327
330
1F
100
AcDbEntity
  8
0
  6
SLD-Сплошная
 62
     7
370
    25
100
AcDbLine
 10
154.1185899254
 20
9.5729009789
 30
0.0
 11
154.1185899254
 21
9.5093418737
 31
0.0
  0
LINE
  5
328
330
1F
100
AcDbEntity
  8
0
  6
SLD-Сплошная
 62
     7
370
    25
100
AcDbLine
 10
157.2502006754
 20
9.5093418737
 30
0.0
 11
157.2502006754
 21
9.4774076629
 31
0.0
  0
LINE
  5
329
330
1F
100
AcDbEntity
  8
0
  6
SLD-Сплошная
 62
     7
370
    25
100
AcDbLine
 10
154.1185899254
 20
9.5093418737
 30
0.0
 11
154.1185899254
 21
9.4774076629
 31
0.0
  0
LINE
  5
32A
330
1F
100
AcDbEntity
  8
0
  6
SLD-Сплошная
 62
     7
370
    25
100
AcDbLine
 10
161.4256943135
 20
9.5093418737
 30
0.0
 11
158.2940835635
 21
9.5093418737
 31
0.0
  0
LINE
  5
32B
330
1F
100
AcDbEntity
  8
0
  6
SLD-Сплошная
 62
     7
370
    25
100
AcDbLine
 10
161.4256943135
 20
9.5093418737
 30
0.0
 11
161.4256943135
 21
9.4774076629
 31
0.0
  0
LINE
  5
32C
330
1F
100
AcDbEntity
  8
0
  6
SLD-Сплошная
 62
     7
370
    25
100
AcDbLine
 10
162.4695772016
 20
9.5093418737
 30
0.0
 11
162.4695772016
 21
9.4774076629
 31
0.0
  0
LINE
  5
32D
330
1F
100
AcDbEntity
  8
0
  6
SLD-Сплошная
 62
     7
370
    25
100
AcDbLine
 10
165.6011879516
 20
9.5093418737
 30
0.0
 11
162.4695772016
 21
9.5093418737
 31
0.0
  0
LINE
  5
32E
330
1F
100
AcDbEntity
  8
0
  6
SLD-Сплошная
 62
     7
370
    25
100
AcDbLine
 10
165.6011879516
 20
9.5093418737
 30
0.0
 11
165.6011879516
 21
9.4774076629
 31
0.0
  0
LINE
  5
32F
330
1F
100
AcDbEntity
  8
0
  6
SLD-Сплошная
 62
     7
370
    25
100
AcDbLine
 10
158.2940835635
 20
9.5093418737
 30
0.0
 11
158.2940835635
 21
9.4774076629
 31
0.0
  0
LINE
  5
330
330
1F
100
AcDbEntity
  8
0
  6
SLD-Сплошная
 62
     7
370
    25
100
AcDbLine
 10
162.4695772016
 20
9.5729009789
 30
0.0
 11
162.4695772016
 21
9.5093418737
 31
0.0
  0
LINE
  5
331
330
1F
100
AcDbEntity
  8
0
  6
SLD-Сплошная
 62
     7
370
    25
100
AcDbLine
 10
165.6011879516
 20
9.5729009789
 30
0.0
 11
165.6011879516
 21
9.5093418737
 31
0.0
  0
LINE
  5
332
330
1F
100
AcDbEntity
  8
0
  6
SLD-Сплошная
 62
     7
370
    25
100
AcDbLine
 10
161.4256943135
 20
9.5729009789
 30
0.0
 11
161.4256943135
 21
9.5093418737
 31
0.0
  0
LINE
  5
333
330
1F
100
AcDbEntity
  8
0
  6
SLD-Сплошная
 62
     7
370
    25
100
AcDbLine
 10
158.2940835635
 20
9.5729009789
 30
0.0
 11
158.2940835635
 21
9.5093418737
 31
0.0
  0
ENDSEC
  0
SECTION
  2
OBJECTS
  0
DICTIONARY
  5
C
330
0
100
AcDbDictionary
281
     1
  3
ACAD_GROUP
350
D
  3
ACAD_LAYOUT
350
1A
  3
ACAD_MLINESTYLE
350
17
  3
ACAD_PLOTSETTINGS
350
19
  3
ACAD_PLOTSTYLENAME
350
E
  3
ACAD_SCALELIST
350
47
  3
DWGPROPS
350
334
  0
DICTIONARY
  5
D
102
{ACAD_REACTORS
330
C
102
}
330
C
100
AcDbDictionary
281
     1
  0
DICTIONARY
  5
1A
102
{ACAD_REACTORS
330
C
102
}
330
C
100
AcDbDictionary
281
     1
  3
Layout1
350
1E
  3
Layout2
350
26
  3
Model
350
22
  0
DICTIONARY
  5
17
102
{ACAD_REACTORS
330
C
102
}
330
C
100
AcDbDictionary
281
     1
  3
Standard
350
18
  0
DICTIONARY
  5
19
102
{ACAD_REACTORS
330
C
102
}
330
C
100
AcDbDictionary
281
     1
  0
ACDBDICTIONARYWDFLT
  5
E
102
{ACAD_REACTORS
330
C
102
}
330
C
100
AcDbDictionary
281
     1
  3
Normal
350
F
100
AcDbDictionaryWithDefault
340
F
  0
DICTIONARY
  5
47
102
{ACAD_REACTORS
330
C
102
}
330
C
100
AcDbDictionary
281
     1
  3
A0
350
48
  3
A1
350
49
  3
A2
350
4A
  3
A3
350
4B
  3
A4
350
4C
  3
A5
350
4D
  3
A6
350
4E
  3
A7
350
4F
  3
A8
350
50
  3
A9
350
51
  3
B0
350
52
  3
B1
350
53
  3
B2
350
54
  3
B3
350
55
  3
B4
350
56
  3
B5
350
57
  3
B6
350
58
  0
XRECORD
  5
334
102
{ACAD_REACTORS
330
C
102
}
330
C
100
AcDbXrecord
280
     1
  1
DWGPROPS COOKIE
  2

  3

  4

  6

  7

  8
inyankin
  9

300
=
301
=
302
=
303
=
304
=
305
=
306
=
307
=
308
=
309
=
 40
0.0
 41
2460921.464737512
 42
2460921.464738461
  1

 90
        0
  0
LAYOUT
  5
1E
102
{ACAD_REACTORS
330
1A
102
}
330
1A
100
AcDbPlotSettings
  1

  2
none_device
  4

  6

 40
0.0
 41
0.0
 42
0.0
 43
0.0
 44
0.0
 45
0.0
 46
0.0
 47
0.0
 48
0.0
 49
0.0
140
0.0
141
0.0
142
1.0
143
1.0
 70
   688
 72
     1
 73
     0
 74
     5
  7

 75
    16
147
1.0
148
0.0
149
0.0
100
AcDbLayout
  1
Layout1
 70
     1
 71
     1
 10
0.0
 20
0.0
 11
420.0
 21
297.0
 12
0.0
 22
0.0
 32
0.0
 14
1.0000000000E+20
 24
1.0000000000E+20
 34
1.0000000000E+20
 15
-1.0000000000E+20
 25
-1.0000000000E+20
 35
-1.0000000000E+20
146
0.0
 13
0.0
 23
0.0
 33
0.0
 16
1.0
 26
0.0
 36
0.0
 17
0.0
 27
1.0
 37
0.0
 76
     0
330
1B
  0
LAYOUT
  5
26
102
{ACAD_REACTORS
330
1A
102
}
330
1A
100
AcDbPlotSettings
  1

  2
none_device
  4

  6

 40
0.0
 41
0.0
 42
0.0
 43
0.0
 44
0.0
 45
0.0
 46
0.0
 47
0.0
 48
0.0
 49
0.0
140
0.0
141
0.0
142
1.0
143
1.0
 70
   688
 72
     1
 73
     0
 74
     5
  7

 75
    16
147
1.0
148
0.0
149
0.0
100
AcDbLayout
  1
Layout2
 70
     1
 71
     2
 10
0.0
 20
0.0
 11
0.0
 21
0.0
 12
0.0
 22
0.0
 32
0.0
 14
0.0
 24
0.0
 34
0.0
 15
0.0
 25
0.0
 35
0.0
146
0.0
 13
0.0
 23
0.0
 33
0.0
 16
1.0
 26
0.0
 36
0.0
 17
0.0
 27
1.0
 37
0.0
 76
     0
330
23
  0
LAYOUT
  5
22
102
{ACAD_REACTORS
330
1A
102
}
330
1A
100
AcDbPlotSettings
  1

  2
none_device
  4
Letter_(8.50_x_11.00_Inches)
  6

 40
6.35
 41
6.35
 42
6.35000508
 43
6.35000508
 44
215.9
 45
279.4
 46
0.0
 47
0.0
 48
0.0
 49
0.0
140
0.0
141
0.0
142
1.0
143
1.0
 70
  1712
 72
     1
 73
     0
 74
     0
  7

 75
     0
147
1.0
148
0.0
149
0.0
100
AcDbLayout
  1
Model
 70
     1
 71
     0
 10
0.0
 20
0.0
 11
431.8
 21
279.4
 12
0.0
 22
0.0
 32
0.0
 14
0.0
 24
0.0
 34
0.0
 15
431.8
 25
279.4
 35
0.0
146
0.0
 13
0.0
 23
0.0
 33
0.0
 16
1.0
 26
0.0
 36
0.0
 17
0.0
 27
1.0
 37
0.0
 76
     0
330
1F
331
29
  0
MLINESTYLE
  5
18
102
{ACAD_REACTORS
330
17
102
}
330
17
100
AcDbMlineStyle
  2
Standard
 70
     0
  3

 62
   256
 51
90.0
 52
90.0
 71
     2
 49
0.5
 62
   256
  6
BYLAYER
 49
-0.5
 62
   256
  6
BYLAYER
  0
ACDBPLACEHOLDER
  5
F
102
{ACAD_REACTORS
330
E
102
}
330
E
  0
SCALE
  5
48
102
{ACAD_REACTORS
330
47
102
}
330
47
100
AcDbScale
 70
     0
300
1:1
140
1.0
141
1.0
290
     1
  0
SCALE
  5
49
102
{ACAD_REACTORS
330
47
102
}
330
47
100
AcDbScale
 70
     0
300
1:2
140
1.0
141
2.0
290
     0
  0
SCALE
  5
4A
102
{ACAD_REACTORS
330
47
102
}
330
47
100
AcDbScale
 70
     0
300
1:4
140
1.0
141
4.0
290
     0
  0
SCALE
  5
4B
102
{ACAD_REACTORS
330
47
102
}
330
47
100
AcDbScale
 70
     0
300
1:5
140
1.0
141
5.0
290
     0
  0
SCALE
  5
4C
102
{ACAD_REACTORS
330
47
102
}
330
47
100
AcDbScale
 70
     0
300
1:8
140
1.0
141
8.0
290
     0
  0
SCALE
  5
4D
102
{ACAD_REACTORS
330
47
102
}
330
47
100
AcDbScale
 70
     0
300
1:10
140
1.0
141
10.0
290
     0
  0
SCALE
  5
4E
102
{ACAD_REACTORS
330
47
102
}
330
47
100
AcDbScale
 70
     0
300
1:16
140
1.0
141
16.0
290
     0
  0
SCALE
  5
4F
102
{ACAD_REACTORS
330
47
102
}
330
47
100
AcDbScale
 70
     0
300
1:20
140
1.0
141
20.0
290
     0
  0
SCALE
  5
50
102
{ACAD_REACTORS
330
47
102
}
330
47
100
AcDbScale
 70
     0
300
1:30
140
1.0
141
30.0
290
     0
  0
SCALE
  5
51
102
{ACAD_REACTORS
330
47
102
}
330
47
100
AcDbScale
 70
     0
300
1:40
140
1.0
141
40.0
290
     0
  0
SCALE
  5
52
102
{ACAD_REACTORS
330
47
102
}
330
47
100
AcDbScale
 70
     0
300
1:50
140
1.0
141
50.0
290
     0
  0
SCALE
  5
53
102
{ACAD_REACTORS
330
47
102
}
330
47
100
AcDbScale
 70
     0
300
1:100
140
1.0
141
100.0
290
     0
  0
SCALE
  5
54
102
{ACAD_REACTORS
330
47
102
}
330
47
100
AcDbScale
 70
     0
300
2:1
140
2.0
141
1.0
290
     0
  0
SCALE
  5
55
102
{ACAD_REACTORS
330
47
102
}
330
47
100
AcDbScale
 70
     0
300
4:1
140
4.0
141
1.0
290
     0
  0
SCALE
  5
56
102
{ACAD_REACTORS
330
47
102
}
330
47
100
AcDbScale
 70
     0
300
8:1
140
8.0
141
1.0
290
     0
  0
SCALE
  5
57
102
{ACAD_REACTORS
330
47
102
}
330
47
100
AcDbScale
 70
     0
300
10:1
140
10.0
141
1.0
290
     0
  0
SCALE
  5
58
102
{ACAD_REACTORS
330
47
102
}
330
47
100
AcDbScale
 70
     0
300
100:1
140
100.0
141
1.0
290
     0
  0
ENDSEC
  0
EOF
