  0
SECTION
  2
HEADER
  9
$ACADVER
  1
AC1015
  9
$ACADMAINTVER
 70
     6
  9
$DWGCODEPAGE
  3
ANSI_1251
  9
$INSBASE
 10
0.0
 20
0.0
 30
0.0
  9
$EXTMIN
 10
0.0
 20
0.0
 30
0.0
  9
$EXTMAX
 10
3500.0
 20
3000.0
 30
0.0
  9
$LIMMIN
 10
0.0
 20
0.0
  9
$LIMMAX
 10
3500.0
 20
3000.0
  9
$ORTHOMODE
 70
     0
  9
$REGENMODE
 70
     1
  9
$FILLMODE
 70
     1
  9
$QTEXTMODE
 70
     0
  9
$MIRRTEXT
 70
     1
  9
$LTSCALE
 40
1.0
  9
$ATTMODE
 70
     1
  9
$TEXTSIZE
 40
3.5
  9
$TRACEWID
 40
1.0
  9
$TEXTSTYLE
  7
Standard
  9
$CLAYER
  8
0
  9
$CELTYPE
  6
ByLayer
  9
$CECOLOR
 62
   256
  9
$CELTSCALE
 40
1.0
  9
$DISPSILH
 70
     0
  9
$DIMSCALE
 40
1.0
  9
$DIMASZ
 40
3.302
  9
$DIMEXO
 40
0.0
  9
$DIMDLI
 40
3.75
  9
$DIMRND
 40
0.0
  9
$DIMDLE
 40
0.0
  9
$DIMEXE
 40
1.0
  9
$DIMTP
 40
0.0
  9
$DIMTM
 40
0.0
  9
$DIMTXT
 40
3.5
  9
$DIMCEN
 40
2.5
  9
$DIMTSZ
 40
0.0
  9
$DIMTOL
 70
     0
  9
$DIMLIM
 70
     0
  9
$DIMTIH
 70
     1
  9
$DIMTOH
 70
     1
  9
$DIMSE1
 70
     0
  9
$DIMSE2
 70
     0
  9
$DIMTAD
 70
     1
  9
$DIMZIN
 70
     0
  9
$DIMBLK
  1

  9
$DIMASO
 70
     1
  9
$DIMSHO
 70
     1
  9
$DIMPOST
  1

  9
$DIMAPOST
  1

  9
$DIMALT
 70
     0
  9
$DIMALTD
 70
     3
  9
$DIMALTF
 40
0.0393700787
  9
$DIMLFAC
 40
1.0
  9
$DIMTOFL
 70
     1
  9
$DIMTVP
 40
0.0
  9
$DIMTIX
 70
     0
  9
$DIMSOXD
 70
     0
  9
$DIMSAH
 70
     0
  9
$DIMBLK1
  1

  9
$DIMBLK2
  1

  9
$DIMSTYLE
  2
ISO-25
  9
$DIMCLRD
 70
     0
  9
$DIMCLRE
 70
     0
  9
$DIMCLRT
 70
     0
  9
$DIMTFAC
 40
1.0
  9
$DIMGAP
 40
1.524
  9
$DIMJUST
 70
     0
  9
$DIMSD1
 70
     0
  9
$DIMSD2
 70
     0
  9
$DIMTOLJ
 70
     0
  9
$DIMTZIN
 70
     0
  9
$DIMALTZ
 70
     0
  9
$DIMALTTZ
 70
     0
  9
$DIMUPT
 70
     0
  9
$DIMDEC
 70
     2
  9
$DIMTDEC
 70
     2
  9
$DIMALTU
 70
     2
  9
$DIMALTTD
 70
     3
  9
$DIMTXSTY
  7
Standard
  9
$DIMAUNIT
 70
     0
  9
$DIMADEC
 70
     2
  9
$DIMALTRND
 40
0.0
  9
$DIMAZIN
 70
     0
  9
$DIMDSEP
 70
    44
  9
$DIMATFIT
 70
     3
  9
$DIMFRAC
 70
     0
  9
$DIMLDRBLK
  1

  9
$DIMLUNIT
 70
     2
  9
$DIMLWD
 70
    -2
  9
$DIMLWE
 70
    -2
  9
$DIMTMOVE
 70
     0
  9
$LUNITS
 70
     2
  9
$LUPREC
 70
     1
  9
$SKETCHINC
 40
1.0
  9
$FILLETRAD
 40
10.0
  9
$AUNITS
 70
     1
  9
$AUPREC
 70
     2
  9
$MENU
  1
.
  9
$ELEVATION
 40
0.0
  9
$PELEVATION
 40
0.0
  9
$THICKNESS
 40
0.0
  9
$LIMCHECK
 70
     0
  9
$CHAMFERA
 40
0.0
  9
$CHAMFERB
 40
0.0
  9
$CHAMFERC
 40
0.0
  9
$CHAMFERD
 40
0.0
  9
$SKPOLY
 70
     0
  9
$TDCREATE
 40
2459492.59305669
  9
$TDUCREATE
 40
2459492.46805669
  9
$TDUPDATE
 40
2459492.593058194
  9
$TDUUPDATE
 40
2459492.468058194
  9
$TDINDWG
 40
0.0000000116
  9
$TDUSRTIMER
 40
0.0000000116
  9
$USRTIMER
 70
     1
  9
$ANGBASE
 50
0.0
  9
$ANGDIR
 70
     0
  9
$PDMODE
 70
     0
  9
$PDSIZE
 40
-1.0
  9
$PLINEWID
 40
0.0
  9
$SPLFRAME
 70
     0
  9
$SPLINETYPE
 70
     6
  9
$SPLINESEGS
 70
     8
  9
$HANDSEED
  5
1EC
  9
$SURFTAB1
 70
     6
  9
$SURFTAB2
 70
     6
  9
$SURFTYPE
 70
     6
  9
$SURFU
 70
     6
  9
$SURFV
 70
     6
  9
$UCSBASE
  2

  9
$UCSNAME
  2

  9
$UCSORG
 10
0.0
 20
0.0
 30
0.0
  9
$UCSXDIR
 10
1.0
 20
0.0
 30
0.0
  9
$UCSYDIR
 10
0.0
 20
1.0
 30
0.0
  9
$UCSORTHOREF
  2

  9
$UCSORTHOVIEW
 70
     0
  9
$UCSORGTOP
 10
0.0
 20
0.0
 30
0.0
  9
$UCSORGBOTTOM
 10
0.0
 20
0.0
 30
0.0
  9
$UCSORGLEFT
 10
0.0
 20
0.0
 30
0.0
  9
$UCSORGRIGHT
 10
0.0
 20
0.0
 30
0.0
  9
$UCSORGFRONT
 10
0.0
 20
0.0
 30
0.0
  9
$UCSORGBACK
 10
0.0
 20
0.0
 30
0.0
  9
$PUCSBASE
  2

  9
$PUCSNAME
  2

  9
$PUCSORG
 10
0.0
 20
0.0
 30
0.0
  9
$PUCSXDIR
 10
1.0
 20
0.0
 30
0.0
  9
$PUCSYDIR
 10
0.0
 20
1.0
 30
0.0
  9
$PUCSORTHOREF
  2

  9
$PUCSORTHOVIEW
 70
     0
  9
$PUCSORGTOP
 10
0.0
 20
0.0
 30
0.0
  9
$PUCSORGBOTTOM
 10
0.0
 20
0.0
 30
0.0
  9
$PUCSORGLEFT
 10
0.0
 20
0.0
 30
0.0
  9
$PUCSORGRIGHT
 10
0.0
 20
0.0
 30
0.0
  9
$PUCSORGFRONT
 10
0.0
 20
0.0
 30
0.0
  9
$PUCSORGBACK
 10
0.0
 20
0.0
 30
0.0
  9
$USERI1
 70
     0
  9
$USERI2
 70
     0
  9
$USERI3
 70
     0
  9
$USERI4
 70
     0
  9
$USERI5
 70
     0
  9
$USERR1
 40
0.0
  9
$USERR2
 40
0.0
  9
$USERR3
 40
0.0
  9
$USERR4
 40
0.0
  9
$USERR5
 40
0.0
  9
$WORLDVIEW
 70
     1
  9
$SHADEDGE
 70
     3
  9
$SHADEDIF
 70
    70
  9
$TILEMODE
 70
     1
  9
$MAXACTVP
 70
    64
  9
$PINSBASE
 10
0.0
 20
0.0
 30
0.0
  9
$PLIMCHECK
 70
     0
  9
$PEXTMIN
 10
1.0000000000E+20
 20
1.0000000000E+20
 30
1.0000000000E+20
  9
$PEXTMAX
 10
-1.0000000000E+20
 20
-1.0000000000E+20
 30
-1.0000000000E+20
  9
$PLIMMIN
 10
0.0
 20
0.0
  9
$PLIMMAX
 10
420.0
 20
297.0
  9
$UNITMODE
 70
     0
  9
$VISRETAIN
 70
     1
  9
$PLINEGEN
 70
     0
  9
$PSLTSCALE
 70
     1
  9
$TREEDEPTH
 70
  3020
  9
$CMLSTYLE
  2
Standard
  9
$CMLJUST
 70
     0
  9
$CMLSCALE
 40
20.0
  9
$PROXYGRAPHICS
 70
     1
  9
$MEASUREMENT
 70
     1
  9
$CELWEIGHT
370
    -1
  9
$ENDCAPS
280
     0
  9
$JOINSTYLE
280
     0
  9
$LWDISPLAY
290
     1
  9
$INSUNITS
 70
     4
  9
$HYPERLINKBASE
  1

  9
$STYLESHEET
  1

  9
$XEDIT
290
     1
  9
$CEPSNTYPE
380
     0
  9
$PSTYLEMODE
290
     1
  9
$FINGERPRINTGUID
  2
{2336F950-D5A6-4E79-9288-A5F2A05D7785}
  9
$VERSIONGUID
  2
{FAEB1C32-E019-11D5-929B-00C0DF256EC4}
  9
$EXTNAMES
290
     1
  9
$PSVPSCALE
 40
0.0
  9
$OLESTARTUP
290
     0
  0
ENDSEC
  0
SECTION
  2
CLASSES
  0
CLASS
  1
ACDBDICTIONARYWDFLT
  2
AcDbDictionaryWithDefault
  3
ObjectDBX Classes
 90
        0
280
     0
281
     0
  0
CLASS
  1
VISUALSTYLE
  2
AcDbVisualStyle
  3
ObjectDBX Classes
 90
     4095
280
     0
281
     0
  0
CLASS
  1
MATERIAL
  2
AcDbMaterial
  3
ObjectDBX Classes
 90
     1153
280
     0
281
     0
  0
CLASS
  1
SCALE
  2
AcDbScale
  3
ObjectDBX Classes
 90
     1153
280
     0
281
     0
  0
CLASS
  1
TABLESTYLE
  2
AcDbTableStyle
  3
ObjectDBX Classes
 90
     4095
280
     0
281
     0
  0
CLASS
  1
MLEADERSTYLE
  2
AcDbMLeaderStyle
  3
ACDB_MLEADERSTYLE_CLASS
 90
     4095
280
     0
281
     0
  0
CLASS
  1
SUN
  2
AcDbSun
  3
SCENEOE
 90
     1153
280
     0
281
     0
  0
CLASS
  1
ACDBPLACEHOLDER
  2
AcDbPlaceHolder
  3
ObjectDBX Classes
 90
        0
280
     0
281
     0
  0
CLASS
  1
LAYOUT
  2
AcDbLayout
  3
ObjectDBX Classes
 90
        0
280
     0
281
     0
  0
ENDSEC
  0
SECTION
  2
TABLES
  0
TABLE
  2
VPORT
  5
8
330
0
100
AcDbSymbolTable
 70
     1
  0
VPORT
  5
29
330
8
100
AcDbSymbolTableRecord
100
AcDbViewportTableRecord
  2
*Active
 70
     0
 10
0.0
 20
0.0
 11
1.0
 21
1.0
 12
1750.0
 22
1500.0
 13
0.0
 23
0.0
 14
10.0
 24
10.0
 15
10.0
 25
10.0
 16
0.0
 26
0.0
 36
1.0
 17
0.0
 27
0.0
 37
0.0
 40
3000.0
 41
1.1666666667
 42
50.0
 43
0.0
 44
0.0
 50
0.0
 51
0.0
 71
     0
 72
  2000
 73
     1
 74
     3
 75
     0
 76
     0
 77
     0
 78
     0
281
     0
 65
     1
110
0.0
120
0.0
130
0.0
111
1.0
121
0.0
131
0.0
112
0.0
122
1.0
132
0.0
 79
     0
146
0.0
  0
ENDTAB
  0
TABLE
  2
LTYPE
  5
5
330
0
100
AcDbSymbolTable
 70
     6
  0
LTYPE
  5
14
330
5
100
AcDbSymbolTableRecord
100
AcDbLinetypeTableRecord
  2
ByBlock
 70
     0
  3

 72
    65
 73
     0
 40
0.0
  0
LTYPE
  5
15
330
5
100
AcDbSymbolTableRecord
100
AcDbLinetypeTableRecord
  2
ByLayer
 70
     0
  3

 72
    65
 73
     0
 40
0.0
  0
LTYPE
  5
16
330
5
100
AcDbSymbolTableRecord
100
AcDbLinetypeTableRecord
  2
Continuous
 70
     0
  3
Solid line
 72
    65
 73
     0
 40
0.0
  0
LTYPE
  5
6E
330
5
100
AcDbSymbolTableRecord
100
AcDbLinetypeTableRecord
  2
HIDDEN
 70
     0
  3
Hidden __ __ __ __ __ __ __ __ __ __ __ __ __ __
 72
    65
 73
     2
 40
1.905
 49
1.27
 74
     0
 49
-0.635
 74
     0
  0
LTYPE
  5
6F
330
5
100
AcDbSymbolTableRecord
100
AcDbLinetypeTableRecord
  2
PHANTOM
 70
     0
  3
Phantom ______  __  __  ______  __  __  ______
 72
    65
 73
     6
 40
12.7
 49
6.35
 74
     0
 49
-1.27
 74
     0
 49
1.27
 74
     0
 49
-1.27
 74
     0
 49
1.27
 74
     0
 49
-1.27
 74
     0
  0
LTYPE
  5
70
330
5
100
AcDbSymbolTableRecord
100
AcDbLinetypeTableRecord
  2
CENTER
 70
     0
  3
Center ____ _ ____ _ ____ _ ____ _ ____ _ ____
 72
    65
 73
     4
 40
10.16
 49
6.35
 74
     0
 49
-1.27
 74
     0
 49
1.27
 74
     0
 49
-1.27
 74
     0
  0
LTYPE
  5
71
330
5
100
AcDbSymbolTableRecord
100
AcDbLinetypeTableRecord
  2
CENTERX2
 70
     0
  3
Center (2x) ________  __  ________  __  _____
 72
    65
 73
     4
 40
20.32
 49
12.7
 74
     0
 49
-2.54
 74
     0
 49
2.54
 74
     0
 49
-2.54
 74
     0
  0
LTYPE
  5
72
330
5
100
AcDbSymbolTableRecord
100
AcDbLinetypeTableRecord
  2
DOT2
 70
     0
  3
Dot (.5x) ........................................
 72
    65
 73
     2
 40
0.635
 49
0.0
 74
     0
 49
-0.635
 74
     0
  0
ENDTAB
  0
TABLE
  2
LAYER
  5
2
330
0
100
AcDbSymbolTable
 70
     8
  0
LAYER
  5
10
330
2
100
AcDbSymbolTableRecord
100
AcDbLayerTableRecord
  2
0
 70
     0
 62
     7
  6
Continuous
370
    -3
390
F
  0
LAYER
  5
73
330
2
100
AcDbSymbolTableRecord
100
AcDbLayerTableRecord
  2
SLD-0
 70
     0
 62
     7
  6
Continuous
370
    25
390
F
  0
LAYER
  5
74
330
2
100
AcDbSymbolTableRecord
100
AcDbLayerTableRecord
  2
OSNOVA
 70
     0
 62
     5
  6
Continuous
370
    -3
390
F
  0
LAYER
  5
75
330
2
100
AcDbSymbolTableRecord
100
AcDbLayerTableRecord
  2
THIN_LINE
 70
     0
 62
     7
  6
Continuous
370
    25
390
F
  0
LAYER
  5
76
330
2
100
AcDbSymbolTableRecord
100
AcDbLayerTableRecord
  2
THICK_LINE
 70
     0
 62
     7
  6
Continuous
370
    25
390
F
  0
LAYER
  5
77
330
2
100
AcDbSymbolTableRecord
100
AcDbLayerTableRecord
  2
THIN_LIONE
 70
     0
 62
     7
  6
Continuous
370
    -3
390
F
  0
LAYER
  5
78
330
2
100
AcDbSymbolTableRecord
100
AcDbLayerTableRecord
  2
THICK_LIONE
 70
     0
 62
     7
  6
Continuous
370
    25
390
F
  0
LAYER
  5
79
330
2
100
AcDbSymbolTableRecord
100
AcDbLayerTableRecord
  2
ИЗМЕН_РАЗМЕР
 70
     0
 62
     1
  6
Continuous
370
    -3
390
F
  0
ENDTAB
  0
TABLE
  2
STYLE
  5
3
330
0
100
AcDbSymbolTable
 70
     1
  0
STYLE
  5
11
330
3
100
AcDbSymbolTableRecord
100
AcDbTextStyleTableRecord
  2
Standard
 70
     0
 40
0.0
 41
1.0
 50
0.0
 71
     0
 42
3.5
  3
txt
  4

  0
ENDTAB
  0
TABLE
  2
VIEW
  5
6
330
0
100
AcDbSymbolTable
 70
     0
  0
ENDTAB
  0
TABLE
  2
UCS
  5
7
330
0
100
AcDbSymbolTable
 70
     0
  0
ENDTAB
  0
TABLE
  2
APPID
  5
9
330
0
100
AcDbSymbolTable
 70
     1
  0
APPID
  5
12
330
9
100
AcDbSymbolTableRecord
100
AcDbRegAppTableRecord
  2
ACAD
 70
     0
  0
ENDTAB
  0
TABLE
  2
DIMSTYLE
  5
A
330
0
100
AcDbSymbolTable
 70
     1
100
AcDbDimStyleTable
  0
DIMSTYLE
105
27
330
A
100
AcDbSymbolTableRecord
100
AcDbDimStyleTableRecord
  2
ISO-25
 70
     0
 41
2.5
 42
0.625
 43
3.75
 44
1.25
 73
     0
 74
     0
 77
     1
 78
     8
140
2.5
141
2.5
143
0.0393700787
147
0.625
171
     3
172
     1
178
     0
271
     2
272
     2
274
     3
278
    44
283
     0
284
     8
340
11
  0
ENDTAB
  0
TABLE
  2
BLOCK_RECORD
  5
1
330
0
100
AcDbSymbolTable
 70
     1
  0
BLOCK_RECORD
  5
1F
330
1
100
AcDbSymbolTableRecord
100
AcDbBlockTableRecord
  2
*Model_Space
340
22
  0
BLOCK_RECORD
  5
1B
330
1
100
AcDbSymbolTableRecord
100
AcDbBlockTableRecord
  2
*Paper_Space
340
1E
  0
BLOCK_RECORD
  5
23
330
1
100
AcDbSymbolTableRecord
100
AcDbBlockTableRecord
  2
*Paper_Space0
340
26
  0
ENDTAB
  0
ENDSEC
  0
SECTION
  2
BLOCKS
  0
BLOCK
  5
20
330
1F
100
AcDbEntity
  8
0
100
AcDbBlockBegin
  2
*Model_Space
 70
     0
 10
0.0
 20
0.0
 30
0.0
  3
*Model_Space
  1

  0
ENDBLK
  5
21
330
1F
100
AcDbEntity
  8
0
100
AcDbBlockEnd
  0
BLOCK
  5
1C
330
1B
100
AcDbEntity
 67
     1
  8
0
100
AcDbBlockBegin
  2
*Paper_Space
 70
     0
 10
0.0
 20
0.0
 30
0.0
  3
*Paper_Space
  1

  0
ENDBLK
  5
1D
330
1B
100
AcDbEntity
 67
     1
  8
0
100
AcDbBlockEnd
  0
BLOCK
  5
24
330
23
100
AcDbEntity
  8
0
100
AcDbBlockBegin
  2
*Paper_Space0
 70
     0
 10
0.0
 20
0.0
 30
0.0
  3
*Paper_Space0
  1

  0
ENDBLK
  5
25
330
23
100
AcDbEntity
  8
0
100
AcDbBlockEnd
  0
ENDSEC
  0
SECTION
  2
ENTITIES
  0
LINE
  5
7A
330
1F
100
AcDbEntity
  8
0
  6
Continuous
 62
     7
370
    25
100
AcDbLine
 10
79.5179413004
 20
1769.5963884577
 30
0.0
 11
79.5179413004
 21
1770.9953114322
 31
0.0
  0
LINE
  5
7B
330
1F
100
AcDbEntity
  8
0
  6
Continuous
 62
     7
370
    25
100
AcDbLine
 10
2579.5179413004
 20
1770.9953114322
 30
0.0
 11
79.5179413004
 21
1770.9953114322
 31
0.0
  0
LINE
  5
7C
330
1F
100
AcDbEntity
  8
0
  6
Continuous
 62
     7
370
    25
100
AcDbLine
 10
2579.5179413004
 20
1769.5963884577
 30
0.0
 11
2579.5179413004
 21
1770.9953114322
 31
0.0
  0
LINE
  5
7D
330
1F
100
AcDbEntity
  8
0
  6
Continuous
 62
     7
370
    25
100
AcDbLine
 10
2579.5179413004
 20
1704.5963884577
 30
0.0
 11
79.5179413004
 21
1704.5963884577
 31
0.0
  0
LINE
  5
7E
330
1F
100
AcDbEntity
  8
0
  6
Continuous
 62
     7
370
    25
100
AcDbLine
 10
79.5179413004
 20
1769.5963884577
 30
0.0
 11
79.5179413004
 21
1707.5963884577
 31
0.0
  0
LINE
  5
7F
330
1F
100
AcDbEntity
  8
0
  6
Continuous
 62
     7
370
    25
100
AcDbLine
 10
145.5179413004
 20
1719.0963884577
 30
0.0
 11
163.5179413004
 21
1719.0963884577
 31
0.0
  0
ARC
  5
80
330
1F
100
AcDbEntity
  8
0
  6
Continuous
 62
     7
370
    25
100
AcDbCircle
 10
2545.5179413004
 20
1722.5963884577
 30
0.0
 40
3.500000000000227
100
AcDbArc
 50
90.0
 51
270.0
  0
LINE
  5
81
330
1F
100
AcDbEntity
  8
0
  6
Continuous
 62
     7
370
    25
100
AcDbLine
 10
2563.5179413004
 20
1726.0963884577
 30
0.0
 11
2545.5179413004
 21
1726.0963884577
 31
0.0
  0
ARC
  5
82
330
1F
100
AcDbEntity
  8
0
  6
Continuous
 62
     7
370
    25
100
AcDbCircle
 10
2495.5179413004
 20
1722.5963884577
 30
0.0
 40
3.5
100
AcDbArc
 50
90.0
 51
270.0
  0
LINE
  5
83
330
1F
100
AcDbEntity
  8
0
  6
Continuous
 62
     7
370
    25
100
AcDbLine
 10
2495.5179413004
 20
1719.0963884577
 30
0.0
 11
2513.5179413004
 21
1719.0963884577
 31
0.0
  0
ARC
  5
84
330
1F
100
AcDbEntity
  8
0
  6
Continuous
 62
     7
370
    25
100
AcDbCircle
 10
2513.5179413004
 20
1722.5963884577
 30
0.0
 40
3.5
100
AcDbArc
 50
270.0
 51
90.0
  0
LINE
  5
85
330
1F
100
AcDbEntity
  8
0
  6
Continuous
 62
     7
370
    25
100
AcDbLine
 10
2513.5179413004
 20
1726.0963884577
 30
0.0
 11
2495.5179413004
 21
1726.0963884577
 31
0.0
  0
ARC
  5
86
330
1F
100
AcDbEntity
  8
0
  6
Continuous
 62
     7
370
    25
100
AcDbCircle
 10
113.5179413004
 20
1722.5963884577
 30
0.0
 40
3.500000000000227
100
AcDbArc
 50
270.0
 51
90.0
  0
LINE
  5
87
330
1F
100
AcDbEntity
  8
0
  6
Continuous
 62
     7
370
    25
100
AcDbLine
 10
113.5179413004
 20
1726.0963884577
 30
0.0
 11
95.5179413004
 21
1726.0963884577
 31
0.0
  0
ARC
  5
88
330
1F
100
AcDbEntity
  8
0
  6
Continuous
 62
     7
370
    25
100
AcDbCircle
 10
95.5179413004
 20
1722.5963884577
 30
0.0
 40
3.500000000000227
100
AcDbArc
 50
90.0
 51
270.0
  0
LINE
  5
89
330
1F
100
AcDbEntity
  8
0
  6
Continuous
 62
     7
370
    25
100
AcDbLine
 10
95.5179413004
 20
1719.0963884577
 30
0.0
 11
113.5179413004
 21
1719.0963884577
 31
0.0
  0
LINE
  5
8A
330
1F
100
AcDbEntity
  8
0
  6
Continuous
 62
     7
370
    25
100
AcDbLine
 10
163.5179413004
 20
1751.0963884577
 30
0.0
 11
145.5179413004
 21
1751.0963884577
 31
0.0
  0
ARC
  5
8B
330
1F
100
AcDbEntity
  8
0
  6
Continuous
 62
     7
370
    25
100
AcDbCircle
 10
145.5179413004
 20
1747.5963884577
 30
0.0
 40
3.499999999999773
100
AcDbArc
 50
90.0
 51
270.0
  0
LINE
  5
8C
330
1F
100
AcDbEntity
  8
0
  6
Continuous
 62
     7
370
    25
100
AcDbLine
 10
145.5179413004
 20
1744.0963884577
 30
0.0
 11
163.5179413004
 21
1744.0963884577
 31
0.0
  0
ARC
  5
8D
330
1F
100
AcDbEntity
  8
0
  6
Continuous
 62
     7
370
    25
100
AcDbCircle
 10
2545.5179413004
 20
1747.5963884577
 30
0.0
 40
3.5
100
AcDbArc
 50
90.0
 51
270.0
  0
LINE
  5
8E
330
1F
100
AcDbEntity
  8
0
  6
Continuous
 62
     7
370
    25
100
AcDbLine
 10
2545.5179413004
 20
1744.0963884577
 30
0.0
 11
2563.5179413004
 21
1744.0963884577
 31
0.0
  0
ARC
  5
8F
330
1F
100
AcDbEntity
  8
0
  6
Continuous
 62
     7
370
    25
100
AcDbCircle
 10
2563.5179413004
 20
1747.5963884577
 30
0.0
 40
3.5
100
AcDbArc
 50
270.0
 51
90.0
  0
LINE
  5
90
330
1F
100
AcDbEntity
  8
0
  6
Continuous
 62
     7
370
    25
100
AcDbLine
 10
2563.5179413004
 20
1751.0963884577
 30
0.0
 11
2545.5179413004
 21
1751.0963884577
 31
0.0
  0
ARC
  5
91
330
1F
100
AcDbEntity
  8
0
  6
Continuous
 62
     7
370
    25
100
AcDbCircle
 10
2513.5179413004
 20
1747.5963884577
 30
0.0
 40
3.499999999999773
100
AcDbArc
 50
270.0
 51
90.0
  0
LINE
  5
92
330
1F
100
AcDbEntity
  8
0
  6
Continuous
 62
     7
370
    25
100
AcDbLine
 10
2513.5179413004
 20
1751.0963884577
 30
0.0
 11
2495.5179413004
 21
1751.0963884577
 31
0.0
  0
ARC
  5
93
330
1F
100
AcDbEntity
  8
0
  6
Continuous
 62
     7
370
    25
100
AcDbCircle
 10
113.5179413004
 20
1747.5963884577
 30
0.0
 40
3.5
100
AcDbArc
 50
270.0
 51
90.0
  0
LINE
  5
94
330
1F
100
AcDbEntity
  8
0
  6
Continuous
 62
     7
370
    25
100
AcDbLine
 10
113.5179413004
 20
1751.0963884577
 30
0.0
 11
95.5179413004
 21
1751.0963884577
 31
0.0
  0
ARC
  5
95
330
1F
100
AcDbEntity
  8
0
  6
Continuous
 62
     7
370
    25
100
AcDbCircle
 10
95.5179413004
 20
1747.5963884577
 30
0.0
 40
3.5
100
AcDbArc
 50
90.0
 51
270.0
  0
LINE
  5
96
330
1F
100
AcDbEntity
  8
0
  6
Continuous
 62
     7
370
    25
100
AcDbLine
 10
95.5179413004
 20
1744.0963884577
 30
0.0
 11
113.5179413004
 21
1744.0963884577
 31
0.0
  0
LINE
  5
97
330
1F
100
AcDbEntity
  8
0
  6
Continuous
 62
     7
370
    25
100
AcDbLine
 10
2545.5179413004
 20
1719.0963884577
 30
0.0
 11
2563.5179413004
 21
1719.0963884577
 31
0.0
  0
ARC
  5
98
330
1F
100
AcDbEntity
  8
0
  6
Continuous
 62
     7
370
    25
100
AcDbCircle
 10
2563.5179413004
 20
1722.5963884577
 30
0.0
 40
3.500000000000227
100
AcDbArc
 50
270.0
 51
90.0
  0
ARC
  5
99
330
1F
100
AcDbEntity
  8
0
  6
Continuous
 62
     7
370
    25
100
AcDbCircle
 10
2495.5179413004
 20
1747.5963884577
 30
0.0
 40
3.499999999999773
100
AcDbArc
 50
90.0
 51
270.0
  0
LINE
  5
9A
330
1F
100
AcDbEntity
  8
0
  6
Continuous
 62
     7
370
    25
100
AcDbLine
 10
2495.5179413004
 20
1744.0963884577
 30
0.0
 11
2513.5179413004
 21
1744.0963884577
 31
0.0
  0
LINE
  5
9B
330
1F
100
AcDbEntity
  8
0
  6
Continuous
 62
     7
370
    25
100
AcDbLine
 10
79.5179413004
 20
1704.5963884577
 30
0.0
 11
79.5179413004
 21
1707.5963884577
 31
0.0
  0
LINE
  5
9C
330
1F
100
AcDbEntity
  8
0
  6
Continuous
 62
     7
370
    25
100
AcDbLine
 10
2579.5179413004
 20
1769.5963884577
 30
0.0
 11
2579.5179413004
 21
1707.5963884577
 31
0.0
  0
LINE
  5
9D
330
1F
100
AcDbEntity
  8
0
  6
Continuous
 62
     7
370
    25
100
AcDbLine
 10
2579.5179413004
 20
1704.5963884577
 30
0.0
 11
2579.5179413004
 21
1707.5963884577
 31
0.0
  0
ARC
  5
9E
330
1F
100
AcDbEntity
  8
0
  6
Continuous
 62
     7
370
    25
100
AcDbCircle
 10
163.5179413004
 20
1722.5963884577
 30
0.0
 40
3.5
100
AcDbArc
 50
270.0
 51
90.0
  0
LINE
  5
9F
330
1F
100
AcDbEntity
  8
0
  6
Continuous
 62
     7
370
    25
100
AcDbLine
 10
163.5179413004
 20
1726.0963884577
 30
0.0
 11
145.5179413004
 21
1726.0963884577
 31
0.0
  0
ARC
  5
A0
330
1F
100
AcDbEntity
  8
0
  6
Continuous
 62
     7
370
    25
100
AcDbCircle
 10
145.5179413004
 20
1722.5963884577
 30
0.0
 40
3.5
100
AcDbArc
 50
90.0
 51
270.0
  0
ARC
  5
A1
330
1F
100
AcDbEntity
  8
0
  6
Continuous
 62
     7
370
    25
100
AcDbCircle
 10
163.5179413004
 20
1747.5963884577
 30
0.0
 40
3.499999999999773
100
AcDbArc
 50
270.0
 51
90.0
  0
LINE
  5
A2
330
1F
100
AcDbEntity
  8
0
  6
Continuous
 62
     7
370
    25
100
AcDbLine
 10
2579.5179413004
 20
1771.894521787
 30
0.0
 11
2579.5179413004
 21
1775.3918181146
 31
0.0
  0
LINE
  5
A3
330
1F
100
AcDbEntity
  8
0
  6
Continuous
 62
     7
370
    25
100
AcDbLine
 10
2579.5179413004
 20
1770.9953114322
 30
0.0
 11
2579.5179413004
 21
1771.894521787
 31
0.0
  0
LINE
  5
A4
330
1F
100
AcDbEntity
  8
0
  6
Continuous
 62
     7
370
    25
100
AcDbLine
 10
79.5179413004
 20
1775.3918181146
 30
0.0
 11
79.5179413004
 21
1771.894521787
 31
0.0
  0
LINE
  5
A5
330
1F
100
AcDbEntity
  8
0
  6
Continuous
 62
     7
370
    25
100
AcDbLine
 10
79.5179413004
 20
1775.3918181146
 30
0.0
 11
2579.5179413004
 21
1775.3918181146
 31
0.0
  0
LINE
  5
A6
330
1F
100
AcDbEntity
  8
0
  6
Continuous
 62
     7
370
    25
100
AcDbLine
 10
79.5179413004
 20
1770.9953114322
 30
0.0
 11
79.5179413004
 21
1771.894521787
 31
0.0
  0
LINE
  5
A7
330
1F
100
AcDbEntity
  8
0
  6
Continuous
 62
     7
370
    25
100
AcDbLine
 10
79.5179413004
 20
1784.5626961158
 30
0.0
 11
79.5179413004
 21
1780.4443201968
 31
0.0
  0
LINE
  5
A8
330
1F
100
AcDbEntity
  8
0
  6
Continuous
 62
     7
370
    25
100
AcDbLine
 10
2579.5179413004
 20
1784.5626961158
 30
0.0
 11
79.5179413004
 21
1784.5626961158
 31
0.0
  0
LINE
  5
A9
330
1F
100
AcDbEntity
  8
0
  6
Continuous
 62
     7
370
    25
100
AcDbLine
 10
2579.5179413004
 20
1780.4443201968
 30
0.0
 11
2579.5179413004
 21
1784.5626961158
 31
0.0
  0
LINE
  5
AA
330
1F
100
AcDbEntity
  8
0
  6
Continuous
 62
     7
370
    25
100
AcDbLine
 10
79.5179413004
 20
1780.4443201968
 30
0.0
 11
2579.5179413004
 21
1780.4443201968
 31
0.0
  0
LINE
  5
AB
330
1F
100
AcDbEntity
  8
0
  6
Continuous
 62
     7
370
    25
100
AcDbLine
 10
79.5179413004
 20
1780.4443201968
 30
0.0
 11
79.5179413004
 21
1775.3918181146
 31
0.0
  0
LINE
  5
AC
330
1F
100
AcDbEntity
  8
0
  6
Continuous
 62
     7
370
    25
100
AcDbLine
 10
2579.5179413004
 20
1780.4443201968
 30
0.0
 11
2579.5179413004
 21
1775.3918181146
 31
0.0
  0
LINE
  5
AD
330
1F
100
AcDbEntity
  8
0
  6
Continuous
 62
     7
370
    25
100
AcDbLine
 10
79.5179413004
 20
2395.7434774376
 30
0.0
 11
79.5179413004
 21
2398.7434774376
 31
0.0
  0
LINE
  5
AE
330
1F
100
AcDbEntity
  8
0
  6
Continuous
 62
     7
370
    25
100
AcDbLine
 10
2579.5179413004
 20
2398.7434774376
 30
0.0
 11
79.5179413004
 21
2398.7434774376
 31
0.0
  0
LINE
  5
AF
330
1F
100
AcDbEntity
  8
0
  6
Continuous
 62
     7
370
    25
100
AcDbLine
 10
2579.5179413004
 20
2395.7434774376
 30
0.0
 11
2579.5179413004
 21
2398.7434774376
 31
0.0
  0
LINE
  5
B0
330
1F
100
AcDbEntity
  8
0
  6
Continuous
 62
     7
370
    25
100
AcDbLine
 10
2579.5179413004
 20
2395.7434774376
 30
0.0
 11
2579.5179413004
 21
2251.7434774376
 31
0.0
  0
LINE
  5
B1
330
1F
100
AcDbEntity
  8
0
  6
Continuous
 62
     7
370
    25
100
AcDbLine
 10
2579.5179413004
 20
2248.7434774376
 30
0.0
 11
79.5179413004
 21
2248.7434774376
 31
0.0
  0
LINE
  5
B2
330
1F
100
AcDbEntity
  8
0
  6
Continuous
 62
     7
370
    25
100
AcDbLine
 10
79.5179413004
 20
2248.7434774376
 30
0.0
 11
79.5179413004
 21
2251.7434774376
 31
0.0
  0
LINE
  5
B3
330
1F
100
AcDbEntity
  8
0
  6
Continuous
 62
     7
370
    25
100
AcDbLine
 10
79.5179413004
 20
2395.7434774376
 30
0.0
 11
79.5179413004
 21
2251.7434774376
 31
0.0
  0
ARC
  5
B4
330
1F
100
AcDbEntity
  8
0
  6
Continuous
 62
     7
370
    25
100
AcDbCircle
 10
2558.5179413004
 20
2327.7434774376
 30
0.0
 40
1.0
100
AcDbArc
 50
90.0
 51
180.0
  0
LINE
  5
B5
330
1F
100
AcDbEntity
  8
0
  6
Continuous
 62
     7
370
    25
100
AcDbLine
 10
2557.5179413004
 20
2319.7434774376
 30
0.0
 11
2557.5179413004
 21
2327.7434774376
 31
0.0
  0
ARC
  5
B6
330
1F
100
AcDbEntity
  8
0
  6
Continuous
 62
     7
370
    25
100
AcDbCircle
 10
2558.5179413004
 20
2319.7434774376
 30
0.0
 40
1.0
100
AcDbArc
 50
180.0
 51
270.0
  0
LINE
  5
B7
330
1F
100
AcDbEntity
  8
0
  6
Continuous
 62
     7
370
    25
100
AcDbLine
 10
2563.5179413004
 20
2318.7434774376
 30
0.0
 11
2558.5179413004
 21
2318.7434774376
 31
0.0
  0
ARC
  5
B8
330
1F
100
AcDbEntity
  8
0
  6
Continuous
 62
     7
370
    25
100
AcDbCircle
 10
2563.5179413004
 20
2319.7434774376
 30
0.0
 40
1.0
100
AcDbArc
 50
270.0
 51
0.0
  0
LINE
  5
B9
330
1F
100
AcDbEntity
  8
0
  6
Continuous
 62
     7
370
    25
100
AcDbLine
 10
2564.5179413004
 20
2327.7434774376
 30
0.0
 11
2564.5179413004
 21
2319.7434774376
 31
0.0
  0
ARC
  5
BA
330
1F
100
AcDbEntity
  8
0
  6
Continuous
 62
     7
370
    25
100
AcDbCircle
 10
2563.5179413004
 20
2327.7434774376
 30
0.0
 40
1.0
100
AcDbArc
 50
0.0
 51
90.0
  0
LINE
  5
BB
330
1F
100
AcDbEntity
  8
0
  6
Continuous
 62
     7
370
    25
100
AcDbLine
 10
2558.5179413004
 20
2328.7434774376
 30
0.0
 11
2563.5179413004
 21
2328.7434774376
 31
0.0
  0
ARC
  5
BC
330
1F
100
AcDbEntity
  8
0
  6
Continuous
 62
     7
370
    25
100
AcDbCircle
 10
95.5179413004
 20
2327.7434774376
 30
0.0
 40
1.0
100
AcDbArc
 50
90.0
 51
180.0
  0
LINE
  5
BD
330
1F
100
AcDbEntity
  8
0
  6
Continuous
 62
     7
370
    25
100
AcDbLine
 10
94.5179413004
 20
2319.7434774376
 30
0.0
 11
94.5179413004
 21
2327.7434774376
 31
0.0
  0
ARC
  5
BE
330
1F
100
AcDbEntity
  8
0
  6
Continuous
 62
     7
370
    25
100
AcDbCircle
 10
95.5179413004
 20
2319.7434774376
 30
0.0
 40
1.0
100
AcDbArc
 50
180.0
 51
270.0
  0
LINE
  5
BF
330
1F
100
AcDbEntity
  8
0
  6
Continuous
 62
     7
370
    25
100
AcDbLine
 10
100.5179413004
 20
2318.7434774376
 30
0.0
 11
95.5179413004
 21
2318.7434774376
 31
0.0
  0
ARC
  5
C0
330
1F
100
AcDbEntity
  8
0
  6
Continuous
 62
     7
370
    25
100
AcDbCircle
 10
100.5179413004
 20
2319.7434774376
 30
0.0
 40
1.0
100
AcDbArc
 50
270.0
 51
0.0
  0
LINE
  5
C1
330
1F
100
AcDbEntity
  8
0
  6
Continuous
 62
     7
370
    25
100
AcDbLine
 10
101.5179413004
 20
2327.7434774376
 30
0.0
 11
101.5179413004
 21
2319.7434774376
 31
0.0
  0
ARC
  5
C2
330
1F
100
AcDbEntity
  8
0
  6
Continuous
 62
     7
370
    25
100
AcDbCircle
 10
100.5179413004
 20
2327.7434774376
 30
0.0
 40
1.0
100
AcDbArc
 50
0.0
 51
90.0
  0
LINE
  5
C3
330
1F
100
AcDbEntity
  8
0
  6
Continuous
 62
     7
370
    25
100
AcDbLine
 10
95.5179413004
 20
2328.7434774376
 30
0.0
 11
100.5179413004
 21
2328.7434774376
 31
0.0
  0
ARC
  5
C4
330
1F
100
AcDbEntity
  8
0
  6
Continuous
 62
     7
370
    25
100
AcDbCircle
 10
113.5179413004
 20
2261.2434774376
 30
0.0
 40
3.500000000000455
100
AcDbArc
 50
270.0
 51
90.0
  0
LINE
  5
C5
330
1F
100
AcDbEntity
  8
0
  6
Continuous
 62
     7
370
    25
100
AcDbLine
 10
95.5179413004
 20
2264.7434774376
 30
0.0
 11
113.5179413004
 21
2264.7434774376
 31
0.0
  0
ARC
  5
C6
330
1F
100
AcDbEntity
  8
0
  6
Continuous
 62
     7
370
    25
100
AcDbCircle
 10
95.5179413004
 20
2261.2434774376
 30
0.0
 40
3.500000000000455
100
AcDbArc
 50
90.0
 51
270.0
  0
LINE
  5
C7
330
1F
100
AcDbEntity
  8
0
  6
Continuous
 62
     7
370
    25
100
AcDbLine
 10
113.5179413004
 20
2257.7434774376
 30
0.0
 11
95.5179413004
 21
2257.7434774376
 31
0.0
  0
ARC
  5
C8
330
1F
100
AcDbEntity
  8
0
  6
Continuous
 62
     7
370
    25
100
AcDbCircle
 10
2495.5179413004
 20
2261.2434774376
 30
0.0
 40
3.500000000000455
100
AcDbArc
 50
90.0
 51
270.0
  0
LINE
  5
C9
330
1F
100
AcDbEntity
  8
0
  6
Continuous
 62
     7
370
    25
100
AcDbLine
 10
2513.5179413004
 20
2257.7434774376
 30
0.0
 11
2495.5179413004
 21
2257.7434774376
 31
0.0
  0
ARC
  5
CA
330
1F
100
AcDbEntity
  8
0
  6
Continuous
 62
     7
370
    25
100
AcDbCircle
 10
2513.5179413004
 20
2261.2434774376
 30
0.0
 40
3.500000000000455
100
AcDbArc
 50
270.0
 51
90.0
  0
LINE
  5
CB
330
1F
100
AcDbEntity
  8
0
  6
Continuous
 62
     7
370
    25
100
AcDbLine
 10
2495.5179413004
 20
2264.7434774376
 30
0.0
 11
2513.5179413004
 21
2264.7434774376
 31
0.0
  0
ARC
  5
CC
330
1F
100
AcDbEntity
  8
0
  6
Continuous
 62
     7
370
    25
100
AcDbCircle
 10
2545.5179413004
 20
2386.2434774376
 30
0.0
 40
3.500000000000455
100
AcDbArc
 50
90.0
 51
270.0
  0
LINE
  5
CD
330
1F
100
AcDbEntity
  8
0
  6
Continuous
 62
     7
370
    25
100
AcDbLine
 10
2563.5179413004
 20
2382.7434774376
 30
0.0
 11
2545.5179413004
 21
2382.7434774376
 31
0.0
  0
ARC
  5
CE
330
1F
100
AcDbEntity
  8
0
  6
Continuous
 62
     7
370
    25
100
AcDbCircle
 10
2563.5179413004
 20
2386.2434774376
 30
0.0
 40
3.500000000000455
100
AcDbArc
 50
270.0
 51
90.0
  0
LINE
  5
CF
330
1F
100
AcDbEntity
  8
0
  6
Continuous
 62
     7
370
    25
100
AcDbLine
 10
2545.5179413004
 20
2389.7434774376
 30
0.0
 11
2563.5179413004
 21
2389.7434774376
 31
0.0
  0
ARC
  5
D0
330
1F
100
AcDbEntity
  8
0
  6
Continuous
 62
     7
370
    25
100
AcDbCircle
 10
2495.5179413004
 20
2386.2434774376
 30
0.0
 40
3.500000000000455
100
AcDbArc
 50
90.0
 51
270.0
  0
LINE
  5
D1
330
1F
100
AcDbEntity
  8
0
  6
Continuous
 62
     7
370
    25
100
AcDbLine
 10
2513.5179413004
 20
2382.7434774376
 30
0.0
 11
2495.5179413004
 21
2382.7434774376
 31
0.0
  0
ARC
  5
D2
330
1F
100
AcDbEntity
  8
0
  6
Continuous
 62
     7
370
    25
100
AcDbCircle
 10
2513.5179413004
 20
2386.2434774376
 30
0.0
 40
3.500000000000455
100
AcDbArc
 50
270.0
 51
90.0
  0
LINE
  5
D3
330
1F
100
AcDbEntity
  8
0
  6
Continuous
 62
     7
370
    25
100
AcDbLine
 10
2495.5179413004
 20
2389.7434774376
 30
0.0
 11
2513.5179413004
 21
2389.7434774376
 31
0.0
  0
ARC
  5
D4
330
1F
100
AcDbEntity
  8
0
  6
Continuous
 62
     7
370
    25
100
AcDbCircle
 10
163.5179413004
 20
2261.2434774376
 30
0.0
 40
3.500000000000455
100
AcDbArc
 50
270.0
 51
90.0
  0
LINE
  5
D5
330
1F
100
AcDbEntity
  8
0
  6
Continuous
 62
     7
370
    25
100
AcDbLine
 10
145.5179413004
 20
2264.7434774376
 30
0.0
 11
163.5179413004
 21
2264.7434774376
 31
0.0
  0
ARC
  5
D6
330
1F
100
AcDbEntity
  8
0
  6
Continuous
 62
     7
370
    25
100
AcDbCircle
 10
145.5179413004
 20
2261.2434774376
 30
0.0
 40
3.500000000000455
100
AcDbArc
 50
90.0
 51
270.0
  0
LINE
  5
D7
330
1F
100
AcDbEntity
  8
0
  6
Continuous
 62
     7
370
    25
100
AcDbLine
 10
163.5179413004
 20
2257.7434774376
 30
0.0
 11
145.5179413004
 21
2257.7434774376
 31
0.0
  0
ARC
  5
D8
330
1F
100
AcDbEntity
  8
0
  6
Continuous
 62
     7
370
    25
100
AcDbCircle
 10
113.5179413004
 20
2386.2434774376
 30
0.0
 40
3.500000000000455
100
AcDbArc
 50
270.0
 51
90.0
  0
LINE
  5
D9
330
1F
100
AcDbEntity
  8
0
  6
Continuous
 62
     7
370
    25
100
AcDbLine
 10
95.5179413004
 20
2389.7434774376
 30
0.0
 11
113.5179413004
 21
2389.7434774376
 31
0.0
  0
ARC
  5
DA
330
1F
100
AcDbEntity
  8
0
  6
Continuous
 62
     7
370
    25
100
AcDbCircle
 10
95.5179413004
 20
2386.2434774376
 30
0.0
 40
3.500000000000455
100
AcDbArc
 50
90.0
 51
270.0
  0
LINE
  5
DB
330
1F
100
AcDbEntity
  8
0
  6
Continuous
 62
     7
370
    25
100
AcDbLine
 10
113.5179413004
 20
2382.7434774376
 30
0.0
 11
95.5179413004
 21
2382.7434774376
 31
0.0
  0
ARC
  5
DC
330
1F
100
AcDbEntity
  8
0
  6
Continuous
 62
     7
370
    25
100
AcDbCircle
 10
163.5179413004
 20
2386.2434774376
 30
0.0
 40
3.500000000000455
100
AcDbArc
 50
270.0
 51
90.0
  0
LINE
  5
DD
330
1F
100
AcDbEntity
  8
0
  6
Continuous
 62
     7
370
    25
100
AcDbLine
 10
145.5179413004
 20
2389.7434774376
 30
0.0
 11
163.5179413004
 21
2389.7434774376
 31
0.0
  0
ARC
  5
DE
330
1F
100
AcDbEntity
  8
0
  6
Continuous
 62
     7
370
    25
100
AcDbCircle
 10
145.5179413004
 20
2386.2434774376
 30
0.0
 40
3.500000000000455
100
AcDbArc
 50
90.0
 51
270.0
  0
LINE
  5
DF
330
1F
100
AcDbEntity
  8
0
  6
Continuous
 62
     7
370
    25
100
AcDbLine
 10
163.5179413004
 20
2382.7434774376
 30
0.0
 11
145.5179413004
 21
2382.7434774376
 31
0.0
  0
ARC
  5
E0
330
1F
100
AcDbEntity
  8
0
  6
Continuous
 62
     7
370
    25
100
AcDbCircle
 10
2545.5179413004
 20
2261.2434774376
 30
0.0
 40
3.500000000000455
100
AcDbArc
 50
90.0
 51
270.0
  0
LINE
  5
E1
330
1F
100
AcDbEntity
  8
0
  6
Continuous
 62
     7
370
    25
100
AcDbLine
 10
2563.5179413004
 20
2257.7434774376
 30
0.0
 11
2545.5179413004
 21
2257.7434774376
 31
0.0
  0
ARC
  5
E2
330
1F
100
AcDbEntity
  8
0
  6
Continuous
 62
     7
370
    25
100
AcDbCircle
 10
2563.5179413004
 20
2261.2434774376
 30
0.0
 40
3.500000000000455
100
AcDbArc
 50
270.0
 51
90.0
  0
LINE
  5
E3
330
1F
100
AcDbEntity
  8
0
  6
Continuous
 62
     7
370
    25
100
AcDbLine
 10
2545.5179413004
 20
2264.7434774376
 30
0.0
 11
2563.5179413004
 21
2264.7434774376
 31
0.0
  0
LINE
  5
E4
330
1F
100
AcDbEntity
  8
0
  6
Continuous
 62
     7
370
    25
100
AcDbLine
 10
2579.5179413004
 20
2248.7434774376
 30
0.0
 11
2579.5179413004
 21
2251.7434774376
 31
0.0
  0
LINE
  5
E5
330
1F
100
AcDbEntity
  8
0
  6
Continuous
 62
     7
370
    25
100
AcDbLine
 10
2565.9674310432
 20
2258.7434774376
 30
0.0
 11
2543.0684515576
 21
2258.7434774376
 31
0.0
  0
LINE
  5
E6
330
1F
100
AcDbEntity
  8
0
  6
Continuous
 62
     7
370
    25
100
AcDbLine
 10
2515.9674310432
 20
2258.7434774376
 30
0.0
 11
2493.0684515576
 21
2258.7434774376
 31
0.0
  0
LINE
  5
E7
330
1F
100
AcDbEntity
  8
0
  6
Continuous
 62
     7
370
    25
100
AcDbLine
 10
165.9674310432
 20
2258.7434774376
 30
0.0
 11
143.0684515576
 21
2258.7434774376
 31
0.0
  0
LINE
  5
E8
330
1F
100
AcDbEntity
  8
0
  6
Continuous
 62
     7
370
    25
100
AcDbLine
 10
115.9674310432
 20
2258.7434774376
 30
0.0
 11
93.0684515576
 21
2258.7434774376
 31
0.0
  0
LINE
  5
E9
330
1F
100
AcDbEntity
  8
0
  6
Continuous
 62
     7
370
    25
100
AcDbLine
 10
2565.9674310432
 20
2388.7434774376
 30
0.0
 11
2543.0684515576
 21
2388.7434774376
 31
0.0
  0
LINE
  5
EA
330
1F
100
AcDbEntity
  8
0
  6
Continuous
 62
     7
370
    25
100
AcDbLine
 10
2515.9674310432
 20
2388.7434774376
 30
0.0
 11
2493.0684515576
 21
2388.7434774376
 31
0.0
  0
LINE
  5
EB
330
1F
100
AcDbEntity
  8
0
  6
Continuous
 62
     7
370
    25
100
AcDbLine
 10
165.9674310432
 20
2388.7434774376
 30
0.0
 11
143.0684515576
 21
2388.7434774376
 31
0.0
  0
LINE
  5
EC
330
1F
100
AcDbEntity
  8
0
  6
Continuous
 62
     7
370
    25
100
AcDbLine
 10
115.9674310432
 20
2388.7434774376
 30
0.0
 11
93.0684515576
 21
2388.7434774376
 31
0.0
  0
LINE
  5
ED
330
1F
100
AcDbEntity
  8
0
  6
Continuous
 62
     7
370
    25
100
AcDbLine
 10
2988.8214942023
 20
1704.5963884577
 30
0.0
 11
2991.8214942023
 21
1704.5963884577
 31
0.0
  0
LINE
  5
EE
330
1F
100
AcDbEntity
  8
0
  6
Continuous
 62
     7
370
    25
100
AcDbLine
 10
2988.8214942023
 20
1707.5963884577
 30
0.0
 11
2988.8214942023
 21
1704.5963884577
 31
0.0
  0
LINE
  5
EF
330
1F
100
AcDbEntity
  8
0
  6
Continuous
 62
     7
370
    25
100
AcDbLine
 10
2990.8214942023
 20
1707.5963884577
 30
0.0
 11
2990.8214942023
 21
1706.5963884577
 31
0.0
  0
LINE
  5
F0
330
1F
100
AcDbEntity
  8
0
  6
Continuous
 62
     7
370
    25
100
AcDbLine
 10
2990.8214942023
 20
1706.5963884577
 30
0.0
 11
2991.8214942023
 21
1706.5963884577
 31
0.0
  0
LINE
  5
F1
330
1F
100
AcDbEntity
  8
0
  6
Continuous
 62
     7
370
    25
100
AcDbLine
 10
2990.8214942023
 20
1707.5963884577
 30
0.0
 11
2990.8214942023
 21
1769.5963884577
 31
0.0
  0
LINE
  5
F2
330
1F
100
AcDbEntity
  8
0
  6
Continuous
 62
     7
370
    25
100
AcDbLine
 10
2988.8214942023
 20
1707.5963884577
 30
0.0
 11
2988.8214942023
 21
1769.5963884577
 31
0.0
  0
LINE
  5
F3
330
1F
100
AcDbEntity
  8
0
  6
Continuous
 62
     7
370
    25
100
AcDbLine
 10
2988.8214942023
 20
1770.9953114322
 30
0.0
 11
2988.8214942023
 21
1769.5963884577
 31
0.0
  0
LINE
  5
F4
330
1F
100
AcDbEntity
  8
0
  6
Continuous
 62
     7
370
    25
100
AcDbLine
 10
2991.1787065926
 20
1770.3624329008
 30
0.0
 11
2990.8214942023
 21
1770.0626961158
 31
0.0
  0
LINE
  5
F5
330
1F
100
AcDbEntity
  8
0
  6
Continuous
 62
     7
370
    25
100
AcDbLine
 10
2990.8214942023
 20
1770.0626961158
 30
0.0
 11
2990.8214942023
 21
1769.5963884577
 31
0.0
  0
LINE
  5
F6
330
1F
100
AcDbEntity
  8
0
  6
Continuous
 62
     7
370
    25
100
AcDbLine
 10
2989.8931313732
 20
1771.894521787
 30
0.0
 11
2988.8214942023
 21
1770.9953114322
 31
0.0
  0
LINE
  5
F7
330
1F
100
AcDbEntity
  8
0
  6
Continuous
 62
     7
370
    25
100
AcDbLine
 10
3138.8214942023
 20
1704.5963884577
 30
0.0
 11
3138.8214942023
 21
1707.5963884577
 31
0.0
  0
LINE
  5
F8
330
1F
100
AcDbEntity
  8
0
  6
Continuous
 62
     7
370
    25
100
AcDbLine
 10
3135.8214942023
 20
1704.5963884577
 30
0.0
 11
3138.8214942023
 21
1704.5963884577
 31
0.0
  0
LINE
  5
F9
330
1F
100
AcDbEntity
  8
0
  6
Continuous
 62
     7
370
    25
100
AcDbLine
 10
3135.8214942023
 20
1706.5963884577
 30
0.0
 11
3136.8214942023
 21
1706.5963884577
 31
0.0
  0
LINE
  5
FA
330
1F
100
AcDbEntity
  8
0
  6
Continuous
 62
     7
370
    25
100
AcDbLine
 10
3136.8214942023
 20
1706.5963884577
 30
0.0
 11
3136.8214942023
 21
1707.5963884577
 31
0.0
  0
LINE
  5
FB
330
1F
100
AcDbEntity
  8
0
  6
Continuous
 62
     7
370
    25
100
AcDbLine
 10
3135.8214942023
 20
1706.5963884577
 30
0.0
 11
2991.8214942023
 21
1706.5963884577
 31
0.0
  0
LINE
  5
FC
330
1F
100
AcDbEntity
  8
0
  6
Continuous
 62
     7
370
    25
100
AcDbLine
 10
3135.8214942023
 20
1704.5963884577
 30
0.0
 11
2991.8214942023
 21
1704.5963884577
 31
0.0
  0
LINE
  5
FD
330
1F
100
AcDbEntity
  8
0
  6
Continuous
 62
     7
370
    25
100
AcDbLine
 10
3138.8214942023
 20
1770.9953114322
 30
0.0
 11
3137.7498570314
 21
1771.894521787
 31
0.0
  0
LINE
  5
FE
330
1F
100
AcDbEntity
  8
0
  6
Continuous
 62
     7
370
    25
100
AcDbLine
 10
3136.8214942023
 20
1770.0626961158
 30
0.0
 11
3136.464281812
 21
1770.3624329008
 31
0.0
  0
LINE
  5
FF
330
1F
100
AcDbEntity
  8
0
  6
Continuous
 62
     7
370
    25
100
AcDbLine
 10
3138.8214942023
 20
1769.5963884577
 30
0.0
 11
3138.8214942023
 21
1770.9953114322
 31
0.0
  0
LINE
  5
100
330
1F
100
AcDbEntity
  8
0
  6
Continuous
 62
     7
370
    25
100
AcDbLine
 10
3136.8214942023
 20
1769.5963884577
 30
0.0
 11
3136.8214942023
 21
1770.0626961158
 31
0.0
  0
LINE
  5
101
330
1F
100
AcDbEntity
  8
0
  6
Continuous
 62
     7
370
    25
100
AcDbLine
 10
3138.8214942023
 20
1769.5963884577
 30
0.0
 11
3138.8214942023
 21
1707.5963884577
 31
0.0
  0
LINE
  5
102
330
1F
100
AcDbEntity
  8
0
  6
Continuous
 62
     7
370
    25
100
AcDbLine
 10
3136.8214942023
 20
1769.5963884577
 30
0.0
 11
3136.8214942023
 21
1707.5963884577
 31
0.0
  0
LINE
  5
103
330
1F
100
AcDbEntity
  8
0
  6
Continuous
 62
     7
370
    25
100
AcDbLine
 10
2989.8214942023
 20
1780.4443201968
 30
0.0
 11
2994.061046836
 21
1775.3918181146
 31
0.0
  0
LINE
  5
104
330
1F
100
AcDbEntity
  8
0
  6
Continuous
 62
     7
370
    25
100
AcDbLine
 10
2998.8214942023
 20
1776.7754931653
 30
0.0
 11
2998.8214942023
 21
1784.5626961158
 31
0.0
  0
LINE
  5
105
330
1F
100
AcDbEntity
  8
0
  6
Continuous
 62
     7
370
    25
100
AcDbLine
 10
2998.8214942023
 20
1776.7754931653
 30
0.0
 11
2991.1787065926
 21
1770.3624329008
 31
0.0
  0
LINE
  5
106
330
1F
100
AcDbEntity
  8
0
  6
Continuous
 62
     7
370
    25
100
AcDbLine
 10
2994.7295834995
 20
1784.5626961158
 30
0.0
 11
2989.8214942023
 21
1780.4443201968
 31
0.0
  0
LINE
  5
107
330
1F
100
AcDbEntity
  8
0
  6
Continuous
 62
     7
370
    25
100
AcDbLine
 10
2994.061046836
 20
1775.3918181146
 30
0.0
 11
2989.8931313732
 21
1771.894521787
 31
0.0
  0
LINE
  5
108
330
1F
100
AcDbEntity
  8
0
  6
Continuous
 62
     7
370
    25
100
AcDbLine
 10
2998.8214942023
 20
1784.5626961158
 30
0.0
 11
2994.7295834995
 21
1784.5626961158
 31
0.0
  0
LINE
  5
109
330
1F
100
AcDbEntity
  8
0
  6
Continuous
 62
     7
370
    25
100
AcDbLine
 10
3128.8214942023
 20
1776.7754931653
 30
0.0
 11
3136.464281812
 21
1770.3624329008
 31
0.0
  0
LINE
  5
10A
330
1F
100
AcDbEntity
  8
0
  6
Continuous
 62
     7
370
    25
100
AcDbLine
 10
3128.8214942023
 20
1776.7754931653
 30
0.0
 11
3128.8214942023
 21
1784.5626961158
 31
0.0
  0
LINE
  5
10B
330
1F
100
AcDbEntity
  8
0
  6
Continuous
 62
     7
370
    25
100
AcDbLine
 10
3132.9134049051
 20
1784.5626961158
 30
0.0
 11
3128.8214942023
 21
1784.5626961158
 31
0.0
  0
LINE
  5
10C
330
1F
100
AcDbEntity
  8
0
  6
Continuous
 62
     7
370
    25
100
AcDbLine
 10
3137.8214942023
 20
1780.4443201968
 30
0.0
 11
3133.5819415686
 21
1775.3918181146
 31
0.0
  0
LINE
  5
10D
330
1F
100
AcDbEntity
  8
0
  6
Continuous
 62
     7
370
    25
100
AcDbLine
 10
3133.5819415686
 20
1775.3918181146
 30
0.0
 11
3137.7498570314
 21
1771.894521787
 31
0.0
  0
LINE
  5
10E
330
1F
100
AcDbEntity
  8
0
  6
Continuous
 62
     7
370
    25
100
AcDbLine
 10
3132.9134049051
 20
1784.5626961158
 30
0.0
 11
3137.8214942023
 21
1780.4443201968
 31
0.0
  0
LINE
  5
10F
330
1F
100
AcDbEntity
  8
0
  6
Continuous
 62
     7
370
    25
100
AcDbLine
 10
1199.9906418451
 20
301.418222178
 30
0.0
 11
1203.4611850699
 21
296.0518982035
 31
0.0
  0
LINE
  5
110
330
1F
100
AcDbEntity
  8
0
  6
Continuous
 62
     7
370
    25
100
AcDbLine
 10
2967.7575948115
 20
1321.9283619564
 30
0.0
 11
1199.9906418451
 21
301.418222178
 31
0.0
  0
LINE
  5
111
330
1F
100
AcDbEntity
  8
0
  6
Continuous
 62
     7
370
    25
100
AcDbLine
 10
2971.2281380362
 20
1316.5620379819
 30
0.0
 11
2967.7575948115
 21
1321.9283619564
 31
0.0
  0
LINE
  5
112
330
1F
100
AcDbEntity
  8
0
  6
Continuous
 62
     7
370
    25
100
AcDbLine
 10
1203.4611850699
 20
296.0518982035
 30
0.0
 11
2971.2281380362
 21
1316.5620379819
 31
0.0
  0
LINE
  5
113
330
1F
100
AcDbEntity
  8
0
  6
Continuous
 62
     7
370
    25
100
AcDbLine
 10
1197.0972240392
 20
296.7299877037
 30
0.0
 11
1202.5014909852
 21
288.373645368
 31
0.0
  0
LINE
  5
114
330
1F
100
AcDbEntity
  8
0
  6
Continuous
 62
     7
370
    25
100
AcDbLine
 10
1197.0972240392
 20
296.7299877037
 30
0.0
 11
1197.0972240392
 21
303.0885567233
 31
0.0
  0
LINE
  5
115
330
1F
100
AcDbEntity
  8
0
  6
Continuous
 62
     7
370
    25
100
AcDbLine
 10
1199.9906418451
 20
301.418222178
 30
0.0
 11
1197.0972240392
 21
303.0885567233
 31
0.0
  0
LINE
  5
116
330
1F
100
AcDbEntity
  8
0
  6
Continuous
 62
     7
370
    25
100
AcDbLine
 10
1203.4611850699
 20
296.0518982035
 30
0.0
 11
1200.4633686534
 21
293.6569266316
 31
0.0
  0
LINE
  5
117
330
1F
100
AcDbEntity
  8
0
  6
Continuous
 62
     7
370
    25
100
AcDbLine
 10
1200.4633686534
 20
293.6569266316
 30
0.0
 11
1203.4105299405
 21
289.0998814523
 31
0.0
  0
LINE
  5
118
330
1F
100
AcDbEntity
  8
0
  6
Continuous
 62
     7
370
    25
100
AcDbLine
 10
2971.2281380362
 20
1316.5620379819
 30
0.0
 11
2968.2303216198
 21
1314.16706641
 31
0.0
  0
LINE
  5
119
330
1F
100
AcDbEntity
  8
0
  6
Continuous
 62
     7
370
    25
100
AcDbLine
 10
1200.4633686534
 20
293.6569266316
 30
0.0
 11
2968.2303216198
 21
1314.16706641
 31
0.0
  0
LINE
  5
11A
330
1F
100
AcDbEntity
  8
0
  6
Continuous
 62
     7
370
    25
100
AcDbLine
 10
2967.7575948115
 20
1321.9283619564
 30
0.0
 11
2964.8641770055
 21
1323.5986965017
 31
0.0
  0
LINE
  5
11B
330
1F
100
AcDbEntity
  8
0
  6
Continuous
 62
     7
370
    25
100
AcDbLine
 10
2964.8641770055
 20
1323.5986965017
 30
0.0
 11
1197.0972240392
 21
303.0885567233
 31
0.0
  0
LINE
  5
11C
330
1F
100
AcDbEntity
  8
0
  6
Continuous
 62
     7
370
    25
100
AcDbLine
 10
2971.1774829069
 20
1309.6100212307
 30
0.0
 11
2968.2303216198
 21
1314.16706641
 31
0.0
  0
LINE
  5
11D
330
1F
100
AcDbEntity
  8
0
  6
Continuous
 62
     7
370
    25
100
AcDbLine
 10
2971.9352448174
 20
1308.4383326378
 30
0.0
 11
2971.1774829069
 21
1309.6100212307
 31
0.0
  0
LINE
  5
11E
330
1F
100
AcDbEntity
  8
0
  6
Continuous
 62
     7
370
    25
100
AcDbLine
 10
2971.9352448174
 20
1308.4383326378
 30
0.0
 11
1204.168291851
 21
287.9281928594
 31
0.0
  0
LINE
  5
11F
330
1F
100
AcDbEntity
  8
0
  6
Continuous
 62
     7
370
    25
100
AcDbLine
 10
1204.168291851
 20
287.9281928594
 30
0.0
 11
1203.4105299405
 21
289.0998814523
 31
0.0
  0
LINE
  5
120
330
1F
100
AcDbEntity
  8
0
  6
Continuous
 62
     7
370
    25
100
AcDbLine
 10
1204.168291851
 20
286.7859151581
 30
0.0
 11
1204.168291851
 21
287.9281928594
 31
0.0
  0
LINE
  5
121
330
1F
100
AcDbEntity
  8
0
  6
Continuous
 62
     7
370
    25
100
AcDbLine
 10
1202.7540782887
 20
287.6023232699
 30
0.0
 11
1202.7540782887
 21
287.9830825037
 31
0.0
  0
LINE
  5
122
330
1F
100
AcDbEntity
  8
0
  6
Continuous
 62
     7
370
    25
100
AcDbLine
 10
1202.7540782887
 20
287.9830825037
 30
0.0
 11
1202.5014909852
 21
288.373645368
 31
0.0
  0
LINE
  5
123
330
1F
100
AcDbEntity
  8
0
  6
Continuous
 62
     7
370
    25
100
AcDbLine
 10
2971.9352448174
 20
1307.2960549364
 30
0.0
 11
2971.9352448174
 21
1308.4383326378
 31
0.0
  0
LINE
  5
124
330
1F
100
AcDbEntity
  8
0
  6
Continuous
 62
     7
370
    25
100
AcDbLine
 10
2971.9352448174
 20
1307.2960549364
 30
0.0
 11
2971.9352448174
 21
1256.6705245995
 31
0.0
  0
LINE
  5
125
330
1F
100
AcDbEntity
  8
0
  6
Continuous
 62
     7
370
    25
100
AcDbLine
 10
2971.9352448174
 20
1254.2209021639
 30
0.0
 11
2971.9352448174
 21
1256.6705245995
 31
0.0
  0
LINE
  5
126
330
1F
100
AcDbEntity
  8
0
  6
Continuous
 62
     7
370
    25
100
AcDbLine
 10
2971.9352448174
 20
1254.2209021639
 30
0.0
 11
1204.168291851
 21
233.7107623855
 31
0.0
  0
LINE
  5
127
330
1F
100
AcDbEntity
  8
0
  6
Continuous
 62
     7
370
    25
100
AcDbLine
 10
1204.168291851
 20
233.7107623855
 30
0.0
 11
1204.168291851
 21
236.1603848211
 31
0.0
  0
LINE
  5
128
330
1F
100
AcDbEntity
  8
0
  6
Continuous
 62
     7
370
    25
100
AcDbLine
 10
1204.168291851
 20
286.7859151581
 30
0.0
 11
1204.168291851
 21
236.1603848211
 31
0.0
  0
LWPOLYLINE
  5
129
330
1F
100
AcDbEntity
  8
0
  6
Continuous
 62
     7
370
    25
100
AcDbPolyline
 90
       10
 70
   128
 43
0.0
 10
1263.5652614707
 20
279.8397448544
 10
1264.41171814
 20
280.5007459157
 10
1265.1560796426
 20
281.4267245484
 10
1265.7085649956
 20
282.5059940634
 10
1266.0025363118
 20
283.6083786288
 10
1266.0025363118
 20
284.6009143967
 10
1265.7085649956
 20
285.363886905
 10
1265.1560796426
 20
285.8052704091
 10
1264.41171814
 20
285.8718275442
 10
1263.5652614707
 20
285.5555305376
  0
LINE
  5
12A
330
1F
100
AcDbEntity
  8
0
  6
Continuous
 62
     7
370
    25
100
AcDbLine
 10
1263.5652614707
 20
285.5555305376
 30
0.0
 11
1250.8373394094
 21
278.2078575312
 31
0.0
  0
LWPOLYLINE
  5
12B
330
1F
100
AcDbEntity
  8
0
  6
Continuous
 62
     7
370
    25
100
AcDbPolyline
 90
       10
 70
   128
 43
0.0
 10
1250.8373394094
 20
278.2078575312
 10
1249.9908827401
 20
277.5468564699
 10
1249.2465212375
 20
276.6208778371
 10
1248.6940358844
 20
275.5416083222
 10
1248.4000645682
 20
274.4392237567
 10
1248.4000645682
 20
273.4466879889
 10
1248.6940358844
 20
272.6837154806
 10
1249.2465212375
 20
272.2423319765
 10
1249.9908827401
 20
272.1757748414
 10
1250.8373394094
 20
272.492071848
  0
LINE
  5
12C
330
1F
100
AcDbEntity
  8
0
  6
Continuous
 62
     7
370
    25
100
AcDbLine
 10
1250.8373394094
 20
272.492071848
 30
0.0
 11
1263.5652614707
 21
279.8397448544
 31
0.0
  0
LWPOLYLINE
  5
12D
330
1F
100
AcDbEntity
  8
0
  6
Continuous
 62
     7
370
    25
100
AcDbPolyline
 90
       10
 70
   128
 43
0.0
 10
2947.8936142571
 20
1257.8975917184
 10
2947.0471575878
 20
1257.2365906571
 10
2946.3027960852
 20
1256.3106120244
 10
2945.7503107321
 20
1255.2313425094
 10
2945.4563394159
 20
1254.128957944
 10
2945.4563394159
 20
1253.1364221762
 10
2945.7503107321
 20
1252.3734496678
 10
2946.3027960852
 20
1251.9320661637
 10
2947.0471575878
 20
1251.8655090286
 10
2947.8936142571
 20
1252.1818060352
  0
LINE
  5
12E
330
1F
100
AcDbEntity
  8
0
  6
Continuous
 62
     7
370
    25
100
AcDbLine
 10
2947.8936142571
 20
1252.1818060352
 30
0.0
 11
2960.6215363184
 21
1259.5294790416
 31
0.0
  0
LWPOLYLINE
  5
12F
330
1F
100
AcDbEntity
  8
0
  6
Continuous
 62
     7
370
    25
100
AcDbPolyline
 90
       10
 70
   128
 43
0.0
 10
2960.6215363184
 20
1259.5294790416
 10
2961.4679929877
 20
1260.190480103
 10
2962.2123544903
 20
1261.1164587357
 10
2962.7648398434
 20
1262.1957282507
 10
2963.0588111595
 20
1263.2981128161
 10
2963.0588111595
 20
1264.2906485839
 10
2962.7648398434
 20
1265.0536210923
 10
2962.2123544903
 20
1265.4950045963
 10
2961.4679929877
 20
1265.5615617315
 10
2960.6215363184
 20
1265.2452647248
  0
LINE
  5
130
330
1F
100
AcDbEntity
  8
0
  6
Continuous
 62
     7
370
    25
100
AcDbLine
 10
2960.6215363184
 20
1265.2452647248
 30
0.0
 11
2947.8936142571
 21
1257.8975917184
 31
0.0
  0
LWPOLYLINE
  5
131
330
1F
100
AcDbEntity
  8
0
  6
Continuous
 62
     7
370
    25
100
AcDbPolyline
 90
       10
 70
   128
 43
0.0
 10
2912.5382751977
 20
1237.4873889229
 10
2911.6918185285
 20
1236.8263878615
 10
2910.9474570259
 20
1235.9004092288
 10
2910.3949716728
 20
1234.8211397139
 10
2910.1010003566
 20
1233.7187551484
 10
2910.1010003566
 20
1232.7262193806
 10
2910.3949716728
 20
1231.9632468723
 10
2910.9474570259
 20
1231.5218633682
 10
2911.6918185285
 20
1231.455306233
 10
2912.5382751977
 20
1231.7716032397
  0
LINE
  5
132
330
1F
100
AcDbEntity
  8
0
  6
Continuous
 62
     7
370
    25
100
AcDbLine
 10
2912.5382751977
 20
1231.7716032397
 30
0.0
 11
2925.2661972591
 21
1239.1192762461
 31
0.0
  0
LWPOLYLINE
  5
133
330
1F
100
AcDbEntity
  8
0
  6
Continuous
 62
     7
370
    25
100
AcDbPolyline
 90
       10
 70
   128
 43
0.0
 10
2925.2661972591
 20
1239.1192762461
 10
2926.1126539284
 20
1239.7802773074
 10
2926.857015431
 20
1240.7062559401
 10
2927.409500784
 20
1241.7855254551
 10
2927.7034721002
 20
1242.8879100205
 10
2927.7034721002
 20
1243.8804457883
 10
2927.409500784
 20
1244.6434182967
 10
2926.857015431
 20
1245.0848018008
 10
2926.1126539284
 20
1245.1513589359
 10
2925.2661972591
 20
1244.8350619293
  0
LINE
  5
134
330
1F
100
AcDbEntity
  8
0
  6
Continuous
 62
     7
370
    25
100
AcDbLine
 10
2925.2661972591
 20
1244.8350619293
 30
0.0
 11
2912.5382751977
 21
1237.4873889229
 31
0.0
  0
LWPOLYLINE
  5
135
330
1F
100
AcDbEntity
  8
0
  6
Continuous
 62
     7
370
    25
100
AcDbPolyline
 90
       10
 70
   128
 43
0.0
 10
1228.2099224114
 20
259.4295420588
 10
1229.0563790806
 20
260.0905431202
 10
1229.8007405832
 20
261.0165217529
 10
1230.3532259363
 20
262.0957912678
 10
1230.6471972525
 20
263.1981758333
 10
1230.6471972525
 20
264.1907116011
 10
1230.3532259363
 20
264.9536841094
 10
1229.8007405832
 20
265.3950676135
 10
1229.0563790806
 20
265.4616247487
 10
1228.2099224114
 20
265.145327742
  0
LINE
  5
136
330
1F
100
AcDbEntity
  8
0
  6
Continuous
 62
     7
370
    25
100
AcDbLine
 10
1228.2099224114
 20
265.145327742
 30
0.0
 11
1215.48200035
 21
257.7976547356
 31
0.0
  0
LWPOLYLINE
  5
137
330
1F
100
AcDbEntity
  8
0
  6
Continuous
 62
     7
370
    25
100
AcDbPolyline
 90
       10
 70
   128
 43
0.0
 10
1215.48200035
 20
257.7976547356
 10
1214.6355436808
 20
257.1366536743
 10
1213.8911821782
 20
256.2106750416
 10
1213.3386968251
 20
255.1314055266
 10
1213.0447255089
 20
254.0290209612
 10
1213.0447255089
 20
253.0364851934
 10
1213.3386968251
 20
252.273512685
 10
1213.8911821782
 20
251.8321291809
 10
1214.6355436808
 20
251.7655720458
 10
1215.48200035
 20
252.0818690524
  0
LINE
  5
138
330
1F
100
AcDbEntity
  8
0
  6
Continuous
 62
     7
370
    25
100
AcDbLine
 10
1215.48200035
 20
252.0818690524
 30
0.0
 11
1228.2099224114
 21
259.4295420588
 31
0.0
  0
LWPOLYLINE
  5
139
330
1F
100
AcDbEntity
  8
0
  6
Continuous
 62
     7
370
    25
100
AcDbPolyline
 90
       10
 70
   128
 43
0.0
 10
1263.5652614707
 20
300.2532651515
 10
1264.41171814
 20
300.9142662129
 10
1265.1560796426
 20
301.8402448456
 10
1265.7085649956
 20
302.9195143605
 10
1266.0025363118
 20
304.021898926
 10
1266.0025363118
 20
305.0144346938
 10
1265.7085649956
 20
305.7774072021
 10
1265.1560796426
 20
306.2187907062
 10
1264.41171814
 20
306.2853478414
 10
1263.5652614707
 20
305.9690508347
  0
LINE
  5
13A
330
1F
100
AcDbEntity
  8
0
  6
Continuous
 62
     7
370
    25
100
AcDbLine
 10
1263.5652614707
 20
305.9690508347
 30
0.0
 11
1250.8373394094
 21
298.6213778283
 31
0.0
  0
LWPOLYLINE
  5
13B
330
1F
100
AcDbEntity
  8
0
  6
Continuous
 62
     7
370
    25
100
AcDbPolyline
 90
       10
 70
   128
 43
0.0
 10
1250.8373394094
 20
298.6213778283
 10
1249.9908827401
 20
297.960376767
 10
1249.2465212375
 20
297.0343981343
 10
1248.6940358844
 20
295.9551286193
 10
1248.4000645682
 20
294.8527440539
 10
1248.4000645682
 20
293.8602082861
 10
1248.6940358844
 20
293.0972357777
 10
1249.2465212375
 20
292.6558522736
 10
1249.9908827401
 20
292.5892951385
 10
1250.8373394094
 20
292.9055921451
  0
LINE
  5
13C
330
1F
100
AcDbEntity
  8
0
  6
Continuous
 62
     7
370
    25
100
AcDbLine
 10
1250.8373394094
 20
292.9055921451
 30
0.0
 11
1263.5652614707
 21
300.2532651515
 31
0.0
  0
LWPOLYLINE
  5
13D
330
1F
100
AcDbEntity
  8
0
  6
Continuous
 62
     7
370
    25
100
AcDbPolyline
 90
       10
 70
   128
 43
0.0
 10
2947.8936142571
 20
1278.3111120156
 10
2947.0471575878
 20
1277.6501109542
 10
2946.3027960852
 20
1276.7241323215
 10
2945.7503107321
 20
1275.6448628066
 10
2945.4563394159
 20
1274.5424782411
 10
2945.4563394159
 20
1273.5499424733
 10
2945.7503107321
 20
1272.786969965
 10
2946.3027960852
 20
1272.3455864609
 10
2947.0471575878
 20
1272.2790293257
 10
2947.8936142571
 20
1272.5953263324
  0
LINE
  5
13E
330
1F
100
AcDbEntity
  8
0
  6
Continuous
 62
     7
370
    25
100
AcDbLine
 10
2947.8936142571
 20
1272.5953263324
 30
0.0
 11
2960.6215363184
 21
1279.9429993388
 31
0.0
  0
LWPOLYLINE
  5
13F
330
1F
100
AcDbEntity
  8
0
  6
Continuous
 62
     7
370
    25
100
AcDbPolyline
 90
       10
 70
   128
 43
0.0
 10
2960.6215363184
 20
1279.9429993388
 10
2961.4679929877
 20
1280.6040004001
 10
2962.2123544903
 20
1281.5299790328
 10
2962.7648398434
 20
1282.6092485478
 10
2963.0588111595
 20
1283.7116331132
 10
2963.0588111595
 20
1284.704168881
 10
2962.7648398434
 20
1285.4671413894
 10
2962.2123544903
 20
1285.9085248935
 10
2961.4679929877
 20
1285.9750820286
 10
2960.6215363184
 20
1285.658785022
  0
LINE
  5
140
330
1F
100
AcDbEntity
  8
0
  6
Continuous
 62
     7
370
    25
100
AcDbLine
 10
2960.6215363184
 20
1285.658785022
 30
0.0
 11
2947.8936142571
 21
1278.3111120156
 31
0.0
  0
LWPOLYLINE
  5
141
330
1F
100
AcDbEntity
  8
0
  6
Continuous
 62
     7
370
    25
100
AcDbPolyline
 90
       10
 70
   128
 43
0.0
 10
2912.5382751977
 20
1257.90090922
 10
2911.6918185285
 20
1257.2399081587
 10
2910.9474570259
 20
1256.313929526
 10
2910.3949716728
 20
1255.234660011
 10
2910.1010003566
 20
1254.1322754456
 10
2910.1010003566
 20
1253.1397396777
 10
2910.3949716728
 20
1252.3767671694
 10
2910.9474570259
 20
1251.9353836653
 10
2911.6918185285
 20
1251.8688265302
 10
2912.5382751977
 20
1252.1851235368
  0
LINE
  5
142
330
1F
100
AcDbEntity
  8
0
  6
Continuous
 62
     7
370
    25
100
AcDbLine
 10
2912.5382751977
 20
1252.1851235368
 30
0.0
 11
2925.2661972591
 21
1259.5327965432
 31
0.0
  0
LWPOLYLINE
  5
143
330
1F
100
AcDbEntity
  8
0
  6
Continuous
 62
     7
370
    25
100
AcDbPolyline
 90
       10
 70
   128
 43
0.0
 10
2925.2661972591
 20
1259.5327965432
 10
2926.1126539284
 20
1260.1937976045
 10
2926.857015431
 20
1261.1197762372
 10
2927.409500784
 20
1262.1990457522
 10
2927.7034721002
 20
1263.3014303177
 10
2927.7034721002
 20
1264.2939660855
 10
2927.409500784
 20
1265.0569385938
 10
2926.857015431
 20
1265.4983220979
 10
2926.1126539284
 20
1265.564879233
 10
2925.2661972591
 20
1265.2485822264
  0
LINE
  5
144
330
1F
100
AcDbEntity
  8
0
  6
Continuous
 62
     7
370
    25
100
AcDbLine
 10
2925.2661972591
 20
1265.2485822264
 30
0.0
 11
2912.5382751977
 21
1257.90090922
 31
0.0
  0
LWPOLYLINE
  5
145
330
1F
100
AcDbEntity
  8
0
  6
Continuous
 62
     7
370
    25
100
AcDbPolyline
 90
       10
 70
   128
 43
0.0
 10
1228.2099224114
 20
279.843062356
 10
1229.0563790806
 20
280.5040634173
 10
1229.8007405832
 20
281.43004205
 10
1230.3532259363
 20
282.509311565
 10
1230.6471972525
 20
283.6116961304
 10
1230.6471972525
 20
284.6042318982
 10
1230.3532259363
 20
285.3672044066
 10
1229.8007405832
 20
285.8085879107
 10
1229.0563790806
 20
285.8751450458
 10
1228.2099224114
 20
285.5588480392
  0
LINE
  5
146
330
1F
100
AcDbEntity
  8
0
  6
Continuous
 62
     7
370
    25
100
AcDbLine
 10
1228.2099224114
 20
285.5588480392
 30
0.0
 11
1215.48200035
 21
278.2111750328
 31
0.0
  0
LWPOLYLINE
  5
147
330
1F
100
AcDbEntity
  8
0
  6
Continuous
 62
     7
370
    25
100
AcDbPolyline
 90
       10
 70
   128
 43
0.0
 10
1215.48200035
 20
278.2111750328
 10
1214.6355436808
 20
277.5501739714
 10
1213.8911821782
 20
276.6241953387
 10
1213.3386968251
 20
275.5449258237
 10
1213.0447255089
 20
274.4425412583
 10
1213.0447255089
 20
273.4500054905
 10
1213.3386968251
 20
272.6870329821
 10
1213.8911821782
 20
272.2456494781
 10
1214.6355436808
 20
272.1790923429
 10
1215.48200035
 20
272.4953893496
  0
LINE
  5
148
330
1F
100
AcDbEntity
  8
0
  6
Continuous
 62
     7
370
    25
100
AcDbLine
 10
1215.48200035
 20
272.4953893496
 30
0.0
 11
1228.2099224114
 21
279.843062356
 31
0.0
  0
LINE
  5
149
330
1F
100
AcDbEntity
  8
0
  6
Continuous
 62
     7
370
    25
100
AcDbLine
 10
1202.7540782887
 20
287.6023232699
 30
0.0
 11
1202.7540782887
 21
236.976792933
 31
0.0
  0
LWPOLYLINE
  5
14A
330
1F
100
AcDbEntity
  8
0
  6
Continuous
 62
     7
370
    25
100
AcDbPolyline
 90
        3
 70
   128
 43
0.0
 10
1214.0677867877
 20
273.3117974614
 10
1213.2213301184
 20
272.9955004548
 10
1213.1742172245
 20
272.9887330586
  0
LINE
  5
14B
330
1F
100
AcDbEntity
  8
0
  6
Continuous
 62
     7
370
    25
100
AcDbLine
 10
1226.795708849
 20
280.6594704678
 30
0.0
 11
1214.0677867877
 21
273.3117974614
 31
0.0
  0
ARC
  5
14C
330
1F
100
AcDbEntity
  8
0
  6
Continuous
 62
     7
370
    25
100
AcDbCircle
 10
1224.4930504197
 20
284.7981316416
 30
0.0
 40
4.73611150143988
100
AcDbArc
 50
299.0905834168
 51
13.2284026242
  0
LWPOLYLINE
  5
14D
330
1F
100
AcDbEntity
  8
0
  6
Continuous
 62
     7
370
    25
100
AcDbPolyline
 90
        3
 70
   128
 43
0.0
 10
1214.0677867877
 20
252.8982771642
 10
1213.2213301184
 20
252.5819801576
 10
1213.1742172245
 20
252.5752127615
  0
LINE
  5
14E
330
1F
100
AcDbEntity
  8
0
  6
Continuous
 62
     7
370
    25
100
AcDbLine
 10
1202.0469715075
 20
234.9353745532
 30
0.0
 11
1204.168291851
 21
233.7107623855
 31
0.0
  0
LINE
  5
14F
330
1F
100
AcDbEntity
  8
0
  6
Continuous
 62
     7
370
    25
100
AcDbLine
 10
1202.0469715075
 20
236.568456177
 30
0.0
 11
1202.7540782887
 21
236.1602521211
 31
0.0
  0
LINE
  5
150
330
1F
100
AcDbEntity
  8
0
  6
Continuous
 62
     7
370
    25
100
AcDbLine
 10
1202.7540782887
 20
236.1602521211
 30
0.0
 11
1202.7540782887
 21
236.976792933
 31
0.0
  0
LINE
  5
151
330
1F
100
AcDbEntity
  8
0
  6
Continuous
 62
     7
370
    25
100
AcDbLine
 10
1099.5164882354
 20
295.7580442841
 30
0.0
 11
1100.2235950166
 21
295.3498402282
 31
0.0
  0
LINE
  5
152
330
1F
100
AcDbEntity
  8
0
  6
Continuous
 62
     7
370
    25
100
AcDbLine
 10
2867.2834412018
 20
1316.2681840625
 30
0.0
 11
1099.5164882354
 21
295.7580442841
 31
0.0
  0
LINE
  5
153
330
1F
100
AcDbEntity
  8
0
  6
Continuous
 62
     7
370
    25
100
AcDbLine
 10
2867.2834412018
 20
1316.2681840625
 30
0.0
 11
2867.990547983
 21
1315.8599800066
 31
0.0
  0
LINE
  5
154
330
1F
100
AcDbEntity
  8
0
  6
Continuous
 62
     7
370
    25
100
AcDbLine
 10
2960.9565453977
 20
1262.1918520574
 30
0.0
 11
2958.1444213697
 21
1263.8152567035
 31
0.0
  0
LINE
  5
155
330
1F
100
AcDbEntity
  8
0
  6
Continuous
 62
     7
370
    25
100
AcDbLine
 10
2909.7247111706
 20
1291.7673604242
 30
0.0
 11
2867.990547983
 21
1315.8599800066
 31
0.0
  0
LINE
  5
156
330
1F
100
AcDbEntity
  8
0
  6
Continuous
 62
     7
370
    25
100
AcDbLine
 10
1202.0469715075
 20
236.568456177
 30
0.0
 11
1100.2235950166
 21
295.3498402282
 31
0.0
  0
ARC
  5
157
330
1F
100
AcDbEntity
  8
0
  6
Continuous
 62
     7
370
    25
100
AcDbCircle
 10
1159.0683848819
 20
274.1232293208
 30
0.0
 40
0.4366153168342585
100
AcDbArc
 50
110.7834207995
 51
249.2165792005
  0
LINE
  5
158
330
1F
100
AcDbEntity
  8
0
  6
Continuous
 62
     7
370
    25
100
AcDbLine
 10
1158.9134578551
 20
273.7150252649
 30
0.0
 11
1164.5703121046
 21
270.4493928176
 31
0.0
  0
ARC
  5
159
330
1F
100
AcDbEntity
  8
0
  6
Continuous
 62
     7
370
    25
100
AcDbCircle
 10
1165.2774188858
 20
271.8141039026
 30
0.0
 40
1.537021907911268
100
AcDbArc
 50
242.6096722366
 51
297.3903277634
  0
LINE
  5
15A
330
1F
100
AcDbEntity
  8
0
  6
Continuous
 62
     7
370
    25
100
AcDbLine
 10
1165.984525667
 20
270.4493928176
 30
0.0
 11
1169.5200595729
 21
272.4904130972
 31
0.0
  0
ARC
  5
15B
330
1F
100
AcDbEntity
  8
0
  6
Continuous
 62
     7
370
    25
100
AcDbCircle
 10
1169.3651325461
 20
272.8986171531
 30
0.0
 40
0.4366153168343392
100
AcDbArc
 50
290.7834207995
 51
69.2165792005
  0
LINE
  5
15C
330
1F
100
AcDbEntity
  8
0
  6
Continuous
 62
     7
370
    25
100
AcDbLine
 10
1169.5200595729
 20
273.306821209
 30
0.0
 11
1163.8632053234
 21
276.5724536563
 31
0.0
  0
ARC
  5
15D
330
1F
100
AcDbEntity
  8
0
  6
Continuous
 62
     7
370
    25
100
AcDbCircle
 10
1163.1560985422
 20
275.2077425714
 30
0.0
 40
1.537021907910962
100
AcDbArc
 50
62.6096722366
 51
117.3903277634
  0
LINE
  5
15E
330
1F
100
AcDbEntity
  8
0
  6
Continuous
 62
     7
370
    25
100
AcDbLine
 10
1162.448991761
 20
276.5724536563
 30
0.0
 11
1158.9134578551
 21
274.5314333768
 31
0.0
  0
LINE
  5
15F
330
1F
100
AcDbEntity
  8
0
  6
Continuous
 62
     7
370
    25
100
AcDbLine
 10
1120.729691671
 20
296.574452396
 30
0.0
 11
1133.4576137324
 21
303.9221254024
 31
0.0
  0
LWPOLYLINE
  5
160
330
1F
100
AcDbEntity
  8
0
  6
Continuous
 62
     7
370
    25
100
AcDbPolyline
 90
       10
 70
   128
 43
0.0
 10
1133.4576137324
 20
303.9221254024
 10
1134.1548172529
 20
304.4969364451
 10
1134.4694214416
 20
305.1747408104
 10
1134.3634803902
 20
305.8737852884
 10
1133.8497721532
 20
306.5097547983
 10
1132.9902575255
 20
307.0059420313
 10
1131.8886066561
 20
307.3024994841
 10
1130.6776948986
 20
307.3636579512
 10
1129.5035760821
 20
307.1820408189
 10
1128.5078662641
 20
306.7795537938
  0
LINE
  5
161
330
1F
100
AcDbEntity
  8
0
  6
Continuous
 62
     7
370
    25
100
AcDbLine
 10
1128.5078662641
 20
306.7795537938
 30
0.0
 11
1115.7799442027
 21
299.4318807873
 31
0.0
  0
LWPOLYLINE
  5
162
330
1F
100
AcDbEntity
  8
0
  6
Continuous
 62
     7
370
    25
100
AcDbPolyline
 90
       10
 70
   128
 43
0.0
 10
1115.7799442027
 20
299.4318807873
 10
1115.0827406822
 20
298.8570697446
 10
1114.7681364936
 20
298.1792653793
 10
1114.8740775449
 20
297.4802209013
 10
1115.3877857819
 20
296.8442513914
 10
1116.2473004096
 20
296.3480641584
 10
1117.348951279
 20
296.0515067056
 10
1118.5598630365
 20
295.9903482385
 10
1119.733981853
 20
296.1719653708
 10
1120.729691671
 20
296.574452396
  0
LINE
  5
163
330
1F
100
AcDbEntity
  8
0
  6
Continuous
 62
     7
370
    25
100
AcDbLine
 10
2825.5641411118
 20
1286.469287981
 30
0.0
 11
2812.8362190504
 21
1279.1216149746
 31
0.0
  0
LWPOLYLINE
  5
164
330
1F
100
AcDbEntity
  8
0
  6
Continuous
 62
     7
370
    25
100
AcDbPolyline
 90
       10
 70
   128
 43
0.0
 10
2812.8362190504
 20
1279.1216149746
 10
2812.13901553
 20
1278.5468039318
 10
2811.8244113413
 20
1277.8689995665
 10
2811.9303523926
 20
1277.1699550885
 10
2812.4440606296
 20
1276.5339855786
 10
2813.3035752574
 20
1276.0377983457
 10
2814.4052261267
 20
1275.7412408928
 10
2815.6161378842
 20
1275.6800824257
 10
2816.7902567007
 20
1275.861699558
 10
2817.7859665187
 20
1276.2641865832
  0
LINE
  5
165
330
1F
100
AcDbEntity
  8
0
  6
Continuous
 62
     7
370
    25
100
AcDbLine
 10
2817.7859665187
 20
1276.2641865832
 30
0.0
 11
2830.5138885801
 21
1283.6118595896
 31
0.0
  0
LWPOLYLINE
  5
166
330
1F
100
AcDbEntity
  8
0
  6
Continuous
 62
     7
370
    25
100
AcDbPolyline
 90
       10
 70
   128
 43
0.0
 10
2830.5138885801
 20
1283.6118595896
 10
2831.2110921006
 20
1284.1866706324
 10
2831.5256962893
 20
1284.8644749977
 10
2831.419755238
 20
1285.5635194757
 10
2830.906047001
 20
1286.1994889856
 10
2830.0465323732
 20
1286.6956762186
 10
2828.9448815038
 20
1286.9922336714
 10
2827.7339697463
 20
1287.0533921385
 10
2826.5598509299
 20
1286.8717750062
 10
2825.5641411118
 20
1286.469287981
  0
LINE
  5
167
330
1F
100
AcDbEntity
  8
0
  6
Continuous
 62
     7
370
    25
100
AcDbLine
 10
2949.3078278194
 20
1255.8539837876
 30
0.0
 11
2945.4187412059
 21
1253.6088618744
 31
0.0
  0
ARC
  5
168
330
1F
100
AcDbEntity
  8
0
  6
Continuous
 62
     7
370
    25
100
AcDbCircle
 10
2951.763293035
 20
1251.113293935
 30
0.0
 40
5.338862210590385
100
AcDbArc
 50
83.1824446664
 51
117.3821352113
  0
LINE
  5
169
330
1F
100
AcDbEntity
  8
0
  6
Continuous
 62
     7
370
    25
100
AcDbLine
 10
2913.9524887601
 20
1235.4437809921
 30
0.0
 11
2910.0634021466
 21
1233.1986590788
 31
0.0
  0
ARC
  5
16A
330
1F
100
AcDbEntity
  8
0
  6
Continuous
 62
     7
370
    25
100
AcDbCircle
 10
2916.4079539756
 20
1230.7030911394
 30
0.0
 40
5.338862210586946
100
AcDbArc
 50
83.1824446664
 51
117.3821352113
  0
LINE
  5
16B
330
1F
100
AcDbEntity
  8
0
  6
Continuous
 62
     7
370
    25
100
AcDbLine
 10
1156.0850307304
 20
316.9846551915
 30
0.0
 11
1168.8129527917
 21
324.3323281979
 31
0.0
  0
LWPOLYLINE
  5
16C
330
1F
100
AcDbEntity
  8
0
  6
Continuous
 62
     7
370
    25
100
AcDbPolyline
 90
       10
 70
   128
 43
0.0
 10
1168.8129527917
 20
324.3323281979
 10
1169.5101563122
 20
324.9071392407
 10
1169.8247605009
 20
325.584943606
 10
1169.7188194496
 20
326.283988084
 10
1169.2051112126
 20
326.9199575939
 10
1168.3455965848
 20
327.4161448269
 10
1167.2439457154
 20
327.7127022797
 10
1166.0330339579
 20
327.7738607468
 10
1164.8589151415
 20
327.5922436145
 10
1163.8632053234
 20
327.1897565893
  0
LINE
  5
16D
330
1F
100
AcDbEntity
  8
0
  6
Continuous
 62
     7
370
    25
100
AcDbLine
 10
1163.8632053234
 20
327.1897565893
 30
0.0
 11
1151.135283262
 21
319.8420835829
 31
0.0
  0
LWPOLYLINE
  5
16E
330
1F
100
AcDbEntity
  8
0
  6
Continuous
 62
     7
370
    25
100
AcDbPolyline
 90
       10
 70
   128
 43
0.0
 10
1151.135283262
 20
319.8420835829
 10
1150.4380797416
 20
319.2672725401
 10
1150.1234755529
 20
318.5894681749
 10
1150.2294166042
 20
317.8904236969
 10
1150.7431248412
 20
317.254454187
 10
1151.602639469
 20
316.758266954
 10
1152.7042903383
 20
316.4617095012
 10
1153.9152020958
 20
316.400551034
 10
1155.0893209123
 20
316.5821681663
 10
1156.0850307304
 20
316.9846551915
  0
ARC
  5
16F
330
1F
100
AcDbEntity
  8
0
  6
Continuous
 62
     7
370
    25
100
AcDbCircle
 10
1219.3516791279
 20
251.0133569522
 30
0.0
 40
5.33886221058912
100
AcDbArc
 50
83.1824446664
 51
117.3821352113
  0
LINE
  5
170
330
1F
100
AcDbEntity
  8
0
  6
Continuous
 62
     7
370
    25
100
AcDbLine
 10
1216.8962139124
 20
255.7540468048
 30
0.0
 11
1213.0071272989
 21
253.5089248916
 31
0.0
  0
ARC
  5
171
330
1F
100
AcDbEntity
  8
0
  6
Continuous
 62
     7
370
    25
100
AcDbCircle
 10
1254.7070181872
 20
271.4235597477
 30
0.0
 40
5.338862210588212
100
AcDbArc
 50
83.1824446664
 51
117.3821352113
  0
LINE
  5
172
330
1F
100
AcDbEntity
  8
0
  6
Continuous
 62
     7
370
    25
100
AcDbLine
 10
1252.2515529717
 20
276.1642496004
 30
0.0
 11
1248.3624663582
 21
273.9191276872
 31
0.0
  0
LINE
  5
173
330
1F
100
AcDbEntity
  8
0
  6
Continuous
 62
     7
370
    25
100
AcDbLine
 10
2860.9194801711
 20
1306.8794907766
 30
0.0
 11
2848.1915581098
 21
1299.5318177702
 31
0.0
  0
LWPOLYLINE
  5
174
330
1F
100
AcDbEntity
  8
0
  6
Continuous
 62
     7
370
    25
100
AcDbPolyline
 90
       10
 70
   128
 43
0.0
 10
2848.1915581098
 20
1299.5318177702
 10
2847.4943545893
 20
1298.9570067274
 10
2847.1797504006
 20
1298.2792023621
 10
2847.2856914519
 20
1297.5801578841
 10
2847.7993996889
 20
1296.9441883742
 10
2848.6589143167
 20
1296.4480011412
 10
2849.7605651861
 20
1296.1514436884
 10
2850.9714769435
 20
1296.0902852213
 10
2852.14559576
 20
1296.2719023536
 10
2853.1413055781
 20
1296.6743893788
  0
LINE
  5
175
330
1F
100
AcDbEntity
  8
0
  6
Continuous
 62
     7
370
    25
100
AcDbLine
 10
2853.1413055781
 20
1296.6743893788
 30
0.0
 11
2865.8692276394
 21
1304.0220623852
 31
0.0
  0
LWPOLYLINE
  5
176
330
1F
100
AcDbEntity
  8
0
  6
Continuous
 62
     7
370
    25
100
AcDbPolyline
 90
       10
 70
   128
 43
0.0
 10
2865.8692276394
 20
1304.0220623852
 10
2866.5664311599
 20
1304.596873428
 10
2866.8810353486
 20
1305.2746777932
 10
2866.7750942973
 20
1305.9737222712
 10
2866.2613860603
 20
1306.6096917811
 10
2865.4018714325
 20
1307.1058790141
 10
2864.3002205631
 20
1307.4024364669
 10
2863.0893088057
 20
1307.4635949341
 10
2861.9151899892
 20
1307.2819778018
 10
2860.9194801711
 20
1306.8794907766
  0
LINE
  5
177
330
1F
100
AcDbEntity
  8
0
  6
Continuous
 62
     7
370
    25
100
AcDbLine
 10
1202.0469715075
 20
234.9353745532
 30
0.0
 11
1100.2235950166
 21
293.7167586045
 31
0.0
  0
LINE
  5
178
330
1F
100
AcDbEntity
  8
0
  6
Continuous
 62
     7
370
    25
100
AcDbLine
 10
1226.795708849
 20
260.2459501706
 30
0.0
 11
1214.0677867877
 21
252.8982771642
 31
0.0
  0
ARC
  5
179
330
1F
100
AcDbEntity
  8
0
  6
Continuous
 62
     7
370
    25
100
AcDbCircle
 10
1224.4930504197
 20
264.3846113444
 30
0.0
 40
4.7361115013777
100
AcDbArc
 50
299.0905834165
 51
13.2284026261
  0
LWPOLYLINE
  5
17A
330
1F
100
AcDbEntity
  8
0
  6
Continuous
 62
     7
370
    25
100
AcDbPolyline
 90
        3
 70
   128
 43
0.0
 10
1249.423125847
 20
293.722000257
 10
1248.5766691777
 20
293.4057032503
 10
1248.5295562838
 20
293.3989358542
  0
LINE
  5
17B
330
1F
100
AcDbEntity
  8
0
  6
Continuous
 62
     7
370
    25
100
AcDbLine
 10
1262.1510479083
 20
301.0696732634
 30
0.0
 11
1249.423125847
 21
293.722000257
 31
0.0
  0
ARC
  5
17C
330
1F
100
AcDbEntity
  8
0
  6
Continuous
 62
     7
370
    25
100
AcDbCircle
 10
1259.848389479
 20
305.2083344372
 30
0.0
 40
4.736111501412531
100
AcDbArc
 50
299.0905834167
 51
13.228402625
  0
LWPOLYLINE
  5
17D
330
1F
100
AcDbEntity
  8
0
  6
Continuous
 62
     7
370
    25
100
AcDbPolyline
 90
        3
 70
   128
 43
0.0
 10
1249.423125847
 20
273.3084799598
 10
1248.5766691777
 20
272.9921829532
 10
1248.5295562838
 20
272.985415557
  0
LINE
  5
17E
330
1F
100
AcDbEntity
  8
0
  6
Continuous
 62
     7
370
    25
100
AcDbLine
 10
1262.1510479083
 20
280.6561529662
 30
0.0
 11
1249.423125847
 21
273.3084799598
 31
0.0
  0
LINE
  5
17F
330
1F
100
AcDbEntity
  8
0
  6
Continuous
 62
     7
370
    25
100
AcDbLine
 10
1101.8071978707
 20
350.6099217458
 30
0.0
 11
1098.8600365836
 21
349.4555965597
 31
0.0
  0
LINE
  5
180
330
1F
100
AcDbEntity
  8
0
  6
Continuous
 62
     7
370
    25
100
AcDbLine
 10
1098.8093814542
 20
356.4660984784
 30
0.0
 11
1101.8071978707
 21
350.6099217458
 31
0.0
  0
LINE
  5
181
330
1F
100
AcDbEntity
  8
0
  6
Continuous
 62
     7
370
    25
100
AcDbLine
 10
1102.279924679
 20
357.8254185371
 30
0.0
 11
1098.8093814542
 21
356.4660984784
 31
0.0
  0
LINE
  5
182
330
1F
100
AcDbEntity
  8
0
  6
Continuous
 62
     7
370
    25
100
AcDbLine
 10
1105.1733424849
 20
356.1550839918
 30
0.0
 11
1102.279924679
 21
357.8254185371
 31
0.0
  0
LINE
  5
183
330
1F
100
AcDbEntity
  8
0
  6
Continuous
 62
     7
370
    25
100
AcDbLine
 10
1105.1733424849
 20
349.7965149722
 30
0.0
 11
1105.1733424849
 21
356.1550839918
 31
0.0
  0
LINE
  5
184
330
1F
100
AcDbEntity
  8
0
  6
Continuous
 62
     7
370
    25
100
AcDbLine
 10
1105.1733424849
 20
349.7965149722
 30
0.0
 11
1099.7690755389
 21
347.6798064379
 31
0.0
  0
LINE
  5
185
330
1F
100
AcDbEntity
  8
0
  6
Continuous
 62
     7
370
    25
100
AcDbLine
 10
2872.9402954513
 20
1370.3066547506
 30
0.0
 11
1105.1733424849
 21
349.7965149722
 31
0.0
  0
LINE
  5
186
330
1F
100
AcDbEntity
  8
0
  6
Continuous
 62
     7
370
    25
100
AcDbLine
 10
2872.9402954513
 20
1376.6652237702
 30
0.0
 11
1105.1733424849
 21
356.1550839918
 31
0.0
  0
LINE
  5
187
330
1F
100
AcDbEntity
  8
0
  6
Continuous
 62
     7
370
    25
100
AcDbLine
 10
2872.9402954513
 20
1376.6652237702
 30
0.0
 11
2872.9402954513
 21
1370.3066547506
 31
0.0
  0
LINE
  5
188
330
1F
100
AcDbEntity
  8
0
  6
Continuous
 62
     7
370
    25
100
AcDbLine
 10
2870.0468776453
 20
1378.3355583155
 30
0.0
 11
1102.279924679
 21
357.8254185371
 31
0.0
  0
LINE
  5
189
330
1F
100
AcDbEntity
  8
0
  6
Continuous
 62
     7
370
    25
100
AcDbLine
 10
2872.9402954513
 20
1376.6652237702
 30
0.0
 11
2870.0468776453
 21
1378.3355583155
 31
0.0
  0
ARC
  5
18A
330
1F
100
AcDbEntity
  8
0
  6
Continuous
 62
     7
370
    25
100
AcDbCircle
 10
1259.848389479
 20
284.79481414
 30
0.0
 40
4.736111501415182
100
AcDbArc
 50
299.0905834167
 51
13.2284026249
  0
LINE
  5
18B
330
1F
100
AcDbEntity
  8
0
  6
Continuous
 62
     7
370
    25
100
AcDbLine
 10
2866.5763344206
 20
1376.9762382568
 30
0.0
 11
2870.0468776453
 21
1378.3355583155
 31
0.0
  0
LINE
  5
18C
330
1F
100
AcDbEntity
  8
0
  6
Continuous
 62
     7
370
    25
100
AcDbLine
 10
1098.8093814542
 20
356.4660984784
 30
0.0
 11
2866.5763344206
 21
1376.9762382568
 31
0.0
  0
LINE
  5
18D
330
1F
100
AcDbEntity
  8
0
  6
Continuous
 62
     7
370
    25
100
AcDbLine
 10
1098.8600365836
 20
349.4555965597
 30
0.0
 11
1098.1022746731
 21
349.1588012461
 31
0.0
  0
LINE
  5
18E
330
1F
100
AcDbEntity
  8
0
  6
Continuous
 62
     7
370
    25
100
AcDbLine
 10
1101.5354677064
 20
351.1407413975
 30
0.0
 11
1098.1022746731
 21
349.1588012461
 31
0.0
  0
LINE
  5
18F
330
1F
100
AcDbEntity
  8
0
  6
Continuous
 62
     7
370
    25
100
AcDbLine
 10
1098.1022746731
 20
349.1588012461
 30
0.0
 11
1098.1022746731
 21
348.0165235448
 31
0.0
  0
LINE
  5
190
330
1F
100
AcDbEntity
  8
0
  6
Continuous
 62
     7
370
    25
100
AcDbLine
 10
1099.5164882354
 20
347.5808746667
 30
0.0
 11
1099.5164882354
 21
347.2001154329
 31
0.0
  0
LINE
  5
191
330
1F
100
AcDbEntity
  8
0
  6
Continuous
 62
     7
370
    25
100
AcDbLine
 10
1099.7690755389
 20
347.6798064379
 30
0.0
 11
1099.5164882354
 21
347.5808746667
 31
0.0
  0
LINE
  5
192
330
1F
100
AcDbEntity
  8
0
  6
Continuous
 62
     7
370
    25
100
AcDbLine
 10
2867.2834412018
 20
1317.0847248744
 30
0.0
 11
2867.2834412018
 21
1367.0410223033
 31
0.0
  0
LINE
  5
193
330
1F
100
AcDbEntity
  8
0
  6
Continuous
 62
     7
370
    25
100
AcDbLine
 10
2867.2834412018
 20
1317.0847248744
 30
0.0
 11
2867.2834412018
 21
1316.2681840625
 31
0.0
  0
LINE
  5
194
330
1F
100
AcDbEntity
  8
0
  6
Continuous
 62
     7
370
    25
100
AcDbLine
 10
1099.5164882354
 20
296.574585096
 30
0.0
 11
1099.5164882354
 21
295.7580442841
 31
0.0
  0
LINE
  5
195
330
1F
100
AcDbEntity
  8
0
  6
Continuous
 62
     7
370
    25
100
AcDbLine
 10
1099.5164882354
 20
296.574585096
 30
0.0
 11
1099.5164882354
 21
347.2001154329
 31
0.0
  0
LINE
  5
196
330
1F
100
AcDbEntity
  8
0
  6
Continuous
 62
     7
370
    25
100
AcDbLine
 10
1146.1855357937
 20
332.9062721229
 30
0.0
 11
1158.9134578551
 21
340.2539451293
 31
0.0
  0
LWPOLYLINE
  5
197
330
1F
100
AcDbEntity
  8
0
  6
Continuous
 62
     7
370
    25
100
AcDbPolyline
 90
       10
 70
   128
 43
0.0
 10
1158.9134578551
 20
340.2539451293
 10
1159.7599145244
 20
340.9149461906
 10
1160.504276027
 20
341.8409248233
 10
1161.05676138
 20
342.9201943383
 10
1161.3507326962
 20
344.0225789037
 10
1161.3507326962
 20
345.0151146715
 10
1161.05676138
 20
345.7780871799
 10
1160.504276027
 20
346.219470684
 10
1159.7599145244
 20
346.2860278191
 10
1158.9134578551
 20
345.9697308125
  0
LINE
  5
198
330
1F
100
AcDbEntity
  8
0
  6
Continuous
 62
     7
370
    25
100
AcDbLine
 10
1158.9134578551
 20
345.9697308125
 30
0.0
 11
1146.1855357937
 21
338.6220578061
 31
0.0
  0
LWPOLYLINE
  5
199
330
1F
100
AcDbEntity
  8
0
  6
Continuous
 62
     7
370
    25
100
AcDbPolyline
 90
       10
 70
   128
 43
0.0
 10
1146.1855357937
 20
338.6220578061
 10
1145.3390791245
 20
337.9610567447
 10
1144.5947176219
 20
337.035078112
 10
1144.0422322688
 20
335.9558085971
 10
1143.7482609526
 20
334.8534240316
 10
1143.7482609526
 20
333.8608882638
 10
1144.0422322688
 20
333.0979157555
 10
1144.5947176219
 20
332.6565322514
 10
1145.3390791245
 20
332.5899751162
 10
1146.1855357937
 20
332.9062721229
  0
LINE
  5
19A
330
1F
100
AcDbEntity
  8
0
  6
Continuous
 62
     7
370
    25
100
AcDbLine
 10
2855.9697327028
 20
1325.6594649997
 30
0.0
 11
2843.2418106415
 21
1318.3117919933
 31
0.0
  0
LWPOLYLINE
  5
19B
330
1F
100
AcDbEntity
  8
0
  6
Continuous
 62
     7
370
    25
100
AcDbPolyline
 90
       10
 70
   128
 43
0.0
 10
2843.2418106415
 20
1318.3117919933
 10
2842.3953539722
 20
1317.650790932
 10
2841.6509924696
 20
1316.7248122993
 10
2841.0985071165
 20
1315.6455427843
 10
2840.8045358003
 20
1314.5431582189
 10
2840.8045358003
 20
1313.550622451
 10
2841.0985071165
 20
1312.7876499427
 10
2841.6509924696
 20
1312.3462664386
 10
2842.3953539722
 20
1312.2797093035
 10
2843.2418106415
 20
1312.5960063101
  0
LINE
  5
19C
330
1F
100
AcDbEntity
  8
0
  6
Continuous
 62
     7
370
    25
100
AcDbLine
 10
2843.2418106415
 20
1312.5960063101
 30
0.0
 11
2855.9697327028
 21
1319.9436793165
 31
0.0
  0
LWPOLYLINE
  5
19D
330
1F
100
AcDbEntity
  8
0
  6
Continuous
 62
     7
370
    25
100
AcDbPolyline
 90
       10
 70
   128
 43
0.0
 10
2855.9697327028
 20
1319.9436793165
 10
2856.8161893721
 20
1320.6046803779
 10
2857.5605508747
 20
1321.5306590106
 10
2858.1130362278
 20
1322.6099285255
 10
2858.4070075439
 20
1323.712313091
 10
2858.4070075439
 20
1324.7048488588
 10
2858.1130362278
 20
1325.4678213671
 10
2857.5605508747
 20
1325.9092048712
 10
2856.8161893721
 20
1325.9757620063
 10
2855.9697327028
 20
1325.6594649997
  0
LINE
  5
19E
330
1F
100
AcDbEntity
  8
0
  6
Continuous
 62
     7
370
    25
100
AcDbLine
 10
2820.6143936435
 20
1305.2492622042
 30
0.0
 11
2807.8864715821
 21
1297.9015891977
 31
0.0
  0
LWPOLYLINE
  5
19F
330
1F
100
AcDbEntity
  8
0
  6
Continuous
 62
     7
370
    25
100
AcDbPolyline
 90
       10
 70
   128
 43
0.0
 10
2807.8864715821
 20
1297.9015891977
 10
2807.0400149129
 20
1297.2405881364
 10
2806.2956534103
 20
1296.3146095037
 10
2805.7431680572
 20
1295.2353399887
 10
2805.449196741
 20
1294.1329554233
 10
2805.449196741
 20
1293.1404196555
 10
2805.7431680572
 20
1292.3774471471
 10
2806.2956534103
 20
1291.936063643
 10
2807.0400149129
 20
1291.8695065079
 10
2807.8864715821
 20
1292.1858035145
  0
LINE
  5
1A0
330
1F
100
AcDbEntity
  8
0
  6
Continuous
 62
     7
370
    25
100
AcDbLine
 10
2807.8864715821
 20
1292.1858035145
 30
0.0
 11
2820.6143936435
 21
1299.533476521
 31
0.0
  0
LWPOLYLINE
  5
1A1
330
1F
100
AcDbEntity
  8
0
  6
Continuous
 62
     7
370
    25
100
AcDbPolyline
 90
       10
 70
   128
 43
0.0
 10
2820.6143936435
 20
1299.533476521
 10
2821.4608503128
 20
1300.1944775823
 10
2822.2052118153
 20
1301.120456215
 10
2822.7576971684
 20
1302.19972573
 10
2823.0516684846
 20
1303.3021102954
 10
2823.0516684846
 20
1304.2946460632
 10
2822.7576971684
 20
1305.0576185716
 10
2822.2052118153
 20
1305.4990020757
 10
2821.4608503128
 20
1305.5655592108
 10
2820.6143936435
 20
1305.2492622042
  0
LINE
  5
1A2
330
1F
100
AcDbEntity
  8
0
  6
Continuous
 62
     7
370
    25
100
AcDbLine
 10
1110.8301967344
 20
312.4960693273
 30
0.0
 11
1123.5581187958
 21
319.8437423337
 31
0.0
  0
LWPOLYLINE
  5
1A3
330
1F
100
AcDbEntity
  8
0
  6
Continuous
 62
     7
370
    25
100
AcDbPolyline
 90
       10
 70
   128
 43
0.0
 10
1123.5581187958
 20
319.8437423337
 10
1124.404575465
 20
320.504743395
 10
1125.1489369676
 20
321.4307220277
 10
1125.7014223207
 20
322.5099915427
 10
1125.9953936369
 20
323.6123761081
 10
1125.9953936369
 20
324.604911876
 10
1125.7014223207
 20
325.3678843843
 10
1125.1489369676
 20
325.8092678884
 10
1124.404575465
 20
325.8758250235
 10
1123.5581187958
 20
325.5595280169
  0
LINE
  5
1A4
330
1F
100
AcDbEntity
  8
0
  6
Continuous
 62
     7
370
    25
100
AcDbLine
 10
1123.5581187958
 20
325.5595280169
 30
0.0
 11
1110.8301967344
 21
318.2118550105
 31
0.0
  0
LWPOLYLINE
  5
1A5
330
1F
100
AcDbEntity
  8
0
  6
Continuous
 62
     7
370
    25
100
AcDbPolyline
 90
       10
 70
   128
 43
0.0
 10
1110.8301967344
 20
318.2118550105
 10
1109.9837400651
 20
317.5508539492
 10
1109.2393785626
 20
316.6248753165
 10
1108.6868932095
 20
315.5456058015
 10
1108.3929218933
 20
314.4432212361
 10
1108.3929218933
 20
313.4506854682
 10
1108.6868932095
 20
312.6877129599
 10
1109.2393785626
 20
312.2463294558
 10
1109.9837400651
 20
312.1797723207
 10
1110.8301967344
 20
312.4960693273
  0
LINE
  5
1A6
330
1F
100
AcDbEntity
  8
0
  6
Continuous
 62
     7
370
    25
100
AcDbLine
 10
1146.1855357937
 20
353.31979242
 30
0.0
 11
1158.9134578551
 21
360.6674654264
 31
0.0
  0
LWPOLYLINE
  5
1A7
330
1F
100
AcDbEntity
  8
0
  6
Continuous
 62
     7
370
    25
100
AcDbPolyline
 90
       10
 70
   128
 43
0.0
 10
1158.9134578551
 20
360.6674654264
 10
1159.7599145244
 20
361.3284664877
 10
1160.504276027
 20
362.2544451204
 10
1161.05676138
 20
363.3337146354
 10
1161.3507326962
 20
364.4360992009
 10
1161.3507326962
 20
365.4286349687
 10
1161.05676138
 20
366.191607477
 10
1160.504276027
 20
366.6329909811
 10
1159.7599145244
 20
366.6995481162
 10
1158.9134578551
 20
366.3832511096
  0
LINE
  5
1A8
330
1F
100
AcDbEntity
  8
0
  6
Continuous
 62
     7
370
    25
100
AcDbLine
 10
1158.9134578551
 20
366.3832511096
 30
0.0
 11
1146.1855357937
 21
359.0355781032
 31
0.0
  0
LWPOLYLINE
  5
1A9
330
1F
100
AcDbEntity
  8
0
  6
Continuous
 62
     7
370
    25
100
AcDbPolyline
 90
       10
 70
   128
 43
0.0
 10
1146.1855357937
 20
359.0355781032
 10
1145.3390791245
 20
358.3745770419
 10
1144.5947176219
 20
357.4485984092
 10
1144.0422322688
 20
356.3693288942
 10
1143.7482609526
 20
355.2669443288
 10
1143.7482609526
 20
354.2744085609
 10
1144.0422322688
 20
353.5114360526
 10
1144.5947176219
 20
353.0700525485
 10
1145.3390791245
 20
353.0034954134
 10
1146.1855357937
 20
353.31979242
  0
LINE
  5
1AA
330
1F
100
AcDbEntity
  8
0
  6
Continuous
 62
     7
370
    25
100
AcDbLine
 10
2855.9697327028
 20
1346.0729852969
 30
0.0
 11
2843.2418106415
 21
1338.7253122905
 31
0.0
  0
LWPOLYLINE
  5
1AB
330
1F
100
AcDbEntity
  8
0
  6
Continuous
 62
     7
370
    25
100
AcDbPolyline
 90
       10
 70
   128
 43
0.0
 10
2843.2418106415
 20
1338.7253122905
 10
2842.3953539722
 20
1338.0643112291
 10
2841.6509924696
 20
1337.1383325964
 10
2841.0985071165
 20
1336.0590630814
 10
2840.8045358003
 20
1334.956678516
 10
2840.8045358003
 20
1333.9641427482
 10
2841.0985071165
 20
1333.2011702398
 10
2841.6509924696
 20
1332.7597867357
 10
2842.3953539722
 20
1332.6932296006
 10
2843.2418106415
 20
1333.0095266073
  0
LINE
  5
1AC
330
1F
100
AcDbEntity
  8
0
  6
Continuous
 62
     7
370
    25
100
AcDbLine
 10
2843.2418106415
 20
1333.0095266073
 30
0.0
 11
2855.9697327028
 21
1340.3571996137
 31
0.0
  0
LWPOLYLINE
  5
1AD
330
1F
100
AcDbEntity
  8
0
  6
Continuous
 62
     7
370
    25
100
AcDbPolyline
 90
       10
 70
   128
 43
0.0
 10
2855.9697327028
 20
1340.3571996137
 10
2856.8161893721
 20
1341.018200675
 10
2857.5605508747
 20
1341.9441793077
 10
2858.1130362278
 20
1343.0234488227
 10
2858.4070075439
 20
1344.1258333881
 10
2858.4070075439
 20
1345.1183691559
 10
2858.1130362278
 20
1345.8813416643
 10
2857.5605508747
 20
1346.3227251684
 10
2856.8161893721
 20
1346.3892823035
 10
2855.9697327028
 20
1346.0729852969
  0
LINE
  5
1AE
330
1F
100
AcDbEntity
  8
0
  6
Continuous
 62
     7
370
    25
100
AcDbLine
 10
2820.6143936435
 20
1325.6627825013
 30
0.0
 11
2807.8864715821
 21
1318.3151094949
 31
0.0
  0
LWPOLYLINE
  5
1AF
330
1F
100
AcDbEntity
  8
0
  6
Continuous
 62
     7
370
    25
100
AcDbPolyline
 90
       10
 70
   128
 43
0.0
 10
2807.8864715821
 20
1318.3151094949
 10
2807.0400149129
 20
1317.6541084336
 10
2806.2956534103
 20
1316.7281298009
 10
2805.7431680572
 20
1315.6488602859
 10
2805.449196741
 20
1314.5464757204
 10
2805.449196741
 20
1313.5539399526
 10
2805.7431680572
 20
1312.7909674443
 10
2806.2956534103
 20
1312.3495839402
 10
2807.0400149129
 20
1312.2830268051
 10
2807.8864715821
 20
1312.5993238117
  0
LINE
  5
1B0
330
1F
100
AcDbEntity
  8
0
  6
Continuous
 62
     7
370
    25
100
AcDbLine
 10
2807.8864715821
 20
1312.5993238117
 30
0.0
 11
2820.6143936435
 21
1319.9469968181
 31
0.0
  0
LWPOLYLINE
  5
1B1
330
1F
100
AcDbEntity
  8
0
  6
Continuous
 62
     7
370
    25
100
AcDbPolyline
 90
       10
 70
   128
 43
0.0
 10
2820.6143936435
 20
1319.9469968181
 10
2821.4608503128
 20
1320.6079978794
 10
2822.2052118153
 20
1321.5339765121
 10
2822.7576971684
 20
1322.6132460271
 10
2823.0516684846
 20
1323.7156305925
 10
2823.0516684846
 20
1324.7081663604
 10
2822.7576971684
 20
1325.4711388687
 10
2822.2052118153
 20
1325.9125223728
 10
2821.4608503128
 20
1325.9790795079
 10
2820.6143936435
 20
1325.6627825013
  0
LINE
  5
1B2
330
1F
100
AcDbEntity
  8
0
  6
Continuous
 62
     7
370
    25
100
AcDbLine
 10
1110.8301967344
 20
332.9095896244
 30
0.0
 11
1123.5581187958
 21
340.2572626308
 31
0.0
  0
LWPOLYLINE
  5
1B3
330
1F
100
AcDbEntity
  8
0
  6
Continuous
 62
     7
370
    25
100
AcDbPolyline
 90
       10
 70
   128
 43
0.0
 10
1123.5581187958
 20
340.2572626308
 10
1124.404575465
 20
340.9182636922
 10
1125.1489369676
 20
341.8442423249
 10
1125.7014223207
 20
342.9235118399
 10
1125.9953936369
 20
344.0258964053
 10
1125.9953936369
 20
345.0184321731
 10
1125.7014223207
 20
345.7814046815
 10
1125.1489369676
 20
346.2227881856
 10
1124.404575465
 20
346.2893453207
 10
1123.5581187958
 20
345.973048314
  0
LINE
  5
1B4
330
1F
100
AcDbEntity
  8
0
  6
Continuous
 62
     7
370
    25
100
AcDbLine
 10
1123.5581187958
 20
345.973048314
 30
0.0
 11
1110.8301967344
 21
338.6253753076
 31
0.0
  0
LWPOLYLINE
  5
1B5
330
1F
100
AcDbEntity
  8
0
  6
Continuous
 62
     7
370
    25
100
AcDbPolyline
 90
       10
 70
   128
 43
0.0
 10
1110.8301967344
 20
338.6253753076
 10
1109.9837400651
 20
337.9643742463
 10
1109.2393785626
 20
337.0383956136
 10
1108.6868932095
 20
335.9591260986
 10
1108.3929218933
 20
334.8567415332
 10
1108.3929218933
 20
333.8642057654
 10
1108.6868932095
 20
333.101233257
 10
1109.2393785626
 20
332.6598497529
 10
1109.9837400651
 20
332.5932926178
 10
1110.8301967344
 20
332.9095896244
  0
LINE
  5
1B6
330
1F
100
AcDbEntity
  8
0
  6
Continuous
 62
     7
370
    25
100
AcDbLine
 10
1098.1022746731
 20
297.3909932079
 30
0.0
 11
1098.1022746731
 21
348.0165235448
 31
0.0
  0
LINE
  5
1B7
330
1F
100
AcDbEntity
  8
0
  6
Continuous
 62
     7
370
    25
100
AcDbLine
 10
1168.8127229236
 20
272.0820763412
 30
0.0
 11
1163.8632053234
 21
274.9393720325
 31
0.0
  0
LINE
  5
1B8
330
1F
100
AcDbEntity
  8
0
  6
Continuous
 62
     7
370
    25
100
AcDbLine
 10
1162.448991761
 20
274.9393720325
 30
0.0
 11
1159.6207945044
 21
273.306688509
 31
0.0
  0
ARC
  5
1B9
330
1F
100
AcDbEntity
  8
0
  6
Continuous
 62
     7
370
    25
100
AcDbCircle
 10
1163.1560985422
 20
273.5746609476
 30
0.0
 40
1.537021907910962
100
AcDbArc
 50
62.6096722366
 51
117.3903277634
  0
LWPOLYLINE
  5
1BA
330
1F
100
AcDbEntity
  8
0
  6
Continuous
 62
     7
370
    25
100
AcDbPolyline
 90
        3
 70
   128
 43
0.0
 10
1108.5224136088
 20
333.4029333335
 10
1108.5695265028
 20
333.4097007296
 10
1109.415983172
 20
333.7259977363
  0
LINE
  5
1BB
330
1F
100
AcDbEntity
  8
0
  6
Continuous
 62
     7
370
    25
100
AcDbLine
 10
1109.415983172
 20
333.7259977363
 30
0.0
 11
1122.1439052334
 21
341.0736707427
 31
0.0
  0
ARC
  5
1BC
330
1F
100
AcDbEntity
  8
0
  6
Continuous
 62
     7
370
    25
100
AcDbCircle
 10
1119.8412468041
 20
345.2123319165
 30
0.0
 40
4.736111501361435
100
AcDbArc
 50
299.0905834164
 51
13.2284026266
  0
LWPOLYLINE
  5
1BD
330
1F
100
AcDbEntity
  8
0
  6
Continuous
 62
     7
370
    25
100
AcDbPolyline
 90
        3
 70
   128
 43
0.0
 10
1108.5224136089
 20
312.9894130364
 10
1108.5695265028
 20
312.9961804325
 10
1109.415983172
 20
313.3124774391
  0
LINE
  5
1BE
330
1F
100
AcDbEntity
  8
0
  6
Continuous
 62
     7
370
    25
100
AcDbLine
 10
1098.1022746731
 20
297.3909932079
 30
0.0
 11
1098.1022746731
 21
294.9413707722
 31
0.0
  0
LINE
  5
1BF
330
1F
100
AcDbEntity
  8
0
  6
Continuous
 62
     7
370
    25
100
AcDbLine
 10
1098.1022746731
 20
294.9413707722
 30
0.0
 11
1100.2235950166
 21
293.7167586045
 31
0.0
  0
LWPOLYLINE
  5
1C0
330
1F
100
AcDbEntity
  8
0
  6
Continuous
 62
     7
370
    25
100
AcDbPolyline
 90
        3
 70
   128
 43
0.0
 10
1115.7799442027
 20
297.7987991636
 10
1115.0827406822
 20
297.2239881208
 10
1115.0533573668
 20
297.1866257797
  0
LINE
  5
1C1
330
1F
100
AcDbEntity
  8
0
  6
Continuous
 62
     7
370
    25
100
AcDbLine
 10
1109.415983172
 20
313.3124774391
 30
0.0
 11
1122.1439052334
 21
320.6601504455
 31
0.0
  0
LINE
  5
1C2
330
1F
100
AcDbEntity
  8
0
  6
Continuous
 62
     7
370
    25
100
AcDbLine
 10
1128.5078662641
 20
305.14647217
 30
0.0
 11
1115.7799442027
 21
297.7987991636
 31
0.0
  0
ARC
  5
1C3
330
1F
100
AcDbEntity
  8
0
  6
Continuous
 62
     7
370
    25
100
AcDbCircle
 10
1119.8412468041
 20
324.7988116193
 30
0.0
 40
4.736111501396438
100
AcDbArc
 50
299.0905834166
 51
13.2284026255
  0
LWPOLYLINE
  5
1C4
330
1F
100
AcDbEntity
  8
0
  6
Continuous
 62
     7
370
    25
100
AcDbPolyline
 90
        3
 70
   128
 43
0.0
 10
1143.8777526683
 20
353.8131361291
 10
1143.9248655621
 20
353.8199035252
 10
1144.7713222314
 20
354.1362005318
  0
ARC
  5
1C5
330
1F
100
AcDbEntity
  8
0
  6
Continuous
 62
     7
370
    25
100
AcDbCircle
 10
1130.9407304623
 20
301.0822425705
 30
0.0
 40
4.736748931940582
100
AcDbArc
 50
46.7843615555
 51
120.9049089467
  0
LINE
  5
1C6
330
1F
100
AcDbEntity
  8
0
  6
Continuous
 62
     7
370
    25
100
AcDbLine
 10
1144.7713222314
 20
354.1362005318
 30
0.0
 11
1157.4992442927
 21
361.4838735382
 31
0.0
  0
ARC
  5
1C7
330
1F
100
AcDbEntity
  8
0
  6
Continuous
 62
     7
370
    25
100
AcDbCircle
 10
1155.1965858634
 20
365.6225347121
 30
0.0
 40
4.736111501428177
100
AcDbArc
 50
299.0905834168
 51
13.2284026245
  0
LWPOLYLINE
  5
1C8
330
1F
100
AcDbEntity
  8
0
  6
Continuous
 62
     7
370
    25
100
AcDbPolyline
 90
        3
 70
   128
 43
0.0
 10
1143.8777526683
 20
333.3996158319
 10
1143.9248655621
 20
333.4063832281
 10
1144.7713222314
 20
333.7226802347
  0
LWPOLYLINE
  5
1C9
330
1F
100
AcDbEntity
  8
0
  6
Continuous
 62
     7
370
    25
100
AcDbPolyline
 90
        3
 70
   128
 43
0.0
 10
1151.135283262
 20
318.2090019591
 10
1150.4380797416
 20
317.6341909164
 10
1150.4086964261
 20
317.5968285753
  0
LINE
  5
1CA
330
1F
100
AcDbEntity
  8
0
  6
Continuous
 62
     7
370
    25
100
AcDbLine
 10
1144.7713222314
 20
333.7226802347
 30
0.0
 11
1157.4992442927
 21
341.0703532411
 31
0.0
  0
LINE
  5
1CB
330
1F
100
AcDbEntity
  8
0
  6
Continuous
 62
     7
370
    25
100
AcDbLine
 10
1163.8632053234
 20
325.5566749655
 30
0.0
 11
1151.135283262
 21
318.2090019591
 31
0.0
  0
ARC
  5
1CC
330
1F
100
AcDbEntity
  8
0
  6
Continuous
 62
     7
370
    25
100
AcDbCircle
 10
1155.1965858634
 20
345.2090144149
 30
0.0
 40
4.736111501383361
100
AcDbArc
 50
299.0905834165
 51
13.2284026259
  0
ARC
  5
1CD
330
1F
100
AcDbEntity
  8
0
  6
Continuous
 62
     7
370
    25
100
AcDbCircle
 10
1166.2960695217
 20
321.4924453661
 30
0.0
 40
4.73674893197227
100
AcDbArc
 50
46.7843615565
 51
120.9049089465
  0
LWPOLYLINE
  5
1CE
330
1F
100
AcDbEntity
  8
0
  6
Continuous
 62
     7
370
    25
100
AcDbPolyline
 90
        3
 70
   128
 43
0.0
 10
2911.1240616354
 20
1253.0015316486
 10
2910.2776049661
 20
1252.685234642
 10
2910.2304920722
 20
1252.6784672459
  0
LINE
  5
1CF
330
1F
100
AcDbEntity
  8
0
  6
Continuous
 62
     7
370
    25
100
AcDbLine
 10
2923.8519836967
 20
1260.349204655
 30
0.0
 11
2911.1240616354
 21
1253.0015316486
 31
0.0
  0
ARC
  5
1D0
330
1F
100
AcDbEntity
  8
0
  6
Continuous
 62
     7
370
    25
100
AcDbCircle
 10
2921.5493252674
 20
1264.4878658288
 30
0.0
 40
4.736111501393427
100
AcDbArc
 50
299.0905834166
 51
13.2284026256
  0
LWPOLYLINE
  5
1D1
330
1F
100
AcDbEntity
  8
0
  6
Continuous
 62
     7
370
    25
100
AcDbPolyline
 90
        3
 70
   128
 43
0.0
 10
2911.1240616354
 20
1232.5880113515
 10
2910.2776049661
 20
1232.2717143449
 10
2910.2304920722
 20
1232.2649469487
  0
LINE
  5
1D2
330
1F
100
AcDbEntity
  8
0
  6
Continuous
 62
     7
370
    25
100
AcDbLine
 10
2923.8519836967
 20
1239.9356843579
 30
0.0
 11
2911.1240616354
 21
1232.5880113515
 31
0.0
  0
ARC
  5
1D3
330
1F
100
AcDbEntity
  8
0
  6
Continuous
 62
     7
370
    25
100
AcDbCircle
 10
2921.5493252674
 20
1244.0743455317
 30
0.0
 40
4.736111501419413
100
AcDbArc
 50
299.0905834167
 51
13.2284026248
  0
LWPOLYLINE
  5
1D4
330
1F
100
AcDbEntity
  8
0
  6
Continuous
 62
     7
370
    25
100
AcDbPolyline
 90
        3
 70
   128
 43
0.0
 10
2946.4794006947
 20
1273.4117344442
 10
2945.6329440254
 20
1273.0954374376
 10
2945.5858311315
 20
1273.0886700414
  0
LINE
  5
1D5
330
1F
100
AcDbEntity
  8
0
  6
Continuous
 62
     7
370
    25
100
AcDbLine
 10
2959.2073227561
 20
1280.7594074506
 30
0.0
 11
2946.4794006947
 21
1273.4117344442
 31
0.0
  0
ARC
  5
1D6
330
1F
100
AcDbEntity
  8
0
  6
Continuous
 62
     7
370
    25
100
AcDbCircle
 10
2956.9046643268
 20
1284.8980686244
 30
0.0
 40
4.736111501380375
100
AcDbArc
 50
299.0905834165
 51
13.228402626
  0
LWPOLYLINE
  5
1D7
330
1F
100
AcDbEntity
  8
0
  6
Continuous
 62
     7
370
    25
100
AcDbPolyline
 90
        3
 70
   128
 43
0.0
 10
2946.4794006947
 20
1252.9982141471
 10
2945.6329440254
 20
1252.6819171404
 10
2945.5858311316
 20
1252.6751497443
  0
LINE
  5
1D8
330
1F
100
AcDbEntity
  8
0
  6
Continuous
 62
     7
370
    25
100
AcDbLine
 10
2959.2073227561
 20
1260.3458871535
 30
0.0
 11
2946.4794006947
 21
1252.9982141471
 31
0.0
  0
ARC
  5
1D9
330
1F
100
AcDbEntity
  8
0
  6
Continuous
 62
     7
370
    25
100
AcDbCircle
 10
2956.9046643268
 20
1264.4845483273
 30
0.0
 40
4.736111501388861
100
AcDbArc
 50
299.0905834165
 51
13.2284026257
  0
LWPOLYLINE
  5
1DA
330
1F
100
AcDbEntity
  8
0
  6
Continuous
 62
     7
370
    25
100
AcDbPolyline
 90
        3
 70
   128
 43
0.0
 10
2805.5786884566
 20
1313.0926675208
 10
2805.6258013505
 20
1313.0994349169
 10
2806.4722580198
 20
1313.4157319235
  0
LINE
  5
1DB
330
1F
100
AcDbEntity
  8
0
  6
Continuous
 62
     7
370
    25
100
AcDbLine
 10
2806.4722580198
 20
1313.4157319235
 30
0.0
 11
2819.2001800811
 21
1320.7634049299
 31
0.0
  0
ARC
  5
1DC
330
1F
100
AcDbEntity
  8
0
  6
Continuous
 62
     7
370
    25
100
AcDbCircle
 10
2816.8975216518
 20
1324.9020661037
 30
0.0
 40
4.736111501405021
100
AcDbArc
 50
299.0905834166
 51
13.2284026252
  0
LWPOLYLINE
  5
1DD
330
1F
100
AcDbEntity
  8
0
  6
Continuous
 62
     7
370
    25
100
AcDbPolyline
 90
        3
 70
   128
 43
0.0
 10
2805.5786884566
 20
1292.6791472236
 10
2805.6258013505
 20
1292.6859146197
 10
2806.4722580198
 20
1293.0022116264
  0
LWPOLYLINE
  5
1DE
330
1F
100
AcDbEntity
  8
0
  6
Continuous
 62
     7
370
    25
100
AcDbPolyline
 90
        3
 70
   128
 43
0.0
 10
2812.8362190504
 20
1277.4885333508
 10
2812.13901553
 20
1276.9137223081
 10
2812.1096322145
 20
1276.876359967
  0
LINE
  5
1DF
330
1F
100
AcDbEntity
  8
0
  6
Continuous
 62
     7
370
    25
100
AcDbLine
 10
2806.4722580198
 20
1293.0022116264
 30
0.0
 11
2819.2001800811
 21
1300.3498846328
 31
0.0
  0
LINE
  5
1E0
330
1F
100
AcDbEntity
  8
0
  6
Continuous
 62
     7
370
    25
100
AcDbLine
 10
2825.5641411118
 20
1284.8362063572
 30
0.0
 11
2812.8362190504
 21
1277.4885333508
 31
0.0
  0
ARC
  5
1E1
330
1F
100
AcDbEntity
  8
0
  6
Continuous
 62
     7
370
    25
100
AcDbCircle
 10
2816.8975216518
 20
1304.4885458066
 30
0.0
 40
4.736111501409164
100
AcDbArc
 50
299.0905834167
 51
13.2284026251
  0
LWPOLYLINE
  5
1E2
330
1F
100
AcDbEntity
  8
0
  6
Continuous
 62
     7
370
    25
100
AcDbPolyline
 90
        3
 70
   128
 43
0.0
 10
2840.934027516
 20
1333.5028703163
 10
2840.9811404098
 20
1333.5096377125
 10
2841.8275970791
 20
1333.8259347191
  0
ARC
  5
1E3
330
1F
100
AcDbEntity
  8
0
  6
Continuous
 62
     7
370
    25
100
AcDbCircle
 10
2827.9970053101
 20
1280.7719767577
 30
0.0
 40
4.736748931979204
100
AcDbArc
 50
46.7843615567
 51
120.9049089464
  0
LINE
  5
1E4
330
1F
100
AcDbEntity
  8
0
  6
Continuous
 62
     7
370
    25
100
AcDbLine
 10
2841.8275970791
 20
1333.8259347191
 30
0.0
 11
2854.5555191404
 21
1341.1736077255
 31
0.0
  0
ARC
  5
1E5
330
1F
100
AcDbEntity
  8
0
  6
Continuous
 62
     7
370
    25
100
AcDbCircle
 10
2852.2528607112
 20
1345.3122688993
 30
0.0
 40
4.736111501372792
100
AcDbArc
 50
299.0905834165
 51
13.2284026263
  0
LWPOLYLINE
  5
1E6
330
1F
100
AcDbEntity
  8
0
  6
Continuous
 62
     7
370
    25
100
AcDbPolyline
 90
        3
 70
   128
 43
0.0
 10
2840.934027516
 20
1313.0893500192
 10
2840.9811404098
 20
1313.0961174153
 10
2841.8275970791
 20
1313.4124144219
  0
LWPOLYLINE
  5
1E7
330
1F
100
AcDbEntity
  8
0
  6
Continuous
 62
     7
370
    25
100
AcDbPolyline
 90
        3
 70
   128
 43
0.0
 10
2848.1915581098
 20
1297.8987361464
 10
2847.4943545893
 20
1297.3239251036
 10
2847.4649712738
 20
1297.2865627626
  0
LINE
  5
1E8
330
1F
100
AcDbEntity
  8
0
  6
Continuous
 62
     7
370
    25
100
AcDbLine
 10
2841.8275970791
 20
1313.4124144219
 30
0.0
 11
2854.5555191404
 21
1320.7600874283
 31
0.0
  0
LINE
  5
1E9
330
1F
100
AcDbEntity
  8
0
  6
Continuous
 62
     7
370
    25
100
AcDbLine
 10
2860.9194801711
 20
1305.2464091528
 30
0.0
 11
2848.1915581098
 21
1297.8987361464
 31
0.0
  0
ARC
  5
1EA
330
1F
100
AcDbEntity
  8
0
  6
Continuous
 62
     7
370
    25
100
AcDbCircle
 10
2852.2528607111
 20
1324.8987486022
 30
0.0
 40
4.73611150142191
100
AcDbArc
 50
299.0905834167
 51
13.2284026247
  0
ARC
  5
1EB
330
1F
100
AcDbEntity
  8
0
  6
Continuous
 62
     7
370
    25
100
AcDbCircle
 10
2863.3523443694
 20
1301.1821795533
 30
0.0
 40
4.736748931973665
100
AcDbArc
 50
46.7843615566
 51
120.9049089465
  0
ENDSEC
  0
SECTION
  2
OBJECTS
  0
DICTIONARY
  5
C
330
0
100
AcDbDictionary
281
     1
  3
ACAD_GROUP
350
D
  3
ACAD_LAYOUT
350
1A
  3
ACAD_MLINESTYLE
350
17
  3
ACAD_PLOTSETTINGS
350
19
  3
ACAD_PLOTSTYLENAME
350
E
  3
ACAD_SCALELIST
350
47
  0
DICTIONARY
  5
D
102
{ACAD_REACTORS
330
C
102
}
330
C
100
AcDbDictionary
281
     1
  0
DICTIONARY
  5
1A
102
{ACAD_REACTORS
330
C
102
}
330
C
100
AcDbDictionary
281
     1
  3
Layout1
350
1E
  3
Layout2
350
26
  3
Model
350
22
  0
DICTIONARY
  5
17
102
{ACAD_REACTORS
330
C
102
}
330
C
100
AcDbDictionary
281
     1
  3
Standard
350
18
  0
DICTIONARY
  5
19
102
{ACAD_REACTORS
330
C
102
}
330
C
100
AcDbDictionary
281
     1
  0
ACDBDICTIONARYWDFLT
  5
E
102
{ACAD_REACTORS
330
C
102
}
330
C
100
AcDbDictionary
281
     1
  3
Normal
350
F
100
AcDbDictionaryWithDefault
340
F
  0
DICTIONARY
  5
47
102
{ACAD_REACTORS
330
C
102
}
330
C
100
AcDbDictionary
281
     1
  3
A0
350
48
  3
A1
350
49
  3
A2
350
4A
  3
A3
350
4B
  3
A4
350
4C
  3
A5
350
4D
  3
A6
350
4E
  3
A7
350
4F
  3
A8
350
50
  3
A9
350
51
  3
B0
350
52
  3
B1
350
53
  3
B2
350
54
  3
B3
350
55
  3
B4
350
56
  3
B5
350
57
  3
B6
350
58
  3
B7
350
59
  3
B8
350
5A
  3
B9
350
5B
  3
C0
350
5C
  3
C1
350
5D
  3
C2
350
5E
  3
C3
350
5F
  3
C4
350
60
  3
C5
350
61
  3
C6
350
62
  3
C7
350
63
  3
C8
350
64
  3
C9
350
65
  3
D0
350
66
  3
D1
350
67
  3
D2
350
68
  0
LAYOUT
  5
1E
102
{ACAD_REACTORS
330
1A
102
}
330
1A
100
AcDbPlotSettings
  1

  2
none_device
  4

  6

 40
0.0
 41
0.0
 42
0.0
 43
0.0
 44
0.0
 45
0.0
 46
0.0
 47
0.0
 48
0.0
 49
0.0
140
0.0
141
0.0
142
1.0
143
1.0
 70
   688
 72
     1
 73
     0
 74
     5
  7

 75
    16
147
1.0
148
0.0
149
0.0
100
AcDbLayout
  1
Layout1
 70
     1
 71
     1
 10
0.0
 20
0.0
 11
420.0
 21
297.0
 12
0.0
 22
0.0
 32
0.0
 14
1.0000000000E+20
 24
1.0000000000E+20
 34
1.0000000000E+20
 15
-1.0000000000E+20
 25
-1.0000000000E+20
 35
-1.0000000000E+20
146
0.0
 13
0.0
 23
0.0
 33
0.0
 16
1.0
 26
0.0
 36
0.0
 17
0.0
 27
1.0
 37
0.0
 76
     0
330
1B
  0
LAYOUT
  5
26
102
{ACAD_REACTORS
330
1A
102
}
330
1A
100
AcDbPlotSettings
  1

  2
none_device
  4

  6

 40
0.0
 41
0.0
 42
0.0
 43
0.0
 44
0.0
 45
0.0
 46
0.0
 47
0.0
 48
0.0
 49
0.0
140
0.0
141
0.0
142
1.0
143
1.0
 70
   688
 72
     1
 73
     0
 74
     5
  7

 75
    16
147
1.0
148
0.0
149
0.0
100
AcDbLayout
  1
Layout2
 70
     1
 71
     2
 10
0.0
 20
0.0
 11
0.0
 21
0.0
 12
0.0
 22
0.0
 32
0.0
 14
0.0
 24
0.0
 34
0.0
 15
0.0
 25
0.0
 35
0.0
146
0.0
 13
0.0
 23
0.0
 33
0.0
 16
1.0
 26
0.0
 36
0.0
 17
0.0
 27
1.0
 37
0.0
 76
     0
330
23
  0
LAYOUT
  5
22
102
{ACAD_REACTORS
330
1A
102
}
330
1A
100
AcDbPlotSettings
  1

  2
none_device
  4
Letter_(8.50_x_11.00_Inches)
  6

 40
6.35
 41
6.35
 42
6.35000508
 43
6.35000508
 44
215.9
 45
279.4
 46
0.0
 47
0.0
 48
0.0
 49
0.0
140
0.0
141
0.0
142
1.0
143
1.0
 70
  1712
 72
     1
 73
     0
 74
     0
  7

 75
     0
147
1.0
148
0.0
149
0.0
100
AcDbLayout
  1
Model
 70
     1
 71
     0
 10
0.0
 20
0.0
 11
3500.0
 21
3000.0
 12
0.0
 22
0.0
 32
0.0
 14
0.0
 24
0.0
 34
0.0
 15
3500.0
 25
3000.0
 35
0.0
146
0.0
 13
0.0
 23
0.0
 33
0.0
 16
1.0
 26
0.0
 36
0.0
 17
0.0
 27
1.0
 37
0.0
 76
     0
330
1F
331
29
  0
MLINESTYLE
  5
18
102
{ACAD_REACTORS
330
17
102
}
330
17
100
AcDbMlineStyle
  2
Standard
 70
     0
  3

 62
   256
 51
90.0
 52
90.0
 71
     2
 49
0.5
 62
   256
  6
BYLAYER
 49
-0.5
 62
   256
  6
BYLAYER
  0
ACDBPLACEHOLDER
  5
F
102
{ACAD_REACTORS
330
E
102
}
330
E
  0
SCALE
  5
48
102
{ACAD_REACTORS
330
47
102
}
330
47
100
AcDbScale
 70
     0
300
1:1
140
1.0
141
1.0
290
     1
  0
SCALE
  5
49
102
{ACAD_REACTORS
330
47
102
}
330
47
100
AcDbScale
 70
     0
300
1:2
140
1.0
141
2.0
290
     0
  0
SCALE
  5
4A
102
{ACAD_REACTORS
330
47
102
}
330
47
100
AcDbScale
 70
     0
300
1:4
140
1.0
141
4.0
290
     0
  0
SCALE
  5
4B
102
{ACAD_REACTORS
330
47
102
}
330
47
100
AcDbScale
 70
     0
300
1:5
140
1.0
141
5.0
290
     0
  0
SCALE
  5
4C
102
{ACAD_REACTORS
330
47
102
}
330
47
100
AcDbScale
 70
     0
300
1:8
140
1.0
141
8.0
290
     0
  0
SCALE
  5
4D
102
{ACAD_REACTORS
330
47
102
}
330
47
100
AcDbScale
 70
     0
300
1:10
140
1.0
141
10.0
290
     0
  0
SCALE
  5
4E
102
{ACAD_REACTORS
330
47
102
}
330
47
100
AcDbScale
 70
     0
300
1:16
140
1.0
141
16.0
290
     0
  0
SCALE
  5
4F
102
{ACAD_REACTORS
330
47
102
}
330
47
100
AcDbScale
 70
     0
300
1:20
140
1.0
141
20.0
290
     0
  0
SCALE
  5
50
102
{ACAD_REACTORS
330
47
102
}
330
47
100
AcDbScale
 70
     0
300
1:30
140
1.0
141
30.0
290
     0
  0
SCALE
  5
51
102
{ACAD_REACTORS
330
47
102
}
330
47
100
AcDbScale
 70
     0
300
1:40
140
1.0
141
40.0
290
     0
  0
SCALE
  5
52
102
{ACAD_REACTORS
330
47
102
}
330
47
100
AcDbScale
 70
     0
300
1:50
140
1.0
141
50.0
290
     0
  0
SCALE
  5
53
102
{ACAD_REACTORS
330
47
102
}
330
47
100
AcDbScale
 70
     0
300
1:100
140
1.0
141
100.0
290
     0
  0
SCALE
  5
54
102
{ACAD_REACTORS
330
47
102
}
330
47
100
AcDbScale
 70
     0
300
2:1
140
2.0
141
1.0
290
     0
  0
SCALE
  5
55
102
{ACAD_REACTORS
330
47
102
}
330
47
100
AcDbScale
 70
     0
300
4:1
140
4.0
141
1.0
290
     0
  0
SCALE
  5
56
102
{ACAD_REACTORS
330
47
102
}
330
47
100
AcDbScale
 70
     0
300
8:1
140
8.0
141
1.0
290
     0
  0
SCALE
  5
57
102
{ACAD_REACTORS
330
47
102
}
330
47
100
AcDbScale
 70
     0
300
10:1
140
10.0
141
1.0
290
     0
  0
SCALE
  5
58
102
{ACAD_REACTORS
330
47
102
}
330
47
100
AcDbScale
 70
     0
300
100:1
140
100.0
141
1.0
290
     0
  0
SCALE
  5
59
102
{ACAD_REACTORS
330
47
102
}
330
47
100
AcDbScale
 70
     0
300
1/128" = 1'-0"
140
0.0078125
141
12.0
290
     0
  0
SCALE
  5
5A
102
{ACAD_REACTORS
330
47
102
}
330
47
100
AcDbScale
 70
     0
300
1/64" = 1'-0"
140
0.015625
141
12.0
290
     0
  0
SCALE
  5
5B
102
{ACAD_REACTORS
330
47
102
}
330
47
100
AcDbScale
 70
     0
300
1/32" = 1'-0"
140
0.03125
141
12.0
290
     0
  0
SCALE
  5
5C
102
{ACAD_REACTORS
330
47
102
}
330
47
100
AcDbScale
 70
     0
300
1/16" = 1'-0"
140
0.0625
141
12.0
290
     0
  0
SCALE
  5
5D
102
{ACAD_REACTORS
330
47
102
}
330
47
100
AcDbScale
 70
     0
300
3/32" = 1'-0"
140
0.09375
141
12.0
290
     0
  0
SCALE
  5
5E
102
{ACAD_REACTORS
330
47
102
}
330
47
100
AcDbScale
 70
     0
300
1/8" = 1'-0"
140
0.125
141
12.0
290
     0
  0
SCALE
  5
5F
102
{ACAD_REACTORS
330
47
102
}
330
47
100
AcDbScale
 70
     0
300
3/16" = 1'-0"
140
0.1875
141
12.0
290
     0
  0
SCALE
  5
60
102
{ACAD_REACTORS
330
47
102
}
330
47
100
AcDbScale
 70
     0
300
1/4" = 1'-0"
140
0.25
141
12.0
290
     0
  0
SCALE
  5
61
102
{ACAD_REACTORS
330
47
102
}
330
47
100
AcDbScale
 70
     0
300
3/8" = 1'-0"
140
0.375
141
12.0
290
     0
  0
SCALE
  5
62
102
{ACAD_REACTORS
330
47
102
}
330
47
100
AcDbScale
 70
     0
300
1/2" = 1'-0"
140
0.5
141
12.0
290
     0
  0
SCALE
  5
63
102
{ACAD_REACTORS
330
47
102
}
330
47
100
AcDbScale
 70
     0
300
3/4" = 1'-0"
140
0.75
141
12.0
290
     0
  0
SCALE
  5
64
102
{ACAD_REACTORS
330
47
102
}
330
47
100
AcDbScale
 70
     0
300
1" = 1'-0"
140
1.0
141
12.0
290
     0
  0
SCALE
  5
65
102
{ACAD_REACTORS
330
47
102
}
330
47
100
AcDbScale
 70
     0
300
1-1/2" = 1'-0"
140
1.5
141
12.0
290
     0
  0
SCALE
  5
66
102
{ACAD_REACTORS
330
47
102
}
330
47
100
AcDbScale
 70
     0
300
3" = 1'-0"
140
3.0
141
12.0
290
     0
  0
SCALE
  5
67
102
{ACAD_REACTORS
330
47
102
}
330
47
100
AcDbScale
 70
     0
300
6" = 1'-0"
140
6.0
141
12.0
290
     0
  0
SCALE
  5
68
102
{ACAD_REACTORS
330
47
102
}
330
47
100
AcDbScale
 70
     0
300
1'-0" = 1'-0"
140
12.0
141
12.0
290
     0
  0
ENDSEC
  0
EOF
