  0
SECTION
  2
HEADER
  9
$ACADVER
  1
AC1015
  9
$ACADMAINTVER
 70
     6
  9
$DWGCODEPAGE
  3
ANSI_1251
  9
$INSBASE
 10
0.0
 20
0.0
 30
0.0
  9
$EXTMIN
 10
0.0
 20
0.0
 30
0.0
  9
$EXTMAX
 10
420.0
 20
297.0
 30
0.0
  9
$LIMMIN
 10
0.0
 20
0.0
  9
$LIMMAX
 10
420.0
 20
297.0
  9
$ORTHOMODE
 70
     0
  9
$REGENMODE
 70
     1
  9
$FILLMODE
 70
     1
  9
$QTEXTMODE
 70
     0
  9
$MIRRTEXT
 70
     1
  9
$LTSCALE
 40
1.0
  9
$ATTMODE
 70
     1
  9
$TEXTSIZE
 40
5.0
  9
$TRACEWID
 40
1.0
  9
$TEXTSTYLE
  7
Standard
  9
$CLAYER
  8
0
  9
$CELTYPE
  6
ByLayer
  9
$CECOLOR
 62
   256
  9
$CELTSCALE
 40
1.0
  9
$DISPSILH
 70
     0
  9
$DIMSCALE
 40
1.0
  9
$DIMASZ
 40
5.0
  9
$DIMEXO
 40
0.0
  9
$DIMDLI
 40
3.75
  9
$DIMRND
 40
0.0
  9
$DIMDLE
 40
0.0
  9
$DIMEXE
 40
1.0
  9
$DIMTP
 40
0.0
  9
$DIMTM
 40
0.0
  9
$DIMTXT
 40
3.5
  9
$DIMCEN
 40
2.5
  9
$DIMTSZ
 40
0.0
  9
$DIMTOL
 70
     0
  9
$DIMLIM
 70
     0
  9
$DIMTIH
 70
     1
  9
$DIMTOH
 70
     1
  9
$DIMSE1
 70
     0
  9
$DIMSE2
 70
     0
  9
$DIMTAD
 70
     1
  9
$DIMZIN
 70
     0
  9
$DIMBLK
  1

  9
$DIMASO
 70
     1
  9
$DIMSHO
 70
     1
  9
$DIMPOST
  1

  9
$DIMAPOST
  1

  9
$DIMALT
 70
     0
  9
$DIMALTD
 70
     3
  9
$DIMALTF
 40
0.0393700787
  9
$DIMLFAC
 40
1.0
  9
$DIMTOFL
 70
     1
  9
$DIMTVP
 40
0.0
  9
$DIMTIX
 70
     0
  9
$DIMSOXD
 70
     0
  9
$DIMSAH
 70
     0
  9
$DIMBLK1
  1

  9
$DIMBLK2
  1

  9
$DIMSTYLE
  2
ISO-25
  9
$DIMCLRD
 70
     0
  9
$DIMCLRE
 70
     0
  9
$DIMCLRT
 70
     0
  9
$DIMTFAC
 40
1.0
  9
$DIMGAP
 40
1.5
  9
$DIMJUST
 70
     0
  9
$DIMSD1
 70
     0
  9
$DIMSD2
 70
     0
  9
$DIMTOLJ
 70
     0
  9
$DIMTZIN
 70
     0
  9
$DIMALTZ
 70
     0
  9
$DIMALTTZ
 70
     0
  9
$DIMUPT
 70
     0
  9
$DIMDEC
 70
     1
  9
$DIMTDEC
 70
     1
  9
$DIMALTU
 70
     2
  9
$DIMALTTD
 70
     3
  9
$DIMTXSTY
  7
Standard
  9
$DIMAUNIT
 70
     0
  9
$DIMADEC
 70
     2
  9
$DIMALTRND
 40
0.0
  9
$DIMAZIN
 70
     0
  9
$DIMDSEP
 70
    44
  9
$DIMATFIT
 70
     3
  9
$DIMFRAC
 70
     0
  9
$DIMLDRBLK
  1

  9
$DIMLUNIT
 70
     2
  9
$DIMLWD
 70
    -2
  9
$DIMLWE
 70
    -2
  9
$DIMTMOVE
 70
     0
  9
$LUNITS
 70
     2
  9
$LUPREC
 70
     1
  9
$SKETCHINC
 40
1.0
  9
$FILLETRAD
 40
0.0
  9
$AUNITS
 70
     0
  9
$AUPREC
 70
     2
  9
$MENU
  1
.
  9
$ELEVATION
 40
0.0
  9
$PELEVATION
 40
0.0
  9
$THICKNESS
 40
0.0
  9
$LIMCHECK
 70
     0
  9
$CHAMFERA
 40
0.0
  9
$CHAMFERB
 40
0.0
  9
$CHAMFERC
 40
0.0
  9
$CHAMFERD
 40
0.0
  9
$SKPOLY
 70
     0
  9
$TDCREATE
 40
2460697.706568958
  9
$TDUCREATE
 40
2460697.581568958
  9
$TDUPDATE
 40
2460697.706569444
  9
$TDUUPDATE
 40
2460697.581569444
  9
$TDINDWG
 40
0.0000000116
  9
$TDUSRTIMER
 40
0.0000000116
  9
$USRTIMER
 70
     1
  9
$ANGBASE
 50
0.0
  9
$ANGDIR
 70
     0
  9
$PDMODE
 70
     0
  9
$PDSIZE
 40
-1.0
  9
$PLINEWID
 40
0.0
  9
$SPLFRAME
 70
     0
  9
$SPLINETYPE
 70
     6
  9
$SPLINESEGS
 70
     8
  9
$HANDSEED
  5
516
  9
$SURFTAB1
 70
     6
  9
$SURFTAB2
 70
     6
  9
$SURFTYPE
 70
     6
  9
$SURFU
 70
     6
  9
$SURFV
 70
     6
  9
$UCSBASE
  2

  9
$UCSNAME
  2

  9
$UCSORG
 10
0.0
 20
0.0
 30
0.0
  9
$UCSXDIR
 10
1.0
 20
0.0
 30
0.0
  9
$UCSYDIR
 10
0.0
 20
1.0
 30
0.0
  9
$UCSORTHOREF
  2

  9
$UCSORTHOVIEW
 70
     0
  9
$UCSORGTOP
 10
0.0
 20
0.0
 30
0.0
  9
$UCSORGBOTTOM
 10
0.0
 20
0.0
 30
0.0
  9
$UCSORGLEFT
 10
0.0
 20
0.0
 30
0.0
  9
$UCSORGRIGHT
 10
0.0
 20
0.0
 30
0.0
  9
$UCSORGFRONT
 10
0.0
 20
0.0
 30
0.0
  9
$UCSORGBACK
 10
0.0
 20
0.0
 30
0.0
  9
$PUCSBASE
  2

  9
$PUCSNAME
  2

  9
$PUCSORG
 10
0.0
 20
0.0
 30
0.0
  9
$PUCSXDIR
 10
1.0
 20
0.0
 30
0.0
  9
$PUCSYDIR
 10
0.0
 20
1.0
 30
0.0
  9
$PUCSORTHOREF
  2

  9
$PUCSORTHOVIEW
 70
     0
  9
$PUCSORGTOP
 10
0.0
 20
0.0
 30
0.0
  9
$PUCSORGBOTTOM
 10
0.0
 20
0.0
 30
0.0
  9
$PUCSORGLEFT
 10
0.0
 20
0.0
 30
0.0
  9
$PUCSORGRIGHT
 10
0.0
 20
0.0
 30
0.0
  9
$PUCSORGFRONT
 10
0.0
 20
0.0
 30
0.0
  9
$PUCSORGBACK
 10
0.0
 20
0.0
 30
0.0
  9
$USERI1
 70
     0
  9
$USERI2
 70
     0
  9
$USERI3
 70
     0
  9
$USERI4
 70
     0
  9
$USERI5
 70
     0
  9
$USERR1
 40
0.0
  9
$USERR2
 40
0.0
  9
$USERR3
 40
0.0
  9
$USERR4
 40
0.0
  9
$USERR5
 40
0.0
  9
$WORLDVIEW
 70
     1
  9
$SHADEDGE
 70
     3
  9
$SHADEDIF
 70
    70
  9
$TILEMODE
 70
     1
  9
$MAXACTVP
 70
    64
  9
$PINSBASE
 10
0.0
 20
0.0
 30
0.0
  9
$PLIMCHECK
 70
     0
  9
$PEXTMIN
 10
1.0000000000E+20
 20
1.0000000000E+20
 30
1.0000000000E+20
  9
$PEXTMAX
 10
-1.0000000000E+20
 20
-1.0000000000E+20
 30
-1.0000000000E+20
  9
$PLIMMIN
 10
0.0
 20
0.0
  9
$PLIMMAX
 10
420.0
 20
297.0
  9
$UNITMODE
 70
     0
  9
$VISRETAIN
 70
     1
  9
$PLINEGEN
 70
     0
  9
$PSLTSCALE
 70
     1
  9
$TREEDEPTH
 70
  3020
  9
$CMLSTYLE
  2
Standard
  9
$CMLJUST
 70
     0
  9
$CMLSCALE
 40
20.0
  9
$PROXYGRAPHICS
 70
     1
  9
$MEASUREMENT
 70
     1
  9
$CELWEIGHT
370
    -1
  9
$ENDCAPS
280
     0
  9
$JOINSTYLE
280
     0
  9
$LWDISPLAY
290
     1
  9
$INSUNITS
 70
     4
  9
$HYPERLINKBASE
  1

  9
$STYLESHEET
  1

  9
$XEDIT
290
     1
  9
$CEPSNTYPE
380
     0
  9
$PSTYLEMODE
290
     1
  9
$FINGERPRINTGUID
  2
{d8781017-3066-402b-a9e7-d3f0aa284376}
  9
$VERSIONGUID
  2
{FAEB1C32-E019-11D5-929B-00C0DF256EC4}
  9
$EXTNAMES
290
     1
  9
$PSVPSCALE
 40
0.0
  9
$OLESTARTUP
290
     0
  0
ENDSEC
  0
SECTION
  2
CLASSES
  0
CLASS
  1
ACDBDICTIONARYWDFLT
  2
AcDbDictionaryWithDefault
  3
ObjectDBX Classes
 90
        0
280
     0
281
     0
  0
CLASS
  1
VISUALSTYLE
  2
AcDbVisualStyle
  3
ObjectDBX Classes
 90
     4095
280
     0
281
     0
  0
CLASS
  1
MATERIAL
  2
AcDbMaterial
  3
ObjectDBX Classes
 90
     1153
280
     0
281
     0
  0
CLASS
  1
SCALE
  2
AcDbScale
  3
ObjectDBX Classes
 90
     1153
280
     0
281
     0
  0
CLASS
  1
TABLESTYLE
  2
AcDbTableStyle
  3
ObjectDBX Classes
 90
     4095
280
     0
281
     0
  0
CLASS
  1
MLEADERSTYLE
  2
AcDbMLeaderStyle
  3
ACDB_MLEADERSTYLE_CLASS
 90
     4095
280
     0
281
     0
  0
CLASS
  1
SUN
  2
AcDbSun
  3
SCENEOE
 90
     1153
280
     0
281
     0
  0
CLASS
  1
ACDBPLACEHOLDER
  2
AcDbPlaceHolder
  3
ObjectDBX Classes
 90
        0
280
     0
281
     0
  0
CLASS
  1
LAYOUT
  2
AcDbLayout
  3
ObjectDBX Classes
 90
        0
280
     0
281
     0
  0
ENDSEC
  0
SECTION
  2
TABLES
  0
TABLE
  2
VPORT
  5
8
330
0
100
AcDbSymbolTable
 70
     1
  0
VPORT
  5
29
330
8
100
AcDbSymbolTableRecord
100
AcDbViewportTableRecord
  2
*Active
 70
     0
 10
0.0
 20
0.0
 11
1.0
 21
1.0
 12
210.0
 22
148.5
 13
0.0
 23
0.0
 14
10.0
 24
10.0
 15
10.0
 25
10.0
 16
0.0
 26
0.0
 36
1.0
 17
0.0
 27
0.0
 37
0.0
 40
297.0
 41
1.4141414141
 42
50.0
 43
0.0
 44
0.0
 50
0.0
 51
0.0
 71
     0
 72
  2000
 73
     1
 74
     3
 75
     0
 76
     0
 77
     0
 78
     0
281
     0
 65
     1
110
0.0
120
0.0
130
0.0
111
1.0
121
0.0
131
0.0
112
0.0
122
1.0
132
0.0
 79
     0
146
0.0
  0
ENDTAB
  0
TABLE
  2
LTYPE
  5
5
330
0
100
AcDbSymbolTable
 70
     6
  0
LTYPE
  5
14
330
5
100
AcDbSymbolTableRecord
100
AcDbLinetypeTableRecord
  2
ByBlock
 70
     0
  3

 72
    65
 73
     0
 40
0.0
  0
LTYPE
  5
15
330
5
100
AcDbSymbolTableRecord
100
AcDbLinetypeTableRecord
  2
ByLayer
 70
     0
  3

 72
    65
 73
     0
 40
0.0
  0
LTYPE
  5
16
330
5
100
AcDbSymbolTableRecord
100
AcDbLinetypeTableRecord
  2
Continuous
 70
     0
  3
Solid line
 72
    65
 73
     0
 40
0.0
  0
LTYPE
  5
5E
330
5
100
AcDbSymbolTableRecord
100
AcDbLinetypeTableRecord
  2
HIDDEN
 70
     0
  3
Hidden __ __ __ __ __ __ __ __ __ __ __ __ __ __
 72
    65
 73
     2
 40
1.905
 49
1.27
 74
     0
 49
-0.635
 74
     0
  0
LTYPE
  5
5F
330
5
100
AcDbSymbolTableRecord
100
AcDbLinetypeTableRecord
  2
PHANTOM
 70
     0
  3
Phantom ______  __  __  ______  __  __  ______
 72
    65
 73
     6
 40
12.7
 49
6.35
 74
     0
 49
-1.27
 74
     0
 49
1.27
 74
     0
 49
-1.27
 74
     0
 49
1.27
 74
     0
 49
-1.27
 74
     0
  0
LTYPE
  5
60
330
5
100
AcDbSymbolTableRecord
100
AcDbLinetypeTableRecord
  2
CENTER
 70
     0
  3
Center ____ _ ____ _ ____ _ ____ _ ____ _ ____
 72
    65
 73
     4
 40
10.16
 49
6.35
 74
     0
 49
-1.27
 74
     0
 49
1.27
 74
     0
 49
-1.27
 74
     0
  0
LTYPE
  5
61
330
5
100
AcDbSymbolTableRecord
100
AcDbLinetypeTableRecord
  2
CENTERX2
 70
     0
  3
Center (2x) ________  __  ________  __  _____
 72
    65
 73
     4
 40
20.32
 49
12.7
 74
     0
 49
-2.54
 74
     0
 49
2.54
 74
     0
 49
-2.54
 74
     0
  0
LTYPE
  5
62
330
5
100
AcDbSymbolTableRecord
100
AcDbLinetypeTableRecord
  2
DOT2
 70
     0
  3
Dot (.5x) ........................................
 72
    65
 73
     2
 40
0.635
 49
0.0
 74
     0
 49
-0.635
 74
     0
  0
ENDTAB
  0
TABLE
  2
LAYER
  5
2
330
0
100
AcDbSymbolTable
 70
     3
  0
LAYER
  5
10
330
2
100
AcDbSymbolTableRecord
100
AcDbLayerTableRecord
  2
0
 70
     0
 62
     7
  6
Continuous
370
    -3
390
F
  0
LAYER
  5
63
330
2
100
AcDbSymbolTableRecord
100
AcDbLayerTableRecord
  2
ВОДЯНОЙ_ЗНАК
 70
     0
 62
    11
  6
Continuous
370
    -3
390
F
  0
LAYER
  5
64
330
2
100
AcDbSymbolTableRecord
100
AcDbLayerTableRecord
  2
ОСНОВНОЙ
 70
     0
 62
     7
  6
Continuous
370
    -3
390
F
  0
ENDTAB
  0
TABLE
  2
STYLE
  5
3
330
0
100
AcDbSymbolTable
 70
     1
  0
STYLE
  5
11
330
3
100
AcDbSymbolTableRecord
100
AcDbTextStyleTableRecord
  2
Standard
 70
     0
 40
0.0
 41
1.0
 50
0.0
 71
     0
 42
5.0
  3
txt
  4

  0
ENDTAB
  0
TABLE
  2
VIEW
  5
6
330
0
100
AcDbSymbolTable
 70
     0
  0
ENDTAB
  0
TABLE
  2
UCS
  5
7
330
0
100
AcDbSymbolTable
 70
     0
  0
ENDTAB
  0
TABLE
  2
APPID
  5
9
330
0
100
AcDbSymbolTable
 70
     1
  0
APPID
  5
12
330
9
100
AcDbSymbolTableRecord
100
AcDbRegAppTableRecord
  2
ACAD
 70
     0
  0
ENDTAB
  0
TABLE
  2
DIMSTYLE
  5
A
330
0
100
AcDbSymbolTable
 70
     1
100
AcDbDimStyleTable
  0
DIMSTYLE
105
27
330
A
100
AcDbSymbolTableRecord
100
AcDbDimStyleTableRecord
  2
ISO-25
 70
     0
 41
2.5
 42
0.625
 43
3.75
 44
1.25
 73
     0
 74
     0
 77
     1
 78
     8
140
2.5
141
2.5
143
0.0393700787
147
0.625
171
     3
172
     1
178
     0
271
     2
272
     2
274
     3
278
    44
283
     0
284
     8
340
11
  0
ENDTAB
  0
TABLE
  2
BLOCK_RECORD
  5
1
330
0
100
AcDbSymbolTable
 70
     1
  0
BLOCK_RECORD
  5
1F
330
1
100
AcDbSymbolTableRecord
100
AcDbBlockTableRecord
  2
*Model_Space
340
22
  0
BLOCK_RECORD
  5
1B
330
1
100
AcDbSymbolTableRecord
100
AcDbBlockTableRecord
  2
*Paper_Space
340
1E
  0
BLOCK_RECORD
  5
23
330
1
100
AcDbSymbolTableRecord
100
AcDbBlockTableRecord
  2
*Paper_Space0
340
26
  0
ENDTAB
  0
ENDSEC
  0
SECTION
  2
BLOCKS
  0
BLOCK
  5
20
330
1F
100
AcDbEntity
  8
0
100
AcDbBlockBegin
  2
*Model_Space
 70
     0
 10
0.0
 20
0.0
 30
0.0
  3
*Model_Space
  1

  0
ENDBLK
  5
21
330
1F
100
AcDbEntity
  8
0
100
AcDbBlockEnd
  0
BLOCK
  5
1C
330
1B
100
AcDbEntity
 67
     1
  8
0
100
AcDbBlockBegin
  2
*Paper_Space
 70
     0
 10
0.0
 20
0.0
 30
0.0
  3
*Paper_Space
  1

  0
ENDBLK
  5
1D
330
1B
100
AcDbEntity
 67
     1
  8
0
100
AcDbBlockEnd
  0
BLOCK
  5
24
330
23
100
AcDbEntity
  8
0
100
AcDbBlockBegin
  2
*Paper_Space0
 70
     0
 10
0.0
 20
0.0
 30
0.0
  3
*Paper_Space0
  1

  0
ENDBLK
  5
25
330
23
100
AcDbEntity
  8
0
100
AcDbBlockEnd
  0
ENDSEC
  0
SECTION
  2
ENTITIES
  0
LINE
  5
65
330
1F
100
AcDbEntity
  8
0
  6
Continuous
 62
     7
100
AcDbLine
 10
818.8688263388
 20
38.2969691511
 30
0.0
 11
818.2329069023
 21
38.0217980467
 31
0.0
  0
ARC
  5
66
330
1F
100
AcDbEntity
  8
0
  6
Continuous
 62
     7
100
AcDbCircle
 10
821.7439810582
 20
39.5410882236
 30
0.0
 40
3.825687437599099
100
AcDbArc
 50
23.398800266
 51
203.398800266
  0
LINE
  5
67
330
1F
100
AcDbEntity
  8
0
  6
Continuous
 62
     7
100
AcDbLine
 10
824.6191357776
 20
40.7852072962
 30
0.0
 11
825.2550552142
 21
41.0603784006
 31
0.0
  0
ARC
  5
68
330
1F
100
AcDbEntity
  8
0
  6
Continuous
 62
     7
100
AcDbCircle
 10
821.7439810582
 20
39.5410882236
 30
0.0
 40
3.132785809343718
100
AcDbArc
 50
23.398800266
 51
203.398800266
  0
ARC
  5
69
330
1F
100
AcDbEntity
  8
0
  6
Continuous
 62
     7
100
AcDbCircle
 10
1037.7439810582
 20
39.5410882236
 30
0.0
 40
3.825687437599122
100
AcDbArc
 50
0.0914128928
 51
180.0914128928
  0
LINE
  5
6A
330
1F
100
AcDbEntity
  8
0
  6
Continuous
 62
     7
100
AcDbLine
 10
1040.8767628803
 20
39.5460864433
 30
0.0
 11
1041.5696636267
 21
39.5471919369
 31
0.0
  0
ARC
  5
6B
330
1F
100
AcDbEntity
  8
0
  6
Continuous
 62
     7
100
AcDbCircle
 10
1037.7439810582
 20
39.5410882236
 30
0.0
 40
3.132785809343955
100
AcDbArc
 50
0.0914128928
 51
180.0914128928
  0
LINE
  5
6C
330
1F
100
AcDbEntity
  8
0
  6
Continuous
 62
     7
100
AcDbLine
 10
1034.6111992361
 20
39.536090004
 30
0.0
 11
1033.9182984897
 21
39.5349845104
 31
0.0
  0
ARC
  5
6D
330
1F
100
AcDbEntity
  8
0
  6
Continuous
 62
     7
100
AcDbCircle
 10
821.7439810582
 20
39.5410882236
 30
0.0
 40
3.132785809343718
100
AcDbArc
 50
203.398800266
 51
23.398800266
  0
ARC
  5
6E
330
1F
100
AcDbEntity
  8
0
  6
Continuous
 62
     7
100
AcDbCircle
 10
815.8664422004
 20
36.9977961555
 30
0.0
 40
4.154201555956199
100
AcDbArc
 50
23.398800266
 51
39.3620797277
  0
ARC
  5
6F
330
1F
100
AcDbEntity
  8
0
  6
Continuous
 62
     7
100
AcDbCircle
 10
815.8664422004
 20
36.9977961555
 30
0.0
 40
4.154201555956177
100
AcDbArc
 50
7.4355208042
 51
23.398800266
  0
ARC
  5
70
330
1F
100
AcDbEntity
  8
0
  6
Continuous
 62
     7
100
AcDbCircle
 10
820.2831889293
 20
37.574215997
 30
0.0
 40
0.3000000000005968
100
AcDbArc
 50
187.4355208042
 51
279.3620797277
  0
ARC
  5
71
330
1F
100
AcDbEntity
  8
0
  6
Continuous
 62
     7
100
AcDbCircle
 10
821.0077671695
 20
33.179344227
 30
0.0
 40
4.154201555956266
100
AcDbArc
 50
67.4355208042
 51
99.3620797277
  0
ARC
  5
72
330
1F
100
AcDbEntity
  8
0
  6
Continuous
 62
     7
100
AcDbCircle
 10
822.716946308
 20
37.292569017
 30
0.0
 40
0.3000000000005906
100
AcDbArc
 50
247.4355208042
 51
339.3620797277
  0
ARC
  5
73
330
1F
100
AcDbEntity
  8
0
  6
Continuous
 62
     7
100
AcDbCircle
 10
826.8853060274
 20
35.7226362951
 30
0.0
 40
4.15420155595628
100
AcDbArc
 50
127.4355208042
 51
159.3620797277
  0
ARC
  5
74
330
1F
100
AcDbEntity
  8
0
  6
Continuous
 62
     7
100
AcDbCircle
 10
824.177738437
 20
39.2594412437
 30
0.0
 40
0.3000000000006323
100
AcDbArc
 50
23.398800266
 51
39.3620797277
  0
ARC
  5
75
330
1F
100
AcDbEntity
  8
0
  6
Continuous
 62
     7
100
AcDbCircle
 10
827.6215199161
 20
42.0843802918
 30
0.0
 40
4.154201555956215
100
AcDbArc
 50
187.4355208042
 51
219.3620797277
  0
ARC
  5
76
330
1F
100
AcDbEntity
  8
0
  6
Continuous
 62
     7
100
AcDbCircle
 10
823.2047731871
 20
41.5079604503
 30
0.0
 40
0.3000000000007395
100
AcDbArc
 50
7.4355208043
 51
23.3988002659
  0
ARC
  5
77
330
1F
100
AcDbEntity
  8
0
  6
Continuous
 62
     7
100
AcDbCircle
 10
823.2047731871
 20
41.5079604503
 30
0.0
 40
0.3000000000007395
100
AcDbArc
 50
23.3988002659
 51
99.3620797277
  0
ARC
  5
78
330
1F
100
AcDbEntity
  8
0
  6
Continuous
 62
     7
100
AcDbCircle
 10
822.4801949469
 20
45.9028322203
 30
0.0
 40
4.154201555956205
100
AcDbArc
 50
247.4355208042
 51
279.3620797277
  0
ARC
  5
79
330
1F
100
AcDbEntity
  8
0
  6
Continuous
 62
     7
100
AcDbCircle
 10
820.7710158084
 20
41.7896074303
 30
0.0
 40
0.2999999999998196
100
AcDbArc
 50
67.4355208042
 51
159.3620797277
  0
ARC
  5
7A
330
1F
100
AcDbEntity
  8
0
  6
Continuous
 62
     7
100
AcDbCircle
 10
816.6026560891
 20
43.3595401522
 30
0.0
 40
4.154201555956597
100
AcDbArc
 50
307.4355208042
 51
339.3620797277
  0
ARC
  5
7B
330
1F
100
AcDbEntity
  8
0
  6
Continuous
 62
     7
100
AcDbCircle
 10
819.3102236795
 20
39.8227352036
 30
0.0
 40
0.3000000000005326
100
AcDbArc
 50
127.4355208042
 51
219.3620797277
  0
ARC
  5
7C
330
1F
100
AcDbEntity
  8
0
  6
Continuous
 62
     7
100
AcDbCircle
 10
824.177738437
 20
39.2594412437
 30
0.0
 40
0.3000000000006323
100
AcDbArc
 50
307.4355208042
 51
23.398800266
  0
ARC
  5
7D
330
1F
100
AcDbEntity
  8
0
  6
Continuous
 62
     7
100
AcDbCircle
 10
821.7439810582
 20
39.5410882236
 30
0.0
 40
3.825687437599099
100
AcDbArc
 50
203.398800266
 51
23.398800266
  0
ARC
  5
7E
330
1F
100
AcDbEntity
  8
0
  6
Continuous
 62
     7
100
AcDbCircle
 10
1037.7439810582
 20
39.5410882236
 30
0.0
 40
3.132785809343955
100
AcDbArc
 50
180.0914128928
 51
0.0914128928
  0
ARC
  5
7F
330
1F
100
AcDbEntity
  8
0
  6
Continuous
 62
     7
100
AcDbCircle
 10
1044.1481744633
 20
39.5513058408
 30
0.0
 40
4.154201555956275
100
AcDbArc
 50
164.1281334311
 51
180.0914128928
  0
ARC
  5
80
330
1F
100
AcDbEntity
  8
0
  6
Continuous
 62
     7
100
AcDbCircle
 10
1039.8637861643
 20
40.7694718413
 30
0.0
 40
0.3000000000004762
100
AcDbArc
 50
344.1281334311
 51
76.0546923546
  0
ARC
  5
81
330
1F
100
AcDbEntity
  8
0
  6
Continuous
 62
     7
100
AcDbCircle
 10
1040.9372290447
 20
45.0923912118
 30
0.0
 40
4.154201555956382
100
AcDbArc
 50
224.1281334311
 51
256.0546923546
  0
ARC
  5
82
330
1F
100
AcDbEntity
  8
0
  6
Continuous
 62
     7
100
AcDbCircle
 10
1037.7400721928
 20
41.9910851054
 30
0.0
 40
0.3000000000006892
100
AcDbArc
 50
44.1281334311
 51
136.0546923546
  0
ARC
  5
83
330
1F
100
AcDbEntity
  8
0
  6
Continuous
 62
     7
100
AcDbCircle
 10
1040.9549264768
 20
34.0000028527
 30
0.0
 40
4.154201555956384
100
AcDbArc
 50
104.1281334311
 51
136.0546923546
  0
ARC
  5
84
330
1F
100
AcDbEntity
  8
0
  6
Continuous
 62
     7
100
AcDbCircle
 10
1039.8676950298
 20
38.3194749595
 30
0.0
 40
0.300000000000436
100
AcDbArc
 50
284.128133431
 51
16.0546923546
  0
ARC
  5
85
330
1F
100
AcDbEntity
  8
0
  6
Continuous
 62
     7
100
AcDbCircle
 10
1034.5330356396
 20
45.0821735946
 30
0.0
 40
4.154201555956289
100
AcDbArc
 50
284.1281334311
 51
316.0546923546
  0
ARC
  5
86
330
1F
100
AcDbEntity
  8
0
  6
Continuous
 62
     7
100
AcDbCircle
 10
1035.6202670867
 20
40.7627014878
 30
0.0
 40
0.3000000000008338
100
AcDbArc
 50
180.0914128928
 51
196.0546923546
  0
ARC
  5
87
330
1F
100
AcDbEntity
  8
0
  6
Continuous
 62
     7
100
AcDbCircle
 10
1044.1481744633
 20
39.5513058408
 30
0.0
 40
4.154201555956275
100
AcDbArc
 50
180.0914128928
 51
196.0546923546
  0
ARC
  5
88
330
1F
100
AcDbEntity
  8
0
  6
Continuous
 62
     7
100
AcDbCircle
 10
1035.6241759521
 20
38.312704606
 30
0.0
 40
0.3000000000005991
100
AcDbArc
 50
180.0914128928
 51
256.0546923546
  0
ARC
  5
89
330
1F
100
AcDbEntity
  8
0
  6
Continuous
 62
     7
100
AcDbCircle
 10
1035.6241759521
 20
38.312704606
 30
0.0
 40
0.3000000000006425
100
AcDbArc
 50
164.1281334311
 51
180.0914128928
  0
ARC
  5
8A
330
1F
100
AcDbEntity
  8
0
  6
Continuous
 62
     7
100
AcDbCircle
 10
1037.7478899237
 20
37.0910913419
 30
0.0
 40
0.2999999999999318
100
AcDbArc
 50
224.1281334311
 51
316.0546923546
  0
ARC
  5
8B
330
1F
100
AcDbEntity
  8
0
  6
Continuous
 62
     7
100
AcDbCircle
 10
1035.6202670867
 20
40.7627014878
 30
0.0
 40
0.3000000000007211
100
AcDbArc
 50
104.1281334311
 51
180.0914128928
  0
ARC
  5
8C
330
1F
100
AcDbEntity
  8
0
  6
Continuous
 62
     7
100
AcDbCircle
 10
1031.3397876531
 20
39.5308706064
 30
0.0
 40
4.154201555956296
100
AcDbArc
 50
344.1281334311
 51
16.0546923546
  0
ARC
  5
8D
330
1F
100
AcDbEntity
  8
0
  6
Continuous
 62
     7
100
AcDbCircle
 10
1034.5507330717
 20
33.9897852355
 30
0.0
 40
4.154201555956279
100
AcDbArc
 50
44.1281334311
 51
76.0546923546
  0
ARC
  5
8E
330
1F
100
AcDbEntity
  8
0
  6
Continuous
 62
     7
100
AcDbCircle
 10
1037.7439810582
 20
39.5410882236
 30
0.0
 40
3.825687437599122
100
AcDbArc
 50
180.0914128928
 51
0.0914128928
  0
ARC
  5
8F
330
1F
100
AcDbEntity
  8
0
  6
Continuous
 62
     7
100
AcDbCircle
 10
1037.7439810582
 20
39.5410882236
 30
0.0
 40
5.092901628255664
100
AcDbArc
 50
0.0914128928
 51
180.0914128928
  0
LINE
  5
90
330
1F
100
AcDbEntity
  8
0
  6
Continuous
 62
     7
100
AcDbLine
 10
1041.5696636267
 20
39.5471919369
 30
0.0
 11
1042.8368762045
 21
39.5492137205
 31
0.0
  0
LINE
  5
91
330
1F
100
AcDbEntity
  8
0
  6
Continuous
 62
     7
100
AcDbLine
 10
1033.9182984897
 20
39.5349845104
 30
0.0
 11
1032.6510859119
 21
39.5329627268
 31
0.0
  0
ARC
  5
92
330
1F
100
AcDbEntity
  8
0
  6
Continuous
 62
     7
100
AcDbCircle
 10
1037.7439810582
 20
39.5410882236
 30
0.0
 40
5.092901628255664
100
AcDbArc
 50
180.0914128928
 51
0.0914128928
  0
LINE
  5
93
330
1F
100
AcDbEntity
  8
0
  6
Continuous
 62
     7
100
AcDbLine
 10
818.2329069023
 20
38.0217980467
 30
0.0
 11
817.0699046792
 21
37.5185509563
 31
0.0
  0
ARC
  5
94
330
1F
100
AcDbEntity
  8
0
  6
Continuous
 62
     7
100
AcDbCircle
 10
821.7439810582
 20
39.5410882236
 30
0.0
 40
5.092901628255661
100
AcDbArc
 50
23.398800266
 51
203.398800266
  0
LINE
  5
95
330
1F
100
AcDbEntity
  8
0
  6
Continuous
 62
     7
100
AcDbLine
 10
825.2550552142
 20
41.0603784006
 30
0.0
 11
826.4180574373
 21
41.563625491
 31
0.0
  0
ARC
  5
96
330
1F
100
AcDbEntity
  8
0
  6
Continuous
 62
     7
100
AcDbCircle
 10
821.7439810582
 20
39.5410882236
 30
0.0
 40
5.092901628255661
100
AcDbArc
 50
203.398800266
 51
23.398800266
  0
ARC
  5
97
330
1F
100
AcDbEntity
  8
0
  6
Continuous
 62
     7
100
AcDbCircle
 10
1037.7439810582
 20
39.5410882236
 30
0.0
 40
5.900000000000238
100
AcDbArc
 50
0.0914128928
 51
180.0914128928
  0
LINE
  5
98
330
1F
100
AcDbEntity
  8
0
  6
Continuous
 62
     7
100
AcDbLine
 10
1042.8368762045
 20
39.5492137205
 30
0.0
 11
1043.6439735491
 21
39.5505014098
 31
0.0
  0
LINE
  5
99
330
1F
100
AcDbEntity
  8
0
  6
Continuous
 62
     7
100
AcDbLine
 10
1032.6510859119
 20
39.5329627268
 30
0.0
 11
1031.8439885674
 21
39.5316750375
 31
0.0
  0
LINE
  5
9A
330
1F
100
AcDbEntity
  8
0
  6
Continuous
 62
     7
100
AcDbLine
 10
817.0699046792
 20
37.5185509563
 30
0.0
 11
816.3291797035
 21
37.1980290506
 31
0.0
  0
ARC
  5
9B
330
1F
100
AcDbEntity
  8
0
  6
Continuous
 62
     7
100
AcDbCircle
 10
821.7439810582
 20
39.5410882236
 30
0.0
 40
5.899999999999982
100
AcDbArc
 50
23.398800266
 51
203.398800266
  0
LINE
  5
9C
330
1F
100
AcDbEntity
  8
0
  6
Continuous
 62
     7
100
AcDbLine
 10
826.4180574373
 20
41.563625491
 30
0.0
 11
827.158782413
 21
41.8841473967
 31
0.0
  0
ARC
  5
9D
330
1F
100
AcDbEntity
  8
0
  6
Continuous
 62
     7
100
AcDbCircle
 10
821.7439810582
 20
39.5410882236
 30
0.0
 40
5.899999999999982
100
AcDbArc
 50
203.398800266
 51
23.398800266
  0
ARC
  5
9E
330
1F
100
AcDbEntity
  8
0
  6
Continuous
 62
     7
100
AcDbCircle
 10
1037.7439810582
 20
39.5410882236
 30
0.0
 40
5.900000000000238
100
AcDbArc
 50
180.0914128928
 51
0.0914128928
  0
LINE
  5
9F
330
1F
100
AcDbEntity
  8
0
  6
Continuous
 62
     7
100
AcDbLine
 10
1269.2439810582
 20
232.5410882236
 30
0.0
 11
1269.2439810582
 21
134.455301786
 31
0.0
  0
LINE
  5
A0
330
1F
100
AcDbEntity
  8
0
  6
Continuous
 62
     7
100
AcDbLine
 10
1269.2439810582
 20
134.455301786
 30
0.0
 11
1251.2439810582
 21
116.455301786
 31
0.0
  0
LINE
  5
A1
330
1F
100
AcDbEntity
  8
0
  6
Continuous
 62
     7
100
AcDbLine
 10
1251.2439810582
 20
116.455301786
 30
0.0
 11
1234.4939810582
 21
116.455301786
 31
0.0
  0
LINE
  5
A2
330
1F
100
AcDbEntity
  8
0
  6
Continuous
 62
     7
100
AcDbLine
 10
1234.4939810582
 20
116.455301786
 30
0.0
 11
1234.4939810582
 21
115.4197678801
 31
0.0
  0
LINE
  5
A3
330
1F
100
AcDbEntity
  8
0
  6
Continuous
 62
     7
100
AcDbLine
 10
1234.4939810582
 20
115.4197678801
 30
0.0
 11
624.9939810582
 21
115.4197678801
 31
0.0
  0
LINE
  5
A4
330
1F
100
AcDbEntity
  8
0
  6
Continuous
 62
     7
100
AcDbLine
 10
624.9939810582
 20
116.455301786
 30
0.0
 11
624.9939810582
 21
115.4197678801
 31
0.0
  0
LINE
  5
A5
330
1F
100
AcDbEntity
  8
0
  6
Continuous
 62
     7
100
AcDbLine
 10
624.9939810582
 20
116.455301786
 30
0.0
 11
608.2439810582
 21
116.455301786
 31
0.0
  0
LINE
  5
A6
330
1F
100
AcDbEntity
  8
0
  6
Continuous
 62
     7
100
AcDbLine
 10
608.2439810582
 20
116.455301786
 30
0.0
 11
590.2439810582
 21
134.455301786
 31
0.0
  0
LINE
  5
A7
330
1F
100
AcDbEntity
  8
0
  6
Continuous
 62
     7
100
AcDbLine
 10
590.2439810582
 20
134.455301786
 30
0.0
 11
590.2439810582
 21
232.5410882236
 31
0.0
  0
LINE
  5
A8
330
1F
100
AcDbEntity
  8
0
  6
Continuous
 62
     7
100
AcDbLine
 10
635.4839810582
 20
197.5410882236
 30
0.0
 11
635.4839810582
 21
195.5410882236
 31
0.0
  0
LINE
  5
A9
330
1F
100
AcDbEntity
  8
0
  6
Continuous
 62
     7
100
AcDbLine
 10
635.4839810582
 20
195.5410882236
 30
0.0
 11
672.9839810582
 21
195.5410882236
 31
0.0
  0
LINE
  5
AA
330
1F
100
AcDbEntity
  8
0
  6
Continuous
 62
     7
100
AcDbLine
 10
672.9839810582
 20
195.5410882236
 30
0.0
 11
672.9839810582
 21
197.5410882236
 31
0.0
  0
LINE
  5
AB
330
1F
100
AcDbEntity
  8
0
  6
Continuous
 62
     7
100
AcDbLine
 10
672.9839810582
 20
197.5410882236
 30
0.0
 11
635.4839810582
 21
197.5410882236
 31
0.0
  0
LINE
  5
AC
330
1F
100
AcDbEntity
  8
0
  6
Continuous
 62
     7
100
AcDbLine
 10
635.4839810582
 20
207.5410882236
 30
0.0
 11
635.4839810582
 21
205.5410882236
 31
0.0
  0
LINE
  5
AD
330
1F
100
AcDbEntity
  8
0
  6
Continuous
 62
     7
100
AcDbLine
 10
635.4839810582
 20
205.5410882236
 30
0.0
 11
672.9839810582
 21
205.5410882236
 31
0.0
  0
LINE
  5
AE
330
1F
100
AcDbEntity
  8
0
  6
Continuous
 62
     7
100
AcDbLine
 10
672.9839810582
 20
205.5410882236
 30
0.0
 11
672.9839810582
 21
207.5410882236
 31
0.0
  0
LINE
  5
AF
330
1F
100
AcDbEntity
  8
0
  6
Continuous
 62
     7
100
AcDbLine
 10
672.9839810582
 20
207.5410882236
 30
0.0
 11
635.4839810582
 21
207.5410882236
 31
0.0
  0
ARC
  5
B0
330
1F
100
AcDbEntity
  8
0
  6
Continuous
 62
     7
100
AcDbCircle
 10
604.7439810582
 20
224.5410882236
 30
0.0
 40
3.5
100
AcDbArc
 50
180.0
 51
0.0
  0
ARC
  5
B1
330
1F
100
AcDbEntity
  8
0
  6
Continuous
 62
     7
100
AcDbCircle
 10
604.7439810582
 20
224.5410882236
 30
0.0
 40
3.5
100
AcDbArc
 50
0.0
 51
180.0
  0
ARC
  5
B2
330
1F
100
AcDbEntity
  8
0
  6
Continuous
 62
     7
100
AcDbCircle
 10
821.7439810582
 20
239.5410882236
 30
0.0
 40
3.5
100
AcDbArc
 50
180.0
 51
0.0
  0
ARC
  5
B3
330
1F
100
AcDbEntity
  8
0
  6
Continuous
 62
     7
100
AcDbCircle
 10
821.7439810582
 20
239.5410882236
 30
0.0
 40
3.5
100
AcDbArc
 50
0.0
 51
180.0
  0
ARC
  5
B4
330
1F
100
AcDbEntity
  8
0
  6
Continuous
 62
     7
100
AcDbCircle
 10
1037.7439810582
 20
239.5410882236
 30
0.0
 40
3.5
100
AcDbArc
 50
180.0
 51
0.0
  0
ARC
  5
B5
330
1F
100
AcDbEntity
  8
0
  6
Continuous
 62
     7
100
AcDbCircle
 10
1037.7439810582
 20
239.5410882236
 30
0.0
 40
3.5
100
AcDbArc
 50
0.0
 51
180.0
  0
ARC
  5
B6
330
1F
100
AcDbEntity
  8
0
  6
Continuous
 62
     7
100
AcDbCircle
 10
1254.7439810582
 20
224.5410882236
 30
0.0
 40
3.5
100
AcDbArc
 50
180.0
 51
0.0
  0
ARC
  5
B7
330
1F
100
AcDbEntity
  8
0
  6
Continuous
 62
     7
100
AcDbCircle
 10
1254.7439810582
 20
224.5410882236
 30
0.0
 40
3.5
100
AcDbArc
 50
0.0
 51
180.0
  0
LINE
  5
B8
330
1F
100
AcDbEntity
  8
0
  6
Continuous
 62
     7
100
AcDbLine
 10
672.9839810582
 20
187.5410882236
 30
0.0
 11
635.4839810582
 21
187.5410882236
 31
0.0
  0
LINE
  5
B9
330
1F
100
AcDbEntity
  8
0
  6
Continuous
 62
     7
100
AcDbLine
 10
635.4839810582
 20
187.5410882236
 30
0.0
 11
635.4839810582
 21
185.5410882236
 31
0.0
  0
LINE
  5
BA
330
1F
100
AcDbEntity
  8
0
  6
Continuous
 62
     7
100
AcDbLine
 10
635.4839810582
 20
185.5410882236
 30
0.0
 11
672.9839810582
 21
185.5410882236
 31
0.0
  0
LINE
  5
BB
330
1F
100
AcDbEntity
  8
0
  6
Continuous
 62
     7
100
AcDbLine
 10
672.9839810582
 20
185.5410882236
 30
0.0
 11
672.9839810582
 21
187.5410882236
 31
0.0
  0
LINE
  5
BC
330
1F
100
AcDbEntity
  8
0
  6
Continuous
 62
     7
100
AcDbLine
 10
672.9839810582
 20
177.5410882236
 30
0.0
 11
635.4839810582
 21
177.5410882236
 31
0.0
  0
LINE
  5
BD
330
1F
100
AcDbEntity
  8
0
  6
Continuous
 62
     7
100
AcDbLine
 10
635.4839810582
 20
177.5410882236
 30
0.0
 11
635.4839810582
 21
175.5410882236
 31
0.0
  0
LINE
  5
BE
330
1F
100
AcDbEntity
  8
0
  6
Continuous
 62
     7
100
AcDbLine
 10
635.4839810582
 20
175.5410882236
 30
0.0
 11
672.9839810582
 21
175.5410882236
 31
0.0
  0
LINE
  5
BF
330
1F
100
AcDbEntity
  8
0
  6
Continuous
 62
     7
100
AcDbLine
 10
672.9839810582
 20
175.5410882236
 30
0.0
 11
672.9839810582
 21
177.5410882236
 31
0.0
  0
LINE
  5
C0
330
1F
100
AcDbEntity
  8
0
  6
Continuous
 62
     7
100
AcDbLine
 10
672.9839810582
 20
167.5410882236
 30
0.0
 11
635.4839810582
 21
167.5410882236
 31
0.0
  0
LINE
  5
C1
330
1F
100
AcDbEntity
  8
0
  6
Continuous
 62
     7
100
AcDbLine
 10
635.4839810582
 20
167.5410882236
 30
0.0
 11
635.4839810582
 21
165.5410882236
 31
0.0
  0
LINE
  5
C2
330
1F
100
AcDbEntity
  8
0
  6
Continuous
 62
     7
100
AcDbLine
 10
635.4839810582
 20
165.5410882236
 30
0.0
 11
672.9839810582
 21
165.5410882236
 31
0.0
  0
LINE
  5
C3
330
1F
100
AcDbEntity
  8
0
  6
Continuous
 62
     7
100
AcDbLine
 10
672.9839810582
 20
165.5410882236
 30
0.0
 11
672.9839810582
 21
167.5410882236
 31
0.0
  0
LINE
  5
C4
330
1F
100
AcDbEntity
  8
0
  6
Continuous
 62
     7
100
AcDbLine
 10
672.9839810582
 20
157.5410882236
 30
0.0
 11
635.4839810582
 21
157.5410882236
 31
0.0
  0
LINE
  5
C5
330
1F
100
AcDbEntity
  8
0
  6
Continuous
 62
     7
100
AcDbLine
 10
635.4839810582
 20
157.5410882236
 30
0.0
 11
635.4839810582
 21
155.5410882236
 31
0.0
  0
LINE
  5
C6
330
1F
100
AcDbEntity
  8
0
  6
Continuous
 62
     7
100
AcDbLine
 10
635.4839810582
 20
155.5410882236
 30
0.0
 11
672.9839810582
 21
155.5410882236
 31
0.0
  0
LINE
  5
C7
330
1F
100
AcDbEntity
  8
0
  6
Continuous
 62
     7
100
AcDbLine
 10
672.9839810582
 20
155.5410882236
 30
0.0
 11
672.9839810582
 21
157.5410882236
 31
0.0
  0
LINE
  5
C8
330
1F
100
AcDbEntity
  8
0
  6
Continuous
 62
     7
100
AcDbLine
 10
672.9839810582
 20
147.5410882236
 30
0.0
 11
635.4839810582
 21
147.5410882236
 31
0.0
  0
LINE
  5
C9
330
1F
100
AcDbEntity
  8
0
  6
Continuous
 62
     7
100
AcDbLine
 10
635.4839810582
 20
147.5410882236
 30
0.0
 11
635.4839810582
 21
145.5410882236
 31
0.0
  0
LINE
  5
CA
330
1F
100
AcDbEntity
  8
0
  6
Continuous
 62
     7
100
AcDbLine
 10
635.4839810582
 20
145.5410882236
 30
0.0
 11
672.9839810582
 21
145.5410882236
 31
0.0
  0
LINE
  5
CB
330
1F
100
AcDbEntity
  8
0
  6
Continuous
 62
     7
100
AcDbLine
 10
672.9839810582
 20
145.5410882236
 30
0.0
 11
672.9839810582
 21
147.5410882236
 31
0.0
  0
LINE
  5
CC
330
1F
100
AcDbEntity
  8
0
  6
Continuous
 62
     7
100
AcDbLine
 10
672.9839810582
 20
137.5410882236
 30
0.0
 11
635.4839810582
 21
137.5410882236
 31
0.0
  0
LINE
  5
CD
330
1F
100
AcDbEntity
  8
0
  6
Continuous
 62
     7
100
AcDbLine
 10
635.4839810582
 20
137.5410882236
 30
0.0
 11
635.4839810582
 21
135.5410882236
 31
0.0
  0
LINE
  5
CE
330
1F
100
AcDbEntity
  8
0
  6
Continuous
 62
     7
100
AcDbLine
 10
635.4839810582
 20
135.5410882236
 30
0.0
 11
672.9839810582
 21
135.5410882236
 31
0.0
  0
LINE
  5
CF
330
1F
100
AcDbEntity
  8
0
  6
Continuous
 62
     7
100
AcDbLine
 10
672.9839810582
 20
135.5410882236
 30
0.0
 11
672.9839810582
 21
137.5410882236
 31
0.0
  0
LINE
  5
D0
330
1F
100
AcDbEntity
  8
0
  6
Continuous
 62
     7
100
AcDbLine
 10
722.9839810582
 20
207.5410882236
 30
0.0
 11
685.4839810582
 21
207.5410882236
 31
0.0
  0
LINE
  5
D1
330
1F
100
AcDbEntity
  8
0
  6
Continuous
 62
     7
100
AcDbLine
 10
685.4839810582
 20
207.5410882236
 30
0.0
 11
685.4839810582
 21
205.5410882236
 31
0.0
  0
LINE
  5
D2
330
1F
100
AcDbEntity
  8
0
  6
Continuous
 62
     7
100
AcDbLine
 10
685.4839810582
 20
205.5410882236
 30
0.0
 11
722.9839810582
 21
205.5410882236
 31
0.0
  0
LINE
  5
D3
330
1F
100
AcDbEntity
  8
0
  6
Continuous
 62
     7
100
AcDbLine
 10
722.9839810582
 20
205.5410882236
 30
0.0
 11
722.9839810582
 21
207.5410882236
 31
0.0
  0
LINE
  5
D4
330
1F
100
AcDbEntity
  8
0
  6
Continuous
 62
     7
100
AcDbLine
 10
722.9839810582
 20
197.5410882236
 30
0.0
 11
685.4839810582
 21
197.5410882236
 31
0.0
  0
LINE
  5
D5
330
1F
100
AcDbEntity
  8
0
  6
Continuous
 62
     7
100
AcDbLine
 10
685.4839810582
 20
197.5410882236
 30
0.0
 11
685.4839810582
 21
195.5410882236
 31
0.0
  0
LINE
  5
D6
330
1F
100
AcDbEntity
  8
0
  6
Continuous
 62
     7
100
AcDbLine
 10
685.4839810582
 20
195.5410882236
 30
0.0
 11
722.9839810582
 21
195.5410882236
 31
0.0
  0
LINE
  5
D7
330
1F
100
AcDbEntity
  8
0
  6
Continuous
 62
     7
100
AcDbLine
 10
722.9839810582
 20
195.5410882236
 30
0.0
 11
722.9839810582
 21
197.5410882236
 31
0.0
  0
LINE
  5
D8
330
1F
100
AcDbEntity
  8
0
  6
Continuous
 62
     7
100
AcDbLine
 10
722.9839810582
 20
187.5410882236
 30
0.0
 11
685.4839810582
 21
187.5410882236
 31
0.0
  0
LINE
  5
D9
330
1F
100
AcDbEntity
  8
0
  6
Continuous
 62
     7
100
AcDbLine
 10
685.4839810582
 20
187.5410882236
 30
0.0
 11
685.4839810582
 21
185.5410882236
 31
0.0
  0
LINE
  5
DA
330
1F
100
AcDbEntity
  8
0
  6
Continuous
 62
     7
100
AcDbLine
 10
685.4839810582
 20
185.5410882236
 30
0.0
 11
722.9839810582
 21
185.5410882236
 31
0.0
  0
LINE
  5
DB
330
1F
100
AcDbEntity
  8
0
  6
Continuous
 62
     7
100
AcDbLine
 10
722.9839810582
 20
185.5410882236
 30
0.0
 11
722.9839810582
 21
187.5410882236
 31
0.0
  0
LINE
  5
DC
330
1F
100
AcDbEntity
  8
0
  6
Continuous
 62
     7
100
AcDbLine
 10
722.9839810582
 20
177.5410882236
 30
0.0
 11
685.4839810582
 21
177.5410882236
 31
0.0
  0
LINE
  5
DD
330
1F
100
AcDbEntity
  8
0
  6
Continuous
 62
     7
100
AcDbLine
 10
685.4839810582
 20
177.5410882236
 30
0.0
 11
685.4839810582
 21
175.5410882236
 31
0.0
  0
LINE
  5
DE
330
1F
100
AcDbEntity
  8
0
  6
Continuous
 62
     7
100
AcDbLine
 10
685.4839810582
 20
175.5410882236
 30
0.0
 11
722.9839810582
 21
175.5410882236
 31
0.0
  0
LINE
  5
DF
330
1F
100
AcDbEntity
  8
0
  6
Continuous
 62
     7
100
AcDbLine
 10
722.9839810582
 20
175.5410882236
 30
0.0
 11
722.9839810582
 21
177.5410882236
 31
0.0
  0
LINE
  5
E0
330
1F
100
AcDbEntity
  8
0
  6
Continuous
 62
     7
100
AcDbLine
 10
722.9839810582
 20
167.5410882236
 30
0.0
 11
685.4839810582
 21
167.5410882236
 31
0.0
  0
LINE
  5
E1
330
1F
100
AcDbEntity
  8
0
  6
Continuous
 62
     7
100
AcDbLine
 10
685.4839810582
 20
167.5410882236
 30
0.0
 11
685.4839810582
 21
165.5410882236
 31
0.0
  0
LINE
  5
E2
330
1F
100
AcDbEntity
  8
0
  6
Continuous
 62
     7
100
AcDbLine
 10
685.4839810582
 20
165.5410882236
 30
0.0
 11
722.9839810582
 21
165.5410882236
 31
0.0
  0
LINE
  5
E3
330
1F
100
AcDbEntity
  8
0
  6
Continuous
 62
     7
100
AcDbLine
 10
722.9839810582
 20
165.5410882236
 30
0.0
 11
722.9839810582
 21
167.5410882236
 31
0.0
  0
LINE
  5
E4
330
1F
100
AcDbEntity
  8
0
  6
Continuous
 62
     7
100
AcDbLine
 10
722.9839810582
 20
157.5410882236
 30
0.0
 11
685.4839810582
 21
157.5410882236
 31
0.0
  0
LINE
  5
E5
330
1F
100
AcDbEntity
  8
0
  6
Continuous
 62
     7
100
AcDbLine
 10
685.4839810582
 20
157.5410882236
 30
0.0
 11
685.4839810582
 21
155.5410882236
 31
0.0
  0
LINE
  5
E6
330
1F
100
AcDbEntity
  8
0
  6
Continuous
 62
     7
100
AcDbLine
 10
685.4839810582
 20
155.5410882236
 30
0.0
 11
722.9839810582
 21
155.5410882236
 31
0.0
  0
LINE
  5
E7
330
1F
100
AcDbEntity
  8
0
  6
Continuous
 62
     7
100
AcDbLine
 10
722.9839810582
 20
155.5410882236
 30
0.0
 11
722.9839810582
 21
157.5410882236
 31
0.0
  0
LINE
  5
E8
330
1F
100
AcDbEntity
  8
0
  6
Continuous
 62
     7
100
AcDbLine
 10
722.9839810582
 20
147.5410882236
 30
0.0
 11
685.4839810582
 21
147.5410882236
 31
0.0
  0
LINE
  5
E9
330
1F
100
AcDbEntity
  8
0
  6
Continuous
 62
     7
100
AcDbLine
 10
685.4839810582
 20
147.5410882236
 30
0.0
 11
685.4839810582
 21
145.5410882236
 31
0.0
  0
LINE
  5
EA
330
1F
100
AcDbEntity
  8
0
  6
Continuous
 62
     7
100
AcDbLine
 10
685.4839810582
 20
145.5410882236
 30
0.0
 11
722.9839810582
 21
145.5410882236
 31
0.0
  0
LINE
  5
EB
330
1F
100
AcDbEntity
  8
0
  6
Continuous
 62
     7
100
AcDbLine
 10
722.9839810582
 20
145.5410882236
 30
0.0
 11
722.9839810582
 21
147.5410882236
 31
0.0
  0
LINE
  5
EC
330
1F
100
AcDbEntity
  8
0
  6
Continuous
 62
     7
100
AcDbLine
 10
722.9839810582
 20
137.5410882236
 30
0.0
 11
685.4839810582
 21
137.5410882236
 31
0.0
  0
LINE
  5
ED
330
1F
100
AcDbEntity
  8
0
  6
Continuous
 62
     7
100
AcDbLine
 10
685.4839810582
 20
137.5410882236
 30
0.0
 11
685.4839810582
 21
135.5410882236
 31
0.0
  0
LINE
  5
EE
330
1F
100
AcDbEntity
  8
0
  6
Continuous
 62
     7
100
AcDbLine
 10
685.4839810582
 20
135.5410882236
 30
0.0
 11
722.9839810582
 21
135.5410882236
 31
0.0
  0
LINE
  5
EF
330
1F
100
AcDbEntity
  8
0
  6
Continuous
 62
     7
100
AcDbLine
 10
722.9839810582
 20
135.5410882236
 30
0.0
 11
722.9839810582
 21
137.5410882236
 31
0.0
  0
LINE
  5
F0
330
1F
100
AcDbEntity
  8
0
  6
Continuous
 62
     7
100
AcDbLine
 10
772.9839810582
 20
207.5410882236
 30
0.0
 11
735.4839810582
 21
207.5410882236
 31
0.0
  0
LINE
  5
F1
330
1F
100
AcDbEntity
  8
0
  6
Continuous
 62
     7
100
AcDbLine
 10
735.4839810582
 20
207.5410882236
 30
0.0
 11
735.4839810582
 21
205.5410882236
 31
0.0
  0
LINE
  5
F2
330
1F
100
AcDbEntity
  8
0
  6
Continuous
 62
     7
100
AcDbLine
 10
735.4839810582
 20
205.5410882236
 30
0.0
 11
772.9839810582
 21
205.5410882236
 31
0.0
  0
LINE
  5
F3
330
1F
100
AcDbEntity
  8
0
  6
Continuous
 62
     7
100
AcDbLine
 10
772.9839810582
 20
205.5410882236
 30
0.0
 11
772.9839810582
 21
207.5410882236
 31
0.0
  0
LINE
  5
F4
330
1F
100
AcDbEntity
  8
0
  6
Continuous
 62
     7
100
AcDbLine
 10
772.9839810582
 20
197.5410882236
 30
0.0
 11
735.4839810582
 21
197.5410882236
 31
0.0
  0
LINE
  5
F5
330
1F
100
AcDbEntity
  8
0
  6
Continuous
 62
     7
100
AcDbLine
 10
735.4839810582
 20
197.5410882236
 30
0.0
 11
735.4839810582
 21
195.5410882236
 31
0.0
  0
LINE
  5
F6
330
1F
100
AcDbEntity
  8
0
  6
Continuous
 62
     7
100
AcDbLine
 10
735.4839810582
 20
195.5410882236
 30
0.0
 11
772.9839810582
 21
195.5410882236
 31
0.0
  0
LINE
  5
F7
330
1F
100
AcDbEntity
  8
0
  6
Continuous
 62
     7
100
AcDbLine
 10
772.9839810582
 20
195.5410882236
 30
0.0
 11
772.9839810582
 21
197.5410882236
 31
0.0
  0
LINE
  5
F8
330
1F
100
AcDbEntity
  8
0
  6
Continuous
 62
     7
100
AcDbLine
 10
772.9839810582
 20
187.5410882236
 30
0.0
 11
735.4839810582
 21
187.5410882236
 31
0.0
  0
LINE
  5
F9
330
1F
100
AcDbEntity
  8
0
  6
Continuous
 62
     7
100
AcDbLine
 10
735.4839810582
 20
187.5410882236
 30
0.0
 11
735.4839810582
 21
185.5410882236
 31
0.0
  0
LINE
  5
FA
330
1F
100
AcDbEntity
  8
0
  6
Continuous
 62
     7
100
AcDbLine
 10
735.4839810582
 20
185.5410882236
 30
0.0
 11
772.9839810582
 21
185.5410882236
 31
0.0
  0
LINE
  5
FB
330
1F
100
AcDbEntity
  8
0
  6
Continuous
 62
     7
100
AcDbLine
 10
772.9839810582
 20
185.5410882236
 30
0.0
 11
772.9839810582
 21
187.5410882236
 31
0.0
  0
LINE
  5
FC
330
1F
100
AcDbEntity
  8
0
  6
Continuous
 62
     7
100
AcDbLine
 10
772.9839810582
 20
177.5410882236
 30
0.0
 11
735.4839810582
 21
177.5410882236
 31
0.0
  0
LINE
  5
FD
330
1F
100
AcDbEntity
  8
0
  6
Continuous
 62
     7
100
AcDbLine
 10
735.4839810582
 20
177.5410882236
 30
0.0
 11
735.4839810582
 21
175.5410882236
 31
0.0
  0
LINE
  5
FE
330
1F
100
AcDbEntity
  8
0
  6
Continuous
 62
     7
100
AcDbLine
 10
735.4839810582
 20
175.5410882236
 30
0.0
 11
772.9839810582
 21
175.5410882236
 31
0.0
  0
LINE
  5
FF
330
1F
100
AcDbEntity
  8
0
  6
Continuous
 62
     7
100
AcDbLine
 10
772.9839810582
 20
175.5410882236
 30
0.0
 11
772.9839810582
 21
177.5410882236
 31
0.0
  0
LINE
  5
100
330
1F
100
AcDbEntity
  8
0
  6
Continuous
 62
     7
100
AcDbLine
 10
772.9839810582
 20
167.5410882236
 30
0.0
 11
735.4839810582
 21
167.5410882236
 31
0.0
  0
LINE
  5
101
330
1F
100
AcDbEntity
  8
0
  6
Continuous
 62
     7
100
AcDbLine
 10
735.4839810582
 20
167.5410882236
 30
0.0
 11
735.4839810582
 21
165.5410882236
 31
0.0
  0
LINE
  5
102
330
1F
100
AcDbEntity
  8
0
  6
Continuous
 62
     7
100
AcDbLine
 10
735.4839810582
 20
165.5410882236
 30
0.0
 11
772.9839810582
 21
165.5410882236
 31
0.0
  0
LINE
  5
103
330
1F
100
AcDbEntity
  8
0
  6
Continuous
 62
     7
100
AcDbLine
 10
772.9839810582
 20
165.5410882236
 30
0.0
 11
772.9839810582
 21
167.5410882236
 31
0.0
  0
LINE
  5
104
330
1F
100
AcDbEntity
  8
0
  6
Continuous
 62
     7
100
AcDbLine
 10
772.9839810582
 20
157.5410882236
 30
0.0
 11
735.4839810582
 21
157.5410882236
 31
0.0
  0
LINE
  5
105
330
1F
100
AcDbEntity
  8
0
  6
Continuous
 62
     7
100
AcDbLine
 10
735.4839810582
 20
157.5410882236
 30
0.0
 11
735.4839810582
 21
155.5410882236
 31
0.0
  0
LINE
  5
106
330
1F
100
AcDbEntity
  8
0
  6
Continuous
 62
     7
100
AcDbLine
 10
735.4839810582
 20
155.5410882236
 30
0.0
 11
772.9839810582
 21
155.5410882236
 31
0.0
  0
LINE
  5
107
330
1F
100
AcDbEntity
  8
0
  6
Continuous
 62
     7
100
AcDbLine
 10
772.9839810582
 20
155.5410882236
 30
0.0
 11
772.9839810582
 21
157.5410882236
 31
0.0
  0
LINE
  5
108
330
1F
100
AcDbEntity
  8
0
  6
Continuous
 62
     7
100
AcDbLine
 10
772.9839810582
 20
147.5410882236
 30
0.0
 11
735.4839810582
 21
147.5410882236
 31
0.0
  0
LINE
  5
109
330
1F
100
AcDbEntity
  8
0
  6
Continuous
 62
     7
100
AcDbLine
 10
735.4839810582
 20
147.5410882236
 30
0.0
 11
735.4839810582
 21
145.5410882236
 31
0.0
  0
LINE
  5
10A
330
1F
100
AcDbEntity
  8
0
  6
Continuous
 62
     7
100
AcDbLine
 10
735.4839810582
 20
145.5410882236
 30
0.0
 11
772.9839810582
 21
145.5410882236
 31
0.0
  0
LINE
  5
10B
330
1F
100
AcDbEntity
  8
0
  6
Continuous
 62
     7
100
AcDbLine
 10
772.9839810582
 20
145.5410882236
 30
0.0
 11
772.9839810582
 21
147.5410882236
 31
0.0
  0
LINE
  5
10C
330
1F
100
AcDbEntity
  8
0
  6
Continuous
 62
     7
100
AcDbLine
 10
772.9839810582
 20
137.5410882236
 30
0.0
 11
735.4839810582
 21
137.5410882236
 31
0.0
  0
LINE
  5
10D
330
1F
100
AcDbEntity
  8
0
  6
Continuous
 62
     7
100
AcDbLine
 10
735.4839810582
 20
137.5410882236
 30
0.0
 11
735.4839810582
 21
135.5410882236
 31
0.0
  0
LINE
  5
10E
330
1F
100
AcDbEntity
  8
0
  6
Continuous
 62
     7
100
AcDbLine
 10
735.4839810582
 20
135.5410882236
 30
0.0
 11
772.9839810582
 21
135.5410882236
 31
0.0
  0
LINE
  5
10F
330
1F
100
AcDbEntity
  8
0
  6
Continuous
 62
     7
100
AcDbLine
 10
772.9839810582
 20
135.5410882236
 30
0.0
 11
772.9839810582
 21
137.5410882236
 31
0.0
  0
LINE
  5
110
330
1F
100
AcDbEntity
  8
0
  6
Continuous
 62
     7
100
AcDbLine
 10
822.9839810582
 20
207.5410882236
 30
0.0
 11
785.4839810582
 21
207.5410882236
 31
0.0
  0
LINE
  5
111
330
1F
100
AcDbEntity
  8
0
  6
Continuous
 62
     7
100
AcDbLine
 10
785.4839810582
 20
207.5410882236
 30
0.0
 11
785.4839810582
 21
205.5410882236
 31
0.0
  0
LINE
  5
112
330
1F
100
AcDbEntity
  8
0
  6
Continuous
 62
     7
100
AcDbLine
 10
785.4839810582
 20
205.5410882236
 30
0.0
 11
822.9839810582
 21
205.5410882236
 31
0.0
  0
LINE
  5
113
330
1F
100
AcDbEntity
  8
0
  6
Continuous
 62
     7
100
AcDbLine
 10
822.9839810582
 20
205.5410882236
 30
0.0
 11
822.9839810582
 21
207.5410882236
 31
0.0
  0
LINE
  5
114
330
1F
100
AcDbEntity
  8
0
  6
Continuous
 62
     7
100
AcDbLine
 10
822.9839810582
 20
197.5410882236
 30
0.0
 11
785.4839810582
 21
197.5410882236
 31
0.0
  0
LINE
  5
115
330
1F
100
AcDbEntity
  8
0
  6
Continuous
 62
     7
100
AcDbLine
 10
785.4839810582
 20
197.5410882236
 30
0.0
 11
785.4839810582
 21
195.5410882236
 31
0.0
  0
LINE
  5
116
330
1F
100
AcDbEntity
  8
0
  6
Continuous
 62
     7
100
AcDbLine
 10
785.4839810582
 20
195.5410882236
 30
0.0
 11
822.9839810582
 21
195.5410882236
 31
0.0
  0
LINE
  5
117
330
1F
100
AcDbEntity
  8
0
  6
Continuous
 62
     7
100
AcDbLine
 10
822.9839810582
 20
195.5410882236
 30
0.0
 11
822.9839810582
 21
197.5410882236
 31
0.0
  0
LINE
  5
118
330
1F
100
AcDbEntity
  8
0
  6
Continuous
 62
     7
100
AcDbLine
 10
822.9839810582
 20
187.5410882236
 30
0.0
 11
785.4839810582
 21
187.5410882236
 31
0.0
  0
LINE
  5
119
330
1F
100
AcDbEntity
  8
0
  6
Continuous
 62
     7
100
AcDbLine
 10
785.4839810582
 20
187.5410882236
 30
0.0
 11
785.4839810582
 21
185.5410882236
 31
0.0
  0
LINE
  5
11A
330
1F
100
AcDbEntity
  8
0
  6
Continuous
 62
     7
100
AcDbLine
 10
785.4839810582
 20
185.5410882236
 30
0.0
 11
822.9839810582
 21
185.5410882236
 31
0.0
  0
LINE
  5
11B
330
1F
100
AcDbEntity
  8
0
  6
Continuous
 62
     7
100
AcDbLine
 10
822.9839810582
 20
185.5410882236
 30
0.0
 11
822.9839810582
 21
187.5410882236
 31
0.0
  0
LINE
  5
11C
330
1F
100
AcDbEntity
  8
0
  6
Continuous
 62
     7
100
AcDbLine
 10
822.9839810582
 20
177.5410882236
 30
0.0
 11
785.4839810582
 21
177.5410882236
 31
0.0
  0
LINE
  5
11D
330
1F
100
AcDbEntity
  8
0
  6
Continuous
 62
     7
100
AcDbLine
 10
785.4839810582
 20
177.5410882236
 30
0.0
 11
785.4839810582
 21
175.5410882236
 31
0.0
  0
LINE
  5
11E
330
1F
100
AcDbEntity
  8
0
  6
Continuous
 62
     7
100
AcDbLine
 10
785.4839810582
 20
175.5410882236
 30
0.0
 11
822.9839810582
 21
175.5410882236
 31
0.0
  0
LINE
  5
11F
330
1F
100
AcDbEntity
  8
0
  6
Continuous
 62
     7
100
AcDbLine
 10
822.9839810582
 20
175.5410882236
 30
0.0
 11
822.9839810582
 21
177.5410882236
 31
0.0
  0
LINE
  5
120
330
1F
100
AcDbEntity
  8
0
  6
Continuous
 62
     7
100
AcDbLine
 10
822.9839810582
 20
167.5410882236
 30
0.0
 11
785.4839810582
 21
167.5410882236
 31
0.0
  0
LINE
  5
121
330
1F
100
AcDbEntity
  8
0
  6
Continuous
 62
     7
100
AcDbLine
 10
785.4839810582
 20
167.5410882236
 30
0.0
 11
785.4839810582
 21
165.5410882236
 31
0.0
  0
LINE
  5
122
330
1F
100
AcDbEntity
  8
0
  6
Continuous
 62
     7
100
AcDbLine
 10
785.4839810582
 20
165.5410882236
 30
0.0
 11
822.9839810582
 21
165.5410882236
 31
0.0
  0
LINE
  5
123
330
1F
100
AcDbEntity
  8
0
  6
Continuous
 62
     7
100
AcDbLine
 10
822.9839810582
 20
165.5410882236
 30
0.0
 11
822.9839810582
 21
167.5410882236
 31
0.0
  0
LINE
  5
124
330
1F
100
AcDbEntity
  8
0
  6
Continuous
 62
     7
100
AcDbLine
 10
822.9839810582
 20
157.5410882236
 30
0.0
 11
785.4839810582
 21
157.5410882236
 31
0.0
  0
LINE
  5
125
330
1F
100
AcDbEntity
  8
0
  6
Continuous
 62
     7
100
AcDbLine
 10
785.4839810582
 20
157.5410882236
 30
0.0
 11
785.4839810582
 21
155.5410882236
 31
0.0
  0
LINE
  5
126
330
1F
100
AcDbEntity
  8
0
  6
Continuous
 62
     7
100
AcDbLine
 10
785.4839810582
 20
155.5410882236
 30
0.0
 11
822.9839810582
 21
155.5410882236
 31
0.0
  0
LINE
  5
127
330
1F
100
AcDbEntity
  8
0
  6
Continuous
 62
     7
100
AcDbLine
 10
822.9839810582
 20
155.5410882236
 30
0.0
 11
822.9839810582
 21
157.5410882236
 31
0.0
  0
LINE
  5
128
330
1F
100
AcDbEntity
  8
0
  6
Continuous
 62
     7
100
AcDbLine
 10
822.9839810582
 20
147.5410882236
 30
0.0
 11
785.4839810582
 21
147.5410882236
 31
0.0
  0
LINE
  5
129
330
1F
100
AcDbEntity
  8
0
  6
Continuous
 62
     7
100
AcDbLine
 10
785.4839810582
 20
147.5410882236
 30
0.0
 11
785.4839810582
 21
145.5410882236
 31
0.0
  0
LINE
  5
12A
330
1F
100
AcDbEntity
  8
0
  6
Continuous
 62
     7
100
AcDbLine
 10
785.4839810582
 20
145.5410882236
 30
0.0
 11
822.9839810582
 21
145.5410882236
 31
0.0
  0
LINE
  5
12B
330
1F
100
AcDbEntity
  8
0
  6
Continuous
 62
     7
100
AcDbLine
 10
822.9839810582
 20
145.5410882236
 30
0.0
 11
822.9839810582
 21
147.5410882236
 31
0.0
  0
LINE
  5
12C
330
1F
100
AcDbEntity
  8
0
  6
Continuous
 62
     7
100
AcDbLine
 10
822.9839810582
 20
137.5410882236
 30
0.0
 11
785.4839810582
 21
137.5410882236
 31
0.0
  0
LINE
  5
12D
330
1F
100
AcDbEntity
  8
0
  6
Continuous
 62
     7
100
AcDbLine
 10
785.4839810582
 20
137.5410882236
 30
0.0
 11
785.4839810582
 21
135.5410882236
 31
0.0
  0
LINE
  5
12E
330
1F
100
AcDbEntity
  8
0
  6
Continuous
 62
     7
100
AcDbLine
 10
785.4839810582
 20
135.5410882236
 30
0.0
 11
822.9839810582
 21
135.5410882236
 31
0.0
  0
LINE
  5
12F
330
1F
100
AcDbEntity
  8
0
  6
Continuous
 62
     7
100
AcDbLine
 10
822.9839810582
 20
135.5410882236
 30
0.0
 11
822.9839810582
 21
137.5410882236
 31
0.0
  0
LINE
  5
130
330
1F
100
AcDbEntity
  8
0
  6
Continuous
 62
     7
100
AcDbLine
 10
872.9839810582
 20
207.5410882236
 30
0.0
 11
835.4839810582
 21
207.5410882236
 31
0.0
  0
LINE
  5
131
330
1F
100
AcDbEntity
  8
0
  6
Continuous
 62
     7
100
AcDbLine
 10
835.4839810582
 20
207.5410882236
 30
0.0
 11
835.4839810582
 21
205.5410882236
 31
0.0
  0
LINE
  5
132
330
1F
100
AcDbEntity
  8
0
  6
Continuous
 62
     7
100
AcDbLine
 10
835.4839810582
 20
205.5410882236
 30
0.0
 11
872.9839810582
 21
205.5410882236
 31
0.0
  0
LINE
  5
133
330
1F
100
AcDbEntity
  8
0
  6
Continuous
 62
     7
100
AcDbLine
 10
872.9839810582
 20
205.5410882236
 30
0.0
 11
872.9839810582
 21
207.5410882236
 31
0.0
  0
LINE
  5
134
330
1F
100
AcDbEntity
  8
0
  6
Continuous
 62
     7
100
AcDbLine
 10
872.9839810582
 20
197.5410882236
 30
0.0
 11
835.4839810582
 21
197.5410882236
 31
0.0
  0
LINE
  5
135
330
1F
100
AcDbEntity
  8
0
  6
Continuous
 62
     7
100
AcDbLine
 10
835.4839810582
 20
197.5410882236
 30
0.0
 11
835.4839810582
 21
195.5410882236
 31
0.0
  0
LINE
  5
136
330
1F
100
AcDbEntity
  8
0
  6
Continuous
 62
     7
100
AcDbLine
 10
835.4839810582
 20
195.5410882236
 30
0.0
 11
872.9839810582
 21
195.5410882236
 31
0.0
  0
LINE
  5
137
330
1F
100
AcDbEntity
  8
0
  6
Continuous
 62
     7
100
AcDbLine
 10
872.9839810582
 20
195.5410882236
 30
0.0
 11
872.9839810582
 21
197.5410882236
 31
0.0
  0
LINE
  5
138
330
1F
100
AcDbEntity
  8
0
  6
Continuous
 62
     7
100
AcDbLine
 10
872.9839810582
 20
187.5410882236
 30
0.0
 11
835.4839810582
 21
187.5410882236
 31
0.0
  0
LINE
  5
139
330
1F
100
AcDbEntity
  8
0
  6
Continuous
 62
     7
100
AcDbLine
 10
835.4839810582
 20
187.5410882236
 30
0.0
 11
835.4839810582
 21
185.5410882236
 31
0.0
  0
LINE
  5
13A
330
1F
100
AcDbEntity
  8
0
  6
Continuous
 62
     7
100
AcDbLine
 10
835.4839810582
 20
185.5410882236
 30
0.0
 11
872.9839810582
 21
185.5410882236
 31
0.0
  0
LINE
  5
13B
330
1F
100
AcDbEntity
  8
0
  6
Continuous
 62
     7
100
AcDbLine
 10
872.9839810582
 20
185.5410882236
 30
0.0
 11
872.9839810582
 21
187.5410882236
 31
0.0
  0
LINE
  5
13C
330
1F
100
AcDbEntity
  8
0
  6
Continuous
 62
     7
100
AcDbLine
 10
872.9839810582
 20
177.5410882236
 30
0.0
 11
835.4839810582
 21
177.5410882236
 31
0.0
  0
LINE
  5
13D
330
1F
100
AcDbEntity
  8
0
  6
Continuous
 62
     7
100
AcDbLine
 10
835.4839810582
 20
177.5410882236
 30
0.0
 11
835.4839810582
 21
175.5410882236
 31
0.0
  0
LINE
  5
13E
330
1F
100
AcDbEntity
  8
0
  6
Continuous
 62
     7
100
AcDbLine
 10
835.4839810582
 20
175.5410882236
 30
0.0
 11
872.9839810582
 21
175.5410882236
 31
0.0
  0
LINE
  5
13F
330
1F
100
AcDbEntity
  8
0
  6
Continuous
 62
     7
100
AcDbLine
 10
872.9839810582
 20
175.5410882236
 30
0.0
 11
872.9839810582
 21
177.5410882236
 31
0.0
  0
LINE
  5
140
330
1F
100
AcDbEntity
  8
0
  6
Continuous
 62
     7
100
AcDbLine
 10
872.9839810582
 20
167.5410882236
 30
0.0
 11
835.4839810582
 21
167.5410882236
 31
0.0
  0
LINE
  5
141
330
1F
100
AcDbEntity
  8
0
  6
Continuous
 62
     7
100
AcDbLine
 10
835.4839810582
 20
167.5410882236
 30
0.0
 11
835.4839810582
 21
165.5410882236
 31
0.0
  0
LINE
  5
142
330
1F
100
AcDbEntity
  8
0
  6
Continuous
 62
     7
100
AcDbLine
 10
835.4839810582
 20
165.5410882236
 30
0.0
 11
872.9839810582
 21
165.5410882236
 31
0.0
  0
LINE
  5
143
330
1F
100
AcDbEntity
  8
0
  6
Continuous
 62
     7
100
AcDbLine
 10
872.9839810582
 20
165.5410882236
 30
0.0
 11
872.9839810582
 21
167.5410882236
 31
0.0
  0
LINE
  5
144
330
1F
100
AcDbEntity
  8
0
  6
Continuous
 62
     7
100
AcDbLine
 10
872.9839810582
 20
157.5410882236
 30
0.0
 11
835.4839810582
 21
157.5410882236
 31
0.0
  0
LINE
  5
145
330
1F
100
AcDbEntity
  8
0
  6
Continuous
 62
     7
100
AcDbLine
 10
835.4839810582
 20
157.5410882236
 30
0.0
 11
835.4839810582
 21
155.5410882236
 31
0.0
  0
LINE
  5
146
330
1F
100
AcDbEntity
  8
0
  6
Continuous
 62
     7
100
AcDbLine
 10
835.4839810582
 20
155.5410882236
 30
0.0
 11
872.9839810582
 21
155.5410882236
 31
0.0
  0
LINE
  5
147
330
1F
100
AcDbEntity
  8
0
  6
Continuous
 62
     7
100
AcDbLine
 10
872.9839810582
 20
155.5410882236
 30
0.0
 11
872.9839810582
 21
157.5410882236
 31
0.0
  0
LINE
  5
148
330
1F
100
AcDbEntity
  8
0
  6
Continuous
 62
     7
100
AcDbLine
 10
872.9839810582
 20
147.5410882236
 30
0.0
 11
835.4839810582
 21
147.5410882236
 31
0.0
  0
LINE
  5
149
330
1F
100
AcDbEntity
  8
0
  6
Continuous
 62
     7
100
AcDbLine
 10
835.4839810582
 20
147.5410882236
 30
0.0
 11
835.4839810582
 21
145.5410882236
 31
0.0
  0
LINE
  5
14A
330
1F
100
AcDbEntity
  8
0
  6
Continuous
 62
     7
100
AcDbLine
 10
835.4839810582
 20
145.5410882236
 30
0.0
 11
872.9839810582
 21
145.5410882236
 31
0.0
  0
LINE
  5
14B
330
1F
100
AcDbEntity
  8
0
  6
Continuous
 62
     7
100
AcDbLine
 10
872.9839810582
 20
145.5410882236
 30
0.0
 11
872.9839810582
 21
147.5410882236
 31
0.0
  0
LINE
  5
14C
330
1F
100
AcDbEntity
  8
0
  6
Continuous
 62
     7
100
AcDbLine
 10
872.9839810582
 20
137.5410882236
 30
0.0
 11
835.4839810582
 21
137.5410882236
 31
0.0
  0
LINE
  5
14D
330
1F
100
AcDbEntity
  8
0
  6
Continuous
 62
     7
100
AcDbLine
 10
835.4839810582
 20
137.5410882236
 30
0.0
 11
835.4839810582
 21
135.5410882236
 31
0.0
  0
LINE
  5
14E
330
1F
100
AcDbEntity
  8
0
  6
Continuous
 62
     7
100
AcDbLine
 10
835.4839810582
 20
135.5410882236
 30
0.0
 11
872.9839810582
 21
135.5410882236
 31
0.0
  0
LINE
  5
14F
330
1F
100
AcDbEntity
  8
0
  6
Continuous
 62
     7
100
AcDbLine
 10
872.9839810582
 20
135.5410882236
 30
0.0
 11
872.9839810582
 21
137.5410882236
 31
0.0
  0
LINE
  5
150
330
1F
100
AcDbEntity
  8
0
  6
Continuous
 62
     7
100
AcDbLine
 10
922.9839810582
 20
207.5410882236
 30
0.0
 11
885.4839810582
 21
207.5410882236
 31
0.0
  0
LINE
  5
151
330
1F
100
AcDbEntity
  8
0
  6
Continuous
 62
     7
100
AcDbLine
 10
885.4839810582
 20
207.5410882236
 30
0.0
 11
885.4839810582
 21
205.5410882236
 31
0.0
  0
LINE
  5
152
330
1F
100
AcDbEntity
  8
0
  6
Continuous
 62
     7
100
AcDbLine
 10
885.4839810582
 20
205.5410882236
 30
0.0
 11
922.9839810582
 21
205.5410882236
 31
0.0
  0
LINE
  5
153
330
1F
100
AcDbEntity
  8
0
  6
Continuous
 62
     7
100
AcDbLine
 10
922.9839810582
 20
205.5410882236
 30
0.0
 11
922.9839810582
 21
207.5410882236
 31
0.0
  0
LINE
  5
154
330
1F
100
AcDbEntity
  8
0
  6
Continuous
 62
     7
100
AcDbLine
 10
922.9839810582
 20
197.5410882236
 30
0.0
 11
885.4839810582
 21
197.5410882236
 31
0.0
  0
LINE
  5
155
330
1F
100
AcDbEntity
  8
0
  6
Continuous
 62
     7
100
AcDbLine
 10
885.4839810582
 20
197.5410882236
 30
0.0
 11
885.4839810582
 21
195.5410882236
 31
0.0
  0
LINE
  5
156
330
1F
100
AcDbEntity
  8
0
  6
Continuous
 62
     7
100
AcDbLine
 10
885.4839810582
 20
195.5410882236
 30
0.0
 11
922.9839810582
 21
195.5410882236
 31
0.0
  0
LINE
  5
157
330
1F
100
AcDbEntity
  8
0
  6
Continuous
 62
     7
100
AcDbLine
 10
922.9839810582
 20
195.5410882236
 30
0.0
 11
922.9839810582
 21
197.5410882236
 31
0.0
  0
LINE
  5
158
330
1F
100
AcDbEntity
  8
0
  6
Continuous
 62
     7
100
AcDbLine
 10
922.9839810582
 20
187.5410882236
 30
0.0
 11
885.4839810582
 21
187.5410882236
 31
0.0
  0
LINE
  5
159
330
1F
100
AcDbEntity
  8
0
  6
Continuous
 62
     7
100
AcDbLine
 10
885.4839810582
 20
187.5410882236
 30
0.0
 11
885.4839810582
 21
185.5410882236
 31
0.0
  0
LINE
  5
15A
330
1F
100
AcDbEntity
  8
0
  6
Continuous
 62
     7
100
AcDbLine
 10
885.4839810582
 20
185.5410882236
 30
0.0
 11
922.9839810582
 21
185.5410882236
 31
0.0
  0
LINE
  5
15B
330
1F
100
AcDbEntity
  8
0
  6
Continuous
 62
     7
100
AcDbLine
 10
922.9839810582
 20
185.5410882236
 30
0.0
 11
922.9839810582
 21
187.5410882236
 31
0.0
  0
LINE
  5
15C
330
1F
100
AcDbEntity
  8
0
  6
Continuous
 62
     7
100
AcDbLine
 10
922.9839810582
 20
177.5410882236
 30
0.0
 11
885.4839810582
 21
177.5410882236
 31
0.0
  0
LINE
  5
15D
330
1F
100
AcDbEntity
  8
0
  6
Continuous
 62
     7
100
AcDbLine
 10
885.4839810582
 20
177.5410882236
 30
0.0
 11
885.4839810582
 21
175.5410882236
 31
0.0
  0
LINE
  5
15E
330
1F
100
AcDbEntity
  8
0
  6
Continuous
 62
     7
100
AcDbLine
 10
885.4839810582
 20
175.5410882236
 30
0.0
 11
922.9839810582
 21
175.5410882236
 31
0.0
  0
LINE
  5
15F
330
1F
100
AcDbEntity
  8
0
  6
Continuous
 62
     7
100
AcDbLine
 10
922.9839810582
 20
175.5410882236
 30
0.0
 11
922.9839810582
 21
177.5410882236
 31
0.0
  0
LINE
  5
160
330
1F
100
AcDbEntity
  8
0
  6
Continuous
 62
     7
100
AcDbLine
 10
922.9839810582
 20
167.5410882236
 30
0.0
 11
885.4839810582
 21
167.5410882236
 31
0.0
  0
LINE
  5
161
330
1F
100
AcDbEntity
  8
0
  6
Continuous
 62
     7
100
AcDbLine
 10
885.4839810582
 20
167.5410882236
 30
0.0
 11
885.4839810582
 21
165.5410882236
 31
0.0
  0
LINE
  5
162
330
1F
100
AcDbEntity
  8
0
  6
Continuous
 62
     7
100
AcDbLine
 10
885.4839810582
 20
165.5410882236
 30
0.0
 11
922.9839810582
 21
165.5410882236
 31
0.0
  0
LINE
  5
163
330
1F
100
AcDbEntity
  8
0
  6
Continuous
 62
     7
100
AcDbLine
 10
922.9839810582
 20
165.5410882236
 30
0.0
 11
922.9839810582
 21
167.5410882236
 31
0.0
  0
LINE
  5
164
330
1F
100
AcDbEntity
  8
0
  6
Continuous
 62
     7
100
AcDbLine
 10
922.9839810582
 20
157.5410882236
 30
0.0
 11
885.4839810582
 21
157.5410882236
 31
0.0
  0
LINE
  5
165
330
1F
100
AcDbEntity
  8
0
  6
Continuous
 62
     7
100
AcDbLine
 10
885.4839810582
 20
157.5410882236
 30
0.0
 11
885.4839810582
 21
155.5410882236
 31
0.0
  0
LINE
  5
166
330
1F
100
AcDbEntity
  8
0
  6
Continuous
 62
     7
100
AcDbLine
 10
885.4839810582
 20
155.5410882236
 30
0.0
 11
922.9839810582
 21
155.5410882236
 31
0.0
  0
LINE
  5
167
330
1F
100
AcDbEntity
  8
0
  6
Continuous
 62
     7
100
AcDbLine
 10
922.9839810582
 20
155.5410882236
 30
0.0
 11
922.9839810582
 21
157.5410882236
 31
0.0
  0
LINE
  5
168
330
1F
100
AcDbEntity
  8
0
  6
Continuous
 62
     7
100
AcDbLine
 10
922.9839810582
 20
147.5410882236
 30
0.0
 11
885.4839810582
 21
147.5410882236
 31
0.0
  0
LINE
  5
169
330
1F
100
AcDbEntity
  8
0
  6
Continuous
 62
     7
100
AcDbLine
 10
885.4839810582
 20
147.5410882236
 30
0.0
 11
885.4839810582
 21
145.5410882236
 31
0.0
  0
LINE
  5
16A
330
1F
100
AcDbEntity
  8
0
  6
Continuous
 62
     7
100
AcDbLine
 10
885.4839810582
 20
145.5410882236
 30
0.0
 11
922.9839810582
 21
145.5410882236
 31
0.0
  0
LINE
  5
16B
330
1F
100
AcDbEntity
  8
0
  6
Continuous
 62
     7
100
AcDbLine
 10
922.9839810582
 20
145.5410882236
 30
0.0
 11
922.9839810582
 21
147.5410882236
 31
0.0
  0
LINE
  5
16C
330
1F
100
AcDbEntity
  8
0
  6
Continuous
 62
     7
100
AcDbLine
 10
922.9839810582
 20
137.5410882236
 30
0.0
 11
885.4839810582
 21
137.5410882236
 31
0.0
  0
LINE
  5
16D
330
1F
100
AcDbEntity
  8
0
  6
Continuous
 62
     7
100
AcDbLine
 10
885.4839810582
 20
137.5410882236
 30
0.0
 11
885.4839810582
 21
135.5410882236
 31
0.0
  0
LINE
  5
16E
330
1F
100
AcDbEntity
  8
0
  6
Continuous
 62
     7
100
AcDbLine
 10
885.4839810582
 20
135.5410882236
 30
0.0
 11
922.9839810582
 21
135.5410882236
 31
0.0
  0
LINE
  5
16F
330
1F
100
AcDbEntity
  8
0
  6
Continuous
 62
     7
100
AcDbLine
 10
922.9839810582
 20
135.5410882236
 30
0.0
 11
922.9839810582
 21
137.5410882236
 31
0.0
  0
LINE
  5
170
330
1F
100
AcDbEntity
  8
0
  6
Continuous
 62
     7
100
AcDbLine
 10
972.9839810582
 20
207.5410882236
 30
0.0
 11
935.4839810582
 21
207.5410882236
 31
0.0
  0
LINE
  5
171
330
1F
100
AcDbEntity
  8
0
  6
Continuous
 62
     7
100
AcDbLine
 10
935.4839810582
 20
207.5410882236
 30
0.0
 11
935.4839810582
 21
205.5410882236
 31
0.0
  0
LINE
  5
172
330
1F
100
AcDbEntity
  8
0
  6
Continuous
 62
     7
100
AcDbLine
 10
935.4839810582
 20
205.5410882236
 30
0.0
 11
972.9839810582
 21
205.5410882236
 31
0.0
  0
LINE
  5
173
330
1F
100
AcDbEntity
  8
0
  6
Continuous
 62
     7
100
AcDbLine
 10
972.9839810582
 20
205.5410882236
 30
0.0
 11
972.9839810582
 21
207.5410882236
 31
0.0
  0
LINE
  5
174
330
1F
100
AcDbEntity
  8
0
  6
Continuous
 62
     7
100
AcDbLine
 10
972.9839810582
 20
197.5410882236
 30
0.0
 11
935.4839810582
 21
197.5410882236
 31
0.0
  0
LINE
  5
175
330
1F
100
AcDbEntity
  8
0
  6
Continuous
 62
     7
100
AcDbLine
 10
935.4839810582
 20
197.5410882236
 30
0.0
 11
935.4839810582
 21
195.5410882236
 31
0.0
  0
LINE
  5
176
330
1F
100
AcDbEntity
  8
0
  6
Continuous
 62
     7
100
AcDbLine
 10
935.4839810582
 20
195.5410882236
 30
0.0
 11
972.9839810582
 21
195.5410882236
 31
0.0
  0
LINE
  5
177
330
1F
100
AcDbEntity
  8
0
  6
Continuous
 62
     7
100
AcDbLine
 10
972.9839810582
 20
195.5410882236
 30
0.0
 11
972.9839810582
 21
197.5410882236
 31
0.0
  0
LINE
  5
178
330
1F
100
AcDbEntity
  8
0
  6
Continuous
 62
     7
100
AcDbLine
 10
972.9839810582
 20
187.5410882236
 30
0.0
 11
935.4839810582
 21
187.5410882236
 31
0.0
  0
LINE
  5
179
330
1F
100
AcDbEntity
  8
0
  6
Continuous
 62
     7
100
AcDbLine
 10
935.4839810582
 20
187.5410882236
 30
0.0
 11
935.4839810582
 21
185.5410882236
 31
0.0
  0
LINE
  5
17A
330
1F
100
AcDbEntity
  8
0
  6
Continuous
 62
     7
100
AcDbLine
 10
935.4839810582
 20
185.5410882236
 30
0.0
 11
972.9839810582
 21
185.5410882236
 31
0.0
  0
LINE
  5
17B
330
1F
100
AcDbEntity
  8
0
  6
Continuous
 62
     7
100
AcDbLine
 10
972.9839810582
 20
185.5410882236
 30
0.0
 11
972.9839810582
 21
187.5410882236
 31
0.0
  0
LINE
  5
17C
330
1F
100
AcDbEntity
  8
0
  6
Continuous
 62
     7
100
AcDbLine
 10
972.9839810582
 20
177.5410882236
 30
0.0
 11
935.4839810582
 21
177.5410882236
 31
0.0
  0
LINE
  5
17D
330
1F
100
AcDbEntity
  8
0
  6
Continuous
 62
     7
100
AcDbLine
 10
935.4839810582
 20
177.5410882236
 30
0.0
 11
935.4839810582
 21
175.5410882236
 31
0.0
  0
LINE
  5
17E
330
1F
100
AcDbEntity
  8
0
  6
Continuous
 62
     7
100
AcDbLine
 10
935.4839810582
 20
175.5410882236
 30
0.0
 11
972.9839810582
 21
175.5410882236
 31
0.0
  0
LINE
  5
17F
330
1F
100
AcDbEntity
  8
0
  6
Continuous
 62
     7
100
AcDbLine
 10
972.9839810582
 20
175.5410882236
 30
0.0
 11
972.9839810582
 21
177.5410882236
 31
0.0
  0
LINE
  5
180
330
1F
100
AcDbEntity
  8
0
  6
Continuous
 62
     7
100
AcDbLine
 10
972.9839810582
 20
167.5410882236
 30
0.0
 11
935.4839810582
 21
167.5410882236
 31
0.0
  0
LINE
  5
181
330
1F
100
AcDbEntity
  8
0
  6
Continuous
 62
     7
100
AcDbLine
 10
935.4839810582
 20
167.5410882236
 30
0.0
 11
935.4839810582
 21
165.5410882236
 31
0.0
  0
LINE
  5
182
330
1F
100
AcDbEntity
  8
0
  6
Continuous
 62
     7
100
AcDbLine
 10
935.4839810582
 20
165.5410882236
 30
0.0
 11
972.9839810582
 21
165.5410882236
 31
0.0
  0
LINE
  5
183
330
1F
100
AcDbEntity
  8
0
  6
Continuous
 62
     7
100
AcDbLine
 10
972.9839810582
 20
165.5410882236
 30
0.0
 11
972.9839810582
 21
167.5410882236
 31
0.0
  0
LINE
  5
184
330
1F
100
AcDbEntity
  8
0
  6
Continuous
 62
     7
100
AcDbLine
 10
972.9839810582
 20
157.5410882236
 30
0.0
 11
935.4839810582
 21
157.5410882236
 31
0.0
  0
LINE
  5
185
330
1F
100
AcDbEntity
  8
0
  6
Continuous
 62
     7
100
AcDbLine
 10
935.4839810582
 20
157.5410882236
 30
0.0
 11
935.4839810582
 21
155.5410882236
 31
0.0
  0
LINE
  5
186
330
1F
100
AcDbEntity
  8
0
  6
Continuous
 62
     7
100
AcDbLine
 10
935.4839810582
 20
155.5410882236
 30
0.0
 11
972.9839810582
 21
155.5410882236
 31
0.0
  0
LINE
  5
187
330
1F
100
AcDbEntity
  8
0
  6
Continuous
 62
     7
100
AcDbLine
 10
972.9839810582
 20
155.5410882236
 30
0.0
 11
972.9839810582
 21
157.5410882236
 31
0.0
  0
LINE
  5
188
330
1F
100
AcDbEntity
  8
0
  6
Continuous
 62
     7
100
AcDbLine
 10
972.9839810582
 20
147.5410882236
 30
0.0
 11
935.4839810582
 21
147.5410882236
 31
0.0
  0
LINE
  5
189
330
1F
100
AcDbEntity
  8
0
  6
Continuous
 62
     7
100
AcDbLine
 10
935.4839810582
 20
147.5410882236
 30
0.0
 11
935.4839810582
 21
145.5410882236
 31
0.0
  0
LINE
  5
18A
330
1F
100
AcDbEntity
  8
0
  6
Continuous
 62
     7
100
AcDbLine
 10
935.4839810582
 20
145.5410882236
 30
0.0
 11
972.9839810582
 21
145.5410882236
 31
0.0
  0
LINE
  5
18B
330
1F
100
AcDbEntity
  8
0
  6
Continuous
 62
     7
100
AcDbLine
 10
972.9839810582
 20
145.5410882236
 30
0.0
 11
972.9839810582
 21
147.5410882236
 31
0.0
  0
LINE
  5
18C
330
1F
100
AcDbEntity
  8
0
  6
Continuous
 62
     7
100
AcDbLine
 10
972.9839810582
 20
137.5410882236
 30
0.0
 11
935.4839810582
 21
137.5410882236
 31
0.0
  0
LINE
  5
18D
330
1F
100
AcDbEntity
  8
0
  6
Continuous
 62
     7
100
AcDbLine
 10
935.4839810582
 20
137.5410882236
 30
0.0
 11
935.4839810582
 21
135.5410882236
 31
0.0
  0
LINE
  5
18E
330
1F
100
AcDbEntity
  8
0
  6
Continuous
 62
     7
100
AcDbLine
 10
935.4839810582
 20
135.5410882236
 30
0.0
 11
972.9839810582
 21
135.5410882236
 31
0.0
  0
LINE
  5
18F
330
1F
100
AcDbEntity
  8
0
  6
Continuous
 62
     7
100
AcDbLine
 10
972.9839810582
 20
135.5410882236
 30
0.0
 11
972.9839810582
 21
137.5410882236
 31
0.0
  0
LINE
  5
190
330
1F
100
AcDbEntity
  8
0
  6
Continuous
 62
     7
100
AcDbLine
 10
1022.9839810582
 20
207.5410882236
 30
0.0
 11
985.4839810582
 21
207.5410882236
 31
0.0
  0
LINE
  5
191
330
1F
100
AcDbEntity
  8
0
  6
Continuous
 62
     7
100
AcDbLine
 10
985.4839810582
 20
207.5410882236
 30
0.0
 11
985.4839810582
 21
205.5410882236
 31
0.0
  0
LINE
  5
192
330
1F
100
AcDbEntity
  8
0
  6
Continuous
 62
     7
100
AcDbLine
 10
985.4839810582
 20
205.5410882236
 30
0.0
 11
1022.9839810582
 21
205.5410882236
 31
0.0
  0
LINE
  5
193
330
1F
100
AcDbEntity
  8
0
  6
Continuous
 62
     7
100
AcDbLine
 10
1022.9839810582
 20
205.5410882236
 30
0.0
 11
1022.9839810582
 21
207.5410882236
 31
0.0
  0
LINE
  5
194
330
1F
100
AcDbEntity
  8
0
  6
Continuous
 62
     7
100
AcDbLine
 10
1022.9839810582
 20
197.5410882236
 30
0.0
 11
985.4839810582
 21
197.5410882236
 31
0.0
  0
LINE
  5
195
330
1F
100
AcDbEntity
  8
0
  6
Continuous
 62
     7
100
AcDbLine
 10
985.4839810582
 20
197.5410882236
 30
0.0
 11
985.4839810582
 21
195.5410882236
 31
0.0
  0
LINE
  5
196
330
1F
100
AcDbEntity
  8
0
  6
Continuous
 62
     7
100
AcDbLine
 10
985.4839810582
 20
195.5410882236
 30
0.0
 11
1022.9839810582
 21
195.5410882236
 31
0.0
  0
LINE
  5
197
330
1F
100
AcDbEntity
  8
0
  6
Continuous
 62
     7
100
AcDbLine
 10
1022.9839810582
 20
195.5410882236
 30
0.0
 11
1022.9839810582
 21
197.5410882236
 31
0.0
  0
LINE
  5
198
330
1F
100
AcDbEntity
  8
0
  6
Continuous
 62
     7
100
AcDbLine
 10
1022.9839810582
 20
187.5410882236
 30
0.0
 11
985.4839810582
 21
187.5410882236
 31
0.0
  0
LINE
  5
199
330
1F
100
AcDbEntity
  8
0
  6
Continuous
 62
     7
100
AcDbLine
 10
985.4839810582
 20
187.5410882236
 30
0.0
 11
985.4839810582
 21
185.5410882236
 31
0.0
  0
LINE
  5
19A
330
1F
100
AcDbEntity
  8
0
  6
Continuous
 62
     7
100
AcDbLine
 10
985.4839810582
 20
185.5410882236
 30
0.0
 11
1022.9839810582
 21
185.5410882236
 31
0.0
  0
LINE
  5
19B
330
1F
100
AcDbEntity
  8
0
  6
Continuous
 62
     7
100
AcDbLine
 10
1022.9839810582
 20
185.5410882236
 30
0.0
 11
1022.9839810582
 21
187.5410882236
 31
0.0
  0
LINE
  5
19C
330
1F
100
AcDbEntity
  8
0
  6
Continuous
 62
     7
100
AcDbLine
 10
1022.9839810582
 20
177.5410882236
 30
0.0
 11
985.4839810582
 21
177.5410882236
 31
0.0
  0
LINE
  5
19D
330
1F
100
AcDbEntity
  8
0
  6
Continuous
 62
     7
100
AcDbLine
 10
985.4839810582
 20
177.5410882236
 30
0.0
 11
985.4839810582
 21
175.5410882236
 31
0.0
  0
LINE
  5
19E
330
1F
100
AcDbEntity
  8
0
  6
Continuous
 62
     7
100
AcDbLine
 10
985.4839810582
 20
175.5410882236
 30
0.0
 11
1022.9839810582
 21
175.5410882236
 31
0.0
  0
LINE
  5
19F
330
1F
100
AcDbEntity
  8
0
  6
Continuous
 62
     7
100
AcDbLine
 10
1022.9839810582
 20
175.5410882236
 30
0.0
 11
1022.9839810582
 21
177.5410882236
 31
0.0
  0
LINE
  5
1A0
330
1F
100
AcDbEntity
  8
0
  6
Continuous
 62
     7
100
AcDbLine
 10
1022.9839810582
 20
167.5410882236
 30
0.0
 11
985.4839810582
 21
167.5410882236
 31
0.0
  0
LINE
  5
1A1
330
1F
100
AcDbEntity
  8
0
  6
Continuous
 62
     7
100
AcDbLine
 10
985.4839810582
 20
167.5410882236
 30
0.0
 11
985.4839810582
 21
165.5410882236
 31
0.0
  0
LINE
  5
1A2
330
1F
100
AcDbEntity
  8
0
  6
Continuous
 62
     7
100
AcDbLine
 10
985.4839810582
 20
165.5410882236
 30
0.0
 11
1022.9839810582
 21
165.5410882236
 31
0.0
  0
LINE
  5
1A3
330
1F
100
AcDbEntity
  8
0
  6
Continuous
 62
     7
100
AcDbLine
 10
1022.9839810582
 20
165.5410882236
 30
0.0
 11
1022.9839810582
 21
167.5410882236
 31
0.0
  0
LINE
  5
1A4
330
1F
100
AcDbEntity
  8
0
  6
Continuous
 62
     7
100
AcDbLine
 10
1022.9839810582
 20
157.5410882236
 30
0.0
 11
985.4839810582
 21
157.5410882236
 31
0.0
  0
LINE
  5
1A5
330
1F
100
AcDbEntity
  8
0
  6
Continuous
 62
     7
100
AcDbLine
 10
985.4839810582
 20
157.5410882236
 30
0.0
 11
985.4839810582
 21
155.5410882236
 31
0.0
  0
LINE
  5
1A6
330
1F
100
AcDbEntity
  8
0
  6
Continuous
 62
     7
100
AcDbLine
 10
985.4839810582
 20
155.5410882236
 30
0.0
 11
1022.9839810582
 21
155.5410882236
 31
0.0
  0
LINE
  5
1A7
330
1F
100
AcDbEntity
  8
0
  6
Continuous
 62
     7
100
AcDbLine
 10
1022.9839810582
 20
155.5410882236
 30
0.0
 11
1022.9839810582
 21
157.5410882236
 31
0.0
  0
LINE
  5
1A8
330
1F
100
AcDbEntity
  8
0
  6
Continuous
 62
     7
100
AcDbLine
 10
1022.9839810582
 20
147.5410882236
 30
0.0
 11
985.4839810582
 21
147.5410882236
 31
0.0
  0
LINE
  5
1A9
330
1F
100
AcDbEntity
  8
0
  6
Continuous
 62
     7
100
AcDbLine
 10
985.4839810582
 20
147.5410882236
 30
0.0
 11
985.4839810582
 21
145.5410882236
 31
0.0
  0
LINE
  5
1AA
330
1F
100
AcDbEntity
  8
0
  6
Continuous
 62
     7
100
AcDbLine
 10
985.4839810582
 20
145.5410882236
 30
0.0
 11
1022.9839810582
 21
145.5410882236
 31
0.0
  0
LINE
  5
1AB
330
1F
100
AcDbEntity
  8
0
  6
Continuous
 62
     7
100
AcDbLine
 10
1022.9839810582
 20
145.5410882236
 30
0.0
 11
1022.9839810582
 21
147.5410882236
 31
0.0
  0
LINE
  5
1AC
330
1F
100
AcDbEntity
  8
0
  6
Continuous
 62
     7
100
AcDbLine
 10
1022.9839810582
 20
137.5410882236
 30
0.0
 11
985.4839810582
 21
137.5410882236
 31
0.0
  0
LINE
  5
1AD
330
1F
100
AcDbEntity
  8
0
  6
Continuous
 62
     7
100
AcDbLine
 10
985.4839810582
 20
137.5410882236
 30
0.0
 11
985.4839810582
 21
135.5410882236
 31
0.0
  0
LINE
  5
1AE
330
1F
100
AcDbEntity
  8
0
  6
Continuous
 62
     7
100
AcDbLine
 10
985.4839810582
 20
135.5410882236
 30
0.0
 11
1022.9839810582
 21
135.5410882236
 31
0.0
  0
LINE
  5
1AF
330
1F
100
AcDbEntity
  8
0
  6
Continuous
 62
     7
100
AcDbLine
 10
1022.9839810582
 20
135.5410882236
 30
0.0
 11
1022.9839810582
 21
137.5410882236
 31
0.0
  0
LINE
  5
1B0
330
1F
100
AcDbEntity
  8
0
  6
Continuous
 62
     7
100
AcDbLine
 10
1072.9839810582
 20
207.5410882236
 30
0.0
 11
1035.4839810582
 21
207.5410882236
 31
0.0
  0
LINE
  5
1B1
330
1F
100
AcDbEntity
  8
0
  6
Continuous
 62
     7
100
AcDbLine
 10
1035.4839810582
 20
207.5410882236
 30
0.0
 11
1035.4839810582
 21
205.5410882236
 31
0.0
  0
LINE
  5
1B2
330
1F
100
AcDbEntity
  8
0
  6
Continuous
 62
     7
100
AcDbLine
 10
1035.4839810582
 20
205.5410882236
 30
0.0
 11
1072.9839810582
 21
205.5410882236
 31
0.0
  0
LINE
  5
1B3
330
1F
100
AcDbEntity
  8
0
  6
Continuous
 62
     7
100
AcDbLine
 10
1072.9839810582
 20
205.5410882236
 30
0.0
 11
1072.9839810582
 21
207.5410882236
 31
0.0
  0
LINE
  5
1B4
330
1F
100
AcDbEntity
  8
0
  6
Continuous
 62
     7
100
AcDbLine
 10
1072.9839810582
 20
197.5410882236
 30
0.0
 11
1035.4839810582
 21
197.5410882236
 31
0.0
  0
LINE
  5
1B5
330
1F
100
AcDbEntity
  8
0
  6
Continuous
 62
     7
100
AcDbLine
 10
1035.4839810582
 20
197.5410882236
 30
0.0
 11
1035.4839810582
 21
195.5410882236
 31
0.0
  0
LINE
  5
1B6
330
1F
100
AcDbEntity
  8
0
  6
Continuous
 62
     7
100
AcDbLine
 10
1035.4839810582
 20
195.5410882236
 30
0.0
 11
1072.9839810582
 21
195.5410882236
 31
0.0
  0
LINE
  5
1B7
330
1F
100
AcDbEntity
  8
0
  6
Continuous
 62
     7
100
AcDbLine
 10
1072.9839810582
 20
195.5410882236
 30
0.0
 11
1072.9839810582
 21
197.5410882236
 31
0.0
  0
LINE
  5
1B8
330
1F
100
AcDbEntity
  8
0
  6
Continuous
 62
     7
100
AcDbLine
 10
1072.9839810582
 20
187.5410882236
 30
0.0
 11
1035.4839810582
 21
187.5410882236
 31
0.0
  0
LINE
  5
1B9
330
1F
100
AcDbEntity
  8
0
  6
Continuous
 62
     7
100
AcDbLine
 10
1035.4839810582
 20
187.5410882236
 30
0.0
 11
1035.4839810582
 21
185.5410882236
 31
0.0
  0
LINE
  5
1BA
330
1F
100
AcDbEntity
  8
0
  6
Continuous
 62
     7
100
AcDbLine
 10
1035.4839810582
 20
185.5410882236
 30
0.0
 11
1072.9839810582
 21
185.5410882236
 31
0.0
  0
LINE
  5
1BB
330
1F
100
AcDbEntity
  8
0
  6
Continuous
 62
     7
100
AcDbLine
 10
1072.9839810582
 20
185.5410882236
 30
0.0
 11
1072.9839810582
 21
187.5410882236
 31
0.0
  0
LINE
  5
1BC
330
1F
100
AcDbEntity
  8
0
  6
Continuous
 62
     7
100
AcDbLine
 10
1072.9839810582
 20
177.5410882236
 30
0.0
 11
1035.4839810582
 21
177.5410882236
 31
0.0
  0
LINE
  5
1BD
330
1F
100
AcDbEntity
  8
0
  6
Continuous
 62
     7
100
AcDbLine
 10
1035.4839810582
 20
177.5410882236
 30
0.0
 11
1035.4839810582
 21
175.5410882236
 31
0.0
  0
LINE
  5
1BE
330
1F
100
AcDbEntity
  8
0
  6
Continuous
 62
     7
100
AcDbLine
 10
1035.4839810582
 20
175.5410882236
 30
0.0
 11
1072.9839810582
 21
175.5410882236
 31
0.0
  0
LINE
  5
1BF
330
1F
100
AcDbEntity
  8
0
  6
Continuous
 62
     7
100
AcDbLine
 10
1072.9839810582
 20
175.5410882236
 30
0.0
 11
1072.9839810582
 21
177.5410882236
 31
0.0
  0
LINE
  5
1C0
330
1F
100
AcDbEntity
  8
0
  6
Continuous
 62
     7
100
AcDbLine
 10
1072.9839810582
 20
167.5410882236
 30
0.0
 11
1035.4839810582
 21
167.5410882236
 31
0.0
  0
LINE
  5
1C1
330
1F
100
AcDbEntity
  8
0
  6
Continuous
 62
     7
100
AcDbLine
 10
1035.4839810582
 20
167.5410882236
 30
0.0
 11
1035.4839810582
 21
165.5410882236
 31
0.0
  0
LINE
  5
1C2
330
1F
100
AcDbEntity
  8
0
  6
Continuous
 62
     7
100
AcDbLine
 10
1035.4839810582
 20
165.5410882236
 30
0.0
 11
1072.9839810582
 21
165.5410882236
 31
0.0
  0
LINE
  5
1C3
330
1F
100
AcDbEntity
  8
0
  6
Continuous
 62
     7
100
AcDbLine
 10
1072.9839810582
 20
165.5410882236
 30
0.0
 11
1072.9839810582
 21
167.5410882236
 31
0.0
  0
LINE
  5
1C4
330
1F
100
AcDbEntity
  8
0
  6
Continuous
 62
     7
100
AcDbLine
 10
1072.9839810582
 20
157.5410882236
 30
0.0
 11
1035.4839810582
 21
157.5410882236
 31
0.0
  0
LINE
  5
1C5
330
1F
100
AcDbEntity
  8
0
  6
Continuous
 62
     7
100
AcDbLine
 10
1035.4839810582
 20
157.5410882236
 30
0.0
 11
1035.4839810582
 21
155.5410882236
 31
0.0
  0
LINE
  5
1C6
330
1F
100
AcDbEntity
  8
0
  6
Continuous
 62
     7
100
AcDbLine
 10
1035.4839810582
 20
155.5410882236
 30
0.0
 11
1072.9839810582
 21
155.5410882236
 31
0.0
  0
LINE
  5
1C7
330
1F
100
AcDbEntity
  8
0
  6
Continuous
 62
     7
100
AcDbLine
 10
1072.9839810582
 20
155.5410882236
 30
0.0
 11
1072.9839810582
 21
157.5410882236
 31
0.0
  0
LINE
  5
1C8
330
1F
100
AcDbEntity
  8
0
  6
Continuous
 62
     7
100
AcDbLine
 10
1072.9839810582
 20
147.5410882236
 30
0.0
 11
1035.4839810582
 21
147.5410882236
 31
0.0
  0
LINE
  5
1C9
330
1F
100
AcDbEntity
  8
0
  6
Continuous
 62
     7
100
AcDbLine
 10
1035.4839810582
 20
147.5410882236
 30
0.0
 11
1035.4839810582
 21
145.5410882236
 31
0.0
  0
LINE
  5
1CA
330
1F
100
AcDbEntity
  8
0
  6
Continuous
 62
     7
100
AcDbLine
 10
1035.4839810582
 20
145.5410882236
 30
0.0
 11
1072.9839810582
 21
145.5410882236
 31
0.0
  0
LINE
  5
1CB
330
1F
100
AcDbEntity
  8
0
  6
Continuous
 62
     7
100
AcDbLine
 10
1072.9839810582
 20
145.5410882236
 30
0.0
 11
1072.9839810582
 21
147.5410882236
 31
0.0
  0
LINE
  5
1CC
330
1F
100
AcDbEntity
  8
0
  6
Continuous
 62
     7
100
AcDbLine
 10
1072.9839810582
 20
137.5410882236
 30
0.0
 11
1035.4839810582
 21
137.5410882236
 31
0.0
  0
LINE
  5
1CD
330
1F
100
AcDbEntity
  8
0
  6
Continuous
 62
     7
100
AcDbLine
 10
1035.4839810582
 20
137.5410882236
 30
0.0
 11
1035.4839810582
 21
135.5410882236
 31
0.0
  0
LINE
  5
1CE
330
1F
100
AcDbEntity
  8
0
  6
Continuous
 62
     7
100
AcDbLine
 10
1035.4839810582
 20
135.5410882236
 30
0.0
 11
1072.9839810582
 21
135.5410882236
 31
0.0
  0
LINE
  5
1CF
330
1F
100
AcDbEntity
  8
0
  6
Continuous
 62
     7
100
AcDbLine
 10
1072.9839810582
 20
135.5410882236
 30
0.0
 11
1072.9839810582
 21
137.5410882236
 31
0.0
  0
LINE
  5
1D0
330
1F
100
AcDbEntity
  8
0
  6
Continuous
 62
     7
100
AcDbLine
 10
1122.9839810582
 20
207.5410882236
 30
0.0
 11
1085.4839810582
 21
207.5410882236
 31
0.0
  0
LINE
  5
1D1
330
1F
100
AcDbEntity
  8
0
  6
Continuous
 62
     7
100
AcDbLine
 10
1085.4839810582
 20
207.5410882236
 30
0.0
 11
1085.4839810582
 21
205.5410882236
 31
0.0
  0
LINE
  5
1D2
330
1F
100
AcDbEntity
  8
0
  6
Continuous
 62
     7
100
AcDbLine
 10
1085.4839810582
 20
205.5410882236
 30
0.0
 11
1122.9839810582
 21
205.5410882236
 31
0.0
  0
LINE
  5
1D3
330
1F
100
AcDbEntity
  8
0
  6
Continuous
 62
     7
100
AcDbLine
 10
1122.9839810582
 20
205.5410882236
 30
0.0
 11
1122.9839810582
 21
207.5410882236
 31
0.0
  0
LINE
  5
1D4
330
1F
100
AcDbEntity
  8
0
  6
Continuous
 62
     7
100
AcDbLine
 10
1122.9839810582
 20
197.5410882236
 30
0.0
 11
1085.4839810582
 21
197.5410882236
 31
0.0
  0
LINE
  5
1D5
330
1F
100
AcDbEntity
  8
0
  6
Continuous
 62
     7
100
AcDbLine
 10
1085.4839810582
 20
197.5410882236
 30
0.0
 11
1085.4839810582
 21
195.5410882236
 31
0.0
  0
LINE
  5
1D6
330
1F
100
AcDbEntity
  8
0
  6
Continuous
 62
     7
100
AcDbLine
 10
1085.4839810582
 20
195.5410882236
 30
0.0
 11
1122.9839810582
 21
195.5410882236
 31
0.0
  0
LINE
  5
1D7
330
1F
100
AcDbEntity
  8
0
  6
Continuous
 62
     7
100
AcDbLine
 10
1122.9839810582
 20
195.5410882236
 30
0.0
 11
1122.9839810582
 21
197.5410882236
 31
0.0
  0
LINE
  5
1D8
330
1F
100
AcDbEntity
  8
0
  6
Continuous
 62
     7
100
AcDbLine
 10
1122.9839810582
 20
187.5410882236
 30
0.0
 11
1085.4839810582
 21
187.5410882236
 31
0.0
  0
LINE
  5
1D9
330
1F
100
AcDbEntity
  8
0
  6
Continuous
 62
     7
100
AcDbLine
 10
1085.4839810582
 20
187.5410882236
 30
0.0
 11
1085.4839810582
 21
185.5410882236
 31
0.0
  0
LINE
  5
1DA
330
1F
100
AcDbEntity
  8
0
  6
Continuous
 62
     7
100
AcDbLine
 10
1085.4839810582
 20
185.5410882236
 30
0.0
 11
1122.9839810582
 21
185.5410882236
 31
0.0
  0
LINE
  5
1DB
330
1F
100
AcDbEntity
  8
0
  6
Continuous
 62
     7
100
AcDbLine
 10
1122.9839810582
 20
185.5410882236
 30
0.0
 11
1122.9839810582
 21
187.5410882236
 31
0.0
  0
LINE
  5
1DC
330
1F
100
AcDbEntity
  8
0
  6
Continuous
 62
     7
100
AcDbLine
 10
1122.9839810582
 20
177.5410882236
 30
0.0
 11
1085.4839810582
 21
177.5410882236
 31
0.0
  0
LINE
  5
1DD
330
1F
100
AcDbEntity
  8
0
  6
Continuous
 62
     7
100
AcDbLine
 10
1085.4839810582
 20
177.5410882236
 30
0.0
 11
1085.4839810582
 21
175.5410882236
 31
0.0
  0
LINE
  5
1DE
330
1F
100
AcDbEntity
  8
0
  6
Continuous
 62
     7
100
AcDbLine
 10
1085.4839810582
 20
175.5410882236
 30
0.0
 11
1122.9839810582
 21
175.5410882236
 31
0.0
  0
LINE
  5
1DF
330
1F
100
AcDbEntity
  8
0
  6
Continuous
 62
     7
100
AcDbLine
 10
1122.9839810582
 20
175.5410882236
 30
0.0
 11
1122.9839810582
 21
177.5410882236
 31
0.0
  0
LINE
  5
1E0
330
1F
100
AcDbEntity
  8
0
  6
Continuous
 62
     7
100
AcDbLine
 10
1122.9839810582
 20
167.5410882236
 30
0.0
 11
1085.4839810582
 21
167.5410882236
 31
0.0
  0
LINE
  5
1E1
330
1F
100
AcDbEntity
  8
0
  6
Continuous
 62
     7
100
AcDbLine
 10
1085.4839810582
 20
167.5410882236
 30
0.0
 11
1085.4839810582
 21
165.5410882236
 31
0.0
  0
LINE
  5
1E2
330
1F
100
AcDbEntity
  8
0
  6
Continuous
 62
     7
100
AcDbLine
 10
1085.4839810582
 20
165.5410882236
 30
0.0
 11
1122.9839810582
 21
165.5410882236
 31
0.0
  0
LINE
  5
1E3
330
1F
100
AcDbEntity
  8
0
  6
Continuous
 62
     7
100
AcDbLine
 10
1122.9839810582
 20
165.5410882236
 30
0.0
 11
1122.9839810582
 21
167.5410882236
 31
0.0
  0
LINE
  5
1E4
330
1F
100
AcDbEntity
  8
0
  6
Continuous
 62
     7
100
AcDbLine
 10
1122.9839810582
 20
157.5410882236
 30
0.0
 11
1085.4839810582
 21
157.5410882236
 31
0.0
  0
LINE
  5
1E5
330
1F
100
AcDbEntity
  8
0
  6
Continuous
 62
     7
100
AcDbLine
 10
1085.4839810582
 20
157.5410882236
 30
0.0
 11
1085.4839810582
 21
155.5410882236
 31
0.0
  0
LINE
  5
1E6
330
1F
100
AcDbEntity
  8
0
  6
Continuous
 62
     7
100
AcDbLine
 10
1085.4839810582
 20
155.5410882236
 30
0.0
 11
1122.9839810582
 21
155.5410882236
 31
0.0
  0
LINE
  5
1E7
330
1F
100
AcDbEntity
  8
0
  6
Continuous
 62
     7
100
AcDbLine
 10
1122.9839810582
 20
155.5410882236
 30
0.0
 11
1122.9839810582
 21
157.5410882236
 31
0.0
  0
LINE
  5
1E8
330
1F
100
AcDbEntity
  8
0
  6
Continuous
 62
     7
100
AcDbLine
 10
1122.9839810582
 20
147.5410882236
 30
0.0
 11
1085.4839810582
 21
147.5410882236
 31
0.0
  0
LINE
  5
1E9
330
1F
100
AcDbEntity
  8
0
  6
Continuous
 62
     7
100
AcDbLine
 10
1085.4839810582
 20
147.5410882236
 30
0.0
 11
1085.4839810582
 21
145.5410882236
 31
0.0
  0
LINE
  5
1EA
330
1F
100
AcDbEntity
  8
0
  6
Continuous
 62
     7
100
AcDbLine
 10
1085.4839810582
 20
145.5410882236
 30
0.0
 11
1122.9839810582
 21
145.5410882236
 31
0.0
  0
LINE
  5
1EB
330
1F
100
AcDbEntity
  8
0
  6
Continuous
 62
     7
100
AcDbLine
 10
1122.9839810582
 20
145.5410882236
 30
0.0
 11
1122.9839810582
 21
147.5410882236
 31
0.0
  0
LINE
  5
1EC
330
1F
100
AcDbEntity
  8
0
  6
Continuous
 62
     7
100
AcDbLine
 10
1122.9839810582
 20
137.5410882236
 30
0.0
 11
1085.4839810582
 21
137.5410882236
 31
0.0
  0
LINE
  5
1ED
330
1F
100
AcDbEntity
  8
0
  6
Continuous
 62
     7
100
AcDbLine
 10
1085.4839810582
 20
137.5410882236
 30
0.0
 11
1085.4839810582
 21
135.5410882236
 31
0.0
  0
LINE
  5
1EE
330
1F
100
AcDbEntity
  8
0
  6
Continuous
 62
     7
100
AcDbLine
 10
1085.4839810582
 20
135.5410882236
 30
0.0
 11
1122.9839810582
 21
135.5410882236
 31
0.0
  0
LINE
  5
1EF
330
1F
100
AcDbEntity
  8
0
  6
Continuous
 62
     7
100
AcDbLine
 10
1122.9839810582
 20
135.5410882236
 30
0.0
 11
1122.9839810582
 21
137.5410882236
 31
0.0
  0
LINE
  5
1F0
330
1F
100
AcDbEntity
  8
0
  6
Continuous
 62
     7
100
AcDbLine
 10
1172.9839810582
 20
207.5410882236
 30
0.0
 11
1135.4839810582
 21
207.5410882236
 31
0.0
  0
LINE
  5
1F1
330
1F
100
AcDbEntity
  8
0
  6
Continuous
 62
     7
100
AcDbLine
 10
1135.4839810582
 20
207.5410882236
 30
0.0
 11
1135.4839810582
 21
205.5410882236
 31
0.0
  0
LINE
  5
1F2
330
1F
100
AcDbEntity
  8
0
  6
Continuous
 62
     7
100
AcDbLine
 10
1135.4839810582
 20
205.5410882236
 30
0.0
 11
1172.9839810582
 21
205.5410882236
 31
0.0
  0
LINE
  5
1F3
330
1F
100
AcDbEntity
  8
0
  6
Continuous
 62
     7
100
AcDbLine
 10
1172.9839810582
 20
205.5410882236
 30
0.0
 11
1172.9839810582
 21
207.5410882236
 31
0.0
  0
LINE
  5
1F4
330
1F
100
AcDbEntity
  8
0
  6
Continuous
 62
     7
100
AcDbLine
 10
1172.9839810582
 20
197.5410882236
 30
0.0
 11
1135.4839810582
 21
197.5410882236
 31
0.0
  0
LINE
  5
1F5
330
1F
100
AcDbEntity
  8
0
  6
Continuous
 62
     7
100
AcDbLine
 10
1135.4839810582
 20
197.5410882236
 30
0.0
 11
1135.4839810582
 21
195.5410882236
 31
0.0
  0
LINE
  5
1F6
330
1F
100
AcDbEntity
  8
0
  6
Continuous
 62
     7
100
AcDbLine
 10
1135.4839810582
 20
195.5410882236
 30
0.0
 11
1172.9839810582
 21
195.5410882236
 31
0.0
  0
LINE
  5
1F7
330
1F
100
AcDbEntity
  8
0
  6
Continuous
 62
     7
100
AcDbLine
 10
1172.9839810582
 20
195.5410882236
 30
0.0
 11
1172.9839810582
 21
197.5410882236
 31
0.0
  0
LINE
  5
1F8
330
1F
100
AcDbEntity
  8
0
  6
Continuous
 62
     7
100
AcDbLine
 10
1172.9839810582
 20
187.5410882236
 30
0.0
 11
1135.4839810582
 21
187.5410882236
 31
0.0
  0
LINE
  5
1F9
330
1F
100
AcDbEntity
  8
0
  6
Continuous
 62
     7
100
AcDbLine
 10
1135.4839810582
 20
187.5410882236
 30
0.0
 11
1135.4839810582
 21
185.5410882236
 31
0.0
  0
LINE
  5
1FA
330
1F
100
AcDbEntity
  8
0
  6
Continuous
 62
     7
100
AcDbLine
 10
1135.4839810582
 20
185.5410882236
 30
0.0
 11
1172.9839810582
 21
185.5410882236
 31
0.0
  0
LINE
  5
1FB
330
1F
100
AcDbEntity
  8
0
  6
Continuous
 62
     7
100
AcDbLine
 10
1172.9839810582
 20
185.5410882236
 30
0.0
 11
1172.9839810582
 21
187.5410882236
 31
0.0
  0
LINE
  5
1FC
330
1F
100
AcDbEntity
  8
0
  6
Continuous
 62
     7
100
AcDbLine
 10
1172.9839810582
 20
177.5410882236
 30
0.0
 11
1135.4839810582
 21
177.5410882236
 31
0.0
  0
LINE
  5
1FD
330
1F
100
AcDbEntity
  8
0
  6
Continuous
 62
     7
100
AcDbLine
 10
1135.4839810582
 20
177.5410882236
 30
0.0
 11
1135.4839810582
 21
175.5410882236
 31
0.0
  0
LINE
  5
1FE
330
1F
100
AcDbEntity
  8
0
  6
Continuous
 62
     7
100
AcDbLine
 10
1135.4839810582
 20
175.5410882236
 30
0.0
 11
1172.9839810582
 21
175.5410882236
 31
0.0
  0
LINE
  5
1FF
330
1F
100
AcDbEntity
  8
0
  6
Continuous
 62
     7
100
AcDbLine
 10
1172.9839810582
 20
175.5410882236
 30
0.0
 11
1172.9839810582
 21
177.5410882236
 31
0.0
  0
LINE
  5
200
330
1F
100
AcDbEntity
  8
0
  6
Continuous
 62
     7
100
AcDbLine
 10
1172.9839810582
 20
167.5410882236
 30
0.0
 11
1135.4839810582
 21
167.5410882236
 31
0.0
  0
LINE
  5
201
330
1F
100
AcDbEntity
  8
0
  6
Continuous
 62
     7
100
AcDbLine
 10
1135.4839810582
 20
167.5410882236
 30
0.0
 11
1135.4839810582
 21
165.5410882236
 31
0.0
  0
LINE
  5
202
330
1F
100
AcDbEntity
  8
0
  6
Continuous
 62
     7
100
AcDbLine
 10
1135.4839810582
 20
165.5410882236
 30
0.0
 11
1172.9839810582
 21
165.5410882236
 31
0.0
  0
LINE
  5
203
330
1F
100
AcDbEntity
  8
0
  6
Continuous
 62
     7
100
AcDbLine
 10
1172.9839810582
 20
165.5410882236
 30
0.0
 11
1172.9839810582
 21
167.5410882236
 31
0.0
  0
LINE
  5
204
330
1F
100
AcDbEntity
  8
0
  6
Continuous
 62
     7
100
AcDbLine
 10
1172.9839810582
 20
157.5410882236
 30
0.0
 11
1135.4839810582
 21
157.5410882236
 31
0.0
  0
LINE
  5
205
330
1F
100
AcDbEntity
  8
0
  6
Continuous
 62
     7
100
AcDbLine
 10
1135.4839810582
 20
157.5410882236
 30
0.0
 11
1135.4839810582
 21
155.5410882236
 31
0.0
  0
LINE
  5
206
330
1F
100
AcDbEntity
  8
0
  6
Continuous
 62
     7
100
AcDbLine
 10
1135.4839810582
 20
155.5410882236
 30
0.0
 11
1172.9839810582
 21
155.5410882236
 31
0.0
  0
LINE
  5
207
330
1F
100
AcDbEntity
  8
0
  6
Continuous
 62
     7
100
AcDbLine
 10
1172.9839810582
 20
155.5410882236
 30
0.0
 11
1172.9839810582
 21
157.5410882236
 31
0.0
  0
LINE
  5
208
330
1F
100
AcDbEntity
  8
0
  6
Continuous
 62
     7
100
AcDbLine
 10
1172.9839810582
 20
147.5410882236
 30
0.0
 11
1135.4839810582
 21
147.5410882236
 31
0.0
  0
LINE
  5
209
330
1F
100
AcDbEntity
  8
0
  6
Continuous
 62
     7
100
AcDbLine
 10
1135.4839810582
 20
147.5410882236
 30
0.0
 11
1135.4839810582
 21
145.5410882236
 31
0.0
  0
LINE
  5
20A
330
1F
100
AcDbEntity
  8
0
  6
Continuous
 62
     7
100
AcDbLine
 10
1135.4839810582
 20
145.5410882236
 30
0.0
 11
1172.9839810582
 21
145.5410882236
 31
0.0
  0
LINE
  5
20B
330
1F
100
AcDbEntity
  8
0
  6
Continuous
 62
     7
100
AcDbLine
 10
1172.9839810582
 20
145.5410882236
 30
0.0
 11
1172.9839810582
 21
147.5410882236
 31
0.0
  0
LINE
  5
20C
330
1F
100
AcDbEntity
  8
0
  6
Continuous
 62
     7
100
AcDbLine
 10
1172.9839810582
 20
137.5410882236
 30
0.0
 11
1135.4839810582
 21
137.5410882236
 31
0.0
  0
LINE
  5
20D
330
1F
100
AcDbEntity
  8
0
  6
Continuous
 62
     7
100
AcDbLine
 10
1135.4839810582
 20
137.5410882236
 30
0.0
 11
1135.4839810582
 21
135.5410882236
 31
0.0
  0
LINE
  5
20E
330
1F
100
AcDbEntity
  8
0
  6
Continuous
 62
     7
100
AcDbLine
 10
1135.4839810582
 20
135.5410882236
 30
0.0
 11
1172.9839810582
 21
135.5410882236
 31
0.0
  0
LINE
  5
20F
330
1F
100
AcDbEntity
  8
0
  6
Continuous
 62
     7
100
AcDbLine
 10
1172.9839810582
 20
135.5410882236
 30
0.0
 11
1172.9839810582
 21
137.5410882236
 31
0.0
  0
LINE
  5
210
330
1F
100
AcDbEntity
  8
0
  6
Continuous
 62
     7
100
AcDbLine
 10
1222.9839810582
 20
207.5410882236
 30
0.0
 11
1185.4839810582
 21
207.5410882236
 31
0.0
  0
LINE
  5
211
330
1F
100
AcDbEntity
  8
0
  6
Continuous
 62
     7
100
AcDbLine
 10
1185.4839810582
 20
207.5410882236
 30
0.0
 11
1185.4839810582
 21
205.5410882236
 31
0.0
  0
LINE
  5
212
330
1F
100
AcDbEntity
  8
0
  6
Continuous
 62
     7
100
AcDbLine
 10
1185.4839810582
 20
205.5410882236
 30
0.0
 11
1222.9839810582
 21
205.5410882236
 31
0.0
  0
LINE
  5
213
330
1F
100
AcDbEntity
  8
0
  6
Continuous
 62
     7
100
AcDbLine
 10
1222.9839810582
 20
205.5410882236
 30
0.0
 11
1222.9839810582
 21
207.5410882236
 31
0.0
  0
LINE
  5
214
330
1F
100
AcDbEntity
  8
0
  6
Continuous
 62
     7
100
AcDbLine
 10
1222.9839810582
 20
197.5410882236
 30
0.0
 11
1185.4839810582
 21
197.5410882236
 31
0.0
  0
LINE
  5
215
330
1F
100
AcDbEntity
  8
0
  6
Continuous
 62
     7
100
AcDbLine
 10
1185.4839810582
 20
197.5410882236
 30
0.0
 11
1185.4839810582
 21
195.5410882236
 31
0.0
  0
LINE
  5
216
330
1F
100
AcDbEntity
  8
0
  6
Continuous
 62
     7
100
AcDbLine
 10
1185.4839810582
 20
195.5410882236
 30
0.0
 11
1222.9839810582
 21
195.5410882236
 31
0.0
  0
LINE
  5
217
330
1F
100
AcDbEntity
  8
0
  6
Continuous
 62
     7
100
AcDbLine
 10
1222.9839810582
 20
195.5410882236
 30
0.0
 11
1222.9839810582
 21
197.5410882236
 31
0.0
  0
LINE
  5
218
330
1F
100
AcDbEntity
  8
0
  6
Continuous
 62
     7
100
AcDbLine
 10
1222.9839810582
 20
187.5410882236
 30
0.0
 11
1185.4839810582
 21
187.5410882236
 31
0.0
  0
LINE
  5
219
330
1F
100
AcDbEntity
  8
0
  6
Continuous
 62
     7
100
AcDbLine
 10
1185.4839810582
 20
187.5410882236
 30
0.0
 11
1185.4839810582
 21
185.5410882236
 31
0.0
  0
LINE
  5
21A
330
1F
100
AcDbEntity
  8
0
  6
Continuous
 62
     7
100
AcDbLine
 10
1185.4839810582
 20
185.5410882236
 30
0.0
 11
1222.9839810582
 21
185.5410882236
 31
0.0
  0
LINE
  5
21B
330
1F
100
AcDbEntity
  8
0
  6
Continuous
 62
     7
100
AcDbLine
 10
1222.9839810582
 20
185.5410882236
 30
0.0
 11
1222.9839810582
 21
187.5410882236
 31
0.0
  0
LINE
  5
21C
330
1F
100
AcDbEntity
  8
0
  6
Continuous
 62
     7
100
AcDbLine
 10
1222.9839810582
 20
177.5410882236
 30
0.0
 11
1185.4839810582
 21
177.5410882236
 31
0.0
  0
LINE
  5
21D
330
1F
100
AcDbEntity
  8
0
  6
Continuous
 62
     7
100
AcDbLine
 10
1185.4839810582
 20
177.5410882236
 30
0.0
 11
1185.4839810582
 21
175.5410882236
 31
0.0
  0
LINE
  5
21E
330
1F
100
AcDbEntity
  8
0
  6
Continuous
 62
     7
100
AcDbLine
 10
1185.4839810582
 20
175.5410882236
 30
0.0
 11
1222.9839810582
 21
175.5410882236
 31
0.0
  0
LINE
  5
21F
330
1F
100
AcDbEntity
  8
0
  6
Continuous
 62
     7
100
AcDbLine
 10
1222.9839810582
 20
175.5410882236
 30
0.0
 11
1222.9839810582
 21
177.5410882236
 31
0.0
  0
LINE
  5
220
330
1F
100
AcDbEntity
  8
0
  6
Continuous
 62
     7
100
AcDbLine
 10
1222.9839810582
 20
167.5410882236
 30
0.0
 11
1185.4839810582
 21
167.5410882236
 31
0.0
  0
LINE
  5
221
330
1F
100
AcDbEntity
  8
0
  6
Continuous
 62
     7
100
AcDbLine
 10
1185.4839810582
 20
167.5410882236
 30
0.0
 11
1185.4839810582
 21
165.5410882236
 31
0.0
  0
LINE
  5
222
330
1F
100
AcDbEntity
  8
0
  6
Continuous
 62
     7
100
AcDbLine
 10
1185.4839810582
 20
165.5410882236
 30
0.0
 11
1222.9839810582
 21
165.5410882236
 31
0.0
  0
LINE
  5
223
330
1F
100
AcDbEntity
  8
0
  6
Continuous
 62
     7
100
AcDbLine
 10
1222.9839810582
 20
165.5410882236
 30
0.0
 11
1222.9839810582
 21
167.5410882236
 31
0.0
  0
LINE
  5
224
330
1F
100
AcDbEntity
  8
0
  6
Continuous
 62
     7
100
AcDbLine
 10
1222.9839810582
 20
157.5410882236
 30
0.0
 11
1185.4839810582
 21
157.5410882236
 31
0.0
  0
LINE
  5
225
330
1F
100
AcDbEntity
  8
0
  6
Continuous
 62
     7
100
AcDbLine
 10
1185.4839810582
 20
157.5410882236
 30
0.0
 11
1185.4839810582
 21
155.5410882236
 31
0.0
  0
LINE
  5
226
330
1F
100
AcDbEntity
  8
0
  6
Continuous
 62
     7
100
AcDbLine
 10
1185.4839810582
 20
155.5410882236
 30
0.0
 11
1222.9839810582
 21
155.5410882236
 31
0.0
  0
LINE
  5
227
330
1F
100
AcDbEntity
  8
0
  6
Continuous
 62
     7
100
AcDbLine
 10
1222.9839810582
 20
155.5410882236
 30
0.0
 11
1222.9839810582
 21
157.5410882236
 31
0.0
  0
LINE
  5
228
330
1F
100
AcDbEntity
  8
0
  6
Continuous
 62
     7
100
AcDbLine
 10
1222.9839810582
 20
147.5410882236
 30
0.0
 11
1185.4839810582
 21
147.5410882236
 31
0.0
  0
LINE
  5
229
330
1F
100
AcDbEntity
  8
0
  6
Continuous
 62
     7
100
AcDbLine
 10
1185.4839810582
 20
147.5410882236
 30
0.0
 11
1185.4839810582
 21
145.5410882236
 31
0.0
  0
LINE
  5
22A
330
1F
100
AcDbEntity
  8
0
  6
Continuous
 62
     7
100
AcDbLine
 10
1185.4839810582
 20
145.5410882236
 30
0.0
 11
1222.9839810582
 21
145.5410882236
 31
0.0
  0
LINE
  5
22B
330
1F
100
AcDbEntity
  8
0
  6
Continuous
 62
     7
100
AcDbLine
 10
1222.9839810582
 20
145.5410882236
 30
0.0
 11
1222.9839810582
 21
147.5410882236
 31
0.0
  0
LINE
  5
22C
330
1F
100
AcDbEntity
  8
0
  6
Continuous
 62
     7
100
AcDbLine
 10
1222.9839810582
 20
137.5410882236
 30
0.0
 11
1185.4839810582
 21
137.5410882236
 31
0.0
  0
LINE
  5
22D
330
1F
100
AcDbEntity
  8
0
  6
Continuous
 62
     7
100
AcDbLine
 10
1185.4839810582
 20
137.5410882236
 30
0.0
 11
1185.4839810582
 21
135.5410882236
 31
0.0
  0
LINE
  5
22E
330
1F
100
AcDbEntity
  8
0
  6
Continuous
 62
     7
100
AcDbLine
 10
1185.4839810582
 20
135.5410882236
 30
0.0
 11
1222.9839810582
 21
135.5410882236
 31
0.0
  0
LINE
  5
22F
330
1F
100
AcDbEntity
  8
0
  6
Continuous
 62
     7
100
AcDbLine
 10
1222.9839810582
 20
135.5410882236
 30
0.0
 11
1222.9839810582
 21
137.5410882236
 31
0.0
  0
LINE
  5
230
330
1F
100
AcDbEntity
  8
0
  6
Continuous
 62
     7
100
AcDbLine
 10
608.2439810582
 20
250.5410882236
 30
0.0
 11
1251.2439810582
 21
250.5410882236
 31
0.0
  0
LINE
  5
231
330
1F
100
AcDbEntity
  8
0
  6
Continuous
 62
     7
100
AcDbLine
 10
1251.2439810582
 20
250.5410882236
 30
0.0
 11
1269.2439810582
 21
232.5410882236
 31
0.0
  0
LINE
  5
232
330
1F
100
AcDbEntity
  8
0
  6
Continuous
 62
     7
100
AcDbLine
 10
590.2439810582
 20
232.5410882236
 30
0.0
 11
608.2439810582
 21
250.5410882236
 31
0.0
  0
LINE
  5
233
330
1F
100
AcDbEntity
  8
0
  6
Continuous
 62
     7
100
AcDbLine
 10
1234.4939810582
 20
114.2126610989
 30
0.0
 11
1234.4939810582
 21
113.9197678801
 31
0.0
  0
LINE
  5
234
330
1F
100
AcDbEntity
  8
0
  6
Continuous
 62
     7
100
AcDbLine
 10
624.9939810582
 20
113.9197678801
 30
0.0
 11
1234.4939810582
 21
113.9197678801
 31
0.0
  0
LINE
  5
235
330
1F
100
AcDbEntity
  8
0
  6
Continuous
 62
     7
100
AcDbLine
 10
624.9939810582
 20
114.2126610989
 30
0.0
 11
624.9939810582
 21
113.9197678801
 31
0.0
  0
LINE
  5
236
330
1F
100
AcDbEntity
  8
0
  6
Continuous
 62
     7
100
AcDbLine
 10
624.9939810582
 20
114.6875348331
 30
0.0
 11
624.9939810582
 21
114.2126610989
 31
0.0
  0
LINE
  5
237
330
1F
100
AcDbEntity
  8
0
  6
Continuous
 62
     7
100
AcDbLine
 10
624.9939810582
 20
114.6875348331
 30
0.0
 11
624.9939810582
 21
115.4197678801
 31
0.0
  0
LINE
  5
238
330
1F
100
AcDbEntity
  8
0
  6
Continuous
 62
     7
100
AcDbLine
 10
1234.4939810582
 20
114.6875348331
 30
0.0
 11
1234.4939810582
 21
115.4197678801
 31
0.0
  0
LINE
  5
239
330
1F
100
AcDbEntity
  8
0
  6
Continuous
 62
     7
100
AcDbLine
 10
1234.4939810582
 20
114.2126610989
 30
0.0
 11
1234.4939810582
 21
114.6875348331
 31
0.0
  0
LINE
  5
23A
330
1F
100
AcDbEntity
  8
0
  6
Continuous
 62
     7
100
AcDbLine
 10
1234.4939810582
 20
30.5410882236
 30
0.0
 11
1234.4939810582
 21
28.0410882236
 31
0.0
  0
LINE
  5
23B
330
1F
100
AcDbEntity
  8
0
  6
Continuous
 62
     7
100
AcDbLine
 10
1234.4939810582
 20
28.0410882236
 30
0.0
 11
624.9939810582
 21
28.0410882236
 31
0.0
  0
LINE
  5
23C
330
1F
100
AcDbEntity
  8
0
  6
Continuous
 62
     7
100
AcDbLine
 10
624.9939810582
 20
30.5410882236
 30
0.0
 11
624.9939810582
 21
28.0410882236
 31
0.0
  0
LINE
  5
23D
330
1F
100
AcDbEntity
  8
0
  6
Continuous
 62
     7
100
AcDbLine
 10
624.9939810582
 20
30.5410882236
 30
0.0
 11
624.9939810582
 21
113.5055543177
 31
0.0
  0
LINE
  5
23E
330
1F
100
AcDbEntity
  8
0
  6
Continuous
 62
     7
100
AcDbLine
 10
1234.4939810582
 20
113.5055543177
 30
0.0
 11
1234.4939810582
 21
30.5410882236
 31
0.0
  0
LINE
  5
23F
330
1F
100
AcDbEntity
  8
0
  6
Continuous
 62
     7
100
AcDbLine
 10
624.9939810582
 20
113.5055543177
 30
0.0
 11
624.9939810582
 21
113.9197678801
 31
0.0
  0
LINE
  5
240
330
1F
100
AcDbEntity
  8
0
  6
Continuous
 62
     7
100
AcDbLine
 10
1234.4939810582
 20
113.5055543177
 30
0.0
 11
1234.4939810582
 21
113.9197678801
 31
0.0
  0
LINE
  5
241
330
1F
100
AcDbEntity
  8
0
  6
Continuous
 62
     7
100
AcDbLine
 10
556.8585343604
 20
33.6410882236
 30
0.0
 11
559.6985269694
 21
33.6410882236
 31
0.0
  0
ARC
  5
242
330
1F
100
AcDbEntity
  8
0
  6
Continuous
 62
     7
100
AcDbCircle
 10
556.8585343604
 20
35.1410882236
 30
0.0
 40
1.5
100
AcDbArc
 50
207.5120026239
 51
270.0
  0
LINE
  5
243
330
1F
100
AcDbEntity
  8
0
  6
Continuous
 62
     7
100
AcDbLine
 10
559.6985269694
 20
45.4410882236
 30
0.0
 11
556.8585343604
 21
45.4410882236
 31
0.0
  0
ARC
  5
244
330
1F
100
AcDbEntity
  8
0
  6
Continuous
 62
     7
100
AcDbCircle
 10
556.8585343604
 20
43.9410882236
 30
0.0
 40
1.5
100
AcDbArc
 50
90.0
 51
152.4879973761
  0
LINE
  5
245
330
1F
100
AcDbEntity
  8
0
  6
Continuous
 62
     7
100
AcDbLine
 10
554.8681558431
 20
35.715400786
 30
0.0
 11
555.5281632341
 21
34.4481865954
 31
0.0
  0
LINE
  5
246
330
1F
100
AcDbEntity
  8
0
  6
Continuous
 62
     7
100
AcDbLine
 10
555.5281632341
 20
44.6339898519
 30
0.0
 11
554.8681558431
 21
43.3667756612
 31
0.0
  0
ARC
  5
247
330
1F
100
AcDbEntity
  8
0
  6
Continuous
 62
     7
100
AcDbCircle
 10
556.1985269694
 20
36.4083024143
 30
0.0
 40
1.499999999999919
100
AcDbArc
 50
180.0
 51
207.5120026239
  0
ARC
  5
248
330
1F
100
AcDbEntity
  8
0
  6
Continuous
 62
     7
100
AcDbCircle
 10
556.1985269694
 20
42.673874033
 30
0.0
 40
1.499999999999919
100
AcDbArc
 50
152.4879973761
 51
180.0
  0
LINE
  5
249
330
1F
100
AcDbEntity
  8
0
  6
Continuous
 62
     7
100
AcDbLine
 10
568.3985269694
 20
36.5410882236
 30
0.0
 11
568.8985269694
 21
37.0410882236
 31
0.0
  0
LINE
  5
24A
330
1F
100
AcDbEntity
  8
0
  6
Continuous
 62
     7
100
AcDbLine
 10
562.6985269694
 20
36.5410882236
 30
0.0
 11
568.3985269694
 21
36.5410882236
 31
0.0
  0
LINE
  5
24B
330
1F
100
AcDbEntity
  8
0
  6
Continuous
 62
     7
100
AcDbLine
 10
559.6985269694
 20
36.5410882236
 30
0.0
 11
561.1985269694
 21
36.5410882236
 31
0.0
  0
LINE
  5
24C
330
1F
100
AcDbEntity
  8
0
  6
Continuous
 62
     7
100
AcDbLine
 10
568.8985269694
 20
42.0410882236
 30
0.0
 11
568.3985269694
 21
42.5410882236
 31
0.0
  0
LINE
  5
24D
330
1F
100
AcDbEntity
  8
0
  6
Continuous
 62
     7
100
AcDbLine
 10
568.3985269694
 20
42.5410882236
 30
0.0
 11
562.6985269694
 21
42.5410882236
 31
0.0
  0
LINE
  5
24E
330
1F
100
AcDbEntity
  8
0
  6
Continuous
 62
     7
100
AcDbLine
 10
561.1985269694
 20
42.5410882236
 30
0.0
 11
559.6985269694
 21
42.5410882236
 31
0.0
  0
LINE
  5
24F
330
1F
100
AcDbEntity
  8
0
  6
Continuous
 62
     7
100
AcDbLine
 10
559.6985269694
 20
134.455301786
 30
0.0
 11
561.1985269694
 21
134.455301786
 31
0.0
  0
LINE
  5
250
330
1F
100
AcDbEntity
  8
0
  6
Continuous
 62
     7
100
AcDbLine
 10
559.6985269694
 20
232.5410882236
 30
0.0
 11
561.1985269694
 21
232.5410882236
 31
0.0
  0
LINE
  5
251
330
1F
100
AcDbEntity
  8
0
  6
Continuous
 62
     7
100
AcDbLine
 10
559.6985269694
 20
232.5410882236
 30
0.0
 11
559.6985269694
 21
134.455301786
 31
0.0
  0
LINE
  5
252
330
1F
100
AcDbEntity
  8
0
  6
Continuous
 62
     7
100
AcDbLine
 10
561.1985269694
 20
232.5410882236
 30
0.0
 11
561.1985269694
 21
134.455301786
 31
0.0
  0
LINE
  5
253
330
1F
100
AcDbEntity
  8
0
  6
Continuous
 62
     7
100
AcDbLine
 10
559.6985269694
 20
116.455301786
 30
0.0
 11
561.1985269694
 21
116.455301786
 31
0.0
  0
LINE
  5
254
330
1F
100
AcDbEntity
  8
0
  6
Continuous
 62
     7
100
AcDbLine
 10
559.6985269694
 20
134.455301786
 30
0.0
 11
559.6985269694
 21
116.455301786
 31
0.0
  0
LINE
  5
255
330
1F
100
AcDbEntity
  8
0
  6
Continuous
 62
     7
100
AcDbLine
 10
561.1985269694
 20
134.455301786
 30
0.0
 11
561.1985269694
 21
116.455301786
 31
0.0
  0
LINE
  5
256
330
1F
100
AcDbEntity
  8
0
  6
Continuous
 62
     7
100
AcDbLine
 10
559.6985269694
 20
250.5410882236
 30
0.0
 11
561.1985269694
 21
250.5410882236
 31
0.0
  0
LINE
  5
257
330
1F
100
AcDbEntity
  8
0
  6
Continuous
 62
     7
100
AcDbLine
 10
559.6985269694
 20
250.5410882236
 30
0.0
 11
559.6985269694
 21
232.5410882236
 31
0.0
  0
LINE
  5
258
330
1F
100
AcDbEntity
  8
0
  6
Continuous
 62
     7
100
AcDbLine
 10
561.1985269694
 20
250.5410882236
 30
0.0
 11
561.1985269694
 21
232.5410882236
 31
0.0
  0
LINE
  5
259
330
1F
100
AcDbEntity
  8
0
  6
Continuous
 62
     7
100
AcDbLine
 10
567.6985269694
 20
29.5410882236
 30
0.0
 11
563.6985269694
 21
29.5410882236
 31
0.0
  0
LINE
  5
25A
330
1F
100
AcDbEntity
  8
0
  6
Continuous
 62
     7
100
AcDbLine
 10
567.6985269694
 20
28.0410882236
 30
0.0
 11
567.6985269694
 21
29.5410882236
 31
0.0
  0
LINE
  5
25B
330
1F
100
AcDbEntity
  8
0
  6
Continuous
 62
     7
100
AcDbLine
 10
567.6985269694
 20
28.0410882236
 30
0.0
 11
563.6985269694
 21
28.0410882236
 31
0.0
  0
LINE
  5
25C
330
1F
100
AcDbEntity
  8
0
  6
Continuous
 62
     7
100
AcDbLine
 10
563.6985269694
 20
29.5410882236
 30
0.0
 11
563.6985269694
 21
28.0410882236
 31
0.0
  0
LINE
  5
25D
330
1F
100
AcDbEntity
  8
0
  6
Continuous
 62
     7
100
AcDbLine
 10
570.6985269694
 20
28.0410882236
 30
0.0
 11
570.6985269694
 21
29.5410882236
 31
0.0
  0
LINE
  5
25E
330
1F
100
AcDbEntity
  8
0
  6
Continuous
 62
     7
100
AcDbLine
 10
570.6985269694
 20
29.5410882236
 30
0.0
 11
567.6985269694
 21
29.5410882236
 31
0.0
  0
LINE
  5
25F
330
1F
100
AcDbEntity
  8
0
  6
Continuous
 62
     7
100
AcDbLine
 10
570.6985269694
 20
28.0410882236
 30
0.0
 11
567.6985269694
 21
28.0410882236
 31
0.0
  0
LINE
  5
260
330
1F
100
AcDbEntity
  8
0
  6
Continuous
 62
     7
100
AcDbLine
 10
561.9662939224
 20
115.2733212707
 30
0.0
 11
561.4914201882
 21
115.7481950048
 31
0.0
  0
LINE
  5
261
330
1F
100
AcDbEntity
  8
0
  6
Continuous
 62
     7
100
AcDbLine
 10
560.9056337506
 20
114.2126610989
 30
0.0
 11
561.9662939224
 21
115.2733212707
 31
0.0
  0
LINE
  5
262
330
1F
100
AcDbEntity
  8
0
  6
Continuous
 62
     7
100
AcDbLine
 10
560.9056337506
 20
114.2126610989
 30
0.0
 11
560.4307600164
 21
114.6875348331
 31
0.0
  0
LINE
  5
263
330
1F
100
AcDbEntity
  8
0
  6
Continuous
 62
     7
100
AcDbLine
 10
561.4914201882
 20
115.7481950048
 30
0.0
 11
560.4307600164
 21
114.6875348331
 31
0.0
  0
LINE
  5
264
330
1F
100
AcDbEntity
  8
0
  6
Continuous
 62
     7
100
AcDbLine
 10
561.1985269694
 20
30.5410882236
 30
0.0
 11
561.1985269694
 21
28.0410882236
 31
0.0
  0
LINE
  5
265
330
1F
100
AcDbEntity
  8
0
  6
Continuous
 62
     7
100
AcDbLine
 10
562.6985269694
 20
30.5410882236
 30
0.0
 11
561.1985269694
 21
30.5410882236
 31
0.0
  0
LINE
  5
266
330
1F
100
AcDbEntity
  8
0
  6
Continuous
 62
     7
100
AcDbLine
 10
562.6985269694
 20
30.5410882236
 30
0.0
 11
562.6985269694
 21
29.5410882236
 31
0.0
  0
LINE
  5
267
330
1F
100
AcDbEntity
  8
0
  6
Continuous
 62
     7
100
AcDbLine
 10
563.6985269694
 20
29.5410882236
 30
0.0
 11
562.6985269694
 21
29.5410882236
 31
0.0
  0
LINE
  5
268
330
1F
100
AcDbEntity
  8
0
  6
Continuous
 62
     7
100
AcDbLine
 10
563.6985269694
 20
28.0410882236
 30
0.0
 11
561.1985269694
 21
28.0410882236
 31
0.0
  0
LINE
  5
269
330
1F
100
AcDbEntity
  8
0
  6
Continuous
 62
     7
100
AcDbLine
 10
561.1985269694
 20
113.5055543177
 30
0.0
 11
562.6985269694
 21
113.5055543177
 31
0.0
  0
LINE
  5
26A
330
1F
100
AcDbEntity
  8
0
  6
Continuous
 62
     7
100
AcDbLine
 10
561.1985269694
 20
113.5055543177
 30
0.0
 11
561.1985269694
 21
113.9197678801
 31
0.0
  0
LINE
  5
26B
330
1F
100
AcDbEntity
  8
0
  6
Continuous
 62
     7
100
AcDbLine
 10
560.9056337506
 20
114.2126610989
 30
0.0
 11
561.1985269694
 21
113.9197678801
 31
0.0
  0
LINE
  5
26C
330
1F
100
AcDbEntity
  8
0
  6
Continuous
 62
     7
100
AcDbLine
 10
561.9662939224
 20
115.2733212707
 30
0.0
 11
562.6985269694
 21
114.5410882236
 31
0.0
  0
LINE
  5
26D
330
1F
100
AcDbEntity
  8
0
  6
Continuous
 62
     7
100
AcDbLine
 10
562.6985269694
 20
113.5055543177
 30
0.0
 11
562.6985269694
 21
114.5410882236
 31
0.0
  0
LINE
  5
26E
330
1F
100
AcDbEntity
  8
0
  6
Continuous
 62
     7
100
AcDbLine
 10
560.4307600164
 20
114.6875348331
 30
0.0
 11
559.6985269694
 21
115.4197678801
 31
0.0
  0
LINE
  5
26F
330
1F
100
AcDbEntity
  8
0
  6
Continuous
 62
     7
100
AcDbLine
 10
561.4914201882
 20
115.7481950048
 30
0.0
 11
561.1985269694
 21
116.0410882236
 31
0.0
  0
LINE
  5
270
330
1F
100
AcDbEntity
  8
0
  6
Continuous
 62
     7
100
AcDbLine
 10
559.6985269694
 20
116.455301786
 30
0.0
 11
559.6985269694
 21
115.4197678801
 31
0.0
  0
LINE
  5
271
330
1F
100
AcDbEntity
  8
0
  6
Continuous
 62
     7
100
AcDbLine
 10
561.1985269694
 20
116.455301786
 30
0.0
 11
561.1985269694
 21
116.0410882236
 31
0.0
  0
LINE
  5
272
330
1F
100
AcDbEntity
  8
0
  6
Continuous
 62
     7
100
AcDbLine
 10
561.1985269694
 20
113.5055543177
 30
0.0
 11
561.1985269694
 21
30.5410882236
 31
0.0
  0
LINE
  5
273
330
1F
100
AcDbEntity
  8
0
  6
Continuous
 62
     7
100
AcDbLine
 10
562.6985269694
 20
113.5055543177
 30
0.0
 11
562.6985269694
 21
30.5410882236
 31
0.0
  0
LINE
  5
274
330
1F
100
AcDbEntity
  8
0
  6
Continuous
 62
     7
100
AcDbLine
 10
556.8585343604
 20
39.5505014098
 30
0.0
 11
559.6985269694
 21
39.5505014098
 31
0.0
  0
LINE
  5
275
330
1F
100
AcDbEntity
  8
0
  6
Continuous
 62
     7
100
AcDbLine
 10
559.6985269694
 20
39.5505014098
 30
0.0
 11
559.6985269694
 21
33.6410882236
 31
0.0
  0
LWPOLYLINE
  5
276
330
1F
100
AcDbEntity
  8
0
  6
Continuous
 62
     7
100
AcDbPolyline
 90
        9
 70
   128
 43
0.0
 10
555.5281632341
 20
39.5492137205
 10
555.634676059
 20
39.5494919299
 10
555.7638993677
 20
39.5497444627
 10
555.9134352324
 20
39.5499666328
 10
556.080508796
 20
39.5501543174
 10
556.2620197638
 20
39.5503040338
 10
556.4545999339
 20
39.5504130038
 10
556.6546756991
 20
39.5504792053
 10
556.8585343604
 20
39.5505014098
  0
LINE
  5
277
330
1F
100
AcDbEntity
  8
0
  6
Continuous
 62
     7
100
AcDbLine
 10
559.6985269694
 20
45.4410882236
 30
0.0
 11
559.6985269694
 21
39.5505014098
 31
0.0
  0
LINE
  5
278
330
1F
100
AcDbEntity
  8
0
  6
Continuous
 62
     7
100
AcDbLine
 10
554.8681558431
 20
39.5471919369
 30
0.0
 11
555.5281632341
 21
39.5492137205
 31
0.0
  0
ARC
  5
279
330
1F
100
AcDbEntity
  8
0
  6
Continuous
 62
     7
100
AcDbCircle
 10
554.8479313145
 20
29.6358502412
 30
0.0
 40
9.911362330197091
100
AcDbArc
 50
89.8830856041
 51
90.8637120053
  0
LINE
  5
27A
330
1F
100
AcDbEntity
  8
0
  6
Continuous
 62
     7
100
AcDbLine
 10
554.6985269694
 20
39.5460864433
 30
0.0
 11
554.6985269694
 21
36.4083024143
 31
0.0
  0
LINE
  5
27B
330
1F
100
AcDbEntity
  8
0
  6
Continuous
 62
     7
100
AcDbLine
 10
554.6985269694
 20
42.673874033
 30
0.0
 11
554.6985269694
 21
39.5460864433
 31
0.0
  0
LINE
  5
27C
330
1F
100
AcDbEntity
  8
0
  6
Continuous
 62
     7
100
AcDbLine
 10
568.3985269694
 20
39.5458745895
 30
0.0
 11
568.3985269694
 21
36.5410882236
 31
0.0
  0
LINE
  5
27D
330
1F
100
AcDbEntity
  8
0
  6
Continuous
 62
     7
100
AcDbLine
 10
568.8985269694
 20
39.5450768619
 30
0.0
 11
568.3985269694
 21
39.5458745895
 31
0.0
  0
LINE
  5
27E
330
1F
100
AcDbEntity
  8
0
  6
Continuous
 62
     7
100
AcDbLine
 10
568.8985269694
 20
39.5450768619
 30
0.0
 11
568.8985269694
 21
37.0410882236
 31
0.0
  0
LINE
  5
27F
330
1F
100
AcDbEntity
  8
0
  6
Continuous
 62
     7
100
AcDbLine
 10
568.3985269694
 20
39.5458745895
 30
0.0
 11
562.6985269694
 21
39.5458745895
 31
0.0
  0
LINE
  5
280
330
1F
100
AcDbEntity
  8
0
  6
Continuous
 62
     7
100
AcDbLine
 10
561.1985269694
 20
39.5458745895
 30
0.0
 11
559.6985269694
 21
39.5458745895
 31
0.0
  0
LINE
  5
281
330
1F
100
AcDbEntity
  8
0
  6
Continuous
 62
     7
100
AcDbLine
 10
568.3985269694
 20
42.5410882236
 30
0.0
 11
568.3985269694
 21
39.5458745895
 31
0.0
  0
LINE
  5
282
330
1F
100
AcDbEntity
  8
0
  6
Continuous
 62
     7
100
AcDbLine
 10
568.8985269694
 20
42.0410882236
 30
0.0
 11
568.8985269694
 21
39.5450768619
 31
0.0
  0
LINE
  5
283
330
1F
100
AcDbEntity
  8
0
  6
Continuous
 62
     7
100
AcDbLine
 10
556.8585343604
 20
39.5505014098
 30
0.0
 11
556.8585343604
 21
33.6410882236
 31
0.0
  0
LINE
  5
284
330
1F
100
AcDbEntity
  8
0
  6
Continuous
 62
     7
100
AcDbLine
 10
555.5281632341
 20
39.5492137205
 30
0.0
 11
555.5281632341
 21
34.4481865954
 31
0.0
  0
LINE
  5
285
330
1F
100
AcDbEntity
  8
0
  6
Continuous
 62
     7
100
AcDbLine
 10
556.8585343604
 20
45.4410882236
 30
0.0
 11
556.8585343604
 21
39.5505014098
 31
0.0
  0
LINE
  5
286
330
1F
100
AcDbEntity
  8
0
  6
Continuous
 62
     7
100
AcDbLine
 10
555.5281632341
 20
44.6339898519
 30
0.0
 11
555.5281632341
 21
39.5492137205
 31
0.0
  0
LINE
  5
287
330
1F
100
AcDbEntity
  8
0
  6
Continuous
 62
     7
100
AcDbLine
 10
554.8681558431
 20
39.5471919369
 30
0.0
 11
554.8681558431
 21
35.715400786
 31
0.0
  0
LINE
  5
288
330
1F
100
AcDbEntity
  8
0
  6
Continuous
 62
     7
100
AcDbLine
 10
554.8681558431
 20
43.3667756612
 30
0.0
 11
554.8681558431
 21
39.5471919369
 31
0.0
  0
LINE
  5
289
330
1F
100
AcDbEntity
  8
0
  6
Continuous
 62
     7
100
AcDbLine
 10
1314.3436443759
 20
45.4410882236
 30
0.0
 11
1311.5036517669
 21
45.4410882236
 31
0.0
  0
ARC
  5
28A
330
1F
100
AcDbEntity
  8
0
  6
Continuous
 62
     7
100
AcDbCircle
 10
1314.3436443759
 20
43.9410882236
 30
0.0
 40
1.5
100
AcDbArc
 50
27.5120026239
 51
90.0
  0
ARC
  5
28B
330
1F
100
AcDbEntity
  8
0
  6
Continuous
 62
     7
100
AcDbCircle
 10
1314.3436443759
 20
35.1410882236
 30
0.0
 40
1.5
100
AcDbArc
 50
270.0
 51
332.4879973761
  0
LINE
  5
28C
330
1F
100
AcDbEntity
  8
0
  6
Continuous
 62
     7
100
AcDbLine
 10
1311.5036517669
 20
33.6410882236
 30
0.0
 11
1314.3436443759
 21
33.6410882236
 31
0.0
  0
LINE
  5
28D
330
1F
100
AcDbEntity
  8
0
  6
Continuous
 62
     7
100
AcDbLine
 10
1316.3340228932
 20
43.3667756612
 30
0.0
 11
1315.6740155022
 21
44.6339898519
 31
0.0
  0
LINE
  5
28E
330
1F
100
AcDbEntity
  8
0
  6
Continuous
 62
     7
100
AcDbLine
 10
1315.6740155022
 20
34.4481865954
 30
0.0
 11
1316.3340228932
 21
35.715400786
 31
0.0
  0
ARC
  5
28F
330
1F
100
AcDbEntity
  8
0
  6
Continuous
 62
     7
100
AcDbCircle
 10
1315.0036517669
 20
42.673874033
 30
0.0
 40
1.500000000000011
100
AcDbArc
 50
0.0
 51
27.5120026239
  0
ARC
  5
290
330
1F
100
AcDbEntity
  8
0
  6
Continuous
 62
     7
100
AcDbCircle
 10
1315.0036517669
 20
36.4083024143
 30
0.0
 40
1.500000000000008
100
AcDbArc
 50
332.4879973761
 51
0.0
  0
LINE
  5
291
330
1F
100
AcDbEntity
  8
0
  6
Continuous
 62
     7
100
AcDbLine
 10
1302.8036517669
 20
42.5410882236
 30
0.0
 11
1302.3036517669
 21
42.0410882236
 31
0.0
  0
LINE
  5
292
330
1F
100
AcDbEntity
  8
0
  6
Continuous
 62
     7
100
AcDbLine
 10
1308.5036517669
 20
42.5410882236
 30
0.0
 11
1302.8036517669
 21
42.5410882236
 31
0.0
  0
LINE
  5
293
330
1F
100
AcDbEntity
  8
0
  6
Continuous
 62
     7
100
AcDbLine
 10
1311.5036517669
 20
42.5410882236
 30
0.0
 11
1310.0036517669
 21
42.5410882236
 31
0.0
  0
LINE
  5
294
330
1F
100
AcDbEntity
  8
0
  6
Continuous
 62
     7
100
AcDbLine
 10
1302.3036517669
 20
37.0410882236
 30
0.0
 11
1302.8036517669
 21
36.5410882236
 31
0.0
  0
LINE
  5
295
330
1F
100
AcDbEntity
  8
0
  6
Continuous
 62
     7
100
AcDbLine
 10
1302.8036517669
 20
36.5410882236
 30
0.0
 11
1308.5036517669
 21
36.5410882236
 31
0.0
  0
LINE
  5
296
330
1F
100
AcDbEntity
  8
0
  6
Continuous
 62
     7
100
AcDbLine
 10
1310.0036517669
 20
36.5410882236
 30
0.0
 11
1311.5036517669
 21
36.5410882236
 31
0.0
  0
LINE
  5
297
330
1F
100
AcDbEntity
  8
0
  6
Continuous
 62
     7
100
AcDbLine
 10
1311.5036517669
 20
134.455301786
 30
0.0
 11
1310.0036517669
 21
134.455301786
 31
0.0
  0
LINE
  5
298
330
1F
100
AcDbEntity
  8
0
  6
Continuous
 62
     7
100
AcDbLine
 10
1311.5036517669
 20
116.455301786
 30
0.0
 11
1311.5036517669
 21
134.455301786
 31
0.0
  0
LINE
  5
299
330
1F
100
AcDbEntity
  8
0
  6
Continuous
 62
     7
100
AcDbLine
 10
1311.5036517669
 20
116.455301786
 30
0.0
 11
1310.0036517669
 21
116.455301786
 31
0.0
  0
LINE
  5
29A
330
1F
100
AcDbEntity
  8
0
  6
Continuous
 62
     7
100
AcDbLine
 10
1310.0036517669
 20
116.455301786
 30
0.0
 11
1310.0036517669
 21
134.455301786
 31
0.0
  0
LINE
  5
29B
330
1F
100
AcDbEntity
  8
0
  6
Continuous
 62
     7
100
AcDbLine
 10
1311.5036517669
 20
232.5410882236
 30
0.0
 11
1310.0036517669
 21
232.5410882236
 31
0.0
  0
LINE
  5
29C
330
1F
100
AcDbEntity
  8
0
  6
Continuous
 62
     7
100
AcDbLine
 10
1311.5036517669
 20
134.455301786
 30
0.0
 11
1311.5036517669
 21
232.5410882236
 31
0.0
  0
LINE
  5
29D
330
1F
100
AcDbEntity
  8
0
  6
Continuous
 62
     7
100
AcDbLine
 10
1310.0036517669
 20
134.455301786
 30
0.0
 11
1310.0036517669
 21
232.5410882236
 31
0.0
  0
LINE
  5
29E
330
1F
100
AcDbEntity
  8
0
  6
Continuous
 62
     7
100
AcDbLine
 10
1311.5036517669
 20
250.5410882236
 30
0.0
 11
1310.0036517669
 21
250.5410882236
 31
0.0
  0
LINE
  5
29F
330
1F
100
AcDbEntity
  8
0
  6
Continuous
 62
     7
100
AcDbLine
 10
1311.5036517669
 20
232.5410882236
 30
0.0
 11
1311.5036517669
 21
250.5410882236
 31
0.0
  0
LINE
  5
2A0
330
1F
100
AcDbEntity
  8
0
  6
Continuous
 62
     7
100
AcDbLine
 10
1310.0036517669
 20
232.5410882236
 30
0.0
 11
1310.0036517669
 21
250.5410882236
 31
0.0
  0
LINE
  5
2A1
330
1F
100
AcDbEntity
  8
0
  6
Continuous
 62
     7
100
AcDbLine
 10
1307.5036517669
 20
28.0410882236
 30
0.0
 11
1303.5036517669
 21
28.0410882236
 31
0.0
  0
LINE
  5
2A2
330
1F
100
AcDbEntity
  8
0
  6
Continuous
 62
     7
100
AcDbLine
 10
1303.5036517669
 20
28.0410882236
 30
0.0
 11
1303.5036517669
 21
29.5410882236
 31
0.0
  0
LINE
  5
2A3
330
1F
100
AcDbEntity
  8
0
  6
Continuous
 62
     7
100
AcDbLine
 10
1307.5036517669
 20
29.5410882236
 30
0.0
 11
1307.5036517669
 21
28.0410882236
 31
0.0
  0
LINE
  5
2A4
330
1F
100
AcDbEntity
  8
0
  6
Continuous
 62
     7
100
AcDbLine
 10
1307.5036517669
 20
29.5410882236
 30
0.0
 11
1303.5036517669
 21
29.5410882236
 31
0.0
  0
LINE
  5
2A5
330
1F
100
AcDbEntity
  8
0
  6
Continuous
 62
     7
100
AcDbLine
 10
1300.5036517669
 20
28.0410882236
 30
0.0
 11
1300.5036517669
 21
29.5410882236
 31
0.0
  0
LINE
  5
2A6
330
1F
100
AcDbEntity
  8
0
  6
Continuous
 62
     7
100
AcDbLine
 10
1303.5036517669
 20
28.0410882236
 30
0.0
 11
1300.5036517669
 21
28.0410882236
 31
0.0
  0
LINE
  5
2A7
330
1F
100
AcDbEntity
  8
0
  6
Continuous
 62
     7
100
AcDbLine
 10
1303.5036517669
 20
29.5410882236
 30
0.0
 11
1300.5036517669
 21
29.5410882236
 31
0.0
  0
LINE
  5
2A8
330
1F
100
AcDbEntity
  8
0
  6
Continuous
 62
     7
100
AcDbLine
 10
1308.5036517669
 20
30.5410882236
 30
0.0
 11
1310.0036517669
 21
30.5410882236
 31
0.0
  0
LINE
  5
2A9
330
1F
100
AcDbEntity
  8
0
  6
Continuous
 62
     7
100
AcDbLine
 10
1308.5036517669
 20
30.5410882236
 30
0.0
 11
1308.5036517669
 21
29.5410882236
 31
0.0
  0
LINE
  5
2AA
330
1F
100
AcDbEntity
  8
0
  6
Continuous
 62
     7
100
AcDbLine
 10
1310.0036517669
 20
30.5410882236
 30
0.0
 11
1310.0036517669
 21
28.0410882236
 31
0.0
  0
LINE
  5
2AB
330
1F
100
AcDbEntity
  8
0
  6
Continuous
 62
     7
100
AcDbLine
 10
1307.5036517669
 20
28.0410882236
 30
0.0
 11
1310.0036517669
 21
28.0410882236
 31
0.0
  0
LINE
  5
2AC
330
1F
100
AcDbEntity
  8
0
  6
Continuous
 62
     7
100
AcDbLine
 10
1307.5036517669
 20
29.5410882236
 30
0.0
 11
1308.5036517669
 21
29.5410882236
 31
0.0
  0
LINE
  5
2AD
330
1F
100
AcDbEntity
  8
0
  6
Continuous
 62
     7
100
AcDbLine
 10
1310.2965449857
 20
114.2126610989
 30
0.0
 11
1309.2358848139
 21
115.2733212707
 31
0.0
  0
LINE
  5
2AE
330
1F
100
AcDbEntity
  8
0
  6
Continuous
 62
     7
100
AcDbLine
 10
1310.0036517669
 20
113.5055543177
 30
0.0
 11
1308.5036517669
 21
113.5055543177
 31
0.0
  0
LINE
  5
2AF
330
1F
100
AcDbEntity
  8
0
  6
Continuous
 62
     7
100
AcDbLine
 10
1310.2965449857
 20
114.2126610989
 30
0.0
 11
1310.0036517669
 21
113.9197678801
 31
0.0
  0
LINE
  5
2B0
330
1F
100
AcDbEntity
  8
0
  6
Continuous
 62
     7
100
AcDbLine
 10
1309.2358848139
 20
115.2733212707
 30
0.0
 11
1308.5036517669
 21
114.5410882236
 31
0.0
  0
LINE
  5
2B1
330
1F
100
AcDbEntity
  8
0
  6
Continuous
 62
     7
100
AcDbLine
 10
1308.5036517669
 20
113.5055543177
 30
0.0
 11
1308.5036517669
 21
114.5410882236
 31
0.0
  0
LINE
  5
2B2
330
1F
100
AcDbEntity
  8
0
  6
Continuous
 62
     7
100
AcDbLine
 10
1310.0036517669
 20
113.5055543177
 30
0.0
 11
1310.0036517669
 21
113.9197678801
 31
0.0
  0
LINE
  5
2B3
330
1F
100
AcDbEntity
  8
0
  6
Continuous
 62
     7
100
AcDbLine
 10
1308.5036517669
 20
30.5410882236
 30
0.0
 11
1308.5036517669
 21
113.5055543177
 31
0.0
  0
LINE
  5
2B4
330
1F
100
AcDbEntity
  8
0
  6
Continuous
 62
     7
100
AcDbLine
 10
1310.0036517669
 20
30.5410882236
 30
0.0
 11
1310.0036517669
 21
113.5055543177
 31
0.0
  0
LINE
  5
2B5
330
1F
100
AcDbEntity
  8
0
  6
Continuous
 62
     7
100
AcDbLine
 10
1309.7107585481
 20
115.7481950048
 30
0.0
 11
1310.7714187199
 21
114.6875348331
 31
0.0
  0
LINE
  5
2B6
330
1F
100
AcDbEntity
  8
0
  6
Continuous
 62
     7
100
AcDbLine
 10
1310.7714187199
 20
114.6875348331
 30
0.0
 11
1311.5036517669
 21
115.4197678801
 31
0.0
  0
LINE
  5
2B7
330
1F
100
AcDbEntity
  8
0
  6
Continuous
 62
     7
100
AcDbLine
 10
1309.7107585481
 20
115.7481950048
 30
0.0
 11
1310.0036517669
 21
116.0410882236
 31
0.0
  0
LINE
  5
2B8
330
1F
100
AcDbEntity
  8
0
  6
Continuous
 62
     7
100
AcDbLine
 10
1311.5036517669
 20
116.455301786
 30
0.0
 11
1311.5036517669
 21
115.4197678801
 31
0.0
  0
LINE
  5
2B9
330
1F
100
AcDbEntity
  8
0
  6
Continuous
 62
     7
100
AcDbLine
 10
1310.0036517669
 20
116.455301786
 30
0.0
 11
1310.0036517669
 21
116.0410882236
 31
0.0
  0
LINE
  5
2BA
330
1F
100
AcDbEntity
  8
0
  6
Continuous
 62
     7
100
AcDbLine
 10
1310.7714187199
 20
114.6875348331
 30
0.0
 11
1310.2965449857
 21
114.2126610989
 31
0.0
  0
LINE
  5
2BB
330
1F
100
AcDbEntity
  8
0
  6
Continuous
 62
     7
100
AcDbLine
 10
1309.7107585481
 20
115.7481950048
 30
0.0
 11
1309.2358848139
 21
115.2733212707
 31
0.0
  0
LINE
  5
2BC
330
1F
100
AcDbEntity
  8
0
  6
Continuous
 62
     7
100
AcDbLine
 10
1314.3436443759
 20
37.1980290506
 30
0.0
 11
1311.5036517669
 21
37.1980290506
 31
0.0
  0
LINE
  5
2BD
330
1F
100
AcDbEntity
  8
0
  6
Continuous
 62
     7
100
AcDbLine
 10
1311.5036517669
 20
37.1980290506
 30
0.0
 11
1311.5036517669
 21
45.4410882236
 31
0.0
  0
ARC
  5
2BE
330
1F
100
AcDbEntity
  8
0
  6
Continuous
 62
     7
100
AcDbCircle
 10
1314.4761531275
 20
39.5692398237
 30
0.0
 40
2.374910335142073
100
AcDbArc
 50
266.8015057867
 51
300.2903465167
  0
LINE
  5
2BF
330
1F
100
AcDbEntity
  8
0
  6
Continuous
 62
     7
100
AcDbLine
 10
1311.5036517669
 20
33.6410882236
 30
0.0
 11
1311.5036517669
 21
37.1980290506
 31
0.0
  0
LINE
  5
2C0
330
1F
100
AcDbEntity
  8
0
  6
Continuous
 62
     7
100
AcDbLine
 10
1316.3340228932
 20
38.0217980467
 30
0.0
 11
1315.6740155022
 21
37.5185509563
 31
0.0
  0
ARC
  5
2C1
330
1F
100
AcDbEntity
  8
0
  6
Continuous
 62
     7
100
AcDbCircle
 10
1316.1412462787
 20
38.3305042458
 30
0.0
 40
0.3639537613871074
100
AcDbArc
 50
301.9833882443
 51
354.713205807
  0
LINE
  5
2C2
330
1F
100
AcDbEntity
  8
0
  6
Continuous
 62
     7
100
AcDbLine
 10
1316.5036517669
 20
38.2969691511
 30
0.0
 11
1316.5036517669
 21
42.673874033
 31
0.0
  0
LINE
  5
2C3
330
1F
100
AcDbEntity
  8
0
  6
Continuous
 62
     7
100
AcDbLine
 10
1316.5036517669
 20
36.4083024143
 30
0.0
 11
1316.5036517669
 21
38.2969691511
 31
0.0
  0
LINE
  5
2C4
330
1F
100
AcDbEntity
  8
0
  6
Continuous
 62
     7
100
AcDbLine
 10
1302.8036517669
 20
38.3497022034
 30
0.0
 11
1302.8036517669
 21
42.5410882236
 31
0.0
  0
LINE
  5
2C5
330
1F
100
AcDbEntity
  8
0
  6
Continuous
 62
     7
100
AcDbLine
 10
1302.3036517669
 20
38.5482665401
 30
0.0
 11
1302.8036517669
 21
38.3497022034
 31
0.0
  0
LINE
  5
2C6
330
1F
100
AcDbEntity
  8
0
  6
Continuous
 62
     7
100
AcDbLine
 10
1302.3036517669
 20
38.5482665401
 30
0.0
 11
1302.3036517669
 21
42.0410882236
 31
0.0
  0
LINE
  5
2C7
330
1F
100
AcDbEntity
  8
0
  6
Continuous
 62
     7
100
AcDbLine
 10
1302.8036517669
 20
38.3497022034
 30
0.0
 11
1308.5036517669
 21
38.3497022034
 31
0.0
  0
LINE
  5
2C8
330
1F
100
AcDbEntity
  8
0
  6
Continuous
 62
     7
100
AcDbLine
 10
1310.0036517669
 20
38.3497022034
 30
0.0
 11
1311.5036517669
 21
38.3497022034
 31
0.0
  0
LINE
  5
2C9
330
1F
100
AcDbEntity
  8
0
  6
Continuous
 62
     7
100
AcDbLine
 10
1302.8036517669
 20
36.5410882236
 30
0.0
 11
1302.8036517669
 21
38.3497022034
 31
0.0
  0
LINE
  5
2CA
330
1F
100
AcDbEntity
  8
0
  6
Continuous
 62
     7
100
AcDbLine
 10
1302.3036517669
 20
37.0410882236
 30
0.0
 11
1302.3036517669
 21
38.5482665401
 31
0.0
  0
LINE
  5
2CB
330
1F
100
AcDbEntity
  8
0
  6
Continuous
 62
     7
100
AcDbLine
 10
1314.3436443759
 20
37.1980290506
 30
0.0
 11
1314.3436443759
 21
45.4410882236
 31
0.0
  0
LINE
  5
2CC
330
1F
100
AcDbEntity
  8
0
  6
Continuous
 62
     7
100
AcDbLine
 10
1315.6740155022
 20
37.5185509563
 30
0.0
 11
1315.6740155022
 21
44.6339898519
 31
0.0
  0
LINE
  5
2CD
330
1F
100
AcDbEntity
  8
0
  6
Continuous
 62
     7
100
AcDbLine
 10
1314.3436443759
 20
33.6410882236
 30
0.0
 11
1314.3436443759
 21
37.1980290506
 31
0.0
  0
LINE
  5
2CE
330
1F
100
AcDbEntity
  8
0
  6
Continuous
 62
     7
100
AcDbLine
 10
1315.6740155022
 20
34.4481865954
 30
0.0
 11
1315.6740155022
 21
37.5185509563
 31
0.0
  0
LINE
  5
2CF
330
1F
100
AcDbEntity
  8
0
  6
Continuous
 62
     7
100
AcDbLine
 10
1316.3340228932
 20
38.0217980467
 30
0.0
 11
1316.3340228932
 21
43.3667756612
 31
0.0
  0
LINE
  5
2D0
330
1F
100
AcDbEntity
  8
0
  6
Continuous
 62
     7
100
AcDbLine
 10
1316.3340228932
 20
35.715400786
 30
0.0
 11
1316.3340228932
 21
38.0217980467
 31
0.0
  0
LINE
  5
2D1
330
1F
100
AcDbEntity
  8
0
  6
Continuous
 62
     7
100
AcDbLine
 10
827.6439810582
 20
311.4964393994
 30
0.0
 11
827.6439810582
 21
314.3364320084
 31
0.0
  0
ARC
  5
2D2
330
1F
100
AcDbEntity
  8
0
  6
Continuous
 62
     7
100
AcDbCircle
 10
826.1439810582
 20
314.3364320084
 30
0.0
 40
1.5
100
AcDbArc
 50
0.0
 51
62.4879973761
  0
LINE
  5
2D3
330
1F
100
AcDbEntity
  8
0
  6
Continuous
 62
     7
100
AcDbLine
 10
826.8368826865
 20
315.6668031346
 30
0.0
 11
825.5696684958
 21
316.3268105256
 31
0.0
  0
ARC
  5
2D4
330
1F
100
AcDbEntity
  8
0
  6
Continuous
 62
     7
100
AcDbCircle
 10
824.8767668676
 20
314.9964393994
 30
0.0
 40
1.500000000000061
100
AcDbArc
 50
62.4879973761
 51
90.0
  0
LINE
  5
2D5
330
1F
100
AcDbEntity
  8
0
  6
Continuous
 62
     7
100
AcDbLine
 10
824.7439810582
 20
309.9964393994
 30
0.0
 11
824.7439810582
 21
311.4964393994
 31
0.0
  0
LINE
  5
2D6
330
1F
100
AcDbEntity
  8
0
  6
Continuous
 62
     7
100
AcDbLine
 10
815.8439810582
 20
314.3364320084
 30
0.0
 11
815.8439810582
 21
311.4964393994
 31
0.0
  0
ARC
  5
2D7
330
1F
100
AcDbEntity
  8
0
  6
Continuous
 62
     7
100
AcDbCircle
 10
817.3439810582
 20
314.3364320084
 30
0.0
 40
1.499999999999956
100
AcDbArc
 50
117.5120026239
 51
180.0
  0
LINE
  5
2D8
330
1F
100
AcDbEntity
  8
0
  6
Continuous
 62
     7
100
AcDbLine
 10
817.9182936206
 20
316.3268105256
 30
0.0
 11
816.65107943
 21
315.6668031346
 31
0.0
  0
ARC
  5
2D9
330
1F
100
AcDbEntity
  8
0
  6
Continuous
 62
     7
100
AcDbCircle
 10
818.6111952489
 20
314.9964393994
 30
0.0
 40
1.500000000000061
100
AcDbArc
 50
90.0
 51
117.5120026239
  0
LINE
  5
2DA
330
1F
100
AcDbEntity
  8
0
  6
Continuous
 62
     7
100
AcDbLine
 10
818.7439810582
 20
311.4964393994
 30
0.0
 11
818.7439810582
 21
309.9964393994
 31
0.0
  0
LINE
  5
2DB
330
1F
100
AcDbEntity
  8
0
  6
Continuous
 62
     7
100
AcDbLine
 10
1231.4939810582
 20
300.4964393994
 30
0.0
 11
1234.4939810582
 21
303.4964393994
 31
0.0
  0
LINE
  5
2DC
330
1F
100
AcDbEntity
  8
0
  6
Continuous
 62
     7
100
AcDbLine
 10
1234.4939810582
 20
303.4964393994
 30
0.0
 11
1234.4939810582
 21
307.4964393994
 31
0.0
  0
LINE
  5
2DD
330
1F
100
AcDbEntity
  8
0
  6
Continuous
 62
     7
100
AcDbLine
 10
624.9939810582
 20
307.4964393994
 30
0.0
 11
624.9939810582
 21
303.4964393994
 31
0.0
  0
LINE
  5
2DE
330
1F
100
AcDbEntity
  8
0
  6
Continuous
 62
     7
100
AcDbLine
 10
624.9939810582
 20
303.4964393994
 30
0.0
 11
627.9939810582
 21
300.4964393994
 31
0.0
  0
LINE
  5
2DF
330
1F
100
AcDbEntity
  8
0
  6
Continuous
 62
     7
100
AcDbLine
 10
627.9939810582
 20
300.4964393994
 30
0.0
 11
1231.4939810582
 21
300.4964393994
 31
0.0
  0
LINE
  5
2E0
330
1F
100
AcDbEntity
  8
0
  6
Continuous
 62
     7
100
AcDbLine
 10
1234.4939810582
 20
309.9964393994
 30
0.0
 11
624.9939810582
 21
309.9964393994
 31
0.0
  0
LINE
  5
2E1
330
1F
100
AcDbEntity
  8
0
  6
Continuous
 62
     7
100
AcDbLine
 10
1234.4939810582
 20
307.4964393994
 30
0.0
 11
1234.4939810582
 21
309.9964393994
 31
0.0
  0
LINE
  5
2E2
330
1F
100
AcDbEntity
  8
0
  6
Continuous
 62
     7
100
AcDbLine
 10
624.9939810582
 20
307.4964393994
 30
0.0
 11
624.9939810582
 21
309.9964393994
 31
0.0
  0
LINE
  5
2E3
330
1F
100
AcDbEntity
  8
0
  6
Continuous
 62
     7
100
AcDbLine
 10
827.6439810582
 20
311.4964393994
 30
0.0
 11
816.3291797035
 21
311.4964393994
 31
0.0
  0
LINE
  5
2E4
330
1F
100
AcDbEntity
  8
0
  6
Continuous
 62
     7
100
AcDbLine
 10
816.3291797035
 20
314.3364320084
 30
0.0
 11
816.3291797035
 21
311.4964393994
 31
0.0
  0
ARC
  5
2E5
330
1F
100
AcDbEntity
  8
0
  6
Continuous
 62
     7
100
AcDbCircle
 10
817.8496798588
 20
314.3612431083
 30
0.0
 40
1.520702572213893
100
AcDbArc
 50
120.8487132719
 51
180.9348536747
  0
LINE
  5
2E6
330
1F
100
AcDbEntity
  8
0
  6
Continuous
 62
     7
100
AcDbLine
 10
1043.6439735491
 20
314.3364320084
 30
0.0
 11
1043.6439735491
 21
311.4964393994
 31
0.0
  0
LINE
  5
2E7
330
1F
100
AcDbEntity
  8
0
  6
Continuous
 62
     7
100
AcDbLine
 10
1043.6439735491
 20
311.4964393994
 30
0.0
 11
1031.8439885674
 21
311.4964393994
 31
0.0
  0
LINE
  5
2E8
330
1F
100
AcDbEntity
  8
0
  6
Continuous
 62
     7
100
AcDbLine
 10
1031.8439885674
 20
314.3364320084
 30
0.0
 11
1031.8439885674
 21
311.4964393994
 31
0.0
  0
LINE
  5
2E9
330
1F
100
AcDbEntity
  8
0
  6
Continuous
 62
     7
100
AcDbLine
 10
1043.6439735491
 20
314.3364320084
 30
0.0
 11
1031.8439885674
 21
314.3364320084
 31
0.0
  0
ARC
  5
2EA
330
1F
100
AcDbEntity
  8
0
  6
Continuous
 62
     7
100
AcDbCircle
 10
1042.1439733273
 20
314.3364324088
 30
0.0
 40
1.500000221800447
100
AcDbArc
 50
359.9999847038
 51
62.4879479963
  0
ARC
  5
2EB
330
1F
100
AcDbEntity
  8
0
  6
Continuous
 62
     7
100
AcDbCircle
 10
1033.3439887892
 20
314.3364324088
 30
0.0
 40
1.500000221799729
100
AcDbArc
 50
117.5120520037
 51
180.0000152962
  0
LINE
  5
2EC
330
1F
100
AcDbEntity
  8
0
  6
Continuous
 62
     7
100
AcDbLine
 10
1042.8368762045
 20
315.6668031346
 30
0.0
 11
1032.6510859119
 21
315.6668031346
 31
0.0
  0
LINE
  5
2ED
330
1F
100
AcDbEntity
  8
0
  6
Continuous
 62
     7
100
AcDbLine
 10
1041.5696636267
 20
316.3268105256
 30
0.0
 11
1042.8368762045
 21
315.6668031346
 31
0.0
  0
LINE
  5
2EE
330
1F
100
AcDbEntity
  8
0
  6
Continuous
 62
     7
100
AcDbLine
 10
1033.9182984897
 20
316.3268105256
 30
0.0
 11
1032.6510859119
 21
315.6668031346
 31
0.0
  0
LINE
  5
2EF
330
1F
100
AcDbEntity
  8
0
  6
Continuous
 62
     7
100
AcDbLine
 10
1041.5696636267
 20
316.3268105256
 30
0.0
 11
1033.9182984897
 21
316.3268105256
 31
0.0
  0
LINE
  5
2F0
330
1F
100
AcDbEntity
  8
0
  6
Continuous
 62
     7
100
AcDbLine
 10
818.2329069023
 20
316.3268105256
 30
0.0
 11
817.0699046792
 21
315.6668031346
 31
0.0
  0
ARC
  5
2F1
330
1F
100
AcDbEntity
  8
0
  6
Continuous
 62
     7
100
AcDbCircle
 10
818.8715434144
 20
315.2094439804
 30
0.0
 40
1.286998287093975
100
AcDbArc
 50
90.1209613725
 51
119.7503446784
  0
LINE
  5
2F2
330
1F
100
AcDbEntity
  8
0
  6
Continuous
 62
     7
100
AcDbLine
 10
824.8767668676
 20
316.4964393994
 30
0.0
 11
818.8688263388
 21
316.4964393994
 31
0.0
  0
ARC
  5
2F3
330
1F
100
AcDbEntity
  8
0
  6
Continuous
 62
     7
100
AcDbCircle
 10
1040.8767628401
 20
314.9964428373
 30
0.0
 40
1.49999656207821
100
AcDbArc
 50
62.487965228
 51
89.9999984627
  0
ARC
  5
2F4
330
1F
100
AcDbEntity
  8
0
  6
Continuous
 62
     7
100
AcDbCircle
 10
1034.6111992763
 20
314.9964428373
 30
0.0
 40
1.49999656207973
100
AcDbArc
 50
90.0000015373
 51
117.512034772
  0
LINE
  5
2F5
330
1F
100
AcDbEntity
  8
0
  6
Continuous
 62
     7
100
AcDbLine
 10
1040.8767628803
 20
316.4964393994
 30
0.0
 11
1034.6111992361
 21
316.4964393994
 31
0.0
  0
LINE
  5
2F6
330
1F
100
AcDbEntity
  8
0
  6
Continuous
 62
     7
100
AcDbLine
 10
1034.7439848764
 20
309.9964393994
 30
0.0
 11
1034.7439848764
 21
311.4964393994
 31
0.0
  0
LINE
  5
2F7
330
1F
100
AcDbEntity
  8
0
  6
Continuous
 62
     7
100
AcDbLine
 10
1040.74397724
 20
309.9964393994
 30
0.0
 11
1040.74397724
 21
311.4964393994
 31
0.0
  0
LINE
  5
2F8
330
1F
100
AcDbEntity
  8
0
  6
Continuous
 62
     7
100
AcDbLine
 10
818.9906922338
 20
309.9964393994
 30
0.0
 11
818.9906922338
 21
311.4964393994
 31
0.0
  0
LINE
  5
2F9
330
1F
100
AcDbEntity
  8
0
  6
Continuous
 62
     7
100
AcDbLine
 10
816.3291797035
 20
311.4964393994
 30
0.0
 11
815.8439810582
 21
311.4964393994
 31
0.0
  0
LINE
  5
2FA
330
1F
100
AcDbEntity
  8
0
  6
Continuous
 62
     7
100
AcDbLine
 10
818.8688263388
 20
316.4964393994
 30
0.0
 11
818.6111952489
 21
316.4964393994
 31
0.0
  0
LINE
  5
2FB
330
1F
100
AcDbEntity
  8
0
  6
Continuous
 62
     7
100
AcDbLine
 10
624.9939810582
 20
310.7642063523
 30
0.0
 11
624.9939810582
 21
310.2893326182
 31
0.0
  0
LINE
  5
2FC
330
1F
100
AcDbEntity
  8
0
  6
Continuous
 62
     7
100
AcDbLine
 10
624.9939810582
 20
310.7642063523
 30
0.0
 11
624.9939810582
 21
311.4964393994
 31
0.0
  0
LINE
  5
2FD
330
1F
100
AcDbEntity
  8
0
  6
Continuous
 62
     7
100
AcDbLine
 10
1234.4939810582
 20
311.4964393994
 30
0.0
 11
1043.6439735491
 21
311.4964393994
 31
0.0
  0
LINE
  5
2FE
330
1F
100
AcDbEntity
  8
0
  6
Continuous
 62
     7
100
AcDbLine
 10
1031.8439885674
 20
311.4964393994
 30
0.0
 11
827.6439810582
 21
311.4964393994
 31
0.0
  0
LINE
  5
2FF
330
1F
100
AcDbEntity
  8
0
  6
Continuous
 62
     7
100
AcDbLine
 10
815.8439810582
 20
311.4964393994
 30
0.0
 11
624.9939810582
 21
311.4964393994
 31
0.0
  0
LINE
  5
300
330
1F
100
AcDbEntity
  8
0
  6
Continuous
 62
     7
100
AcDbLine
 10
1234.4939810582
 20
310.7642063523
 30
0.0
 11
1234.4939810582
 21
311.4964393994
 31
0.0
  0
LINE
  5
301
330
1F
100
AcDbEntity
  8
0
  6
Continuous
 62
     7
100
AcDbLine
 10
1234.4939810582
 20
310.2893326182
 30
0.0
 11
1234.4939810582
 21
310.7642063523
 31
0.0
  0
LINE
  5
302
330
1F
100
AcDbEntity
  8
0
  6
Continuous
 62
     7
100
AcDbLine
 10
624.9939810582
 20
310.2893326182
 30
0.0
 11
624.9939810582
 21
309.9964393994
 31
0.0
  0
LINE
  5
303
330
1F
100
AcDbEntity
  8
0
  6
Continuous
 62
     7
100
AcDbLine
 10
1234.4939810582
 20
310.2893326182
 30
0.0
 11
1234.4939810582
 21
309.9964393994
 31
0.0
  0
LINE
  5
304
330
1F
100
AcDbEntity
  8
0
  6
Continuous
 62
     7
100
AcDbLine
 10
590.2439810582
 20
311.4964393994
 30
0.0
 11
590.2439810582
 21
309.9964393994
 31
0.0
  0
LINE
  5
305
330
1F
100
AcDbEntity
  8
0
  6
Continuous
 62
     7
100
AcDbLine
 10
608.2439810582
 20
311.4964393994
 30
0.0
 11
608.2439810582
 21
309.9964393994
 31
0.0
  0
LINE
  5
306
330
1F
100
AcDbEntity
  8
0
  6
Continuous
 62
     7
100
AcDbLine
 10
608.2439810582
 20
309.9964393994
 30
0.0
 11
590.2439810582
 21
309.9964393994
 31
0.0
  0
LINE
  5
307
330
1F
100
AcDbEntity
  8
0
  6
Continuous
 62
     7
100
AcDbLine
 10
608.2439810582
 20
311.4964393994
 30
0.0
 11
590.2439810582
 21
311.4964393994
 31
0.0
  0
LINE
  5
308
330
1F
100
AcDbEntity
  8
0
  6
Continuous
 62
     7
100
AcDbLine
 10
1251.2439810582
 20
311.4964393994
 30
0.0
 11
1251.2439810582
 21
309.9964393994
 31
0.0
  0
LINE
  5
309
330
1F
100
AcDbEntity
  8
0
  6
Continuous
 62
     7
100
AcDbLine
 10
1251.2439810582
 20
309.9964393994
 30
0.0
 11
1234.4939810582
 21
309.9964393994
 31
0.0
  0
LINE
  5
30A
330
1F
100
AcDbEntity
  8
0
  6
Continuous
 62
     7
100
AcDbLine
 10
1251.2439810582
 20
311.4964393994
 30
0.0
 11
1234.4939810582
 21
311.4964393994
 31
0.0
  0
LINE
  5
30B
330
1F
100
AcDbEntity
  8
0
  6
Continuous
 62
     7
100
AcDbLine
 10
624.9939810582
 20
309.9964393994
 30
0.0
 11
608.2439810582
 21
309.9964393994
 31
0.0
  0
LINE
  5
30C
330
1F
100
AcDbEntity
  8
0
  6
Continuous
 62
     7
100
AcDbLine
 10
624.9939810582
 20
311.4964393994
 30
0.0
 11
608.2439810582
 21
311.4964393994
 31
0.0
  0
LINE
  5
30D
330
1F
100
AcDbEntity
  8
0
  6
Continuous
 62
     7
100
AcDbLine
 10
1269.2439810582
 20
311.4964393994
 30
0.0
 11
1269.2439810582
 21
309.9964393994
 31
0.0
  0
LINE
  5
30E
330
1F
100
AcDbEntity
  8
0
  6
Continuous
 62
     7
100
AcDbLine
 10
1269.2439810582
 20
309.9964393994
 30
0.0
 11
1251.2439810582
 21
309.9964393994
 31
0.0
  0
LINE
  5
30F
330
1F
100
AcDbEntity
  8
0
  6
Continuous
 62
     7
100
AcDbLine
 10
1269.2439810582
 20
311.4964393994
 30
0.0
 11
1251.2439810582
 21
311.4964393994
 31
0.0
  0
LINE
  5
310
330
1F
100
AcDbEntity
  8
0
  6
Continuous
 62
     7
100
AcDbLine
 10
827.6439810582
 20
314.3364320084
 30
0.0
 11
816.3291797035
 21
314.3364320084
 31
0.0
  0
LINE
  5
311
330
1F
100
AcDbEntity
  8
0
  6
Continuous
 62
     7
100
AcDbLine
 10
826.8368826865
 20
315.6668031346
 30
0.0
 11
817.0699046792
 21
315.6668031346
 31
0.0
  0
LINE
  5
312
330
1F
100
AcDbEntity
  8
0
  6
Continuous
 62
     7
100
AcDbLine
 10
825.5696684958
 20
316.3268105256
 30
0.0
 11
818.2329069023
 21
316.3268105256
 31
0.0
  0
LINE
  5
313
330
1F
100
AcDbEntity
  8
0
  6
Continuous
 62
     7
100
AcDbLine
 10
816.3291797035
 20
314.3364320084
 30
0.0
 11
815.8439810582
 21
314.3364320084
 31
0.0
  0
LINE
  5
314
330
1F
100
AcDbEntity
  8
0
  6
Continuous
 62
     7
100
AcDbLine
 10
817.0699046792
 20
315.6668031346
 30
0.0
 11
816.65107943
 21
315.6668031346
 31
0.0
  0
LINE
  5
315
330
1F
100
AcDbEntity
  8
0
  6
Continuous
 62
     7
100
AcDbLine
 10
818.2329069023
 20
316.3268105256
 30
0.0
 11
817.9182936206
 21
316.3268105256
 31
0.0
  0
LINE
  5
316
330
1F
100
AcDbEntity
  8
0
  6
Continuous
 62
     7
100
AcDbLine
 10
815.8439810582
 20
-25.1047852055
 30
0.0
 11
815.8439810582
 21
-27.9447778145
 31
0.0
  0
ARC
  5
317
330
1F
100
AcDbEntity
  8
0
  6
Continuous
 62
     7
100
AcDbCircle
 10
817.3439810582
 20
-27.9447778145
 30
0.0
 40
1.499999999999991
100
AcDbArc
 50
180.0
 51
242.4879973762
  0
LINE
  5
318
330
1F
100
AcDbEntity
  8
0
  6
Continuous
 62
     7
100
AcDbLine
 10
816.65107943
 20
-29.2751489408
 30
0.0
 11
817.9182936206
 21
-29.9351563317
 31
0.0
  0
ARC
  5
319
330
1F
100
AcDbEntity
  8
0
  6
Continuous
 62
     7
100
AcDbCircle
 10
818.6111952489
 20
-28.6047852055
 30
0.0
 40
1.5
100
AcDbArc
 50
242.4879973761
 51
270.0
  0
LINE
  5
31A
330
1F
100
AcDbEntity
  8
0
  6
Continuous
 62
     7
100
AcDbLine
 10
819.2439810582
 20
-15.9047852055
 30
0.0
 11
818.7439810582
 21
-16.4047852055
 31
0.0
  0
LINE
  5
31B
330
1F
100
AcDbEntity
  8
0
  6
Continuous
 62
     7
100
AcDbLine
 10
818.7439810582
 20
-16.4047852055
 30
0.0
 11
818.7439810582
 21
-22.1047852055
 31
0.0
  0
LINE
  5
31C
330
1F
100
AcDbEntity
  8
0
  6
Continuous
 62
     7
100
AcDbLine
 10
827.6439810582
 20
-27.9447778145
 30
0.0
 11
827.6439810582
 21
-25.1047852055
 31
0.0
  0
ARC
  5
31D
330
1F
100
AcDbEntity
  8
0
  6
Continuous
 62
     7
100
AcDbCircle
 10
826.1439810582
 20
-27.9447778145
 30
0.0
 40
1.5
100
AcDbArc
 50
297.5120026239
 51
0.0
  0
LINE
  5
31E
330
1F
100
AcDbEntity
  8
0
  6
Continuous
 62
     7
100
AcDbLine
 10
825.5696684958
 20
-29.9351563317
 30
0.0
 11
826.8368826865
 21
-29.2751489408
 31
0.0
  0
ARC
  5
31F
330
1F
100
AcDbEntity
  8
0
  6
Continuous
 62
     7
100
AcDbCircle
 10
824.8767668676
 20
-28.6047852055
 30
0.0
 40
1.5
100
AcDbArc
 50
270.0
 51
297.5120026239
  0
LINE
  5
320
330
1F
100
AcDbEntity
  8
0
  6
Continuous
 62
     7
100
AcDbLine
 10
824.7439810582
 20
-16.4047852055
 30
0.0
 11
824.2439810582
 21
-15.9047852055
 31
0.0
  0
LINE
  5
321
330
1F
100
AcDbEntity
  8
0
  6
Continuous
 62
     7
100
AcDbLine
 10
824.7439810582
 20
-22.1047852055
 30
0.0
 11
824.7439810582
 21
-16.4047852055
 31
0.0
  0
LINE
  5
322
330
1F
100
AcDbEntity
  8
0
  6
Continuous
 62
     7
100
AcDbLine
 10
1269.2439810582
 20
-25.1047852055
 30
0.0
 11
1269.2439810582
 21
-23.6047852055
 31
0.0
  0
LINE
  5
323
330
1F
100
AcDbEntity
  8
0
  6
Continuous
 62
     7
100
AcDbLine
 10
1251.2439810582
 20
-25.1047852055
 30
0.0
 11
1251.2439810582
 21
-23.6047852055
 31
0.0
  0
LINE
  5
324
330
1F
100
AcDbEntity
  8
0
  6
Continuous
 62
     7
100
AcDbLine
 10
1251.2439810582
 20
-25.1047852055
 30
0.0
 11
1269.2439810582
 21
-25.1047852055
 31
0.0
  0
LINE
  5
325
330
1F
100
AcDbEntity
  8
0
  6
Continuous
 62
     7
100
AcDbLine
 10
1251.2439810582
 20
-23.6047852055
 30
0.0
 11
1269.2439810582
 21
-23.6047852055
 31
0.0
  0
LINE
  5
326
330
1F
100
AcDbEntity
  8
0
  6
Continuous
 62
     7
100
AcDbLine
 10
608.2439810582
 20
-25.1047852055
 30
0.0
 11
608.2439810582
 21
-23.6047852055
 31
0.0
  0
LINE
  5
327
330
1F
100
AcDbEntity
  8
0
  6
Continuous
 62
     7
100
AcDbLine
 10
590.2439810582
 20
-25.1047852055
 30
0.0
 11
590.2439810582
 21
-23.6047852055
 31
0.0
  0
LINE
  5
328
330
1F
100
AcDbEntity
  8
0
  6
Continuous
 62
     7
100
AcDbLine
 10
590.2439810582
 20
-25.1047852055
 30
0.0
 11
608.2439810582
 21
-25.1047852055
 31
0.0
  0
LINE
  5
329
330
1F
100
AcDbEntity
  8
0
  6
Continuous
 62
     7
100
AcDbLine
 10
590.2439810582
 20
-23.6047852055
 30
0.0
 11
608.2439810582
 21
-23.6047852055
 31
0.0
  0
LINE
  5
32A
330
1F
100
AcDbEntity
  8
0
  6
Continuous
 62
     7
100
AcDbLine
 10
608.2439810582
 20
-25.1047852055
 30
0.0
 11
1251.2439810582
 21
-25.1047852055
 31
0.0
  0
LINE
  5
32B
330
1F
100
AcDbEntity
  8
0
  6
Continuous
 62
     7
100
AcDbLine
 10
608.2439810582
 20
-23.6047852055
 30
0.0
 11
1251.2439810582
 21
-23.6047852055
 31
0.0
  0
LINE
  5
32C
330
1F
100
AcDbEntity
  8
0
  6
Continuous
 62
     7
100
AcDbLine
 10
624.9939810582
 20
-22.8370182525
 30
0.0
 11
624.9939810582
 21
-22.1047852055
 31
0.0
  0
LINE
  5
32D
330
1F
100
AcDbEntity
  8
0
  6
Continuous
 62
     7
100
AcDbLine
 10
624.9939810582
 20
-22.1047852055
 30
0.0
 11
1234.4939810582
 21
-22.1047852055
 31
0.0
  0
LINE
  5
32E
330
1F
100
AcDbEntity
  8
0
  6
Continuous
 62
     7
100
AcDbLine
 10
1234.4939810582
 20
-22.8370182525
 30
0.0
 11
1234.4939810582
 21
-22.1047852055
 31
0.0
  0
LINE
  5
32F
330
1F
100
AcDbEntity
  8
0
  6
Continuous
 62
     7
100
AcDbLine
 10
1234.4939810582
 20
-22.8370182525
 30
0.0
 11
1234.4939810582
 21
-23.3118919867
 31
0.0
  0
LINE
  5
330
330
1F
100
AcDbEntity
  8
0
  6
Continuous
 62
     7
100
AcDbLine
 10
624.9939810582
 20
-23.3118919867
 30
0.0
 11
624.9939810582
 21
-22.8370182525
 31
0.0
  0
LINE
  5
331
330
1F
100
AcDbEntity
  8
0
  6
Continuous
 62
     7
100
AcDbLine
 10
624.9939810582
 20
-23.3118919867
 30
0.0
 11
624.9939810582
 21
-23.6047852055
 31
0.0
  0
LINE
  5
332
330
1F
100
AcDbEntity
  8
0
  6
Continuous
 62
     7
100
AcDbLine
 10
1234.4939810582
 20
-23.3118919867
 30
0.0
 11
1234.4939810582
 21
-23.6047852055
 31
0.0
  0
LINE
  5
333
330
1F
100
AcDbEntity
  8
0
  6
Continuous
 62
     7
100
AcDbLine
 10
1043.6439735491
 20
-27.9447778145
 30
0.0
 11
1043.6439735491
 21
-25.1047852055
 31
0.0
  0
LINE
  5
334
330
1F
100
AcDbEntity
  8
0
  6
Continuous
 62
     7
100
AcDbLine
 10
1031.8439885674
 20
-27.9447778145
 30
0.0
 11
1043.6439735491
 21
-27.9447778145
 31
0.0
  0
LINE
  5
335
330
1F
100
AcDbEntity
  8
0
  6
Continuous
 62
     7
100
AcDbLine
 10
1031.8439885674
 20
-27.9447778145
 30
0.0
 11
1031.8439885674
 21
-25.1047852055
 31
0.0
  0
LINE
  5
336
330
1F
100
AcDbEntity
  8
0
  6
Continuous
 62
     7
100
AcDbLine
 10
827.158782413
 20
-27.9447778145
 30
0.0
 11
827.158782413
 21
-25.1047852055
 31
0.0
  0
ARC
  5
337
330
1F
100
AcDbEntity
  8
0
  6
Continuous
 62
     7
100
AcDbCircle
 10
825.6382822576
 20
-27.9695889144
 30
0.0
 40
1.520702572214227
100
AcDbArc
 50
300.8487132719
 51
0.9348536747
  0
ARC
  5
338
330
1F
100
AcDbEntity
  8
0
  6
Continuous
 62
     7
100
AcDbCircle
 10
1042.1439733273
 20
-27.944778215
 30
0.0
 40
1.5000002218008
100
AcDbArc
 50
297.5120520038
 51
0.0000152962
  0
LINE
  5
339
330
1F
100
AcDbEntity
  8
0
  6
Continuous
 62
     7
100
AcDbLine
 10
1032.6510859119
 20
-29.2751489408
 30
0.0
 11
1042.8368762045
 21
-29.2751489408
 31
0.0
  0
ARC
  5
33A
330
1F
100
AcDbEntity
  8
0
  6
Continuous
 62
     7
100
AcDbCircle
 10
1033.3439887892
 20
-27.944778215
 30
0.0
 40
1.500000221799896
100
AcDbArc
 50
179.9999847038
 51
242.4879479963
  0
LINE
  5
33B
330
1F
100
AcDbEntity
  8
0
  6
Continuous
 62
     7
100
AcDbLine
 10
1041.5696636267
 20
-29.9351563317
 30
0.0
 11
1042.8368762045
 21
-29.2751489408
 31
0.0
  0
LINE
  5
33C
330
1F
100
AcDbEntity
  8
0
  6
Continuous
 62
     7
100
AcDbLine
 10
1033.9182984897
 20
-29.9351563317
 30
0.0
 11
1041.5696636267
 21
-29.9351563317
 31
0.0
  0
LINE
  5
33D
330
1F
100
AcDbEntity
  8
0
  6
Continuous
 62
     7
100
AcDbLine
 10
1033.9182984897
 20
-29.9351563317
 30
0.0
 11
1032.6510859119
 21
-29.2751489408
 31
0.0
  0
LINE
  5
33E
330
1F
100
AcDbEntity
  8
0
  6
Continuous
 62
     7
100
AcDbLine
 10
825.2550552142
 20
-29.9351563317
 30
0.0
 11
826.4180574373
 21
-29.2751489408
 31
0.0
  0
ARC
  5
33F
330
1F
100
AcDbEntity
  8
0
  6
Continuous
 62
     7
100
AcDbCircle
 10
1040.8767628401
 20
-28.6047886434
 30
0.0
 40
1.499996562078425
100
AcDbArc
 50
270.0000015373
 51
297.512034772
  0
LINE
  5
340
330
1F
100
AcDbEntity
  8
0
  6
Continuous
 62
     7
100
AcDbLine
 10
1034.6111992361
 20
-30.1047852055
 30
0.0
 11
1040.8767628803
 21
-30.1047852055
 31
0.0
  0
ARC
  5
341
330
1F
100
AcDbEntity
  8
0
  6
Continuous
 62
     7
100
AcDbCircle
 10
1034.6111992763
 20
-28.6047886434
 30
0.0
 40
1.499996562080015
100
AcDbArc
 50
242.487965228
 51
269.9999984627
  0
ARC
  5
342
330
1F
100
AcDbEntity
  8
0
  6
Continuous
 62
     7
100
AcDbCircle
 10
824.6164187021
 20
-28.8177897865
 30
0.0
 40
1.286998287092993
100
AcDbArc
 50
270.1209613725
 51
299.7503446784
  0
LINE
  5
343
330
1F
100
AcDbEntity
  8
0
  6
Continuous
 62
     7
100
AcDbLine
 10
818.6111952489
 20
-30.1047852055
 30
0.0
 11
824.6191357776
 21
-30.1047852055
 31
0.0
  0
LINE
  5
344
330
1F
100
AcDbEntity
  8
0
  6
Continuous
 62
     7
100
AcDbLine
 10
818.7439810582
 20
-16.4047852055
 30
0.0
 11
824.4972698827
 21
-16.4047852055
 31
0.0
  0
LINE
  5
345
330
1F
100
AcDbEntity
  8
0
  6
Continuous
 62
     7
100
AcDbLine
 10
819.2439810582
 20
-15.9047852055
 30
0.0
 11
824.0383884119
 21
-15.9047852055
 31
0.0
  0
LINE
  5
346
330
1F
100
AcDbEntity
  8
0
  6
Continuous
 62
     7
100
AcDbLine
 10
824.0383884119
 20
-15.9047852055
 30
0.0
 11
824.4972698827
 21
-16.4047852055
 31
0.0
  0
LINE
  5
347
330
1F
100
AcDbEntity
  8
0
  6
Continuous
 62
     7
100
AcDbLine
 10
1040.2439778764
 20
-15.9047852055
 30
0.0
 11
1040.74397724
 21
-16.4047852055
 31
0.0
  0
LINE
  5
348
330
1F
100
AcDbEntity
  8
0
  6
Continuous
 62
     7
100
AcDbLine
 10
1034.7439848764
 20
-16.4047852055
 30
0.0
 11
1040.74397724
 21
-16.4047852055
 31
0.0
  0
LINE
  5
349
330
1F
100
AcDbEntity
  8
0
  6
Continuous
 62
     7
100
AcDbLine
 10
1035.2439842401
 20
-15.9047852055
 30
0.0
 11
1034.7439848764
 21
-16.4047852055
 31
0.0
  0
LINE
  5
34A
330
1F
100
AcDbEntity
  8
0
  6
Continuous
 62
     7
100
AcDbLine
 10
1035.2439842401
 20
-15.9047852055
 30
0.0
 11
1040.2439778764
 21
-15.9047852055
 31
0.0
  0
LINE
  5
34B
330
1F
100
AcDbEntity
  8
0
  6
Continuous
 62
     7
100
AcDbLine
 10
1034.7439848764
 20
-16.4047852055
 30
0.0
 11
1034.7439848764
 21
-22.1047852055
 31
0.0
  0
LINE
  5
34C
330
1F
100
AcDbEntity
  8
0
  6
Continuous
 62
     7
100
AcDbLine
 10
1040.74397724
 20
-16.4047852055
 30
0.0
 11
1040.74397724
 21
-22.1047852055
 31
0.0
  0
LINE
  5
34D
330
1F
100
AcDbEntity
  8
0
  6
Continuous
 62
     7
100
AcDbLine
 10
824.4972698827
 20
-16.4047852055
 30
0.0
 11
824.4972698827
 21
-22.1047852055
 31
0.0
  0
LINE
  5
34E
330
1F
100
AcDbEntity
  8
0
  6
Continuous
 62
     7
100
AcDbLine
 10
824.6191357776
 20
-30.1047852055
 30
0.0
 11
824.8767668676
 21
-30.1047852055
 31
0.0
  0
LINE
  5
34F
330
1F
100
AcDbEntity
  8
0
  6
Continuous
 62
     7
100
AcDbLine
 10
824.4972698827
 20
-16.4047852055
 30
0.0
 11
824.7439810582
 21
-16.4047852055
 31
0.0
  0
LINE
  5
350
330
1F
100
AcDbEntity
  8
0
  6
Continuous
 62
     7
100
AcDbLine
 10
824.0383884119
 20
-15.9047852055
 30
0.0
 11
824.2439810582
 21
-15.9047852055
 31
0.0
  0
LINE
  5
351
330
1F
100
AcDbEntity
  8
0
  6
Continuous
 62
     7
100
AcDbLine
 10
1231.4939810582
 20
-14.1047852055
 30
0.0
 11
1234.4939810582
 21
-17.1047852055
 31
0.0
  0
LINE
  5
352
330
1F
100
AcDbEntity
  8
0
  6
Continuous
 62
     7
100
AcDbLine
 10
1234.4939810582
 20
-17.1047852055
 30
0.0
 11
1234.4939810582
 21
-21.1047852055
 31
0.0
  0
LINE
  5
353
330
1F
100
AcDbEntity
  8
0
  6
Continuous
 62
     7
100
AcDbLine
 10
624.9939810582
 20
-21.1047852055
 30
0.0
 11
624.9939810582
 21
-17.1047852055
 31
0.0
  0
LINE
  5
354
330
1F
100
AcDbEntity
  8
0
  6
Continuous
 62
     7
100
AcDbLine
 10
624.9939810582
 20
-17.1047852055
 30
0.0
 11
627.9939810582
 21
-14.1047852055
 31
0.0
  0
LINE
  5
355
330
1F
100
AcDbEntity
  8
0
  6
Continuous
 62
     7
100
AcDbLine
 10
627.9939810582
 20
-14.1047852055
 30
0.0
 11
1231.4939810582
 21
-14.1047852055
 31
0.0
  0
LINE
  5
356
330
1F
100
AcDbEntity
  8
0
  6
Continuous
 62
     7
100
AcDbLine
 10
624.9939810582
 20
-21.1047852055
 30
0.0
 11
624.9939810582
 21
-22.1047852055
 31
0.0
  0
LINE
  5
357
330
1F
100
AcDbEntity
  8
0
  6
Continuous
 62
     7
100
AcDbLine
 10
1234.4939810582
 20
-21.1047852055
 30
0.0
 11
1234.4939810582
 21
-22.1047852055
 31
0.0
  0
LINE
  5
358
330
1F
100
AcDbEntity
  8
0
  6
Continuous
 62
     7
100
AcDbLine
 10
815.8439810582
 20
-27.9447778145
 30
0.0
 11
827.158782413
 21
-27.9447778145
 31
0.0
  0
LINE
  5
359
330
1F
100
AcDbEntity
  8
0
  6
Continuous
 62
     7
100
AcDbLine
 10
816.65107943
 20
-29.2751489408
 30
0.0
 11
826.4180574373
 21
-29.2751489408
 31
0.0
  0
LINE
  5
35A
330
1F
100
AcDbEntity
  8
0
  6
Continuous
 62
     7
100
AcDbLine
 10
817.9182936206
 20
-29.9351563317
 30
0.0
 11
825.2550552142
 21
-29.9351563317
 31
0.0
  0
LINE
  5
35B
330
1F
100
AcDbEntity
  8
0
  6
Continuous
 62
     7
100
AcDbLine
 10
827.158782413
 20
-27.9447778145
 30
0.0
 11
827.6439810582
 21
-27.9447778145
 31
0.0
  0
LINE
  5
35C
330
1F
100
AcDbEntity
  8
0
  6
Continuous
 62
     7
100
AcDbLine
 10
826.4180574373
 20
-29.2751489408
 30
0.0
 11
826.8368826865
 21
-29.2751489408
 31
0.0
  0
LINE
  5
35D
330
1F
100
AcDbEntity
  8
0
  6
Continuous
 62
     7
100
AcDbLine
 10
825.2550552142
 20
-29.9351563317
 30
0.0
 11
825.5696684958
 21
-29.9351563317
 31
0.0
  0
LINE
  5
35E
330
1F
100
AcDbEntity
  8
0
  6
Continuous
 62
     7
100
AcDbLine
 10
1394.6243798466
 20
28.0410882236
 30
0.0
 11
1394.6243798466
 21
29.5410882236
 31
0.0
  0
LINE
  5
35F
330
1F
100
AcDbEntity
  8
0
  6
Continuous
 62
     7
100
AcDbLine
 10
1391.6243798466
 20
28.0410882236
 30
0.0
 11
1391.6243798466
 21
29.5410882236
 31
0.0
  0
LINE
  5
360
330
1F
100
AcDbEntity
  8
0
  6
Continuous
 62
     7
100
AcDbLine
 10
1394.6243798466
 20
29.5410882236
 30
0.0
 11
1391.6243798466
 21
29.5410882236
 31
0.0
  0
LINE
  5
361
330
1F
100
AcDbEntity
  8
0
  6
Continuous
 62
     7
100
AcDbLine
 10
1394.6243798466
 20
28.0410882236
 30
0.0
 11
1391.6243798466
 21
28.0410882236
 31
0.0
  0
LINE
  5
362
330
1F
100
AcDbEntity
  8
0
  6
Continuous
 62
     7
100
AcDbLine
 10
1998.1243798466
 20
28.0410882236
 30
0.0
 11
1998.1243798466
 21
29.5410882236
 31
0.0
  0
LINE
  5
363
330
1F
100
AcDbEntity
  8
0
  6
Continuous
 62
     7
100
AcDbLine
 10
1998.1243798466
 20
29.5410882236
 30
0.0
 11
1394.6243798466
 21
29.5410882236
 31
0.0
  0
LINE
  5
364
330
1F
100
AcDbEntity
  8
0
  6
Continuous
 62
     7
100
AcDbLine
 10
1998.1243798466
 20
28.0410882236
 30
0.0
 11
1394.6243798466
 21
28.0410882236
 31
0.0
  0
LINE
  5
365
330
1F
100
AcDbEntity
  8
0
  6
Continuous
 62
     7
100
AcDbLine
 10
2001.1243798466
 20
28.0410882236
 30
0.0
 11
2001.1243798466
 21
29.5410882236
 31
0.0
  0
LINE
  5
366
330
1F
100
AcDbEntity
  8
0
  6
Continuous
 62
     7
100
AcDbLine
 10
2001.1243798466
 20
29.5410882236
 30
0.0
 11
1998.1243798466
 21
29.5410882236
 31
0.0
  0
LINE
  5
367
330
1F
100
AcDbEntity
  8
0
  6
Continuous
 62
     7
100
AcDbLine
 10
2001.1243798466
 20
28.0410882236
 30
0.0
 11
1998.1243798466
 21
28.0410882236
 31
0.0
  0
ARC
  5
368
330
1F
100
AcDbEntity
  8
0
  6
Continuous
 62
     7
100
AcDbCircle
 10
1588.3743798466
 20
39.5410882236
 30
0.0
 40
2.499999999999947
100
AcDbArc
 50
359.9085871072
 51
179.9085871072
  0
ARC
  5
369
330
1F
100
AcDbEntity
  8
0
  6
Continuous
 62
     7
100
AcDbCircle
 10
1588.3743798466
 20
39.5410882236
 30
0.0
 40
2.499999999999947
100
AcDbArc
 50
179.9085871072
 51
359.9085871072
  0
ARC
  5
36A
330
1F
100
AcDbEntity
  8
0
  6
Continuous
 62
     7
100
AcDbCircle
 10
1588.3743798466
 20
39.5410882236
 30
0.0
 40
2.999999999999936
100
AcDbArc
 50
179.9085871072
 51
359.9085871072
  0
LINE
  5
36B
330
1F
100
AcDbEntity
  8
0
  6
Continuous
 62
     7
100
AcDbLine
 10
1585.8743830284
 20
39.5450768619
 30
0.0
 11
1585.3743836648
 21
39.5458745895
 31
0.0
  0
LINE
  5
36C
330
1F
100
AcDbEntity
  8
0
  6
Continuous
 62
     7
100
AcDbLine
 10
1590.8743766647
 20
39.5370995854
 30
0.0
 11
1591.3743760284
 21
39.5363018578
 31
0.0
  0
ARC
  5
36D
330
1F
100
AcDbEntity
  8
0
  6
Continuous
 62
     7
100
AcDbCircle
 10
1588.3743798466
 20
39.5410882236
 30
0.0
 40
2.999999999999936
100
AcDbArc
 50
359.9085871072
 51
179.9085871072
  0
LINE
  5
36E
330
1F
100
AcDbEntity
  8
0
  6
Continuous
 62
     7
100
AcDbLine
 10
1806.6687872003
 20
38.5482665401
 30
0.0
 11
1807.1276686711
 21
38.3497022034
 31
0.0
  0
ARC
  5
36F
330
1F
100
AcDbEntity
  8
0
  6
Continuous
 62
     7
100
AcDbCircle
 10
1804.3743798466
 20
39.5410882236
 30
0.0
 40
3.000000000000243
100
AcDbArc
 50
156.601199734
 51
336.6011997341
  0
LINE
  5
370
330
1F
100
AcDbEntity
  8
0
  6
Continuous
 62
     7
100
AcDbLine
 10
1802.0799724929
 20
40.5339099071
 30
0.0
 11
1801.6210910221
 21
40.7324742438
 31
0.0
  0
ARC
  5
371
330
1F
100
AcDbEntity
  8
0
  6
Continuous
 62
     7
100
AcDbCircle
 10
1804.3743798466
 20
39.5410882236
 30
0.0
 40
2.500000000000021
100
AcDbArc
 50
156.601199734
 51
336.601199734
  0
ARC
  5
372
330
1F
100
AcDbEntity
  8
0
  6
Continuous
 62
     7
100
AcDbCircle
 10
1804.3743798466
 20
39.5410882236
 30
0.0
 40
3.000000000000243
100
AcDbArc
 50
336.6011997341
 51
156.601199734
  0
ARC
  5
373
330
1F
100
AcDbEntity
  8
0
  6
Continuous
 62
     7
100
AcDbCircle
 10
1804.3743798466
 20
39.5410882236
 30
0.0
 40
2.500000000000021
100
AcDbArc
 50
336.601199734
 51
156.601199734
  0
LINE
  5
374
330
1F
100
AcDbEntity
  8
0
  6
Continuous
 62
     7
100
AcDbLine
 10
1391.6243798466
 20
113.5055543177
 30
0.0
 11
1391.6243798466
 21
114.5410882236
 31
0.0
  0
LINE
  5
375
330
1F
100
AcDbEntity
  8
0
  6
Continuous
 62
     7
100
AcDbLine
 10
2001.1243798466
 20
114.5410882236
 30
0.0
 11
1391.6243798466
 21
114.5410882236
 31
0.0
  0
LINE
  5
376
330
1F
100
AcDbEntity
  8
0
  6
Continuous
 62
     7
100
AcDbLine
 10
2001.1243798466
 20
113.5055543177
 30
0.0
 11
2001.1243798466
 21
114.5410882236
 31
0.0
  0
LINE
  5
377
330
1F
100
AcDbEntity
  8
0
  6
Continuous
 62
     7
100
AcDbLine
 10
2001.1243798466
 20
30.5410882236
 30
0.0
 11
2001.1243798466
 21
113.5055543177
 31
0.0
  0
LINE
  5
378
330
1F
100
AcDbEntity
  8
0
  6
Continuous
 62
     7
100
AcDbLine
 10
1391.6243798466
 20
113.5055543177
 30
0.0
 11
1391.6243798466
 21
30.5410882236
 31
0.0
  0
LINE
  5
379
330
1F
100
AcDbEntity
  8
0
  6
Continuous
 62
     7
100
AcDbLine
 10
2001.1243798466
 20
30.5410882236
 30
0.0
 11
2001.1243798466
 21
29.5410882236
 31
0.0
  0
LINE
  5
37A
330
1F
100
AcDbEntity
  8
0
  6
Continuous
 62
     7
100
AcDbLine
 10
1391.6243798466
 20
30.5410882236
 30
0.0
 11
1391.6243798466
 21
29.5410882236
 31
0.0
  0
LINE
  5
37B
330
1F
100
AcDbEntity
  8
0
  6
Continuous
 62
     7
100
AcDbLine
 10
2001.1243798466
 20
115.2733212707
 30
0.0
 11
2001.1243798466
 21
114.5410882236
 31
0.0
  0
LINE
  5
37C
330
1F
100
AcDbEntity
  8
0
  6
Continuous
 62
     7
100
AcDbLine
 10
1391.6243798466
 20
115.2733212707
 30
0.0
 11
1391.6243798466
 21
115.7481950048
 31
0.0
  0
LINE
  5
37D
330
1F
100
AcDbEntity
  8
0
  6
Continuous
 62
     7
100
AcDbLine
 10
1391.6243798466
 20
115.7481950048
 30
0.0
 11
1391.6243798466
 21
116.0410882236
 31
0.0
  0
LINE
  5
37E
330
1F
100
AcDbEntity
  8
0
  6
Continuous
 62
     7
100
AcDbLine
 10
1391.6243798466
 20
116.0410882236
 30
0.0
 11
2001.1243798466
 21
116.0410882236
 31
0.0
  0
LINE
  5
37F
330
1F
100
AcDbEntity
  8
0
  6
Continuous
 62
     7
100
AcDbLine
 10
2001.1243798466
 20
115.7481950048
 30
0.0
 11
2001.1243798466
 21
116.0410882236
 31
0.0
  0
LINE
  5
380
330
1F
100
AcDbEntity
  8
0
  6
Continuous
 62
     7
100
AcDbLine
 10
2001.1243798466
 20
115.7481950048
 30
0.0
 11
2001.1243798466
 21
115.2733212707
 31
0.0
  0
LINE
  5
381
330
1F
100
AcDbEntity
  8
0
  6
Continuous
 62
     7
100
AcDbLine
 10
1391.6243798466
 20
115.2733212707
 30
0.0
 11
1391.6243798466
 21
114.5410882236
 31
0.0
  0
LINE
  5
382
330
1F
100
AcDbEntity
  8
0
  6
Continuous
 62
     7
100
AcDbLine
 10
2017.8743798466
 20
250.5410882236
 30
0.0
 11
1374.8743798466
 21
250.5410882236
 31
0.0
  0
LINE
  5
383
330
1F
100
AcDbEntity
  8
0
  6
Continuous
 62
     7
100
AcDbLine
 10
2035.8743798466
 20
232.5410882236
 30
0.0
 11
2017.8743798466
 21
250.5410882236
 31
0.0
  0
LINE
  5
384
330
1F
100
AcDbEntity
  8
0
  6
Continuous
 62
     7
100
AcDbLine
 10
2035.8743798466
 20
134.455301786
 30
0.0
 11
2035.8743798466
 21
232.5410882236
 31
0.0
  0
LINE
  5
385
330
1F
100
AcDbEntity
  8
0
  6
Continuous
 62
     7
100
AcDbLine
 10
2017.8743798466
 20
116.455301786
 30
0.0
 11
2035.8743798466
 21
134.455301786
 31
0.0
  0
LINE
  5
386
330
1F
100
AcDbEntity
  8
0
  6
Continuous
 62
     7
100
AcDbLine
 10
2001.1243798466
 20
116.455301786
 30
0.0
 11
2017.8743798466
 21
116.455301786
 31
0.0
  0
LINE
  5
387
330
1F
100
AcDbEntity
  8
0
  6
Continuous
 62
     7
100
AcDbLine
 10
1374.8743798466
 20
116.455301786
 30
0.0
 11
1391.6243798466
 21
116.455301786
 31
0.0
  0
LINE
  5
388
330
1F
100
AcDbEntity
  8
0
  6
Continuous
 62
     7
100
AcDbLine
 10
1356.8743798466
 20
134.455301786
 30
0.0
 11
1374.8743798466
 21
116.455301786
 31
0.0
  0
LINE
  5
389
330
1F
100
AcDbEntity
  8
0
  6
Continuous
 62
     7
100
AcDbLine
 10
1356.8743798466
 20
232.5410882236
 30
0.0
 11
1356.8743798466
 21
134.455301786
 31
0.0
  0
LINE
  5
38A
330
1F
100
AcDbEntity
  8
0
  6
Continuous
 62
     7
100
AcDbLine
 10
1374.8743798466
 20
250.5410882236
 30
0.0
 11
1356.8743798466
 21
232.5410882236
 31
0.0
  0
LINE
  5
38B
330
1F
100
AcDbEntity
  8
0
  6
Continuous
 62
     7
100
AcDbLine
 10
1953.1343798466
 20
195.5410882236
 30
0.0
 11
1990.6343798466
 21
195.5410882236
 31
0.0
  0
LINE
  5
38C
330
1F
100
AcDbEntity
  8
0
  6
Continuous
 62
     7
100
AcDbLine
 10
1990.6343798466
 20
195.5410882236
 30
0.0
 11
1990.6343798466
 21
197.5410882236
 31
0.0
  0
LINE
  5
38D
330
1F
100
AcDbEntity
  8
0
  6
Continuous
 62
     7
100
AcDbLine
 10
1990.6343798466
 20
197.5410882236
 30
0.0
 11
1953.1343798466
 21
197.5410882236
 31
0.0
  0
LINE
  5
38E
330
1F
100
AcDbEntity
  8
0
  6
Continuous
 62
     7
100
AcDbLine
 10
1953.1343798466
 20
197.5410882236
 30
0.0
 11
1953.1343798466
 21
195.5410882236
 31
0.0
  0
LINE
  5
38F
330
1F
100
AcDbEntity
  8
0
  6
Continuous
 62
     7
100
AcDbLine
 10
1953.1343798466
 20
205.5410882236
 30
0.0
 11
1990.6343798466
 21
205.5410882236
 31
0.0
  0
LINE
  5
390
330
1F
100
AcDbEntity
  8
0
  6
Continuous
 62
     7
100
AcDbLine
 10
1990.6343798466
 20
205.5410882236
 30
0.0
 11
1990.6343798466
 21
207.5410882236
 31
0.0
  0
LINE
  5
391
330
1F
100
AcDbEntity
  8
0
  6
Continuous
 62
     7
100
AcDbLine
 10
1990.6343798466
 20
207.5410882236
 30
0.0
 11
1953.1343798466
 21
207.5410882236
 31
0.0
  0
LINE
  5
392
330
1F
100
AcDbEntity
  8
0
  6
Continuous
 62
     7
100
AcDbLine
 10
1953.1343798466
 20
207.5410882236
 30
0.0
 11
1953.1343798466
 21
205.5410882236
 31
0.0
  0
ARC
  5
393
330
1F
100
AcDbEntity
  8
0
  6
Continuous
 62
     7
100
AcDbCircle
 10
2021.3743798466
 20
224.5410882236
 30
0.0
 40
3.5
100
AcDbArc
 50
180.0
 51
0.0
  0
ARC
  5
394
330
1F
100
AcDbEntity
  8
0
  6
Continuous
 62
     7
100
AcDbCircle
 10
2021.3743798466
 20
224.5410882236
 30
0.0
 40
3.5
100
AcDbArc
 50
0.0
 51
180.0
  0
ARC
  5
395
330
1F
100
AcDbEntity
  8
0
  6
Continuous
 62
     7
100
AcDbCircle
 10
1804.3743798466
 20
239.5410882236
 30
0.0
 40
3.500000000000227
100
AcDbArc
 50
180.0
 51
0.0
  0
ARC
  5
396
330
1F
100
AcDbEntity
  8
0
  6
Continuous
 62
     7
100
AcDbCircle
 10
1804.3743798466
 20
239.5410882236
 30
0.0
 40
3.500000000000227
100
AcDbArc
 50
0.0
 51
180.0
  0
ARC
  5
397
330
1F
100
AcDbEntity
  8
0
  6
Continuous
 62
     7
100
AcDbCircle
 10
1588.3743798466
 20
239.5410882236
 30
0.0
 40
3.500000000000227
100
AcDbArc
 50
180.0
 51
0.0
  0
ARC
  5
398
330
1F
100
AcDbEntity
  8
0
  6
Continuous
 62
     7
100
AcDbCircle
 10
1588.3743798466
 20
239.5410882236
 30
0.0
 40
3.500000000000227
100
AcDbArc
 50
0.0
 51
180.0
  0
ARC
  5
399
330
1F
100
AcDbEntity
  8
0
  6
Continuous
 62
     7
100
AcDbCircle
 10
1371.3743798466
 20
224.5410882236
 30
0.0
 40
3.5
100
AcDbArc
 50
180.0
 51
0.0
  0
ARC
  5
39A
330
1F
100
AcDbEntity
  8
0
  6
Continuous
 62
     7
100
AcDbCircle
 10
1371.3743798466
 20
224.5410882236
 30
0.0
 40
3.5
100
AcDbArc
 50
0.0
 51
180.0
  0
LINE
  5
39B
330
1F
100
AcDbEntity
  8
0
  6
Continuous
 62
     7
100
AcDbLine
 10
1953.1343798466
 20
185.5410882236
 30
0.0
 11
1990.6343798466
 21
185.5410882236
 31
0.0
  0
LINE
  5
39C
330
1F
100
AcDbEntity
  8
0
  6
Continuous
 62
     7
100
AcDbLine
 10
1990.6343798466
 20
185.5410882236
 30
0.0
 11
1990.6343798466
 21
187.5410882236
 31
0.0
  0
LINE
  5
39D
330
1F
100
AcDbEntity
  8
0
  6
Continuous
 62
     7
100
AcDbLine
 10
1990.6343798466
 20
187.5410882236
 30
0.0
 11
1953.1343798466
 21
187.5410882236
 31
0.0
  0
LINE
  5
39E
330
1F
100
AcDbEntity
  8
0
  6
Continuous
 62
     7
100
AcDbLine
 10
1953.1343798466
 20
187.5410882236
 30
0.0
 11
1953.1343798466
 21
185.5410882236
 31
0.0
  0
LINE
  5
39F
330
1F
100
AcDbEntity
  8
0
  6
Continuous
 62
     7
100
AcDbLine
 10
1953.1343798466
 20
175.5410882236
 30
0.0
 11
1990.6343798466
 21
175.5410882236
 31
0.0
  0
LINE
  5
3A0
330
1F
100
AcDbEntity
  8
0
  6
Continuous
 62
     7
100
AcDbLine
 10
1990.6343798466
 20
175.5410882236
 30
0.0
 11
1990.6343798466
 21
177.5410882236
 31
0.0
  0
LINE
  5
3A1
330
1F
100
AcDbEntity
  8
0
  6
Continuous
 62
     7
100
AcDbLine
 10
1990.6343798466
 20
177.5410882236
 30
0.0
 11
1953.1343798466
 21
177.5410882236
 31
0.0
  0
LINE
  5
3A2
330
1F
100
AcDbEntity
  8
0
  6
Continuous
 62
     7
100
AcDbLine
 10
1953.1343798466
 20
177.5410882236
 30
0.0
 11
1953.1343798466
 21
175.5410882236
 31
0.0
  0
LINE
  5
3A3
330
1F
100
AcDbEntity
  8
0
  6
Continuous
 62
     7
100
AcDbLine
 10
1953.1343798466
 20
165.5410882236
 30
0.0
 11
1990.6343798466
 21
165.5410882236
 31
0.0
  0
LINE
  5
3A4
330
1F
100
AcDbEntity
  8
0
  6
Continuous
 62
     7
100
AcDbLine
 10
1990.6343798466
 20
165.5410882236
 30
0.0
 11
1990.6343798466
 21
167.5410882236
 31
0.0
  0
LINE
  5
3A5
330
1F
100
AcDbEntity
  8
0
  6
Continuous
 62
     7
100
AcDbLine
 10
1990.6343798466
 20
167.5410882236
 30
0.0
 11
1953.1343798466
 21
167.5410882236
 31
0.0
  0
LINE
  5
3A6
330
1F
100
AcDbEntity
  8
0
  6
Continuous
 62
     7
100
AcDbLine
 10
1953.1343798466
 20
167.5410882236
 30
0.0
 11
1953.1343798466
 21
165.5410882236
 31
0.0
  0
LINE
  5
3A7
330
1F
100
AcDbEntity
  8
0
  6
Continuous
 62
     7
100
AcDbLine
 10
1953.1343798466
 20
155.5410882236
 30
0.0
 11
1990.6343798466
 21
155.5410882236
 31
0.0
  0
LINE
  5
3A8
330
1F
100
AcDbEntity
  8
0
  6
Continuous
 62
     7
100
AcDbLine
 10
1990.6343798466
 20
155.5410882236
 30
0.0
 11
1990.6343798466
 21
157.5410882236
 31
0.0
  0
LINE
  5
3A9
330
1F
100
AcDbEntity
  8
0
  6
Continuous
 62
     7
100
AcDbLine
 10
1990.6343798466
 20
157.5410882236
 30
0.0
 11
1953.1343798466
 21
157.5410882236
 31
0.0
  0
LINE
  5
3AA
330
1F
100
AcDbEntity
  8
0
  6
Continuous
 62
     7
100
AcDbLine
 10
1953.1343798466
 20
157.5410882236
 30
0.0
 11
1953.1343798466
 21
155.5410882236
 31
0.0
  0
LINE
  5
3AB
330
1F
100
AcDbEntity
  8
0
  6
Continuous
 62
     7
100
AcDbLine
 10
1953.1343798466
 20
145.5410882236
 30
0.0
 11
1990.6343798466
 21
145.5410882236
 31
0.0
  0
LINE
  5
3AC
330
1F
100
AcDbEntity
  8
0
  6
Continuous
 62
     7
100
AcDbLine
 10
1990.6343798466
 20
145.5410882236
 30
0.0
 11
1990.6343798466
 21
147.5410882236
 31
0.0
  0
LINE
  5
3AD
330
1F
100
AcDbEntity
  8
0
  6
Continuous
 62
     7
100
AcDbLine
 10
1990.6343798466
 20
147.5410882236
 30
0.0
 11
1953.1343798466
 21
147.5410882236
 31
0.0
  0
LINE
  5
3AE
330
1F
100
AcDbEntity
  8
0
  6
Continuous
 62
     7
100
AcDbLine
 10
1953.1343798466
 20
147.5410882236
 30
0.0
 11
1953.1343798466
 21
145.5410882236
 31
0.0
  0
LINE
  5
3AF
330
1F
100
AcDbEntity
  8
0
  6
Continuous
 62
     7
100
AcDbLine
 10
1953.1343798466
 20
135.5410882236
 30
0.0
 11
1990.6343798466
 21
135.5410882236
 31
0.0
  0
LINE
  5
3B0
330
1F
100
AcDbEntity
  8
0
  6
Continuous
 62
     7
100
AcDbLine
 10
1990.6343798466
 20
135.5410882236
 30
0.0
 11
1990.6343798466
 21
137.5410882236
 31
0.0
  0
LINE
  5
3B1
330
1F
100
AcDbEntity
  8
0
  6
Continuous
 62
     7
100
AcDbLine
 10
1990.6343798466
 20
137.5410882236
 30
0.0
 11
1953.1343798466
 21
137.5410882236
 31
0.0
  0
LINE
  5
3B2
330
1F
100
AcDbEntity
  8
0
  6
Continuous
 62
     7
100
AcDbLine
 10
1953.1343798466
 20
137.5410882236
 30
0.0
 11
1953.1343798466
 21
135.5410882236
 31
0.0
  0
LINE
  5
3B3
330
1F
100
AcDbEntity
  8
0
  6
Continuous
 62
     7
100
AcDbLine
 10
1903.1343798466
 20
205.5410882236
 30
0.0
 11
1940.6343798466
 21
205.5410882236
 31
0.0
  0
LINE
  5
3B4
330
1F
100
AcDbEntity
  8
0
  6
Continuous
 62
     7
100
AcDbLine
 10
1940.6343798466
 20
205.5410882236
 30
0.0
 11
1940.6343798466
 21
207.5410882236
 31
0.0
  0
LINE
  5
3B5
330
1F
100
AcDbEntity
  8
0
  6
Continuous
 62
     7
100
AcDbLine
 10
1940.6343798466
 20
207.5410882236
 30
0.0
 11
1903.1343798466
 21
207.5410882236
 31
0.0
  0
LINE
  5
3B6
330
1F
100
AcDbEntity
  8
0
  6
Continuous
 62
     7
100
AcDbLine
 10
1903.1343798466
 20
207.5410882236
 30
0.0
 11
1903.1343798466
 21
205.5410882236
 31
0.0
  0
LINE
  5
3B7
330
1F
100
AcDbEntity
  8
0
  6
Continuous
 62
     7
100
AcDbLine
 10
1903.1343798466
 20
195.5410882236
 30
0.0
 11
1940.6343798466
 21
195.5410882236
 31
0.0
  0
LINE
  5
3B8
330
1F
100
AcDbEntity
  8
0
  6
Continuous
 62
     7
100
AcDbLine
 10
1940.6343798466
 20
195.5410882236
 30
0.0
 11
1940.6343798466
 21
197.5410882236
 31
0.0
  0
LINE
  5
3B9
330
1F
100
AcDbEntity
  8
0
  6
Continuous
 62
     7
100
AcDbLine
 10
1940.6343798466
 20
197.5410882236
 30
0.0
 11
1903.1343798466
 21
197.5410882236
 31
0.0
  0
LINE
  5
3BA
330
1F
100
AcDbEntity
  8
0
  6
Continuous
 62
     7
100
AcDbLine
 10
1903.1343798466
 20
197.5410882236
 30
0.0
 11
1903.1343798466
 21
195.5410882236
 31
0.0
  0
LINE
  5
3BB
330
1F
100
AcDbEntity
  8
0
  6
Continuous
 62
     7
100
AcDbLine
 10
1903.1343798466
 20
185.5410882236
 30
0.0
 11
1940.6343798466
 21
185.5410882236
 31
0.0
  0
LINE
  5
3BC
330
1F
100
AcDbEntity
  8
0
  6
Continuous
 62
     7
100
AcDbLine
 10
1940.6343798466
 20
185.5410882236
 30
0.0
 11
1940.6343798466
 21
187.5410882236
 31
0.0
  0
LINE
  5
3BD
330
1F
100
AcDbEntity
  8
0
  6
Continuous
 62
     7
100
AcDbLine
 10
1940.6343798466
 20
187.5410882236
 30
0.0
 11
1903.1343798466
 21
187.5410882236
 31
0.0
  0
LINE
  5
3BE
330
1F
100
AcDbEntity
  8
0
  6
Continuous
 62
     7
100
AcDbLine
 10
1903.1343798466
 20
187.5410882236
 30
0.0
 11
1903.1343798466
 21
185.5410882236
 31
0.0
  0
LINE
  5
3BF
330
1F
100
AcDbEntity
  8
0
  6
Continuous
 62
     7
100
AcDbLine
 10
1903.1343798466
 20
175.5410882236
 30
0.0
 11
1940.6343798466
 21
175.5410882236
 31
0.0
  0
LINE
  5
3C0
330
1F
100
AcDbEntity
  8
0
  6
Continuous
 62
     7
100
AcDbLine
 10
1940.6343798466
 20
175.5410882236
 30
0.0
 11
1940.6343798466
 21
177.5410882236
 31
0.0
  0
LINE
  5
3C1
330
1F
100
AcDbEntity
  8
0
  6
Continuous
 62
     7
100
AcDbLine
 10
1940.6343798466
 20
177.5410882236
 30
0.0
 11
1903.1343798466
 21
177.5410882236
 31
0.0
  0
LINE
  5
3C2
330
1F
100
AcDbEntity
  8
0
  6
Continuous
 62
     7
100
AcDbLine
 10
1903.1343798466
 20
177.5410882236
 30
0.0
 11
1903.1343798466
 21
175.5410882236
 31
0.0
  0
LINE
  5
3C3
330
1F
100
AcDbEntity
  8
0
  6
Continuous
 62
     7
100
AcDbLine
 10
1903.1343798466
 20
165.5410882236
 30
0.0
 11
1940.6343798466
 21
165.5410882236
 31
0.0
  0
LINE
  5
3C4
330
1F
100
AcDbEntity
  8
0
  6
Continuous
 62
     7
100
AcDbLine
 10
1940.6343798466
 20
165.5410882236
 30
0.0
 11
1940.6343798466
 21
167.5410882236
 31
0.0
  0
LINE
  5
3C5
330
1F
100
AcDbEntity
  8
0
  6
Continuous
 62
     7
100
AcDbLine
 10
1940.6343798466
 20
167.5410882236
 30
0.0
 11
1903.1343798466
 21
167.5410882236
 31
0.0
  0
LINE
  5
3C6
330
1F
100
AcDbEntity
  8
0
  6
Continuous
 62
     7
100
AcDbLine
 10
1903.1343798466
 20
167.5410882236
 30
0.0
 11
1903.1343798466
 21
165.5410882236
 31
0.0
  0
LINE
  5
3C7
330
1F
100
AcDbEntity
  8
0
  6
Continuous
 62
     7
100
AcDbLine
 10
1903.1343798466
 20
155.5410882236
 30
0.0
 11
1940.6343798466
 21
155.5410882236
 31
0.0
  0
LINE
  5
3C8
330
1F
100
AcDbEntity
  8
0
  6
Continuous
 62
     7
100
AcDbLine
 10
1940.6343798466
 20
155.5410882236
 30
0.0
 11
1940.6343798466
 21
157.5410882236
 31
0.0
  0
LINE
  5
3C9
330
1F
100
AcDbEntity
  8
0
  6
Continuous
 62
     7
100
AcDbLine
 10
1940.6343798466
 20
157.5410882236
 30
0.0
 11
1903.1343798466
 21
157.5410882236
 31
0.0
  0
LINE
  5
3CA
330
1F
100
AcDbEntity
  8
0
  6
Continuous
 62
     7
100
AcDbLine
 10
1903.1343798466
 20
157.5410882236
 30
0.0
 11
1903.1343798466
 21
155.5410882236
 31
0.0
  0
LINE
  5
3CB
330
1F
100
AcDbEntity
  8
0
  6
Continuous
 62
     7
100
AcDbLine
 10
1903.1343798466
 20
145.5410882236
 30
0.0
 11
1940.6343798466
 21
145.5410882236
 31
0.0
  0
LINE
  5
3CC
330
1F
100
AcDbEntity
  8
0
  6
Continuous
 62
     7
100
AcDbLine
 10
1940.6343798466
 20
145.5410882236
 30
0.0
 11
1940.6343798466
 21
147.5410882236
 31
0.0
  0
LINE
  5
3CD
330
1F
100
AcDbEntity
  8
0
  6
Continuous
 62
     7
100
AcDbLine
 10
1940.6343798466
 20
147.5410882236
 30
0.0
 11
1903.1343798466
 21
147.5410882236
 31
0.0
  0
LINE
  5
3CE
330
1F
100
AcDbEntity
  8
0
  6
Continuous
 62
     7
100
AcDbLine
 10
1903.1343798466
 20
147.5410882236
 30
0.0
 11
1903.1343798466
 21
145.5410882236
 31
0.0
  0
LINE
  5
3CF
330
1F
100
AcDbEntity
  8
0
  6
Continuous
 62
     7
100
AcDbLine
 10
1903.1343798466
 20
135.5410882236
 30
0.0
 11
1940.6343798466
 21
135.5410882236
 31
0.0
  0
LINE
  5
3D0
330
1F
100
AcDbEntity
  8
0
  6
Continuous
 62
     7
100
AcDbLine
 10
1940.6343798466
 20
135.5410882236
 30
0.0
 11
1940.6343798466
 21
137.5410882236
 31
0.0
  0
LINE
  5
3D1
330
1F
100
AcDbEntity
  8
0
  6
Continuous
 62
     7
100
AcDbLine
 10
1940.6343798466
 20
137.5410882236
 30
0.0
 11
1903.1343798466
 21
137.5410882236
 31
0.0
  0
LINE
  5
3D2
330
1F
100
AcDbEntity
  8
0
  6
Continuous
 62
     7
100
AcDbLine
 10
1903.1343798466
 20
137.5410882236
 30
0.0
 11
1903.1343798466
 21
135.5410882236
 31
0.0
  0
LINE
  5
3D3
330
1F
100
AcDbEntity
  8
0
  6
Continuous
 62
     7
100
AcDbLine
 10
1853.1343798466
 20
205.5410882236
 30
0.0
 11
1890.6343798466
 21
205.5410882236
 31
0.0
  0
LINE
  5
3D4
330
1F
100
AcDbEntity
  8
0
  6
Continuous
 62
     7
100
AcDbLine
 10
1890.6343798466
 20
205.5410882236
 30
0.0
 11
1890.6343798466
 21
207.5410882236
 31
0.0
  0
LINE
  5
3D5
330
1F
100
AcDbEntity
  8
0
  6
Continuous
 62
     7
100
AcDbLine
 10
1890.6343798466
 20
207.5410882236
 30
0.0
 11
1853.1343798466
 21
207.5410882236
 31
0.0
  0
LINE
  5
3D6
330
1F
100
AcDbEntity
  8
0
  6
Continuous
 62
     7
100
AcDbLine
 10
1853.1343798466
 20
207.5410882236
 30
0.0
 11
1853.1343798466
 21
205.5410882236
 31
0.0
  0
LINE
  5
3D7
330
1F
100
AcDbEntity
  8
0
  6
Continuous
 62
     7
100
AcDbLine
 10
1853.1343798466
 20
195.5410882236
 30
0.0
 11
1890.6343798466
 21
195.5410882236
 31
0.0
  0
LINE
  5
3D8
330
1F
100
AcDbEntity
  8
0
  6
Continuous
 62
     7
100
AcDbLine
 10
1890.6343798466
 20
195.5410882236
 30
0.0
 11
1890.6343798466
 21
197.5410882236
 31
0.0
  0
LINE
  5
3D9
330
1F
100
AcDbEntity
  8
0
  6
Continuous
 62
     7
100
AcDbLine
 10
1890.6343798466
 20
197.5410882236
 30
0.0
 11
1853.1343798466
 21
197.5410882236
 31
0.0
  0
LINE
  5
3DA
330
1F
100
AcDbEntity
  8
0
  6
Continuous
 62
     7
100
AcDbLine
 10
1853.1343798466
 20
197.5410882236
 30
0.0
 11
1853.1343798466
 21
195.5410882236
 31
0.0
  0
LINE
  5
3DB
330
1F
100
AcDbEntity
  8
0
  6
Continuous
 62
     7
100
AcDbLine
 10
1853.1343798466
 20
185.5410882236
 30
0.0
 11
1890.6343798466
 21
185.5410882236
 31
0.0
  0
LINE
  5
3DC
330
1F
100
AcDbEntity
  8
0
  6
Continuous
 62
     7
100
AcDbLine
 10
1890.6343798466
 20
185.5410882236
 30
0.0
 11
1890.6343798466
 21
187.5410882236
 31
0.0
  0
LINE
  5
3DD
330
1F
100
AcDbEntity
  8
0
  6
Continuous
 62
     7
100
AcDbLine
 10
1890.6343798466
 20
187.5410882236
 30
0.0
 11
1853.1343798466
 21
187.5410882236
 31
0.0
  0
LINE
  5
3DE
330
1F
100
AcDbEntity
  8
0
  6
Continuous
 62
     7
100
AcDbLine
 10
1853.1343798466
 20
187.5410882236
 30
0.0
 11
1853.1343798466
 21
185.5410882236
 31
0.0
  0
LINE
  5
3DF
330
1F
100
AcDbEntity
  8
0
  6
Continuous
 62
     7
100
AcDbLine
 10
1853.1343798466
 20
175.5410882236
 30
0.0
 11
1890.6343798466
 21
175.5410882236
 31
0.0
  0
LINE
  5
3E0
330
1F
100
AcDbEntity
  8
0
  6
Continuous
 62
     7
100
AcDbLine
 10
1890.6343798466
 20
175.5410882236
 30
0.0
 11
1890.6343798466
 21
177.5410882236
 31
0.0
  0
LINE
  5
3E1
330
1F
100
AcDbEntity
  8
0
  6
Continuous
 62
     7
100
AcDbLine
 10
1890.6343798466
 20
177.5410882236
 30
0.0
 11
1853.1343798466
 21
177.5410882236
 31
0.0
  0
LINE
  5
3E2
330
1F
100
AcDbEntity
  8
0
  6
Continuous
 62
     7
100
AcDbLine
 10
1853.1343798466
 20
177.5410882236
 30
0.0
 11
1853.1343798466
 21
175.5410882236
 31
0.0
  0
LINE
  5
3E3
330
1F
100
AcDbEntity
  8
0
  6
Continuous
 62
     7
100
AcDbLine
 10
1853.1343798466
 20
165.5410882236
 30
0.0
 11
1890.6343798466
 21
165.5410882236
 31
0.0
  0
LINE
  5
3E4
330
1F
100
AcDbEntity
  8
0
  6
Continuous
 62
     7
100
AcDbLine
 10
1890.6343798466
 20
165.5410882236
 30
0.0
 11
1890.6343798466
 21
167.5410882236
 31
0.0
  0
LINE
  5
3E5
330
1F
100
AcDbEntity
  8
0
  6
Continuous
 62
     7
100
AcDbLine
 10
1890.6343798466
 20
167.5410882236
 30
0.0
 11
1853.1343798466
 21
167.5410882236
 31
0.0
  0
LINE
  5
3E6
330
1F
100
AcDbEntity
  8
0
  6
Continuous
 62
     7
100
AcDbLine
 10
1853.1343798466
 20
167.5410882236
 30
0.0
 11
1853.1343798466
 21
165.5410882236
 31
0.0
  0
LINE
  5
3E7
330
1F
100
AcDbEntity
  8
0
  6
Continuous
 62
     7
100
AcDbLine
 10
1853.1343798466
 20
155.5410882236
 30
0.0
 11
1890.6343798466
 21
155.5410882236
 31
0.0
  0
LINE
  5
3E8
330
1F
100
AcDbEntity
  8
0
  6
Continuous
 62
     7
100
AcDbLine
 10
1890.6343798466
 20
155.5410882236
 30
0.0
 11
1890.6343798466
 21
157.5410882236
 31
0.0
  0
LINE
  5
3E9
330
1F
100
AcDbEntity
  8
0
  6
Continuous
 62
     7
100
AcDbLine
 10
1890.6343798466
 20
157.5410882236
 30
0.0
 11
1853.1343798466
 21
157.5410882236
 31
0.0
  0
LINE
  5
3EA
330
1F
100
AcDbEntity
  8
0
  6
Continuous
 62
     7
100
AcDbLine
 10
1853.1343798466
 20
157.5410882236
 30
0.0
 11
1853.1343798466
 21
155.5410882236
 31
0.0
  0
LINE
  5
3EB
330
1F
100
AcDbEntity
  8
0
  6
Continuous
 62
     7
100
AcDbLine
 10
1853.1343798466
 20
145.5410882236
 30
0.0
 11
1890.6343798466
 21
145.5410882236
 31
0.0
  0
LINE
  5
3EC
330
1F
100
AcDbEntity
  8
0
  6
Continuous
 62
     7
100
AcDbLine
 10
1890.6343798466
 20
145.5410882236
 30
0.0
 11
1890.6343798466
 21
147.5410882236
 31
0.0
  0
LINE
  5
3ED
330
1F
100
AcDbEntity
  8
0
  6
Continuous
 62
     7
100
AcDbLine
 10
1890.6343798466
 20
147.5410882236
 30
0.0
 11
1853.1343798466
 21
147.5410882236
 31
0.0
  0
LINE
  5
3EE
330
1F
100
AcDbEntity
  8
0
  6
Continuous
 62
     7
100
AcDbLine
 10
1853.1343798466
 20
147.5410882236
 30
0.0
 11
1853.1343798466
 21
145.5410882236
 31
0.0
  0
LINE
  5
3EF
330
1F
100
AcDbEntity
  8
0
  6
Continuous
 62
     7
100
AcDbLine
 10
1853.1343798466
 20
135.5410882236
 30
0.0
 11
1890.6343798466
 21
135.5410882236
 31
0.0
  0
LINE
  5
3F0
330
1F
100
AcDbEntity
  8
0
  6
Continuous
 62
     7
100
AcDbLine
 10
1890.6343798466
 20
135.5410882236
 30
0.0
 11
1890.6343798466
 21
137.5410882236
 31
0.0
  0
LINE
  5
3F1
330
1F
100
AcDbEntity
  8
0
  6
Continuous
 62
     7
100
AcDbLine
 10
1890.6343798466
 20
137.5410882236
 30
0.0
 11
1853.1343798466
 21
137.5410882236
 31
0.0
  0
LINE
  5
3F2
330
1F
100
AcDbEntity
  8
0
  6
Continuous
 62
     7
100
AcDbLine
 10
1853.1343798466
 20
137.5410882236
 30
0.0
 11
1853.1343798466
 21
135.5410882236
 31
0.0
  0
LINE
  5
3F3
330
1F
100
AcDbEntity
  8
0
  6
Continuous
 62
     7
100
AcDbLine
 10
1803.1343798466
 20
205.5410882236
 30
0.0
 11
1840.6343798466
 21
205.5410882236
 31
0.0
  0
LINE
  5
3F4
330
1F
100
AcDbEntity
  8
0
  6
Continuous
 62
     7
100
AcDbLine
 10
1840.6343798466
 20
205.5410882236
 30
0.0
 11
1840.6343798466
 21
207.5410882236
 31
0.0
  0
LINE
  5
3F5
330
1F
100
AcDbEntity
  8
0
  6
Continuous
 62
     7
100
AcDbLine
 10
1840.6343798466
 20
207.5410882236
 30
0.0
 11
1803.1343798466
 21
207.5410882236
 31
0.0
  0
LINE
  5
3F6
330
1F
100
AcDbEntity
  8
0
  6
Continuous
 62
     7
100
AcDbLine
 10
1803.1343798466
 20
207.5410882236
 30
0.0
 11
1803.1343798466
 21
205.5410882236
 31
0.0
  0
LINE
  5
3F7
330
1F
100
AcDbEntity
  8
0
  6
Continuous
 62
     7
100
AcDbLine
 10
1803.1343798466
 20
195.5410882236
 30
0.0
 11
1840.6343798466
 21
195.5410882236
 31
0.0
  0
LINE
  5
3F8
330
1F
100
AcDbEntity
  8
0
  6
Continuous
 62
     7
100
AcDbLine
 10
1840.6343798466
 20
195.5410882236
 30
0.0
 11
1840.6343798466
 21
197.5410882236
 31
0.0
  0
LINE
  5
3F9
330
1F
100
AcDbEntity
  8
0
  6
Continuous
 62
     7
100
AcDbLine
 10
1840.6343798466
 20
197.5410882236
 30
0.0
 11
1803.1343798466
 21
197.5410882236
 31
0.0
  0
LINE
  5
3FA
330
1F
100
AcDbEntity
  8
0
  6
Continuous
 62
     7
100
AcDbLine
 10
1803.1343798466
 20
197.5410882236
 30
0.0
 11
1803.1343798466
 21
195.5410882236
 31
0.0
  0
LINE
  5
3FB
330
1F
100
AcDbEntity
  8
0
  6
Continuous
 62
     7
100
AcDbLine
 10
1803.1343798466
 20
185.5410882236
 30
0.0
 11
1840.6343798466
 21
185.5410882236
 31
0.0
  0
LINE
  5
3FC
330
1F
100
AcDbEntity
  8
0
  6
Continuous
 62
     7
100
AcDbLine
 10
1840.6343798466
 20
185.5410882236
 30
0.0
 11
1840.6343798466
 21
187.5410882236
 31
0.0
  0
LINE
  5
3FD
330
1F
100
AcDbEntity
  8
0
  6
Continuous
 62
     7
100
AcDbLine
 10
1840.6343798466
 20
187.5410882236
 30
0.0
 11
1803.1343798466
 21
187.5410882236
 31
0.0
  0
LINE
  5
3FE
330
1F
100
AcDbEntity
  8
0
  6
Continuous
 62
     7
100
AcDbLine
 10
1803.1343798466
 20
187.5410882236
 30
0.0
 11
1803.1343798466
 21
185.5410882236
 31
0.0
  0
LINE
  5
3FF
330
1F
100
AcDbEntity
  8
0
  6
Continuous
 62
     7
100
AcDbLine
 10
1803.1343798466
 20
175.5410882236
 30
0.0
 11
1840.6343798466
 21
175.5410882236
 31
0.0
  0
LINE
  5
400
330
1F
100
AcDbEntity
  8
0
  6
Continuous
 62
     7
100
AcDbLine
 10
1840.6343798466
 20
175.5410882236
 30
0.0
 11
1840.6343798466
 21
177.5410882236
 31
0.0
  0
LINE
  5
401
330
1F
100
AcDbEntity
  8
0
  6
Continuous
 62
     7
100
AcDbLine
 10
1840.6343798466
 20
177.5410882236
 30
0.0
 11
1803.1343798466
 21
177.5410882236
 31
0.0
  0
LINE
  5
402
330
1F
100
AcDbEntity
  8
0
  6
Continuous
 62
     7
100
AcDbLine
 10
1803.1343798466
 20
177.5410882236
 30
0.0
 11
1803.1343798466
 21
175.5410882236
 31
0.0
  0
LINE
  5
403
330
1F
100
AcDbEntity
  8
0
  6
Continuous
 62
     7
100
AcDbLine
 10
1803.1343798466
 20
165.5410882236
 30
0.0
 11
1840.6343798466
 21
165.5410882236
 31
0.0
  0
LINE
  5
404
330
1F
100
AcDbEntity
  8
0
  6
Continuous
 62
     7
100
AcDbLine
 10
1840.6343798466
 20
165.5410882236
 30
0.0
 11
1840.6343798466
 21
167.5410882236
 31
0.0
  0
LINE
  5
405
330
1F
100
AcDbEntity
  8
0
  6
Continuous
 62
     7
100
AcDbLine
 10
1840.6343798466
 20
167.5410882236
 30
0.0
 11
1803.1343798466
 21
167.5410882236
 31
0.0
  0
LINE
  5
406
330
1F
100
AcDbEntity
  8
0
  6
Continuous
 62
     7
100
AcDbLine
 10
1803.1343798466
 20
167.5410882236
 30
0.0
 11
1803.1343798466
 21
165.5410882236
 31
0.0
  0
LINE
  5
407
330
1F
100
AcDbEntity
  8
0
  6
Continuous
 62
     7
100
AcDbLine
 10
1803.1343798466
 20
155.5410882236
 30
0.0
 11
1840.6343798466
 21
155.5410882236
 31
0.0
  0
LINE
  5
408
330
1F
100
AcDbEntity
  8
0
  6
Continuous
 62
     7
100
AcDbLine
 10
1840.6343798466
 20
155.5410882236
 30
0.0
 11
1840.6343798466
 21
157.5410882236
 31
0.0
  0
LINE
  5
409
330
1F
100
AcDbEntity
  8
0
  6
Continuous
 62
     7
100
AcDbLine
 10
1840.6343798466
 20
157.5410882236
 30
0.0
 11
1803.1343798466
 21
157.5410882236
 31
0.0
  0
LINE
  5
40A
330
1F
100
AcDbEntity
  8
0
  6
Continuous
 62
     7
100
AcDbLine
 10
1803.1343798466
 20
157.5410882236
 30
0.0
 11
1803.1343798466
 21
155.5410882236
 31
0.0
  0
LINE
  5
40B
330
1F
100
AcDbEntity
  8
0
  6
Continuous
 62
     7
100
AcDbLine
 10
1803.1343798466
 20
145.5410882236
 30
0.0
 11
1840.6343798466
 21
145.5410882236
 31
0.0
  0
LINE
  5
40C
330
1F
100
AcDbEntity
  8
0
  6
Continuous
 62
     7
100
AcDbLine
 10
1840.6343798466
 20
145.5410882236
 30
0.0
 11
1840.6343798466
 21
147.5410882236
 31
0.0
  0
LINE
  5
40D
330
1F
100
AcDbEntity
  8
0
  6
Continuous
 62
     7
100
AcDbLine
 10
1840.6343798466
 20
147.5410882236
 30
0.0
 11
1803.1343798466
 21
147.5410882236
 31
0.0
  0
LINE
  5
40E
330
1F
100
AcDbEntity
  8
0
  6
Continuous
 62
     7
100
AcDbLine
 10
1803.1343798466
 20
147.5410882236
 30
0.0
 11
1803.1343798466
 21
145.5410882236
 31
0.0
  0
LINE
  5
40F
330
1F
100
AcDbEntity
  8
0
  6
Continuous
 62
     7
100
AcDbLine
 10
1803.1343798466
 20
135.5410882236
 30
0.0
 11
1840.6343798466
 21
135.5410882236
 31
0.0
  0
LINE
  5
410
330
1F
100
AcDbEntity
  8
0
  6
Continuous
 62
     7
100
AcDbLine
 10
1840.6343798466
 20
135.5410882236
 30
0.0
 11
1840.6343798466
 21
137.5410882236
 31
0.0
  0
LINE
  5
411
330
1F
100
AcDbEntity
  8
0
  6
Continuous
 62
     7
100
AcDbLine
 10
1840.6343798466
 20
137.5410882236
 30
0.0
 11
1803.1343798466
 21
137.5410882236
 31
0.0
  0
LINE
  5
412
330
1F
100
AcDbEntity
  8
0
  6
Continuous
 62
     7
100
AcDbLine
 10
1803.1343798466
 20
137.5410882236
 30
0.0
 11
1803.1343798466
 21
135.5410882236
 31
0.0
  0
LINE
  5
413
330
1F
100
AcDbEntity
  8
0
  6
Continuous
 62
     7
100
AcDbLine
 10
1753.1343798466
 20
205.5410882236
 30
0.0
 11
1790.6343798466
 21
205.5410882236
 31
0.0
  0
LINE
  5
414
330
1F
100
AcDbEntity
  8
0
  6
Continuous
 62
     7
100
AcDbLine
 10
1790.6343798466
 20
205.5410882236
 30
0.0
 11
1790.6343798466
 21
207.5410882236
 31
0.0
  0
LINE
  5
415
330
1F
100
AcDbEntity
  8
0
  6
Continuous
 62
     7
100
AcDbLine
 10
1790.6343798466
 20
207.5410882236
 30
0.0
 11
1753.1343798466
 21
207.5410882236
 31
0.0
  0
LINE
  5
416
330
1F
100
AcDbEntity
  8
0
  6
Continuous
 62
     7
100
AcDbLine
 10
1753.1343798466
 20
207.5410882236
 30
0.0
 11
1753.1343798466
 21
205.5410882236
 31
0.0
  0
LINE
  5
417
330
1F
100
AcDbEntity
  8
0
  6
Continuous
 62
     7
100
AcDbLine
 10
1753.1343798466
 20
195.5410882236
 30
0.0
 11
1790.6343798466
 21
195.5410882236
 31
0.0
  0
LINE
  5
418
330
1F
100
AcDbEntity
  8
0
  6
Continuous
 62
     7
100
AcDbLine
 10
1790.6343798466
 20
195.5410882236
 30
0.0
 11
1790.6343798466
 21
197.5410882236
 31
0.0
  0
LINE
  5
419
330
1F
100
AcDbEntity
  8
0
  6
Continuous
 62
     7
100
AcDbLine
 10
1790.6343798466
 20
197.5410882236
 30
0.0
 11
1753.1343798466
 21
197.5410882236
 31
0.0
  0
LINE
  5
41A
330
1F
100
AcDbEntity
  8
0
  6
Continuous
 62
     7
100
AcDbLine
 10
1753.1343798466
 20
197.5410882236
 30
0.0
 11
1753.1343798466
 21
195.5410882236
 31
0.0
  0
LINE
  5
41B
330
1F
100
AcDbEntity
  8
0
  6
Continuous
 62
     7
100
AcDbLine
 10
1753.1343798466
 20
185.5410882236
 30
0.0
 11
1790.6343798466
 21
185.5410882236
 31
0.0
  0
LINE
  5
41C
330
1F
100
AcDbEntity
  8
0
  6
Continuous
 62
     7
100
AcDbLine
 10
1790.6343798466
 20
185.5410882236
 30
0.0
 11
1790.6343798466
 21
187.5410882236
 31
0.0
  0
LINE
  5
41D
330
1F
100
AcDbEntity
  8
0
  6
Continuous
 62
     7
100
AcDbLine
 10
1790.6343798466
 20
187.5410882236
 30
0.0
 11
1753.1343798466
 21
187.5410882236
 31
0.0
  0
LINE
  5
41E
330
1F
100
AcDbEntity
  8
0
  6
Continuous
 62
     7
100
AcDbLine
 10
1753.1343798466
 20
187.5410882236
 30
0.0
 11
1753.1343798466
 21
185.5410882236
 31
0.0
  0
LINE
  5
41F
330
1F
100
AcDbEntity
  8
0
  6
Continuous
 62
     7
100
AcDbLine
 10
1753.1343798466
 20
175.5410882236
 30
0.0
 11
1790.6343798466
 21
175.5410882236
 31
0.0
  0
LINE
  5
420
330
1F
100
AcDbEntity
  8
0
  6
Continuous
 62
     7
100
AcDbLine
 10
1790.6343798466
 20
175.5410882236
 30
0.0
 11
1790.6343798466
 21
177.5410882236
 31
0.0
  0
LINE
  5
421
330
1F
100
AcDbEntity
  8
0
  6
Continuous
 62
     7
100
AcDbLine
 10
1790.6343798466
 20
177.5410882236
 30
0.0
 11
1753.1343798466
 21
177.5410882236
 31
0.0
  0
LINE
  5
422
330
1F
100
AcDbEntity
  8
0
  6
Continuous
 62
     7
100
AcDbLine
 10
1753.1343798466
 20
177.5410882236
 30
0.0
 11
1753.1343798466
 21
175.5410882236
 31
0.0
  0
LINE
  5
423
330
1F
100
AcDbEntity
  8
0
  6
Continuous
 62
     7
100
AcDbLine
 10
1753.1343798466
 20
165.5410882236
 30
0.0
 11
1790.6343798466
 21
165.5410882236
 31
0.0
  0
LINE
  5
424
330
1F
100
AcDbEntity
  8
0
  6
Continuous
 62
     7
100
AcDbLine
 10
1790.6343798466
 20
165.5410882236
 30
0.0
 11
1790.6343798466
 21
167.5410882236
 31
0.0
  0
LINE
  5
425
330
1F
100
AcDbEntity
  8
0
  6
Continuous
 62
     7
100
AcDbLine
 10
1790.6343798466
 20
167.5410882236
 30
0.0
 11
1753.1343798466
 21
167.5410882236
 31
0.0
  0
LINE
  5
426
330
1F
100
AcDbEntity
  8
0
  6
Continuous
 62
     7
100
AcDbLine
 10
1753.1343798466
 20
167.5410882236
 30
0.0
 11
1753.1343798466
 21
165.5410882236
 31
0.0
  0
LINE
  5
427
330
1F
100
AcDbEntity
  8
0
  6
Continuous
 62
     7
100
AcDbLine
 10
1753.1343798466
 20
155.5410882236
 30
0.0
 11
1790.6343798466
 21
155.5410882236
 31
0.0
  0
LINE
  5
428
330
1F
100
AcDbEntity
  8
0
  6
Continuous
 62
     7
100
AcDbLine
 10
1790.6343798466
 20
155.5410882236
 30
0.0
 11
1790.6343798466
 21
157.5410882236
 31
0.0
  0
LINE
  5
429
330
1F
100
AcDbEntity
  8
0
  6
Continuous
 62
     7
100
AcDbLine
 10
1790.6343798466
 20
157.5410882236
 30
0.0
 11
1753.1343798466
 21
157.5410882236
 31
0.0
  0
LINE
  5
42A
330
1F
100
AcDbEntity
  8
0
  6
Continuous
 62
     7
100
AcDbLine
 10
1753.1343798466
 20
157.5410882236
 30
0.0
 11
1753.1343798466
 21
155.5410882236
 31
0.0
  0
LINE
  5
42B
330
1F
100
AcDbEntity
  8
0
  6
Continuous
 62
     7
100
AcDbLine
 10
1753.1343798466
 20
145.5410882236
 30
0.0
 11
1790.6343798466
 21
145.5410882236
 31
0.0
  0
LINE
  5
42C
330
1F
100
AcDbEntity
  8
0
  6
Continuous
 62
     7
100
AcDbLine
 10
1790.6343798466
 20
145.5410882236
 30
0.0
 11
1790.6343798466
 21
147.5410882236
 31
0.0
  0
LINE
  5
42D
330
1F
100
AcDbEntity
  8
0
  6
Continuous
 62
     7
100
AcDbLine
 10
1790.6343798466
 20
147.5410882236
 30
0.0
 11
1753.1343798466
 21
147.5410882236
 31
0.0
  0
LINE
  5
42E
330
1F
100
AcDbEntity
  8
0
  6
Continuous
 62
     7
100
AcDbLine
 10
1753.1343798466
 20
147.5410882236
 30
0.0
 11
1753.1343798466
 21
145.5410882236
 31
0.0
  0
LINE
  5
42F
330
1F
100
AcDbEntity
  8
0
  6
Continuous
 62
     7
100
AcDbLine
 10
1753.1343798466
 20
135.5410882236
 30
0.0
 11
1790.6343798466
 21
135.5410882236
 31
0.0
  0
LINE
  5
430
330
1F
100
AcDbEntity
  8
0
  6
Continuous
 62
     7
100
AcDbLine
 10
1790.6343798466
 20
135.5410882236
 30
0.0
 11
1790.6343798466
 21
137.5410882236
 31
0.0
  0
LINE
  5
431
330
1F
100
AcDbEntity
  8
0
  6
Continuous
 62
     7
100
AcDbLine
 10
1790.6343798466
 20
137.5410882236
 30
0.0
 11
1753.1343798466
 21
137.5410882236
 31
0.0
  0
LINE
  5
432
330
1F
100
AcDbEntity
  8
0
  6
Continuous
 62
     7
100
AcDbLine
 10
1753.1343798466
 20
137.5410882236
 30
0.0
 11
1753.1343798466
 21
135.5410882236
 31
0.0
  0
LINE
  5
433
330
1F
100
AcDbEntity
  8
0
  6
Continuous
 62
     7
100
AcDbLine
 10
1703.1343798466
 20
205.5410882236
 30
0.0
 11
1740.6343798466
 21
205.5410882236
 31
0.0
  0
LINE
  5
434
330
1F
100
AcDbEntity
  8
0
  6
Continuous
 62
     7
100
AcDbLine
 10
1740.6343798466
 20
205.5410882236
 30
0.0
 11
1740.6343798466
 21
207.5410882236
 31
0.0
  0
LINE
  5
435
330
1F
100
AcDbEntity
  8
0
  6
Continuous
 62
     7
100
AcDbLine
 10
1740.6343798466
 20
207.5410882236
 30
0.0
 11
1703.1343798466
 21
207.5410882236
 31
0.0
  0
LINE
  5
436
330
1F
100
AcDbEntity
  8
0
  6
Continuous
 62
     7
100
AcDbLine
 10
1703.1343798466
 20
207.5410882236
 30
0.0
 11
1703.1343798466
 21
205.5410882236
 31
0.0
  0
LINE
  5
437
330
1F
100
AcDbEntity
  8
0
  6
Continuous
 62
     7
100
AcDbLine
 10
1703.1343798466
 20
195.5410882236
 30
0.0
 11
1740.6343798466
 21
195.5410882236
 31
0.0
  0
LINE
  5
438
330
1F
100
AcDbEntity
  8
0
  6
Continuous
 62
     7
100
AcDbLine
 10
1740.6343798466
 20
195.5410882236
 30
0.0
 11
1740.6343798466
 21
197.5410882236
 31
0.0
  0
LINE
  5
439
330
1F
100
AcDbEntity
  8
0
  6
Continuous
 62
     7
100
AcDbLine
 10
1740.6343798466
 20
197.5410882236
 30
0.0
 11
1703.1343798466
 21
197.5410882236
 31
0.0
  0
LINE
  5
43A
330
1F
100
AcDbEntity
  8
0
  6
Continuous
 62
     7
100
AcDbLine
 10
1703.1343798466
 20
197.5410882236
 30
0.0
 11
1703.1343798466
 21
195.5410882236
 31
0.0
  0
LINE
  5
43B
330
1F
100
AcDbEntity
  8
0
  6
Continuous
 62
     7
100
AcDbLine
 10
1703.1343798466
 20
185.5410882236
 30
0.0
 11
1740.6343798466
 21
185.5410882236
 31
0.0
  0
LINE
  5
43C
330
1F
100
AcDbEntity
  8
0
  6
Continuous
 62
     7
100
AcDbLine
 10
1740.6343798466
 20
185.5410882236
 30
0.0
 11
1740.6343798466
 21
187.5410882236
 31
0.0
  0
LINE
  5
43D
330
1F
100
AcDbEntity
  8
0
  6
Continuous
 62
     7
100
AcDbLine
 10
1740.6343798466
 20
187.5410882236
 30
0.0
 11
1703.1343798466
 21
187.5410882236
 31
0.0
  0
LINE
  5
43E
330
1F
100
AcDbEntity
  8
0
  6
Continuous
 62
     7
100
AcDbLine
 10
1703.1343798466
 20
187.5410882236
 30
0.0
 11
1703.1343798466
 21
185.5410882236
 31
0.0
  0
LINE
  5
43F
330
1F
100
AcDbEntity
  8
0
  6
Continuous
 62
     7
100
AcDbLine
 10
1703.1343798466
 20
175.5410882236
 30
0.0
 11
1740.6343798466
 21
175.5410882236
 31
0.0
  0
LINE
  5
440
330
1F
100
AcDbEntity
  8
0
  6
Continuous
 62
     7
100
AcDbLine
 10
1740.6343798466
 20
175.5410882236
 30
0.0
 11
1740.6343798466
 21
177.5410882236
 31
0.0
  0
LINE
  5
441
330
1F
100
AcDbEntity
  8
0
  6
Continuous
 62
     7
100
AcDbLine
 10
1740.6343798466
 20
177.5410882236
 30
0.0
 11
1703.1343798466
 21
177.5410882236
 31
0.0
  0
LINE
  5
442
330
1F
100
AcDbEntity
  8
0
  6
Continuous
 62
     7
100
AcDbLine
 10
1703.1343798466
 20
177.5410882236
 30
0.0
 11
1703.1343798466
 21
175.5410882236
 31
0.0
  0
LINE
  5
443
330
1F
100
AcDbEntity
  8
0
  6
Continuous
 62
     7
100
AcDbLine
 10
1703.1343798466
 20
165.5410882236
 30
0.0
 11
1740.6343798466
 21
165.5410882236
 31
0.0
  0
LINE
  5
444
330
1F
100
AcDbEntity
  8
0
  6
Continuous
 62
     7
100
AcDbLine
 10
1740.6343798466
 20
165.5410882236
 30
0.0
 11
1740.6343798466
 21
167.5410882236
 31
0.0
  0
LINE
  5
445
330
1F
100
AcDbEntity
  8
0
  6
Continuous
 62
     7
100
AcDbLine
 10
1740.6343798466
 20
167.5410882236
 30
0.0
 11
1703.1343798466
 21
167.5410882236
 31
0.0
  0
LINE
  5
446
330
1F
100
AcDbEntity
  8
0
  6
Continuous
 62
     7
100
AcDbLine
 10
1703.1343798466
 20
167.5410882236
 30
0.0
 11
1703.1343798466
 21
165.5410882236
 31
0.0
  0
LINE
  5
447
330
1F
100
AcDbEntity
  8
0
  6
Continuous
 62
     7
100
AcDbLine
 10
1703.1343798466
 20
155.5410882236
 30
0.0
 11
1740.6343798466
 21
155.5410882236
 31
0.0
  0
LINE
  5
448
330
1F
100
AcDbEntity
  8
0
  6
Continuous
 62
     7
100
AcDbLine
 10
1740.6343798466
 20
155.5410882236
 30
0.0
 11
1740.6343798466
 21
157.5410882236
 31
0.0
  0
LINE
  5
449
330
1F
100
AcDbEntity
  8
0
  6
Continuous
 62
     7
100
AcDbLine
 10
1740.6343798466
 20
157.5410882236
 30
0.0
 11
1703.1343798466
 21
157.5410882236
 31
0.0
  0
LINE
  5
44A
330
1F
100
AcDbEntity
  8
0
  6
Continuous
 62
     7
100
AcDbLine
 10
1703.1343798466
 20
157.5410882236
 30
0.0
 11
1703.1343798466
 21
155.5410882236
 31
0.0
  0
LINE
  5
44B
330
1F
100
AcDbEntity
  8
0
  6
Continuous
 62
     7
100
AcDbLine
 10
1703.1343798466
 20
145.5410882236
 30
0.0
 11
1740.6343798466
 21
145.5410882236
 31
0.0
  0
LINE
  5
44C
330
1F
100
AcDbEntity
  8
0
  6
Continuous
 62
     7
100
AcDbLine
 10
1740.6343798466
 20
145.5410882236
 30
0.0
 11
1740.6343798466
 21
147.5410882236
 31
0.0
  0
LINE
  5
44D
330
1F
100
AcDbEntity
  8
0
  6
Continuous
 62
     7
100
AcDbLine
 10
1740.6343798466
 20
147.5410882236
 30
0.0
 11
1703.1343798466
 21
147.5410882236
 31
0.0
  0
LINE
  5
44E
330
1F
100
AcDbEntity
  8
0
  6
Continuous
 62
     7
100
AcDbLine
 10
1703.1343798466
 20
147.5410882236
 30
0.0
 11
1703.1343798466
 21
145.5410882236
 31
0.0
  0
LINE
  5
44F
330
1F
100
AcDbEntity
  8
0
  6
Continuous
 62
     7
100
AcDbLine
 10
1703.1343798466
 20
135.5410882236
 30
0.0
 11
1740.6343798466
 21
135.5410882236
 31
0.0
  0
LINE
  5
450
330
1F
100
AcDbEntity
  8
0
  6
Continuous
 62
     7
100
AcDbLine
 10
1740.6343798466
 20
135.5410882236
 30
0.0
 11
1740.6343798466
 21
137.5410882236
 31
0.0
  0
LINE
  5
451
330
1F
100
AcDbEntity
  8
0
  6
Continuous
 62
     7
100
AcDbLine
 10
1740.6343798466
 20
137.5410882236
 30
0.0
 11
1703.1343798466
 21
137.5410882236
 31
0.0
  0
LINE
  5
452
330
1F
100
AcDbEntity
  8
0
  6
Continuous
 62
     7
100
AcDbLine
 10
1703.1343798466
 20
137.5410882236
 30
0.0
 11
1703.1343798466
 21
135.5410882236
 31
0.0
  0
LINE
  5
453
330
1F
100
AcDbEntity
  8
0
  6
Continuous
 62
     7
100
AcDbLine
 10
1653.1343798466
 20
205.5410882236
 30
0.0
 11
1690.6343798466
 21
205.5410882236
 31
0.0
  0
LINE
  5
454
330
1F
100
AcDbEntity
  8
0
  6
Continuous
 62
     7
100
AcDbLine
 10
1690.6343798466
 20
205.5410882236
 30
0.0
 11
1690.6343798466
 21
207.5410882236
 31
0.0
  0
LINE
  5
455
330
1F
100
AcDbEntity
  8
0
  6
Continuous
 62
     7
100
AcDbLine
 10
1690.6343798466
 20
207.5410882236
 30
0.0
 11
1653.1343798466
 21
207.5410882236
 31
0.0
  0
LINE
  5
456
330
1F
100
AcDbEntity
  8
0
  6
Continuous
 62
     7
100
AcDbLine
 10
1653.1343798466
 20
207.5410882236
 30
0.0
 11
1653.1343798466
 21
205.5410882236
 31
0.0
  0
LINE
  5
457
330
1F
100
AcDbEntity
  8
0
  6
Continuous
 62
     7
100
AcDbLine
 10
1653.1343798466
 20
195.5410882236
 30
0.0
 11
1690.6343798466
 21
195.5410882236
 31
0.0
  0
LINE
  5
458
330
1F
100
AcDbEntity
  8
0
  6
Continuous
 62
     7
100
AcDbLine
 10
1690.6343798466
 20
195.5410882236
 30
0.0
 11
1690.6343798466
 21
197.5410882236
 31
0.0
  0
LINE
  5
459
330
1F
100
AcDbEntity
  8
0
  6
Continuous
 62
     7
100
AcDbLine
 10
1690.6343798466
 20
197.5410882236
 30
0.0
 11
1653.1343798466
 21
197.5410882236
 31
0.0
  0
LINE
  5
45A
330
1F
100
AcDbEntity
  8
0
  6
Continuous
 62
     7
100
AcDbLine
 10
1653.1343798466
 20
197.5410882236
 30
0.0
 11
1653.1343798466
 21
195.5410882236
 31
0.0
  0
LINE
  5
45B
330
1F
100
AcDbEntity
  8
0
  6
Continuous
 62
     7
100
AcDbLine
 10
1653.1343798466
 20
185.5410882236
 30
0.0
 11
1690.6343798466
 21
185.5410882236
 31
0.0
  0
LINE
  5
45C
330
1F
100
AcDbEntity
  8
0
  6
Continuous
 62
     7
100
AcDbLine
 10
1690.6343798466
 20
185.5410882236
 30
0.0
 11
1690.6343798466
 21
187.5410882236
 31
0.0
  0
LINE
  5
45D
330
1F
100
AcDbEntity
  8
0
  6
Continuous
 62
     7
100
AcDbLine
 10
1690.6343798466
 20
187.5410882236
 30
0.0
 11
1653.1343798466
 21
187.5410882236
 31
0.0
  0
LINE
  5
45E
330
1F
100
AcDbEntity
  8
0
  6
Continuous
 62
     7
100
AcDbLine
 10
1653.1343798466
 20
187.5410882236
 30
0.0
 11
1653.1343798466
 21
185.5410882236
 31
0.0
  0
LINE
  5
45F
330
1F
100
AcDbEntity
  8
0
  6
Continuous
 62
     7
100
AcDbLine
 10
1653.1343798466
 20
175.5410882236
 30
0.0
 11
1690.6343798466
 21
175.5410882236
 31
0.0
  0
LINE
  5
460
330
1F
100
AcDbEntity
  8
0
  6
Continuous
 62
     7
100
AcDbLine
 10
1690.6343798466
 20
175.5410882236
 30
0.0
 11
1690.6343798466
 21
177.5410882236
 31
0.0
  0
LINE
  5
461
330
1F
100
AcDbEntity
  8
0
  6
Continuous
 62
     7
100
AcDbLine
 10
1690.6343798466
 20
177.5410882236
 30
0.0
 11
1653.1343798466
 21
177.5410882236
 31
0.0
  0
LINE
  5
462
330
1F
100
AcDbEntity
  8
0
  6
Continuous
 62
     7
100
AcDbLine
 10
1653.1343798466
 20
177.5410882236
 30
0.0
 11
1653.1343798466
 21
175.5410882236
 31
0.0
  0
LINE
  5
463
330
1F
100
AcDbEntity
  8
0
  6
Continuous
 62
     7
100
AcDbLine
 10
1653.1343798466
 20
165.5410882236
 30
0.0
 11
1690.6343798466
 21
165.5410882236
 31
0.0
  0
LINE
  5
464
330
1F
100
AcDbEntity
  8
0
  6
Continuous
 62
     7
100
AcDbLine
 10
1690.6343798466
 20
165.5410882236
 30
0.0
 11
1690.6343798466
 21
167.5410882236
 31
0.0
  0
LINE
  5
465
330
1F
100
AcDbEntity
  8
0
  6
Continuous
 62
     7
100
AcDbLine
 10
1690.6343798466
 20
167.5410882236
 30
0.0
 11
1653.1343798466
 21
167.5410882236
 31
0.0
  0
LINE
  5
466
330
1F
100
AcDbEntity
  8
0
  6
Continuous
 62
     7
100
AcDbLine
 10
1653.1343798466
 20
167.5410882236
 30
0.0
 11
1653.1343798466
 21
165.5410882236
 31
0.0
  0
LINE
  5
467
330
1F
100
AcDbEntity
  8
0
  6
Continuous
 62
     7
100
AcDbLine
 10
1653.1343798466
 20
155.5410882236
 30
0.0
 11
1690.6343798466
 21
155.5410882236
 31
0.0
  0
LINE
  5
468
330
1F
100
AcDbEntity
  8
0
  6
Continuous
 62
     7
100
AcDbLine
 10
1690.6343798466
 20
155.5410882236
 30
0.0
 11
1690.6343798466
 21
157.5410882236
 31
0.0
  0
LINE
  5
469
330
1F
100
AcDbEntity
  8
0
  6
Continuous
 62
     7
100
AcDbLine
 10
1690.6343798466
 20
157.5410882236
 30
0.0
 11
1653.1343798466
 21
157.5410882236
 31
0.0
  0
LINE
  5
46A
330
1F
100
AcDbEntity
  8
0
  6
Continuous
 62
     7
100
AcDbLine
 10
1653.1343798466
 20
157.5410882236
 30
0.0
 11
1653.1343798466
 21
155.5410882236
 31
0.0
  0
LINE
  5
46B
330
1F
100
AcDbEntity
  8
0
  6
Continuous
 62
     7
100
AcDbLine
 10
1653.1343798466
 20
145.5410882236
 30
0.0
 11
1690.6343798466
 21
145.5410882236
 31
0.0
  0
LINE
  5
46C
330
1F
100
AcDbEntity
  8
0
  6
Continuous
 62
     7
100
AcDbLine
 10
1690.6343798466
 20
145.5410882236
 30
0.0
 11
1690.6343798466
 21
147.5410882236
 31
0.0
  0
LINE
  5
46D
330
1F
100
AcDbEntity
  8
0
  6
Continuous
 62
     7
100
AcDbLine
 10
1690.6343798466
 20
147.5410882236
 30
0.0
 11
1653.1343798466
 21
147.5410882236
 31
0.0
  0
LINE
  5
46E
330
1F
100
AcDbEntity
  8
0
  6
Continuous
 62
     7
100
AcDbLine
 10
1653.1343798466
 20
147.5410882236
 30
0.0
 11
1653.1343798466
 21
145.5410882236
 31
0.0
  0
LINE
  5
46F
330
1F
100
AcDbEntity
  8
0
  6
Continuous
 62
     7
100
AcDbLine
 10
1653.1343798466
 20
135.5410882236
 30
0.0
 11
1690.6343798466
 21
135.5410882236
 31
0.0
  0
LINE
  5
470
330
1F
100
AcDbEntity
  8
0
  6
Continuous
 62
     7
100
AcDbLine
 10
1690.6343798466
 20
135.5410882236
 30
0.0
 11
1690.6343798466
 21
137.5410882236
 31
0.0
  0
LINE
  5
471
330
1F
100
AcDbEntity
  8
0
  6
Continuous
 62
     7
100
AcDbLine
 10
1690.6343798466
 20
137.5410882236
 30
0.0
 11
1653.1343798466
 21
137.5410882236
 31
0.0
  0
LINE
  5
472
330
1F
100
AcDbEntity
  8
0
  6
Continuous
 62
     7
100
AcDbLine
 10
1653.1343798466
 20
137.5410882236
 30
0.0
 11
1653.1343798466
 21
135.5410882236
 31
0.0
  0
LINE
  5
473
330
1F
100
AcDbEntity
  8
0
  6
Continuous
 62
     7
100
AcDbLine
 10
1603.1343798466
 20
205.5410882236
 30
0.0
 11
1640.6343798466
 21
205.5410882236
 31
0.0
  0
LINE
  5
474
330
1F
100
AcDbEntity
  8
0
  6
Continuous
 62
     7
100
AcDbLine
 10
1640.6343798466
 20
205.5410882236
 30
0.0
 11
1640.6343798466
 21
207.5410882236
 31
0.0
  0
LINE
  5
475
330
1F
100
AcDbEntity
  8
0
  6
Continuous
 62
     7
100
AcDbLine
 10
1640.6343798466
 20
207.5410882236
 30
0.0
 11
1603.1343798466
 21
207.5410882236
 31
0.0
  0
LINE
  5
476
330
1F
100
AcDbEntity
  8
0
  6
Continuous
 62
     7
100
AcDbLine
 10
1603.1343798466
 20
207.5410882236
 30
0.0
 11
1603.1343798466
 21
205.5410882236
 31
0.0
  0
LINE
  5
477
330
1F
100
AcDbEntity
  8
0
  6
Continuous
 62
     7
100
AcDbLine
 10
1603.1343798466
 20
195.5410882236
 30
0.0
 11
1640.6343798466
 21
195.5410882236
 31
0.0
  0
LINE
  5
478
330
1F
100
AcDbEntity
  8
0
  6
Continuous
 62
     7
100
AcDbLine
 10
1640.6343798466
 20
195.5410882236
 30
0.0
 11
1640.6343798466
 21
197.5410882236
 31
0.0
  0
LINE
  5
479
330
1F
100
AcDbEntity
  8
0
  6
Continuous
 62
     7
100
AcDbLine
 10
1640.6343798466
 20
197.5410882236
 30
0.0
 11
1603.1343798466
 21
197.5410882236
 31
0.0
  0
LINE
  5
47A
330
1F
100
AcDbEntity
  8
0
  6
Continuous
 62
     7
100
AcDbLine
 10
1603.1343798466
 20
197.5410882236
 30
0.0
 11
1603.1343798466
 21
195.5410882236
 31
0.0
  0
LINE
  5
47B
330
1F
100
AcDbEntity
  8
0
  6
Continuous
 62
     7
100
AcDbLine
 10
1603.1343798466
 20
185.5410882236
 30
0.0
 11
1640.6343798466
 21
185.5410882236
 31
0.0
  0
LINE
  5
47C
330
1F
100
AcDbEntity
  8
0
  6
Continuous
 62
     7
100
AcDbLine
 10
1640.6343798466
 20
185.5410882236
 30
0.0
 11
1640.6343798466
 21
187.5410882236
 31
0.0
  0
LINE
  5
47D
330
1F
100
AcDbEntity
  8
0
  6
Continuous
 62
     7
100
AcDbLine
 10
1640.6343798466
 20
187.5410882236
 30
0.0
 11
1603.1343798466
 21
187.5410882236
 31
0.0
  0
LINE
  5
47E
330
1F
100
AcDbEntity
  8
0
  6
Continuous
 62
     7
100
AcDbLine
 10
1603.1343798466
 20
187.5410882236
 30
0.0
 11
1603.1343798466
 21
185.5410882236
 31
0.0
  0
LINE
  5
47F
330
1F
100
AcDbEntity
  8
0
  6
Continuous
 62
     7
100
AcDbLine
 10
1603.1343798466
 20
175.5410882236
 30
0.0
 11
1640.6343798466
 21
175.5410882236
 31
0.0
  0
LINE
  5
480
330
1F
100
AcDbEntity
  8
0
  6
Continuous
 62
     7
100
AcDbLine
 10
1640.6343798466
 20
175.5410882236
 30
0.0
 11
1640.6343798466
 21
177.5410882236
 31
0.0
  0
LINE
  5
481
330
1F
100
AcDbEntity
  8
0
  6
Continuous
 62
     7
100
AcDbLine
 10
1640.6343798466
 20
177.5410882236
 30
0.0
 11
1603.1343798466
 21
177.5410882236
 31
0.0
  0
LINE
  5
482
330
1F
100
AcDbEntity
  8
0
  6
Continuous
 62
     7
100
AcDbLine
 10
1603.1343798466
 20
177.5410882236
 30
0.0
 11
1603.1343798466
 21
175.5410882236
 31
0.0
  0
LINE
  5
483
330
1F
100
AcDbEntity
  8
0
  6
Continuous
 62
     7
100
AcDbLine
 10
1603.1343798466
 20
165.5410882236
 30
0.0
 11
1640.6343798466
 21
165.5410882236
 31
0.0
  0
LINE
  5
484
330
1F
100
AcDbEntity
  8
0
  6
Continuous
 62
     7
100
AcDbLine
 10
1640.6343798466
 20
165.5410882236
 30
0.0
 11
1640.6343798466
 21
167.5410882236
 31
0.0
  0
LINE
  5
485
330
1F
100
AcDbEntity
  8
0
  6
Continuous
 62
     7
100
AcDbLine
 10
1640.6343798466
 20
167.5410882236
 30
0.0
 11
1603.1343798466
 21
167.5410882236
 31
0.0
  0
LINE
  5
486
330
1F
100
AcDbEntity
  8
0
  6
Continuous
 62
     7
100
AcDbLine
 10
1603.1343798466
 20
167.5410882236
 30
0.0
 11
1603.1343798466
 21
165.5410882236
 31
0.0
  0
LINE
  5
487
330
1F
100
AcDbEntity
  8
0
  6
Continuous
 62
     7
100
AcDbLine
 10
1603.1343798466
 20
155.5410882236
 30
0.0
 11
1640.6343798466
 21
155.5410882236
 31
0.0
  0
LINE
  5
488
330
1F
100
AcDbEntity
  8
0
  6
Continuous
 62
     7
100
AcDbLine
 10
1640.6343798466
 20
155.5410882236
 30
0.0
 11
1640.6343798466
 21
157.5410882236
 31
0.0
  0
LINE
  5
489
330
1F
100
AcDbEntity
  8
0
  6
Continuous
 62
     7
100
AcDbLine
 10
1640.6343798466
 20
157.5410882236
 30
0.0
 11
1603.1343798466
 21
157.5410882236
 31
0.0
  0
LINE
  5
48A
330
1F
100
AcDbEntity
  8
0
  6
Continuous
 62
     7
100
AcDbLine
 10
1603.1343798466
 20
157.5410882236
 30
0.0
 11
1603.1343798466
 21
155.5410882236
 31
0.0
  0
LINE
  5
48B
330
1F
100
AcDbEntity
  8
0
  6
Continuous
 62
     7
100
AcDbLine
 10
1603.1343798466
 20
145.5410882236
 30
0.0
 11
1640.6343798466
 21
145.5410882236
 31
0.0
  0
LINE
  5
48C
330
1F
100
AcDbEntity
  8
0
  6
Continuous
 62
     7
100
AcDbLine
 10
1640.6343798466
 20
145.5410882236
 30
0.0
 11
1640.6343798466
 21
147.5410882236
 31
0.0
  0
LINE
  5
48D
330
1F
100
AcDbEntity
  8
0
  6
Continuous
 62
     7
100
AcDbLine
 10
1640.6343798466
 20
147.5410882236
 30
0.0
 11
1603.1343798466
 21
147.5410882236
 31
0.0
  0
LINE
  5
48E
330
1F
100
AcDbEntity
  8
0
  6
Continuous
 62
     7
100
AcDbLine
 10
1603.1343798466
 20
147.5410882236
 30
0.0
 11
1603.1343798466
 21
145.5410882236
 31
0.0
  0
LINE
  5
48F
330
1F
100
AcDbEntity
  8
0
  6
Continuous
 62
     7
100
AcDbLine
 10
1603.1343798466
 20
135.5410882236
 30
0.0
 11
1640.6343798466
 21
135.5410882236
 31
0.0
  0
LINE
  5
490
330
1F
100
AcDbEntity
  8
0
  6
Continuous
 62
     7
100
AcDbLine
 10
1640.6343798466
 20
135.5410882236
 30
0.0
 11
1640.6343798466
 21
137.5410882236
 31
0.0
  0
LINE
  5
491
330
1F
100
AcDbEntity
  8
0
  6
Continuous
 62
     7
100
AcDbLine
 10
1640.6343798466
 20
137.5410882236
 30
0.0
 11
1603.1343798466
 21
137.5410882236
 31
0.0
  0
LINE
  5
492
330
1F
100
AcDbEntity
  8
0
  6
Continuous
 62
     7
100
AcDbLine
 10
1603.1343798466
 20
137.5410882236
 30
0.0
 11
1603.1343798466
 21
135.5410882236
 31
0.0
  0
LINE
  5
493
330
1F
100
AcDbEntity
  8
0
  6
Continuous
 62
     7
100
AcDbLine
 10
1553.1343798466
 20
205.5410882236
 30
0.0
 11
1590.6343798466
 21
205.5410882236
 31
0.0
  0
LINE
  5
494
330
1F
100
AcDbEntity
  8
0
  6
Continuous
 62
     7
100
AcDbLine
 10
1590.6343798466
 20
205.5410882236
 30
0.0
 11
1590.6343798466
 21
207.5410882236
 31
0.0
  0
LINE
  5
495
330
1F
100
AcDbEntity
  8
0
  6
Continuous
 62
     7
100
AcDbLine
 10
1590.6343798466
 20
207.5410882236
 30
0.0
 11
1553.1343798466
 21
207.5410882236
 31
0.0
  0
LINE
  5
496
330
1F
100
AcDbEntity
  8
0
  6
Continuous
 62
     7
100
AcDbLine
 10
1553.1343798466
 20
207.5410882236
 30
0.0
 11
1553.1343798466
 21
205.5410882236
 31
0.0
  0
LINE
  5
497
330
1F
100
AcDbEntity
  8
0
  6
Continuous
 62
     7
100
AcDbLine
 10
1553.1343798466
 20
195.5410882236
 30
0.0
 11
1590.6343798466
 21
195.5410882236
 31
0.0
  0
LINE
  5
498
330
1F
100
AcDbEntity
  8
0
  6
Continuous
 62
     7
100
AcDbLine
 10
1590.6343798466
 20
195.5410882236
 30
0.0
 11
1590.6343798466
 21
197.5410882236
 31
0.0
  0
LINE
  5
499
330
1F
100
AcDbEntity
  8
0
  6
Continuous
 62
     7
100
AcDbLine
 10
1590.6343798466
 20
197.5410882236
 30
0.0
 11
1553.1343798466
 21
197.5410882236
 31
0.0
  0
LINE
  5
49A
330
1F
100
AcDbEntity
  8
0
  6
Continuous
 62
     7
100
AcDbLine
 10
1553.1343798466
 20
197.5410882236
 30
0.0
 11
1553.1343798466
 21
195.5410882236
 31
0.0
  0
LINE
  5
49B
330
1F
100
AcDbEntity
  8
0
  6
Continuous
 62
     7
100
AcDbLine
 10
1553.1343798466
 20
185.5410882236
 30
0.0
 11
1590.6343798466
 21
185.5410882236
 31
0.0
  0
LINE
  5
49C
330
1F
100
AcDbEntity
  8
0
  6
Continuous
 62
     7
100
AcDbLine
 10
1590.6343798466
 20
185.5410882236
 30
0.0
 11
1590.6343798466
 21
187.5410882236
 31
0.0
  0
LINE
  5
49D
330
1F
100
AcDbEntity
  8
0
  6
Continuous
 62
     7
100
AcDbLine
 10
1590.6343798466
 20
187.5410882236
 30
0.0
 11
1553.1343798466
 21
187.5410882236
 31
0.0
  0
LINE
  5
49E
330
1F
100
AcDbEntity
  8
0
  6
Continuous
 62
     7
100
AcDbLine
 10
1553.1343798466
 20
187.5410882236
 30
0.0
 11
1553.1343798466
 21
185.5410882236
 31
0.0
  0
LINE
  5
49F
330
1F
100
AcDbEntity
  8
0
  6
Continuous
 62
     7
100
AcDbLine
 10
1553.1343798466
 20
175.5410882236
 30
0.0
 11
1590.6343798466
 21
175.5410882236
 31
0.0
  0
LINE
  5
4A0
330
1F
100
AcDbEntity
  8
0
  6
Continuous
 62
     7
100
AcDbLine
 10
1590.6343798466
 20
175.5410882236
 30
0.0
 11
1590.6343798466
 21
177.5410882236
 31
0.0
  0
LINE
  5
4A1
330
1F
100
AcDbEntity
  8
0
  6
Continuous
 62
     7
100
AcDbLine
 10
1590.6343798466
 20
177.5410882236
 30
0.0
 11
1553.1343798466
 21
177.5410882236
 31
0.0
  0
LINE
  5
4A2
330
1F
100
AcDbEntity
  8
0
  6
Continuous
 62
     7
100
AcDbLine
 10
1553.1343798466
 20
177.5410882236
 30
0.0
 11
1553.1343798466
 21
175.5410882236
 31
0.0
  0
LINE
  5
4A3
330
1F
100
AcDbEntity
  8
0
  6
Continuous
 62
     7
100
AcDbLine
 10
1553.1343798466
 20
165.5410882236
 30
0.0
 11
1590.6343798466
 21
165.5410882236
 31
0.0
  0
LINE
  5
4A4
330
1F
100
AcDbEntity
  8
0
  6
Continuous
 62
     7
100
AcDbLine
 10
1590.6343798466
 20
165.5410882236
 30
0.0
 11
1590.6343798466
 21
167.5410882236
 31
0.0
  0
LINE
  5
4A5
330
1F
100
AcDbEntity
  8
0
  6
Continuous
 62
     7
100
AcDbLine
 10
1590.6343798466
 20
167.5410882236
 30
0.0
 11
1553.1343798466
 21
167.5410882236
 31
0.0
  0
LINE
  5
4A6
330
1F
100
AcDbEntity
  8
0
  6
Continuous
 62
     7
100
AcDbLine
 10
1553.1343798466
 20
167.5410882236
 30
0.0
 11
1553.1343798466
 21
165.5410882236
 31
0.0
  0
LINE
  5
4A7
330
1F
100
AcDbEntity
  8
0
  6
Continuous
 62
     7
100
AcDbLine
 10
1553.1343798466
 20
155.5410882236
 30
0.0
 11
1590.6343798466
 21
155.5410882236
 31
0.0
  0
LINE
  5
4A8
330
1F
100
AcDbEntity
  8
0
  6
Continuous
 62
     7
100
AcDbLine
 10
1590.6343798466
 20
155.5410882236
 30
0.0
 11
1590.6343798466
 21
157.5410882236
 31
0.0
  0
LINE
  5
4A9
330
1F
100
AcDbEntity
  8
0
  6
Continuous
 62
     7
100
AcDbLine
 10
1590.6343798466
 20
157.5410882236
 30
0.0
 11
1553.1343798466
 21
157.5410882236
 31
0.0
  0
LINE
  5
4AA
330
1F
100
AcDbEntity
  8
0
  6
Continuous
 62
     7
100
AcDbLine
 10
1553.1343798466
 20
157.5410882236
 30
0.0
 11
1553.1343798466
 21
155.5410882236
 31
0.0
  0
LINE
  5
4AB
330
1F
100
AcDbEntity
  8
0
  6
Continuous
 62
     7
100
AcDbLine
 10
1553.1343798466
 20
145.5410882236
 30
0.0
 11
1590.6343798466
 21
145.5410882236
 31
0.0
  0
LINE
  5
4AC
330
1F
100
AcDbEntity
  8
0
  6
Continuous
 62
     7
100
AcDbLine
 10
1590.6343798466
 20
145.5410882236
 30
0.0
 11
1590.6343798466
 21
147.5410882236
 31
0.0
  0
LINE
  5
4AD
330
1F
100
AcDbEntity
  8
0
  6
Continuous
 62
     7
100
AcDbLine
 10
1590.6343798466
 20
147.5410882236
 30
0.0
 11
1553.1343798466
 21
147.5410882236
 31
0.0
  0
LINE
  5
4AE
330
1F
100
AcDbEntity
  8
0
  6
Continuous
 62
     7
100
AcDbLine
 10
1553.1343798466
 20
147.5410882236
 30
0.0
 11
1553.1343798466
 21
145.5410882236
 31
0.0
  0
LINE
  5
4AF
330
1F
100
AcDbEntity
  8
0
  6
Continuous
 62
     7
100
AcDbLine
 10
1553.1343798466
 20
135.5410882236
 30
0.0
 11
1590.6343798466
 21
135.5410882236
 31
0.0
  0
LINE
  5
4B0
330
1F
100
AcDbEntity
  8
0
  6
Continuous
 62
     7
100
AcDbLine
 10
1590.6343798466
 20
135.5410882236
 30
0.0
 11
1590.6343798466
 21
137.5410882236
 31
0.0
  0
LINE
  5
4B1
330
1F
100
AcDbEntity
  8
0
  6
Continuous
 62
     7
100
AcDbLine
 10
1590.6343798466
 20
137.5410882236
 30
0.0
 11
1553.1343798466
 21
137.5410882236
 31
0.0
  0
LINE
  5
4B2
330
1F
100
AcDbEntity
  8
0
  6
Continuous
 62
     7
100
AcDbLine
 10
1553.1343798466
 20
137.5410882236
 30
0.0
 11
1553.1343798466
 21
135.5410882236
 31
0.0
  0
LINE
  5
4B3
330
1F
100
AcDbEntity
  8
0
  6
Continuous
 62
     7
100
AcDbLine
 10
1503.1343798466
 20
205.5410882236
 30
0.0
 11
1540.6343798466
 21
205.5410882236
 31
0.0
  0
LINE
  5
4B4
330
1F
100
AcDbEntity
  8
0
  6
Continuous
 62
     7
100
AcDbLine
 10
1540.6343798466
 20
205.5410882236
 30
0.0
 11
1540.6343798466
 21
207.5410882236
 31
0.0
  0
LINE
  5
4B5
330
1F
100
AcDbEntity
  8
0
  6
Continuous
 62
     7
100
AcDbLine
 10
1540.6343798466
 20
207.5410882236
 30
0.0
 11
1503.1343798466
 21
207.5410882236
 31
0.0
  0
LINE
  5
4B6
330
1F
100
AcDbEntity
  8
0
  6
Continuous
 62
     7
100
AcDbLine
 10
1503.1343798466
 20
207.5410882236
 30
0.0
 11
1503.1343798466
 21
205.5410882236
 31
0.0
  0
LINE
  5
4B7
330
1F
100
AcDbEntity
  8
0
  6
Continuous
 62
     7
100
AcDbLine
 10
1503.1343798466
 20
195.5410882236
 30
0.0
 11
1540.6343798466
 21
195.5410882236
 31
0.0
  0
LINE
  5
4B8
330
1F
100
AcDbEntity
  8
0
  6
Continuous
 62
     7
100
AcDbLine
 10
1540.6343798466
 20
195.5410882236
 30
0.0
 11
1540.6343798466
 21
197.5410882236
 31
0.0
  0
LINE
  5
4B9
330
1F
100
AcDbEntity
  8
0
  6
Continuous
 62
     7
100
AcDbLine
 10
1540.6343798466
 20
197.5410882236
 30
0.0
 11
1503.1343798466
 21
197.5410882236
 31
0.0
  0
LINE
  5
4BA
330
1F
100
AcDbEntity
  8
0
  6
Continuous
 62
     7
100
AcDbLine
 10
1503.1343798466
 20
197.5410882236
 30
0.0
 11
1503.1343798466
 21
195.5410882236
 31
0.0
  0
LINE
  5
4BB
330
1F
100
AcDbEntity
  8
0
  6
Continuous
 62
     7
100
AcDbLine
 10
1503.1343798466
 20
185.5410882236
 30
0.0
 11
1540.6343798466
 21
185.5410882236
 31
0.0
  0
LINE
  5
4BC
330
1F
100
AcDbEntity
  8
0
  6
Continuous
 62
     7
100
AcDbLine
 10
1540.6343798466
 20
185.5410882236
 30
0.0
 11
1540.6343798466
 21
187.5410882236
 31
0.0
  0
LINE
  5
4BD
330
1F
100
AcDbEntity
  8
0
  6
Continuous
 62
     7
100
AcDbLine
 10
1540.6343798466
 20
187.5410882236
 30
0.0
 11
1503.1343798466
 21
187.5410882236
 31
0.0
  0
LINE
  5
4BE
330
1F
100
AcDbEntity
  8
0
  6
Continuous
 62
     7
100
AcDbLine
 10
1503.1343798466
 20
187.5410882236
 30
0.0
 11
1503.1343798466
 21
185.5410882236
 31
0.0
  0
LINE
  5
4BF
330
1F
100
AcDbEntity
  8
0
  6
Continuous
 62
     7
100
AcDbLine
 10
1503.1343798466
 20
175.5410882236
 30
0.0
 11
1540.6343798466
 21
175.5410882236
 31
0.0
  0
LINE
  5
4C0
330
1F
100
AcDbEntity
  8
0
  6
Continuous
 62
     7
100
AcDbLine
 10
1540.6343798466
 20
175.5410882236
 30
0.0
 11
1540.6343798466
 21
177.5410882236
 31
0.0
  0
LINE
  5
4C1
330
1F
100
AcDbEntity
  8
0
  6
Continuous
 62
     7
100
AcDbLine
 10
1540.6343798466
 20
177.5410882236
 30
0.0
 11
1503.1343798466
 21
177.5410882236
 31
0.0
  0
LINE
  5
4C2
330
1F
100
AcDbEntity
  8
0
  6
Continuous
 62
     7
100
AcDbLine
 10
1503.1343798466
 20
177.5410882236
 30
0.0
 11
1503.1343798466
 21
175.5410882236
 31
0.0
  0
LINE
  5
4C3
330
1F
100
AcDbEntity
  8
0
  6
Continuous
 62
     7
100
AcDbLine
 10
1503.1343798466
 20
165.5410882236
 30
0.0
 11
1540.6343798466
 21
165.5410882236
 31
0.0
  0
LINE
  5
4C4
330
1F
100
AcDbEntity
  8
0
  6
Continuous
 62
     7
100
AcDbLine
 10
1540.6343798466
 20
165.5410882236
 30
0.0
 11
1540.6343798466
 21
167.5410882236
 31
0.0
  0
LINE
  5
4C5
330
1F
100
AcDbEntity
  8
0
  6
Continuous
 62
     7
100
AcDbLine
 10
1540.6343798466
 20
167.5410882236
 30
0.0
 11
1503.1343798466
 21
167.5410882236
 31
0.0
  0
LINE
  5
4C6
330
1F
100
AcDbEntity
  8
0
  6
Continuous
 62
     7
100
AcDbLine
 10
1503.1343798466
 20
167.5410882236
 30
0.0
 11
1503.1343798466
 21
165.5410882236
 31
0.0
  0
LINE
  5
4C7
330
1F
100
AcDbEntity
  8
0
  6
Continuous
 62
     7
100
AcDbLine
 10
1503.1343798466
 20
155.5410882236
 30
0.0
 11
1540.6343798466
 21
155.5410882236
 31
0.0
  0
LINE
  5
4C8
330
1F
100
AcDbEntity
  8
0
  6
Continuous
 62
     7
100
AcDbLine
 10
1540.6343798466
 20
155.5410882236
 30
0.0
 11
1540.6343798466
 21
157.5410882236
 31
0.0
  0
LINE
  5
4C9
330
1F
100
AcDbEntity
  8
0
  6
Continuous
 62
     7
100
AcDbLine
 10
1540.6343798466
 20
157.5410882236
 30
0.0
 11
1503.1343798466
 21
157.5410882236
 31
0.0
  0
LINE
  5
4CA
330
1F
100
AcDbEntity
  8
0
  6
Continuous
 62
     7
100
AcDbLine
 10
1503.1343798466
 20
157.5410882236
 30
0.0
 11
1503.1343798466
 21
155.5410882236
 31
0.0
  0
LINE
  5
4CB
330
1F
100
AcDbEntity
  8
0
  6
Continuous
 62
     7
100
AcDbLine
 10
1503.1343798466
 20
145.5410882236
 30
0.0
 11
1540.6343798466
 21
145.5410882236
 31
0.0
  0
LINE
  5
4CC
330
1F
100
AcDbEntity
  8
0
  6
Continuous
 62
     7
100
AcDbLine
 10
1540.6343798466
 20
145.5410882236
 30
0.0
 11
1540.6343798466
 21
147.5410882236
 31
0.0
  0
LINE
  5
4CD
330
1F
100
AcDbEntity
  8
0
  6
Continuous
 62
     7
100
AcDbLine
 10
1540.6343798466
 20
147.5410882236
 30
0.0
 11
1503.1343798466
 21
147.5410882236
 31
0.0
  0
LINE
  5
4CE
330
1F
100
AcDbEntity
  8
0
  6
Continuous
 62
     7
100
AcDbLine
 10
1503.1343798466
 20
147.5410882236
 30
0.0
 11
1503.1343798466
 21
145.5410882236
 31
0.0
  0
LINE
  5
4CF
330
1F
100
AcDbEntity
  8
0
  6
Continuous
 62
     7
100
AcDbLine
 10
1503.1343798466
 20
135.5410882236
 30
0.0
 11
1540.6343798466
 21
135.5410882236
 31
0.0
  0
LINE
  5
4D0
330
1F
100
AcDbEntity
  8
0
  6
Continuous
 62
     7
100
AcDbLine
 10
1540.6343798466
 20
135.5410882236
 30
0.0
 11
1540.6343798466
 21
137.5410882236
 31
0.0
  0
LINE
  5
4D1
330
1F
100
AcDbEntity
  8
0
  6
Continuous
 62
     7
100
AcDbLine
 10
1540.6343798466
 20
137.5410882236
 30
0.0
 11
1503.1343798466
 21
137.5410882236
 31
0.0
  0
LINE
  5
4D2
330
1F
100
AcDbEntity
  8
0
  6
Continuous
 62
     7
100
AcDbLine
 10
1503.1343798466
 20
137.5410882236
 30
0.0
 11
1503.1343798466
 21
135.5410882236
 31
0.0
  0
LINE
  5
4D3
330
1F
100
AcDbEntity
  8
0
  6
Continuous
 62
     7
100
AcDbLine
 10
1453.1343798466
 20
205.5410882236
 30
0.0
 11
1490.6343798466
 21
205.5410882236
 31
0.0
  0
LINE
  5
4D4
330
1F
100
AcDbEntity
  8
0
  6
Continuous
 62
     7
100
AcDbLine
 10
1490.6343798466
 20
205.5410882236
 30
0.0
 11
1490.6343798466
 21
207.5410882236
 31
0.0
  0
LINE
  5
4D5
330
1F
100
AcDbEntity
  8
0
  6
Continuous
 62
     7
100
AcDbLine
 10
1490.6343798466
 20
207.5410882236
 30
0.0
 11
1453.1343798466
 21
207.5410882236
 31
0.0
  0
LINE
  5
4D6
330
1F
100
AcDbEntity
  8
0
  6
Continuous
 62
     7
100
AcDbLine
 10
1453.1343798466
 20
207.5410882236
 30
0.0
 11
1453.1343798466
 21
205.5410882236
 31
0.0
  0
LINE
  5
4D7
330
1F
100
AcDbEntity
  8
0
  6
Continuous
 62
     7
100
AcDbLine
 10
1453.1343798466
 20
195.5410882236
 30
0.0
 11
1490.6343798466
 21
195.5410882236
 31
0.0
  0
LINE
  5
4D8
330
1F
100
AcDbEntity
  8
0
  6
Continuous
 62
     7
100
AcDbLine
 10
1490.6343798466
 20
195.5410882236
 30
0.0
 11
1490.6343798466
 21
197.5410882236
 31
0.0
  0
LINE
  5
4D9
330
1F
100
AcDbEntity
  8
0
  6
Continuous
 62
     7
100
AcDbLine
 10
1490.6343798466
 20
197.5410882236
 30
0.0
 11
1453.1343798466
 21
197.5410882236
 31
0.0
  0
LINE
  5
4DA
330
1F
100
AcDbEntity
  8
0
  6
Continuous
 62
     7
100
AcDbLine
 10
1453.1343798466
 20
197.5410882236
 30
0.0
 11
1453.1343798466
 21
195.5410882236
 31
0.0
  0
LINE
  5
4DB
330
1F
100
AcDbEntity
  8
0
  6
Continuous
 62
     7
100
AcDbLine
 10
1453.1343798466
 20
185.5410882236
 30
0.0
 11
1490.6343798466
 21
185.5410882236
 31
0.0
  0
LINE
  5
4DC
330
1F
100
AcDbEntity
  8
0
  6
Continuous
 62
     7
100
AcDbLine
 10
1490.6343798466
 20
185.5410882236
 30
0.0
 11
1490.6343798466
 21
187.5410882236
 31
0.0
  0
LINE
  5
4DD
330
1F
100
AcDbEntity
  8
0
  6
Continuous
 62
     7
100
AcDbLine
 10
1490.6343798466
 20
187.5410882236
 30
0.0
 11
1453.1343798466
 21
187.5410882236
 31
0.0
  0
LINE
  5
4DE
330
1F
100
AcDbEntity
  8
0
  6
Continuous
 62
     7
100
AcDbLine
 10
1453.1343798466
 20
187.5410882236
 30
0.0
 11
1453.1343798466
 21
185.5410882236
 31
0.0
  0
LINE
  5
4DF
330
1F
100
AcDbEntity
  8
0
  6
Continuous
 62
     7
100
AcDbLine
 10
1453.1343798466
 20
175.5410882236
 30
0.0
 11
1490.6343798466
 21
175.5410882236
 31
0.0
  0
LINE
  5
4E0
330
1F
100
AcDbEntity
  8
0
  6
Continuous
 62
     7
100
AcDbLine
 10
1490.6343798466
 20
175.5410882236
 30
0.0
 11
1490.6343798466
 21
177.5410882236
 31
0.0
  0
LINE
  5
4E1
330
1F
100
AcDbEntity
  8
0
  6
Continuous
 62
     7
100
AcDbLine
 10
1490.6343798466
 20
177.5410882236
 30
0.0
 11
1453.1343798466
 21
177.5410882236
 31
0.0
  0
LINE
  5
4E2
330
1F
100
AcDbEntity
  8
0
  6
Continuous
 62
     7
100
AcDbLine
 10
1453.1343798466
 20
177.5410882236
 30
0.0
 11
1453.1343798466
 21
175.5410882236
 31
0.0
  0
LINE
  5
4E3
330
1F
100
AcDbEntity
  8
0
  6
Continuous
 62
     7
100
AcDbLine
 10
1453.1343798466
 20
165.5410882236
 30
0.0
 11
1490.6343798466
 21
165.5410882236
 31
0.0
  0
LINE
  5
4E4
330
1F
100
AcDbEntity
  8
0
  6
Continuous
 62
     7
100
AcDbLine
 10
1490.6343798466
 20
165.5410882236
 30
0.0
 11
1490.6343798466
 21
167.5410882236
 31
0.0
  0
LINE
  5
4E5
330
1F
100
AcDbEntity
  8
0
  6
Continuous
 62
     7
100
AcDbLine
 10
1490.6343798466
 20
167.5410882236
 30
0.0
 11
1453.1343798466
 21
167.5410882236
 31
0.0
  0
LINE
  5
4E6
330
1F
100
AcDbEntity
  8
0
  6
Continuous
 62
     7
100
AcDbLine
 10
1453.1343798466
 20
167.5410882236
 30
0.0
 11
1453.1343798466
 21
165.5410882236
 31
0.0
  0
LINE
  5
4E7
330
1F
100
AcDbEntity
  8
0
  6
Continuous
 62
     7
100
AcDbLine
 10
1453.1343798466
 20
155.5410882236
 30
0.0
 11
1490.6343798466
 21
155.5410882236
 31
0.0
  0
LINE
  5
4E8
330
1F
100
AcDbEntity
  8
0
  6
Continuous
 62
     7
100
AcDbLine
 10
1490.6343798466
 20
155.5410882236
 30
0.0
 11
1490.6343798466
 21
157.5410882236
 31
0.0
  0
LINE
  5
4E9
330
1F
100
AcDbEntity
  8
0
  6
Continuous
 62
     7
100
AcDbLine
 10
1490.6343798466
 20
157.5410882236
 30
0.0
 11
1453.1343798466
 21
157.5410882236
 31
0.0
  0
LINE
  5
4EA
330
1F
100
AcDbEntity
  8
0
  6
Continuous
 62
     7
100
AcDbLine
 10
1453.1343798466
 20
157.5410882236
 30
0.0
 11
1453.1343798466
 21
155.5410882236
 31
0.0
  0
LINE
  5
4EB
330
1F
100
AcDbEntity
  8
0
  6
Continuous
 62
     7
100
AcDbLine
 10
1453.1343798466
 20
145.5410882236
 30
0.0
 11
1490.6343798466
 21
145.5410882236
 31
0.0
  0
LINE
  5
4EC
330
1F
100
AcDbEntity
  8
0
  6
Continuous
 62
     7
100
AcDbLine
 10
1490.6343798466
 20
145.5410882236
 30
0.0
 11
1490.6343798466
 21
147.5410882236
 31
0.0
  0
LINE
  5
4ED
330
1F
100
AcDbEntity
  8
0
  6
Continuous
 62
     7
100
AcDbLine
 10
1490.6343798466
 20
147.5410882236
 30
0.0
 11
1453.1343798466
 21
147.5410882236
 31
0.0
  0
LINE
  5
4EE
330
1F
100
AcDbEntity
  8
0
  6
Continuous
 62
     7
100
AcDbLine
 10
1453.1343798466
 20
147.5410882236
 30
0.0
 11
1453.1343798466
 21
145.5410882236
 31
0.0
  0
LINE
  5
4EF
330
1F
100
AcDbEntity
  8
0
  6
Continuous
 62
     7
100
AcDbLine
 10
1453.1343798466
 20
135.5410882236
 30
0.0
 11
1490.6343798466
 21
135.5410882236
 31
0.0
  0
LINE
  5
4F0
330
1F
100
AcDbEntity
  8
0
  6
Continuous
 62
     7
100
AcDbLine
 10
1490.6343798466
 20
135.5410882236
 30
0.0
 11
1490.6343798466
 21
137.5410882236
 31
0.0
  0
LINE
  5
4F1
330
1F
100
AcDbEntity
  8
0
  6
Continuous
 62
     7
100
AcDbLine
 10
1490.6343798466
 20
137.5410882236
 30
0.0
 11
1453.1343798466
 21
137.5410882236
 31
0.0
  0
LINE
  5
4F2
330
1F
100
AcDbEntity
  8
0
  6
Continuous
 62
     7
100
AcDbLine
 10
1453.1343798466
 20
137.5410882236
 30
0.0
 11
1453.1343798466
 21
135.5410882236
 31
0.0
  0
LINE
  5
4F3
330
1F
100
AcDbEntity
  8
0
  6
Continuous
 62
     7
100
AcDbLine
 10
1403.1343798466
 20
205.5410882236
 30
0.0
 11
1440.6343798466
 21
205.5410882236
 31
0.0
  0
LINE
  5
4F4
330
1F
100
AcDbEntity
  8
0
  6
Continuous
 62
     7
100
AcDbLine
 10
1440.6343798466
 20
205.5410882236
 30
0.0
 11
1440.6343798466
 21
207.5410882236
 31
0.0
  0
LINE
  5
4F5
330
1F
100
AcDbEntity
  8
0
  6
Continuous
 62
     7
100
AcDbLine
 10
1440.6343798466
 20
207.5410882236
 30
0.0
 11
1403.1343798466
 21
207.5410882236
 31
0.0
  0
LINE
  5
4F6
330
1F
100
AcDbEntity
  8
0
  6
Continuous
 62
     7
100
AcDbLine
 10
1403.1343798466
 20
207.5410882236
 30
0.0
 11
1403.1343798466
 21
205.5410882236
 31
0.0
  0
LINE
  5
4F7
330
1F
100
AcDbEntity
  8
0
  6
Continuous
 62
     7
100
AcDbLine
 10
1403.1343798466
 20
195.5410882236
 30
0.0
 11
1440.6343798466
 21
195.5410882236
 31
0.0
  0
LINE
  5
4F8
330
1F
100
AcDbEntity
  8
0
  6
Continuous
 62
     7
100
AcDbLine
 10
1440.6343798466
 20
195.5410882236
 30
0.0
 11
1440.6343798466
 21
197.5410882236
 31
0.0
  0
LINE
  5
4F9
330
1F
100
AcDbEntity
  8
0
  6
Continuous
 62
     7
100
AcDbLine
 10
1440.6343798466
 20
197.5410882236
 30
0.0
 11
1403.1343798466
 21
197.5410882236
 31
0.0
  0
LINE
  5
4FA
330
1F
100
AcDbEntity
  8
0
  6
Continuous
 62
     7
100
AcDbLine
 10
1403.1343798466
 20
197.5410882236
 30
0.0
 11
1403.1343798466
 21
195.5410882236
 31
0.0
  0
LINE
  5
4FB
330
1F
100
AcDbEntity
  8
0
  6
Continuous
 62
     7
100
AcDbLine
 10
1403.1343798466
 20
185.5410882236
 30
0.0
 11
1440.6343798466
 21
185.5410882236
 31
0.0
  0
LINE
  5
4FC
330
1F
100
AcDbEntity
  8
0
  6
Continuous
 62
     7
100
AcDbLine
 10
1440.6343798466
 20
185.5410882236
 30
0.0
 11
1440.6343798466
 21
187.5410882236
 31
0.0
  0
LINE
  5
4FD
330
1F
100
AcDbEntity
  8
0
  6
Continuous
 62
     7
100
AcDbLine
 10
1440.6343798466
 20
187.5410882236
 30
0.0
 11
1403.1343798466
 21
187.5410882236
 31
0.0
  0
LINE
  5
4FE
330
1F
100
AcDbEntity
  8
0
  6
Continuous
 62
     7
100
AcDbLine
 10
1403.1343798466
 20
187.5410882236
 30
0.0
 11
1403.1343798466
 21
185.5410882236
 31
0.0
  0
LINE
  5
4FF
330
1F
100
AcDbEntity
  8
0
  6
Continuous
 62
     7
100
AcDbLine
 10
1403.1343798466
 20
175.5410882236
 30
0.0
 11
1440.6343798466
 21
175.5410882236
 31
0.0
  0
LINE
  5
500
330
1F
100
AcDbEntity
  8
0
  6
Continuous
 62
     7
100
AcDbLine
 10
1440.6343798466
 20
175.5410882236
 30
0.0
 11
1440.6343798466
 21
177.5410882236
 31
0.0
  0
LINE
  5
501
330
1F
100
AcDbEntity
  8
0
  6
Continuous
 62
     7
100
AcDbLine
 10
1440.6343798466
 20
177.5410882236
 30
0.0
 11
1403.1343798466
 21
177.5410882236
 31
0.0
  0
LINE
  5
502
330
1F
100
AcDbEntity
  8
0
  6
Continuous
 62
     7
100
AcDbLine
 10
1403.1343798466
 20
177.5410882236
 30
0.0
 11
1403.1343798466
 21
175.5410882236
 31
0.0
  0
LINE
  5
503
330
1F
100
AcDbEntity
  8
0
  6
Continuous
 62
     7
100
AcDbLine
 10
1403.1343798466
 20
165.5410882236
 30
0.0
 11
1440.6343798466
 21
165.5410882236
 31
0.0
  0
LINE
  5
504
330
1F
100
AcDbEntity
  8
0
  6
Continuous
 62
     7
100
AcDbLine
 10
1440.6343798466
 20
165.5410882236
 30
0.0
 11
1440.6343798466
 21
167.5410882236
 31
0.0
  0
LINE
  5
505
330
1F
100
AcDbEntity
  8
0
  6
Continuous
 62
     7
100
AcDbLine
 10
1440.6343798466
 20
167.5410882236
 30
0.0
 11
1403.1343798466
 21
167.5410882236
 31
0.0
  0
LINE
  5
506
330
1F
100
AcDbEntity
  8
0
  6
Continuous
 62
     7
100
AcDbLine
 10
1403.1343798466
 20
167.5410882236
 30
0.0
 11
1403.1343798466
 21
165.5410882236
 31
0.0
  0
LINE
  5
507
330
1F
100
AcDbEntity
  8
0
  6
Continuous
 62
     7
100
AcDbLine
 10
1403.1343798466
 20
155.5410882236
 30
0.0
 11
1440.6343798466
 21
155.5410882236
 31
0.0
  0
LINE
  5
508
330
1F
100
AcDbEntity
  8
0
  6
Continuous
 62
     7
100
AcDbLine
 10
1440.6343798466
 20
155.5410882236
 30
0.0
 11
1440.6343798466
 21
157.5410882236
 31
0.0
  0
LINE
  5
509
330
1F
100
AcDbEntity
  8
0
  6
Continuous
 62
     7
100
AcDbLine
 10
1440.6343798466
 20
157.5410882236
 30
0.0
 11
1403.1343798466
 21
157.5410882236
 31
0.0
  0
LINE
  5
50A
330
1F
100
AcDbEntity
  8
0
  6
Continuous
 62
     7
100
AcDbLine
 10
1403.1343798466
 20
157.5410882236
 30
0.0
 11
1403.1343798466
 21
155.5410882236
 31
0.0
  0
LINE
  5
50B
330
1F
100
AcDbEntity
  8
0
  6
Continuous
 62
     7
100
AcDbLine
 10
1403.1343798466
 20
145.5410882236
 30
0.0
 11
1440.6343798466
 21
145.5410882236
 31
0.0
  0
LINE
  5
50C
330
1F
100
AcDbEntity
  8
0
  6
Continuous
 62
     7
100
AcDbLine
 10
1440.6343798466
 20
145.5410882236
 30
0.0
 11
1440.6343798466
 21
147.5410882236
 31
0.0
  0
LINE
  5
50D
330
1F
100
AcDbEntity
  8
0
  6
Continuous
 62
     7
100
AcDbLine
 10
1440.6343798466
 20
147.5410882236
 30
0.0
 11
1403.1343798466
 21
147.5410882236
 31
0.0
  0
LINE
  5
50E
330
1F
100
AcDbEntity
  8
0
  6
Continuous
 62
     7
100
AcDbLine
 10
1403.1343798466
 20
147.5410882236
 30
0.0
 11
1403.1343798466
 21
145.5410882236
 31
0.0
  0
LINE
  5
50F
330
1F
100
AcDbEntity
  8
0
  6
Continuous
 62
     7
100
AcDbLine
 10
1403.1343798466
 20
135.5410882236
 30
0.0
 11
1440.6343798466
 21
135.5410882236
 31
0.0
  0
LINE
  5
510
330
1F
100
AcDbEntity
  8
0
  6
Continuous
 62
     7
100
AcDbLine
 10
1440.6343798466
 20
135.5410882236
 30
0.0
 11
1440.6343798466
 21
137.5410882236
 31
0.0
  0
LINE
  5
511
330
1F
100
AcDbEntity
  8
0
  6
Continuous
 62
     7
100
AcDbLine
 10
1440.6343798466
 20
137.5410882236
 30
0.0
 11
1403.1343798466
 21
137.5410882236
 31
0.0
  0
LINE
  5
512
330
1F
100
AcDbEntity
  8
0
  6
Continuous
 62
     7
100
AcDbLine
 10
1403.1343798466
 20
137.5410882236
 30
0.0
 11
1403.1343798466
 21
135.5410882236
 31
0.0
  0
LINE
  5
513
330
1F
100
AcDbEntity
  8
0
  6
Continuous
 62
     7
100
AcDbLine
 10
2001.1243798466
 20
116.455301786
 30
0.0
 11
2001.1243798466
 21
116.0410882236
 31
0.0
  0
LINE
  5
514
330
1F
100
AcDbEntity
  8
0
  6
Continuous
 62
     7
100
AcDbLine
 10
1391.6243798466
 20
116.455301786
 30
0.0
 11
1391.6243798466
 21
116.0410882236
 31
0.0
  0
ENDSEC
  0
SECTION
  2
OBJECTS
  0
DICTIONARY
  5
C
330
0
100
AcDbDictionary
281
     1
  3
ACAD_GROUP
350
D
  3
ACAD_LAYOUT
350
1A
  3
ACAD_MLINESTYLE
350
17
  3
ACAD_PLOTSETTINGS
350
19
  3
ACAD_PLOTSTYLENAME
350
E
  3
ACAD_SCALELIST
350
47
  3
DWGPROPS
350
515
  0
DICTIONARY
  5
D
102
{ACAD_REACTORS
330
C
102
}
330
C
100
AcDbDictionary
281
     1
  0
DICTIONARY
  5
1A
102
{ACAD_REACTORS
330
C
102
}
330
C
100
AcDbDictionary
281
     1
  3
Layout1
350
1E
  3
Layout2
350
26
  3
Model
350
22
  0
DICTIONARY
  5
17
102
{ACAD_REACTORS
330
C
102
}
330
C
100
AcDbDictionary
281
     1
  3
Standard
350
18
  0
DICTIONARY
  5
19
102
{ACAD_REACTORS
330
C
102
}
330
C
100
AcDbDictionary
281
     1
  0
ACDBDICTIONARYWDFLT
  5
E
102
{ACAD_REACTORS
330
C
102
}
330
C
100
AcDbDictionary
281
     1
  3
Normal
350
F
100
AcDbDictionaryWithDefault
340
F
  0
DICTIONARY
  5
47
102
{ACAD_REACTORS
330
C
102
}
330
C
100
AcDbDictionary
281
     1
  3
A0
350
48
  3
A1
350
49
  3
A2
350
4A
  3
A3
350
4B
  3
A4
350
4C
  3
A5
350
4D
  3
A6
350
4E
  3
A7
350
4F
  3
A8
350
50
  3
A9
350
51
  3
B0
350
52
  3
B1
350
53
  3
B2
350
54
  3
B3
350
55
  3
B4
350
56
  3
B5
350
57
  3
B6
350
58
  0
XRECORD
  5
515
102
{ACAD_REACTORS
330
C
102
}
330
C
100
AcDbXrecord
280
     1
  1
DWGPROPS COOKIE
  2

  3

  4

  6

  7

  8
moskovchenkovapa
  9

300
=
301
=
302
=
303
=
304
=
305
=
306
=
307
=
308
=
309
=
 40
0.0
 41
2460697.581568958
 42
2460697.581569444
  1

 90
        0
  0
LAYOUT
  5
1E
102
{ACAD_REACTORS
330
1A
102
}
330
1A
100
AcDbPlotSettings
  1

  2
none_device
  4

  6

 40
0.0
 41
0.0
 42
0.0
 43
0.0
 44
0.0
 45
0.0
 46
0.0
 47
0.0
 48
0.0
 49
0.0
140
0.0
141
0.0
142
1.0
143
1.0
 70
   688
 72
     1
 73
     0
 74
     5
  7

 75
    16
147
1.0
148
0.0
149
0.0
100
AcDbLayout
  1
Layout1
 70
     1
 71
     1
 10
0.0
 20
0.0
 11
420.0
 21
297.0
 12
0.0
 22
0.0
 32
0.0
 14
1.0000000000E+20
 24
1.0000000000E+20
 34
1.0000000000E+20
 15
-1.0000000000E+20
 25
-1.0000000000E+20
 35
-1.0000000000E+20
146
0.0
 13
0.0
 23
0.0
 33
0.0
 16
1.0
 26
0.0
 36
0.0
 17
0.0
 27
1.0
 37
0.0
 76
     0
330
1B
  0
LAYOUT
  5
26
102
{ACAD_REACTORS
330
1A
102
}
330
1A
100
AcDbPlotSettings
  1

  2
none_device
  4

  6

 40
0.0
 41
0.0
 42
0.0
 43
0.0
 44
0.0
 45
0.0
 46
0.0
 47
0.0
 48
0.0
 49
0.0
140
0.0
141
0.0
142
1.0
143
1.0
 70
   688
 72
     1
 73
     0
 74
     5
  7

 75
    16
147
1.0
148
0.0
149
0.0
100
AcDbLayout
  1
Layout2
 70
     1
 71
     2
 10
0.0
 20
0.0
 11
0.0
 21
0.0
 12
0.0
 22
0.0
 32
0.0
 14
0.0
 24
0.0
 34
0.0
 15
0.0
 25
0.0
 35
0.0
146
0.0
 13
0.0
 23
0.0
 33
0.0
 16
1.0
 26
0.0
 36
0.0
 17
0.0
 27
1.0
 37
0.0
 76
     0
330
23
  0
LAYOUT
  5
22
102
{ACAD_REACTORS
330
1A
102
}
330
1A
100
AcDbPlotSettings
  1

  2
none_device
  4
Letter_(8.50_x_11.00_Inches)
  6

 40
6.35
 41
6.35
 42
6.35000508
 43
6.35000508
 44
215.9
 45
279.4
 46
0.0
 47
0.0
 48
0.0
 49
0.0
140
0.0
141
0.0
142
1.0
143
1.0
 70
  1712
 72
     1
 73
     0
 74
     0
  7

 75
     0
147
1.0
148
0.0
149
0.0
100
AcDbLayout
  1
Model
 70
     1
 71
     0
 10
0.0
 20
0.0
 11
420.0
 21
297.0
 12
0.0
 22
0.0
 32
0.0
 14
0.0
 24
0.0
 34
0.0
 15
420.0
 25
297.0
 35
0.0
146
0.0
 13
0.0
 23
0.0
 33
0.0
 16
1.0
 26
0.0
 36
0.0
 17
0.0
 27
1.0
 37
0.0
 76
     0
330
1F
331
29
  0
MLINESTYLE
  5
18
102
{ACAD_REACTORS
330
17
102
}
330
17
100
AcDbMlineStyle
  2
Standard
 70
     0
  3

 62
   256
 51
90.0
 52
90.0
 71
     2
 49
0.5
 62
   256
  6
BYLAYER
 49
-0.5
 62
   256
  6
BYLAYER
  0
ACDBPLACEHOLDER
  5
F
102
{ACAD_REACTORS
330
E
102
}
330
E
  0
SCALE
  5
48
102
{ACAD_REACTORS
330
47
102
}
330
47
100
AcDbScale
 70
     0
300
1:1
140
1.0
141
1.0
290
     1
  0
SCALE
  5
49
102
{ACAD_REACTORS
330
47
102
}
330
47
100
AcDbScale
 70
     0
300
1:2
140
1.0
141
2.0
290
     0
  0
SCALE
  5
4A
102
{ACAD_REACTORS
330
47
102
}
330
47
100
AcDbScale
 70
     0
300
1:4
140
1.0
141
4.0
290
     0
  0
SCALE
  5
4B
102
{ACAD_REACTORS
330
47
102
}
330
47
100
AcDbScale
 70
     0
300
1:5
140
1.0
141
5.0
290
     0
  0
SCALE
  5
4C
102
{ACAD_REACTORS
330
47
102
}
330
47
100
AcDbScale
 70
     0
300
1:8
140
1.0
141
8.0
290
     0
  0
SCALE
  5
4D
102
{ACAD_REACTORS
330
47
102
}
330
47
100
AcDbScale
 70
     0
300
1:10
140
1.0
141
10.0
290
     0
  0
SCALE
  5
4E
102
{ACAD_REACTORS
330
47
102
}
330
47
100
AcDbScale
 70
     0
300
1:16
140
1.0
141
16.0
290
     0
  0
SCALE
  5
4F
102
{ACAD_REACTORS
330
47
102
}
330
47
100
AcDbScale
 70
     0
300
1:20
140
1.0
141
20.0
290
     0
  0
SCALE
  5
50
102
{ACAD_REACTORS
330
47
102
}
330
47
100
AcDbScale
 70
     0
300
1:30
140
1.0
141
30.0
290
     0
  0
SCALE
  5
51
102
{ACAD_REACTORS
330
47
102
}
330
47
100
AcDbScale
 70
     0
300
1:40
140
1.0
141
40.0
290
     0
  0
SCALE
  5
52
102
{ACAD_REACTORS
330
47
102
}
330
47
100
AcDbScale
 70
     0
300
1:50
140
1.0
141
50.0
290
     0
  0
SCALE
  5
53
102
{ACAD_REACTORS
330
47
102
}
330
47
100
AcDbScale
 70
     0
300
1:100
140
1.0
141
100.0
290
     0
  0
SCALE
  5
54
102
{ACAD_REACTORS
330
47
102
}
330
47
100
AcDbScale
 70
     0
300
2:1
140
2.0
141
1.0
290
     0
  0
SCALE
  5
55
102
{ACAD_REACTORS
330
47
102
}
330
47
100
AcDbScale
 70
     0
300
4:1
140
4.0
141
1.0
290
     0
  0
SCALE
  5
56
102
{ACAD_REACTORS
330
47
102
}
330
47
100
AcDbScale
 70
     0
300
8:1
140
8.0
141
1.0
290
     0
  0
SCALE
  5
57
102
{ACAD_REACTORS
330
47
102
}
330
47
100
AcDbScale
 70
     0
300
10:1
140
10.0
141
1.0
290
     0
  0
SCALE
  5
58
102
{ACAD_REACTORS
330
47
102
}
330
47
100
AcDbScale
 70
     0
300
100:1
140
100.0
141
1.0
290
     0
  0
ENDSEC
  0
EOF
