  0
SECTION
  2
HEADER
  9
$ACADVER
  1
AC1015
  9
$ACADMAINTVER
 70
     6
  9
$DWGCODEPAGE
  3
ANSI_1251
  9
$INSBASE
 10
0.0
 20
0.0
 30
0.0
  9
$EXTMIN
 10
0.0
 20
0.0
 30
0.0
  9
$EXTMAX
 10
841.0
 20
594.0
 30
0.0
  9
$LIMMIN
 10
0.0
 20
0.0
  9
$LIMMAX
 10
841.0
 20
594.0
  9
$ORTHOMODE
 70
     0
  9
$REGENMODE
 70
     1
  9
$FILLMODE
 70
     1
  9
$QTEXTMODE
 70
     0
  9
$MIRRTEXT
 70
     1
  9
$LTSCALE
 40
1.0
  9
$ATTMODE
 70
     1
  9
$TEXTSIZE
 40
3.5
  9
$TRACEWID
 40
1.0
  9
$TEXTSTYLE
  7
Standard
  9
$CLAYER
  8
0
  9
$CELTYPE
  6
ByLayer
  9
$CECOLOR
 62
   256
  9
$CELTSCALE
 40
1.0
  9
$DISPSILH
 70
     0
  9
$DIMSCALE
 40
1.0
  9
$DIMASZ
 40
3.5
  9
$DIMEXO
 40
0.01
  9
$DIMDLI
 40
3.75
  9
$DIMRND
 40
0.0
  9
$DIMDLE
 40
0.0
  9
$DIMEXE
 40
1.0
  9
$DIMTP
 40
0.0
  9
$DIMTM
 40
0.0
  9
$DIMTXT
 40
3.5
  9
$DIMCEN
 40
2.5
  9
$DIMTSZ
 40
0.0
  9
$DIMTOL
 70
     0
  9
$DIMLIM
 70
     0
  9
$DIMTIH
 70
     1
  9
$DIMTOH
 70
     1
  9
$DIMSE1
 70
     0
  9
$DIMSE2
 70
     0
  9
$DIMTAD
 70
     1
  9
$DIMZIN
 70
     0
  9
$DIMBLK
  1

  9
$DIMASO
 70
     1
  9
$DIMSHO
 70
     1
  9
$DIMPOST
  1

  9
$DIMAPOST
  1

  9
$DIMALT
 70
     0
  9
$DIMALTD
 70
     3
  9
$DIMALTF
 40
0.0393700787
  9
$DIMLFAC
 40
1.0
  9
$DIMTOFL
 70
     1
  9
$DIMTVP
 40
0.0
  9
$DIMTIX
 70
     0
  9
$DIMSOXD
 70
     0
  9
$DIMSAH
 70
     0
  9
$DIMBLK1
  1

  9
$DIMBLK2
  1

  9
$DIMSTYLE
  2
ISO-25
  9
$DIMCLRD
 70
     0
  9
$DIMCLRE
 70
     0
  9
$DIMCLRT
 70
     0
  9
$DIMTFAC
 40
1.0
  9
$DIMGAP
 40
3.0
  9
$DIMJUST
 70
     0
  9
$DIMSD1
 70
     0
  9
$DIMSD2
 70
     0
  9
$DIMTOLJ
 70
     0
  9
$DIMTZIN
 70
     0
  9
$DIMALTZ
 70
     0
  9
$DIMALTTZ
 70
     0
  9
$DIMUPT
 70
     0
  9
$DIMDEC
 70
     2
  9
$DIMTDEC
 70
     3
  9
$DIMALTU
 70
     2
  9
$DIMALTTD
 70
     3
  9
$DIMTXSTY
  7
Standard
  9
$DIMAUNIT
 70
     0
  9
$DIMADEC
 70
     2
  9
$DIMALTRND
 40
0.0
  9
$DIMAZIN
 70
     0
  9
$DIMDSEP
 70
    44
  9
$DIMATFIT
 70
     3
  9
$DIMFRAC
 70
     0
  9
$DIMLDRBLK
  1

  9
$DIMLUNIT
 70
     2
  9
$DIMLWD
 70
    -2
  9
$DIMLWE
 70
    -2
  9
$DIMTMOVE
 70
     0
  9
$LUNITS
 70
     2
  9
$LUPREC
 70
     2
  9
$SKETCHINC
 40
1.0
  9
$FILLETRAD
 40
10.0
  9
$AUNITS
 70
     0
  9
$AUPREC
 70
     2
  9
$MENU
  1
.
  9
$ELEVATION
 40
0.0
  9
$PELEVATION
 40
0.0
  9
$THICKNESS
 40
0.0
  9
$LIMCHECK
 70
     0
  9
$CHAMFERA
 40
0.0
  9
$CHAMFERB
 40
0.0
  9
$CHAMFERC
 40
0.0
  9
$CHAMFERD
 40
0.0
  9
$SKPOLY
 70
     0
  9
$TDCREATE
 40
2459732.508987118
  9
$TDUCREATE
 40
2459732.383987118
  9
$TDUPDATE
 40
2459732.508988206
  9
$TDUUPDATE
 40
2459732.383988206
  9
$TDINDWG
 40
0.0000000116
  9
$TDUSRTIMER
 40
0.0000000116
  9
$USRTIMER
 70
     1
  9
$ANGBASE
 50
0.0
  9
$ANGDIR
 70
     0
  9
$PDMODE
 70
     0
  9
$PDSIZE
 40
-1.0
  9
$PLINEWID
 40
0.0
  9
$SPLFRAME
 70
     0
  9
$SPLINETYPE
 70
     6
  9
$SPLINESEGS
 70
     8
  9
$HANDSEED
  5
4D3
  9
$SURFTAB1
 70
     6
  9
$SURFTAB2
 70
     6
  9
$SURFTYPE
 70
     6
  9
$SURFU
 70
     6
  9
$SURFV
 70
     6
  9
$UCSBASE
  2

  9
$UCSNAME
  2

  9
$UCSORG
 10
0.0
 20
0.0
 30
0.0
  9
$UCSXDIR
 10
1.0
 20
0.0
 30
0.0
  9
$UCSYDIR
 10
0.0
 20
1.0
 30
0.0
  9
$UCSORTHOREF
  2

  9
$UCSORTHOVIEW
 70
     0
  9
$UCSORGTOP
 10
0.0
 20
0.0
 30
0.0
  9
$UCSORGBOTTOM
 10
0.0
 20
0.0
 30
0.0
  9
$UCSORGLEFT
 10
0.0
 20
0.0
 30
0.0
  9
$UCSORGRIGHT
 10
0.0
 20
0.0
 30
0.0
  9
$UCSORGFRONT
 10
0.0
 20
0.0
 30
0.0
  9
$UCSORGBACK
 10
0.0
 20
0.0
 30
0.0
  9
$PUCSBASE
  2

  9
$PUCSNAME
  2

  9
$PUCSORG
 10
0.0
 20
0.0
 30
0.0
  9
$PUCSXDIR
 10
1.0
 20
0.0
 30
0.0
  9
$PUCSYDIR
 10
0.0
 20
1.0
 30
0.0
  9
$PUCSORTHOREF
  2

  9
$PUCSORTHOVIEW
 70
     0
  9
$PUCSORGTOP
 10
0.0
 20
0.0
 30
0.0
  9
$PUCSORGBOTTOM
 10
0.0
 20
0.0
 30
0.0
  9
$PUCSORGLEFT
 10
0.0
 20
0.0
 30
0.0
  9
$PUCSORGRIGHT
 10
0.0
 20
0.0
 30
0.0
  9
$PUCSORGFRONT
 10
0.0
 20
0.0
 30
0.0
  9
$PUCSORGBACK
 10
0.0
 20
0.0
 30
0.0
  9
$USERI1
 70
     0
  9
$USERI2
 70
     0
  9
$USERI3
 70
     0
  9
$USERI4
 70
     0
  9
$USERI5
 70
     0
  9
$USERR1
 40
0.0
  9
$USERR2
 40
0.0
  9
$USERR3
 40
0.0
  9
$USERR4
 40
0.0
  9
$USERR5
 40
0.0
  9
$WORLDVIEW
 70
     1
  9
$SHADEDGE
 70
     3
  9
$SHADEDIF
 70
    70
  9
$TILEMODE
 70
     1
  9
$MAXACTVP
 70
    64
  9
$PINSBASE
 10
0.0
 20
0.0
 30
0.0
  9
$PLIMCHECK
 70
     0
  9
$PEXTMIN
 10
1.0000000000E+20
 20
1.0000000000E+20
 30
1.0000000000E+20
  9
$PEXTMAX
 10
-1.0000000000E+20
 20
-1.0000000000E+20
 30
-1.0000000000E+20
  9
$PLIMMIN
 10
0.0
 20
0.0
  9
$PLIMMAX
 10
420.0
 20
297.0
  9
$UNITMODE
 70
     0
  9
$VISRETAIN
 70
     1
  9
$PLINEGEN
 70
     0
  9
$PSLTSCALE
 70
     1
  9
$TREEDEPTH
 70
  3020
  9
$CMLSTYLE
  2
Standard
  9
$CMLJUST
 70
     0
  9
$CMLSCALE
 40
20.0
  9
$PROXYGRAPHICS
 70
     1
  9
$MEASUREMENT
 70
     1
  9
$CELWEIGHT
370
    -1
  9
$ENDCAPS
280
     0
  9
$JOINSTYLE
280
     0
  9
$LWDISPLAY
290
     1
  9
$INSUNITS
 70
     4
  9
$HYPERLINKBASE
  1

  9
$STYLESHEET
  1

  9
$XEDIT
290
     1
  9
$CEPSNTYPE
380
     0
  9
$PSTYLEMODE
290
     1
  9
$FINGERPRINTGUID
  2
{3BA3C852-AF7F-493D-B699-195CB800D307}
  9
$VERSIONGUID
  2
{FAEB1C32-E019-11D5-929B-00C0DF256EC4}
  9
$EXTNAMES
290
     1
  9
$PSVPSCALE
 40
0.0
  9
$OLESTARTUP
290
     0
  0
ENDSEC
  0
SECTION
  2
CLASSES
  0
CLASS
  1
ACDBDICTIONARYWDFLT
  2
AcDbDictionaryWithDefault
  3
ObjectDBX Classes
 90
        0
280
     0
281
     0
  0
CLASS
  1
VISUALSTYLE
  2
AcDbVisualStyle
  3
ObjectDBX Classes
 90
     4095
280
     0
281
     0
  0
CLASS
  1
MATERIAL
  2
AcDbMaterial
  3
ObjectDBX Classes
 90
     1153
280
     0
281
     0
  0
CLASS
  1
SCALE
  2
AcDbScale
  3
ObjectDBX Classes
 90
     1153
280
     0
281
     0
  0
CLASS
  1
TABLESTYLE
  2
AcDbTableStyle
  3
ObjectDBX Classes
 90
     4095
280
     0
281
     0
  0
CLASS
  1
MLEADERSTYLE
  2
AcDbMLeaderStyle
  3
ACDB_MLEADERSTYLE_CLASS
 90
     4095
280
     0
281
     0
  0
CLASS
  1
SUN
  2
AcDbSun
  3
SCENEOE
 90
     1153
280
     0
281
     0
  0
CLASS
  1
ACDBPLACEHOLDER
  2
AcDbPlaceHolder
  3
ObjectDBX Classes
 90
        0
280
     0
281
     0
  0
CLASS
  1
LAYOUT
  2
AcDbLayout
  3
ObjectDBX Classes
 90
        0
280
     0
281
     0
  0
ENDSEC
  0
SECTION
  2
TABLES
  0
TABLE
  2
VPORT
  5
8
330
0
100
AcDbSymbolTable
 70
     1
  0
VPORT
  5
29
330
8
100
AcDbSymbolTableRecord
100
AcDbViewportTableRecord
  2
*Active
 70
     0
 10
0.0
 20
0.0
 11
1.0
 21
1.0
 12
420.5
 22
297.0
 13
0.0
 23
0.0
 14
10.0
 24
10.0
 15
10.0
 25
10.0
 16
0.0
 26
0.0
 36
1.0
 17
0.0
 27
0.0
 37
0.0
 40
594.0
 41
1.4158249158
 42
50.0
 43
0.0
 44
0.0
 50
0.0
 51
0.0
 71
     0
 72
  2000
 73
     1
 74
     3
 75
     0
 76
     0
 77
     0
 78
     0
281
     0
 65
     1
110
0.0
120
0.0
130
0.0
111
1.0
121
0.0
131
0.0
112
0.0
122
1.0
132
0.0
 79
     0
146
0.0
  0
ENDTAB
  0
TABLE
  2
LTYPE
  5
5
330
0
100
AcDbSymbolTable
 70
     6
  0
LTYPE
  5
14
330
5
100
AcDbSymbolTableRecord
100
AcDbLinetypeTableRecord
  2
ByBlock
 70
     0
  3

 72
    65
 73
     0
 40
0.0
  0
LTYPE
  5
15
330
5
100
AcDbSymbolTableRecord
100
AcDbLinetypeTableRecord
  2
ByLayer
 70
     0
  3

 72
    65
 73
     0
 40
0.0
  0
LTYPE
  5
16
330
5
100
AcDbSymbolTableRecord
100
AcDbLinetypeTableRecord
  2
Continuous
 70
     0
  3
Solid line
 72
    65
 73
     0
 40
0.0
  0
LTYPE
  5
6E
330
5
100
AcDbSymbolTableRecord
100
AcDbLinetypeTableRecord
  2
HIDDEN
 70
     0
  3
Hidden __ __ __ __ __ __ __ __ __ __ __ __ __ __
 72
    65
 73
     2
 40
1.905
 49
1.27
 74
     0
 49
-0.635
 74
     0
  0
LTYPE
  5
6F
330
5
100
AcDbSymbolTableRecord
100
AcDbLinetypeTableRecord
  2
PHANTOM
 70
     0
  3
Phantom ______  __  __  ______  __  __  ______
 72
    65
 73
     6
 40
12.7
 49
6.35
 74
     0
 49
-1.27
 74
     0
 49
1.27
 74
     0
 49
-1.27
 74
     0
 49
1.27
 74
     0
 49
-1.27
 74
     0
  0
LTYPE
  5
70
330
5
100
AcDbSymbolTableRecord
100
AcDbLinetypeTableRecord
  2
CENTER
 70
     0
  3
Center ____ _ ____ _ ____ _ ____ _ ____ _ ____
 72
    65
 73
     4
 40
10.16
 49
6.35
 74
     0
 49
-1.27
 74
     0
 49
1.27
 74
     0
 49
-1.27
 74
     0
  0
LTYPE
  5
71
330
5
100
AcDbSymbolTableRecord
100
AcDbLinetypeTableRecord
  2
CENTERX2
 70
     0
  3
Center (2x) ________  __  ________  __  _____
 72
    65
 73
     4
 40
20.32
 49
12.7
 74
     0
 49
-2.54
 74
     0
 49
2.54
 74
     0
 49
-2.54
 74
     0
  0
LTYPE
  5
72
330
5
100
AcDbSymbolTableRecord
100
AcDbLinetypeTableRecord
  2
DOT2
 70
     0
  3
Dot (.5x) ........................................
 72
    65
 73
     2
 40
0.635
 49
0.0
 74
     0
 49
-0.635
 74
     0
  0
ENDTAB
  0
TABLE
  2
LAYER
  5
2
330
0
100
AcDbSymbolTable
 70
     1
  0
LAYER
  5
10
330
2
100
AcDbSymbolTableRecord
100
AcDbLayerTableRecord
  2
0
 70
     0
 62
     7
  6
Continuous
370
    -3
390
F
  0
ENDTAB
  0
TABLE
  2
STYLE
  5
3
330
0
100
AcDbSymbolTable
 70
     1
  0
STYLE
  5
11
330
3
100
AcDbSymbolTableRecord
100
AcDbTextStyleTableRecord
  2
Standard
 70
     0
 40
0.0
 41
1.0
 50
0.0
 71
     0
 42
3.5
  3
txt
  4

  0
ENDTAB
  0
TABLE
  2
VIEW
  5
6
330
0
100
AcDbSymbolTable
 70
     0
  0
ENDTAB
  0
TABLE
  2
UCS
  5
7
330
0
100
AcDbSymbolTable
 70
     0
  0
ENDTAB
  0
TABLE
  2
APPID
  5
9
330
0
100
AcDbSymbolTable
 70
     1
  0
APPID
  5
12
330
9
100
AcDbSymbolTableRecord
100
AcDbRegAppTableRecord
  2
ACAD
 70
     0
  0
ENDTAB
  0
TABLE
  2
DIMSTYLE
  5
A
330
0
100
AcDbSymbolTable
 70
     1
100
AcDbDimStyleTable
  0
DIMSTYLE
105
27
330
A
100
AcDbSymbolTableRecord
100
AcDbDimStyleTableRecord
  2
ISO-25
 70
     0
 41
2.5
 42
0.625
 43
3.75
 44
1.25
 73
     0
 74
     0
 77
     1
 78
     8
140
2.5
141
2.5
143
0.0393700787
147
0.625
171
     3
172
     1
178
     0
271
     2
272
     2
274
     3
278
    44
283
     0
284
     8
340
11
  0
ENDTAB
  0
TABLE
  2
BLOCK_RECORD
  5
1
330
0
100
AcDbSymbolTable
 70
     1
  0
BLOCK_RECORD
  5
1F
330
1
100
AcDbSymbolTableRecord
100
AcDbBlockTableRecord
  2
*Model_Space
340
22
  0
BLOCK_RECORD
  5
1B
330
1
100
AcDbSymbolTableRecord
100
AcDbBlockTableRecord
  2
*Paper_Space
340
1E
  0
BLOCK_RECORD
  5
23
330
1
100
AcDbSymbolTableRecord
100
AcDbBlockTableRecord
  2
*Paper_Space0
340
26
  0
ENDTAB
  0
ENDSEC
  0
SECTION
  2
BLOCKS
  0
BLOCK
  5
20
330
1F
100
AcDbEntity
  8
0
100
AcDbBlockBegin
  2
*Model_Space
 70
     0
 10
0.0
 20
0.0
 30
0.0
  3
*Model_Space
  1

  0
ENDBLK
  5
21
330
1F
100
AcDbEntity
  8
0
100
AcDbBlockEnd
  0
BLOCK
  5
1C
330
1B
100
AcDbEntity
 67
     1
  8
0
100
AcDbBlockBegin
  2
*Paper_Space
 70
     0
 10
0.0
 20
0.0
 30
0.0
  3
*Paper_Space
  1

  0
ENDBLK
  5
1D
330
1B
100
AcDbEntity
 67
     1
  8
0
100
AcDbBlockEnd
  0
BLOCK
  5
24
330
23
100
AcDbEntity
  8
0
100
AcDbBlockBegin
  2
*Paper_Space0
 70
     0
 10
0.0
 20
0.0
 30
0.0
  3
*Paper_Space0
  1

  0
ENDBLK
  5
25
330
23
100
AcDbEntity
  8
0
100
AcDbBlockEnd
  0
ENDSEC
  0
SECTION
  2
ENTITIES
  0
ARC
  5
73
330
1F
100
AcDbEntity
  8
0
  6
Continuous
 62
     7
370
    25
100
AcDbCircle
 10
864.4433501725
 20
363.028893827
 30
0.0
 40
0.5
100
AcDbArc
 50
180.0
 51
0.0
  0
ARC
  5
74
330
1F
100
AcDbEntity
  8
0
  6
Continuous
 62
     7
370
    25
100
AcDbCircle
 10
864.4433501725
 20
374.6288938272
 30
0.0
 40
0.5000000000001137
100
AcDbArc
 50
0.0
 51
180.0
  0
LINE
  5
75
330
1F
100
AcDbEntity
  8
0
  6
Continuous
 62
     7
370
    25
100
AcDbLine
 10
859.9433501725
 20
363.8288938271
 30
0.0
 11
860.1539292275
 21
363.4641602049
 31
0.0
  0
LINE
  5
76
330
1F
100
AcDbEntity
  8
0
  6
Continuous
 62
     7
370
    25
100
AcDbLine
 10
874.4021001725
 20
371.8288938271
 30
0.0
 11
865.7433501725
 21
371.8288938271
 31
0.0
  0
LINE
  5
77
330
1F
100
AcDbEntity
  8
0
  6
Continuous
 62
     7
370
    25
100
AcDbLine
 10
865.7433501725
 20
365.8288938271
 30
0.0
 11
874.4021001725
 21
365.8288938271
 31
0.0
  0
LINE
  5
78
330
1F
100
AcDbEntity
  8
0
  6
Continuous
 62
     7
370
    25
100
AcDbLine
 10
874.4021001725
 20
365.8288938271
 30
0.0
 11
874.9433501725
 21
366.3701438271
 31
0.0
  0
LINE
  5
79
330
1F
100
AcDbEntity
  8
0
  6
Continuous
 62
     7
370
    25
100
AcDbLine
 10
874.9433501725
 20
371.2876438271
 30
0.0
 11
874.4021001725
 21
371.8288938271
 31
0.0
  0
LINE
  5
7A
330
1F
100
AcDbEntity
  8
0
  6
Continuous
 62
     7
370
    25
100
AcDbLine
 10
860.1539292275
 20
374.1936274493
 30
0.0
 11
859.9433501725
 21
373.8288938271
 31
0.0
  0
ARC
  5
7B
330
1F
100
AcDbEntity
  8
0
  6
Continuous
 62
     7
370
    25
100
AcDbCircle
 10
864.4433501725
 20
349.6288938272
 30
0.0
 40
0.5000000000001137
100
AcDbArc
 50
0.0
 51
113.5781784782
  0
LINE
  5
7C
330
1F
100
AcDbEntity
  8
0
  6
Continuous
 62
     7
370
    25
100
AcDbLine
 10
874.4021001725
 20
346.8288938271
 30
0.0
 11
865.7433501725
 21
346.8288938271
 31
0.0
  0
LINE
  5
7D
330
1F
100
AcDbEntity
  8
0
  6
Continuous
 62
     7
370
    25
100
AcDbLine
 10
874.4021001725
 20
340.8288938271
 30
0.0
 11
874.9433501725
 21
341.3701438271
 31
0.0
  0
LINE
  5
7E
330
1F
100
AcDbEntity
  8
0
  6
Continuous
 62
     7
370
    25
100
AcDbLine
 10
874.9433501725
 20
346.2876438271
 30
0.0
 11
874.4021001725
 21
346.8288938271
 31
0.0
  0
ARC
  5
7F
330
1F
100
AcDbEntity
  8
0
  6
Continuous
 62
     7
370
    25
100
AcDbCircle
 10
-38.9566498275
 20
349.6288938272
 30
0.0
 40
0.5000000000000017
100
AcDbArc
 50
66.4218215218
 51
180.0
  0
LINE
  5
80
330
1F
100
AcDbEntity
  8
0
  6
Continuous
 62
     7
370
    25
100
AcDbLine
 10
-40.2566498275
 20
346.8288938271
 30
0.0
 11
-48.9153998275
 21
346.8288938271
 31
0.0
  0
LINE
  5
81
330
1F
100
AcDbEntity
  8
0
  6
Continuous
 62
     7
370
    25
100
AcDbLine
 10
-48.9153998275
 20
346.8288938271
 30
0.0
 11
-49.4566498275
 21
346.2876438271
 31
0.0
  0
LINE
  5
82
330
1F
100
AcDbEntity
  8
0
  6
Continuous
 62
     7
370
    25
100
AcDbLine
 10
-49.4566498275
 20
341.3701438271
 30
0.0
 11
-48.9153998275
 21
340.8288938271
 31
0.0
  0
ARC
  5
83
330
1F
100
AcDbEntity
  8
0
  6
Continuous
 62
     7
370
    25
100
AcDbCircle
 10
-38.9566498275
 20
374.6288938272
 30
0.0
 40
0.5
100
AcDbArc
 50
0.0
 51
180.0
  0
ARC
  5
84
330
1F
100
AcDbEntity
  8
0
  6
Continuous
 62
     7
370
    25
100
AcDbCircle
 10
-38.9566498275
 20
363.028893827
 30
0.0
 40
0.5
100
AcDbArc
 50
180.0
 51
0.0
  0
LINE
  5
85
330
1F
100
AcDbEntity
  8
0
  6
Continuous
 62
     7
370
    25
100
AcDbLine
 10
-48.9153998275
 20
365.8288938271
 30
0.0
 11
-40.2566498275
 21
365.8288938271
 31
0.0
  0
LINE
  5
86
330
1F
100
AcDbEntity
  8
0
  6
Continuous
 62
     7
370
    25
100
AcDbLine
 10
-40.2566498275
 20
371.8288938271
 30
0.0
 11
-48.9153998275
 21
371.8288938271
 31
0.0
  0
LINE
  5
87
330
1F
100
AcDbEntity
  8
0
  6
Continuous
 62
     7
370
    25
100
AcDbLine
 10
-48.9153998275
 20
371.8288938271
 30
0.0
 11
-49.4566498275
 21
371.2876438271
 31
0.0
  0
LINE
  5
88
330
1F
100
AcDbEntity
  8
0
  6
Continuous
 62
     7
370
    25
100
AcDbLine
 10
-49.4566498275
 20
366.3701438271
 30
0.0
 11
-48.9153998275
 21
365.8288938271
 31
0.0
  0
SPLINE
  5
89
330
1F
100
AcDbEntity
  8
0
  6
Continuous
 62
     7
370
    25
100
AcDbSpline
210
0.0
220
0.0
230
1.0
 70
    24
 71
     3
 72
    16
 73
    12
 74
     0
 42
0.000000001
 43
0.00000001
 40
0.0
 40
0.0
 40
0.0
 40
0.0
 40
0.1658292928977499
 40
0.2550981074401236
 40
0.3462613343064168
 40
0.4374245611727107
 40
0.5266933757150836
 40
0.6925226686128337
 40
0.8583519615105838
 40
0.9476207760529565
 40
1.0
 40
1.0
 40
1.0
 40
1.0
 10
863.9433501724773
 20
372.5545834517309
 30
0.0
 10
863.9433501724772
 20
371.9456756540558
 30
0.0
 10
863.9433501724772
 20
371.0089821177203
 30
0.0
 10
863.9433501724774
 20
369.5091834264843
 30
0.0
 10
863.9433501724774
 20
368.3172263466692
 30
0.0
 10
863.9433501724772
 20
367.1427980724629
 30
0.0
 10
863.9433501724774
 20
365.7391847791756
 30
0.0
 10
863.9433501724773
 20
364.2718416983935
 30
0.0
 10
863.9433501724774
 20
363.3726543475728
 30
0.0
 10
863.9433501724773
 20
363.0448230204585
 30
0.0
 10
863.9433501724772
 20
363.0552134358987
 30
0.0
 10
863.9433501724773
 20
363.0590556486329
 30
0.0
  0
SPLINE
  5
8A
330
1F
100
AcDbEntity
  8
0
  6
Continuous
 62
     7
370
    25
100
AcDbSpline
210
0.0
220
0.0
230
1.0
 70
     8
 71
     3
 72
     8
 73
     4
 74
     0
 42
0.000000001
 43
0.00000001
 40
0.0
 40
0.0
 40
0.0
 40
0.0
 40
1.0
 40
1.0
 40
1.0
 40
1.0
 10
859.9433501724844
 20
369.6943883977142
 30
0.0
 10
859.9433501724844
 20
368.7239824618241
 30
0.0
 10
860.1176654728638
 20
367.7801361198929
 30
0.0
 10
860.3899321598758
 20
366.8512141652663
 30
0.0
  0
SPLINE
  5
8B
330
1F
100
AcDbEntity
  8
0
  6
Continuous
 62
     7
370
    25
100
AcDbSpline
210
0.0
220
0.0
230
1.0
 70
     8
 71
     3
 72
     8
 73
     4
 74
     0
 42
0.000000001
 43
0.00000001
 40
0.0
 40
0.0
 40
0.0
 40
0.0
 40
1.0
 40
1.0
 40
1.0
 40
1.0
 10
860.3899321598757
 20
372.5375626301622
 30
0.0
 10
860.1176654728642
 20
371.6086406755372
 30
0.0
 10
859.9433501724844
 20
370.6647943336027
 30
0.0
 10
859.9433501724844
 20
369.6943883977142
 30
0.0
  0
LINE
  5
8C
330
1F
100
AcDbEntity
  8
0
  6
Continuous
 62
     7
370
    25
100
AcDbLine
 10
863.9433501725
 20
372.5375626302
 30
0.0
 11
860.3899321599
 21
372.5375626302
 31
0.0
  0
LINE
  5
8D
330
1F
100
AcDbEntity
  8
0
  6
Continuous
 62
     7
370
    25
100
AcDbLine
 10
863.9433501725
 20
366.8512141653
 30
0.0
 11
860.3899321599
 21
366.8512141653
 31
0.0
  0
LINE
  5
8E
330
1F
100
AcDbEntity
  8
0
  6
Continuous
 62
     7
370
    25
100
AcDbLine
 10
859.9433501725
 20
369.6943883977
 30
0.0
 11
859.9433501725
 21
364.9968797637
 31
0.0
  0
SPLINE
  5
8F
330
1F
100
AcDbEntity
  8
0
  6
Continuous
 62
     7
370
    25
100
AcDbSpline
210
0.0
220
0.0
230
1.0
 70
     8
 71
     3
 72
     8
 73
     4
 74
     0
 42
0.000000001
 43
0.00000001
 40
0.0
 40
0.0
 40
0.0
 40
0.0
 40
1.0
 40
1.0
 40
1.0
 40
1.0
 10
860.3899321598758
 20
366.8512141652599
 30
0.0
 10
860.1176654728644
 20
366.2453659843288
 30
0.0
 10
859.9433501724844
 20
365.6297840331299
 30
0.0
 10
859.9433501724844
 20
364.9968797637285
 30
0.0
  0
SPLINE
  5
90
330
1F
100
AcDbEntity
  8
0
  6
Continuous
 62
     7
370
    25
100
AcDbSpline
210
0.0
220
0.0
230
1.0
 70
     8
 71
     3
 72
     8
 73
     4
 74
     0
 42
0.000000001
 43
0.00000001
 40
0.0
 40
0.0
 40
0.0
 40
0.0
 40
1.0
 40
1.0
 40
1.0
 40
1.0
 10
859.9433501724844
 20
364.9968797637285
 30
0.0
 10
859.9433501724844
 20
364.363975494326
 30
0.0
 10
860.1176654728639
 20
363.7483935431293
 30
0.0
 10
860.3899321598758
 20
363.1425453621972
 30
0.0
  0
LINE
  5
91
330
1F
100
AcDbEntity
  8
0
  6
Continuous
 62
     7
370
    25
100
AcDbLine
 10
863.9433501725
 20
363.1425453622
 30
0.0
 11
860.3899321599
 21
363.1425453622
 31
0.0
  0
LINE
  5
92
330
1F
100
AcDbEntity
  8
0
  6
Continuous
 62
     7
370
    25
100
AcDbLine
 10
859.9433501725
 20
373.5264024611
 30
0.0
 11
859.9433501725
 21
369.6943883977
 31
0.0
  0
SPLINE
  5
93
330
1F
100
AcDbEntity
  8
0
  6
Continuous
 62
     7
370
    25
100
AcDbSpline
210
0.0
220
0.0
230
1.0
 70
     8
 71
     3
 72
     8
 73
     4
 74
     0
 42
0.000000001
 43
0.00000001
 40
0.0
 40
0.0
 40
0.0
 40
0.0
 40
1.0
 40
1.0
 40
1.0
 40
1.0
 10
859.9433501724842
 20
373.5264024610837
 30
0.0
 10
859.9433501724842
 20
373.1889007945961
 30
0.0
 10
860.1176654728637
 20
372.8606364038616
 30
0.0
 10
860.3899321598756
 20
372.5375626301673
 30
0.0
  0
SPLINE
  5
94
330
1F
100
AcDbEntity
  8
0
  6
Continuous
 62
     7
370
    25
100
AcDbSpline
210
0.0
220
0.0
230
1.0
 70
     8
 71
     3
 72
     8
 73
     4
 74
     0
 42
0.000000001
 43
0.00000001
 40
0.0
 40
0.0
 40
0.0
 40
0.0
 40
1.0
 40
1.0
 40
1.0
 40
1.0
 10
860.3899321598756
 20
374.5152422920001
 30
0.0
 10
860.1176654728641
 20
374.1921685183063
 30
0.0
 10
859.9433501724842
 20
373.8639041275708
 30
0.0
 10
859.9433501724842
 20
373.5264024610837
 30
0.0
  0
LINE
  5
95
330
1F
100
AcDbEntity
  8
0
  6
Continuous
 62
     7
370
    25
100
AcDbLine
 10
863.9433501725
 20
374.515242292
 30
0.0
 11
860.3899321599
 21
374.515242292
 31
0.0
  0
LINE
  5
96
330
1F
100
AcDbEntity
  8
0
  6
Continuous
 62
     7
370
    25
100
AcDbLine
 10
860.3899321599
 20
363.1425453622
 30
0.0
 11
860.2259141247
 21
363.5057207047
 31
0.0
  0
LINE
  5
97
330
1F
100
AcDbEntity
  8
0
  6
Continuous
 62
     7
370
    25
100
AcDbLine
 10
859.9433501725
 20
364.9968797637
 30
0.0
 11
859.9433501725
 21
363.8288938271
 31
0.0
  0
LINE
  5
98
330
1F
100
AcDbEntity
  8
0
  6
Continuous
 62
     7
370
    25
100
AcDbLine
 10
874.4021001725
 20
365.8288938271
 30
0.0
 11
874.4021001725
 21
371.8288938271
 31
0.0
  0
LINE
  5
99
330
1F
100
AcDbEntity
  8
0
  6
Continuous
 62
     7
370
    25
100
AcDbLine
 10
874.9433501725
 20
366.9445009114
 30
0.0
 11
874.9433501725
 21
371.2876438271
 31
0.0
  0
LINE
  5
9A
330
1F
100
AcDbEntity
  8
0
  6
Continuous
 62
     7
370
    25
100
AcDbLine
 10
874.9433501725
 20
366.3701438271
 30
0.0
 11
874.9433501725
 21
366.9445009114
 31
0.0
  0
LINE
  5
9B
330
1F
100
AcDbEntity
  8
0
  6
Continuous
 62
     7
370
    25
100
AcDbLine
 10
859.9433501725
 20
373.8288938271
 30
0.0
 11
859.9433501725
 21
373.5264024611
 31
0.0
  0
CIRCLE
  5
9C
330
1F
100
AcDbEntity
  8
0
  6
Continuous
 62
     7
370
    25
100
AcDbCircle
 10
15.2433501725
 20
315.8288938271
 30
0.0
 40
0.5
  0
SPLINE
  5
9D
330
1F
100
AcDbEntity
  8
0
  6
Continuous
 62
     7
370
    25
100
AcDbSpline
210
0.0
220
0.0
230
1.0
 70
     8
 71
     3
 72
    20
 73
    16
 74
     0
 42
0.000000001
 43
0.00000001
 40
0.0
 40
0.0
 40
0.0
 40
0.0
 40
0.1249999999999952
 40
0.1249999999999952
 40
0.2499999999999905
 40
0.2499999999999905
 40
0.3749999999999857
 40
0.3749999999999857
 40
0.4999999999999809
 40
0.4999999999999809
 40
0.7499999999999984
 40
0.7499999999999984
 40
0.8749999999999992
 40
0.8749999999999992
 40
1.0
 40
1.0
 40
1.0
 40
1.0
 10
907.8433501724774
 20
338.4288938270925
 30
0.0
 10
908.0017293601281
 20
338.467934557947
 30
0.0
 10
908.1579750848199
 20
338.5064532621469
 30
0.0
 10
908.4659669342366
 20
338.5838600134548
 30
0.0
 10
908.6186110417076
 20
338.6230044314415
 30
0.0
 10
908.9076953308947
 20
338.7001551853567
 30
0.0
 10
909.0454998690788
 20
338.7384827670977
 30
0.0
 10
909.3071185447175
 20
338.8160290875742
 30
0.0
 10
909.4298648514006
 20
338.8550052952429
 30
0.0
 10
909.7611892283479
 20
338.9705001516879
 30
0.0
 10
909.9402003523761
 20
339.0484125953581
 30
0.0
 10
910.1198154517572
 20
339.163892520759
 30
0.0
 10
910.1660598006248
 20
339.202758316624
 30
0.0
 10
910.2278131066361
 20
339.2805326502926
 30
0.0
 10
910.2433501724773
 20
339.3191424172472
 30
0.0
 10
910.2433501724774
 20
339.3581831489739
 30
0.0
  0
LINE
  5
9E
330
1F
100
AcDbEntity
  8
0
  6
Continuous
 62
     7
370
    25
100
AcDbLine
 10
910.2433501725
 20
196.2996045052
 30
0.0
 11
910.2433501725
 21
339.358183149
 31
0.0
  0
SPLINE
  5
9F
330
1F
100
AcDbEntity
  8
0
  6
Continuous
 62
     7
370
    25
100
AcDbSpline
210
0.0
220
0.0
230
1.0
 70
     8
 71
     3
 72
    20
 73
    16
 74
     0
 42
0.000000001
 43
0.00000001
 40
0.0
 40
0.0
 40
0.0
 40
0.0
 40
0.1249999999999993
 40
0.1249999999999993
 40
0.2499999999999987
 40
0.2499999999999987
 40
0.374999999999998
 40
0.374999999999998
 40
0.4999999999999973
 40
0.4999999999999973
 40
0.7499999999999987
 40
0.7499999999999987
 40
0.8749999999999993
 40
0.8749999999999993
 40
1.0
 40
1.0
 40
1.0
 40
1.0
 10
910.2433501724774
 20
196.2996045052113
 30
0.0
 10
910.2433501724773
 20
196.3386452360659
 30
0.0
 10
910.2278136120029
 20
196.3771639402657
 30
0.0
 10
910.1664952600423
 20
196.4545706915736
 30
0.0
 10
910.120071514455
 20
196.4937151095603
 30
0.0
 10
910.0001206443011
 20
196.5708658634755
 30
0.0
 10
909.9265160000176
 20
196.6091934452165
 30
0.0
 10
909.7517856339219
 20
196.6867397656931
 30
0.0
 10
909.6509350050204
 20
196.7257159733618
 30
0.0
 10
909.3196497250365
 20
196.8412108298068
 30
0.0
 10
909.0519695636527
 20
196.9191232734769
 30
0.0
 10
908.6192955375973
 20
197.0346031988777
 30
0.0
 10
908.4677774507461
 20
197.0734689947428
 30
0.0
 10
908.15835169336
 20
197.1512433284113
 30
0.0
 10
908.0017293636662
 20
197.189853095366
 30
0.0
 10
907.8433501724774
 20
197.2288938270927
 30
0.0
  0
SPLINE
  5
A0
330
1F
100
AcDbEntity
  8
0
  6
Continuous
 62
     7
370
    25
100
AcDbSpline
210
0.0
220
0.0
230
1.0
 70
     8
 71
     3
 72
    20
 73
    16
 74
     0
 42
0.000000001
 43
0.00000001
 40
0.0
 40
0.0
 40
0.0
 40
0.0
 40
0.1249999999999993
 40
0.1249999999999993
 40
0.2499999999999987
 40
0.2499999999999987
 40
0.374999999999998
 40
0.374999999999998
 40
0.4999999999999973
 40
0.4999999999999973
 40
0.7499999999999989
 40
0.7499999999999989
 40
0.8749999999999996
 40
0.8749999999999996
 40
1.0
 40
1.0
 40
1.0
 40
1.0
 10
907.8433501724774
 20
197.2288938270928
 30
0.0
 10
907.882390903332
 20
197.0705146394421
 30
0.0
 10
907.9209096075319
 20
196.9142689147503
 30
0.0
 10
907.9983163588399
 20
196.6062770653337
 30
0.0
 10
908.0374607768264
 20
196.4536329578626
 30
0.0
 10
908.1146115307415
 20
196.1645486686755
 30
0.0
 10
908.1529391124823
 20
196.0267441304914
 30
0.0
 10
908.2304854329591
 20
195.7651254548526
 30
0.0
 10
908.2694616406279
 20
195.6423791481699
 30
0.0
 10
908.384956497073
 20
195.3110547712222
 30
0.0
 10
908.4628689407429
 20
195.1320436471939
 30
0.0
 10
908.578348866144
 20
194.952428547813
 30
0.0
 10
908.6172146620088
 20
194.9061841989453
 30
0.0
 10
908.6949889956772
 20
194.8444308929341
 30
0.0
 10
908.7335987626319
 20
194.8288938270927
 30
0.0
 10
908.7726394943587
 20
194.8288938270927
 30
0.0
  0
LINE
  5
A1
330
1F
100
AcDbEntity
  8
0
  6
Continuous
 62
     7
370
    25
100
AcDbLine
 10
-83.2859391494
 20
194.8288938271
 30
0.0
 11
908.7726394944
 21
194.8288938271
 31
0.0
  0
SPLINE
  5
A2
330
1F
100
AcDbEntity
  8
0
  6
Continuous
 62
     7
370
    25
100
AcDbSpline
210
0.0
220
0.0
230
1.0
 70
     8
 71
     3
 72
    20
 73
    16
 74
     0
 42
0.000000001
 43
0.00000001
 40
0.0
 40
0.0
 40
0.0
 40
0.0
 40
0.125
 40
0.125
 40
0.25
 40
0.25
 40
0.375
 40
0.375
 40
0.5
 40
0.5
 40
0.75
 40
0.75
 40
0.875
 40
0.875
 40
1.0
 40
1.0
 40
1.0
 40
1.0
 10
-83.2859391494038
 20
194.8288938270927
 30
0.0
 10
-83.24689841854921
 20
194.8288938270927
 30
0.0
 10
-83.20837971434958
 20
194.8444303875675
 30
0.0
 10
-83.1309729630415
 20
194.9057487395281
 30
0.0
 10
-83.09182854505481
 20
194.9521724851149
 30
0.0
 10
-83.01467779113969
 20
195.072123355269
 30
0.0
 10
-82.97635020939876
 20
195.1457279995524
 30
0.0
 10
-82.89880388892223
 20
195.320458365648
 30
0.0
 10
-82.85982768125344
 20
195.4213089945496
 30
0.0
 10
-82.74433282480864
 20
195.7525942745335
 30
0.0
 10
-82.66642038113837
 20
196.0202744359173
 30
0.0
 10
-82.55094045573757
 20
196.4529484619727
 30
0.0
 10
-82.51207465987248
 20
196.6044665488238
 30
0.0
 10
-82.43430032620391
 20
196.9138923062099
 30
0.0
 10
-82.39569055924922
 20
197.0705146359037
 30
0.0
 10
-82.3566498275225
 20
197.2288938270924
 30
0.0
  0
SPLINE
  5
A3
330
1F
100
AcDbEntity
  8
0
  6
Continuous
 62
     7
370
    25
100
AcDbSpline
210
0.0
220
0.0
230
1.0
 70
     8
 71
     3
 72
    14
 73
    10
 74
     0
 42
0.000000001
 43
0.00000001
 40
0.0
 40
0.0
 40
0.0
 40
0.0
 40
0.25
 40
0.25
 40
0.5
 40
0.5
 40
0.75
 40
0.75
 40
1.0
 40
1.0
 40
1.0
 40
1.0
 10
907.8433501724774
 20
197.2288938270927
 30
0.0
 10
907.921551587499
 20
197.0967084112337
 30
0.0
 10
907.9972615347962
 20
196.9687263927001
 30
0.0
 10
908.152541946443
 20
196.7261023677527
 30
0.0
 10
908.2295517960259
 20
196.6156601033429
 30
0.0
 10
908.3849752820535
 20
196.4296632061496
 30
0.0
 10
908.461924998972
 20
196.3558622273111
 30
0.0
 10
908.6173549782211
 20
196.2550436429161
 30
0.0
 10
908.6944380867938
 20
196.2288938270927
 30
0.0
 10
908.7726394943587
 20
196.2288938270927
 30
0.0
  0
LINE
  5
A4
330
1F
100
AcDbEntity
  8
0
  6
Continuous
 62
     7
370
    25
100
AcDbLine
 10
908.7726394944
 20
194.8288938271
 30
0.0
 11
908.7726394944
 21
196.2288938271
 31
0.0
  0
SPLINE
  5
A5
330
1F
100
AcDbEntity
  8
0
  6
Continuous
 62
     7
370
    25
100
AcDbSpline
210
0.0
220
0.0
230
1.0
 70
     8
 71
     3
 72
    14
 73
    10
 74
     0
 42
0.000000001
 43
0.00000001
 40
0.0
 40
0.0
 40
0.0
 40
0.0
 40
0.25
 40
0.25
 40
0.5
 40
0.5
 40
0.75
 40
0.75
 40
1.0
 40
1.0
 40
1.0
 40
1.0
 10
907.8433501724774
 20
338.4288938270925
 30
0.0
 10
907.9755355883364
 20
338.5070952421142
 30
0.0
 10
908.1035176068699
 20
338.5828051894111
 30
0.0
 10
908.3461416318172
 20
338.7380856010581
 30
0.0
 10
908.4565838962272
 20
338.815095450641
 30
0.0
 10
908.6425807934204
 20
338.9705189366686
 30
0.0
 10
908.716381772259
 20
339.047468653587
 30
0.0
 10
908.8172003566541
 20
339.2028986328363
 30
0.0
 10
908.8433501724775
 20
339.2799817414089
 30
0.0
 10
908.8433501724775
 20
339.3581831489739
 30
0.0
  0
LINE
  5
A6
330
1F
100
AcDbEntity
  8
0
  6
Continuous
 62
     7
370
    25
100
AcDbLine
 10
910.2433501725
 20
339.358183149
 30
0.0
 11
908.8433501725
 21
339.358183149
 31
0.0
  0
LINE
  5
A7
330
1F
100
AcDbEntity
  8
0
  6
Continuous
 62
     7
370
    25
100
AcDbLine
 10
910.2433501725
 20
196.2996045052
 30
0.0
 11
908.8433501725
 21
196.2996045052
 31
0.0
  0
SPLINE
  5
A8
330
1F
100
AcDbEntity
  8
0
  6
Continuous
 62
     7
370
    25
100
AcDbSpline
210
0.0
220
0.0
230
1.0
 70
     8
 71
     3
 72
    14
 73
    10
 74
     0
 42
0.000000001
 43
0.00000001
 40
0.0
 40
0.0
 40
0.0
 40
0.0
 40
0.2500000000000003
 40
0.2500000000000003
 40
0.5000000000000002
 40
0.5000000000000002
 40
0.7500000000000001
 40
0.7500000000000001
 40
1.0
 40
1.0
 40
1.0
 40
1.0
 10
908.8433501724775
 20
196.2996045052113
 30
0.0
 10
908.8433501724776
 20
196.377805920233
 30
0.0
 10
908.8177915077974
 20
196.4535158675299
 30
0.0
 10
908.7176634792007
 20
196.6087962791769
 30
0.0
 10
908.6440992998961
 20
196.6858061287599
 30
0.0
 10
908.4585616642044
 20
196.8412296147874
 30
0.0
 10
908.3483967432446
 20
196.9181793317057
 30
0.0
 10
908.1057849865554
 20
197.0736093109549
 30
0.0
 10
907.9755355757324
 20
197.1506924195276
 30
0.0
 10
907.8433501724774
 20
197.2288938270927
 30
0.0
  0
SPLINE
  5
A9
330
1F
100
AcDbEntity
  8
0
  6
Continuous
 62
     7
370
    25
100
AcDbSpline
210
0.0
220
0.0
230
1.0
 70
     8
 71
     3
 72
    20
 73
    16
 74
     0
 42
0.000000001
 43
0.00000001
 40
0.0
 40
0.0
 40
0.0
 40
0.0
 40
0.1250000000000039
 40
0.1250000000000039
 40
0.2500000000000077
 40
0.2500000000000077
 40
0.3750000000000115
 40
0.3750000000000115
 40
0.5000000000000154
 40
0.5000000000000154
 40
0.7500000000000129
 40
0.7500000000000129
 40
0.8750000000000064
 40
0.8750000000000064
 40
1.0
 40
1.0
 40
1.0
 40
1.0
 10
-82.35664982752239
 20
338.4288938270923
 30
0.0
 10
-82.39569055837698
 20
338.5872730147431
 30
0.0
 10
-82.43420926257677
 20
338.7435187394348
 30
0.0
 10
-82.51161601388458
 20
339.0515105888514
 30
0.0
 10
-82.55076043187131
 20
339.2041546963225
 30
0.0
 10
-82.62791118578639
 20
339.4932389855097
 30
0.0
 10
-82.6662387675276
 20
339.6310435236937
 30
0.0
 10
-82.74378508800423
 20
339.8926621993326
 30
0.0
 10
-82.78276129567286
 20
340.0154085060153
 30
0.0
 10
-82.89825615211794
 20
340.3467328829629
 30
0.0
 10
-82.9761685957881
 20
340.5257440069912
 30
0.0
 10
-83.09164852118906
 20
340.705359106372
 30
0.0
 10
-83.1305143170541
 20
340.7516034552398
 30
0.0
 10
-83.20828865072272
 20
340.813356761251
 30
0.0
 10
-83.2468984176773
 20
340.8288938270925
 30
0.0
 10
-83.28593914940392
 20
340.8288938270925
 30
0.0
  0
SPLINE
  5
AA
330
1F
100
AcDbEntity
  8
0
  6
Continuous
 62
     7
370
    25
100
AcDbSpline
210
0.0
220
0.0
230
1.0
 70
     8
 71
     3
 72
    14
 73
    10
 74
     0
 42
0.000000001
 43
0.00000001
 40
0.0
 40
0.0
 40
0.0
 40
0.0
 40
0.2499999999999999
 40
0.2499999999999999
 40
0.4999999999999999
 40
0.4999999999999999
 40
0.7499999999999998
 40
0.7499999999999998
 40
1.0
 40
1.0
 40
1.0
 40
1.0
 10
-82.35664982752239
 20
338.4288938270925
 30
0.0
 10
-82.43485124254413
 20
338.5610792429515
 30
0.0
 10
-82.51056118984113
 20
338.6890612614849
 30
0.0
 10
-82.6658416014881
 20
338.9316852864322
 30
0.0
 10
-82.74285145107102
 20
339.0421275508423
 30
0.0
 10
-82.89827493709845
 20
339.2281244480356
 30
0.0
 10
-82.97522465401697
 20
339.3019254268739
 30
0.0
 10
-83.13065463326608
 20
339.402744011269
 30
0.0
 10
-83.20773774183866
 20
339.4288938270924
 30
0.0
 10
-83.28593914940392
 20
339.4288938270925
 30
0.0
  0
LINE
  5
AB
330
1F
100
AcDbEntity
  8
0
  6
Continuous
 62
     7
370
    25
100
AcDbLine
 10
-83.2859391494
 20
340.8288938271
 30
0.0
 11
-83.2859391494
 21
339.4288938271
 31
0.0
  0
LINE
  5
AC
330
1F
100
AcDbEntity
  8
0
  6
Continuous
 62
     7
370
    25
100
AcDbLine
 10
908.7726394944
 20
340.8288938271
 30
0.0
 11
-83.2859391494
 21
340.8288938271
 31
0.0
  0
SPLINE
  5
AD
330
1F
100
AcDbEntity
  8
0
  6
Continuous
 62
     7
370
    25
100
AcDbSpline
210
0.0
220
0.0
230
1.0
 70
     8
 71
     3
 72
    20
 73
    16
 74
     0
 42
0.000000001
 43
0.00000001
 40
0.0
 40
0.0
 40
0.0
 40
0.0
 40
0.1250000000000014
 40
0.1250000000000014
 40
0.2500000000000027
 40
0.2500000000000027
 40
0.3750000000000041
 40
0.3750000000000041
 40
0.5000000000000053
 40
0.5000000000000053
 40
0.7500000000000079
 40
0.7500000000000079
 40
0.875000000000004
 40
0.875000000000004
 40
1.0
 40
1.0
 40
1.0
 40
1.0
 10
908.7726394943589
 20
340.8288938270925
 30
0.0
 10
908.7335987635043
 20
340.8288938270925
 30
0.0
 10
908.6950800593046
 20
340.8133572666176
 30
0.0
 10
908.6176733079967
 20
340.752038914657
 30
0.0
 10
908.5785288900099
 20
340.7056151690701
 30
0.0
 10
908.5013781360949
 20
340.5856642989161
 30
0.0
 10
908.4630505543538
 20
340.5120596546327
 30
0.0
 10
908.3855042338773
 20
340.337329288537
 30
0.0
 10
908.3465280262084
 20
340.2364786596355
 30
0.0
 10
908.2310331697634
 20
339.9051933796515
 30
0.0
 10
908.1531207260933
 20
339.6375132182678
 30
0.0
 10
908.0376408006925
 20
339.2048391922124
 30
0.0
 10
907.9987750048276
 20
339.0533211053612
 30
0.0
 10
907.921000671159
 20
338.7438953479751
 30
0.0
 10
907.8823909042043
 20
338.5872730182813
 30
0.0
 10
907.8433501724775
 20
338.4288938270926
 30
0.0
  0
SPLINE
  5
AE
330
1F
100
AcDbEntity
  8
0
  6
Continuous
 62
     7
370
    25
100
AcDbSpline
210
0.0
220
0.0
230
1.0
 70
     8
 71
     3
 72
    20
 73
    16
 74
     0
 42
0.000000001
 43
0.00000001
 40
0.0
 40
0.0
 40
0.0
 40
0.0
 40
0.1249999999999943
 40
0.1249999999999943
 40
0.2499999999999886
 40
0.2499999999999886
 40
0.3749999999999828
 40
0.3749999999999828
 40
0.4999999999999771
 40
0.4999999999999771
 40
0.7499999999999979
 40
0.7499999999999979
 40
0.8749999999999989
 40
0.8749999999999989
 40
1.0
 40
1.0
 40
1.0
 40
1.0
 10
-82.35664982752245
 20
197.2288938270925
 30
0.0
 10
-82.5150290151731
 20
197.189853096238
 30
0.0
 10
-82.67127473986486
 20
197.1513343920382
 30
0.0
 10
-82.97926658928145
 20
197.0739276407302
 30
0.0
 10
-83.13191069675285
 20
197.0347832227435
 30
0.0
 10
-83.42099498593986
 20
196.9576324688284
 30
0.0
 10
-83.5587995241237
 20
196.9193048870873
 30
0.0
 10
-83.82041819976266
 20
196.8417585666108
 30
0.0
 10
-83.94316450644534
 20
196.8027823589421
 30
0.0
 10
-84.27448888339289
 20
196.6872875024971
 30
0.0
 10
-84.45350000742113
 20
196.609375058827
 30
0.0
 10
-84.633115106802
 20
196.4938951334262
 30
0.0
 10
-84.67935945566984
 20
196.4550293375611
 30
0.0
 10
-84.74111276168117
 20
196.3772550038926
 30
0.0
 10
-84.75664982752224
 20
196.3386452369379
 30
0.0
 10
-84.75664982752245
 20
196.2996045052112
 30
0.0
  0
SPLINE
  5
AF
330
1F
100
AcDbEntity
  8
0
  6
Continuous
 62
     7
370
    25
100
AcDbSpline
210
0.0
220
0.0
230
1.0
 70
     8
 71
     3
 72
    14
 73
    10
 74
     0
 42
0.000000001
 43
0.00000001
 40
0.0
 40
0.0
 40
0.0
 40
0.0
 40
0.2500000000000001
 40
0.2500000000000001
 40
0.5000000000000001
 40
0.5000000000000001
 40
0.7500000000000002
 40
0.7500000000000002
 40
1.0
 40
1.0
 40
1.0
 40
1.0
 10
-82.35664982752245
 20
197.2288938270925
 30
0.0
 10
-82.48883524338152
 20
197.1506924120708
 30
0.0
 10
-82.61681726191506
 20
197.0749824647739
 30
0.0
 10
-82.85944128686246
 20
196.9197020531269
 30
0.0
 10
-82.96988355127222
 20
196.842692203544
 30
0.0
 10
-83.15588044846578
 20
196.6872687175164
 30
0.0
 10
-83.22968142730392
 20
196.6103190005981
 30
0.0
 10
-83.33050001169906
 20
196.4548890213489
 30
0.0
 10
-83.3566498275225
 20
196.3778059127762
 30
0.0
 10
-83.35664982752245
 20
196.2996045052112
 30
0.0
  0
LINE
  5
B0
330
1F
100
AcDbEntity
  8
0
  6
Continuous
 62
     7
370
    25
100
AcDbLine
 10
-84.7566498275
 20
196.2996045052
 30
0.0
 11
-83.3566498275
 21
196.2996045052
 31
0.0
  0
SPLINE
  5
B1
330
1F
100
AcDbEntity
  8
0
  6
Continuous
 62
     7
370
    25
100
AcDbSpline
210
0.0
220
0.0
230
1.0
 70
     8
 71
     3
 72
    20
 73
    16
 74
     0
 42
0.000000001
 43
0.00000001
 40
0.0
 40
0.0
 40
0.0
 40
0.0
 40
0.1249999999999993
 40
0.1249999999999993
 40
0.2499999999999987
 40
0.2499999999999987
 40
0.374999999999998
 40
0.374999999999998
 40
0.4999999999999973
 40
0.4999999999999973
 40
0.7499999999999987
 40
0.7499999999999987
 40
0.8749999999999993
 40
0.8749999999999993
 40
1.0
 40
1.0
 40
1.0
 40
1.0
 10
-84.75664982752245
 20
339.3581831489739
 30
0.0
 10
-84.75664982752245
 20
339.3191424181193
 30
0.0
 10
-84.74111326704758
 20
339.2806237139195
 30
0.0
 10
-84.67979491508699
 20
339.2032169626116
 30
0.0
 10
-84.6333711695001
 20
339.1640725446249
 30
0.0
 10
-84.51342029934617
 20
339.0869217907097
 30
0.0
 10
-84.43981565506259
 20
339.0485942089687
 30
0.0
 10
-84.26508528896714
 20
338.9710478884921
 30
0.0
 10
-84.16423466006518
 20
338.9320716808234
 30
0.0
 10
-83.83294938008135
 20
338.8165768243784
 30
0.0
 10
-83.56526921869772
 20
338.7386643807083
 30
0.0
 10
-83.13259519264243
 20
338.6231844553075
 30
0.0
 10
-82.98107710579112
 20
338.5843186594424
 30
0.0
 10
-82.67165134840509
 20
338.5065443257739
 30
0.0
 10
-82.51502901871116
 20
338.4679345588191
 30
0.0
 10
-82.35664982752245
 20
338.4288938270924
 30
0.0
  0
LINE
  5
B2
330
1F
100
AcDbEntity
  8
0
  6
Continuous
 62
     7
370
    25
100
AcDbLine
 10
-84.7566498275
 20
339.358183149
 30
0.0
 11
-83.3566498275
 21
339.358183149
 31
0.0
  0
SPLINE
  5
B3
330
1F
100
AcDbEntity
  8
0
  6
Continuous
 62
     7
370
    25
100
AcDbSpline
210
0.0
220
0.0
230
1.0
 70
     8
 71
     3
 72
    14
 73
    10
 74
     0
 42
0.000000001
 43
0.00000001
 40
0.0
 40
0.0
 40
0.0
 40
0.0
 40
0.25
 40
0.25
 40
0.5
 40
0.5
 40
0.75
 40
0.75
 40
1.0
 40
1.0
 40
1.0
 40
1.0
 10
-83.35664982752245
 20
339.3581831489739
 30
0.0
 10
-83.35664982752233
 20
339.2799817339522
 30
0.0
 10
-83.33109116284227
 20
339.2042717866553
 30
0.0
 10
-83.23096313424539
 20
339.0489913750082
 30
0.0
 10
-83.15739895494117
 20
338.9719815254252
 30
0.0
 10
-82.97186131924921
 20
338.8165580393977
 30
0.0
 10
-82.86169639828984
 20
338.7396083224794
 30
0.0
 10
-82.61908464160045
 20
338.5841783432302
 30
0.0
 10
-82.48883523077733
 20
338.5070952346575
 30
0.0
 10
-82.35664982752245
 20
338.4288938270924
 30
0.0
  0
LINE
  5
B4
330
1F
100
AcDbEntity
  8
0
  6
Continuous
 62
     7
370
    25
100
AcDbLine
 10
-84.7566498275
 20
339.358183149
 30
0.0
 11
-84.7566498275
 21
196.2996045052
 31
0.0
  0
LINE
  5
B5
330
1F
100
AcDbEntity
  8
0
  6
Continuous
 62
     7
370
    25
100
AcDbLine
 10
908.7726394944
 20
340.8288938271
 30
0.0
 11
908.7726394944
 21
339.4288938271
 31
0.0
  0
SPLINE
  5
B6
330
1F
100
AcDbEntity
  8
0
  6
Continuous
 62
     7
370
    25
100
AcDbSpline
210
0.0
220
0.0
230
1.0
 70
     8
 71
     3
 72
    14
 73
    10
 74
     0
 42
0.000000001
 43
0.00000001
 40
0.0
 40
0.0
 40
0.0
 40
0.0
 40
0.2500000000000003
 40
0.2500000000000003
 40
0.5000000000000002
 40
0.5000000000000002
 40
0.7500000000000001
 40
0.7500000000000001
 40
1.0
 40
1.0
 40
1.0
 40
1.0
 10
908.7726394943589
 20
339.4288938270925
 30
0.0
 10
908.6944380793373
 20
339.4288938270925
 30
0.0
 10
908.6187281320404
 20
339.4033351624122
 30
0.0
 10
908.4634477203934
 20
339.3032071338156
 30
0.0
 10
908.3864378708103
 20
339.2296429545112
 30
0.0
 10
908.231014384783
 20
339.0441053188193
 30
0.0
 10
908.1540646678643
 20
338.9339403978598
 30
0.0
 10
907.9986346886152
 20
338.6913286411705
 30
0.0
 10
907.9215515800425
 20
338.5610792303474
 30
0.0
 10
907.8433501724775
 20
338.4288938270926
 30
0.0
  0
LINE
  5
B7
330
1F
100
AcDbEntity
  8
0
  6
Continuous
 62
     7
370
    25
100
AcDbLine
 10
-83.2859391494
 20
194.8288938271
 30
0.0
 11
-83.2859391494
 21
196.2288938271
 31
0.0
  0
SPLINE
  5
B8
330
1F
100
AcDbEntity
  8
0
  6
Continuous
 62
     7
370
    25
100
AcDbSpline
210
0.0
220
0.0
230
1.0
 70
     8
 71
     3
 72
    14
 73
    10
 74
     0
 42
0.000000001
 43
0.00000001
 40
0.0
 40
0.0
 40
0.0
 40
0.0
 40
0.25
 40
0.25
 40
0.5
 40
0.5
 40
0.75
 40
0.75
 40
1.0
 40
1.0
 40
1.0
 40
1.0
 10
-83.2859391494038
 20
196.2288938270927
 30
0.0
 10
-83.20773773438212
 20
196.2288938270927
 30
0.0
 10
-83.13202778708528
 20
196.2544524917729
 30
0.0
 10
-82.9767473754382
 20
196.3545805203696
 30
0.0
 10
-82.89973752585533
 20
196.4281446996739
 30
0.0
 10
-82.74431403982786
 20
196.6136823353657
 30
0.0
 10
-82.66736432290944
 20
196.7238472563252
 30
0.0
 10
-82.51193434366027
 20
196.9664590130146
 30
0.0
 10
-82.43485123508759
 20
197.0967084238376
 30
0.0
 10
-82.3566498275225
 20
197.2288938270925
 30
0.0
  0
ARC
  5
B9
330
1F
100
AcDbEntity
  8
0
  6
Continuous
 62
     7
370
    25
100
AcDbCircle
 10
-26.5766399259
 20
293.8858299419
 30
0.0
 40
0.5050994627335346
100
AcDbArc
 50
298.8005827702
 51
112.9304972368
  0
ARC
  5
BA
330
1F
100
AcDbEntity
  8
0
  6
Continuous
 62
     7
370
    25
100
AcDbCircle
 10
-28.7566498275
 20
292.8288938271
 30
0.0
 40
2.500000000000001
100
AcDbArc
 50
37.506301084
 51
74.2247789229
  0
ARC
  5
BB
330
1F
100
AcDbEntity
  8
0
  6
Continuous
 62
     7
370
    25
100
AcDbCircle
 10
-28.5819784023
 20
295.2453058398
 30
0.0
 40
0.5050994627349565
100
AcDbArc
 50
358.800582771
 51
172.930497236
  0
ARC
  5
BC
330
1F
100
AcDbEntity
  8
0
  6
Continuous
 62
     7
370
    25
100
AcDbCircle
 10
-28.7566498275
 20
292.8288938271
 30
0.0
 40
2.499999999999945
100
AcDbArc
 50
97.5063010841
 51
134.2247789229
  0
ARC
  5
BD
330
1F
100
AcDbEntity
  8
0
  6
Continuous
 62
     7
370
    25
100
AcDbCircle
 10
-30.7619883039
 20
294.188369725
 30
0.0
 40
0.5050994627351938
100
AcDbArc
 50
58.8005827697
 51
232.9304972372
  0
ARC
  5
BE
330
1F
100
AcDbEntity
  8
0
  6
Continuous
 62
     7
370
    25
100
AcDbCircle
 10
-28.7566498275
 20
292.8288938271
 30
0.0
 40
2.499999999999956
100
AcDbArc
 50
157.5063010841
 51
194.2247789229
  0
ARC
  5
BF
330
1F
100
AcDbEntity
  8
0
  6
Continuous
 62
     7
370
    25
100
AcDbCircle
 10
-30.9366597291
 20
291.7719577123
 30
0.0
 40
0.5050994627332811
100
AcDbArc
 50
118.8005827707
 51
292.9304972361
  0
ARC
  5
C0
330
1F
100
AcDbEntity
  8
0
  6
Continuous
 62
     7
370
    25
100
AcDbCircle
 10
-28.7566498275
 20
292.8288938271
 30
0.0
 40
2.499999999999952
100
AcDbArc
 50
217.506301084
 51
254.2247789229
  0
ARC
  5
C1
330
1F
100
AcDbEntity
  8
0
  6
Continuous
 62
     7
370
    25
100
AcDbCircle
 10
-28.9313212527
 20
290.4124818144
 30
0.0
 40
0.5050994627366183
100
AcDbArc
 50
178.8005827716
 51
352.9304972354
  0
ARC
  5
C2
330
1F
100
AcDbEntity
  8
0
  6
Continuous
 62
     7
370
    25
100
AcDbCircle
 10
-28.7566498275
 20
292.8288938271
 30
0.0
 40
2.499999999999997
100
AcDbArc
 50
277.5063010841
 51
314.2247789229
  0
ARC
  5
C3
330
1F
100
AcDbEntity
  8
0
  6
Continuous
 62
     7
370
    25
100
AcDbCircle
 10
-26.7513113511
 20
291.4694179292
 30
0.0
 40
0.5050994627355224
100
AcDbArc
 50
238.8005827701
 51
52.9304972368
  0
ARC
  5
C4
330
1F
100
AcDbEntity
  8
0
  6
Continuous
 62
     7
370
    25
100
AcDbCircle
 10
-28.7566498275
 20
292.8288938271
 30
0.0
 40
2.499999999999961
100
AcDbArc
 50
337.5063010841
 51
14.2247789229
  0
CIRCLE
  5
C5
330
1F
100
AcDbEntity
  8
0
  6
Continuous
 62
     7
370
    25
100
AcDbCircle
 10
-28.7566498275
 20
292.8288938271
 30
0.0
 40
5.500000000000109
  0
CIRCLE
  5
C6
330
1F
100
AcDbEntity
  8
0
  6
Continuous
 62
     7
370
    25
100
AcDbCircle
 10
854.2433501725
 20
292.8288938271
 30
0.0
 40
5.500000000000082
  0
ARC
  5
C7
330
1F
100
AcDbEntity
  8
0
  6
Continuous
 62
     7
370
    25
100
AcDbCircle
 10
854.27601703
 20
295.2513904728
 30
0.0
 40
0.5050994627335896
100
AcDbArc
 50
2.1624680629
 51
176.2923825295
  0
ARC
  5
C8
330
1F
100
AcDbEntity
  8
0
  6
Continuous
 62
     7
370
    25
100
AcDbCircle
 10
852.129073108
 20
291.6459358327
 30
0.0
 40
0.5050994627351884
100
AcDbArc
 50
122.1624680624
 51
296.2923825299
  0
ARC
  5
C9
330
1F
100
AcDbEntity
  8
0
  6
Continuous
 62
     7
370
    25
100
AcDbCircle
 10
854.2433501725
 20
292.8288938271
 30
0.0
 40
2.499999999999996
100
AcDbArc
 50
220.8681863768
 51
257.5866642156
  0
ARC
  5
CA
330
1F
100
AcDbEntity
  8
0
  6
Continuous
 62
     7
370
    25
100
AcDbCircle
 10
854.210683315
 20
290.4063971814
 30
0.0
 40
0.5050994627334501
100
AcDbArc
 50
182.1624680634
 51
356.2923825288
  0
ARC
  5
CB
330
1F
100
AcDbEntity
  8
0
  6
Continuous
 62
     7
370
    25
100
AcDbCircle
 10
854.2433501725
 20
292.8288938271
 30
0.0
 40
2.499999999999967
100
AcDbArc
 50
280.8681863767
 51
317.5866642156
  0
ARC
  5
CC
330
1F
100
AcDbEntity
  8
0
  6
Continuous
 62
     7
370
    25
100
AcDbCircle
 10
856.3249603795
 20
291.5893551758
 30
0.0
 40
0.50509946273661
100
AcDbArc
 50
242.1624680643
 51
56.2923825281
  0
ARC
  5
CD
330
1F
100
AcDbEntity
  8
0
  6
Continuous
 62
     7
370
    25
100
AcDbCircle
 10
856.357627237
 20
294.0118518215
 30
0.0
 40
0.5050994627355602
100
AcDbArc
 50
302.1624680628
 51
116.2923825295
  0
ARC
  5
CE
330
1F
100
AcDbEntity
  8
0
  6
Continuous
 62
     7
370
    25
100
AcDbCircle
 10
854.2433501725
 20
292.8288938271
 30
0.0
 40
2.499999999999937
100
AcDbArc
 50
40.8681863768
 51
77.5866642156
  0
ARC
  5
CF
330
1F
100
AcDbEntity
  8
0
  6
Continuous
 62
     7
370
    25
100
AcDbCircle
 10
852.1617399655
 20
294.0684324784
 30
0.0
 40
0.5050994627349373
100
AcDbArc
 50
62.1624680637
 51
236.2923825287
  0
ARC
  5
D0
330
1F
100
AcDbEntity
  8
0
  6
Continuous
 62
     7
370
    25
100
AcDbCircle
 10
854.2433501725
 20
292.8288938271
 30
0.0
 40
2.499999999999998
100
AcDbArc
 50
340.8681863768
 51
17.5866642156
  0
ARC
  5
D1
330
1F
100
AcDbEntity
  8
0
  6
Continuous
 62
     7
370
    25
100
AcDbCircle
 10
854.2433501725
 20
292.8288938271
 30
0.0
 40
2.499999999999925
100
AcDbArc
 50
160.8681863768
 51
197.5866642156
  0
ARC
  5
D2
330
1F
100
AcDbEntity
  8
0
  6
Continuous
 62
     7
370
    25
100
AcDbCircle
 10
854.2433501725
 20
292.8288938271
 30
0.0
 40
2.4999999999999
100
AcDbArc
 50
100.8681863767
 51
137.5866642156
  0
CIRCLE
  5
D3
330
1F
100
AcDbEntity
  8
0
  6
Continuous
 62
     7
370
    25
100
AcDbCircle
 10
854.2433501725
 20
242.8288938271
 30
0.0
 40
5.500000000000046
  0
ARC
  5
D4
330
1F
100
AcDbEntity
  8
0
  6
Continuous
 62
     7
370
    25
100
AcDbCircle
 10
856.184580767
 20
241.3793487603
 30
0.0
 40
0.5050994627351889
100
AcDbArc
 50
236.1858115763
 51
50.3157260438
  0
ARC
  5
D5
330
1F
100
AcDbEntity
  8
0
  6
Continuous
 62
     7
370
    25
100
AcDbCircle
 10
854.2433501725
 20
242.8288938271
 30
0.0
 40
2.499999999999936
100
AcDbArc
 50
334.8915298906
 51
11.6100077295
  0
ARC
  5
D6
330
1F
100
AcDbEntity
  8
0
  6
Continuous
 62
     7
370
    25
100
AcDbCircle
 10
856.4693083215
 20
243.7852763032
 30
0.0
 40
0.5050994627332835
100
AcDbArc
 50
296.1858115773
 51
110.3157260427
  0
ARC
  5
D7
330
1F
100
AcDbEntity
  8
0
  6
Continuous
 62
     7
370
    25
100
AcDbCircle
 10
854.2433501725
 20
242.8288938271
 30
0.0
 40
2.500000000000056
100
AcDbArc
 50
154.8915298906
 51
191.6100077295
  0
ARC
  5
D8
330
1F
100
AcDbEntity
  8
0
  6
Continuous
 62
     7
370
    25
100
AcDbCircle
 10
854.2433501725
 20
242.8288938271
 30
0.0
 40
2.49999999999994
100
AcDbArc
 50
94.8915298907
 51
131.6100077294
  0
ARC
  5
D9
330
1F
100
AcDbEntity
  8
0
  6
Continuous
 62
     7
370
    25
100
AcDbCircle
 10
852.3021195779
 20
244.2784388939
 30
0.0
 40
0.5050994627355756
100
AcDbArc
 50
56.1858115767
 51
230.3157260434
  0
ARC
  5
DA
330
1F
100
AcDbEntity
  8
0
  6
Continuous
 62
     7
370
    25
100
AcDbCircle
 10
852.0173920234
 20
241.872511351
 30
0.0
 40
0.5050994627335086
100
AcDbArc
 50
116.1858115767
 51
290.3157260434
  0
ARC
  5
DB
330
1F
100
AcDbEntity
  8
0
  6
Continuous
 62
     7
370
    25
100
AcDbCircle
 10
853.958622618
 20
240.4229662842
 30
0.0
 40
0.5050994627349271
100
AcDbArc
 50
176.1858115776
 51
350.3157260426
  0
ARC
  5
DC
330
1F
100
AcDbEntity
  8
0
  6
Continuous
 62
     7
370
    25
100
AcDbCircle
 10
854.2433501725
 20
242.8288938271
 30
0.0
 40
2.500000000000021
100
AcDbArc
 50
214.8915298906
 51
251.6100077295
  0
ARC
  5
DD
330
1F
100
AcDbEntity
  8
0
  6
Continuous
 62
     7
370
    25
100
AcDbCircle
 10
854.2433501725
 20
242.8288938271
 30
0.0
 40
2.499999999999954
100
AcDbArc
 50
34.8915298906
 51
71.6100077295
  0
ARC
  5
DE
330
1F
100
AcDbEntity
  8
0
  6
Continuous
 62
     7
370
    25
100
AcDbCircle
 10
854.2433501725
 20
242.8288938271
 30
0.0
 40
2.499999999999946
100
AcDbArc
 50
274.8915298907
 51
311.6100077294
  0
ARC
  5
DF
330
1F
100
AcDbEntity
  8
0
  6
Continuous
 62
     7
370
    25
100
AcDbCircle
 10
854.528077727
 20
245.23482137
 30
0.0
 40
0.5050994627366228
100
AcDbArc
 50
356.1858115782
 51
170.315726042
  0
CIRCLE
  5
E0
330
1F
100
AcDbEntity
  8
0
  6
Continuous
 62
     7
370
    25
100
AcDbCircle
 10
-28.7566498275
 20
242.8288938271
 30
0.0
 40
5.500000000000085
  0
ARC
  5
E1
330
1F
100
AcDbEntity
  8
0
  6
Continuous
 62
     7
370
    25
100
AcDbCircle
 10
-26.5766399259
 20
243.8858299419
 30
0.0
 40
0.5050994627335154
100
AcDbArc
 50
298.8005827702
 51
112.9304972368
  0
ARC
  5
E2
330
1F
100
AcDbEntity
  8
0
  6
Continuous
 62
     7
370
    25
100
AcDbCircle
 10
-28.7566498275
 20
242.8288938271
 30
0.0
 40
2.499999999999946
100
AcDbArc
 50
37.506301084
 51
74.2247789229
  0
ARC
  5
E3
330
1F
100
AcDbEntity
  8
0
  6
Continuous
 62
     7
370
    25
100
AcDbCircle
 10
-28.5819784023
 20
245.2453058398
 30
0.0
 40
0.5050994627349565
100
AcDbArc
 50
358.800582771
 51
172.930497236
  0
ARC
  5
E4
330
1F
100
AcDbEntity
  8
0
  6
Continuous
 62
     7
370
    25
100
AcDbCircle
 10
-28.7566498275
 20
242.8288938271
 30
0.0
 40
2.499999999999938
100
AcDbArc
 50
97.5063010841
 51
134.2247789229
  0
ARC
  5
E5
330
1F
100
AcDbEntity
  8
0
  6
Continuous
 62
     7
370
    25
100
AcDbCircle
 10
-30.7619883039
 20
244.188369725
 30
0.0
 40
0.5050994627351938
100
AcDbArc
 50
58.8005827697
 51
232.9304972372
  0
ARC
  5
E6
330
1F
100
AcDbEntity
  8
0
  6
Continuous
 62
     7
370
    25
100
AcDbCircle
 10
-28.7566498275
 20
242.8288938271
 30
0.0
 40
2.499999999999945
100
AcDbArc
 50
157.5063010841
 51
194.2247789229
  0
ARC
  5
E7
330
1F
100
AcDbEntity
  8
0
  6
Continuous
 62
     7
370
    25
100
AcDbCircle
 10
-30.9366597291
 20
241.7719577123
 30
0.0
 40
0.5050994627332606
100
AcDbArc
 50
118.8005827707
 51
292.9304972361
  0
ARC
  5
E8
330
1F
100
AcDbEntity
  8
0
  6
Continuous
 62
     7
370
    25
100
AcDbCircle
 10
-28.7566498275
 20
242.8288938271
 30
0.0
 40
2.49999999999998
100
AcDbArc
 50
217.506301084
 51
254.2247789229
  0
ARC
  5
E9
330
1F
100
AcDbEntity
  8
0
  6
Continuous
 62
     7
370
    25
100
AcDbCircle
 10
-28.9313212527
 20
240.4124818144
 30
0.0
 40
0.5050994627366183
100
AcDbArc
 50
178.8005827716
 51
352.9304972354
  0
ARC
  5
EA
330
1F
100
AcDbEntity
  8
0
  6
Continuous
 62
     7
370
    25
100
AcDbCircle
 10
-28.7566498275
 20
242.8288938271
 30
0.0
 40
2.499999999999997
100
AcDbArc
 50
277.5063010841
 51
314.2247789229
  0
ARC
  5
EB
330
1F
100
AcDbEntity
  8
0
  6
Continuous
 62
     7
370
    25
100
AcDbCircle
 10
-26.7513113511
 20
241.4694179292
 30
0.0
 40
0.5050994627354981
100
AcDbArc
 50
238.8005827701
 51
52.9304972368
  0
ARC
  5
EC
330
1F
100
AcDbEntity
  8
0
  6
Continuous
 62
     7
370
    25
100
AcDbCircle
 10
-28.7566498275
 20
242.8288938271
 30
0.0
 40
2.499999999999961
100
AcDbArc
 50
337.5063010841
 51
14.2247789229
  0
LINE
  5
ED
330
1F
100
AcDbEntity
  8
0
  6
Continuous
 62
     7
370
    25
100
AcDbLine
 10
-40.2566498275
 20
355.3288938271
 30
0.0
 11
-39.4566498275
 21
355.3288938271
 31
0.0
  0
LINE
  5
EE
330
1F
100
AcDbEntity
  8
0
  6
Continuous
 62
     7
370
    25
100
AcDbLine
 10
-40.2566498275
 20
355.3288938271
 30
0.0
 11
-40.2566498275
 21
372.3288938271
 31
0.0
  0
LINE
  5
EF
330
1F
100
AcDbEntity
  8
0
  6
Continuous
 62
     7
370
    25
100
AcDbLine
 10
-39.4566498275
 20
355.3288938271
 30
0.0
 11
-39.4566498275
 21
372.3288938271
 31
0.0
  0
LINE
  5
F0
330
1F
100
AcDbEntity
  8
0
  6
Continuous
 62
     7
370
    25
100
AcDbLine
 10
-40.2566498275
 20
375.3288938271
 30
0.0
 11
-39.4566498275
 21
375.3288938271
 31
0.0
  0
LINE
  5
F1
330
1F
100
AcDbEntity
  8
0
  6
Continuous
 62
     7
370
    25
100
AcDbLine
 10
-39.4566498275
 20
375.3288938271
 30
0.0
 11
-39.4566498275
 21
372.3288938271
 31
0.0
  0
LINE
  5
F2
330
1F
100
AcDbEntity
  8
0
  6
Continuous
 62
     7
370
    25
100
AcDbLine
 10
-40.2566498275
 20
372.3288938271
 30
0.0
 11
-40.2566498275
 21
375.3288938271
 31
0.0
  0
LINE
  5
F3
330
1F
100
AcDbEntity
  8
0
  6
Continuous
 62
     7
370
    25
100
AcDbLine
 10
864.9433501725
 20
372.3288938271
 30
0.0
 11
864.9433501725
 21
375.3288938271
 31
0.0
  0
LINE
  5
F4
330
1F
100
AcDbEntity
  8
0
  6
Continuous
 62
     7
370
    25
100
AcDbLine
 10
864.9433501725
 20
375.3288938271
 30
0.0
 11
865.7433501725
 21
375.3288938271
 31
0.0
  0
LINE
  5
F5
330
1F
100
AcDbEntity
  8
0
  6
Continuous
 62
     7
370
    25
100
AcDbLine
 10
865.7433501725
 20
375.3288938271
 30
0.0
 11
865.7433501725
 21
372.3288938271
 31
0.0
  0
LINE
  5
F6
330
1F
100
AcDbEntity
  8
0
  6
Continuous
 62
     7
370
    25
100
AcDbLine
 10
865.7433501725
 20
355.3288938271
 30
0.0
 11
864.9433501725
 21
355.3288938271
 31
0.0
  0
LINE
  5
F7
330
1F
100
AcDbEntity
  8
0
  6
Continuous
 62
     7
370
    25
100
AcDbLine
 10
865.7433501725
 20
372.3288938271
 30
0.0
 11
865.7433501725
 21
355.3288938271
 31
0.0
  0
LINE
  5
F8
330
1F
100
AcDbEntity
  8
0
  6
Continuous
 62
     7
370
    25
100
AcDbLine
 10
864.9433501725
 20
372.3288938271
 30
0.0
 11
864.9433501725
 21
355.3288938271
 31
0.0
  0
LINE
  5
F9
330
1F
100
AcDbEntity
  8
0
  6
Continuous
 62
     7
370
    25
100
AcDbLine
 10
-39.4566498275
 20
340.8288938271
 30
0.0
 11
-39.4566498275
 21
352.1288938271
 31
0.0
  0
LINE
  5
FA
330
1F
100
AcDbEntity
  8
0
  6
Continuous
 62
     7
370
    25
100
AcDbLine
 10
-39.4566498275
 20
353.8288938271
 30
0.0
 11
-39.4566498275
 21
355.3288938271
 31
0.0
  0
LINE
  5
FB
330
1F
100
AcDbEntity
  8
0
  6
Continuous
 62
     7
370
    25
100
AcDbLine
 10
-40.2566498275
 20
340.8288938271
 30
0.0
 11
-40.2566498275
 21
355.3288938271
 31
0.0
  0
LINE
  5
FC
330
1F
100
AcDbEntity
  8
0
  6
Continuous
 62
     7
370
    25
100
AcDbLine
 10
865.7433501725
 20
355.3288938271
 30
0.0
 11
865.7433501725
 21
340.8288938271
 31
0.0
  0
LINE
  5
FD
330
1F
100
AcDbEntity
  8
0
  6
Continuous
 62
     7
370
    25
100
AcDbLine
 10
864.9433501725
 20
355.3288938271
 30
0.0
 11
864.9433501725
 21
353.8288938271
 31
0.0
  0
LINE
  5
FE
330
1F
100
AcDbEntity
  8
0
  6
Continuous
 62
     7
370
    25
100
AcDbLine
 10
864.9433501725
 20
352.1288938271
 30
0.0
 11
864.9433501725
 21
340.8288938271
 31
0.0
  0
LINE
  5
FF
330
1F
100
AcDbEntity
  8
0
  6
Continuous
 62
     7
370
    25
100
AcDbLine
 10
874.4021001725
 20
340.8288938271
 30
0.0
 11
874.4021001725
 21
346.8288938271
 31
0.0
  0
LINE
  5
100
330
1F
100
AcDbEntity
  8
0
  6
Continuous
 62
     7
370
    25
100
AcDbLine
 10
874.9433501725
 20
341.9445009114
 30
0.0
 11
874.9433501725
 21
346.2876438271
 31
0.0
  0
LINE
  5
101
330
1F
100
AcDbEntity
  8
0
  6
Continuous
 62
     7
370
    25
100
AcDbLine
 10
874.9433501725
 20
341.3701438271
 30
0.0
 11
874.9433501725
 21
341.9445009114
 31
0.0
  0
LINE
  5
102
330
1F
100
AcDbEntity
  8
0
  6
Continuous
 62
     7
370
    25
100
AcDbLine
 10
-39.6775800601
 20
353.8288938271
 30
0.0
 11
865.164280405
 21
353.8288938271
 31
0.0
  0
LINE
  5
103
330
1F
100
AcDbEntity
  8
0
  6
Continuous
 62
     7
370
    25
100
AcDbLine
 10
-39.6775800601
 20
352.1288938271
 30
0.0
 11
865.164280405
 21
352.1288938271
 31
0.0
  0
ELLIPSE
  5
104
330
1F
100
AcDbEntity
  8
0
  6
Continuous
 62
     7
370
    25
100
AcDbEllipse
 10
-39.6775800601
 20
352.9788938271
 30
0.0
 11
0.0
 21
0.8500000000000227
 31
0.0
210
0.0
220
0.0
230
1.0
 40
0.0930232558
 41
0.0
 42
3.14159265359066
  0
ELLIPSE
  5
105
330
1F
100
AcDbEntity
  8
0
  6
Continuous
 62
     7
370
    25
100
AcDbEllipse
 10
865.164280405
 20
352.9788938271
 30
0.0
 11
0.0
 21
0.8500000000000227
 31
0.0
210
0.0
220
0.0
230
1.0
 40
0.0930232558
 41
3.141592653589792
 42
6.283185307179586
  0
LINE
  5
106
330
1F
100
AcDbEntity
  8
0
  6
Continuous
 62
     7
370
    25
100
AcDbLine
 10
864.2433501725
 20
352.0288938271
 30
0.0
 11
864.2433501725
 21
352.1288938271
 31
0.0
  0
LINE
  5
107
330
1F
100
AcDbEntity
  8
0
  6
Continuous
 62
     7
370
    25
100
AcDbLine
 10
-38.7566498275
 20
352.1288938271
 30
0.0
 11
-38.7566498275
 21
352.0288938271
 31
0.0
  0
LINE
  5
108
330
1F
100
AcDbEntity
  8
0
  6
Continuous
 62
     7
370
    25
100
AcDbLine
 10
864.2433501725
 20
340.8288938271
 30
0.0
 11
864.2433501725
 21
352.0288938271
 31
0.0
  0
LINE
  5
109
330
1F
100
AcDbEntity
  8
0
  6
Continuous
 62
     7
370
    25
100
AcDbLine
 10
-38.7566498275
 20
352.0288938271
 30
0.0
 11
-38.7566498275
 21
340.8288938271
 31
0.0
  0
LINE
  5
10A
330
1F
100
AcDbEntity
  8
0
  6
Continuous
 62
     7
370
    25
100
AcDbLine
 10
-48.9153998275
 20
345.1252596734
 30
0.0
 11
-48.9153998275
 21
340.8288938271
 31
0.0
  0
LINE
  5
10B
330
1F
100
AcDbEntity
  8
0
  6
Continuous
 62
     7
370
    25
100
AcDbLine
 10
-48.9153998275
 20
346.8288938271
 30
0.0
 11
-48.9153998275
 21
345.1252596734
 31
0.0
  0
LINE
  5
10C
330
1F
100
AcDbEntity
  8
0
  6
Continuous
 62
     7
370
    25
100
AcDbLine
 10
-49.4566498275
 20
346.2876438271
 30
0.0
 11
-49.4566498275
 21
341.3701438271
 31
0.0
  0
LINE
  5
10D
330
1F
100
AcDbEntity
  8
0
  6
Continuous
 62
     7
370
    25
100
AcDbLine
 10
842.1038114087
 20
344.0933377069
 30
0.0
 11
843.5558871326
 21
344.326281572
 31
0.0
  0
ARC
  5
10E
330
1F
100
AcDbEntity
  8
0
  6
Continuous
 62
     7
370
    25
100
AcDbCircle
 10
854.0688164874
 20
345.4051078377
 30
0.0
 40
12.03669752925061
100
AcDbArc
 50
186.2565722693
 51
191.9710500657
  0
LINE
  5
10F
330
1F
100
AcDbEntity
  8
0
  6
Continuous
 62
     7
370
    25
100
AcDbLine
 10
842.2938867036
 20
342.9084869221
 30
0.0
 11
843.7459624275
 21
343.1414307872
 31
0.0
  0
LINE
  5
110
330
1F
100
AcDbEntity
  8
0
  6
Continuous
 62
     7
370
    25
100
AcDbLine
 10
843.7459624275
 20
343.1414307872
 30
0.0
 11
843.9789062927
 21
341.6893550633
 31
0.0
  0
ARC
  5
111
330
1F
100
AcDbEntity
  8
0
  6
Continuous
 62
     7
370
    25
100
AcDbCircle
 10
842.6671361618
 20
353.6543601421
 30
0.0
 40
12.03669752931783
100
AcDbArc
 50
276.2565722693
 51
281.9710500657
  0
LINE
  5
112
330
1F
100
AcDbEntity
  8
0
  6
Continuous
 62
     7
370
    25
100
AcDbLine
 10
844.9308132123
 20
343.3315060821
 30
0.0
 11
845.1637570775
 21
341.8794303582
 31
0.0
  0
ARC
  5
113
330
1F
100
AcDbEntity
  8
0
  6
Continuous
 62
     7
370
    25
100
AcDbCircle
 10
834.4178838574
 20
342.2526798164
 30
0.0
 40
12.03669752942172
100
AcDbArc
 50
6.2565722694
 51
11.9710500657
  0
LINE
  5
114
330
1F
100
AcDbEntity
  8
0
  6
Continuous
 62
     7
370
    25
100
AcDbLine
 10
844.7407379174
 20
344.516356867
 30
0.0
 11
846.1928136414
 21
344.7493007321
 31
0.0
  0
ARC
  5
115
330
1F
100
AcDbEntity
  8
0
  6
Continuous
 62
     7
370
    25
100
AcDbCircle
 10
845.8195641831
 20
334.003427512
 30
0.0
 40
12.03669752934325
100
AcDbArc
 50
96.2565722693
 51
101.9710500657
  0
ARC
  5
116
330
1F
100
AcDbEntity
  8
0
  6
Continuous
 62
     7
370
    25
100
AcDbCircle
 10
844.2433501725
 20
343.8288938271
 30
0.0
 40
3.999999999999974
100
AcDbArc
 50
311.4096221093
 51
99.1138111675
  0
ARC
  5
117
330
1F
100
AcDbEntity
  8
0
  6
Continuous
 62
     7
370
    25
100
AcDbCircle
 10
844.2433501725
 20
343.8288938271
 30
0.0
 40
4.000000000000082
100
AcDbArc
 50
99.1138111675
 51
228.5903778907
  0
LINE
  5
118
330
1F
100
AcDbEntity
  8
0
  6
Continuous
 62
     7
370
    25
100
AcDbLine
 10
844.9308132123
 20
343.3315060821
 30
0.0
 11
846.3828889363
 21
343.5644499473
 31
0.0
  0
LINE
  5
119
330
1F
100
AcDbEntity
  8
0
  6
Continuous
 62
     7
370
    25
100
AcDbLine
 10
843.3229432674
 20
345.778357296
 30
0.0
 11
843.5558871326
 21
344.326281572
 31
0.0
  0
LINE
  5
11A
330
1F
100
AcDbEntity
  8
0
  6
Continuous
 62
     7
370
    25
100
AcDbLine
 10
844.5077940522
 20
345.9684325909
 30
0.0
 11
844.7407379174
 21
344.516356867
 31
0.0
  0
LINE
  5
11B
330
1F
100
AcDbEntity
  8
0
  6
Continuous
 62
     7
370
    25
100
AcDbLine
 10
844.8888442655
 20
344.5401162788
 30
0.0
 11
845.0789195604
 21
343.355265494
 31
0.0
  0
LINE
  5
11C
330
1F
100
AcDbEntity
  8
0
  6
Continuous
 62
     7
370
    25
100
AcDbLine
 10
844.9545726242
 20
343.183399734
 30
0.0
 11
843.7697218394
 21
342.9933244391
 31
0.0
  0
LINE
  5
11D
330
1F
100
AcDbEntity
  8
0
  6
Continuous
 62
     7
370
    25
100
AcDbLine
 10
844.7169785056
 20
344.6644632151
 30
0.0
 11
843.5321277207
 21
344.4743879201
 31
0.0
  0
LINE
  5
11E
330
1F
100
AcDbEntity
  8
0
  6
Continuous
 62
     7
370
    25
100
AcDbLine
 10
843.4077807845
 20
344.3025221602
 30
0.0
 11
843.5978560794
 21
343.1176713754
 31
0.0
  0
LINE
  5
11F
330
1F
100
AcDbEntity
  8
0
  6
Continuous
 62
     7
370
    25
100
AcDbLine
 10
260.3229432674
 20
345.778357296
 30
0.0
 11
260.5558871326
 21
344.326281572
 31
0.0
  0
LINE
  5
120
330
1F
100
AcDbEntity
  8
0
  6
Continuous
 62
     7
370
    25
100
AcDbLine
 10
259.1038114087
 20
344.0933377069
 30
0.0
 11
260.5558871326
 21
344.326281572
 31
0.0
  0
ARC
  5
121
330
1F
100
AcDbEntity
  8
0
  6
Continuous
 62
     7
370
    25
100
AcDbCircle
 10
271.0688164875
 20
345.4051078377
 30
0.0
 40
12.03669752934888
100
AcDbArc
 50
186.2565722694
 51
191.9710500657
  0
LINE
  5
122
330
1F
100
AcDbEntity
  8
0
  6
Continuous
 62
     7
370
    25
100
AcDbLine
 10
259.2938867036
 20
342.9084869221
 30
0.0
 11
260.7459624275
 21
343.1414307872
 31
0.0
  0
LINE
  5
123
330
1F
100
AcDbEntity
  8
0
  6
Continuous
 62
     7
370
    25
100
AcDbLine
 10
260.7459624275
 20
343.1414307872
 30
0.0
 11
260.9789062927
 21
341.6893550633
 31
0.0
  0
ARC
  5
124
330
1F
100
AcDbEntity
  8
0
  6
Continuous
 62
     7
370
    25
100
AcDbCircle
 10
259.6671361618
 20
353.6543601421
 30
0.0
 40
12.03669752930628
100
AcDbArc
 50
276.2565722693
 51
281.9710500657
  0
LINE
  5
125
330
1F
100
AcDbEntity
  8
0
  6
Continuous
 62
     7
370
    25
100
AcDbLine
 10
261.9308132123
 20
343.3315060821
 30
0.0
 11
262.1637570775
 21
341.8794303582
 31
0.0
  0
LINE
  5
126
330
1F
100
AcDbEntity
  8
0
  6
Continuous
 62
     7
370
    25
100
AcDbLine
 10
261.9308132123
 20
343.3315060821
 30
0.0
 11
263.3828889363
 21
343.5644499473
 31
0.0
  0
ARC
  5
127
330
1F
100
AcDbEntity
  8
0
  6
Continuous
 62
     7
370
    25
100
AcDbCircle
 10
251.4178838574
 20
342.2526798165
 30
0.0
 40
12.036697529346
100
AcDbArc
 50
6.2565722694
 51
11.9710500657
  0
LINE
  5
128
330
1F
100
AcDbEntity
  8
0
  6
Continuous
 62
     7
370
    25
100
AcDbLine
 10
261.7407379174
 20
344.516356867
 30
0.0
 11
263.1928136414
 21
344.7493007321
 31
0.0
  0
LINE
  5
129
330
1F
100
AcDbEntity
  8
0
  6
Continuous
 62
     7
370
    25
100
AcDbLine
 10
261.5077940522
 20
345.9684325909
 30
0.0
 11
261.7407379174
 21
344.516356867
 31
0.0
  0
ARC
  5
12A
330
1F
100
AcDbEntity
  8
0
  6
Continuous
 62
     7
370
    25
100
AcDbCircle
 10
262.8195641831
 20
334.003427512
 30
0.0
 40
12.03669752934342
100
AcDbArc
 50
96.2565722693
 51
101.9710500657
  0
ARC
  5
12B
330
1F
100
AcDbEntity
  8
0
  6
Continuous
 62
     7
370
    25
100
AcDbCircle
 10
261.2433501725
 20
343.8288938271
 30
0.0
 40
4.000000000000054
100
AcDbArc
 50
311.4096221093
 51
99.1138111675
  0
ARC
  5
12C
330
1F
100
AcDbEntity
  8
0
  6
Continuous
 62
     7
370
    25
100
AcDbCircle
 10
261.2433501725
 20
343.8288938271
 30
0.0
 40
4.000000000000054
100
AcDbArc
 50
99.1138111675
 51
228.5903778907
  0
LINE
  5
12D
330
1F
100
AcDbEntity
  8
0
  6
Continuous
 62
     7
370
    25
100
AcDbLine
 10
261.8888442655
 20
344.5401162788
 30
0.0
 11
262.0789195604
 21
343.355265494
 31
0.0
  0
LINE
  5
12E
330
1F
100
AcDbEntity
  8
0
  6
Continuous
 62
     7
370
    25
100
AcDbLine
 10
261.7169785056
 20
344.6644632151
 30
0.0
 11
260.5321277207
 21
344.4743879201
 31
0.0
  0
LINE
  5
12F
330
1F
100
AcDbEntity
  8
0
  6
Continuous
 62
     7
370
    25
100
AcDbLine
 10
261.9545726242
 20
343.183399734
 30
0.0
 11
260.7697218394
 21
342.9933244391
 31
0.0
  0
LINE
  5
130
330
1F
100
AcDbEntity
  8
0
  6
Continuous
 62
     7
370
    25
100
AcDbLine
 10
260.4077807845
 20
344.3025221602
 30
0.0
 11
260.5978560794
 21
343.1176713754
 31
0.0
  0
LINE
  5
131
330
1F
100
AcDbEntity
  8
0
  6
Continuous
 62
     7
370
    25
100
AcDbLine
 10
562.1038114087
 20
344.0933377069
 30
0.0
 11
563.5558871326
 21
344.326281572
 31
0.0
  0
ARC
  5
132
330
1F
100
AcDbEntity
  8
0
  6
Continuous
 62
     7
370
    25
100
AcDbCircle
 10
574.0688164875
 20
345.4051078377
 30
0.0
 40
12.03669752932089
100
AcDbArc
 50
186.2565722693
 51
191.9710500657
  0
LINE
  5
133
330
1F
100
AcDbEntity
  8
0
  6
Continuous
 62
     7
370
    25
100
AcDbLine
 10
562.2938867036
 20
342.9084869221
 30
0.0
 11
563.7459624275
 21
343.1414307872
 31
0.0
  0
ARC
  5
134
330
1F
100
AcDbEntity
  8
0
  6
Continuous
 62
     7
370
    25
100
AcDbCircle
 10
562.6671361618
 20
353.6543601421
 30
0.0
 40
12.03669752931391
100
AcDbArc
 50
276.2565722693
 51
281.9710500657
  0
ARC
  5
135
330
1F
100
AcDbEntity
  8
0
  6
Continuous
 62
     7
370
    25
100
AcDbCircle
 10
554.4178838575
 20
342.2526798165
 30
0.0
 40
12.0366975293258
100
AcDbArc
 50
6.2565722693
 51
11.9710500657
  0
ARC
  5
136
330
1F
100
AcDbEntity
  8
0
  6
Continuous
 62
     7
370
    25
100
AcDbCircle
 10
565.8195641831
 20
334.0034275121
 30
0.0
 40
12.03669752933894
100
AcDbArc
 50
96.2565722693
 51
101.9710500657
  0
ARC
  5
137
330
1F
100
AcDbEntity
  8
0
  6
Continuous
 62
     7
370
    25
100
AcDbCircle
 10
564.2433501725
 20
343.8288938271
 30
0.0
 40
3.99999999999996
100
AcDbArc
 50
311.4096221093
 51
99.1138111675
  0
ARC
  5
138
330
1F
100
AcDbEntity
  8
0
  6
Continuous
 62
     7
370
    25
100
AcDbCircle
 10
564.2433501725
 20
343.8288938271
 30
0.0
 40
3.999999999999974
100
AcDbArc
 50
99.1138111675
 51
228.5903778907
  0
LINE
  5
139
330
1F
100
AcDbEntity
  8
0
  6
Continuous
 62
     7
370
    25
100
AcDbLine
 10
564.7407379174
 20
344.516356867
 30
0.0
 11
566.1928136414
 21
344.7493007321
 31
0.0
  0
LINE
  5
13A
330
1F
100
AcDbEntity
  8
0
  6
Continuous
 62
     7
370
    25
100
AcDbLine
 10
564.9308132123
 20
343.3315060821
 30
0.0
 11
565.1637570775
 21
341.8794303582
 31
0.0
  0
LINE
  5
13B
330
1F
100
AcDbEntity
  8
0
  6
Continuous
 62
     7
370
    25
100
AcDbLine
 10
564.5077940522
 20
345.9684325909
 30
0.0
 11
564.7407379174
 21
344.516356867
 31
0.0
  0
LINE
  5
13C
330
1F
100
AcDbEntity
  8
0
  6
Continuous
 62
     7
370
    25
100
AcDbLine
 10
563.3229432674
 20
345.778357296
 30
0.0
 11
563.5558871326
 21
344.326281572
 31
0.0
  0
LINE
  5
13D
330
1F
100
AcDbEntity
  8
0
  6
Continuous
 62
     7
370
    25
100
AcDbLine
 10
563.7459624275
 20
343.1414307872
 30
0.0
 11
563.9789062927
 21
341.6893550633
 31
0.0
  0
LINE
  5
13E
330
1F
100
AcDbEntity
  8
0
  6
Continuous
 62
     7
370
    25
100
AcDbLine
 10
564.9308132123
 20
343.3315060821
 30
0.0
 11
566.3828889363
 21
343.5644499473
 31
0.0
  0
LINE
  5
13F
330
1F
100
AcDbEntity
  8
0
  6
Continuous
 62
     7
370
    25
100
AcDbLine
 10
564.8888442655
 20
344.5401162788
 30
0.0
 11
565.0789195604
 21
343.355265494
 31
0.0
  0
LINE
  5
140
330
1F
100
AcDbEntity
  8
0
  6
Continuous
 62
     7
370
    25
100
AcDbLine
 10
564.7169785056
 20
344.6644632151
 30
0.0
 11
563.5321277207
 21
344.4743879201
 31
0.0
  0
LINE
  5
141
330
1F
100
AcDbEntity
  8
0
  6
Continuous
 62
     7
370
    25
100
AcDbLine
 10
564.9545726242
 20
343.183399734
 30
0.0
 11
563.7697218394
 21
342.9933244391
 31
0.0
  0
LINE
  5
142
330
1F
100
AcDbEntity
  8
0
  6
Continuous
 62
     7
370
    25
100
AcDbLine
 10
563.4077807845
 20
344.3025221602
 30
0.0
 11
563.5978560794
 21
343.1176713754
 31
0.0
  0
LINE
  5
143
330
1F
100
AcDbEntity
  8
0
  6
Continuous
 62
     7
370
    25
100
AcDbLine
 10
-20.8961885913
 20
344.0933377069
 30
0.0
 11
-19.4441128674
 21
344.326281572
 31
0.0
  0
ARC
  5
144
330
1F
100
AcDbEntity
  8
0
  6
Continuous
 62
     7
370
    25
100
AcDbCircle
 10
-8.9311835125
 20
345.4051078377
 30
0.0
 40
12.03669752933235
100
AcDbArc
 50
186.2565722693
 51
191.9710500657
  0
ARC
  5
145
330
1F
100
AcDbEntity
  8
0
  6
Continuous
 62
     7
370
    25
100
AcDbCircle
 10
-20.3328638382
 20
353.6543601421
 30
0.0
 40
12.03669752931203
100
AcDbArc
 50
276.2565722693
 51
281.9710500657
  0
ARC
  5
146
330
1F
100
AcDbEntity
  8
0
  6
Continuous
 62
     7
370
    25
100
AcDbCircle
 10
-28.5821161426
 20
342.2526798165
 30
0.0
 40
12.03669752933656
100
AcDbArc
 50
6.2565722693
 51
11.9710500657
  0
ARC
  5
147
330
1F
100
AcDbEntity
  8
0
  6
Continuous
 62
     7
370
    25
100
AcDbCircle
 10
-17.1804358169
 20
334.003427512
 30
0.0
 40
12.0366975293468
100
AcDbArc
 50
96.2565722693
 51
101.9710500657
  0
ARC
  5
148
330
1F
100
AcDbEntity
  8
0
  6
Continuous
 62
     7
370
    25
100
AcDbCircle
 10
-18.7566498275
 20
343.8288938271
 30
0.0
 40
4.000000000000012
100
AcDbArc
 50
311.4096221093
 51
99.1138111675
  0
ARC
  5
149
330
1F
100
AcDbEntity
  8
0
  6
Continuous
 62
     7
370
    25
100
AcDbCircle
 10
-18.7566498275
 20
343.8288938271
 30
0.0
 40
4.00000000000002
100
AcDbArc
 50
99.1138111675
 51
228.5903778907
  0
LINE
  5
14A
330
1F
100
AcDbEntity
  8
0
  6
Continuous
 62
     7
370
    25
100
AcDbLine
 10
-20.7061132964
 20
342.9084869221
 30
0.0
 11
-19.2540375725
 21
343.1414307872
 31
0.0
  0
LINE
  5
14B
330
1F
100
AcDbEntity
  8
0
  6
Continuous
 62
     7
370
    25
100
AcDbLine
 10
-18.0691867877
 20
343.3315060821
 30
0.0
 11
-17.8362429225
 21
341.8794303582
 31
0.0
  0
LINE
  5
14C
330
1F
100
AcDbEntity
  8
0
  6
Continuous
 62
     7
370
    25
100
AcDbLine
 10
-18.4922059478
 20
345.9684325909
 30
0.0
 11
-18.2592620826
 21
344.516356867
 31
0.0
  0
LINE
  5
14D
330
1F
100
AcDbEntity
  8
0
  6
Continuous
 62
     7
370
    25
100
AcDbLine
 10
-19.6770567326
 20
345.778357296
 30
0.0
 11
-19.4441128674
 21
344.326281572
 31
0.0
  0
LINE
  5
14E
330
1F
100
AcDbEntity
  8
0
  6
Continuous
 62
     7
370
    25
100
AcDbLine
 10
-19.2540375725
 20
343.1414307872
 30
0.0
 11
-19.0210937073
 21
341.6893550633
 31
0.0
  0
LINE
  5
14F
330
1F
100
AcDbEntity
  8
0
  6
Continuous
 62
     7
370
    25
100
AcDbLine
 10
-18.2592620826
 20
344.516356867
 30
0.0
 11
-16.8071863586
 21
344.7493007321
 31
0.0
  0
LINE
  5
150
330
1F
100
AcDbEntity
  8
0
  6
Continuous
 62
     7
370
    25
100
AcDbLine
 10
-18.0691867877
 20
343.3315060821
 30
0.0
 11
-16.6171110637
 21
343.5644499473
 31
0.0
  0
LINE
  5
151
330
1F
100
AcDbEntity
  8
0
  6
Continuous
 62
     7
370
    25
100
AcDbLine
 10
-18.1111557345
 20
344.5401162788
 30
0.0
 11
-17.9210804396
 21
343.355265494
 31
0.0
  0
LINE
  5
152
330
1F
100
AcDbEntity
  8
0
  6
Continuous
 62
     7
370
    25
100
AcDbLine
 10
-18.2830214944
 20
344.6644632151
 30
0.0
 11
-19.4678722793
 21
344.4743879201
 31
0.0
  0
LINE
  5
153
330
1F
100
AcDbEntity
  8
0
  6
Continuous
 62
     7
370
    25
100
AcDbLine
 10
-18.0454273758
 20
343.183399734
 30
0.0
 11
-19.2302781606
 21
342.9933244391
 31
0.0
  0
LINE
  5
154
330
1F
100
AcDbEntity
  8
0
  6
Continuous
 62
     7
370
    25
100
AcDbLine
 10
-19.5922192155
 20
344.3025221602
 30
0.0
 11
-19.4021439206
 21
343.1176713754
 31
0.0
  0
SPLINE
  5
155
330
1F
100
AcDbEntity
  8
0
  6
Continuous
 62
     7
370
    25
100
AcDbSpline
210
0.0
220
0.0
230
1.0
 70
    24
 71
     3
 72
    18
 73
    14
 74
     0
 42
0.000000001
 43
0.00000001
 40
0.0
 40
0.0
 40
0.0
 40
0.0
 40
0.1395442450004753
 40
0.2146633576115611
 40
0.2913766055701589
 40
0.3680898535287572
 40
0.4432089661398435
 40
0.5827532111403179
 40
0.7222974561407929
 40
0.797416568751879
 40
0.874129816710477
 40
0.950843064669075
 40
1.0
 40
1.0
 40
1.0
 40
1.0
 10
-38.45664982752256
 20
363.5983657703268
 30
0.0
 10
-38.45664982752256
 20
363.9834966622525
 30
0.0
 10
-38.45664982752256
 20
364.5759502627604
 30
0.0
 10
-38.45664982752256
 20
365.8118644441455
 30
0.0
 10
-38.45664982752256
 20
366.8878940565003
 30
0.0
 10
-38.45664982752262
 20
368.0514221770492
 30
0.0
 10
-38.45664982752245
 20
369.5718693680673
 30
0.0
 10
-38.45664982752272
 20
371.3960593660741
 30
0.0
 10
-38.4566498275225
 20
372.9112943206665
 30
0.0
 10
-38.45664982752262
 20
373.8290416190964
 30
0.0
 10
-38.45664982752245
 20
374.3326584374501
 30
0.0
 10
-38.45664982752272
 20
374.6047955621901
 30
0.0
 10
-38.45664982752262
 20
374.6028877193041
 30
0.0
 10
-38.45664982752262
 20
374.6021426364981
 30
0.0
  0
SPLINE
  5
156
330
1F
100
AcDbEntity
  8
0
  6
Continuous
 62
     7
370
    25
100
AcDbSpline
210
0.0
220
0.0
230
1.0
 70
     8
 71
     3
 72
     8
 73
     4
 74
     0
 42
0.000000001
 43
0.00000001
 40
0.0
 40
0.0
 40
0.0
 40
0.0
 40
1.0
 40
1.0
 40
1.0
 40
1.0
 10
-34.45664982752972
 20
370.9895035709075
 30
0.0
 10
-34.45664982752972
 20
371.8780433774632
 30
0.0
 10
-34.63096512790914
 20
372.7422642308823
 30
0.0
 10
-34.903231814921
 20
373.5928197595974
 30
0.0
  0
SPLINE
  5
157
330
1F
100
AcDbEntity
  8
0
  6
Continuous
 62
     7
370
    25
100
AcDbSpline
210
0.0
220
0.0
230
1.0
 70
     8
 71
     3
 72
     8
 73
     4
 74
     0
 42
0.000000001
 43
0.00000001
 40
0.0
 40
0.0
 40
0.0
 40
0.0
 40
1.0
 40
1.0
 40
1.0
 40
1.0
 10
-34.903231814921
 20
368.3861873822174
 30
0.0
 10
-34.63096512790953
 20
369.2367429109312
 30
0.0
 10
-34.45664982752972
 20
370.1009637643529
 30
0.0
 10
-34.45664982752972
 20
370.9895035709075
 30
0.0
  0
LINE
  5
158
330
1F
100
AcDbEntity
  8
0
  6
Continuous
 62
     7
370
    25
100
AcDbLine
 10
-34.9032318149
 20
368.3861873822
 30
0.0
 11
-38.4566498275
 21
368.3861873822
 31
0.0
  0
LINE
  5
159
330
1F
100
AcDbEntity
  8
0
  6
Continuous
 62
     7
370
    25
100
AcDbLine
 10
-38.4566498275
 20
373.5928197596
 30
0.0
 11
-34.9032318149
 21
373.5928197596
 31
0.0
  0
SPLINE
  5
15A
330
1F
100
AcDbEntity
  8
0
  6
Continuous
 62
     7
370
    25
100
AcDbSpline
210
0.0
220
0.0
230
1.0
 70
     8
 71
     3
 72
     8
 73
     4
 74
     0
 42
0.000000001
 43
0.00000001
 40
0.0
 40
0.0
 40
0.0
 40
0.0
 40
1.0
 40
1.0
 40
1.0
 40
1.0
 10
-34.45664982752966
 20
366.0042244159609
 30
0.0
 10
-34.45664982752966
 20
366.817213987666
 30
0.0
 10
-34.63096512790892
 20
367.6079523837338
 30
0.0
 10
-34.903231814921
 20
368.3861873822106
 30
0.0
  0
SPLINE
  5
15B
330
1F
100
AcDbEntity
  8
0
  6
Continuous
 62
     7
370
    25
100
AcDbSpline
210
0.0
220
0.0
230
1.0
 70
     8
 71
     3
 72
     8
 73
     4
 74
     0
 42
0.000000001
 43
0.00000001
 40
0.0
 40
0.0
 40
0.0
 40
0.0
 40
1.0
 40
1.0
 40
1.0
 40
1.0
 10
-34.903231814921
 20
363.6222614497112
 30
0.0
 10
-34.63096512790958
 20
364.400496448186
 30
0.0
 10
-34.45664982752966
 20
365.1912348442578
 30
0.0
 10
-34.45664982752966
 20
366.0042244159609
 30
0.0
  0
LINE
  5
15C
330
1F
100
AcDbEntity
  8
0
  6
Continuous
 62
     7
370
    25
100
AcDbLine
 10
-38.4566498275
 20
363.6222614497
 30
0.0
 11
-34.9032318149
 21
363.6222614497
 31
0.0
  0
LINE
  5
15D
330
1F
100
AcDbEntity
  8
0
  6
Continuous
 62
     7
370
    25
100
AcDbLine
 10
-34.4566498275
 20
366.004224416
 30
0.0
 11
-34.4566498275
 21
370.9895035709
 31
0.0
  0
SPLINE
  5
15E
330
1F
100
AcDbEntity
  8
0
  6
Continuous
 62
     7
370
    25
100
AcDbSpline
210
0.0
220
0.0
230
1.0
 70
     8
 71
     3
 72
     8
 73
     4
 74
     0
 42
0.000000001
 43
0.00000001
 40
0.0
 40
0.0
 40
0.0
 40
0.0
 40
1.0
 40
1.0
 40
1.0
 40
1.0
 10
-34.90323181492089
 20
373.592819759601
 30
0.0
 10
-34.63096512790948
 20
373.6651402898398
 30
0.0
 10
-34.45664982752955
 20
373.7386227471903
 30
0.0
 10
-34.45664982752955
 20
373.8141729820415
 30
0.0
  0
LINE
  5
15F
330
1F
100
AcDbEntity
  8
0
  6
Continuous
 62
     7
370
    25
100
AcDbLine
 10
-34.4566498275
 20
370.9895035709
 30
0.0
 11
-34.4566498275
 21
373.814172982
 31
0.0
  0
SPLINE
  5
160
330
1F
100
AcDbEntity
  8
0
  6
Continuous
 62
     7
370
    25
100
AcDbSpline
210
0.0
220
0.0
230
1.0
 70
     8
 71
     3
 72
     8
 73
     4
 74
     0
 42
0.000000001
 43
0.00000001
 40
0.0
 40
0.0
 40
0.0
 40
0.0
 40
1.0
 40
1.0
 40
1.0
 40
1.0
 10
-34.45664982752955
 20
363.8436146721488
 30
0.0
 10
-34.45664982752955
 20
363.7680644372975
 30
0.0
 10
-34.63096512790897
 20
363.6945819799473
 30
0.0
 10
-34.90323181492094
 20
363.6222614497083
 30
0.0
  0
LINE
  5
161
330
1F
100
AcDbEntity
  8
0
  6
Continuous
 62
     7
370
    25
100
AcDbLine
 10
-34.4566498275
 20
366.004224416
 30
0.0
 11
-34.4566498275
 21
363.8362213333
 31
0.0
  0
SPLINE
  5
162
330
1F
100
AcDbEntity
  8
0
  6
Continuous
 62
     7
370
    25
100
AcDbSpline
210
0.0
220
0.0
230
1.0
 70
     8
 71
     3
 72
     8
 73
     4
 74
     0
 42
0.000000001
 43
0.00000001
 40
0.0
 40
0.0
 40
0.0
 40
0.0
 40
1.0
 40
1.0
 40
1.0
 40
1.0
 10
-34.45664982752955
 20
373.8141729820415
 30
0.0
 10
-34.45664982752955
 20
373.8897232168928
 30
0.0
 10
-34.63096512790897
 20
373.963205674243
 30
0.0
 10
-34.90323181492094
 20
374.035526204482
 30
0.0
  0
LINE
  5
163
330
1F
100
AcDbEntity
  8
0
  6
Continuous
 62
     7
370
    25
100
AcDbLine
 10
-38.4566498275
 20
374.0355262045
 30
0.0
 11
-34.9032318149
 21
374.0355262045
 31
0.0
  0
LINE
  5
164
330
1F
100
AcDbEntity
  8
0
  6
Continuous
 62
     7
370
    25
100
AcDbLine
 10
-48.9153998275
 20
370.1252596734
 30
0.0
 11
-48.9153998275
 21
365.8288938271
 31
0.0
  0
LINE
  5
165
330
1F
100
AcDbEntity
  8
0
  6
Continuous
 62
     7
370
    25
100
AcDbLine
 10
-48.9153998275
 20
371.8288938271
 30
0.0
 11
-48.9153998275
 21
370.1252596734
 31
0.0
  0
LINE
  5
166
330
1F
100
AcDbEntity
  8
0
  6
Continuous
 62
     7
370
    25
100
AcDbLine
 10
-49.4566498275
 20
371.2876438271
 30
0.0
 11
-49.4566498275
 21
366.3701438271
 31
0.0
  0
LINE
  5
167
330
1F
100
AcDbEntity
  8
0
  6
Continuous
 62
     7
370
    25
100
AcDbLine
 10
989.2923993843
 20
340.050267155
 30
0.0
 11
989.6553371626
 21
340.6788938271
 31
0.0
  0
LINE
  5
168
330
1F
100
AcDbEntity
  8
0
  6
Continuous
 62
     7
370
    25
100
AcDbLine
 10
989.6553371626
 20
346.9788938271
 30
0.0
 11
989.2923993843
 21
347.6075204992
 31
0.0
  0
ARC
  5
169
330
1F
100
AcDbEntity
  8
0
  6
Continuous
 62
     7
370
    25
100
AcDbCircle
 10
986.4271339324
 20
343.8288938271
 30
0.0
 40
8.000000000000066
100
AcDbArc
 50
330.0
 51
344.7252520003
  0
ARC
  5
16A
330
1F
100
AcDbEntity
  8
0
  6
Continuous
 62
     7
370
    25
100
AcDbCircle
 10
986.4271339324
 20
343.8288938271
 30
0.0
 40
8.000000000000044
100
AcDbArc
 50
15.2747479997
 51
30.0
  0
LINE
  5
16B
330
1F
100
AcDbEntity
  8
0
  6
Continuous
 62
     7
370
    25
100
AcDbLine
 10
991.3553371627
 20
339.8288938271
 30
0.0
 11
993.3553371627
 21
339.8288938271
 31
0.0
  0
LINE
  5
16C
330
1F
100
AcDbEntity
  8
0
  6
Continuous
 62
     7
370
    25
100
AcDbLine
 10
993.3553371627
 20
347.8288938271
 30
0.0
 11
991.3553371627
 21
347.8288938271
 31
0.0
  0
LINE
  5
16D
330
1F
100
AcDbEntity
  8
0
  6
Continuous
 62
     7
370
    25
100
AcDbLine
 10
989.6553371626
 20
341.8288938271
 30
0.0
 11
989.7553371627
 21
341.8288938271
 31
0.0
  0
LINE
  5
16E
330
1F
100
AcDbEntity
  8
0
  6
Continuous
 62
     7
370
    25
100
AcDbLine
 10
989.7553371627
 20
345.8288938271
 30
0.0
 11
989.6553371626
 21
345.8288938271
 31
0.0
  0
LINE
  5
16F
330
1F
100
AcDbEntity
  8
0
  6
Continuous
 62
     7
370
    25
100
AcDbLine
 10
996.6553371627
 20
339.358183149
 30
0.0
 11
996.6553371627
 21
196.2996045052
 31
0.0
  0
LINE
  5
170
330
1F
100
AcDbEntity
  8
0
  6
Continuous
 62
     7
370
    25
100
AcDbLine
 10
1006.2553371627
 20
339.358183149
 30
0.0
 11
996.6553371627
 21
339.358183149
 31
0.0
  0
LINE
  5
171
330
1F
100
AcDbEntity
  8
0
  6
Continuous
 62
     7
370
    25
100
AcDbLine
 10
1006.2553371627
 20
196.2996045052
 30
0.0
 11
996.6553371627
 21
196.2996045052
 31
0.0
  0
SPLINE
  5
172
330
1F
100
AcDbEntity
  8
0
  6
Continuous
 62
     7
370
    25
100
AcDbSpline
210
0.0
220
0.0
230
1.0
 70
     8
 71
     3
 72
    20
 73
    16
 74
     0
 42
0.000000001
 43
0.00000001
 40
0.0
 40
0.0
 40
0.0
 40
0.0
 40
0.1249999999999993
 40
0.1249999999999993
 40
0.2499999999999987
 40
0.2499999999999987
 40
0.374999999999998
 40
0.374999999999998
 40
0.4999999999999973
 40
0.4999999999999973
 40
0.7499999999999987
 40
0.7499999999999987
 40
0.8749999999999993
 40
0.8749999999999993
 40
1.0
 40
1.0
 40
1.0
 40
1.0
 10
1006.25533716265
 20
339.3581831489739
 30
0.0
 10
1006.413716350301
 20
339.3191424181193
 30
0.0
 10
1006.569962074992
 20
339.2806237139195
 30
0.0
 10
1006.877953924409
 20
339.2032169626116
 30
0.0
 10
1007.03059803188
 20
339.1640725446249
 30
0.0
 10
1007.319682321067
 20
339.0869217907097
 30
0.0
 10
1007.457486859251
 20
339.0485942089687
 30
0.0
 10
1007.71910553489
 20
338.9710478884921
 30
0.0
 10
1007.841851841573
 20
338.9320716808234
 30
0.0
 10
1008.17317621852
 20
338.8165768243784
 30
0.0
 10
1008.352187342549
 20
338.7386643807083
 30
0.0
 10
1008.53180244193
 20
338.6231844553075
 30
0.0
 10
1008.578046790797
 20
338.5843186594424
 30
0.0
 10
1008.639800096809
 20
338.5065443257739
 30
0.0
 10
1008.65533716265
 20
338.4679345588191
 30
0.0
 10
1008.65533716265
 20
338.4288938270924
 30
0.0
  0
LINE
  5
173
330
1F
100
AcDbEntity
  8
0
  6
Continuous
 62
     7
370
    25
100
AcDbLine
 10
1008.6553371627
 20
338.4288938271
 30
0.0
 11
1008.6553371626
 21
197.2288938271
 31
0.0
  0
SPLINE
  5
174
330
1F
100
AcDbEntity
  8
0
  6
Continuous
 62
     7
370
    25
100
AcDbSpline
210
0.0
220
0.0
230
1.0
 70
     8
 71
     3
 72
    20
 73
    16
 74
     0
 42
0.000000001
 43
0.00000001
 40
0.0
 40
0.0
 40
0.0
 40
0.0
 40
0.1249999999999943
 40
0.1249999999999943
 40
0.2499999999999886
 40
0.2499999999999886
 40
0.3749999999999828
 40
0.3749999999999828
 40
0.4999999999999771
 40
0.4999999999999771
 40
0.7499999999999979
 40
0.7499999999999979
 40
0.8749999999999989
 40
0.8749999999999989
 40
1.0
 40
1.0
 40
1.0
 40
1.0
 10
1008.65533716265
 20
197.2288938270925
 30
0.0
 10
1008.65533716265
 20
197.189853096238
 30
0.0
 10
1008.639800602175
 20
197.1513343920382
 30
0.0
 10
1008.578482250215
 20
197.0739276407302
 30
0.0
 10
1008.532058504628
 20
197.0347832227435
 30
0.0
 10
1008.412107634474
 20
196.9576324688284
 30
0.0
 10
1008.33850299019
 20
196.9193048870873
 30
0.0
 10
1008.163772624095
 20
196.8417585666108
 30
0.0
 10
1008.062921995193
 20
196.8027823589421
 30
0.0
 10
1007.731636715209
 20
196.6872875024971
 30
0.0
 10
1007.463956553825
 20
196.609375058827
 30
0.0
 10
1007.03128252777
 20
196.4938951334262
 30
0.0
 10
1006.879764440919
 20
196.4550293375611
 30
0.0
 10
1006.570338683533
 20
196.3772550038926
 30
0.0
 10
1006.413716353839
 20
196.3386452369379
 30
0.0
 10
1006.25533716265
 20
196.2996045052112
 30
0.0
  0
SPLINE
  5
175
330
1F
100
AcDbEntity
  8
0
  6
Continuous
 62
     7
370
    25
100
AcDbSpline
210
0.0
220
0.0
230
1.0
 70
     8
 71
     3
 72
    20
 73
    16
 74
     0
 42
0.000000001
 43
0.00000001
 40
0.0
 40
0.0
 40
0.0
 40
0.0
 40
0.1250000000000039
 40
0.1250000000000039
 40
0.2500000000000077
 40
0.2500000000000077
 40
0.3750000000000115
 40
0.3750000000000115
 40
0.5000000000000154
 40
0.5000000000000154
 40
0.7500000000000129
 40
0.7500000000000129
 40
0.8750000000000064
 40
0.8750000000000064
 40
1.0
 40
1.0
 40
1.0
 40
1.0
 10
1008.65533716265
 20
338.4288938270923
 30
0.0
 10
1008.65533716265
 20
338.5872730147431
 30
0.0
 10
1008.639800602175
 20
338.7435187394348
 30
0.0
 10
1008.578482250215
 20
339.0515105888514
 30
0.0
 10
1008.532058504628
 20
339.2041546963225
 30
0.0
 10
1008.412107634474
 20
339.4932389855097
 30
0.0
 10
1008.33850299019
 20
339.6310435236937
 30
0.0
 10
1008.163772624095
 20
339.8926621993326
 30
0.0
 10
1008.062921995193
 20
340.0154085060153
 30
0.0
 10
1007.731636715209
 20
340.3467328829629
 30
0.0
 10
1007.463956553825
 20
340.5257440069912
 30
0.0
 10
1007.03128252777
 20
340.705359106372
 30
0.0
 10
1006.879764440919
 20
340.7516034552398
 30
0.0
 10
1006.570338683533
 20
340.813356761251
 30
0.0
 10
1006.413716353839
 20
340.8288938270925
 30
0.0
 10
1006.25533716265
 20
340.8288938270925
 30
0.0
  0
SPLINE
  5
176
330
1F
100
AcDbEntity
  8
0
  6
Continuous
 62
     7
370
    25
100
AcDbSpline
210
0.0
220
0.0
230
1.0
 70
     8
 71
     3
 72
     9
 73
     5
 74
     0
 42
0.000000001
 43
0.00000001
 40
0.0
 40
0.0
 40
0.0
 40
0.0
 40
0.4825784287291601
 40
1.0
 40
1.0
 40
1.0
 40
1.0
 10
1006.867876901828
 20
339.2050640590389
 30
0.0
 10
1006.779742560512
 20
339.2688722521003
 30
0.0
 10
1006.597110399459
 20
339.4010957193394
 30
0.0
 10
1006.371877515414
 20
339.419415023796
 30
0.0
 10
1006.25533716265
 20
339.4288938270925
 30
0.0
  0
LINE
  5
177
330
1F
100
AcDbEntity
  8
0
  6
Continuous
 62
     7
370
    25
100
AcDbLine
 10
1006.2553371627
 20
340.8288938271
 30
0.0
 11
1006.2553371627
 21
339.4288938271
 31
0.0
  0
LINE
  5
178
330
1F
100
AcDbEntity
  8
0
  6
Continuous
 62
     7
370
    25
100
AcDbLine
 10
1006.2553371627
 20
194.8288938271
 30
0.0
 11
1006.2553371627
 21
196.2288938271
 31
0.0
  0
SPLINE
  5
179
330
1F
100
AcDbEntity
  8
0
  6
Continuous
 62
     7
370
    25
100
AcDbSpline
210
0.0
220
0.0
230
1.0
 70
     8
 71
     3
 72
     9
 73
     5
 74
     0
 42
0.000000001
 43
0.00000001
 40
0.0
 40
0.0
 40
0.0
 40
0.0
 40
0.732937950727338
 40
1.0
 40
1.0
 40
1.0
 40
1.0
 10
1006.25533716265
 20
196.2288938270927
 30
0.0
 10
1006.406725804306
 20
196.2406484766104
 30
0.0
 10
1006.613276224441
 20
196.2566861909981
 30
0.0
 10
1006.76863656656
 20
196.3850234974919
 30
0.0
 10
1006.810127417902
 20
196.4192975215623
 30
0.0
  0
SPLINE
  5
17A
330
1F
100
AcDbEntity
  8
0
  6
Continuous
 62
     7
370
    25
100
AcDbSpline
210
0.0
220
0.0
230
1.0
 70
     8
 71
     3
 72
    20
 73
    16
 74
     0
 42
0.000000001
 43
0.00000001
 40
0.0
 40
0.0
 40
0.0
 40
0.0
 40
0.125
 40
0.125
 40
0.25
 40
0.25
 40
0.375
 40
0.375
 40
0.5
 40
0.5
 40
0.75
 40
0.75
 40
0.875
 40
0.875
 40
1.0
 40
1.0
 40
1.0
 40
1.0
 10
1006.25533716265
 20
194.8288938270927
 30
0.0
 10
1006.413716350301
 20
194.8288938270927
 30
0.0
 10
1006.569962074992
 20
194.8444303875675
 30
0.0
 10
1006.877953924409
 20
194.9057487395281
 30
0.0
 10
1007.03059803188
 20
194.9521724851149
 30
0.0
 10
1007.319682321067
 20
195.072123355269
 30
0.0
 10
1007.457486859251
 20
195.1457279995524
 30
0.0
 10
1007.71910553489
 20
195.320458365648
 30
0.0
 10
1007.841851841573
 20
195.4213089945496
 30
0.0
 10
1008.17317621852
 20
195.7525942745335
 30
0.0
 10
1008.352187342549
 20
196.0202744359173
 30
0.0
 10
1008.53180244193
 20
196.4529484619727
 30
0.0
 10
1008.578046790797
 20
196.6044665488238
 30
0.0
 10
1008.639800096808
 20
196.9138923062099
 30
0.0
 10
1008.65533716265
 20
197.0705146359037
 30
0.0
 10
1008.65533716265
 20
197.2288938270924
 30
0.0
  0
LINE
  5
17B
330
1F
100
AcDbEntity
  8
0
  6
Continuous
 62
     7
370
    25
100
AcDbLine
 10
996.6553371627
 20
340.8288938271
 30
0.0
 11
996.6553371627
 21
339.4288938271
 31
0.0
  0
LINE
  5
17C
330
1F
100
AcDbEntity
  8
0
  6
Continuous
 62
     7
370
    25
100
AcDbLine
 10
1006.2553371627
 20
340.8288938271
 30
0.0
 11
996.6553371627
 21
340.8288938271
 31
0.0
  0
LINE
  5
17D
330
1F
100
AcDbEntity
  8
0
  6
Continuous
 62
     7
370
    25
100
AcDbLine
 10
1006.2553371627
 20
339.4288938271
 30
0.0
 11
996.6553371627
 21
339.4288938271
 31
0.0
  0
LINE
  5
17E
330
1F
100
AcDbEntity
  8
0
  6
Continuous
 62
     7
370
    25
100
AcDbLine
 10
1006.2553371627
 20
196.2288938271
 30
0.0
 11
996.6553371627
 21
196.2288938271
 31
0.0
  0
LINE
  5
17F
330
1F
100
AcDbEntity
  8
0
  6
Continuous
 62
     7
370
    25
100
AcDbLine
 10
1006.2553371627
 20
194.8288938271
 30
0.0
 11
996.6553371627
 21
194.8288938271
 31
0.0
  0
LINE
  5
180
330
1F
100
AcDbEntity
  8
0
  6
Continuous
 62
     7
370
    25
100
AcDbLine
 10
996.6553371627
 20
194.8288938271
 30
0.0
 11
996.6553371627
 21
196.2288938271
 31
0.0
  0
LINE
  5
181
330
1F
100
AcDbEntity
  8
0
  6
Continuous
 62
     7
370
    25
100
AcDbLine
 10
988.5553371627
 20
355.3288938271
 30
0.0
 11
992.5553371627
 21
355.3288938271
 31
0.0
  0
LINE
  5
182
330
1F
100
AcDbEntity
  8
0
  6
Continuous
 62
     7
370
    25
100
AcDbLine
 10
988.5553371627
 20
338.1288938271
 30
0.0
 11
988.5553371627
 21
355.3288938271
 31
0.0
  0
LINE
  5
183
330
1F
100
AcDbEntity
  8
0
  6
Continuous
 62
     7
370
    25
100
AcDbLine
 10
969.5553371627
 20
372.3288938271
 30
0.0
 11
969.5553371627
 21
338.1288938271
 31
0.0
  0
ARC
  5
184
330
1F
100
AcDbEntity
  8
0
  6
Continuous
 62
     7
370
    25
100
AcDbCircle
 10
972.5553371627
 20
372.3288938271
 30
0.0
 40
3.0
100
AcDbArc
 50
90.0
 51
180.0
  0
LINE
  5
185
330
1F
100
AcDbEntity
  8
0
  6
Continuous
 62
     7
370
    25
100
AcDbLine
 10
989.5553371627
 20
375.3288938271
 30
0.0
 11
972.5553371627
 21
375.3288938271
 31
0.0
  0
ARC
  5
186
330
1F
100
AcDbEntity
  8
0
  6
Continuous
 62
     7
370
    25
100
AcDbCircle
 10
989.5553371627
 20
372.3288938271
 30
0.0
 40
3.0
100
AcDbArc
 50
0.0
 51
90.0
  0
LINE
  5
187
330
1F
100
AcDbEntity
  8
0
  6
Continuous
 62
     7
370
    25
100
AcDbLine
 10
992.5553371627
 20
355.3288938271
 30
0.0
 11
992.5553371627
 21
372.3288938271
 31
0.0
  0
CIRCLE
  5
188
330
1F
100
AcDbEntity
  8
0
  6
Continuous
 62
     7
370
    25
100
AcDbCircle
 10
978.0553371627
 20
368.8288938271
 30
0.0
 40
3.249999999999829
  0
CIRCLE
  5
189
330
1F
100
AcDbEntity
  8
0
  6
Continuous
 62
     7
370
    25
100
AcDbCircle
 10
978.0553371627
 20
343.8288938271
 30
0.0
 40
3.249999999999829
  0
LINE
  5
18A
330
1F
100
AcDbEntity
  8
0
  6
Continuous
 62
     7
370
    25
100
AcDbLine
 10
969.5553371627
 20
336.3288938271
 30
0.0
 11
969.5553371627
 21
338.1288938271
 31
0.0
  0
LINE
  5
18B
330
1F
100
AcDbEntity
  8
0
  6
Continuous
 62
     7
370
    25
100
AcDbLine
 10
988.5553371627
 20
338.1288938271
 30
0.0
 11
988.5553371627
 21
336.3288938271
 31
0.0
  0
LINE
  5
18C
330
1F
100
AcDbEntity
  8
0
  6
Continuous
 62
     7
370
    25
100
AcDbLine
 10
988.5553371627
 20
336.3288938271
 30
0.0
 11
969.5553371627
 21
336.3288938271
 31
0.0
  0
LINE
  5
18D
330
1F
100
AcDbEntity
  8
0
  6
Continuous
 62
     7
370
    25
100
AcDbLine
 10
989.7553371627
 20
348.3288938271
 30
0.0
 11
989.7553371627
 21
338.1288938271
 31
0.0
  0
LINE
  5
18E
330
1F
100
AcDbEntity
  8
0
  6
Continuous
 62
     7
370
    25
100
AcDbLine
 10
990.5553371627
 20
348.3288938271
 30
0.0
 11
989.7553371627
 21
348.3288938271
 31
0.0
  0
LINE
  5
18F
330
1F
100
AcDbEntity
  8
0
  6
Continuous
 62
     7
370
    25
100
AcDbLine
 10
988.5553371627
 20
336.3288938271
 30
0.0
 11
988.7553371626
 21
336.3288938271
 31
0.0
  0
LINE
  5
190
330
1F
100
AcDbEntity
  8
0
  6
Continuous
 62
     7
370
    25
100
AcDbLine
 10
988.5553371627
 20
337.1288938271
 30
0.0
 11
988.7553371626
 21
337.1288938271
 31
0.0
  0
ARC
  5
191
330
1F
100
AcDbEntity
  8
0
  6
Continuous
 62
     7
370
    25
100
AcDbCircle
 10
988.7553371627
 20
338.1288938271
 30
0.0
 40
1.800000000000068
100
AcDbArc
 50
270.0
 51
0.0
  0
ARC
  5
192
330
1F
100
AcDbEntity
  8
0
  6
Continuous
 62
     7
370
    25
100
AcDbCircle
 10
988.7553371627
 20
338.1288938271
 30
0.0
 40
1.0
100
AcDbArc
 50
270.0
 51
0.0
  0
LINE
  5
193
330
1F
100
AcDbEntity
  8
0
  6
Continuous
 62
     7
370
    25
100
AcDbLine
 10
945.5553371627
 20
336.3288938271
 30
0.0
 11
945.5553371627
 21
337.1288938271
 31
0.0
  0
LINE
  5
194
330
1F
100
AcDbEntity
  8
0
  6
Continuous
 62
     7
370
    25
100
AcDbLine
 10
948.5553371627
 20
336.3288938271
 30
0.0
 11
945.5553371627
 21
336.3288938271
 31
0.0
  0
LINE
  5
195
330
1F
100
AcDbEntity
  8
0
  6
Continuous
 62
     7
370
    25
100
AcDbLine
 10
945.5553371627
 20
337.1288938271
 30
0.0
 11
948.5553371627
 21
337.1288938271
 31
0.0
  0
LINE
  5
196
330
1F
100
AcDbEntity
  8
0
  6
Continuous
 62
     7
370
    25
100
AcDbLine
 10
948.5553371627
 20
336.3288938271
 30
0.0
 11
969.5553371627
 21
336.3288938271
 31
0.0
  0
LINE
  5
197
330
1F
100
AcDbEntity
  8
0
  6
Continuous
 62
     7
370
    25
100
AcDbLine
 10
948.5553371627
 20
337.1288938271
 30
0.0
 11
969.5553371627
 21
337.1288938271
 31
0.0
  0
LINE
  5
198
330
1F
100
AcDbEntity
  8
0
  6
Continuous
 62
     7
370
    25
100
AcDbLine
 10
963.6932863551
 20
337.2628684233
 30
0.0
 11
957.0684152245
 21
341.0877395539
 31
0.0
  0
LINE
  5
199
330
1F
100
AcDbEntity
  8
0
  6
Continuous
 62
     7
370
    25
100
AcDbLine
 10
962.3253371627
 20
337.1288938271
 30
0.0
 11
956.6684152245
 21
340.3949192309
 31
0.0
  0
ARC
  5
19A
330
1F
100
AcDbEntity
  8
0
  6
Continuous
 62
     7
370
    25
100
AcDbCircle
 10
964.1932863551
 20
338.1288938271
 30
0.0
 40
0.9999999999999836
100
AcDbArc
 50
240.0
 51
270.0
  0
ARC
  5
19B
330
1F
100
AcDbEntity
  8
0
  6
Continuous
 62
     7
370
    25
100
AcDbCircle
 10
956.1684152245
 20
339.5288938271
 30
0.0
 40
1.000000000000057
100
AcDbArc
 50
60.0
 51
90.0
  0
ARC
  5
19C
330
1F
100
AcDbEntity
  8
0
  6
Continuous
 62
     7
370
    25
100
AcDbCircle
 10
956.1684152245
 20
339.5288938271
 30
0.0
 40
1.800000000000068
100
AcDbArc
 50
60.0
 51
90.0
  0
LINE
  5
19D
330
1F
100
AcDbEntity
  8
0
  6
Continuous
 62
     7
370
    25
100
AcDbLine
 10
949.6507237709
 20
341.3288938271
 30
0.0
 11
956.1684152245
 21
341.3288938271
 31
0.0
  0
LINE
  5
19E
330
1F
100
AcDbEntity
  8
0
  6
Continuous
 62
     7
370
    25
100
AcDbLine
 10
949.6507237709
 20
340.5288938271
 30
0.0
 11
956.1684152245
 21
340.5288938271
 31
0.0
  0
LINE
  5
19F
330
1F
100
AcDbEntity
  8
0
  6
Continuous
 62
     7
370
    25
100
AcDbLine
 10
946.6507237709
 20
340.5288938271
 30
0.0
 11
946.6507237709
 21
341.3288938271
 31
0.0
  0
LINE
  5
1A0
330
1F
100
AcDbEntity
  8
0
  6
Continuous
 62
     7
370
    25
100
AcDbLine
 10
946.6507237709
 20
341.3288938271
 30
0.0
 11
949.6507237709
 21
341.3288938271
 31
0.0
  0
LINE
  5
1A1
330
1F
100
AcDbEntity
  8
0
  6
Continuous
 62
     7
370
    25
100
AcDbLine
 10
949.6507237709
 20
340.5288938271
 30
0.0
 11
946.6507237709
 21
340.5288938271
 31
0.0
  0
LINE
  5
1A2
330
1F
100
AcDbEntity
  8
0
  6
Continuous
 62
     7
370
    25
100
AcDbLine
 10
988.5553371627
 20
345.269723149
 30
0.0
 11
989.1406571773
 21
345.269723149
 31
0.0
  0
SPLINE
  5
1A3
330
1F
100
AcDbEntity
  8
0
  6
Continuous
 62
     7
370
    25
100
AcDbSpline
210
0.0
220
0.0
230
1.0
 70
     8
 71
     3
 72
    14
 73
    10
 74
     0
 42
0.000000001
 43
0.00000001
 40
0.0
 40
0.0
 40
0.0
 40
0.0
 40
0.25
 40
0.25
 40
0.5
 40
0.5
 40
0.75
 40
0.75
 40
1.0
 40
1.0
 40
1.0
 40
1.0
 10
989.140657177264
 20
345.2697231489631
 30
0.0
 10
989.2355317865745
 20
344.9452169196745
 30
0.0
 10
989.3151367114504
 20
344.6127576972801
 30
0.0
 10
989.4239733263446
 20
343.9461877823719
 30
0.0
 10
989.4532969320351
 20
343.6111115250966
 30
0.0
 10
989.4532321502894
 20
342.9367680548689
 30
0.0
 10
989.4230759569631
 20
342.59498863419
 30
0.0
 10
989.3134907555974
 20
341.9285747145853
 30
0.0
 10
989.2349477817952
 20
341.6018006686326
 30
0.0
 10
989.140657177264
 20
341.2792919515362
 30
0.0
  0
LINE
  5
1A4
330
1F
100
AcDbEntity
  8
0
  6
Continuous
 62
     7
370
    25
100
AcDbLine
 10
988.5553371627
 20
341.2792919515
 30
0.0
 11
989.1406571773
 21
341.2792919515
 31
0.0
  0
SPLINE
  5
1A5
330
1F
100
AcDbEntity
  8
0
  6
Continuous
 62
     7
370
    25
100
AcDbSpline
210
0.0
220
0.0
230
1.0
 70
     8
 71
     3
 72
    12
 73
     8
 74
     0
 42
0.000000001
 43
0.00000001
 40
0.0
 40
0.0
 40
0.0
 40
0.0
 40
0.5000000000000207
 40
0.5000000000000207
 40
0.7500000000000103
 40
0.7500000000000103
 40
1.0
 40
1.0
 40
1.0
 40
1.0
 10
989.140657177265
 20
339.8384626296657
 30
0.0
 10
989.3311514666885
 20
340.0737224221087
 30
0.0
 10
989.4528258797508
 20
340.3125071149592
 30
0.0
 10
989.453482070282
 20
340.6799986475162
 30
0.0
 10
989.4236480684878
 20
340.8023708421656
 30
0.0
 10
989.3147181983801
 20
341.0427545273251
 30
0.0
 10
989.2360230113172
 20
341.1615154743866
 30
0.0
 10
989.1406571772645
 20
341.2792919515363
 30
0.0
  0
SPLINE
  5
1A6
330
1F
100
AcDbEntity
  8
0
  6
Continuous
 62
     7
370
    25
100
AcDbSpline
210
0.0
220
0.0
230
1.0
 70
     8
 71
     3
 72
    12
 73
     8
 74
     0
 42
0.000000001
 43
0.00000001
 40
0.0
 40
0.0
 40
0.0
 40
0.0
 40
0.5000000000000031
 40
0.5000000000000031
 40
0.7500000000000016
 40
0.7500000000000016
 40
1.0
 40
1.0
 40
1.0
 40
1.0
 10
989.140657177265
 20
345.269723148963
 30
0.0
 10
989.3311514666885
 20
345.6860242326175
 30
0.0
 10
989.4528258797508
 20
346.1085627606059
 30
0.0
 10
989.453482070282
 20
346.7588529000668
 30
0.0
 10
989.4236480684878
 20
346.9753951179812
 30
0.0
 10
989.3147181983801
 20
347.4007631232216
 30
0.0
 10
989.2360230113172
 20
347.6109151022068
 30
0.0
 10
989.1406571772645
 20
347.8193250245195
 30
0.0
  0
LINE
  5
1A7
330
1F
100
AcDbEntity
  8
0
  6
Continuous
 62
     7
370
    25
100
AcDbLine
 10
989.1406571773
 20
347.8193250245
 30
0.0
 11
989.2385322145
 21
347.5764202742
 31
0.0
  0
LINE
  5
1A8
330
1F
100
AcDbEntity
  8
0
  6
Continuous
 62
     7
370
    25
100
AcDbLine
 10
989.6553371626
 20
343.3299461779
 30
0.0
 11
989.6553371626
 21
340.6788938271
 31
0.0
  0
LINE
  5
1A9
330
1F
100
AcDbEntity
  8
0
  6
Continuous
 62
     7
370
    25
100
AcDbLine
 10
989.6553371626
 20
346.9788938271
 30
0.0
 11
989.6553371626
 21
343.3299461779
 31
0.0
  0
LINE
  5
1AA
330
1F
100
AcDbEntity
  8
0
  6
Continuous
 62
     7
370
    25
100
AcDbLine
 10
988.5553371626
 20
347.8193250245
 30
0.0
 11
989.1406571773
 21
347.8193250245
 31
0.0
  0
LINE
  5
1AB
330
1F
100
AcDbEntity
  8
0
  6
Continuous
 62
     7
370
    25
100
AcDbLine
 10
988.5553371626
 20
339.8384626297
 30
0.0
 11
989.1406571773
 21
339.8384626297
 31
0.0
  0
LINE
  5
1AC
330
1F
100
AcDbEntity
  8
0
  6
Continuous
 62
     7
370
    25
100
AcDbLine
 10
997.1053371627
 20
352.1288938271
 30
0.0
 11
1002.2553371627
 21
352.1288938271
 31
0.0
  0
LINE
  5
1AD
330
1F
100
AcDbEntity
  8
0
  6
Continuous
 62
     7
370
    25
100
AcDbLine
 10
997.1053371627
 20
352.9288938271
 30
0.0
 11
997.1053371627
 21
352.1288938271
 31
0.0
  0
LINE
  5
1AE
330
1F
100
AcDbEntity
  8
0
  6
Continuous
 62
     7
370
    25
100
AcDbLine
 10
997.1053371627
 20
352.9288938271
 30
0.0
 11
1002.2553371627
 21
352.9288938271
 31
0.0
  0
LINE
  5
1AF
330
1F
100
AcDbEntity
  8
0
  6
Continuous
 62
     7
370
    25
100
AcDbLine
 10
1002.2553371627
 20
352.9288938271
 30
0.0
 11
1002.2553371627
 21
353.0288938271
 31
0.0
  0
LINE
  5
1B0
330
1F
100
AcDbEntity
  8
0
  6
Continuous
 62
     7
370
    25
100
AcDbLine
 10
992.3553371627
 20
353.0288938271
 30
0.0
 11
1002.2553371627
 21
353.0288938271
 31
0.0
  0
LINE
  5
1B1
330
1F
100
AcDbEntity
  8
0
  6
Continuous
 62
     7
370
    25
100
AcDbLine
 10
992.3553371627
 20
353.0288938271
 30
0.0
 11
992.3553371627
 21
353.8288938271
 31
0.0
  0
LINE
  5
1B2
330
1F
100
AcDbEntity
  8
0
  6
Continuous
 62
     7
370
    25
100
AcDbLine
 10
1002.2553371627
 20
353.8288938271
 30
0.0
 11
992.3553371627
 21
353.8288938271
 31
0.0
  0
ARC
  5
1B3
330
1F
100
AcDbEntity
  8
0
  6
Continuous
 62
     7
370
    25
100
AcDbCircle
 10
1002.2553371627
 20
352.9788938271
 30
0.0
 40
0.8500000000000227
100
AcDbArc
 50
270.0
 51
90.0
  0
LINE
  5
1B4
330
1F
100
AcDbEntity
  8
0
  6
Continuous
 62
     7
370
    25
100
AcDbLine
 10
992.3553371627
 20
333.8288938271
 30
0.0
 11
992.3553371627
 21
334.6288938271
 31
0.0
  0
LINE
  5
1B5
330
1F
100
AcDbEntity
  8
0
  6
Continuous
 62
     7
370
    25
100
AcDbLine
 10
996.6553371626
 20
334.6288938271
 30
0.0
 11
992.3553371627
 21
334.6288938271
 31
0.0
  0
LINE
  5
1B6
330
1F
100
AcDbEntity
  8
0
  6
Continuous
 62
     7
370
    25
100
AcDbLine
 10
996.6553371626
 20
333.8288938271
 30
0.0
 11
992.3553371627
 21
333.8288938271
 31
0.0
  0
ARC
  5
1B7
330
1F
100
AcDbEntity
  8
0
  6
Continuous
 62
     7
370
    25
100
AcDbCircle
 10
992.3553371627
 20
335.6288938271
 30
0.0
 40
1.800000000000239
100
AcDbArc
 50
180.0
 51
270.0
  0
LINE
  5
1B8
330
1F
100
AcDbEntity
  8
0
  6
Continuous
 62
     7
370
    25
100
AcDbLine
 10
990.5553371627
 20
335.6288938271
 30
0.0
 11
990.5553371626
 21
352.0288938271
 31
0.0
  0
ARC
  5
1B9
330
1F
100
AcDbEntity
  8
0
  6
Continuous
 62
     7
370
    25
100
AcDbCircle
 10
992.3553371627
 20
335.6288938271
 30
0.0
 40
1.000000000000057
100
AcDbArc
 50
180.0
 51
270.0
  0
LINE
  5
1BA
330
1F
100
AcDbEntity
  8
0
  6
Continuous
 62
     7
370
    25
100
AcDbLine
 10
991.3553371627
 20
352.0288938271
 30
0.0
 11
991.3553371627
 21
335.6288938271
 31
0.0
  0
ARC
  5
1BB
330
1F
100
AcDbEntity
  8
0
  6
Continuous
 62
     7
370
    25
100
AcDbCircle
 10
992.3553371627
 20
352.0288938271
 30
0.0
 40
1.800000000000182
100
AcDbArc
 50
90.0
 51
180.0
  0
ARC
  5
1BC
330
1F
100
AcDbEntity
  8
0
  6
Continuous
 62
     7
370
    25
100
AcDbCircle
 10
992.3553371627
 20
352.0288938271
 30
0.0
 40
1.000000000000114
100
AcDbArc
 50
90.0
 51
180.0
  0
CIRCLE
  5
1BD
330
1F
100
AcDbEntity
  8
0
  6
Continuous
 62
     7
370
    25
100
AcDbCircle
 10
978.0553371627
 20
343.8288938271
 30
0.0
 40
2.458750000016599
  0
CIRCLE
  5
1BE
330
1F
100
AcDbEntity
  8
0
  6
Continuous
 62
     7
370
    25
100
AcDbCircle
 10
978.0553371627
 20
343.8288938271
 30
0.0
 40
2.99999999999999
  0
ARC
  5
1BF
330
1F
100
AcDbEntity
  8
0
  6
Continuous
 62
     7
370
    25
100
AcDbCircle
 10
986.6183572649
 20
343.7329558072
 30
0.0
 40
7.786288415101424
100
AcDbArc
 50
4.3702527064
 51
15.2299003794
  0
ARC
  5
1C0
330
1F
100
AcDbEntity
  8
0
  6
Continuous
 62
     7
370
    25
100
AcDbCircle
 10
993.8576137285
 20
344.6394094095
 30
0.0
 40
0.6107675350093855
100
AcDbArc
 50
296.6101963367
 51
329.1575418586
  0
ARC
  5
1C1
330
1F
100
AcDbEntity
  8
0
  6
Continuous
 62
     7
370
    25
100
AcDbCircle
 10
985.051551587
 20
343.5009123145
 30
0.0
 40
9.098942710247787
100
AcDbArc
 50
356.2668736478
 51
3.7331263522
  0
ARC
  5
1C2
330
1F
100
AcDbEntity
  8
0
  6
Continuous
 62
     7
370
    25
100
AcDbCircle
 10
993.8576137285
 20
343.4545586247
 30
0.0
 40
0.610767535008984
100
AcDbArc
 50
296.6101963367
 51
329.1575418587
  0
ARC
  5
1C3
330
1F
100
AcDbEntity
  8
0
  6
Continuous
 62
     7
370
    25
100
AcDbCircle
 10
986.6183572649
 20
343.734756552
 30
0.0
 40
7.786288415100286
100
AcDbArc
 50
344.7700996206
 51
355.6297472936
  0
ARC
  5
1C4
330
1F
100
AcDbEntity
  8
0
  6
Continuous
 62
     7
370
    25
100
AcDbCircle
 10
993.998103384
 20
341.7632914503
 30
0.0
 40
0.1522432420582588
100
AcDbArc
 50
330.9451665854
 51
359.1449116565
  0
LWPOLYLINE
  5
1C5
330
1F
100
AcDbEntity
  8
0
  6
Continuous
 62
     7
370
    25
100
AcDbPolyline
 90
        3
 70
   128
 43
0.0
 10
994.3820066529
 20
343.3315060821
 10
994.3657818042
 20
343.1478077533
 10
994.3651396612
 20
343.1414307872
  0
ARC
  5
1C6
330
1F
100
AcDbEntity
  8
0
  6
Continuous
 62
     7
370
    25
100
AcDbCircle
 10
993.8576137285
 20
343.0183782446
 30
0.0
 40
0.6107675350090525
100
AcDbArc
 50
30.8424581413
 51
63.3898036633
  0
ARC
  5
1C7
330
1F
100
AcDbEntity
  8
0
  6
Continuous
 62
     7
370
    25
100
AcDbCircle
 10
984.9746798075
 20
344.159891196
 30
0.0
 40
9.17581504315951
100
AcDbArc
 50
357.932732127
 51
359.656210105
  0
ARC
  5
1C8
330
1F
100
AcDbEntity
  8
0
  6
Continuous
 62
     7
370
    25
100
AcDbCircle
 10
986.6183572649
 20
343.9230311022
 30
0.0
 40
7.786288415097875
100
AcDbArc
 50
4.3702527064
 51
15.2299003794
  0
ARC
  5
1C9
330
1F
100
AcDbEntity
  8
0
  6
Continuous
 62
     7
370
    25
100
AcDbCircle
 10
993.9100655976
 20
345.8733949434
 30
0.0
 40
0.2406805056720744
100
AcDbArc
 50
336.7420981705
 51
23.2579018295
  0
LINE
  5
1CA
330
1F
100
AcDbEntity
  8
0
  6
Continuous
 62
     7
370
    25
100
AcDbLine
 10
993.3553371627
 20
347.7783964431
 30
0.0
 11
993.3553371627
 21
347.8288938271
 31
0.0
  0
LINE
  5
1CB
330
1F
100
AcDbEntity
  8
0
  6
Continuous
 62
     7
370
    25
100
AcDbLine
 10
993.3553371627
 20
339.8288938271
 30
0.0
 11
993.3553371627
 21
347.7783964431
 31
0.0
  0
LINE
  5
1CC
330
1F
100
AcDbEntity
  8
0
  6
Continuous
 62
     7
370
    25
100
AcDbLine
 10
994.3820066529
 20
343.1414307872
 30
0.0
 11
994.143450995
 21
343.1414307872
 31
0.0
  0
LINE
  5
1CD
330
1F
100
AcDbEntity
  8
0
  6
Continuous
 62
     7
370
    25
100
AcDbLine
 10
994.3820066529
 20
344.516356867
 30
0.0
 11
994.3651396612
 21
344.516356867
 31
0.0
  0
LINE
  5
1CE
330
1F
100
AcDbEntity
  8
0
  6
Continuous
 62
     7
370
    25
100
AcDbLine
 10
994.3820066529
 20
343.3315060821
 30
0.0
 11
994.1489563365
 21
343.3315060821
 31
0.0
  0
ARC
  5
1CF
330
1F
100
AcDbEntity
  8
0
  6
Continuous
 62
     7
370
    25
100
AcDbCircle
 10
972.0968482734
 20
280.0843670035
 30
0.0
 40
1.942508566655243
100
AcDbArc
 50
181.8362067977
 51
271.7254354149
  0
LINE
  5
1D0
330
1F
100
AcDbEntity
  8
0
  6
Continuous
 62
     7
370
    25
100
AcDbLine
 10
970.1553371626
 20
280.0221244276
 30
0.0
 11
970.1553371626
 21
285.1632006645
 31
0.0
  0
LINE
  5
1D1
330
1F
100
AcDbEntity
  8
0
  6
Continuous
 62
     7
370
    25
100
AcDbLine
 10
986.1553371626
 20
285.1632006645
 30
0.0
 11
986.1553371626
 21
280.0221244276
 31
0.0
  0
ARC
  5
1D2
330
1F
100
AcDbEntity
  8
0
  6
Continuous
 62
     7
370
    25
100
AcDbCircle
 10
984.2138260519
 20
280.0843670035
 30
0.0
 40
1.942508566654909
100
AcDbArc
 50
268.2745645851
 51
358.1637932024
  0
LINE
  5
1D3
330
1F
100
AcDbEntity
  8
0
  6
Continuous
 62
     7
370
    25
100
AcDbLine
 10
984.1553371626
 20
278.142739186
 30
0.0
 11
972.1553371626
 21
278.142739186
 31
0.0
  0
LINE
  5
1D4
330
1F
100
AcDbEntity
  8
0
  6
Continuous
 62
     7
370
    25
100
AcDbLine
 10
970.1553371626
 20
279.338084141
 30
0.0
 11
970.1553371626
 21
280.0221244276
 31
0.0
  0
ARC
  5
1D5
330
1F
100
AcDbEntity
  8
0
  6
Continuous
 62
     7
370
    25
100
AcDbCircle
 10
972.0968482734
 20
279.4003267168
 30
0.0
 40
1.942508566655476
100
AcDbArc
 50
181.8362067977
 51
271.7254354149
  0
LINE
  5
1D6
330
1F
100
AcDbEntity
  8
0
  6
Continuous
 62
     7
370
    25
100
AcDbLine
 10
984.1553371626
 20
277.4586988994
 30
0.0
 11
972.1553371626
 21
277.4586988994
 31
0.0
  0
LINE
  5
1D7
330
1F
100
AcDbEntity
  8
0
  6
Continuous
 62
     7
370
    25
100
AcDbLine
 10
986.1553371626
 20
280.0221244276
 30
0.0
 11
986.1553371626
 21
279.338084141
 31
0.0
  0
ARC
  5
1D8
330
1F
100
AcDbEntity
  8
0
  6
Continuous
 62
     7
370
    25
100
AcDbCircle
 10
984.2138260519
 20
279.4003267168
 30
0.0
 40
1.942508566654912
100
AcDbArc
 50
268.2745645851
 51
358.1637932024
  0
LINE
  5
1D9
330
1F
100
AcDbEntity
  8
0
  6
Continuous
 62
     7
370
    25
100
AcDbLine
 10
986.1553371626
 20
285.1632006645
 30
0.0
 11
986.1553371626
 21
285.5052208078
 31
0.0
  0
LINE
  5
1DA
330
1F
100
AcDbEntity
  8
0
  6
Continuous
 62
     7
370
    25
100
AcDbLine
 10
970.1553371626
 20
285.5052208078
 30
0.0
 11
970.1553371626
 21
285.1632006645
 31
0.0
  0
LINE
  5
1DB
330
1F
100
AcDbEntity
  8
0
  6
Continuous
 62
     7
370
    25
100
AcDbLine
 10
986.1553371626
 20
285.3288938271
 30
0.0
 11
996.6553371626
 21
285.3288938271
 31
0.0
  0
LINE
  5
1DC
330
1F
100
AcDbEntity
  8
0
  6
Continuous
 62
     7
370
    25
100
AcDbLine
 10
970.1553371626
 20
298.3288938271
 30
0.0
 11
970.1553371626
 21
285.5052208078
 31
0.0
  0
CIRCLE
  5
1DD
330
1F
100
AcDbEntity
  8
0
  6
Continuous
 62
     7
370
    25
100
AcDbCircle
 10
978.0553371626
 20
292.8288938271
 30
0.0
 40
3.5
  0
LINE
  5
1DE
330
1F
100
AcDbEntity
  8
0
  6
Continuous
 62
     7
370
    25
100
AcDbLine
 10
996.6553371626
 20
300.3288938271
 30
0.0
 11
972.1553371626
 21
300.3288938271
 31
0.0
  0
ARC
  5
1DF
330
1F
100
AcDbEntity
  8
0
  6
Continuous
 62
     7
370
    25
100
AcDbCircle
 10
972.1553371626
 20
298.3288938271
 30
0.0
 40
2.0
100
AcDbArc
 50
90.0
 51
180.0
  0
CIRCLE
  5
1E0
330
1F
100
AcDbEntity
  8
0
  6
Continuous
 62
     7
370
    25
100
AcDbCircle
 10
978.0553371627
 20
242.8288938271
 30
0.0
 40
2.458750000016702
  0
CIRCLE
  5
1E1
330
1F
100
AcDbEntity
  8
0
  6
Continuous
 62
     7
370
    25
100
AcDbCircle
 10
978.0553371627
 20
242.8288938271
 30
0.0
 40
3.000000000000015
  0
LINE
  5
1E2
330
1F
100
AcDbEntity
  8
0
  6
Continuous
 62
     7
370
    25
100
AcDbLine
 10
984.1553371626
 20
228.142739186
 30
0.0
 11
972.1553371626
 21
228.142739186
 31
0.0
  0
LINE
  5
1E3
330
1F
100
AcDbEntity
  8
0
  6
Continuous
 62
     7
370
    25
100
AcDbLine
 10
984.1553371626
 20
227.4586988994
 30
0.0
 11
972.1553371626
 21
227.4586988994
 31
0.0
  0
LINE
  5
1E4
330
1F
100
AcDbEntity
  8
0
  6
Continuous
 62
     7
370
    25
100
AcDbLine
 10
970.1553371626
 20
229.338084141
 30
0.0
 11
970.1553371626
 21
230.0221244276
 31
0.0
  0
ARC
  5
1E5
330
1F
100
AcDbEntity
  8
0
  6
Continuous
 62
     7
370
    25
100
AcDbCircle
 10
972.0968482734
 20
230.0843670035
 30
0.0
 40
1.942508566655328
100
AcDbArc
 50
181.8362067977
 51
271.7254354149
  0
ARC
  5
1E6
330
1F
100
AcDbEntity
  8
0
  6
Continuous
 62
     7
370
    25
100
AcDbCircle
 10
972.0968482734
 20
229.4003267168
 30
0.0
 40
1.942508566655271
100
AcDbArc
 50
181.8362067977
 51
271.7254354149
  0
LINE
  5
1E7
330
1F
100
AcDbEntity
  8
0
  6
Continuous
 62
     7
370
    25
100
AcDbLine
 10
970.1553371626
 20
230.0221244276
 30
0.0
 11
970.1553371626
 21
235.1632006645
 31
0.0
  0
LINE
  5
1E8
330
1F
100
AcDbEntity
  8
0
  6
Continuous
 62
     7
370
    25
100
AcDbLine
 10
986.1553371626
 20
235.1632006645
 30
0.0
 11
986.1553371626
 21
230.0221244276
 31
0.0
  0
ARC
  5
1E9
330
1F
100
AcDbEntity
  8
0
  6
Continuous
 62
     7
370
    25
100
AcDbCircle
 10
984.2138260519
 20
230.0843670035
 30
0.0
 40
1.942508566655355
100
AcDbArc
 50
268.2745645851
 51
358.1637932023
  0
LINE
  5
1EA
330
1F
100
AcDbEntity
  8
0
  6
Continuous
 62
     7
370
    25
100
AcDbLine
 10
986.1553371626
 20
230.0221244276
 30
0.0
 11
986.1553371626
 21
229.338084141
 31
0.0
  0
ARC
  5
1EB
330
1F
100
AcDbEntity
  8
0
  6
Continuous
 62
     7
370
    25
100
AcDbCircle
 10
984.2138260519
 20
229.4003267168
 30
0.0
 40
1.942508566655127
100
AcDbArc
 50
268.2745645851
 51
358.1637932023
  0
LINE
  5
1EC
330
1F
100
AcDbEntity
  8
0
  6
Continuous
 62
     7
370
    25
100
AcDbLine
 10
986.1553371626
 20
235.1632006645
 30
0.0
 11
986.1553371626
 21
235.5052208078
 31
0.0
  0
LINE
  5
1ED
330
1F
100
AcDbEntity
  8
0
  6
Continuous
 62
     7
370
    25
100
AcDbLine
 10
970.1553371626
 20
235.5052208078
 30
0.0
 11
970.1553371626
 21
235.1632006645
 31
0.0
  0
LINE
  5
1EE
330
1F
100
AcDbEntity
  8
0
  6
Continuous
 62
     7
370
    25
100
AcDbLine
 10
986.1553371626
 20
235.3288938271
 30
0.0
 11
996.6553371626
 21
235.3288938271
 31
0.0
  0
CIRCLE
  5
1EF
330
1F
100
AcDbEntity
  8
0
  6
Continuous
 62
     7
370
    25
100
AcDbCircle
 10
978.0553371627
 20
242.8288938271
 30
0.0
 40
3.500000000000114
  0
LINE
  5
1F0
330
1F
100
AcDbEntity
  8
0
  6
Continuous
 62
     7
370
    25
100
AcDbLine
 10
996.6553371626
 20
250.3288938271
 30
0.0
 11
972.1553371626
 21
250.3288938271
 31
0.0
  0
ARC
  5
1F1
330
1F
100
AcDbEntity
  8
0
  6
Continuous
 62
     7
370
    25
100
AcDbCircle
 10
972.1553371626
 20
248.3288938271
 30
0.0
 40
2.000000000000028
100
AcDbArc
 50
90.0
 51
180.0
  0
LINE
  5
1F2
330
1F
100
AcDbEntity
  8
0
  6
Continuous
 62
     7
370
    25
100
AcDbLine
 10
970.1553371626
 20
248.3288938271
 30
0.0
 11
970.1553371626
 21
235.5052208078
 31
0.0
  0
CIRCLE
  5
1F3
330
1F
100
AcDbEntity
  8
0
  6
Continuous
 62
     7
370
    25
100
AcDbCircle
 10
978.0553371627
 20
368.8288938271
 30
0.0
 40
2.458750000016497
  0
CIRCLE
  5
1F4
330
1F
100
AcDbEntity
  8
0
  6
Continuous
 62
     7
370
    25
100
AcDbCircle
 10
978.0553371627
 20
368.8288938271
 30
0.0
 40
3.000000000000015
  0
CIRCLE
  5
1F5
330
1F
100
AcDbEntity
  8
0
  6
Continuous
 62
     7
370
    25
100
AcDbCircle
 10
978.0553371626
 20
292.8288938271
 30
0.0
 40
2.458750000016702
  0
CIRCLE
  5
1F6
330
1F
100
AcDbEntity
  8
0
  6
Continuous
 62
     7
370
    25
100
AcDbCircle
 10
978.0553371626
 20
292.8288938271
 30
0.0
 40
2.999999999999912
  0
ARC
  5
1F7
330
1F
100
AcDbEntity
  8
0
  6
Continuous
 62
     7
370
    25
100
AcDbCircle
 10
864.2433501725
 20
460.3521437386
 30
0.0
 40
0.5000000000001137
100
AcDbArc
 50
180.0
 51
0.0
  0
ARC
  5
1F8
330
1F
100
AcDbEntity
  8
0
  6
Continuous
 62
     7
370
    25
100
AcDbCircle
 10
864.2433501725
 20
471.9521437388
 30
0.0
 40
0.5000000000001137
100
AcDbArc
 50
0.0
 51
180.0
  0
LINE
  5
1F9
330
1F
100
AcDbEntity
  8
0
  6
Continuous
 62
     7
370
    25
100
AcDbLine
 10
859.9709316097
 20
471.5463263508
 30
0.0
 11
859.7433501725
 21
471.1521437387
 31
0.0
  0
LINE
  5
1FA
330
1F
100
AcDbEntity
  8
0
  6
Continuous
 62
     7
370
    25
100
AcDbLine
 10
874.2021001725
 20
463.1521437387
 30
0.0
 11
874.7433501725
 21
463.6933937387
 31
0.0
  0
LINE
  5
1FB
330
1F
100
AcDbEntity
  8
0
  6
Continuous
 62
     7
370
    25
100
AcDbLine
 10
874.7433501725
 20
468.6108937387
 30
0.0
 11
874.2021001725
 21
469.1521437387
 31
0.0
  0
LINE
  5
1FC
330
1F
100
AcDbEntity
  8
0
  6
Continuous
 62
     7
370
    25
100
AcDbLine
 10
874.2021001725
 20
469.1521437387
 30
0.0
 11
869.3588965607
 21
469.1521437387
 31
0.0
  0
LINE
  5
1FD
330
1F
100
AcDbEntity
  8
0
  6
Continuous
 62
     7
370
    25
100
AcDbLine
 10
869.3588965607
 20
463.1521437387
 30
0.0
 11
874.2021001725
 21
463.1521437387
 31
0.0
  0
LINE
  5
1FE
330
1F
100
AcDbEntity
  8
0
  6
Continuous
 62
     7
370
    25
100
AcDbLine
 10
859.7433501725
 20
461.1521437387
 30
0.0
 11
859.9709316097
 21
460.7579611266
 31
0.0
  0
LINE
  5
1FF
330
1F
100
AcDbEntity
  8
0
  6
Continuous
 62
     7
370
    25
100
AcDbLine
 10
851.3748974581
 20
484.2521437387
 30
0.0
 11
851.3748974581
 21
480.2521437387
 31
0.0
  0
LINE
  5
200
330
1F
100
AcDbEntity
  8
0
  6
Continuous
 62
     7
370
    25
100
AcDbLine
 10
851.3748974581
 20
480.2521437387
 30
0.0
 11
851.8748974581
 21
479.7521437387
 31
0.0
  0
LINE
  5
201
330
1F
100
AcDbEntity
  8
0
  6
Continuous
 62
     7
370
    25
100
AcDbLine
 10
857.1547342479
 20
480.2521437387
 30
0.0
 11
857.1547342479
 21
484.2521437387
 31
0.0
  0
LINE
  5
202
330
1F
100
AcDbEntity
  8
0
  6
Continuous
 62
     7
370
    25
100
AcDbLine
 10
856.6547342479
 20
479.7521437387
 30
0.0
 11
857.1547342479
 21
480.2521437387
 31
0.0
  0
LINE
  5
203
330
1F
100
AcDbEntity
  8
0
  6
Continuous
 62
     7
370
    25
100
AcDbLine
 10
851.4312394199
 20
484.2521437387
 30
0.0
 11
851.4312394199
 21
480.2521437387
 31
0.0
  0
LINE
  5
204
330
1F
100
AcDbEntity
  8
0
  6
Continuous
 62
     7
370
    25
100
AcDbLine
 10
851.4312394199
 20
480.2521437387
 30
0.0
 11
851.9312394199
 21
479.7521437387
 31
0.0
  0
LINE
  5
205
330
1F
100
AcDbEntity
  8
0
  6
Continuous
 62
     7
370
    25
100
AcDbLine
 10
-25.9187648817
 20
480.2521437387
 30
0.0
 11
-25.9187648817
 21
484.2521437387
 31
0.0
  0
LINE
  5
206
330
1F
100
AcDbEntity
  8
0
  6
Continuous
 62
     7
370
    25
100
AcDbLine
 10
-26.4187648817
 20
479.7521437387
 30
0.0
 11
-25.9187648817
 21
480.2521437387
 31
0.0
  0
LINE
  5
207
330
1F
100
AcDbEntity
  8
0
  6
Continuous
 62
     7
370
    25
100
AcDbLine
 10
-31.648309566
 20
484.2521437387
 30
0.0
 11
-31.648309566
 21
480.2521437387
 31
0.0
  0
LINE
  5
208
330
1F
100
AcDbEntity
  8
0
  6
Continuous
 62
     7
370
    25
100
AcDbLine
 10
-31.648309566
 20
480.2521437387
 30
0.0
 11
-31.148309566
 21
479.7521437387
 31
0.0
  0
LINE
  5
209
330
1F
100
AcDbEntity
  8
0
  6
Continuous
 62
     7
370
    25
100
AcDbLine
 10
874.4021001725
 20
469.1521437387
 30
0.0
 11
874.2021001725
 21
469.1521437387
 31
0.0
  0
LINE
  5
20A
330
1F
100
AcDbEntity
  8
0
  6
Continuous
 62
     7
370
    25
100
AcDbLine
 10
874.2021001725
 20
463.1521437387
 30
0.0
 11
874.4021001725
 21
463.1521437387
 31
0.0
  0
LINE
  5
20B
330
1F
100
AcDbEntity
  8
0
  6
Continuous
 62
     7
370
    25
100
AcDbLine
 10
874.4021001725
 20
463.1521437387
 30
0.0
 11
874.9433501725
 21
463.6933937387
 31
0.0
  0
LINE
  5
20C
330
1F
100
AcDbEntity
  8
0
  6
Continuous
 62
     7
370
    25
100
AcDbLine
 10
874.9433501725
 20
468.6108937387
 30
0.0
 11
874.4021001725
 21
469.1521437387
 31
0.0
  0
LINE
  5
20D
330
1F
100
AcDbEntity
  8
0
  6
Continuous
 62
     7
370
    25
100
AcDbLine
 10
-48.9153998275
 20
469.1521437387
 30
0.0
 11
-49.4566498275
 21
468.6108937387
 31
0.0
  0
LINE
  5
20E
330
1F
100
AcDbEntity
  8
0
  6
Continuous
 62
     7
370
    25
100
AcDbLine
 10
-49.4566498275
 20
463.6933937387
 30
0.0
 11
-48.9153998275
 21
463.1521437387
 31
0.0
  0
LINE
  5
20F
330
1F
100
AcDbEntity
  8
0
  6
Continuous
 62
     7
370
    25
100
AcDbLine
 10
-48.9153998275
 20
463.1521437387
 30
0.0
 11
-48.7153998275
 21
463.1521437387
 31
0.0
  0
LINE
  5
210
330
1F
100
AcDbEntity
  8
0
  6
Continuous
 62
     7
370
    25
100
AcDbLine
 10
-48.7153998275
 20
469.1521437387
 30
0.0
 11
-48.9153998275
 21
469.1521437387
 31
0.0
  0
ARC
  5
211
330
1F
100
AcDbEntity
  8
0
  6
Continuous
 62
     7
370
    25
100
AcDbCircle
 10
-38.7566498275
 20
471.9521437388
 30
0.0
 40
0.5
100
AcDbArc
 50
0.0
 51
180.0
  0
ARC
  5
212
330
1F
100
AcDbEntity
  8
0
  6
Continuous
 62
     7
370
    25
100
AcDbCircle
 10
-38.7566498275
 20
460.3521437386
 30
0.0
 40
0.5
100
AcDbArc
 50
180.0
 51
0.0
  0
LINE
  5
213
330
1F
100
AcDbEntity
  8
0
  6
Continuous
 62
     7
370
    25
100
AcDbLine
 10
-48.7153998275
 20
469.1521437387
 30
0.0
 11
-49.2566498275
 21
468.6108937387
 31
0.0
  0
LINE
  5
214
330
1F
100
AcDbEntity
  8
0
  6
Continuous
 62
     7
370
    25
100
AcDbLine
 10
-49.2566498275
 20
463.6933937387
 30
0.0
 11
-48.7153998275
 21
463.1521437387
 31
0.0
  0
LINE
  5
215
330
1F
100
AcDbEntity
  8
0
  6
Continuous
 62
     7
370
    25
100
AcDbLine
 10
-48.7153998275
 20
463.1521437387
 30
0.0
 11
-43.8721962157
 21
463.1521437387
 31
0.0
  0
LINE
  5
216
330
1F
100
AcDbEntity
  8
0
  6
Continuous
 62
     7
370
    25
100
AcDbLine
 10
-43.8721962157
 20
469.1521437387
 30
0.0
 11
-48.7153998275
 21
469.1521437387
 31
0.0
  0
LINE
  5
217
330
1F
100
AcDbEntity
  8
0
  6
Continuous
 62
     7
370
    25
100
AcDbLine
 10
-34.2566498275
 20
471.1521437387
 30
0.0
 11
-34.5861329233
 21
471.7228252008
 31
0.0
  0
LINE
  5
218
330
1F
100
AcDbEntity
  8
0
  6
Continuous
 62
     7
370
    25
100
AcDbLine
 10
-34.5861329233
 20
460.5814622766
 30
0.0
 11
-34.2566498275
 21
461.1521437387
 31
0.0
  0
LINE
  5
219
330
1F
100
AcDbEntity
  8
0
  6
Continuous
 62
     7
370
    25
100
AcDbLine
 10
-41.7566498275
 20
489.3521437387
 30
0.0
 11
-38.8172621362
 21
489.3521437387
 31
0.0
  0
LINE
  5
21A
330
1F
100
AcDbEntity
  8
0
  6
Continuous
 62
     7
370
    25
100
AcDbLine
 10
864.3039624811
 20
489.3521437387
 30
0.0
 11
867.2433501725
 21
489.3521437387
 31
0.0
  0
LINE
  5
21B
330
1F
100
AcDbEntity
  8
0
  6
Continuous
 62
     7
370
    25
100
AcDbLine
 10
-47.7566498275
 20
489.3521437387
 30
0.0
 11
-41.7566498275
 21
489.3521437387
 31
0.0
  0
LINE
  5
21C
330
1F
100
AcDbEntity
  8
0
  6
Continuous
 62
     7
370
    25
100
AcDbLine
 10
867.2433501725
 20
489.3521437387
 30
0.0
 11
873.2433501725
 21
489.3521437387
 31
0.0
  0
SPLINE
  5
21D
330
1F
100
AcDbEntity
  8
0
  6
Continuous
 62
     7
370
    25
100
AcDbSpline
210
0.0
220
0.0
230
1.0
 70
    24
 71
     3
 72
    19
 73
    15
 74
     0
 42
0.000000001
 43
0.00000001
 40
0.0
 40
0.0
 40
0.0
 40
0.0
 40
0.1260638187928847
 40
0.1939261817305609
 40
0.2632286813759843
 40
0.332531181021408
 40
0.4003935439590839
 40
0.5264573627519687
 40
0.6525211815448533
 40
0.7203835444825296
 40
0.7896860441279528
 40
0.8589885437733763
 40
0.9268509067110524
 40
1.0
 40
1.0
 40
1.0
 40
1.0
 10
863.7433501724776
 20
471.8795320940945
 30
0.0
 10
863.7433501724777
 20
471.6879441831583
 30
0.0
 10
863.7433501724776
 20
471.393221142167
 30
0.0
 10
863.7433501724776
 20
470.4659666193264
 30
0.0
 10
863.7433501724777
 20
469.5804105787939
 30
0.0
 10
863.7433501724774
 20
468.5440093692587
 30
0.0
 10
863.7433501724778
 20
467.1000559966092
 30
0.0
 10
863.7433501724776
 20
465.2152284139006
 30
0.0
 10
863.7433501724777
 20
463.4422182120741
 30
0.0
 10
863.7433501724776
 20
462.2199145903339
 30
0.0
 10
863.7433501724776
 20
461.4192278751157
 30
0.0
 10
863.7433501724776
 20
460.8337372923426
 30
0.0
 10
863.7433501724776
 20
460.4058511537897
 30
0.0
 10
863.7433501724777
 20
460.4363634056924
 30
0.0
 10
863.7433501724776
 20
460.4521915066184
 30
0.0
  0
SPLINE
  5
21E
330
1F
100
AcDbEntity
  8
0
  6
Continuous
 62
     7
370
    25
100
AcDbSpline
210
0.0
220
0.0
230
1.0
 70
     8
 71
     3
 72
     8
 73
     4
 74
     0
 42
0.000000001
 43
0.00000001
 40
0.0
 40
0.0
 40
0.0
 40
0.0
 40
1.0
 40
1.0
 40
1.0
 40
1.0
 10
859.7433501724848
 20
465.3634459466585
 30
0.0
 10
859.7433501724848
 20
464.390501630879
 30
0.0
 10
859.9176654728642
 20
463.4441863834264
 30
0.0
 10
860.1899321598761
 20
462.5128345623684
 30
0.0
  0
SPLINE
  5
21F
330
1F
100
AcDbEntity
  8
0
  6
Continuous
 62
     7
370
    25
100
AcDbSpline
210
0.0
220
0.0
230
1.0
 70
     8
 71
     3
 72
     8
 73
     4
 74
     0
 42
0.000000001
 43
0.00000001
 40
0.0
 40
0.0
 40
0.0
 40
0.0
 40
1.0
 40
1.0
 40
1.0
 40
1.0
 10
860.1899321598761
 20
468.2140573309489
 30
0.0
 10
859.9176654728647
 20
467.2827055098925
 30
0.0
 10
859.7433501724848
 20
466.3363902624365
 30
0.0
 10
859.7433501724848
 20
465.3634459466585
 30
0.0
  0
LINE
  5
220
330
1F
100
AcDbEntity
  8
0
  6
Continuous
 62
     7
370
    25
100
AcDbLine
 10
863.7433501725
 20
468.214057331
 30
0.0
 11
860.1899321599
 21
468.214057331
 31
0.0
  0
LINE
  5
221
330
1F
100
AcDbEntity
  8
0
  6
Continuous
 62
     7
370
    25
100
AcDbLine
 10
863.7433501725
 20
462.5128345624
 30
0.0
 11
860.1899321599
 21
462.5128345624
 31
0.0
  0
LINE
  5
222
330
1F
100
AcDbEntity
  8
0
  6
Continuous
 62
     7
370
    25
100
AcDbLine
 10
859.7433501725
 20
470.0337119191
 30
0.0
 11
859.7433501725
 21
465.3634459467
 31
0.0
  0
SPLINE
  5
223
330
1F
100
AcDbEntity
  8
0
  6
Continuous
 62
     7
370
    25
100
AcDbSpline
210
0.0
220
0.0
230
1.0
 70
     8
 71
     3
 72
     8
 73
     4
 74
     0
 42
0.000000001
 43
0.00000001
 40
0.0
 40
0.0
 40
0.0
 40
0.0
 40
1.0
 40
1.0
 40
1.0
 40
1.0
 10
859.7433501724847
 20
470.0337119191282
 30
0.0
 10
859.7433501724847
 20
469.412644242909
 30
0.0
 10
859.9176654728642
 20
468.8085749224205
 30
0.0
 10
860.1899321598761
 20
468.2140573309552
 30
0.0
  0
SPLINE
  5
224
330
1F
100
AcDbEntity
  8
0
  6
Continuous
 62
     7
370
    25
100
AcDbSpline
210
0.0
220
0.0
230
1.0
 70
     8
 71
     3
 72
     8
 73
     4
 74
     0
 42
0.000000001
 43
0.00000001
 40
0.0
 40
0.0
 40
0.0
 40
0.0
 40
1.0
 40
1.0
 40
1.0
 40
1.0
 10
860.1899321598761
 20
471.8533665073013
 30
0.0
 10
859.9176654728647
 20
471.2588489158371
 30
0.0
 10
859.7433501724847
 20
470.6547795953464
 30
0.0
 10
859.7433501724847
 20
470.0337119191282
 30
0.0
  0
LINE
  5
225
330
1F
100
AcDbEntity
  8
0
  6
Continuous
 62
     7
370
    25
100
AcDbLine
 10
863.7433501725
 20
471.8533665073
 30
0.0
 11
860.1899321599
 21
471.8533665073
 31
0.0
  0
LINE
  5
226
330
1F
100
AcDbEntity
  8
0
  6
Continuous
 62
     7
370
    25
100
AcDbLine
 10
859.7433501725
 20
465.3634459467
 30
0.0
 11
859.7433501725
 21
461.4818777662
 31
0.0
  0
SPLINE
  5
227
330
1F
100
AcDbEntity
  8
0
  6
Continuous
 62
     7
370
    25
100
AcDbSpline
210
0.0
220
0.0
230
1.0
 70
     8
 71
     3
 72
     8
 73
     4
 74
     0
 42
0.000000001
 43
0.00000001
 40
0.0
 40
0.0
 40
0.0
 40
0.0
 40
1.0
 40
1.0
 40
1.0
 40
1.0
 10
860.1899321598761
 20
462.5128345623633
 30
0.0
 10
859.9176654728647
 20
462.1760003327709
 30
0.0
 10
859.7433501724847
 20
461.8337544058056
 30
0.0
 10
859.7433501724847
 20
461.4818777662457
 30
0.0
  0
SPLINE
  5
228
330
1F
100
AcDbEntity
  8
0
  6
Continuous
 62
     7
370
    25
100
AcDbSpline
210
0.0
220
0.0
230
1.0
 70
     8
 71
     3
 72
     8
 73
     4
 74
     0
 42
0.000000001
 43
0.00000001
 40
0.0
 40
0.0
 40
0.0
 40
0.0
 40
1.0
 40
1.0
 40
1.0
 40
1.0
 10
859.7433501724847
 20
461.4818777662457
 30
0.0
 10
859.7433501724847
 20
461.1300011266852
 30
0.0
 10
859.9176654728642
 20
460.7877551997212
 30
0.0
 10
860.1899321598761
 20
460.4509209701283
 30
0.0
  0
LINE
  5
229
330
1F
100
AcDbEntity
  8
0
  6
Continuous
 62
     7
370
    25
100
AcDbLine
 10
863.7433501725
 20
460.4509209701
 30
0.0
 11
860.1899321599
 21
460.4509209701
 31
0.0
  0
LINE
  5
22A
330
1F
100
AcDbEntity
  8
0
  6
Continuous
 62
     7
370
    25
100
AcDbLine
 10
860.0397259296
 20
471.5066079316
 30
0.0
 11
860.1899321599
 21
471.8533665073
 31
0.0
  0
LINE
  5
22B
330
1F
100
AcDbEntity
  8
0
  6
Continuous
 62
     7
370
    25
100
AcDbLine
 10
859.7433501725
 20
471.1521437387
 30
0.0
 11
859.7433501725
 21
470.0337119191
 31
0.0
  0
LINE
  5
22C
330
1F
100
AcDbEntity
  8
0
  6
Continuous
 62
     7
370
    25
100
AcDbLine
 10
874.7433501725
 20
465.7643015995
 30
0.0
 11
874.7433501725
 21
468.6108937387
 31
0.0
  0
LINE
  5
22D
330
1F
100
AcDbEntity
  8
0
  6
Continuous
 62
     7
370
    25
100
AcDbLine
 10
874.7433501725
 20
463.6933937387
 30
0.0
 11
874.7433501725
 21
465.7643015995
 31
0.0
  0
LINE
  5
22E
330
1F
100
AcDbEntity
  8
0
  6
Continuous
 62
     7
370
    25
100
AcDbLine
 10
874.2021001725
 20
463.1521437387
 30
0.0
 11
874.2021001725
 21
469.1521437387
 31
0.0
  0
LINE
  5
22F
330
1F
100
AcDbEntity
  8
0
  6
Continuous
 62
     7
370
    25
100
AcDbLine
 10
859.7433501725
 20
461.4818777662
 30
0.0
 11
859.7433501725
 21
461.1521437387
 31
0.0
  0
LINE
  5
230
330
1F
100
AcDbEntity
  8
0
  6
Continuous
 62
     7
370
    25
100
AcDbLine
 10
-24.0066498275
 20
484.2521437387
 30
0.0
 11
-33.5066498275
 21
484.2521437387
 31
0.0
  0
LINE
  5
231
330
1F
100
AcDbEntity
  8
0
  6
Continuous
 62
     7
370
    25
100
AcDbLine
 10
-24.0066498275
 20
484.7521437387
 30
0.0
 11
-24.0066498275
 21
484.2521437387
 31
0.0
  0
LINE
  5
232
330
1F
100
AcDbEntity
  8
0
  6
Continuous
 62
     7
370
    25
100
AcDbLine
 10
-33.5066498275
 20
484.2521437387
 30
0.0
 11
-33.5066498275
 21
484.7521437387
 31
0.0
  0
ARC
  5
233
330
1F
100
AcDbEntity
  8
0
  6
Continuous
 62
     7
370
    25
100
AcDbCircle
 10
-34.2700498275
 20
485.4887437387
 30
0.0
 40
1.236600000000067
100
AcDbArc
 50
216.5600911005
 51
270.0
  0
LINE
  5
234
330
1F
100
AcDbEntity
  8
0
  6
Continuous
 62
     7
370
    25
100
AcDbLine
 10
-33.5066498275
 20
484.2521437387
 30
0.0
 11
-34.2700498275
 21
484.2521437387
 31
0.0
  0
LINE
  5
235
330
1F
100
AcDbEntity
  8
0
  6
Continuous
 62
     7
370
    25
100
AcDbLine
 10
-23.2432498275
 20
484.2521437387
 30
0.0
 11
-24.0066498275
 21
484.2521437387
 31
0.0
  0
ARC
  5
236
330
1F
100
AcDbEntity
  8
0
  6
Continuous
 62
     7
370
    25
100
AcDbCircle
 10
-23.2432498275
 20
485.4887437387
 30
0.0
 40
1.23660000000001
100
AcDbArc
 50
270.0
 51
323.4399088995
  0
ARC
  5
237
330
1F
100
AcDbEntity
  8
0
  6
Continuous
 62
     7
370
    25
100
AcDbCircle
 10
-41.7566498275
 20
488.7521437387
 30
0.0
 40
3.0
100
AcDbArc
 50
0.0
 51
90.0
  0
LINE
  5
238
330
1F
100
AcDbEntity
  8
0
  6
Continuous
 62
     7
370
    25
100
AcDbLine
 10
-53.7566498275
 20
491.7521437387
 30
0.0
 11
-41.7566498275
 21
491.7521437387
 31
0.0
  0
ARC
  5
239
330
1F
100
AcDbEntity
  8
0
  6
Continuous
 62
     7
370
    25
100
AcDbCircle
 10
-53.7566498275
 20
488.7521437387
 30
0.0
 40
3.0
100
AcDbArc
 50
90.0
 51
180.0
  0
LINE
  5
23A
330
1F
100
AcDbEntity
  8
0
  6
Continuous
 62
     7
370
    25
100
AcDbLine
 10
-56.7566498275
 20
487.7521437387
 30
0.0
 11
-56.7566498275
 21
488.7521437387
 31
0.0
  0
ARC
  5
23B
330
1F
100
AcDbEntity
  8
0
  6
Continuous
 62
     7
370
    25
100
AcDbCircle
 10
-59.7566498275
 20
487.7521437387
 30
0.0
 40
3.0
100
AcDbArc
 50
270.0
 51
0.0
  0
LINE
  5
23C
330
1F
100
AcDbEntity
  8
0
  6
Continuous
 62
     7
370
    25
100
AcDbLine
 10
-83.2859391494
 20
484.7521437387
 30
0.0
 11
-59.7566498275
 21
484.7521437387
 31
0.0
  0
LINE
  5
23D
330
1F
100
AcDbEntity
  8
0
  6
Continuous
 62
     7
370
    25
100
AcDbLine
 10
908.7726394944
 20
494.3521437387
 30
0.0
 11
908.7726394944
 21
484.7521437387
 31
0.0
  0
LINE
  5
23E
330
1F
100
AcDbEntity
  8
0
  6
Continuous
 62
     7
370
    25
100
AcDbLine
 10
885.2433501725
 20
484.7521437387
 30
0.0
 11
908.7726394944
 21
484.7521437387
 31
0.0
  0
ARC
  5
23F
330
1F
100
AcDbEntity
  8
0
  6
Continuous
 62
     7
370
    25
100
AcDbCircle
 10
885.2433501725
 20
487.7521437387
 30
0.0
 40
3.0
100
AcDbArc
 50
180.0
 51
270.0
  0
LINE
  5
240
330
1F
100
AcDbEntity
  8
0
  6
Continuous
 62
     7
370
    25
100
AcDbLine
 10
882.2433501725
 20
487.7521437387
 30
0.0
 11
882.2433501725
 21
488.7521437387
 31
0.0
  0
ARC
  5
241
330
1F
100
AcDbEntity
  8
0
  6
Continuous
 62
     7
370
    25
100
AcDbCircle
 10
879.2433501725
 20
488.7521437387
 30
0.0
 40
3.0
100
AcDbArc
 50
0.0
 51
90.0
  0
LINE
  5
242
330
1F
100
AcDbEntity
  8
0
  6
Continuous
 62
     7
370
    25
100
AcDbLine
 10
879.2433501725
 20
491.7521437387
 30
0.0
 11
867.2433501725
 21
491.7521437387
 31
0.0
  0
ARC
  5
243
330
1F
100
AcDbEntity
  8
0
  6
Continuous
 62
     7
370
    25
100
AcDbCircle
 10
867.2433501725
 20
488.7521437387
 30
0.0
 40
3.0
100
AcDbArc
 50
90.0
 51
180.0
  0
LINE
  5
244
330
1F
100
AcDbEntity
  8
0
  6
Continuous
 62
     7
370
    25
100
AcDbLine
 10
864.2433501725
 20
487.7521437387
 30
0.0
 11
864.2433501725
 21
488.7521437387
 31
0.0
  0
ARC
  5
245
330
1F
100
AcDbEntity
  8
0
  6
Continuous
 62
     7
370
    25
100
AcDbCircle
 10
861.2433501725
 20
487.7521437387
 30
0.0
 40
3.0
100
AcDbArc
 50
270.0
 51
0.0
  0
LINE
  5
246
330
1F
100
AcDbEntity
  8
0
  6
Continuous
 62
     7
370
    25
100
AcDbLine
 10
-35.7566498275
 20
484.7521437387
 30
0.0
 11
861.2433501725
 21
484.7521437387
 31
0.0
  0
ARC
  5
247
330
1F
100
AcDbEntity
  8
0
  6
Continuous
 62
     7
370
    25
100
AcDbCircle
 10
-35.7566498275
 20
487.7521437387
 30
0.0
 40
3.0
100
AcDbArc
 50
180.0
 51
270.0
  0
LINE
  5
248
330
1F
100
AcDbEntity
  8
0
  6
Continuous
 62
     7
370
    25
100
AcDbLine
 10
-38.7566498275
 20
487.7521437387
 30
0.0
 11
-38.7566498275
 21
488.7521437387
 31
0.0
  0
LINE
  5
249
330
1F
100
AcDbEntity
  8
0
  6
Continuous
 62
     7
370
    25
100
AcDbLine
 10
-83.2859391494
 20
494.3521437387
 30
0.0
 11
-83.2859391494
 21
484.7521437387
 31
0.0
  0
SPLINE
  5
24A
330
1F
100
AcDbEntity
  8
0
  6
Continuous
 62
     7
370
    25
100
AcDbSpline
210
0.0
220
0.0
230
1.0
 70
     8
 71
     3
 72
    20
 73
    16
 74
     0
 42
0.000000001
 43
0.00000001
 40
0.0
 40
0.0
 40
0.0
 40
0.0
 40
0.1249999999999993
 40
0.1249999999999993
 40
0.2499999999999987
 40
0.2499999999999987
 40
0.374999999999998
 40
0.374999999999998
 40
0.4999999999999973
 40
0.4999999999999973
 40
0.7499999999999989
 40
0.7499999999999989
 40
0.8749999999999996
 40
0.8749999999999996
 40
1.0
 40
1.0
 40
1.0
 40
1.0
 10
907.8433501724774
 20
496.7521437387151
 30
0.0
 10
907.882390903332
 20
496.7521437387152
 30
0.0
 10
907.9209096075319
 20
496.7366071782403
 30
0.0
 10
907.9983163588399
 20
496.6752888262798
 30
0.0
 10
908.0374607768264
 20
496.6288650806929
 30
0.0
 10
908.1146115307415
 20
496.5089142105388
 30
0.0
 10
908.1529391124823
 20
496.4353095662554
 30
0.0
 10
908.2304854329591
 20
496.2605792001598
 30
0.0
 10
908.2694616406279
 20
496.1597285712583
 30
0.0
 10
908.384956497073
 20
495.8284432912743
 30
0.0
 10
908.4628689407429
 20
495.5607631298905
 30
0.0
 10
908.578348866144
 20
495.128089103835
 30
0.0
 10
908.6172146620088
 20
494.9765710169839
 30
0.0
 10
908.6949889956772
 20
494.6671452595978
 30
0.0
 10
908.7335987626319
 20
494.510522929904
 30
0.0
 10
908.7726394943587
 20
494.3521437387153
 30
0.0
  0
SPLINE
  5
24B
330
1F
100
AcDbEntity
  8
0
  6
Continuous
 62
     7
370
    25
100
AcDbSpline
210
0.0
220
0.0
230
1.0
 70
     8
 71
     3
 72
    20
 73
    16
 74
     0
 42
0.000000001
 43
0.00000001
 40
0.0
 40
0.0
 40
0.0
 40
0.0
 40
0.125
 40
0.125
 40
0.25
 40
0.25
 40
0.375
 40
0.375
 40
0.5
 40
0.5
 40
0.75
 40
0.75
 40
0.875
 40
0.875
 40
1.0
 40
1.0
 40
1.0
 40
1.0
 10
-83.2859391494038
 20
494.3521437387152
 30
0.0
 10
-83.24689841854921
 20
494.5105229263659
 30
0.0
 10
-83.20837971434958
 20
494.6667686510576
 30
0.0
 10
-83.1309729630415
 20
494.9747605004742
 30
0.0
 10
-83.09182854505481
 20
495.1274046079453
 30
0.0
 10
-83.01467779113969
 20
495.4164888971324
 30
0.0
 10
-82.97635020939876
 20
495.5542934353164
 30
0.0
 10
-82.89880388892223
 20
495.8159121109553
 30
0.0
 10
-82.85982768125344
 20
495.9386584176379
 30
0.0
 10
-82.74433282480864
 20
496.2699827945856
 30
0.0
 10
-82.66642038113837
 20
496.4489939186138
 30
0.0
 10
-82.55094045573757
 20
496.6286090179947
 30
0.0
 10
-82.51207465987248
 20
496.6748533668625
 30
0.0
 10
-82.43430032620391
 20
496.7366066728737
 30
0.0
 10
-82.39569055924922
 20
496.7521437387151
 30
0.0
 10
-82.3566498275225
 20
496.7521437387151
 30
0.0
  0
LINE
  5
24C
330
1F
100
AcDbEntity
  8
0
  6
Continuous
 62
     7
370
    25
100
AcDbLine
 10
-82.3566498275
 20
496.7521437387
 30
0.0
 11
907.8433501725
 21
496.7521437387
 31
0.0
  0
SPLINE
  5
24D
330
1F
100
AcDbEntity
  8
0
  6
Continuous
 62
     7
370
    25
100
AcDbSpline
210
0.0
220
0.0
230
1.0
 70
     8
 71
     3
 72
     9
 73
     5
 74
     0
 42
0.000000001
 43
0.00000001
 40
0.0
 40
0.0
 40
0.0
 40
0.0
 40
0.482578428729487
 40
0.9999999999999999
 40
0.9999999999999999
 40
0.9999999999999999
 40
0.9999999999999999
 10
-83.13282005946876
 20
494.9646834778935
 30
0.0
 10
-83.19662825253027
 20
494.8765491365771
 30
0.0
 10
-83.32885171976956
 20
494.693916975524
 30
0.0
 10
-83.34717102422611
 20
494.4686840914794
 30
0.0
 10
-83.35664982752245
 20
494.3521437387152
 30
0.0
  0
LINE
  5
24E
330
1F
100
AcDbEntity
  8
0
  6
Continuous
 62
     7
370
    25
100
AcDbLine
 10
-84.7566498275
 20
494.3521437387
 30
0.0
 11
-83.3566498275
 21
494.3521437387
 31
0.0
  0
SPLINE
  5
24F
330
1F
100
AcDbEntity
  8
0
  6
Continuous
 62
     7
370
    25
100
AcDbSpline
210
0.0
220
0.0
230
1.0
 70
     8
 71
     3
 72
    20
 73
    16
 74
     0
 42
0.000000001
 43
0.00000001
 40
0.0
 40
0.0
 40
0.0
 40
0.0
 40
0.1249999999999943
 40
0.1249999999999943
 40
0.2499999999999886
 40
0.2499999999999886
 40
0.3749999999999828
 40
0.3749999999999828
 40
0.4999999999999771
 40
0.4999999999999771
 40
0.7499999999999979
 40
0.7499999999999979
 40
0.8749999999999989
 40
0.8749999999999989
 40
1.0
 40
1.0
 40
1.0
 40
1.0
 10
-82.35664982752245
 20
496.7521437387152
 30
0.0
 10
-82.5150290151731
 20
496.7521437387152
 30
0.0
 10
-82.67127473986486
 20
496.7366071782404
 30
0.0
 10
-82.97926658928145
 20
496.6752888262798
 30
0.0
 10
-83.13191069675285
 20
496.628865080693
 30
0.0
 10
-83.42099498593986
 20
496.5089142105388
 30
0.0
 10
-83.5587995241237
 20
496.4353095662553
 30
0.0
 10
-83.82041819976266
 20
496.2605792001598
 30
0.0
 10
-83.94316450644534
 20
496.1597285712582
 30
0.0
 10
-84.27448888339289
 20
495.8284432912743
 30
0.0
 10
-84.45350000742113
 20
495.5607631298903
 30
0.0
 10
-84.633115106802
 20
495.128089103835
 30
0.0
 10
-84.67935945566984
 20
494.9765710169838
 30
0.0
 10
-84.74111276168117
 20
494.6671452595978
 30
0.0
 10
-84.75664982752224
 20
494.510522929904
 30
0.0
 10
-84.75664982752245
 20
494.3521437387152
 30
0.0
  0
LINE
  5
250
330
1F
100
AcDbEntity
  8
0
  6
Continuous
 62
     7
370
    25
100
AcDbLine
 10
910.2433501725
 20
494.3521437387
 30
0.0
 11
908.8433501725
 21
494.3521437387
 31
0.0
  0
SPLINE
  5
251
330
1F
100
AcDbEntity
  8
0
  6
Continuous
 62
     7
370
    25
100
AcDbSpline
210
0.0
220
0.0
230
1.0
 70
     8
 71
     3
 72
     9
 73
     5
 74
     0
 42
0.000000001
 43
0.00000001
 40
0.0
 40
0.0
 40
0.0
 40
0.0
 40
0.6784508005725568
 40
1.0
 40
1.0
 40
1.0
 40
1.0
 10
908.8433501724775
 20
494.3521437387152
 30
0.0
 10
908.830100602013
 20
494.5028509431685
 30
0.0
 10
908.8105714475727
 20
494.724985259063
 30
0.0
 10
908.6697237939338
 20
494.8918183639523
 30
0.0
 10
908.6244343436649
 20
494.9454634152675
 30
0.0
  0
SPLINE
  5
252
330
1F
100
AcDbEntity
  8
0
  6
Continuous
 62
     7
370
    25
100
AcDbSpline
210
0.0
220
0.0
230
1.0
 70
     8
 71
     3
 72
    20
 73
    16
 74
     0
 42
0.000000001
 43
0.00000001
 40
0.0
 40
0.0
 40
0.0
 40
0.0
 40
0.1249999999999993
 40
0.1249999999999993
 40
0.2499999999999987
 40
0.2499999999999987
 40
0.374999999999998
 40
0.374999999999998
 40
0.4999999999999973
 40
0.4999999999999973
 40
0.7499999999999987
 40
0.7499999999999987
 40
0.8749999999999993
 40
0.8749999999999993
 40
1.0
 40
1.0
 40
1.0
 40
1.0
 10
910.2433501724774
 20
494.3521437387152
 30
0.0
 10
910.2433501724773
 20
494.5105229263659
 30
0.0
 10
910.2278136120029
 20
494.6667686510576
 30
0.0
 10
910.1664952600423
 20
494.9747605004742
 30
0.0
 10
910.120071514455
 20
495.1274046079454
 30
0.0
 10
910.0001206443011
 20
495.4164888971324
 30
0.0
 10
909.9265160000176
 20
495.5542934353165
 30
0.0
 10
909.7517856339219
 20
495.8159121109554
 30
0.0
 10
909.6509350050204
 20
495.938658417638
 30
0.0
 10
909.3196497250365
 20
496.2699827945857
 30
0.0
 10
909.0519695636527
 20
496.448993918614
 30
0.0
 10
908.6192955375973
 20
496.6286090179949
 30
0.0
 10
908.4677774507461
 20
496.6748533668626
 30
0.0
 10
908.15835169336
 20
496.7366066728738
 30
0.0
 10
908.0017293636662
 20
496.7521437387152
 30
0.0
 10
907.8433501724774
 20
496.7521437387152
 30
0.0
  0
LINE
  5
253
330
1F
100
AcDbEntity
  8
0
  6
Continuous
 62
     7
370
    25
100
AcDbLine
 10
-84.7566498275
 20
484.7521437387
 30
0.0
 11
-83.3566498275
 21
484.7521437387
 31
0.0
  0
LINE
  5
254
330
1F
100
AcDbEntity
  8
0
  6
Continuous
 62
     7
370
    25
100
AcDbLine
 10
-84.7566498275
 20
494.3521437387
 30
0.0
 11
-84.7566498275
 21
484.7521437387
 31
0.0
  0
LINE
  5
255
330
1F
100
AcDbEntity
  8
0
  6
Continuous
 62
     7
370
    25
100
AcDbLine
 10
-83.3566498275
 20
494.3521437387
 30
0.0
 11
-83.3566498275
 21
484.7521437387
 31
0.0
  0
LINE
  5
256
330
1F
100
AcDbEntity
  8
0
  6
Continuous
 62
     7
370
    25
100
AcDbLine
 10
910.2433501725
 20
484.7521437387
 30
0.0
 11
908.8433501725
 21
484.7521437387
 31
0.0
  0
LINE
  5
257
330
1F
100
AcDbEntity
  8
0
  6
Continuous
 62
     7
370
    25
100
AcDbLine
 10
908.8433501725
 20
494.3521437387
 30
0.0
 11
908.8433501725
 21
484.7521437387
 31
0.0
  0
LINE
  5
258
330
1F
100
AcDbEntity
  8
0
  6
Continuous
 62
     7
370
    25
100
AcDbLine
 10
910.2433501725
 20
494.3521437387
 30
0.0
 11
910.2433501725
 21
484.7521437387
 31
0.0
  0
LINE
  5
259
330
1F
100
AcDbEntity
  8
0
  6
Continuous
 62
     7
370
    25
100
AcDbLine
 10
851.3748974581
 20
480.2521437387
 30
0.0
 11
851.4312394199
 21
480.2521437387
 31
0.0
  0
LINE
  5
25A
330
1F
100
AcDbEntity
  8
0
  6
Continuous
 62
     7
370
    25
100
AcDbLine
 10
851.9312394199
 20
479.7521437387
 30
0.0
 11
851.8748974581
 21
479.7521437387
 31
0.0
  0
LINE
  5
25B
330
1F
100
AcDbEntity
  8
0
  6
Continuous
 62
     7
370
    25
100
AcDbLine
 10
852.3213086987
 20
480.2521437387
 30
0.0
 11
855.7682983547
 21
480.2521437387
 31
0.0
  0
LINE
  5
25C
330
1F
100
AcDbEntity
  8
0
  6
Continuous
 62
     7
370
    25
100
AcDbLine
 10
855.3622429784
 20
479.7521437387
 30
0.0
 11
852.7770007364
 21
479.7521437387
 31
0.0
  0
LINE
  5
25D
330
1F
100
AcDbEntity
  8
0
  6
Continuous
 62
     7
370
    25
100
AcDbLine
 10
855.7682983547
 20
480.2521437387
 30
0.0
 11
856.778955753
 21
480.2521437387
 31
0.0
  0
LINE
  5
25E
330
1F
100
AcDbEntity
  8
0
  6
Continuous
 62
     7
370
    25
100
AcDbLine
 10
856.3729003767
 20
479.7521437387
 30
0.0
 11
855.3622429784
 21
479.7521437387
 31
0.0
  0
LINE
  5
25F
330
1F
100
AcDbEntity
  8
0
  6
Continuous
 62
     7
370
    25
100
AcDbLine
 10
851.6084712691
 20
480.2521437387
 30
0.0
 11
852.3213086987
 21
480.2521437387
 31
0.0
  0
LINE
  5
260
330
1F
100
AcDbEntity
  8
0
  6
Continuous
 62
     7
370
    25
100
AcDbLine
 10
852.7770007364
 20
479.7521437387
 30
0.0
 11
852.0641633068
 21
479.7521437387
 31
0.0
  0
LINE
  5
261
330
1F
100
AcDbEntity
  8
0
  6
Continuous
 62
     7
370
    25
100
AcDbLine
 10
856.778955753
 20
480.2521437387
 30
0.0
 11
857.1547342479
 21
480.2521437387
 31
0.0
  0
LINE
  5
262
330
1F
100
AcDbEntity
  8
0
  6
Continuous
 62
     7
370
    25
100
AcDbLine
 10
856.6547342479
 20
479.7521437387
 30
0.0
 11
856.3729003767
 21
479.7521437387
 31
0.0
  0
LINE
  5
263
330
1F
100
AcDbEntity
  8
0
  6
Continuous
 62
     7
370
    25
100
AcDbLine
 10
851.4312394199
 20
480.2521437387
 30
0.0
 11
851.6084712691
 21
480.2521437387
 31
0.0
  0
LINE
  5
264
330
1F
100
AcDbEntity
  8
0
  6
Continuous
 62
     7
370
    25
100
AcDbLine
 10
852.0641633068
 20
479.7521437387
 30
0.0
 11
851.9312394199
 21
479.7521437387
 31
0.0
  0
LINE
  5
265
330
1F
100
AcDbEntity
  8
0
  6
Continuous
 62
     7
370
    25
100
AcDbLine
 10
-28.0263144669
 20
480.2521437387
 30
0.0
 11
-25.9187648817
 21
480.2521437387
 31
0.0
  0
LINE
  5
266
330
1F
100
AcDbEntity
  8
0
  6
Continuous
 62
     7
370
    25
100
AcDbLine
 10
-26.4187648817
 20
479.7521437387
 30
0.0
 11
-27.9994270706
 21
479.7521437387
 31
0.0
  0
LINE
  5
267
330
1F
100
AcDbEntity
  8
0
  6
Continuous
 62
     7
370
    25
100
AcDbLine
 10
-27.9994270706
 20
479.7521437387
 30
0.0
 11
-29.7289717549
 21
479.7521437387
 31
0.0
  0
LINE
  5
268
330
1F
100
AcDbEntity
  8
0
  6
Continuous
 62
     7
370
    25
100
AcDbLine
 10
-29.7558591512
 20
480.2521437387
 30
0.0
 11
-28.0263144669
 21
480.2521437387
 31
0.0
  0
LINE
  5
269
330
1F
100
AcDbEntity
  8
0
  6
Continuous
 62
     7
370
    25
100
AcDbLine
 10
-31.648309566
 20
480.2521437387
 30
0.0
 11
-29.7558591512
 21
480.2521437387
 31
0.0
  0
LINE
  5
26A
330
1F
100
AcDbEntity
  8
0
  6
Continuous
 62
     7
370
    25
100
AcDbLine
 10
-29.7289717549
 20
479.7521437387
 30
0.0
 11
-31.148309566
 21
479.7521437387
 31
0.0
  0
LINE
  5
26B
330
1F
100
AcDbEntity
  8
0
  6
Continuous
 62
     7
370
    25
100
AcDbLine
 10
862.7433501725
 20
476.6521437387
 30
0.0
 11
863.9433501725
 21
476.6521437387
 31
0.0
  0
LINE
  5
26C
330
1F
100
AcDbEntity
  8
0
  6
Continuous
 62
     7
370
    25
100
AcDbLine
 10
863.9433501725
 20
457.6521437387
 30
0.0
 11
860.7433501725
 21
457.6521437387
 31
0.0
  0
LINE
  5
26D
330
1F
100
AcDbEntity
  8
0
  6
Continuous
 62
     7
370
    25
100
AcDbLine
 10
860.7433501725
 20
457.6521437387
 30
0.0
 11
860.7433501725
 21
436.6521437387
 31
0.0
  0
ARC
  5
26E
330
1F
100
AcDbEntity
  8
0
  6
Continuous
 62
     7
370
    25
100
AcDbCircle
 10
857.7433501725
 20
436.6521437387
 30
0.0
 40
3.0
100
AcDbArc
 50
270.0
 51
0.0
  0
LINE
  5
26F
330
1F
100
AcDbEntity
  8
0
  6
Continuous
 62
     7
370
    25
100
AcDbLine
 10
857.7433501725
 20
433.6521437387
 30
0.0
 11
813.7433501725
 21
433.6521437387
 31
0.0
  0
ARC
  5
270
330
1F
100
AcDbEntity
  8
0
  6
Continuous
 62
     7
370
    25
100
AcDbCircle
 10
813.7433501725
 20
436.6521437387
 30
0.0
 40
3.0
100
AcDbArc
 50
180.0
 51
270.0
  0
LINE
  5
271
330
1F
100
AcDbEntity
  8
0
  6
Continuous
 62
     7
370
    25
100
AcDbLine
 10
810.7433501725
 20
436.6521437387
 30
0.0
 11
810.7433501725
 21
452.7821437387
 31
0.0
  0
LINE
  5
272
330
1F
100
AcDbEntity
  8
0
  6
Continuous
 62
     7
370
    25
100
AcDbLine
 10
810.7433501725
 20
452.7821437387
 30
0.0
 11
808.2433501725
 21
452.7821437387
 31
0.0
  0
LINE
  5
273
330
1F
100
AcDbEntity
  8
0
  6
Continuous
 62
     7
370
    25
100
AcDbLine
 10
808.2433501725
 20
452.2900929311
 30
0.0
 11
808.2433501725
 21
452.7821437387
 31
0.0
  0
LINE
  5
274
330
1F
100
AcDbEntity
  8
0
  6
Continuous
 62
     7
370
    25
100
AcDbLine
 10
608.2433501725
 20
452.2900929311
 30
0.0
 11
608.2433501725
 21
452.7821437387
 31
0.0
  0
LINE
  5
275
330
1F
100
AcDbEntity
  8
0
  6
Continuous
 62
     7
370
    25
100
AcDbLine
 10
608.2433501725
 20
452.7821437387
 30
0.0
 11
605.7433501725
 21
452.7821437387
 31
0.0
  0
LINE
  5
276
330
1F
100
AcDbEntity
  8
0
  6
Continuous
 62
     7
370
    25
100
AcDbLine
 10
605.7433501725
 20
452.7821437387
 30
0.0
 11
605.7433501725
 21
436.6521437387
 31
0.0
  0
ARC
  5
277
330
1F
100
AcDbEntity
  8
0
  6
Continuous
 62
     7
370
    25
100
AcDbCircle
 10
602.7433501725
 20
436.6521437387
 30
0.0
 40
3.0
100
AcDbArc
 50
270.0
 51
0.0
  0
LINE
  5
278
330
1F
100
AcDbEntity
  8
0
  6
Continuous
 62
     7
370
    25
100
AcDbLine
 10
602.7433501725
 20
433.6521437387
 30
0.0
 11
518.2433501725
 21
433.6521437387
 31
0.0
  0
ARC
  5
279
330
1F
100
AcDbEntity
  8
0
  6
Continuous
 62
     7
370
    25
100
AcDbCircle
 10
518.2433501725
 20
436.6521437387
 30
0.0
 40
3.0
100
AcDbArc
 50
180.0
 51
270.0
  0
LINE
  5
27A
330
1F
100
AcDbEntity
  8
0
  6
Continuous
 62
     7
370
    25
100
AcDbLine
 10
515.2433501725
 20
436.6521437387
 30
0.0
 11
515.2433501725
 21
452.7821437387
 31
0.0
  0
LINE
  5
27B
330
1F
100
AcDbEntity
  8
0
  6
Continuous
 62
     7
370
    25
100
AcDbLine
 10
515.2433501725
 20
452.7821437387
 30
0.0
 11
512.7433501725
 21
452.7821437387
 31
0.0
  0
LINE
  5
27C
330
1F
100
AcDbEntity
  8
0
  6
Continuous
 62
     7
370
    25
100
AcDbLine
 10
512.7433501725
 20
452.2900929311
 30
0.0
 11
512.7433501725
 21
452.7821437387
 31
0.0
  0
LINE
  5
27D
330
1F
100
AcDbEntity
  8
0
  6
Continuous
 62
     7
370
    25
100
AcDbLine
 10
312.7433501725
 20
452.2900929311
 30
0.0
 11
312.7433501725
 21
452.7821437387
 31
0.0
  0
LINE
  5
27E
330
1F
100
AcDbEntity
  8
0
  6
Continuous
 62
     7
370
    25
100
AcDbLine
 10
312.7433501725
 20
452.7821437387
 30
0.0
 11
310.2433501725
 21
452.7821437387
 31
0.0
  0
LINE
  5
27F
330
1F
100
AcDbEntity
  8
0
  6
Continuous
 62
     7
370
    25
100
AcDbLine
 10
310.2433501725
 20
452.7821437387
 30
0.0
 11
310.2433501725
 21
436.6521437387
 31
0.0
  0
ARC
  5
280
330
1F
100
AcDbEntity
  8
0
  6
Continuous
 62
     7
370
    25
100
AcDbCircle
 10
307.2433501725
 20
436.6521437387
 30
0.0
 40
3.0
100
AcDbArc
 50
270.0
 51
0.0
  0
LINE
  5
281
330
1F
100
AcDbEntity
  8
0
  6
Continuous
 62
     7
370
    25
100
AcDbLine
 10
307.2433501725
 20
433.6521437387
 30
0.0
 11
222.7433501725
 21
433.6521437387
 31
0.0
  0
ARC
  5
282
330
1F
100
AcDbEntity
  8
0
  6
Continuous
 62
     7
370
    25
100
AcDbCircle
 10
222.7433501725
 20
436.6521437387
 30
0.0
 40
3.0
100
AcDbArc
 50
180.0
 51
270.0
  0
LINE
  5
283
330
1F
100
AcDbEntity
  8
0
  6
Continuous
 62
     7
370
    25
100
AcDbLine
 10
219.7433501725
 20
436.6521437387
 30
0.0
 11
219.7433501725
 21
452.7821437387
 31
0.0
  0
LINE
  5
284
330
1F
100
AcDbEntity
  8
0
  6
Continuous
 62
     7
370
    25
100
AcDbLine
 10
219.7433501725
 20
452.7821437387
 30
0.0
 11
217.2433501725
 21
452.7821437387
 31
0.0
  0
LINE
  5
285
330
1F
100
AcDbEntity
  8
0
  6
Continuous
 62
     7
370
    25
100
AcDbLine
 10
217.2433501725
 20
452.2900929311
 30
0.0
 11
217.2433501725
 21
452.7821437387
 31
0.0
  0
LINE
  5
286
330
1F
100
AcDbEntity
  8
0
  6
Continuous
 62
     7
370
    25
100
AcDbLine
 10
17.2433501725
 20
452.2900929311
 30
0.0
 11
17.2433501725
 21
452.7821437387
 31
0.0
  0
LINE
  5
287
330
1F
100
AcDbEntity
  8
0
  6
Continuous
 62
     7
370
    25
100
AcDbLine
 10
17.2433501725
 20
452.7821437387
 30
0.0
 11
14.7433501725
 21
452.7821437387
 31
0.0
  0
LINE
  5
288
330
1F
100
AcDbEntity
  8
0
  6
Continuous
 62
     7
370
    25
100
AcDbLine
 10
14.7433501725
 20
452.7821437387
 30
0.0
 11
14.7433501725
 21
436.6521437387
 31
0.0
  0
ARC
  5
289
330
1F
100
AcDbEntity
  8
0
  6
Continuous
 62
     7
370
    25
100
AcDbCircle
 10
11.7433501725
 20
436.6521437387
 30
0.0
 40
3.000000000000002
100
AcDbArc
 50
270.0
 51
0.0
  0
LINE
  5
28A
330
1F
100
AcDbEntity
  8
0
  6
Continuous
 62
     7
370
    25
100
AcDbLine
 10
11.7433501725
 20
433.6521437387
 30
0.0
 11
-32.2566498275
 21
433.6521437387
 31
0.0
  0
ARC
  5
28B
330
1F
100
AcDbEntity
  8
0
  6
Continuous
 62
     7
370
    25
100
AcDbCircle
 10
-32.2566498275
 20
436.6521437387
 30
0.0
 40
3.0
100
AcDbArc
 50
180.0
 51
270.0
  0
LINE
  5
28C
330
1F
100
AcDbEntity
  8
0
  6
Continuous
 62
     7
370
    25
100
AcDbLine
 10
-35.2566498275
 20
436.6521437387
 30
0.0
 11
-35.2566498275
 21
457.6521437387
 31
0.0
  0
LINE
  5
28D
330
1F
100
AcDbEntity
  8
0
  6
Continuous
 62
     7
370
    25
100
AcDbLine
 10
-35.2566498275
 20
457.6521437387
 30
0.0
 11
-38.4566498275
 21
457.6521437387
 31
0.0
  0
LINE
  5
28E
330
1F
100
AcDbEntity
  8
0
  6
Continuous
 62
     7
370
    25
100
AcDbLine
 10
-38.4566498275
 20
476.6521437387
 30
0.0
 11
-37.2566498275
 21
476.6521437387
 31
0.0
  0
LINE
  5
28F
330
1F
100
AcDbEntity
  8
0
  6
Continuous
 62
     7
370
    25
100
AcDbLine
 10
-37.2566498275
 20
476.6521437387
 30
0.0
 11
-37.2566498275
 21
476.8521437387
 31
0.0
  0
LINE
  5
290
330
1F
100
AcDbEntity
  8
0
  6
Continuous
 62
     7
370
    25
100
AcDbLine
 10
862.7433501725
 20
476.8521437387
 30
0.0
 11
862.7433501725
 21
476.6521437387
 31
0.0
  0
LINE
  5
291
330
1F
100
AcDbEntity
  8
0
  6
Continuous
 62
     7
370
    25
100
AcDbLine
 10
512.7433501725
 20
452.2900929311
 30
0.0
 11
512.7433501725
 21
451.3900929311
 31
0.0
  0
LINE
  5
292
330
1F
100
AcDbEntity
  8
0
  6
Continuous
 62
     7
370
    25
100
AcDbLine
 10
312.7433501725
 20
451.3900929311
 30
0.0
 11
312.7433501725
 21
452.2900929311
 31
0.0
  0
LINE
  5
293
330
1F
100
AcDbEntity
  8
0
  6
Continuous
 62
     7
370
    25
100
AcDbLine
 10
217.2433501725
 20
452.2900929311
 30
0.0
 11
217.2433501725
 21
451.3900929311
 31
0.0
  0
LINE
  5
294
330
1F
100
AcDbEntity
  8
0
  6
Continuous
 62
     7
370
    25
100
AcDbLine
 10
17.2433501725
 20
451.3900929311
 30
0.0
 11
17.2433501725
 21
452.2900929311
 31
0.0
  0
LINE
  5
295
330
1F
100
AcDbEntity
  8
0
  6
Continuous
 62
     7
370
    25
100
AcDbLine
 10
808.2433501725
 20
452.2900929311
 30
0.0
 11
808.2433501725
 21
451.3900929311
 31
0.0
  0
LINE
  5
296
330
1F
100
AcDbEntity
  8
0
  6
Continuous
 62
     7
370
    25
100
AcDbLine
 10
608.2433501725
 20
451.3900929311
 30
0.0
 11
608.2433501725
 21
452.2900929311
 31
0.0
  0
LINE
  5
297
330
1F
100
AcDbEntity
  8
0
  6
Continuous
 62
     7
370
    25
100
AcDbLine
 10
863.9433501725
 20
476.6521437387
 30
0.0
 11
864.7433501725
 21
476.6521437387
 31
0.0
  0
LINE
  5
298
330
1F
100
AcDbEntity
  8
0
  6
Continuous
 62
     7
370
    25
100
AcDbLine
 10
865.7433501725
 20
457.6521437387
 30
0.0
 11
865.7433501725
 21
458.2521437387
 31
0.0
  0
LINE
  5
299
330
1F
100
AcDbEntity
  8
0
  6
Continuous
 62
     7
370
    25
100
AcDbLine
 10
865.7433501725
 20
457.6521437387
 30
0.0
 11
863.9433501725
 21
457.6521437387
 31
0.0
  0
LINE
  5
29A
330
1F
100
AcDbEntity
  8
0
  6
Continuous
 62
     7
370
    25
100
AcDbLine
 10
-40.2566498275
 20
457.6521437387
 30
0.0
 11
-40.2566498275
 21
458.2521437387
 31
0.0
  0
LINE
  5
29B
330
1F
100
AcDbEntity
  8
0
  6
Continuous
 62
     7
370
    25
100
AcDbLine
 10
-39.2566498275
 20
476.6521437387
 30
0.0
 11
-38.4566498275
 21
476.6521437387
 31
0.0
  0
LINE
  5
29C
330
1F
100
AcDbEntity
  8
0
  6
Continuous
 62
     7
370
    25
100
AcDbLine
 10
-38.4566498275
 20
457.6521437387
 30
0.0
 11
-40.2566498275
 21
457.6521437387
 31
0.0
  0
LINE
  5
29D
330
1F
100
AcDbEntity
  8
0
  6
Continuous
 62
     7
370
    25
100
AcDbLine
 10
-37.2566498275
 20
476.8521437387
 30
0.0
 11
-37.2566498275
 21
478.6521437387
 31
0.0
  0
LINE
  5
29E
330
1F
100
AcDbEntity
  8
0
  6
Continuous
 62
     7
370
    25
100
AcDbLine
 10
862.7433501725
 20
478.6521437387
 30
0.0
 11
862.7433501725
 21
476.8521437387
 31
0.0
  0
LINE
  5
29F
330
1F
100
AcDbEntity
  8
0
  6
Continuous
 62
     7
370
    25
100
AcDbLine
 10
17.2433501725
 20
451.3900929311
 30
0.0
 11
17.2433501725
 21
444.7652218006
 31
0.0
  0
LINE
  5
2A0
330
1F
100
AcDbEntity
  8
0
  6
Continuous
 62
     7
370
    25
100
AcDbLine
 10
217.2433501725
 20
444.7652218006
 30
0.0
 11
217.2433501725
 21
451.3900929311
 31
0.0
  0
LINE
  5
2A1
330
1F
100
AcDbEntity
  8
0
  6
Continuous
 62
     7
370
    25
100
AcDbLine
 10
312.7433501725
 20
451.3900929311
 30
0.0
 11
312.7433501725
 21
444.7652218006
 31
0.0
  0
LINE
  5
2A2
330
1F
100
AcDbEntity
  8
0
  6
Continuous
 62
     7
370
    25
100
AcDbLine
 10
512.7433501725
 20
444.7652218006
 30
0.0
 11
512.7433501725
 21
451.3900929311
 31
0.0
  0
LINE
  5
2A3
330
1F
100
AcDbEntity
  8
0
  6
Continuous
 62
     7
370
    25
100
AcDbLine
 10
608.2433501725
 20
451.3900929311
 30
0.0
 11
608.2433501725
 21
444.7652218006
 31
0.0
  0
LINE
  5
2A4
330
1F
100
AcDbEntity
  8
0
  6
Continuous
 62
     7
370
    25
100
AcDbLine
 10
808.2433501725
 20
444.7652218006
 30
0.0
 11
808.2433501725
 21
451.3900929311
 31
0.0
  0
LINE
  5
2A5
330
1F
100
AcDbEntity
  8
0
  6
Continuous
 62
     7
370
    25
100
AcDbLine
 10
512.7433501725
 20
444.2652218006
 30
0.0
 11
512.7433501725
 21
444.7652218006
 31
0.0
  0
LINE
  5
2A6
330
1F
100
AcDbEntity
  8
0
  6
Continuous
 62
     7
370
    25
100
AcDbLine
 10
312.7433501725
 20
444.7652218006
 30
0.0
 11
312.7433501725
 21
444.2652218006
 31
0.0
  0
LINE
  5
2A7
330
1F
100
AcDbEntity
  8
0
  6
Continuous
 62
     7
370
    25
100
AcDbLine
 10
808.2433501725
 20
444.2652218006
 30
0.0
 11
808.2433501725
 21
444.7652218006
 31
0.0
  0
LINE
  5
2A8
330
1F
100
AcDbEntity
  8
0
  6
Continuous
 62
     7
370
    25
100
AcDbLine
 10
608.2433501725
 20
444.7652218006
 30
0.0
 11
608.2433501725
 21
444.2652218006
 31
0.0
  0
LINE
  5
2A9
330
1F
100
AcDbEntity
  8
0
  6
Continuous
 62
     7
370
    25
100
AcDbLine
 10
217.2433501725
 20
444.2652218006
 30
0.0
 11
217.2433501725
 21
444.7652218006
 31
0.0
  0
LINE
  5
2AA
330
1F
100
AcDbEntity
  8
0
  6
Continuous
 62
     7
370
    25
100
AcDbLine
 10
17.2433501725
 20
444.7652218006
 30
0.0
 11
17.2433501725
 21
444.2652218006
 31
0.0
  0
ARC
  5
2AB
330
1F
100
AcDbEntity
  8
0
  6
Continuous
 62
     7
370
    25
100
AcDbCircle
 10
611.2433501725
 20
437.7475303469
 30
0.0
 40
3.0
100
AcDbArc
 50
180.0
 51
270.0
  0
LINE
  5
2AC
330
1F
100
AcDbEntity
  8
0
  6
Continuous
 62
     7
370
    25
100
AcDbLine
 10
608.2433501725
 20
437.7475303469
 30
0.0
 11
608.2433501725
 21
444.2652218006
 31
0.0
  0
LINE
  5
2AD
330
1F
100
AcDbEntity
  8
0
  6
Continuous
 62
     7
370
    25
100
AcDbLine
 10
808.2433501725
 20
444.2652218006
 30
0.0
 11
808.2433501725
 21
437.7475303469
 31
0.0
  0
ARC
  5
2AE
330
1F
100
AcDbEntity
  8
0
  6
Continuous
 62
     7
370
    25
100
AcDbCircle
 10
805.2433501725
 20
437.7475303469
 30
0.0
 40
3.0
100
AcDbArc
 50
270.0
 51
0.0
  0
LINE
  5
2AF
330
1F
100
AcDbEntity
  8
0
  6
Continuous
 62
     7
370
    25
100
AcDbLine
 10
805.2433501725
 20
434.7475303469
 30
0.0
 11
611.2433501725
 21
434.7475303469
 31
0.0
  0
ARC
  5
2B0
330
1F
100
AcDbEntity
  8
0
  6
Continuous
 62
     7
370
    25
100
AcDbCircle
 10
315.7433501725
 20
437.7475303469
 30
0.0
 40
3.0
100
AcDbArc
 50
180.0
 51
270.0
  0
LINE
  5
2B1
330
1F
100
AcDbEntity
  8
0
  6
Continuous
 62
     7
370
    25
100
AcDbLine
 10
312.7433501725
 20
437.7475303469
 30
0.0
 11
312.7433501725
 21
444.2652218006
 31
0.0
  0
LINE
  5
2B2
330
1F
100
AcDbEntity
  8
0
  6
Continuous
 62
     7
370
    25
100
AcDbLine
 10
512.7433501725
 20
444.2652218006
 30
0.0
 11
512.7433501725
 21
437.7475303469
 31
0.0
  0
ARC
  5
2B3
330
1F
100
AcDbEntity
  8
0
  6
Continuous
 62
     7
370
    25
100
AcDbCircle
 10
509.7433501725
 20
437.7475303469
 30
0.0
 40
3.000000000000057
100
AcDbArc
 50
270.0
 51
0.0
  0
LINE
  5
2B4
330
1F
100
AcDbEntity
  8
0
  6
Continuous
 62
     7
370
    25
100
AcDbLine
 10
509.7433501725
 20
434.7475303469
 30
0.0
 11
315.7433501725
 21
434.7475303469
 31
0.0
  0
LINE
  5
2B5
330
1F
100
AcDbEntity
  8
0
  6
Continuous
 62
     7
370
    25
100
AcDbLine
 10
17.2433501725
 20
437.7475303469
 30
0.0
 11
17.2433501725
 21
444.2652218006
 31
0.0
  0
LINE
  5
2B6
330
1F
100
AcDbEntity
  8
0
  6
Continuous
 62
     7
370
    25
100
AcDbLine
 10
217.2433501725
 20
444.2652218006
 30
0.0
 11
217.2433501725
 21
437.7475303469
 31
0.0
  0
ARC
  5
2B7
330
1F
100
AcDbEntity
  8
0
  6
Continuous
 62
     7
370
    25
100
AcDbCircle
 10
20.2433501725
 20
437.7475303469
 30
0.0
 40
3.000000000000004
100
AcDbArc
 50
180.0
 51
270.0
  0
ARC
  5
2B8
330
1F
100
AcDbEntity
  8
0
  6
Continuous
 62
     7
370
    25
100
AcDbCircle
 10
214.2433501725
 20
437.7475303469
 30
0.0
 40
3.0
100
AcDbArc
 50
270.0
 51
0.0
  0
LINE
  5
2B9
330
1F
100
AcDbEntity
  8
0
  6
Continuous
 62
     7
370
    25
100
AcDbLine
 10
214.2433501725
 20
434.7475303469
 30
0.0
 11
20.2433501725
 21
434.7475303469
 31
0.0
  0
LINE
  5
2BA
330
1F
100
AcDbEntity
  8
0
  6
Continuous
 62
     7
370
    25
100
AcDbLine
 10
874.4021001725
 20
463.1521437387
 30
0.0
 11
874.4021001725
 21
463.3521437387
 31
0.0
  0
LINE
  5
2BB
330
1F
100
AcDbEntity
  8
0
  6
Continuous
 62
     7
370
    25
100
AcDbLine
 10
874.4021001725
 20
468.9521437387
 30
0.0
 11
874.4021001725
 21
469.1521437387
 31
0.0
  0
LINE
  5
2BC
330
1F
100
AcDbEntity
  8
0
  6
Continuous
 62
     7
370
    25
100
AcDbLine
 10
874.9433501725
 20
467.731547076
 30
0.0
 11
874.9433501725
 21
468.6108937387
 31
0.0
  0
LINE
  5
2BD
330
1F
100
AcDbEntity
  8
0
  6
Continuous
 62
     7
370
    25
100
AcDbLine
 10
874.9433501725
 20
463.6933937387
 30
0.0
 11
874.9433501725
 21
467.731547076
 31
0.0
  0
LINE
  5
2BE
330
1F
100
AcDbEntity
  8
0
  6
Continuous
 62
     7
370
    25
100
AcDbLine
 10
864.2433501725
 20
480.4521437387
 30
0.0
 11
864.2433501725
 21
478.6521437387
 31
0.0
  0
LINE
  5
2BF
330
1F
100
AcDbEntity
  8
0
  6
Continuous
 62
     7
370
    25
100
AcDbLine
 10
864.2433501725
 20
478.6521437387
 30
0.0
 11
-38.7566498275
 21
478.6521437387
 31
0.0
  0
LINE
  5
2C0
330
1F
100
AcDbEntity
  8
0
  6
Continuous
 62
     7
370
    25
100
AcDbLine
 10
-38.7566498275
 20
478.6521437387
 30
0.0
 11
-38.7566498275
 21
480.4521437387
 31
0.0
  0
LINE
  5
2C1
330
1F
100
AcDbEntity
  8
0
  6
Continuous
 62
     7
370
    25
100
AcDbLine
 10
864.2433501725
 20
480.4521437387
 30
0.0
 11
864.7433501725
 21
485.8271437387
 31
0.0
  0
LINE
  5
2C2
330
1F
100
AcDbEntity
  8
0
  6
Continuous
 62
     7
370
    25
100
AcDbLine
 10
-39.2566498275
 20
485.8271437387
 30
0.0
 11
-38.7566498275
 21
480.4521437387
 31
0.0
  0
LINE
  5
2C3
330
1F
100
AcDbEntity
  8
0
  6
Continuous
 62
     7
370
    25
100
AcDbLine
 10
-49.4566498275
 20
463.9348056614
 30
0.0
 11
-49.4566498275
 21
463.6933937387
 31
0.0
  0
LINE
  5
2C4
330
1F
100
AcDbEntity
  8
0
  6
Continuous
 62
     7
370
    25
100
AcDbLine
 10
-49.4566498275
 20
468.6108937387
 30
0.0
 11
-49.4566498275
 21
463.9348056614
 31
0.0
  0
LINE
  5
2C5
330
1F
100
AcDbEntity
  8
0
  6
Continuous
 62
     7
370
    25
100
AcDbLine
 10
-48.9153998275
 20
469.1521437387
 30
0.0
 11
-48.9153998275
 21
468.9521437387
 31
0.0
  0
LINE
  5
2C6
330
1F
100
AcDbEntity
  8
0
  6
Continuous
 62
     7
370
    25
100
AcDbLine
 10
-48.9153998275
 20
463.3521437387
 30
0.0
 11
-48.9153998275
 21
463.1521437387
 31
0.0
  0
SPLINE
  5
2C7
330
1F
100
AcDbEntity
  8
0
  6
Continuous
 62
     7
370
    25
100
AcDbSpline
210
0.0
220
0.0
230
1.0
 70
    24
 71
     3
 72
    15
 73
    11
 74
     0
 42
0.000000001
 43
0.00000001
 40
0.0
 40
0.0
 40
0.0
 40
0.0
 40
0.0346967497918684
 40
0.2211884951269673
 40
0.4076802404620663
 40
0.5080720152630803
 40
0.6105942475634837
 40
0.7131164798638866
 40
0.8135082546649014
 40
1.0
 40
1.0
 40
1.0
 40
1.0
 10
-38.25664982752252
 20
460.3788949293123
 30
0.0
 10
-38.25664982752252
 20
460.3721738256809
 30
0.0
 10
-38.25664982752275
 20
460.3293274263281
 30
0.0
 10
-38.25664982752269
 20
460.8173683890866
 30
0.0
 10
-38.25664982752252
 20
461.9132794465551
 30
0.0
 10
-38.25664982752252
 20
463.1321765790026
 30
0.0
 10
-38.25664982752252
 20
464.2123518068596
 30
0.0
 10
-38.25664982752247
 20
465.3728287093253
 30
0.0
 10
-38.25664982752247
 20
466.9034036044404
 30
0.0
 10
-38.25664982752264
 20
467.9670294930905
 30
0.0
 10
-38.25664982752252
 20
468.6584510437737
 30
0.0
  0
SPLINE
  5
2C8
330
1F
100
AcDbEntity
  8
0
  6
Continuous
 62
     7
370
    25
100
AcDbSpline
210
0.0
220
0.0
230
1.0
 70
    24
 71
     3
 72
    12
 73
     8
 74
     0
 42
0.000000001
 43
0.00000001
 40
0.0
 40
0.0
 40
0.0
 40
0.0
 40
0.3344405486782633
 40
0.5144757571369873
 40
0.6983315710265376
 40
0.8821873849160877
 40
1.0
 40
1.0
 40
1.0
 40
1.0
 10
-38.25664982752252
 20
468.6584510437737
 30
0.0
 10
-38.25664982752247
 20
469.2825965792754
 30
0.0
 10
-38.25664982752252
 20
470.242730594753
 30
0.0
 10
-38.25664982752252
 20
471.1506415010484
 30
0.0
 10
-38.25664982752247
 20
471.6563588389645
 30
0.0
 10
-38.25664982752258
 20
471.9279785731026
 30
0.0
 10
-38.25664982752258
 20
471.9261188416429
 30
0.0
 10
-38.25664982752252
 20
471.9253925481181
 30
0.0
  0
SPLINE
  5
2C9
330
1F
100
AcDbEntity
  8
0
  6
Continuous
 62
     7
370
    25
100
AcDbSpline
210
0.0
220
0.0
230
1.0
 70
     8
 71
     3
 72
     8
 73
     4
 74
     0
 42
0.000000001
 43
0.00000001
 40
0.0
 40
0.0
 40
0.0
 40
0.0
 40
1.0
 40
1.0
 40
1.0
 40
1.0
 10
-34.25664982752951
 20
465.7687487110287
 30
0.0
 10
-34.25664982752951
 20
466.7511271556015
 30
0.0
 10
-34.43096512790894
 20
467.7066183237912
 30
0.0
 10
-34.70323181492091
 20
468.6470009731188
 30
0.0
  0
SPLINE
  5
2CA
330
1F
100
AcDbEntity
  8
0
  6
Continuous
 62
     7
370
    25
100
AcDbSpline
210
0.0
220
0.0
230
1.0
 70
     8
 71
     3
 72
     8
 73
     4
 74
     0
 42
0.000000001
 43
0.00000001
 40
0.0
 40
0.0
 40
0.0
 40
0.0
 40
1.0
 40
1.0
 40
1.0
 40
1.0
 10
-34.70323181492091
 20
462.8904964489387
 30
0.0
 10
-34.4309651279095
 20
463.8308790982645
 30
0.0
 10
-34.25664982752951
 20
464.7863702664578
 30
0.0
 10
-34.25664982752951
 20
465.7687487110287
 30
0.0
  0
LINE
  5
2CB
330
1F
100
AcDbEntity
  8
0
  6
Continuous
 62
     7
370
    25
100
AcDbLine
 10
-38.2566498275
 20
462.8904964489
 30
0.0
 11
-34.7032318149
 21
462.8904964489
 31
0.0
  0
LINE
  5
2CC
330
1F
100
AcDbEntity
  8
0
  6
Continuous
 62
     7
370
    25
100
AcDbLine
 10
-38.2566498275
 20
468.6470009731
 30
0.0
 11
-34.7032318149
 21
468.6470009731
 31
0.0
  0
LINE
  5
2CD
330
1F
100
AcDbEntity
  8
0
  6
Continuous
 62
     7
370
    25
100
AcDbLine
 10
-34.2566498275
 20
465.768748711
 30
0.0
 11
-34.2566498275
 21
470.277824618
 31
0.0
  0
SPLINE
  5
2CE
330
1F
100
AcDbEntity
  8
0
  6
Continuous
 62
     7
370
    25
100
AcDbSpline
210
0.0
220
0.0
230
1.0
 70
     8
 71
     3
 72
     8
 73
     4
 74
     0
 42
0.000000001
 43
0.00000001
 40
0.0
 40
0.0
 40
0.0
 40
0.0
 40
1.0
 40
1.0
 40
1.0
 40
1.0
 10
-34.70323181492097
 20
468.6470009731249
 30
0.0
 10
-34.43096512790955
 20
469.1798237141897
 30
0.0
 10
-34.25664982752963
 20
469.7212069730843
 30
0.0
 10
-34.25664982752963
 20
470.2778246180127
 30
0.0
  0
LINE
  5
2CF
330
1F
100
AcDbEntity
  8
0
  6
Continuous
 62
     7
370
    25
100
AcDbLine
 10
-34.2566498275
 20
461.6430678317
 30
0.0
 11
-34.2566498275
 21
465.768748711
 31
0.0
  0
SPLINE
  5
2D0
330
1F
100
AcDbEntity
  8
0
  6
Continuous
 62
     7
370
    25
100
AcDbSpline
210
0.0
220
0.0
230
1.0
 70
     8
 71
     3
 72
     8
 73
     4
 74
     0
 42
0.000000001
 43
0.00000001
 40
0.0
 40
0.0
 40
0.0
 40
0.0
 40
1.0
 40
1.0
 40
1.0
 40
1.0
 10
-34.25664982752974
 20
461.6430678317312
 30
0.0
 10
-34.25664982752974
 20
462.0688286313744
 30
0.0
 10
-34.4309651279091
 20
462.4829365406715
 30
0.0
 10
-34.70323181492097
 20
462.8904964489331
 30
0.0
  0
SPLINE
  5
2D1
330
1F
100
AcDbEntity
  8
0
  6
Continuous
 62
     7
370
    25
100
AcDbSpline
210
0.0
220
0.0
230
1.0
 70
     8
 71
     3
 72
     8
 73
     4
 74
     0
 42
0.000000001
 43
0.00000001
 40
0.0
 40
0.0
 40
0.0
 40
0.0
 40
1.0
 40
1.0
 40
1.0
 40
1.0
 10
-34.25664982752963
 20
470.2778246180127
 30
0.0
 10
-34.25664982752963
 20
470.8344422629426
 30
0.0
 10
-34.43096512790888
 20
471.3758255218345
 30
0.0
 10
-34.70323181492097
 20
471.9086482629006
 30
0.0
  0
LINE
  5
2D2
330
1F
100
AcDbEntity
  8
0
  6
Continuous
 62
     7
370
    25
100
AcDbLine
 10
-34.7032318149
 20
471.9086482629
 30
0.0
 11
-38.2566498275
 21
471.9086482629
 31
0.0
  0
SPLINE
  5
2D3
330
1F
100
AcDbEntity
  8
0
  6
Continuous
 62
     7
370
    25
100
AcDbSpline
210
0.0
220
0.0
230
1.0
 70
     8
 71
     3
 72
     8
 73
     4
 74
     0
 42
0.000000001
 43
0.00000001
 40
0.0
 40
0.0
 40
0.0
 40
0.0
 40
1.0
 40
1.0
 40
1.0
 40
1.0
 10
-34.70323181492102
 20
460.3956392145292
 30
0.0
 10
-34.43096512790961
 20
460.8031991227901
 30
0.0
 10
-34.25664982752974
 20
461.2173070320887
 30
0.0
 10
-34.25664982752974
 20
461.6430678317312
 30
0.0
  0
LINE
  5
2D4
330
1F
100
AcDbEntity
  8
0
  6
Continuous
 62
     7
370
    25
100
AcDbLine
 10
-38.2566498275
 20
460.3956392145
 30
0.0
 11
-34.7032318149
 21
460.3956392145
 31
0.0
  0
LINE
  5
2D5
330
1F
100
AcDbEntity
  8
0
  6
Continuous
 62
     7
370
    25
100
AcDbLine
 10
-49.2566498275
 20
463.9348056614
 30
0.0
 11
-49.2566498275
 21
463.6933937387
 31
0.0
  0
LINE
  5
2D6
330
1F
100
AcDbEntity
  8
0
  6
Continuous
 62
     7
370
    25
100
AcDbLine
 10
-49.2566498275
 20
468.6108937387
 30
0.0
 11
-49.2566498275
 21
463.9348056614
 31
0.0
  0
LINE
  5
2D7
330
1F
100
AcDbEntity
  8
0
  6
Continuous
 62
     7
370
    25
100
AcDbLine
 10
-48.7153998275
 20
469.1521437387
 30
0.0
 11
-48.7153998275
 21
463.1521437387
 31
0.0
  0
LINE
  5
2D8
330
1F
100
AcDbEntity
  8
0
  6
Continuous
 62
     7
370
    25
100
AcDbLine
 10
-34.7032318149
 20
471.9086482629
 30
0.0
 11
-34.6280440594
 21
471.6986277951
 31
0.0
  0
LINE
  5
2D9
330
1F
100
AcDbEntity
  8
0
  6
Continuous
 62
     7
370
    25
100
AcDbLine
 10
-34.2566498275
 20
470.277824618
 30
0.0
 11
-34.2566498275
 21
471.1521437387
 31
0.0
  0
LINE
  5
2DA
330
1F
100
AcDbEntity
  8
0
  6
Continuous
 62
     7
370
    25
100
AcDbLine
 10
-34.2566498275
 20
461.1521437387
 30
0.0
 11
-34.2566498275
 21
461.6430678317
 31
0.0
  0
LINE
  5
2DB
330
1F
100
AcDbEntity
  8
0
  6
Continuous
 62
     7
370
    25
100
AcDbLine
 10
-41.3087706875
 20
458.2521437387
 30
0.0
 11
-43.188155929
 21
458.2521437387
 31
0.0
  0
LWPOLYLINE
  5
2DC
330
1F
100
AcDbEntity
  8
0
  6
Continuous
 62
     7
370
    25
100
AcDbPolyline
 90
        9
 70
   128
 43
0.0
 10
-43.188155929
 20
458.2521437387
 10
-43.3216055688
 20
458.2905731779
 10
-43.4499268138
 20
458.4043846737
 10
-43.5681883505
 20
458.5892045141
 10
-43.6718454543
 20
458.8379301763
 10
-43.756914641
 20
459.1410032727
 10
-43.8201267493
 20
459.486776874
 10
-43.8590525734
 20
459.8619630947
 10
-43.8721962157
 20
460.2521437387
  0
LWPOLYLINE
  5
2DD
330
1F
100
AcDbEntity
  8
0
  6
Continuous
 62
     7
370
    25
100
AcDbPolyline
 90
        9
 70
   128
 43
0.0
 10
-41.9928109741
 20
460.2521437387
 10
-41.9796673318
 20
459.8619630947
 10
-41.9407415077
 20
459.486776874
 10
-41.8775293994
 20
459.1410032727
 10
-41.7924602128
 20
458.8379301763
 10
-41.6888031089
 20
458.5892045141
 10
-41.5705415722
 20
458.4043846737
 10
-41.4422203273
 20
458.2905731779
 10
-41.3087706875
 20
458.2521437387
  0
LINE
  5
2DE
330
1F
100
AcDbEntity
  8
0
  6
Continuous
 62
     7
370
    25
100
AcDbLine
 10
-41.3087706875
 20
458.2521437387
 30
0.0
 11
-39.4375719652
 21
458.2521437387
 31
0.0
  0
LINE
  5
2DF
330
1F
100
AcDbEntity
  8
0
  6
Continuous
 62
     7
370
    25
100
AcDbLine
 10
-41.9928109741
 20
472.2521437387
 30
0.0
 11
-41.9928109741
 21
460.2521437387
 31
0.0
  0
LWPOLYLINE
  5
2E0
330
1F
100
AcDbEntity
  8
0
  6
Continuous
 62
     7
370
    25
100
AcDbPolyline
 90
        9
 70
   128
 43
0.0
 10
-41.3087706875
 20
474.2521437387
 10
-41.4422203273
 20
474.2137142995
 10
-41.5705415722
 20
474.0999028037
 10
-41.6888031089
 20
473.9150829633
 10
-41.7924602128
 20
473.6663573011
 10
-41.8775293994
 20
473.3632842048
 10
-41.9407415077
 20
473.0175106034
 10
-41.9796673318
 20
472.6423243827
 10
-41.9928109741
 20
472.2521437387
  0
LINE
  5
2E1
330
1F
100
AcDbEntity
  8
0
  6
Continuous
 62
     7
370
    25
100
AcDbLine
 10
-39.4375719652
 20
474.2521437387
 30
0.0
 11
-41.3087706875
 21
474.2521437387
 31
0.0
  0
LINE
  5
2E2
330
1F
100
AcDbEntity
  8
0
  6
Continuous
 62
     7
370
    25
100
AcDbLine
 10
-43.8721962157
 20
472.2521437387
 30
0.0
 11
-43.8721962157
 21
460.2521437387
 31
0.0
  0
LWPOLYLINE
  5
2E3
330
1F
100
AcDbEntity
  8
0
  6
Continuous
 62
     7
370
    25
100
AcDbPolyline
 90
        9
 70
   128
 43
0.0
 10
-43.8721962157
 20
472.2521437387
 10
-43.8590525734
 20
472.6423243827
 10
-43.8201267493
 20
473.0175106034
 10
-43.756914641
 20
473.3632842048
 10
-43.6718454543
 20
473.6663573011
 10
-43.5681883505
 20
473.9150829633
 10
-43.4499268138
 20
474.0999028037
 10
-43.3216055688
 20
474.2137142995
 10
-43.188155929
 20
474.2521437387
  0
LINE
  5
2E4
330
1F
100
AcDbEntity
  8
0
  6
Continuous
 62
     7
370
    25
100
AcDbLine
 10
-43.188155929
 20
474.2521437387
 30
0.0
 11
-41.3087706875
 21
474.2521437387
 31
0.0
  0
LINE
  5
2E5
330
1F
100
AcDbEntity
  8
0
  6
Continuous
 62
     7
370
    25
100
AcDbLine
 10
-39.4375719652
 20
474.2521437387
 30
0.0
 11
-39.2618361779
 21
474.2521437387
 31
0.0
  0
LINE
  5
2E6
330
1F
100
AcDbEntity
  8
0
  6
Continuous
 62
     7
370
    25
100
AcDbLine
 10
-39.2566498275
 20
474.2521437387
 30
0.0
 11
-39.2566498275
 21
458.2521437387
 31
0.0
  0
LINE
  5
2E7
330
1F
100
AcDbEntity
  8
0
  6
Continuous
 62
     7
370
    25
100
AcDbLine
 10
-39.2566498275
 20
458.2521437387
 30
0.0
 11
-39.4375719652
 21
458.2521437387
 31
0.0
  0
LINE
  5
2E8
330
1F
100
AcDbEntity
  8
0
  6
Continuous
 62
     7
370
    25
100
AcDbLine
 10
-39.2618361779
 20
474.2521437387
 30
0.0
 11
-39.2566498275
 21
474.2521437387
 31
0.0
  0
LINE
  5
2E9
330
1F
100
AcDbEntity
  8
0
  6
Continuous
 62
     7
370
    25
100
AcDbLine
 10
-39.2566498275
 20
474.2521437387
 30
0.0
 11
-39.2566498275
 21
489.2521437387
 31
0.0
  0
LINE
  5
2EA
330
1F
100
AcDbEntity
  8
0
  6
Continuous
 62
     7
370
    25
100
AcDbLine
 10
-41.2566498275
 20
474.2521437387
 30
0.0
 11
-41.2566498275
 21
489.2521437387
 31
0.0
  0
LINE
  5
2EB
330
1F
100
AcDbEntity
  8
0
  6
Continuous
 62
     7
370
    25
100
AcDbLine
 10
-41.2549826976
 20
489.3521437387
 30
0.0
 11
-41.2566498275
 21
489.2521437387
 31
0.0
  0
LINE
  5
2EC
330
1F
100
AcDbEntity
  8
0
  6
Continuous
 62
     7
370
    25
100
AcDbLine
 10
-39.2516372646
 20
489.3521437387
 30
0.0
 11
-39.2566498275
 21
489.2521437387
 31
0.0
  0
LWPOLYLINE
  5
2ED
330
1F
100
AcDbEntity
  8
0
  6
Continuous
 62
     7
370
    25
100
AcDbPolyline
 90
        9
 70
   128
 43
0.0
 10
869.3588965607
 20
460.2521437387
 10
869.3457529184
 20
459.8619630947
 10
869.3068270943
 20
459.486776874
 10
869.2436149859
 20
459.1410032727
 10
869.1585457993
 20
458.8379301763
 10
869.0548886955
 20
458.5892045141
 10
868.9366271588
 20
458.4043846737
 10
868.8083059138
 20
458.2905731779
 10
868.674856274
 20
458.2521437387
  0
LINE
  5
2EE
330
1F
100
AcDbEntity
  8
0
  6
Continuous
 62
     7
370
    25
100
AcDbLine
 10
868.674856274
 20
458.2521437387
 30
0.0
 11
866.7954710324
 21
458.2521437387
 31
0.0
  0
LWPOLYLINE
  5
2EF
330
1F
100
AcDbEntity
  8
0
  6
Continuous
 62
     7
370
    25
100
AcDbPolyline
 90
        9
 70
   128
 43
0.0
 10
866.7954710324
 20
458.2521437387
 10
866.9289206722
 20
458.2905731779
 10
867.0572419172
 20
458.4043846737
 10
867.1755034539
 20
458.5892045141
 10
867.2791605577
 20
458.8379301763
 10
867.3642297444
 20
459.1410032727
 10
867.4274418527
 20
459.486776874
 10
867.4663676768
 20
459.8619630947
 10
867.4795113191
 20
460.2521437387
  0
LINE
  5
2F0
330
1F
100
AcDbEntity
  8
0
  6
Continuous
 62
     7
370
    25
100
AcDbLine
 10
864.9242723101
 20
458.2521437387
 30
0.0
 11
866.7954710324
 21
458.2521437387
 31
0.0
  0
LINE
  5
2F1
330
1F
100
AcDbEntity
  8
0
  6
Continuous
 62
     7
370
    25
100
AcDbLine
 10
866.7954710324
 20
474.2521437387
 30
0.0
 11
864.9242723101
 21
474.2521437387
 31
0.0
  0
LWPOLYLINE
  5
2F2
330
1F
100
AcDbEntity
  8
0
  6
Continuous
 62
     7
370
    25
100
AcDbPolyline
 90
        9
 70
   128
 43
0.0
 10
867.4795113191
 20
472.2521437387
 10
867.4663676768
 20
472.6423243827
 10
867.4274418527
 20
473.0175106034
 10
867.3642297444
 20
473.3632842048
 10
867.2791605577
 20
473.6663573011
 10
867.1755034539
 20
473.9150829633
 10
867.0572419172
 20
474.0999028037
 10
866.9289206722
 20
474.2137142995
 10
866.7954710324
 20
474.2521437387
  0
LINE
  5
2F3
330
1F
100
AcDbEntity
  8
0
  6
Continuous
 62
     7
370
    25
100
AcDbLine
 10
867.4795113191
 20
460.2521437387
 30
0.0
 11
867.4795113191
 21
472.2521437387
 31
0.0
  0
LINE
  5
2F4
330
1F
100
AcDbEntity
  8
0
  6
Continuous
 62
     7
370
    25
100
AcDbLine
 10
869.3588965607
 20
460.2521437387
 30
0.0
 11
869.3588965607
 21
472.2521437387
 31
0.0
  0
LINE
  5
2F5
330
1F
100
AcDbEntity
  8
0
  6
Continuous
 62
     7
370
    25
100
AcDbLine
 10
866.7954710324
 20
474.2521437387
 30
0.0
 11
868.674856274
 21
474.2521437387
 31
0.0
  0
LWPOLYLINE
  5
2F6
330
1F
100
AcDbEntity
  8
0
  6
Continuous
 62
     7
370
    25
100
AcDbPolyline
 90
        9
 70
   128
 43
0.0
 10
868.674856274
 20
474.2521437387
 10
868.8083059138
 20
474.2137142995
 10
868.9366271588
 20
474.0999028037
 10
869.0548886955
 20
473.9150829633
 10
869.1585457993
 20
473.6663573011
 10
869.2436149859
 20
473.3632842048
 10
869.3068270943
 20
473.0175106034
 10
869.3457529184
 20
472.6423243827
 10
869.3588965607
 20
472.2521437387
  0
LINE
  5
2F7
330
1F
100
AcDbEntity
  8
0
  6
Continuous
 62
     7
370
    25
100
AcDbLine
 10
864.7485365229
 20
474.2521437387
 30
0.0
 11
864.9242723101
 21
474.2521437387
 31
0.0
  0
LINE
  5
2F8
330
1F
100
AcDbEntity
  8
0
  6
Continuous
 62
     7
370
    25
100
AcDbLine
 10
864.7433501725
 20
458.2521437387
 30
0.0
 11
864.7433501725
 21
474.2521437387
 31
0.0
  0
LINE
  5
2F9
330
1F
100
AcDbEntity
  8
0
  6
Continuous
 62
     7
370
    25
100
AcDbLine
 10
864.9242723101
 20
458.2521437387
 30
0.0
 11
864.7433501725
 21
458.2521437387
 31
0.0
  0
LINE
  5
2FA
330
1F
100
AcDbEntity
  8
0
  6
Continuous
 62
     7
370
    25
100
AcDbLine
 10
864.7485365229
 20
474.2521437387
 30
0.0
 11
864.7433501725
 21
474.2521437387
 31
0.0
  0
LINE
  5
2FB
330
1F
100
AcDbEntity
  8
0
  6
Continuous
 62
     7
370
    25
100
AcDbLine
 10
864.7433501725
 20
489.2521437387
 30
0.0
 11
864.7433501725
 21
474.2521437387
 31
0.0
  0
LINE
  5
2FC
330
1F
100
AcDbEntity
  8
0
  6
Continuous
 62
     7
370
    25
100
AcDbLine
 10
866.7433501725
 20
489.2521437387
 30
0.0
 11
866.7433501725
 21
474.2521437387
 31
0.0
  0
LINE
  5
2FD
330
1F
100
AcDbEntity
  8
0
  6
Continuous
 62
     7
370
    25
100
AcDbLine
 10
866.7433501725
 20
489.2521437387
 30
0.0
 11
866.7416830426
 21
489.3521437387
 31
0.0
  0
LINE
  5
2FE
330
1F
100
AcDbEntity
  8
0
  6
Continuous
 62
     7
370
    25
100
AcDbLine
 10
864.7433501725
 20
489.2521437387
 30
0.0
 11
864.7383376096
 21
489.3521437387
 31
0.0
  0
LINE
  5
2FF
330
1F
100
AcDbEntity
  8
0
  6
Continuous
 62
     7
370
    25
100
AcDbLine
 10
858.9933501725
 20
484.2521437387
 30
0.0
 11
849.4933501725
 21
484.2521437387
 31
0.0
  0
LINE
  5
300
330
1F
100
AcDbEntity
  8
0
  6
Continuous
 62
     7
370
    25
100
AcDbLine
 10
849.4933501725
 20
484.2521437387
 30
0.0
 11
849.4933501725
 21
484.7521437387
 31
0.0
  0
LINE
  5
301
330
1F
100
AcDbEntity
  8
0
  6
Continuous
 62
     7
370
    25
100
AcDbLine
 10
858.9933501725
 20
484.7521437387
 30
0.0
 11
858.9933501725
 21
484.2521437387
 31
0.0
  0
ARC
  5
302
330
1F
100
AcDbEntity
  8
0
  6
Continuous
 62
     7
370
    25
100
AcDbCircle
 10
848.7299501725
 20
485.4887437387
 30
0.0
 40
1.236600000000012
100
AcDbArc
 50
216.5600911003
 51
270.0
  0
LINE
  5
303
330
1F
100
AcDbEntity
  8
0
  6
Continuous
 62
     7
370
    25
100
AcDbLine
 10
849.4933501725
 20
484.2521437387
 30
0.0
 11
848.7299501725
 21
484.2521437387
 31
0.0
  0
LINE
  5
304
330
1F
100
AcDbEntity
  8
0
  6
Continuous
 62
     7
370
    25
100
AcDbLine
 10
859.7567501725
 20
484.2521437387
 30
0.0
 11
858.9933501725
 21
484.2521437387
 31
0.0
  0
ARC
  5
305
330
1F
100
AcDbEntity
  8
0
  6
Continuous
 62
     7
370
    25
100
AcDbCircle
 10
859.7567501725
 20
485.4887437387
 30
0.0
 40
1.236600000000035
100
AcDbArc
 50
270.0
 51
323.4399088997
  0
ARC
  5
306
330
1F
100
AcDbEntity
  8
0
  6
Continuous
 62
     7
370
    25
100
AcDbCircle
 10
-47.7566498275
 20
495.3521437387
 30
0.0
 40
6.000000000000006
100
AcDbArc
 50
216.8698976459
 51
270.0
  0
ARC
  5
307
330
1F
100
AcDbEntity
  8
0
  6
Continuous
 62
     7
370
    25
100
AcDbCircle
 10
873.2433501725
 20
495.3521437387
 30
0.0
 40
6.0
100
AcDbArc
 50
270.0
 51
323.1301023541
  0
ARC
  5
308
330
1F
100
AcDbEntity
  8
0
  6
Continuous
 62
     7
370
    25
100
AcDbCircle
 10
864.4433501725
 20
107.2463019205
 30
0.0
 40
0.5
100
AcDbArc
 50
180.0
 51
360.0
  0
ARC
  5
309
330
1F
100
AcDbEntity
  8
0
  6
Continuous
 62
     7
370
    25
100
AcDbCircle
 10
864.4433501725
 20
118.8463019207
 30
0.0
 40
0.5000000000001137
100
AcDbArc
 50
360.0
 51
180.0
  0
LINE
  5
30A
330
1F
100
AcDbEntity
  8
0
  6
Continuous
 62
     7
370
    25
100
AcDbLine
 10
874.4021001725
 20
110.0463019206
 30
0.0
 11
874.9433501725
 21
110.5875519206
 31
0.0
  0
LINE
  5
30B
330
1F
100
AcDbEntity
  8
0
  6
Continuous
 62
     7
370
    25
100
AcDbLine
 10
874.9433501725
 20
115.5050519206
 30
0.0
 11
874.4021001725
 21
116.0463019206
 31
0.0
  0
LINE
  5
30C
330
1F
100
AcDbEntity
  8
0
  6
Continuous
 62
     7
370
    25
100
AcDbLine
 10
874.4021001725
 20
116.0463019206
 30
0.0
 11
865.7433501725
 21
116.0463019206
 31
0.0
  0
LINE
  5
30D
330
1F
100
AcDbEntity
  8
0
  6
Continuous
 62
     7
370
    25
100
AcDbLine
 10
865.7433501725
 20
110.0463019206
 30
0.0
 11
874.4021001725
 21
110.0463019206
 31
0.0
  0
LINE
  5
30E
330
1F
100
AcDbEntity
  8
0
  6
Continuous
 62
     7
370
    25
100
AcDbLine
 10
847.7885647581
 20
104.4181246732
 30
0.0
 11
847.3933501725
 21
104.6463019206
 31
0.0
  0
LINE
  5
30F
330
1F
100
AcDbEntity
  8
0
  6
Continuous
 62
     7
370
    25
100
AcDbLine
 10
841.0933501725
 20
104.6463019206
 30
0.0
 11
840.6628118775
 21
104.3977305201
 31
0.0
  0
LINE
  5
310
330
1F
100
AcDbEntity
  8
0
  6
Continuous
 62
     7
370
    25
100
AcDbLine
 10
840.6628118775
 20
101.6948733211
 30
0.0
 11
841.0933501725
 21
101.4463019206
 31
0.0
  0
LINE
  5
311
330
1F
100
AcDbEntity
  8
0
  6
Continuous
 62
     7
370
    25
100
AcDbLine
 10
847.3933501725
 20
101.4463019206
 30
0.0
 11
847.7885647581
 21
101.674479168
 31
0.0
  0
LINE
  5
312
330
1F
100
AcDbEntity
  8
0
  6
Continuous
 62
     7
370
    25
100
AcDbLine
 10
264.7885647581
 20
104.4181246732
 30
0.0
 11
264.3933501725
 21
104.6463019206
 31
0.0
  0
LINE
  5
313
330
1F
100
AcDbEntity
  8
0
  6
Continuous
 62
     7
370
    25
100
AcDbLine
 10
258.0933501725
 20
104.6463019206
 30
0.0
 11
257.6628118775
 21
104.3977305201
 31
0.0
  0
LINE
  5
314
330
1F
100
AcDbEntity
  8
0
  6
Continuous
 62
     7
370
    25
100
AcDbLine
 10
257.6628118775
 20
101.6948733211
 30
0.0
 11
258.0933501725
 21
101.4463019206
 31
0.0
  0
LINE
  5
315
330
1F
100
AcDbEntity
  8
0
  6
Continuous
 62
     7
370
    25
100
AcDbLine
 10
264.3933501725
 20
101.4463019206
 30
0.0
 11
264.7885647581
 21
101.674479168
 31
0.0
  0
LINE
  5
316
330
1F
100
AcDbEntity
  8
0
  6
Continuous
 62
     7
370
    25
100
AcDbLine
 10
567.7885647581
 20
104.4181246732
 30
0.0
 11
567.3933501725
 21
104.6463019206
 31
0.0
  0
LINE
  5
317
330
1F
100
AcDbEntity
  8
0
  6
Continuous
 62
     7
370
    25
100
AcDbLine
 10
561.0933501725
 20
104.6463019206
 30
0.0
 11
560.6628118775
 21
104.3977305201
 31
0.0
  0
LINE
  5
318
330
1F
100
AcDbEntity
  8
0
  6
Continuous
 62
     7
370
    25
100
AcDbLine
 10
560.6628118775
 20
101.6948733211
 30
0.0
 11
561.0933501725
 21
101.4463019206
 31
0.0
  0
LINE
  5
319
330
1F
100
AcDbEntity
  8
0
  6
Continuous
 62
     7
370
    25
100
AcDbLine
 10
567.3933501725
 20
101.4463019206
 30
0.0
 11
567.7885647581
 21
101.674479168
 31
0.0
  0
LINE
  5
31A
330
1F
100
AcDbEntity
  8
0
  6
Continuous
 62
     7
370
    25
100
AcDbLine
 10
-15.2114352419
 20
104.4181246732
 30
0.0
 11
-15.6066498275
 21
104.6463019206
 31
0.0
  0
LINE
  5
31B
330
1F
100
AcDbEntity
  8
0
  6
Continuous
 62
     7
370
    25
100
AcDbLine
 10
-21.9066498275
 20
104.6463019206
 30
0.0
 11
-22.3371881225
 21
104.3977305201
 31
0.0
  0
LINE
  5
31C
330
1F
100
AcDbEntity
  8
0
  6
Continuous
 62
     7
370
    25
100
AcDbLine
 10
-22.3371881225
 20
101.6948733211
 30
0.0
 11
-21.9066498275
 21
101.4463019206
 31
0.0
  0
LINE
  5
31D
330
1F
100
AcDbEntity
  8
0
  6
Continuous
 62
     7
370
    25
100
AcDbLine
 10
-15.6066498275
 20
101.4463019206
 30
0.0
 11
-15.2114352419
 21
101.674479168
 31
0.0
  0
LINE
  5
31E
330
1F
100
AcDbEntity
  8
0
  6
Continuous
 62
     7
370
    25
100
AcDbLine
 10
-39.7566498275
 20
87.9963019206
 30
0.0
 11
865.2433501725
 21
87.9963019206
 31
0.0
  0
LINE
  5
31F
330
1F
100
AcDbEntity
  8
0
  6
Continuous
 62
     7
370
    25
100
AcDbLine
 10
842.2433501725
 20
109.7463019206
 30
0.0
 11
842.2433501725
 21
104.6463019206
 31
0.0
  0
LINE
  5
320
330
1F
100
AcDbEntity
  8
0
  6
Continuous
 62
     7
370
    25
100
AcDbLine
 10
842.2433501725
 20
101.4463019206
 30
0.0
 11
842.2433501725
 21
101.3463019206
 31
0.0
  0
LINE
  5
321
330
1F
100
AcDbEntity
  8
0
  6
Continuous
 62
     7
370
    25
100
AcDbLine
 10
846.2433501725
 20
101.3463019206
 30
0.0
 11
846.2433501725
 21
101.4463019206
 31
0.0
  0
LINE
  5
322
330
1F
100
AcDbEntity
  8
0
  6
Continuous
 62
     7
370
    25
100
AcDbLine
 10
846.2433501725
 20
104.6463019206
 30
0.0
 11
846.2433501725
 21
109.7463019206
 31
0.0
  0
LINE
  5
323
330
1F
100
AcDbEntity
  8
0
  6
Continuous
 62
     7
370
    25
100
AcDbLine
 10
259.2433501725
 20
109.7463019206
 30
0.0
 11
259.2433501725
 21
104.6463019206
 31
0.0
  0
LINE
  5
324
330
1F
100
AcDbEntity
  8
0
  6
Continuous
 62
     7
370
    25
100
AcDbLine
 10
259.2433501725
 20
101.4463019206
 30
0.0
 11
259.2433501725
 21
101.3463019206
 31
0.0
  0
LINE
  5
325
330
1F
100
AcDbEntity
  8
0
  6
Continuous
 62
     7
370
    25
100
AcDbLine
 10
263.2433501725
 20
101.3463019206
 30
0.0
 11
263.2433501725
 21
101.4463019206
 31
0.0
  0
LINE
  5
326
330
1F
100
AcDbEntity
  8
0
  6
Continuous
 62
     7
370
    25
100
AcDbLine
 10
263.2433501725
 20
104.6463019206
 30
0.0
 11
263.2433501725
 21
109.7463019206
 31
0.0
  0
LINE
  5
327
330
1F
100
AcDbEntity
  8
0
  6
Continuous
 62
     7
370
    25
100
AcDbLine
 10
562.2433501725
 20
109.7463019206
 30
0.0
 11
562.2433501725
 21
104.6463019206
 31
0.0
  0
LINE
  5
328
330
1F
100
AcDbEntity
  8
0
  6
Continuous
 62
     7
370
    25
100
AcDbLine
 10
562.2433501725
 20
101.4463019206
 30
0.0
 11
562.2433501725
 21
101.3463019206
 31
0.0
  0
LINE
  5
329
330
1F
100
AcDbEntity
  8
0
  6
Continuous
 62
     7
370
    25
100
AcDbLine
 10
566.2433501725
 20
101.3463019206
 30
0.0
 11
566.2433501725
 21
101.4463019206
 31
0.0
  0
LINE
  5
32A
330
1F
100
AcDbEntity
  8
0
  6
Continuous
 62
     7
370
    25
100
AcDbLine
 10
566.2433501725
 20
104.6463019206
 30
0.0
 11
566.2433501725
 21
109.7463019206
 31
0.0
  0
LINE
  5
32B
330
1F
100
AcDbEntity
  8
0
  6
Continuous
 62
     7
370
    25
100
AcDbLine
 10
-20.7566498275
 20
109.7463019206
 30
0.0
 11
-20.7566498275
 21
104.6463019206
 31
0.0
  0
LINE
  5
32C
330
1F
100
AcDbEntity
  8
0
  6
Continuous
 62
     7
370
    25
100
AcDbLine
 10
-20.7566498275
 20
101.4463019206
 30
0.0
 11
-20.7566498275
 21
101.3463019206
 31
0.0
  0
LINE
  5
32D
330
1F
100
AcDbEntity
  8
0
  6
Continuous
 62
     7
370
    25
100
AcDbLine
 10
-16.7566498275
 20
101.3463019206
 30
0.0
 11
-16.7566498275
 21
101.4463019206
 31
0.0
  0
LINE
  5
32E
330
1F
100
AcDbEntity
  8
0
  6
Continuous
 62
     7
370
    25
100
AcDbLine
 10
-16.7566498275
 20
104.6463019206
 30
0.0
 11
-16.7566498275
 21
109.7463019206
 31
0.0
  0
ARC
  5
32F
330
1F
100
AcDbEntity
  8
0
  6
Continuous
 62
     7
370
    25
100
AcDbCircle
 10
-38.9566498275
 20
118.8463019207
 30
0.0
 40
0.5
100
AcDbArc
 50
360.0
 51
180.0
  0
ARC
  5
330
330
1F
100
AcDbEntity
  8
0
  6
Continuous
 62
     7
370
    25
100
AcDbCircle
 10
-38.9566498275
 20
107.2463019205
 30
0.0
 40
0.5
100
AcDbArc
 50
180.0
 51
0.0
  0
LINE
  5
331
330
1F
100
AcDbEntity
  8
0
  6
Continuous
 62
     7
370
    25
100
AcDbLine
 10
-48.9153998275
 20
110.0463019206
 30
0.0
 11
-40.2566498275
 21
110.0463019206
 31
0.0
  0
LINE
  5
332
330
1F
100
AcDbEntity
  8
0
  6
Continuous
 62
     7
370
    25
100
AcDbLine
 10
-40.2566498275
 20
116.0463019206
 30
0.0
 11
-48.9153998275
 21
116.0463019206
 31
0.0
  0
LINE
  5
333
330
1F
100
AcDbEntity
  8
0
  6
Continuous
 62
     7
370
    25
100
AcDbLine
 10
-48.9153998275
 20
116.0463019206
 30
0.0
 11
-49.4566498275
 21
115.5050519206
 31
0.0
  0
LINE
  5
334
330
1F
100
AcDbEntity
  8
0
  6
Continuous
 62
     7
370
    25
100
AcDbLine
 10
-49.4566498275
 20
110.5875519206
 30
0.0
 11
-48.9153998275
 21
110.0463019206
 31
0.0
  0
LINE
  5
335
330
1F
100
AcDbEntity
  8
0
  6
Continuous
 62
     7
370
    25
100
AcDbLine
 10
-34.4566498275
 20
118.0463019206
 30
0.0
 11
-34.7861329233
 21
118.6169833827
 31
0.0
  0
LINE
  5
336
330
1F
100
AcDbEntity
  8
0
  6
Continuous
 62
     7
370
    25
100
AcDbLine
 10
-34.7861329233
 20
107.4756204585
 30
0.0
 11
-34.4566498275
 21
108.0463019206
 31
0.0
  0
LINE
  5
337
330
1F
100
AcDbEntity
  8
0
  6
Continuous
 62
     7
370
    25
100
AcDbLine
 10
867.2433501725
 20
89.8463019206
 30
0.0
 11
865.0712571492
 21
89.8463019206
 31
0.0
  0
LINE
  5
338
330
1F
100
AcDbEntity
  8
0
  6
Continuous
 62
     7
370
    25
100
AcDbLine
 10
-39.5845568043
 20
89.8463019206
 30
0.0
 11
-41.7566498275
 21
89.8463019206
 31
0.0
  0
LINE
  5
339
330
1F
100
AcDbEntity
  8
0
  6
Continuous
 62
     7
370
    25
100
AcDbLine
 10
-41.7566498275
 20
89.8463019206
 30
0.0
 11
-47.7566498275
 21
89.8463019206
 31
0.0
  0
LINE
  5
33A
330
1F
100
AcDbEntity
  8
0
  6
Continuous
 62
     7
370
    25
100
AcDbLine
 10
873.2433501725
 20
89.8463019206
 30
0.0
 11
867.2433501725
 21
89.8463019206
 31
0.0
  0
SPLINE
  5
33B
330
1F
100
AcDbEntity
  8
0
  6
Continuous
 62
     7
370
    25
100
AcDbSpline
210
0.0
220
0.0
230
1.0
 70
    24
 71
     3
 72
     9
 73
     5
 74
     0
 42
0.000000001
 43
0.00000001
 40
0.0
 40
0.0
 40
0.0
 40
0.0
 40
0.5153941859642129
 40
1.0
 40
1.0
 40
1.0
 40
1.0
 10
864.9433501724773
 20
118.7213119206162
 30
0.0
 10
864.9433501724773
 20
118.765053768672
 30
0.0
 10
864.9433501724773
 20
118.8499244351386
 30
0.0
 10
864.9433501724773
 20
118.8271679998952
 30
0.0
 10
864.9433501724773
 20
118.8161400990695
 30
0.0
  0
SPLINE
  5
33C
330
1F
100
AcDbEntity
  8
0
  6
Continuous
 62
     7
370
    25
100
AcDbSpline
210
0.0
220
0.0
230
1.0
 70
    24
 71
     3
 72
    17
 73
    13
 74
     0
 42
0.000000001
 43
0.00000001
 40
0.0
 40
0.0
 40
0.0
 40
0.0
 40
0.0359921626376356
 40
0.120593066128043
 40
0.2034359252874601
 40
0.3573281084250905
 40
0.5112202915627205
 40
0.5940631507221372
 40
0.678664054212545
 40
0.7632649577029529
 40
0.8461078168623697
 40
1.0
 40
1.0
 40
1.0
 40
1.0
 10
863.9433501724774
 20
118.8161400990804
 30
0.0
 10
863.9433501724773
 20
118.8232914861217
 30
0.0
 10
863.9433501724773
 20
118.8472524717134
 30
0.0
 10
863.9433501724774
 20
118.6292475454778
 30
0.0
 10
863.9433501724773
 20
118.0574604483907
 30
0.0
 10
863.9433501724772
 20
116.8604438723004
 30
0.0
 10
863.9433501724774
 20
115.2143871124233
 30
0.0
 10
863.9433501724772
 20
113.7291967602095
 30
0.0
 10
863.9433501724774
 20
112.5331686358353
 30
0.0
 10
863.9433501724772
 20
111.3634032230458
 30
0.0
 10
863.9433501724772
 20
109.9414560424621
 30
0.0
 10
863.9433501724772
 20
109.1291887626019
 30
0.0
 10
863.9433501724773
 20
108.6011656031403
 30
0.0
  0
SPLINE
  5
33D
330
1F
100
AcDbEntity
  8
0
  6
Continuous
 62
     7
370
    25
100
AcDbSpline
210
0.0
220
0.0
230
1.0
 70
     8
 71
     3
 72
     8
 73
     4
 74
     0
 42
0.000000001
 43
0.00000001
 40
0.0
 40
0.0
 40
0.0
 40
0.0
 40
1.0
 40
1.0
 40
1.0
 40
1.0
 10
859.9433501724844
 20
116.258103318295
 30
0.0
 10
859.9433501724844
 20
115.502982511987
 30
0.0
 10
860.1176654728637
 20
114.7685290380436
 30
0.0
 10
860.3899321598756
 20
114.0456889672733
 30
0.0
  0
SPLINE
  5
33E
330
1F
100
AcDbEntity
  8
0
  6
Continuous
 62
     7
370
    25
100
AcDbSpline
210
0.0
220
0.0
230
1.0
 70
     8
 71
     3
 72
     8
 73
     4
 74
     0
 42
0.000000001
 43
0.00000001
 40
0.0
 40
0.0
 40
0.0
 40
0.0
 40
1.0
 40
1.0
 40
1.0
 40
1.0
 10
860.3899321598757
 20
118.4705176693168
 30
0.0
 10
860.1176654728641
 20
117.7476775985475
 30
0.0
 10
859.9433501724844
 20
117.0132241246018
 30
0.0
 10
859.9433501724844
 20
116.258103318295
 30
0.0
  0
LINE
  5
33F
330
1F
100
AcDbEntity
  8
0
  6
Continuous
 62
     7
370
    25
100
AcDbLine
 10
860.3899321599
 20
118.4705176693
 30
0.0
 11
863.9433501725
 21
118.4705176693
 31
0.0
  0
LINE
  5
340
330
1F
100
AcDbEntity
  8
0
  6
Continuous
 62
     7
370
    25
100
AcDbLine
 10
863.9433501725
 20
114.0456889673
 30
0.0
 11
860.3899321599
 21
114.0456889673
 31
0.0
  0
SPLINE
  5
341
330
1F
100
AcDbEntity
  8
0
  6
Continuous
 62
     7
370
    25
100
AcDbSpline
210
0.0
220
0.0
230
1.0
 70
     8
 71
     3
 72
     8
 73
     4
 74
     0
 42
0.000000001
 43
0.00000001
 40
0.0
 40
0.0
 40
0.0
 40
0.0
 40
1.0
 40
1.0
 40
1.0
 40
1.0
 10
859.9433501724842
 20
111.333581092918
 30
0.0
 10
859.9433501724842
 20
110.4079095142977
 30
0.0
 10
860.1176654728637
 20
109.5075731694784
 30
0.0
 10
860.3899321598756
 20
108.6214732185692
 30
0.0
  0
SPLINE
  5
342
330
1F
100
AcDbEntity
  8
0
  6
Continuous
 62
     7
370
    25
100
AcDbSpline
210
0.0
220
0.0
230
1.0
 70
     8
 71
     3
 72
     8
 73
     4
 74
     0
 42
0.000000001
 43
0.00000001
 40
0.0
 40
0.0
 40
0.0
 40
0.0
 40
1.0
 40
1.0
 40
1.0
 40
1.0
 10
860.3899321598756
 20
114.0456889672666
 30
0.0
 10
860.1176654728641
 20
113.1595890163591
 30
0.0
 10
859.9433501724842
 20
112.2592526715365
 30
0.0
 10
859.9433501724842
 20
111.333581092918
 30
0.0
  0
LINE
  5
343
330
1F
100
AcDbEntity
  8
0
  6
Continuous
 62
     7
370
    25
100
AcDbLine
 10
863.9433501725
 20
108.6214732186
 30
0.0
 11
860.3899321599
 21
108.6214732186
 31
0.0
  0
LINE
  5
344
330
1F
100
AcDbEntity
  8
0
  6
Continuous
 62
     7
370
    25
100
AcDbLine
 10
859.9433501725
 20
116.2581033183
 30
0.0
 11
859.9433501725
 21
111.3335810929
 31
0.0
  0
SPLINE
  5
345
330
1F
100
AcDbEntity
  8
0
  6
Continuous
 62
     7
370
    25
100
AcDbSpline
210
0.0
220
0.0
230
1.0
 70
     8
 71
     3
 72
     8
 73
     4
 74
     0
 42
0.000000001
 43
0.00000001
 40
0.0
 40
0.0
 40
0.0
 40
0.0
 40
1.0
 40
1.0
 40
1.0
 40
1.0
 10
860.3899321598757
 20
108.6214732185648
 30
0.0
 10
860.1176654728642
 20
108.4582133384264
 30
0.0
 10
859.9433501724844
 20
108.2923304675499
 30
0.0
 10
859.9433501724844
 20
108.1217796952381
 30
0.0
  0
LINE
  5
346
330
1F
100
AcDbEntity
  8
0
  6
Continuous
 62
     7
370
    25
100
AcDbLine
 10
859.9433501725
 20
111.3335810929
 30
0.0
 11
859.9433501725
 21
108.1217796952
 31
0.0
  0
SPLINE
  5
347
330
1F
100
AcDbEntity
  8
0
  6
Continuous
 62
     7
370
    25
100
AcDbSpline
210
0.0
220
0.0
230
1.0
 70
     8
 71
     3
 72
     8
 73
     4
 74
     0
 42
0.000000001
 43
0.00000001
 40
0.0
 40
0.0
 40
0.0
 40
0.0
 40
1.0
 40
1.0
 40
1.0
 40
1.0
 10
859.9433501724844
 20
117.9708241459924
 30
0.0
 10
859.9433501724844
 20
118.1413749183047
 30
0.0
 10
860.1176654728636
 20
118.3072577891802
 30
0.0
 10
860.3899321598757
 20
118.4705176693191
 30
0.0
  0
LINE
  5
348
330
1F
100
AcDbEntity
  8
0
  6
Continuous
 62
     7
370
    25
100
AcDbLine
 10
859.9433501725
 20
116.2581033183
 30
0.0
 11
859.9433501725
 21
118.0416638864
 31
0.0
  0
SPLINE
  5
349
330
1F
100
AcDbEntity
  8
0
  6
Continuous
 62
     7
370
    25
100
AcDbSpline
210
0.0
220
0.0
230
1.0
 70
     8
 71
     3
 72
     8
 73
     4
 74
     0
 42
0.000000001
 43
0.00000001
 40
0.0
 40
0.0
 40
0.0
 40
0.0
 40
1.0
 40
1.0
 40
1.0
 40
1.0
 10
859.9433501724844
 20
108.1217796952381
 30
0.0
 10
859.9433501724844
 20
107.9512289229259
 30
0.0
 10
860.1176654728638
 20
107.7853460520501
 30
0.0
 10
860.3899321598758
 20
107.6220861719114
 30
0.0
  0
LINE
  5
34A
330
1F
100
AcDbEntity
  8
0
  6
Continuous
 62
     7
370
    25
100
AcDbLine
 10
863.9433501725
 20
107.6220861719
 30
0.0
 11
860.3899321599
 21
107.6220861719
 31
0.0
  0
LINE
  5
34B
330
1F
100
AcDbEntity
  8
0
  6
Continuous
 62
     7
370
    25
100
AcDbLine
 10
874.9433501725
 20
110.5875519206
 30
0.0
 11
874.9433501725
 21
115.5050519206
 31
0.0
  0
LINE
  5
34C
330
1F
100
AcDbEntity
  8
0
  6
Continuous
 62
     7
370
    25
100
AcDbLine
 10
874.4021001725
 20
114.9733827592
 30
0.0
 11
874.4021001725
 21
116.0463019206
 31
0.0
  0
LINE
  5
34D
330
1F
100
AcDbEntity
  8
0
  6
Continuous
 62
     7
370
    25
100
AcDbLine
 10
874.4021001725
 20
110.0463019206
 30
0.0
 11
874.4021001725
 21
114.9733827592
 31
0.0
  0
ARC
  5
34E
330
1F
100
AcDbEntity
  8
0
  6
Continuous
 62
     7
370
    25
100
AcDbCircle
 10
867.2433501725
 20
90.4463019206
 30
0.0
 40
3.0
100
AcDbArc
 50
227.6305369016
 51
270.0
  0
LINE
  5
34F
330
1F
100
AcDbEntity
  8
0
  6
Continuous
 62
     7
370
    25
100
AcDbLine
 10
879.2433501725
 20
87.4463019206
 30
0.0
 11
867.2433501725
 21
87.4463019206
 31
0.0
  0
ARC
  5
350
330
1F
100
AcDbEntity
  8
0
  6
Continuous
 62
     7
370
    25
100
AcDbCircle
 10
879.2433501725
 20
90.4463019206
 30
0.0
 40
3.0
100
AcDbArc
 50
270.0
 51
0.0
  0
LINE
  5
351
330
1F
100
AcDbEntity
  8
0
  6
Continuous
 62
     7
370
    25
100
AcDbLine
 10
882.2433501725
 20
91.4463019206
 30
0.0
 11
882.2433501725
 21
90.4463019206
 31
0.0
  0
ARC
  5
352
330
1F
100
AcDbEntity
  8
0
  6
Continuous
 62
     7
370
    25
100
AcDbCircle
 10
885.2433501725
 20
91.4463019206
 30
0.0
 40
2.999999999999986
100
AcDbArc
 50
90.0
 51
180.0
  0
LINE
  5
353
330
1F
100
AcDbEntity
  8
0
  6
Continuous
 62
     7
370
    25
100
AcDbLine
 10
908.7726394944
 20
94.4463019206
 30
0.0
 11
885.2433501725
 21
94.4463019206
 31
0.0
  0
LINE
  5
354
330
1F
100
AcDbEntity
  8
0
  6
Continuous
 62
     7
370
    25
100
AcDbLine
 10
908.7726394944
 20
84.8463019206
 30
0.0
 11
908.7726394944
 21
94.4463019206
 31
0.0
  0
LINE
  5
355
330
1F
100
AcDbEntity
  8
0
  6
Continuous
 62
     7
370
    25
100
AcDbLine
 10
-83.2859391494
 20
84.8463019206
 30
0.0
 11
-83.2859391494
 21
94.4463019206
 31
0.0
  0
LINE
  5
356
330
1F
100
AcDbEntity
  8
0
  6
Continuous
 62
     7
370
    25
100
AcDbLine
 10
-59.7566498275
 20
94.4463019206
 30
0.0
 11
-83.2859391494
 21
94.4463019206
 31
0.0
  0
ARC
  5
357
330
1F
100
AcDbEntity
  8
0
  6
Continuous
 62
     7
370
    25
100
AcDbCircle
 10
-59.7566498275
 20
91.4463019206
 30
0.0
 40
2.999999999999986
100
AcDbArc
 50
0.0
 51
90.0
  0
LINE
  5
358
330
1F
100
AcDbEntity
  8
0
  6
Continuous
 62
     7
370
    25
100
AcDbLine
 10
-56.7566498275
 20
91.4463019206
 30
0.0
 11
-56.7566498275
 21
90.4463019206
 31
0.0
  0
ARC
  5
359
330
1F
100
AcDbEntity
  8
0
  6
Continuous
 62
     7
370
    25
100
AcDbCircle
 10
-53.7566498275
 20
90.4463019206
 30
0.0
 40
3.0
100
AcDbArc
 50
180.0
 51
270.0
  0
LINE
  5
35A
330
1F
100
AcDbEntity
  8
0
  6
Continuous
 62
     7
370
    25
100
AcDbLine
 10
-53.7566498275
 20
87.4463019206
 30
0.0
 11
-41.7566498275
 21
87.4463019206
 31
0.0
  0
ARC
  5
35B
330
1F
100
AcDbEntity
  8
0
  6
Continuous
 62
     7
370
    25
100
AcDbCircle
 10
-41.7566498275
 20
90.4463019206
 30
0.0
 40
3.0
100
AcDbArc
 50
270.0
 51
312.3694630984
  0
SPLINE
  5
35C
330
1F
100
AcDbEntity
  8
0
  6
Continuous
 62
     7
370
    25
100
AcDbSpline
210
0.0
220
0.0
230
1.0
 70
     8
 71
     3
 72
    20
 73
    16
 74
     0
 42
0.000000001
 43
0.00000001
 40
0.0
 40
0.0
 40
0.0
 40
0.0
 40
0.1250000000000039
 40
0.1250000000000039
 40
0.2500000000000077
 40
0.2500000000000077
 40
0.3750000000000115
 40
0.3750000000000115
 40
0.5000000000000154
 40
0.5000000000000154
 40
0.7500000000000129
 40
0.7500000000000129
 40
0.8750000000000064
 40
0.8750000000000064
 40
1.0
 40
1.0
 40
1.0
 40
1.0
 10
-82.35664982752239
 20
82.44630192061622
 30
0.0
 10
-82.39569055837698
 20
82.44630192061621
 30
0.0
 10
-82.43420926257677
 20
82.46183848109106
 30
0.0
 10
-82.51161601388458
 20
82.52315683305164
 30
0.0
 10
-82.55076043187131
 20
82.56958057863845
 30
0.0
 10
-82.62791118578639
 20
82.68953144879258
 30
0.0
 10
-82.6662387675276
 20
82.76313609307599
 30
0.0
 10
-82.74378508800423
 20
82.93786645917162
 30
0.0
 10
-82.78276129567286
 20
83.03871708807316
 30
0.0
 10
-82.89825615211794
 20
83.3700023680571
 30
0.0
 10
-82.9761685957881
 20
83.63768252944097
 30
0.0
 10
-83.09164852118906
 20
84.07035655549637
 30
0.0
 10
-83.1305143170541
 20
84.22187464234752
 30
0.0
 10
-83.20828865072272
 20
84.53130039973364
 30
0.0
 10
-83.2468984176773
 20
84.68792272942741
 30
0.0
 10
-83.28593914940392
 20
84.84630192061616
 30
0.0
  0
SPLINE
  5
35D
330
1F
100
AcDbEntity
  8
0
  6
Continuous
 62
     7
370
    25
100
AcDbSpline
210
0.0
220
0.0
230
1.0
 70
     8
 71
     3
 72
    20
 73
    16
 74
     0
 42
0.000000001
 43
0.00000001
 40
0.0
 40
0.0
 40
0.0
 40
0.0
 40
0.1250000000000014
 40
0.1250000000000014
 40
0.2500000000000027
 40
0.2500000000000027
 40
0.3750000000000041
 40
0.3750000000000041
 40
0.5000000000000053
 40
0.5000000000000053
 40
0.7500000000000079
 40
0.7500000000000079
 40
0.875000000000004
 40
0.875000000000004
 40
1.0
 40
1.0
 40
1.0
 40
1.0
 10
908.7726394943589
 20
84.84630192061616
 30
0.0
 10
908.7335987635043
 20
84.68792273296546
 30
0.0
 10
908.6950800593046
 20
84.5316770082738
 30
0.0
 10
908.6176733079967
 20
84.22368515885718
 30
0.0
 10
908.5785288900099
 20
84.07104105138605
 30
0.0
 10
908.5013781360949
 20
83.78195676219899
 30
0.0
 10
908.4630505543538
 20
83.64415222401495
 30
0.0
 10
908.3855042338773
 20
83.38253354837607
 30
0.0
 10
908.3465280262084
 20
83.25978724169339
 30
0.0
 10
908.2310331697634
 20
82.9284628647457
 30
0.0
 10
908.1531207260933
 20
82.74945174071752
 30
0.0
 10
908.0376408006925
 20
82.56983664133664
 30
0.0
 10
907.9987750048276
 20
82.52359229246892
 30
0.0
 10
907.921000671159
 20
82.46183898645768
 30
0.0
 10
907.8823909042043
 20
82.44630192061622
 30
0.0
 10
907.8433501724775
 20
82.44630192061622
 30
0.0
  0
LINE
  5
35E
330
1F
100
AcDbEntity
  8
0
  6
Continuous
 62
     7
370
    25
100
AcDbLine
 10
907.8433501725
 20
82.4463019206
 30
0.0
 11
-82.3566498275
 21
82.4463019206
 31
0.0
  0
SPLINE
  5
35F
330
1F
100
AcDbEntity
  8
0
  6
Continuous
 62
     7
370
    25
100
AcDbSpline
210
0.0
220
0.0
230
1.0
 70
     8
 71
     3
 72
    20
 73
    16
 74
     0
 42
0.000000001
 43
0.00000001
 40
0.0
 40
0.0
 40
0.0
 40
0.0
 40
0.1249999999999952
 40
0.1249999999999952
 40
0.2499999999999905
 40
0.2499999999999905
 40
0.3749999999999857
 40
0.3749999999999857
 40
0.4999999999999809
 40
0.4999999999999809
 40
0.7499999999999984
 40
0.7499999999999984
 40
0.8749999999999992
 40
0.8749999999999992
 40
1.0
 40
1.0
 40
1.0
 40
1.0
 10
907.8433501724774
 20
82.44630192061616
 30
0.0
 10
908.0017293601281
 20
82.44630192061616
 30
0.0
 10
908.1579750848199
 20
82.46183848109104
 30
0.0
 10
908.4659669342366
 20
82.52315683305164
 30
0.0
 10
908.6186110417076
 20
82.56958057863847
 30
0.0
 10
908.9076953308947
 20
82.68953144879258
 30
0.0
 10
909.0454998690788
 20
82.763136093076
 30
0.0
 10
909.3071185447175
 20
82.93786645917163
 30
0.0
 10
909.4298648514006
 20
83.03871708807318
 30
0.0
 10
909.7611892283479
 20
83.37000236805713
 30
0.0
 10
909.9402003523761
 20
83.63768252944101
 30
0.0
 10
910.1198154517572
 20
84.07035655549639
 30
0.0
 10
910.1660598006248
 20
84.22187464234757
 30
0.0
 10
910.2278131066361
 20
84.53130039973367
 30
0.0
 10
910.2433501724773
 20
84.68792272942743
 30
0.0
 10
910.2433501724774
 20
84.84630192061618
 30
0.0
  0
SPLINE
  5
360
330
1F
100
AcDbEntity
  8
0
  6
Continuous
 62
     7
370
    25
100
AcDbSpline
210
0.0
220
0.0
230
1.0
 70
     8
 71
     3
 72
     9
 73
     5
 74
     0
 42
0.000000001
 43
0.00000001
 40
0.0
 40
0.0
 40
0.0
 40
0.0
 40
0.482578428729553
 40
1.0
 40
1.0
 40
1.0
 40
1.0
 10
908.6195204044237
 20
84.23376218143774
 30
0.0
 10
908.6833285974851
 20
84.32189652275423
 30
0.0
 10
908.8155520647243
 20
84.50452868380738
 30
0.0
 10
908.833871369181
 20
84.72976156785202
 30
0.0
 10
908.8433501724775
 20
84.84630192061618
 30
0.0
  0
LINE
  5
361
330
1F
100
AcDbEntity
  8
0
  6
Continuous
 62
     7
370
    25
100
AcDbLine
 10
910.2433501725
 20
84.8463019206
 30
0.0
 11
908.8433501725
 21
84.8463019206
 31
0.0
  0
LINE
  5
362
330
1F
100
AcDbEntity
  8
0
  6
Continuous
 62
     7
370
    25
100
AcDbLine
 10
-84.7566498275
 20
84.8463019206
 30
0.0
 11
-83.3566498275
 21
84.8463019206
 31
0.0
  0
SPLINE
  5
363
330
1F
100
AcDbEntity
  8
0
  6
Continuous
 62
     7
370
    25
100
AcDbSpline
210
0.0
220
0.0
230
1.0
 70
     8
 71
     3
 72
     9
 73
     5
 74
     0
 42
0.000000001
 43
0.00000001
 40
0.0
 40
0.0
 40
0.0
 40
0.0
 40
0.6784508005731583
 40
1.0
 40
1.0
 40
1.0
 40
1.0
 10
-83.35664982752245
 20
84.84630192061618
 30
0.0
 10
-83.34340025705794
 20
84.69559471616287
 30
0.0
 10
-83.32387110261786
 20
84.47346040026852
 30
0.0
 10
-83.18302344897899
 20
84.30662729537943
 30
0.0
 10
-83.13773399871027
 20
84.25298224406444
 30
0.0
  0
SPLINE
  5
364
330
1F
100
AcDbEntity
  8
0
  6
Continuous
 62
     7
370
    25
100
AcDbSpline
210
0.0
220
0.0
230
1.0
 70
     8
 71
     3
 72
    20
 73
    16
 74
     0
 42
0.000000001
 43
0.00000001
 40
0.0
 40
0.0
 40
0.0
 40
0.0
 40
0.1249999999999993
 40
0.1249999999999993
 40
0.2499999999999987
 40
0.2499999999999987
 40
0.374999999999998
 40
0.374999999999998
 40
0.4999999999999973
 40
0.4999999999999973
 40
0.7499999999999987
 40
0.7499999999999987
 40
0.8749999999999993
 40
0.8749999999999993
 40
1.0
 40
1.0
 40
1.0
 40
1.0
 10
-84.75664982752245
 20
84.84630192061617
 30
0.0
 10
-84.75664982752245
 20
84.68792273296546
 30
0.0
 10
-84.74111326704758
 20
84.53167700827379
 30
0.0
 10
-84.67979491508699
 20
84.22368515885717
 30
0.0
 10
-84.6333711695001
 20
84.07104105138605
 30
0.0
 10
-84.51342029934617
 20
83.78195676219897
 30
0.0
 10
-84.43981565506259
 20
83.64415222401492
 30
0.0
 10
-84.26508528896714
 20
83.382533548376
 30
0.0
 10
-84.16423466006518
 20
83.25978724169339
 30
0.0
 10
-83.83294938008135
 20
82.9284628647457
 30
0.0
 10
-83.56526921869772
 20
82.74945174071743
 30
0.0
 10
-83.13259519264243
 20
82.56983664133654
 30
0.0
 10
-82.98107710579112
 20
82.52359229246885
 30
0.0
 10
-82.67165134840509
 20
82.46183898645762
 30
0.0
 10
-82.51502901871116
 20
82.44630192061618
 30
0.0
 10
-82.35664982752245
 20
82.44630192061618
 30
0.0
  0
LINE
  5
365
330
1F
100
AcDbEntity
  8
0
  6
Continuous
 62
     7
370
    25
100
AcDbLine
 10
910.2433501725
 20
94.4463019206
 30
0.0
 11
908.8433501725
 21
94.4463019206
 31
0.0
  0
LINE
  5
366
330
1F
100
AcDbEntity
  8
0
  6
Continuous
 62
     7
370
    25
100
AcDbLine
 10
910.2433501725
 20
84.8463019206
 30
0.0
 11
910.2433501725
 21
94.4463019206
 31
0.0
  0
LINE
  5
367
330
1F
100
AcDbEntity
  8
0
  6
Continuous
 62
     7
370
    25
100
AcDbLine
 10
908.8433501725
 20
84.8463019206
 30
0.0
 11
908.8433501725
 21
94.4463019206
 31
0.0
  0
LINE
  5
368
330
1F
100
AcDbEntity
  8
0
  6
Continuous
 62
     7
370
    25
100
AcDbLine
 10
-83.3566498275
 20
84.8463019206
 30
0.0
 11
-83.3566498275
 21
94.4463019206
 31
0.0
  0
LINE
  5
369
330
1F
100
AcDbEntity
  8
0
  6
Continuous
 62
     7
370
    25
100
AcDbLine
 10
-84.7566498275
 20
84.8463019206
 30
0.0
 11
-84.7566498275
 21
94.4463019206
 31
0.0
  0
LINE
  5
36A
330
1F
100
AcDbEntity
  8
0
  6
Continuous
 62
     7
370
    25
100
AcDbLine
 10
-84.7566498275
 20
94.4463019206
 30
0.0
 11
-83.3566498275
 21
94.4463019206
 31
0.0
  0
LINE
  5
36B
330
1F
100
AcDbEntity
  8
0
  6
Continuous
 62
     7
370
    25
100
AcDbLine
 10
-40.2566498275
 20
121.5463019206
 30
0.0
 11
-39.4566498275
 21
121.5463019206
 31
0.0
  0
LINE
  5
36C
330
1F
100
AcDbEntity
  8
0
  6
Continuous
 62
     7
370
    25
100
AcDbLine
 10
-40.2566498275
 20
118.5463019206
 30
0.0
 11
-40.2566498275
 21
121.5463019206
 31
0.0
  0
LINE
  5
36D
330
1F
100
AcDbEntity
  8
0
  6
Continuous
 62
     7
370
    25
100
AcDbLine
 10
-39.4566498275
 20
121.5463019206
 30
0.0
 11
-39.4566498275
 21
118.5463019206
 31
0.0
  0
LINE
  5
36E
330
1F
100
AcDbEntity
  8
0
  6
Continuous
 62
     7
370
    25
100
AcDbLine
 10
864.9433501725
 20
121.5463019206
 30
0.0
 11
865.7433501725
 21
121.5463019206
 31
0.0
  0
LINE
  5
36F
330
1F
100
AcDbEntity
  8
0
  6
Continuous
 62
     7
370
    25
100
AcDbLine
 10
864.9433501725
 20
118.5463019206
 30
0.0
 11
864.9433501725
 21
121.5463019206
 31
0.0
  0
LINE
  5
370
330
1F
100
AcDbEntity
  8
0
  6
Continuous
 62
     7
370
    25
100
AcDbLine
 10
865.7433501725
 20
121.5463019206
 30
0.0
 11
865.7433501725
 21
118.5463019206
 31
0.0
  0
LINE
  5
371
330
1F
100
AcDbEntity
  8
0
  6
Continuous
 62
     7
370
    25
100
AcDbLine
 10
-40.2566498275
 20
101.5463019206
 30
0.0
 11
-40.2566498275
 21
118.5463019206
 31
0.0
  0
LINE
  5
372
330
1F
100
AcDbEntity
  8
0
  6
Continuous
 62
     7
370
    25
100
AcDbLine
 10
-39.4566498275
 20
101.5463019206
 30
0.0
 11
-39.4566498275
 21
118.5463019206
 31
0.0
  0
LINE
  5
373
330
1F
100
AcDbEntity
  8
0
  6
Continuous
 62
     7
370
    25
100
AcDbLine
 10
864.9433501725
 20
118.5463019206
 30
0.0
 11
864.9433501725
 21
101.5463019206
 31
0.0
  0
LINE
  5
374
330
1F
100
AcDbEntity
  8
0
  6
Continuous
 62
     7
370
    25
100
AcDbLine
 10
865.7433501725
 20
118.5463019206
 30
0.0
 11
865.7433501725
 21
101.5463019206
 31
0.0
  0
LINE
  5
375
330
1F
100
AcDbEntity
  8
0
  6
Continuous
 62
     7
370
    25
100
AcDbLine
 10
865.7433501725
 20
98.5463019206
 30
0.0
 11
864.9433501725
 21
98.5463019206
 31
0.0
  0
LINE
  5
376
330
1F
100
AcDbEntity
  8
0
  6
Continuous
 62
     7
370
    25
100
AcDbLine
 10
864.9433501725
 20
98.5463019206
 30
0.0
 11
864.9433501725
 21
101.5463019206
 31
0.0
  0
LINE
  5
377
330
1F
100
AcDbEntity
  8
0
  6
Continuous
 62
     7
370
    25
100
AcDbLine
 10
865.7433501725
 20
101.5463019206
 30
0.0
 11
865.7433501725
 21
98.5463019206
 31
0.0
  0
LINE
  5
378
330
1F
100
AcDbEntity
  8
0
  6
Continuous
 62
     7
370
    25
100
AcDbLine
 10
-39.4566498275
 20
98.5463019206
 30
0.0
 11
-40.2566498275
 21
98.5463019206
 31
0.0
  0
LINE
  5
379
330
1F
100
AcDbEntity
  8
0
  6
Continuous
 62
     7
370
    25
100
AcDbLine
 10
-40.2566498275
 20
98.5463019206
 30
0.0
 11
-40.2566498275
 21
101.5463019206
 31
0.0
  0
LINE
  5
37A
330
1F
100
AcDbEntity
  8
0
  6
Continuous
 62
     7
370
    25
100
AcDbLine
 10
-39.4566498275
 20
101.5463019206
 30
0.0
 11
-39.4566498275
 21
98.5463019206
 31
0.0
  0
LINE
  5
37B
330
1F
100
AcDbEntity
  8
0
  6
Continuous
 62
     7
370
    25
100
AcDbLine
 10
862.7433501725
 20
100.5463019206
 30
0.0
 11
862.7433501725
 21
101.3463019206
 31
0.0
  0
LINE
  5
37C
330
1F
100
AcDbEntity
  8
0
  6
Continuous
 62
     7
370
    25
100
AcDbLine
 10
-37.2566498275
 20
100.5463019206
 30
0.0
 11
-37.2566498275
 21
101.3463019206
 31
0.0
  0
LINE
  5
37D
330
1F
100
AcDbEntity
  8
0
  6
Continuous
 62
     7
370
    25
100
AcDbLine
 10
862.7433501725
 20
101.3463019206
 30
0.0
 11
-37.2566498275
 21
101.3463019206
 31
0.0
  0
LINE
  5
37E
330
1F
100
AcDbEntity
  8
0
  6
Continuous
 62
     7
370
    25
100
AcDbLine
 10
608.2433501725
 20
141.4509153124
 30
0.0
 11
608.2433501725
 21
134.9332238588
 31
0.0
  0
ARC
  5
37F
330
1F
100
AcDbEntity
  8
0
  6
Continuous
 62
     7
370
    25
100
AcDbCircle
 10
611.2433501725
 20
141.4509153124
 30
0.0
 40
3.0
100
AcDbArc
 50
90.0
 51
180.0
  0
LINE
  5
380
330
1F
100
AcDbEntity
  8
0
  6
Continuous
 62
     7
370
    25
100
AcDbLine
 10
805.2433501725
 20
144.4509153124
 30
0.0
 11
611.2433501725
 21
144.4509153124
 31
0.0
  0
ARC
  5
381
330
1F
100
AcDbEntity
  8
0
  6
Continuous
 62
     7
370
    25
100
AcDbCircle
 10
805.2433501725
 20
141.4509153124
 30
0.0
 40
3.0
100
AcDbArc
 50
0.0
 51
90.0
  0
LINE
  5
382
330
1F
100
AcDbEntity
  8
0
  6
Continuous
 62
     7
370
    25
100
AcDbLine
 10
808.2433501725
 20
134.9332238588
 30
0.0
 11
808.2433501725
 21
141.4509153124
 31
0.0
  0
LINE
  5
383
330
1F
100
AcDbEntity
  8
0
  6
Continuous
 62
     7
370
    25
100
AcDbLine
 10
17.2433501725
 20
141.4509153124
 30
0.0
 11
17.2433501725
 21
134.9332238588
 31
0.0
  0
ARC
  5
384
330
1F
100
AcDbEntity
  8
0
  6
Continuous
 62
     7
370
    25
100
AcDbCircle
 10
20.2433501725
 20
141.4509153124
 30
0.0
 40
3.000000000000004
100
AcDbArc
 50
90.0
 51
180.0
  0
ARC
  5
385
330
1F
100
AcDbEntity
  8
0
  6
Continuous
 62
     7
370
    25
100
AcDbCircle
 10
214.2433501725
 20
141.4509153124
 30
0.0
 40
3.0
100
AcDbArc
 50
0.0
 51
90.0
  0
LINE
  5
386
330
1F
100
AcDbEntity
  8
0
  6
Continuous
 62
     7
370
    25
100
AcDbLine
 10
217.2433501725
 20
134.9332238588
 30
0.0
 11
217.2433501725
 21
141.4509153124
 31
0.0
  0
LINE
  5
387
330
1F
100
AcDbEntity
  8
0
  6
Continuous
 62
     7
370
    25
100
AcDbLine
 10
214.2433501725
 20
144.4509153124
 30
0.0
 11
20.2433501725
 21
144.4509153124
 31
0.0
  0
LINE
  5
388
330
1F
100
AcDbEntity
  8
0
  6
Continuous
 62
     7
370
    25
100
AcDbLine
 10
312.7433501725
 20
141.4509153124
 30
0.0
 11
312.7433501725
 21
134.9332238588
 31
0.0
  0
LINE
  5
389
330
1F
100
AcDbEntity
  8
0
  6
Continuous
 62
     7
370
    25
100
AcDbLine
 10
512.7433501725
 20
134.9332238588
 30
0.0
 11
512.7433501725
 21
141.4509153124
 31
0.0
  0
LINE
  5
38A
330
1F
100
AcDbEntity
  8
0
  6
Continuous
 62
     7
370
    25
100
AcDbLine
 10
509.7433501725
 20
144.4509153124
 30
0.0
 11
315.7433501725
 21
144.4509153124
 31
0.0
  0
ARC
  5
38B
330
1F
100
AcDbEntity
  8
0
  6
Continuous
 62
     7
370
    25
100
AcDbCircle
 10
315.7433501725
 20
141.4509153124
 30
0.0
 40
3.0
100
AcDbArc
 50
90.0
 51
180.0
  0
ARC
  5
38C
330
1F
100
AcDbEntity
  8
0
  6
Continuous
 62
     7
370
    25
100
AcDbCircle
 10
509.7433501725
 20
141.4509153124
 30
0.0
 40
3.000000000000057
100
AcDbArc
 50
0.0
 51
90.0
  0
LINE
  5
38D
330
1F
100
AcDbEntity
  8
0
  6
Continuous
 62
     7
370
    25
100
AcDbLine
 10
17.2433501725
 20
134.0332238588
 30
0.0
 11
17.2433501725
 21
134.9332238588
 31
0.0
  0
LINE
  5
38E
330
1F
100
AcDbEntity
  8
0
  6
Continuous
 62
     7
370
    25
100
AcDbLine
 10
217.2433501725
 20
134.9332238588
 30
0.0
 11
217.2433501725
 21
134.0332238588
 31
0.0
  0
LINE
  5
38F
330
1F
100
AcDbEntity
  8
0
  6
Continuous
 62
     7
370
    25
100
AcDbLine
 10
808.2433501725
 20
134.9332238588
 30
0.0
 11
808.2433501725
 21
134.0332238588
 31
0.0
  0
LINE
  5
390
330
1F
100
AcDbEntity
  8
0
  6
Continuous
 62
     7
370
    25
100
AcDbLine
 10
608.2433501725
 20
134.0332238588
 30
0.0
 11
608.2433501725
 21
134.9332238588
 31
0.0
  0
LINE
  5
391
330
1F
100
AcDbEntity
  8
0
  6
Continuous
 62
     7
370
    25
100
AcDbLine
 10
312.7433501725
 20
134.0332238588
 30
0.0
 11
312.7433501725
 21
134.9332238588
 31
0.0
  0
LINE
  5
392
330
1F
100
AcDbEntity
  8
0
  6
Continuous
 62
     7
370
    25
100
AcDbLine
 10
512.7433501725
 20
134.9332238588
 30
0.0
 11
512.7433501725
 21
134.0332238588
 31
0.0
  0
LINE
  5
393
330
1F
100
AcDbEntity
  8
0
  6
Continuous
 62
     7
370
    25
100
AcDbLine
 10
17.2433501725
 20
127.4083527282
 30
0.0
 11
17.2433501725
 21
134.0332238588
 31
0.0
  0
LINE
  5
394
330
1F
100
AcDbEntity
  8
0
  6
Continuous
 62
     7
370
    25
100
AcDbLine
 10
217.2433501725
 20
134.0332238588
 30
0.0
 11
217.2433501725
 21
127.4083527282
 31
0.0
  0
LINE
  5
395
330
1F
100
AcDbEntity
  8
0
  6
Continuous
 62
     7
370
    25
100
AcDbLine
 10
512.7433501725
 20
134.0332238588
 30
0.0
 11
512.7433501725
 21
127.4083527282
 31
0.0
  0
LINE
  5
396
330
1F
100
AcDbEntity
  8
0
  6
Continuous
 62
     7
370
    25
100
AcDbLine
 10
312.7433501725
 20
127.4083527282
 30
0.0
 11
312.7433501725
 21
134.0332238588
 31
0.0
  0
LINE
  5
397
330
1F
100
AcDbEntity
  8
0
  6
Continuous
 62
     7
370
    25
100
AcDbLine
 10
808.2433501725
 20
134.0332238588
 30
0.0
 11
808.2433501725
 21
127.4083527282
 31
0.0
  0
LINE
  5
398
330
1F
100
AcDbEntity
  8
0
  6
Continuous
 62
     7
370
    25
100
AcDbLine
 10
608.2433501725
 20
127.4083527282
 30
0.0
 11
608.2433501725
 21
134.0332238588
 31
0.0
  0
LINE
  5
399
330
1F
100
AcDbEntity
  8
0
  6
Continuous
 62
     7
370
    25
100
AcDbLine
 10
864.9433501725
 20
121.5463019206
 30
0.0
 11
863.9433501725
 21
121.5463019206
 31
0.0
  0
LINE
  5
39A
330
1F
100
AcDbEntity
  8
0
  6
Continuous
 62
     7
370
    25
100
AcDbLine
 10
863.9433501725
 20
102.5463019206
 30
0.0
 11
864.9433501725
 21
102.5463019206
 31
0.0
  0
LINE
  5
39B
330
1F
100
AcDbEntity
  8
0
  6
Continuous
 62
     7
370
    25
100
AcDbLine
 10
-39.4566498275
 20
102.5463019206
 30
0.0
 11
-38.4566498275
 21
102.5463019206
 31
0.0
  0
LINE
  5
39C
330
1F
100
AcDbEntity
  8
0
  6
Continuous
 62
     7
370
    25
100
AcDbLine
 10
-38.4566498275
 20
121.5463019206
 30
0.0
 11
-39.4566498275
 21
121.5463019206
 31
0.0
  0
LINE
  5
39D
330
1F
100
AcDbEntity
  8
0
  6
Continuous
 62
     7
370
    25
100
AcDbLine
 10
-37.2566498275
 20
102.3463019206
 30
0.0
 11
-37.2566498275
 21
101.3463019206
 31
0.0
  0
LINE
  5
39E
330
1F
100
AcDbEntity
  8
0
  6
Continuous
 62
     7
370
    25
100
AcDbLine
 10
862.7433501725
 20
101.3463019206
 30
0.0
 11
862.7433501725
 21
102.3463019206
 31
0.0
  0
LINE
  5
39F
330
1F
100
AcDbEntity
  8
0
  6
Continuous
 62
     7
370
    25
100
AcDbLine
 10
512.7433501725
 20
126.9083527282
 30
0.0
 11
512.7433501725
 21
127.4083527282
 31
0.0
  0
LINE
  5
3A0
330
1F
100
AcDbEntity
  8
0
  6
Continuous
 62
     7
370
    25
100
AcDbLine
 10
312.7433501725
 20
127.4083527282
 30
0.0
 11
312.7433501725
 21
126.9083527282
 31
0.0
  0
LINE
  5
3A1
330
1F
100
AcDbEntity
  8
0
  6
Continuous
 62
     7
370
    25
100
AcDbLine
 10
217.2433501725
 20
126.9083527282
 30
0.0
 11
217.2433501725
 21
127.4083527282
 31
0.0
  0
LINE
  5
3A2
330
1F
100
AcDbEntity
  8
0
  6
Continuous
 62
     7
370
    25
100
AcDbLine
 10
17.2433501725
 20
127.4083527282
 30
0.0
 11
17.2433501725
 21
126.9083527282
 31
0.0
  0
LINE
  5
3A3
330
1F
100
AcDbEntity
  8
0
  6
Continuous
 62
     7
370
    25
100
AcDbLine
 10
808.2433501725
 20
126.9083527282
 30
0.0
 11
808.2433501725
 21
127.4083527282
 31
0.0
  0
LINE
  5
3A4
330
1F
100
AcDbEntity
  8
0
  6
Continuous
 62
     7
370
    25
100
AcDbLine
 10
608.2433501725
 20
127.4083527282
 30
0.0
 11
608.2433501725
 21
126.9083527282
 31
0.0
  0
LINE
  5
3A5
330
1F
100
AcDbEntity
  8
0
  6
Continuous
 62
     7
370
    25
100
AcDbLine
 10
-37.2566498275
 20
102.5463019206
 30
0.0
 11
-37.2566498275
 21
102.3463019206
 31
0.0
  0
LINE
  5
3A6
330
1F
100
AcDbEntity
  8
0
  6
Continuous
 62
     7
370
    25
100
AcDbLine
 10
-38.4566498275
 20
102.5463019206
 30
0.0
 11
-37.2566498275
 21
102.5463019206
 31
0.0
  0
LINE
  5
3A7
330
1F
100
AcDbEntity
  8
0
  6
Continuous
 62
     7
370
    25
100
AcDbLine
 10
-35.2566498275
 20
121.5463019206
 30
0.0
 11
-38.4566498275
 21
121.5463019206
 31
0.0
  0
LINE
  5
3A8
330
1F
100
AcDbEntity
  8
0
  6
Continuous
 62
     7
370
    25
100
AcDbLine
 10
-35.2566498275
 20
142.5463019206
 30
0.0
 11
-35.2566498275
 21
121.5463019206
 31
0.0
  0
ARC
  5
3A9
330
1F
100
AcDbEntity
  8
0
  6
Continuous
 62
     7
370
    25
100
AcDbCircle
 10
-32.2566498275
 20
142.5463019206
 30
0.0
 40
3.0
100
AcDbArc
 50
90.0
 51
180.0
  0
LINE
  5
3AA
330
1F
100
AcDbEntity
  8
0
  6
Continuous
 62
     7
370
    25
100
AcDbLine
 10
11.7433501725
 20
145.5463019206
 30
0.0
 11
-32.2566498275
 21
145.5463019206
 31
0.0
  0
ARC
  5
3AB
330
1F
100
AcDbEntity
  8
0
  6
Continuous
 62
     7
370
    25
100
AcDbCircle
 10
11.7433501725
 20
142.5463019206
 30
0.0
 40
3.000000000000002
100
AcDbArc
 50
0.0
 51
90.0
  0
LINE
  5
3AC
330
1F
100
AcDbEntity
  8
0
  6
Continuous
 62
     7
370
    25
100
AcDbLine
 10
14.7433501725
 20
142.5463019206
 30
0.0
 11
14.7433501725
 21
126.4163019206
 31
0.0
  0
LINE
  5
3AD
330
1F
100
AcDbEntity
  8
0
  6
Continuous
 62
     7
370
    25
100
AcDbLine
 10
14.7433501725
 20
126.4163019206
 30
0.0
 11
17.2433501725
 21
126.4163019206
 31
0.0
  0
LINE
  5
3AE
330
1F
100
AcDbEntity
  8
0
  6
Continuous
 62
     7
370
    25
100
AcDbLine
 10
17.2433501725
 20
126.9083527282
 30
0.0
 11
17.2433501725
 21
126.4163019206
 31
0.0
  0
LINE
  5
3AF
330
1F
100
AcDbEntity
  8
0
  6
Continuous
 62
     7
370
    25
100
AcDbLine
 10
217.2433501725
 20
126.9083527282
 30
0.0
 11
217.2433501725
 21
126.4163019206
 31
0.0
  0
LINE
  5
3B0
330
1F
100
AcDbEntity
  8
0
  6
Continuous
 62
     7
370
    25
100
AcDbLine
 10
217.2433501725
 20
126.4163019206
 30
0.0
 11
219.7433501725
 21
126.4163019206
 31
0.0
  0
LINE
  5
3B1
330
1F
100
AcDbEntity
  8
0
  6
Continuous
 62
     7
370
    25
100
AcDbLine
 10
219.7433501725
 20
126.4163019206
 30
0.0
 11
219.7433501725
 21
142.5463019206
 31
0.0
  0
ARC
  5
3B2
330
1F
100
AcDbEntity
  8
0
  6
Continuous
 62
     7
370
    25
100
AcDbCircle
 10
222.7433501725
 20
142.5463019206
 30
0.0
 40
3.0
100
AcDbArc
 50
90.0
 51
180.0
  0
LINE
  5
3B3
330
1F
100
AcDbEntity
  8
0
  6
Continuous
 62
     7
370
    25
100
AcDbLine
 10
307.2433501725
 20
145.5463019206
 30
0.0
 11
222.7433501725
 21
145.5463019206
 31
0.0
  0
ARC
  5
3B4
330
1F
100
AcDbEntity
  8
0
  6
Continuous
 62
     7
370
    25
100
AcDbCircle
 10
307.2433501725
 20
142.5463019206
 30
0.0
 40
3.0
100
AcDbArc
 50
0.0
 51
90.0
  0
LINE
  5
3B5
330
1F
100
AcDbEntity
  8
0
  6
Continuous
 62
     7
370
    25
100
AcDbLine
 10
310.2433501725
 20
142.5463019206
 30
0.0
 11
310.2433501725
 21
126.4163019206
 31
0.0
  0
LINE
  5
3B6
330
1F
100
AcDbEntity
  8
0
  6
Continuous
 62
     7
370
    25
100
AcDbLine
 10
310.2433501725
 20
126.4163019206
 30
0.0
 11
312.7433501725
 21
126.4163019206
 31
0.0
  0
LINE
  5
3B7
330
1F
100
AcDbEntity
  8
0
  6
Continuous
 62
     7
370
    25
100
AcDbLine
 10
312.7433501725
 20
126.9083527282
 30
0.0
 11
312.7433501725
 21
126.4163019206
 31
0.0
  0
LINE
  5
3B8
330
1F
100
AcDbEntity
  8
0
  6
Continuous
 62
     7
370
    25
100
AcDbLine
 10
512.7433501725
 20
126.9083527282
 30
0.0
 11
512.7433501725
 21
126.4163019206
 31
0.0
  0
LINE
  5
3B9
330
1F
100
AcDbEntity
  8
0
  6
Continuous
 62
     7
370
    25
100
AcDbLine
 10
512.7433501725
 20
126.4163019206
 30
0.0
 11
515.2433501725
 21
126.4163019206
 31
0.0
  0
LINE
  5
3BA
330
1F
100
AcDbEntity
  8
0
  6
Continuous
 62
     7
370
    25
100
AcDbLine
 10
515.2433501725
 20
126.4163019206
 30
0.0
 11
515.2433501725
 21
142.5463019206
 31
0.0
  0
ARC
  5
3BB
330
1F
100
AcDbEntity
  8
0
  6
Continuous
 62
     7
370
    25
100
AcDbCircle
 10
518.2433501725
 20
142.5463019206
 30
0.0
 40
3.0
100
AcDbArc
 50
90.0
 51
180.0
  0
LINE
  5
3BC
330
1F
100
AcDbEntity
  8
0
  6
Continuous
 62
     7
370
    25
100
AcDbLine
 10
602.7433501725
 20
145.5463019206
 30
0.0
 11
518.2433501725
 21
145.5463019206
 31
0.0
  0
ARC
  5
3BD
330
1F
100
AcDbEntity
  8
0
  6
Continuous
 62
     7
370
    25
100
AcDbCircle
 10
602.7433501725
 20
142.5463019206
 30
0.0
 40
3.0
100
AcDbArc
 50
0.0
 51
90.0
  0
LINE
  5
3BE
330
1F
100
AcDbEntity
  8
0
  6
Continuous
 62
     7
370
    25
100
AcDbLine
 10
605.7433501725
 20
142.5463019206
 30
0.0
 11
605.7433501725
 21
126.4163019206
 31
0.0
  0
LINE
  5
3BF
330
1F
100
AcDbEntity
  8
0
  6
Continuous
 62
     7
370
    25
100
AcDbLine
 10
605.7433501725
 20
126.4163019206
 30
0.0
 11
608.2433501725
 21
126.4163019206
 31
0.0
  0
LINE
  5
3C0
330
1F
100
AcDbEntity
  8
0
  6
Continuous
 62
     7
370
    25
100
AcDbLine
 10
608.2433501725
 20
126.9083527282
 30
0.0
 11
608.2433501725
 21
126.4163019206
 31
0.0
  0
LINE
  5
3C1
330
1F
100
AcDbEntity
  8
0
  6
Continuous
 62
     7
370
    25
100
AcDbLine
 10
808.2433501725
 20
126.9083527282
 30
0.0
 11
808.2433501725
 21
126.4163019206
 31
0.0
  0
LINE
  5
3C2
330
1F
100
AcDbEntity
  8
0
  6
Continuous
 62
     7
370
    25
100
AcDbLine
 10
808.2433501725
 20
126.4163019206
 30
0.0
 11
810.7433501725
 21
126.4163019206
 31
0.0
  0
LINE
  5
3C3
330
1F
100
AcDbEntity
  8
0
  6
Continuous
 62
     7
370
    25
100
AcDbLine
 10
810.7433501725
 20
126.4163019206
 30
0.0
 11
810.7433501725
 21
142.5463019206
 31
0.0
  0
ARC
  5
3C4
330
1F
100
AcDbEntity
  8
0
  6
Continuous
 62
     7
370
    25
100
AcDbCircle
 10
813.7433501725
 20
142.5463019206
 30
0.0
 40
3.0
100
AcDbArc
 50
90.0
 51
180.0
  0
LINE
  5
3C5
330
1F
100
AcDbEntity
  8
0
  6
Continuous
 62
     7
370
    25
100
AcDbLine
 10
857.7433501725
 20
145.5463019206
 30
0.0
 11
813.7433501725
 21
145.5463019206
 31
0.0
  0
ARC
  5
3C6
330
1F
100
AcDbEntity
  8
0
  6
Continuous
 62
     7
370
    25
100
AcDbCircle
 10
857.7433501725
 20
142.5463019206
 30
0.0
 40
3.0
100
AcDbArc
 50
0.0
 51
90.0
  0
LINE
  5
3C7
330
1F
100
AcDbEntity
  8
0
  6
Continuous
 62
     7
370
    25
100
AcDbLine
 10
860.7433501725
 20
121.5463019206
 30
0.0
 11
860.7433501725
 21
142.5463019206
 31
0.0
  0
LINE
  5
3C8
330
1F
100
AcDbEntity
  8
0
  6
Continuous
 62
     7
370
    25
100
AcDbLine
 10
863.9433501725
 20
121.5463019206
 30
0.0
 11
860.7433501725
 21
121.5463019206
 31
0.0
  0
LINE
  5
3C9
330
1F
100
AcDbEntity
  8
0
  6
Continuous
 62
     7
370
    25
100
AcDbLine
 10
862.7433501725
 20
102.5463019206
 30
0.0
 11
863.9433501725
 21
102.5463019206
 31
0.0
  0
LINE
  5
3CA
330
1F
100
AcDbEntity
  8
0
  6
Continuous
 62
     7
370
    25
100
AcDbLine
 10
862.7433501725
 20
102.3463019206
 30
0.0
 11
862.7433501725
 21
102.5463019206
 31
0.0
  0
SPLINE
  5
3CB
330
1F
100
AcDbEntity
  8
0
  6
Continuous
 62
     7
370
    25
100
AcDbSpline
210
0.0
220
0.0
230
1.0
 70
     8
 71
     3
 72
    14
 73
    10
 74
     0
 42
0.000000001
 43
0.00000001
 40
0.0
 40
0.0
 40
0.0
 40
0.0
 40
0.25
 40
0.25
 40
0.5
 40
0.5
 40
0.75
 40
0.75
 40
1.0
 40
1.0
 40
1.0
 40
1.0
 10
847.3790898953329
 20
104.1316219352302
 30
0.0
 10
847.4311476042236
 20
104.2264965445408
 30
0.0
 10
847.4844811425518
 20
104.3061014694165
 30
0.0
 10
847.5914131501798
 20
104.4149380843107
 30
0.0
 10
847.6451665166273
 20
104.4442616900012
 30
0.0
 10
847.753345568051
 20
104.4441969082556
 30
0.0
 10
847.8081742646392
 20
104.4140407149293
 30
0.0
 10
847.9150812472989
 20
104.3044555135636
 30
0.0
 10
847.9675027622712
 20
104.2259125397614
 30
0.0
 10
848.0192400276734
 20
104.1316219352301
 30
0.0
  0
SPLINE
  5
3CC
330
1F
100
AcDbEntity
  8
0
  6
Continuous
 62
     7
370
    25
100
AcDbSpline
210
0.0
220
0.0
230
1.0
 70
     8
 71
     3
 72
    12
 73
     8
 74
     0
 42
0.000000001
 43
0.00000001
 40
0.0
 40
0.0
 40
0.0
 40
0.0
 40
0.5000000000000171
 40
0.5000000000000171
 40
0.7500000000000085
 40
0.7500000000000085
 40
1.0
 40
1.0
 40
1.0
 40
1.0
 10
847.3790898953331
 20
104.1316219352311
 30
0.0
 10
846.7625595054128
 20
104.3221162246546
 30
0.0
 10
846.136791632963
 20
104.443790637717
 30
0.0
 10
845.173729923578
 20
104.4444468282483
 30
0.0
 10
844.8530368884484
 20
104.4146128264539
 30
0.0
 10
844.2230786384523
 20
104.3056829563463
 30
0.0
 10
843.9118493704216
 20
104.2269877692834
 30
0.0
 10
843.6032000401368
 20
104.1316219352307
 30
0.0
  0
SPLINE
  5
3CD
330
1F
100
AcDbEntity
  8
0
  6
Continuous
 62
     7
370
    25
100
AcDbSpline
210
0.0
220
0.0
230
1.0
 70
     8
 71
     3
 72
    12
 73
     8
 74
     0
 42
0.000000001
 43
0.00000001
 40
0.0
 40
0.0
 40
0.0
 40
0.0
 40
0.5000000000000031
 40
0.5000000000000031
 40
0.7500000000000016
 40
0.7500000000000016
 40
1.0
 40
1.0
 40
1.0
 40
1.0
 10
843.603200040137
 20
104.1316219352311
 30
0.0
 10
843.091193888432
 20
104.3221162246546
 30
0.0
 10
842.5715163421637
 20
104.443790637717
 30
0.0
 10
841.7717284846013
 20
104.4444468282482
 30
0.0
 10
841.5054045377534
 20
104.4146128264538
 30
0.0
 10
840.9822470347519
 20
104.3056829563463
 30
0.0
 10
840.7237824036035
 20
104.2269877692834
 30
0.0
 10
840.4674603172815
 20
104.1316219352306
 30
0.0
  0
SPLINE
  5
3CE
330
1F
100
AcDbEntity
  8
0
  6
Continuous
 62
     7
370
    25
100
AcDbSpline
210
0.0
220
0.0
230
1.0
 70
     8
 71
     3
 72
     9
 73
     5
 74
     0
 42
0.000000001
 43
0.00000001
 40
0.0
 40
0.0
 40
0.0
 40
0.0
 40
0.3722348086954485
 40
1.0
 40
1.0
 40
1.0
 40
1.0
 10
840.4674603172815
 20
104.1316219352302
 30
0.0
 10
840.4954265509533
 20
104.1835462440037
 30
0.0
 10
840.5705571755444
 20
104.3230396700902
 30
0.0
 10
840.6491010337007
 20
104.3310483961954
 30
0.0
 10
840.6984081338422
 20
104.3360759956708
 30
0.0
  0
LINE
  5
3CF
330
1F
100
AcDbEntity
  8
0
  6
Continuous
 62
     7
370
    25
100
AcDbLine
 10
847.3933501725
 20
104.6463019206
 30
0.0
 11
841.0933501725
 21
104.6463019206
 31
0.0
  0
LINE
  5
3D0
330
1F
100
AcDbEntity
  8
0
  6
Continuous
 62
     7
370
    25
100
AcDbLine
 10
847.3790898953
 20
104.1316219352
 30
0.0
 11
847.3790898953
 21
101.960981906
 31
0.0
  0
SPLINE
  5
3D1
330
1F
100
AcDbEntity
  8
0
  6
Continuous
 62
     7
370
    25
100
AcDbSpline
210
0.0
220
0.0
230
1.0
 70
     8
 71
     3
 72
    12
 73
     8
 74
     0
 42
0.000000001
 43
0.00000001
 40
0.0
 40
0.0
 40
0.0
 40
0.0
 40
0.5000000000000207
 40
0.5000000000000207
 40
0.7500000000000103
 40
0.7500000000000103
 40
1.0
 40
1.0
 40
1.0
 40
1.0
 10
843.6032000401368
 20
101.9609819060012
 30
0.0
 10
844.2197304300572
 20
101.7704876165777
 30
0.0
 10
844.8454983025067
 20
101.6488132035153
 30
0.0
 10
845.8085600118917
 20
101.6481570129841
 30
0.0
 10
846.1292530470215
 20
101.6779910147785
 30
0.0
 10
846.7592112970175
 20
101.786920884886
 30
0.0
 10
847.0704405650484
 20
101.8656160719489
 30
0.0
 10
847.3790898953329
 20
101.9609819060017
 30
0.0
  0
LINE
  5
3D2
330
1F
100
AcDbEntity
  8
0
  6
Continuous
 62
     7
370
    25
100
AcDbLine
 10
843.6032000401
 20
104.1316219352
 30
0.0
 11
843.6032000401
 21
101.960981906
 31
0.0
  0
SPLINE
  5
3D3
330
1F
100
AcDbEntity
  8
0
  6
Continuous
 62
     7
370
    25
100
AcDbSpline
210
0.0
220
0.0
230
1.0
 70
     8
 71
     3
 72
     9
 73
     5
 74
     0
 42
0.000000001
 43
0.00000001
 40
0.0
 40
0.0
 40
0.0
 40
0.0
 40
0.6277651913045451
 40
1.0
 40
1.0
 40
1.0
 40
1.0
 10
840.6984081338423
 20
101.7565278455615
 30
0.0
 10
840.649101033701
 20
101.761555445037
 30
0.0
 10
840.5705571755443
 20
101.7695641711421
 30
0.0
 10
840.4954265509532
 20
101.9090575972286
 30
0.0
 10
840.4674603172815
 20
101.9609819060022
 30
0.0
  0
SPLINE
  5
3D4
330
1F
100
AcDbEntity
  8
0
  6
Continuous
 62
     7
370
    25
100
AcDbSpline
210
0.0
220
0.0
230
1.0
 70
     8
 71
     3
 72
    12
 73
     8
 74
     0
 42
0.000000001
 43
0.00000001
 40
0.0
 40
0.0
 40
0.0
 40
0.0
 40
0.5000000000000031
 40
0.5000000000000031
 40
0.7500000000000016
 40
0.7500000000000016
 40
1.0
 40
1.0
 40
1.0
 40
1.0
 10
840.4674603172815
 20
101.9609819060012
 30
0.0
 10
840.9794664689865
 20
101.7704876165777
 30
0.0
 10
841.4991440152546
 20
101.6488132035153
 30
0.0
 10
842.298931872817
 20
101.6481570129841
 30
0.0
 10
842.5652558196653
 20
101.6779910147785
 30
0.0
 10
843.0884133226666
 20
101.7869208848861
 30
0.0
 10
843.3468779538149
 20
101.8656160719489
 30
0.0
 10
843.603200040137
 20
101.9609819060017
 30
0.0
  0
SPLINE
  5
3D5
330
1F
100
AcDbEntity
  8
0
  6
Continuous
 62
     7
370
    25
100
AcDbSpline
210
0.0
220
0.0
230
1.0
 70
     8
 71
     3
 72
    14
 73
    10
 74
     0
 42
0.000000001
 43
0.00000001
 40
0.0
 40
0.0
 40
0.0
 40
0.0
 40
0.25
 40
0.25
 40
0.5
 40
0.5
 40
0.75
 40
0.75
 40
1.0
 40
1.0
 40
1.0
 40
1.0
 10
847.3790898953329
 20
101.9609819060022
 30
0.0
 10
847.4311476042236
 20
101.8661072966916
 30
0.0
 10
847.4844811425518
 20
101.7865023718158
 30
0.0
 10
847.5914131501798
 20
101.6776657569216
 30
0.0
 10
847.6451665166273
 20
101.6483421512311
 30
0.0
 10
847.753345568051
 20
101.6484069329767
 30
0.0
 10
847.8081742646392
 20
101.678563126303
 30
0.0
 10
847.9150812472989
 20
101.7881483276688
 30
0.0
 10
847.9675027622712
 20
101.8666913014709
 30
0.0
 10
848.0192400276734
 20
101.9609819060022
 30
0.0
  0
LINE
  5
3D6
330
1F
100
AcDbEntity
  8
0
  6
Continuous
 62
     7
370
    25
100
AcDbLine
 10
847.3933501725
 20
101.4463019206
 30
0.0
 11
841.0933501725
 21
101.4463019206
 31
0.0
  0
LINE
  5
3D7
330
1F
100
AcDbEntity
  8
0
  6
Continuous
 62
     7
370
    25
100
AcDbLine
 10
840.4674603173
 20
104.1316219352
 30
0.0
 11
840.4674603173
 21
101.960981906
 31
0.0
  0
LINE
  5
3D8
330
1F
100
AcDbEntity
  8
0
  6
Continuous
 62
     7
370
    25
100
AcDbLine
 10
848.0192400277
 20
104.1316219352
 30
0.0
 11
848.0192400277
 21
101.960981906
 31
0.0
  0
SPLINE
  5
3D9
330
1F
100
AcDbEntity
  8
0
  6
Continuous
 62
     7
370
    25
100
AcDbSpline
210
0.0
220
0.0
230
1.0
 70
     8
 71
     3
 72
    12
 73
     8
 74
     0
 42
0.000000001
 43
0.00000001
 40
0.0
 40
0.0
 40
0.0
 40
0.0
 40
0.5000000000000077
 40
0.5000000000000077
 40
0.7500000000000038
 40
0.7500000000000038
 40
1.0
 40
1.0
 40
1.0
 40
1.0
 10
264.379089895333
 20
104.1316219352312
 30
0.0
 10
263.7625595054127
 20
104.3221162246547
 30
0.0
 10
263.1367916329629
 20
104.4437906377171
 30
0.0
 10
262.1737299235781
 20
104.4444468282483
 30
0.0
 10
261.8530368884483
 20
104.4146128264539
 30
0.0
 10
261.2230786384524
 20
104.3056829563463
 30
0.0
 10
260.9118493704216
 20
104.2269877692834
 30
0.0
 10
260.6032000401368
 20
104.1316219352307
 30
0.0
  0
LINE
  5
3DA
330
1F
100
AcDbEntity
  8
0
  6
Continuous
 62
     7
370
    25
100
AcDbLine
 10
264.3790898953
 20
104.1316219352
 30
0.0
 11
264.3790898953
 21
101.960981906
 31
0.0
  0
SPLINE
  5
3DB
330
1F
100
AcDbEntity
  8
0
  6
Continuous
 62
     7
370
    25
100
AcDbSpline
210
0.0
220
0.0
230
1.0
 70
     8
 71
     3
 72
    12
 73
     8
 74
     0
 42
0.000000001
 43
0.00000001
 40
0.0
 40
0.0
 40
0.0
 40
0.0
 40
0.4999999999999887
 40
0.4999999999999887
 40
0.7499999999999943
 40
0.7499999999999943
 40
1.0
 40
1.0
 40
1.0
 40
1.0
 10
260.6032000401368
 20
101.9609819060012
 30
0.0
 10
261.2197304300571
 20
101.7704876165777
 30
0.0
 10
261.8454983025068
 20
101.6488132035153
 30
0.0
 10
262.8085600118918
 20
101.6481570129841
 30
0.0
 10
263.1292530470214
 20
101.6779910147785
 30
0.0
 10
263.7592112970174
 20
101.7869208848861
 30
0.0
 10
264.0704405650483
 20
101.8656160719489
 30
0.0
 10
264.3790898953329
 20
101.9609819060017
 30
0.0
  0
LINE
  5
3DC
330
1F
100
AcDbEntity
  8
0
  6
Continuous
 62
     7
370
    25
100
AcDbLine
 10
260.6032000401
 20
104.1316219352
 30
0.0
 11
260.6032000401
 21
101.960981906
 31
0.0
  0
SPLINE
  5
3DD
330
1F
100
AcDbEntity
  8
0
  6
Continuous
 62
     7
370
    25
100
AcDbSpline
210
0.0
220
0.0
230
1.0
 70
     8
 71
     3
 72
    14
 73
    10
 74
     0
 42
0.000000001
 43
0.00000001
 40
0.0
 40
0.0
 40
0.0
 40
0.0
 40
0.25
 40
0.25
 40
0.5
 40
0.5
 40
0.75
 40
0.75
 40
1.0
 40
1.0
 40
1.0
 40
1.0
 10
264.3790898953329
 20
104.1316219352302
 30
0.0
 10
264.4311476042237
 20
104.2264965445408
 30
0.0
 10
264.4844811425517
 20
104.3061014694166
 30
0.0
 10
264.5914131501799
 20
104.4149380843108
 30
0.0
 10
264.6451665166274
 20
104.4442616900013
 30
0.0
 10
264.7533455680511
 20
104.4441969082557
 30
0.0
 10
264.808174264639
 20
104.4140407149293
 30
0.0
 10
264.9150812472989
 20
104.3044555135636
 30
0.0
 10
264.9675027622714
 20
104.2259125397615
 30
0.0
 10
265.0192400276734
 20
104.1316219352302
 30
0.0
  0
SPLINE
  5
3DE
330
1F
100
AcDbEntity
  8
0
  6
Continuous
 62
     7
370
    25
100
AcDbSpline
210
0.0
220
0.0
230
1.0
 70
     8
 71
     3
 72
    12
 73
     8
 74
     0
 42
0.000000001
 43
0.00000001
 40
0.0
 40
0.0
 40
0.0
 40
0.0
 40
0.4999999999999921
 40
0.4999999999999921
 40
0.749999999999996
 40
0.749999999999996
 40
1.0
 40
1.0
 40
1.0
 40
1.0
 10
260.603200040137
 20
104.1316219352312
 30
0.0
 10
260.0911938884321
 20
104.3221162246547
 30
0.0
 10
259.5715163421638
 20
104.4437906377171
 30
0.0
 10
258.7717284846014
 20
104.4444468282483
 30
0.0
 10
258.5054045377533
 20
104.4146128264539
 30
0.0
 10
257.9822470347519
 20
104.3056829563463
 30
0.0
 10
257.7237824036035
 20
104.2269877692834
 30
0.0
 10
257.4674603172815
 20
104.1316219352307
 30
0.0
  0
SPLINE
  5
3DF
330
1F
100
AcDbEntity
  8
0
  6
Continuous
 62
     7
370
    25
100
AcDbSpline
210
0.0
220
0.0
230
1.0
 70
     8
 71
     3
 72
     9
 73
     5
 74
     0
 42
0.000000001
 43
0.00000001
 40
0.0
 40
0.0
 40
0.0
 40
0.0
 40
0.3722348086954467
 40
1.0
 40
1.0
 40
1.0
 40
1.0
 10
257.4674603172816
 20
104.1316219352302
 30
0.0
 10
257.4954265509534
 20
104.1835462440038
 30
0.0
 10
257.5705571755442
 20
104.3230396700903
 30
0.0
 10
257.6491010337008
 20
104.3310483961954
 30
0.0
 10
257.6984081338423
 20
104.3360759956709
 30
0.0
  0
LINE
  5
3E0
330
1F
100
AcDbEntity
  8
0
  6
Continuous
 62
     7
370
    25
100
AcDbLine
 10
264.3933501725
 20
104.6463019206
 30
0.0
 11
258.0933501725
 21
104.6463019206
 31
0.0
  0
SPLINE
  5
3E1
330
1F
100
AcDbEntity
  8
0
  6
Continuous
 62
     7
370
    25
100
AcDbSpline
210
0.0
220
0.0
230
1.0
 70
     8
 71
     3
 72
     9
 73
     5
 74
     0
 42
0.000000001
 43
0.00000001
 40
0.0
 40
0.0
 40
0.0
 40
0.0
 40
0.6277651913045433
 40
1.0
 40
1.0
 40
1.0
 40
1.0
 10
257.6984081338423
 20
101.7565278455615
 30
0.0
 10
257.6491010337008
 20
101.761555445037
 30
0.0
 10
257.5705571755442
 20
101.7695641711421
 30
0.0
 10
257.4954265509534
 20
101.9090575972286
 30
0.0
 10
257.4674603172816
 20
101.9609819060022
 30
0.0
  0
SPLINE
  5
3E2
330
1F
100
AcDbEntity
  8
0
  6
Continuous
 62
     7
370
    25
100
AcDbSpline
210
0.0
220
0.0
230
1.0
 70
     8
 71
     3
 72
    12
 73
     8
 74
     0
 42
0.000000001
 43
0.00000001
 40
0.0
 40
0.0
 40
0.0
 40
0.0
 40
0.5000000000000078
 40
0.5000000000000078
 40
0.7500000000000039
 40
0.7500000000000039
 40
1.0
 40
1.0
 40
1.0
 40
1.0
 10
257.4674603172815
 20
101.9609819060012
 30
0.0
 10
257.9794664689864
 20
101.7704876165777
 30
0.0
 10
258.4991440152547
 20
101.6488132035153
 30
0.0
 10
259.2989318728171
 20
101.6481570129841
 30
0.0
 10
259.5652558196652
 20
101.6779910147785
 30
0.0
 10
260.0884133226666
 20
101.7869208848861
 30
0.0
 10
260.3468779538148
 20
101.8656160719489
 30
0.0
 10
260.603200040137
 20
101.9609819060017
 30
0.0
  0
SPLINE
  5
3E3
330
1F
100
AcDbEntity
  8
0
  6
Continuous
 62
     7
370
    25
100
AcDbSpline
210
0.0
220
0.0
230
1.0
 70
     8
 71
     3
 72
    14
 73
    10
 74
     0
 42
0.000000001
 43
0.00000001
 40
0.0
 40
0.0
 40
0.0
 40
0.0
 40
0.25
 40
0.25
 40
0.5
 40
0.5
 40
0.75
 40
0.75
 40
1.0
 40
1.0
 40
1.0
 40
1.0
 10
264.3790898953329
 20
101.9609819060022
 30
0.0
 10
264.4311476042237
 20
101.8661072966916
 30
0.0
 10
264.4844811425517
 20
101.7865023718158
 30
0.0
 10
264.5914131501799
 20
101.6776657569216
 30
0.0
 10
264.6451665166274
 20
101.6483421512311
 30
0.0
 10
264.7533455680511
 20
101.6484069329767
 30
0.0
 10
264.808174264639
 20
101.678563126303
 30
0.0
 10
264.9150812472989
 20
101.7881483276688
 30
0.0
 10
264.9675027622714
 20
101.8666913014709
 30
0.0
 10
265.0192400276734
 20
101.9609819060022
 30
0.0
  0
LINE
  5
3E4
330
1F
100
AcDbEntity
  8
0
  6
Continuous
 62
     7
370
    25
100
AcDbLine
 10
264.3933501725
 20
101.4463019206
 30
0.0
 11
258.0933501725
 21
101.4463019206
 31
0.0
  0
LINE
  5
3E5
330
1F
100
AcDbEntity
  8
0
  6
Continuous
 62
     7
370
    25
100
AcDbLine
 10
257.4674603173
 20
104.1316219352
 30
0.0
 11
257.4674603173
 21
101.960981906
 31
0.0
  0
LINE
  5
3E6
330
1F
100
AcDbEntity
  8
0
  6
Continuous
 62
     7
370
    25
100
AcDbLine
 10
265.0192400277
 20
104.1316219352
 30
0.0
 11
265.0192400277
 21
101.960981906
 31
0.0
  0
SPLINE
  5
3E7
330
1F
100
AcDbEntity
  8
0
  6
Continuous
 62
     7
370
    25
100
AcDbSpline
210
0.0
220
0.0
230
1.0
 70
     8
 71
     3
 72
    14
 73
    10
 74
     0
 42
0.000000001
 43
0.00000001
 40
0.0
 40
0.0
 40
0.0
 40
0.0
 40
0.25
 40
0.25
 40
0.5
 40
0.5
 40
0.75
 40
0.75
 40
1.0
 40
1.0
 40
1.0
 40
1.0
 10
567.3790898953328
 20
104.1316219352302
 30
0.0
 10
567.4311476042237
 20
104.2264965445408
 30
0.0
 10
567.4844811425517
 20
104.3061014694165
 30
0.0
 10
567.5914131501798
 20
104.4149380843107
 30
0.0
 10
567.6451665166273
 20
104.4442616900012
 30
0.0
 10
567.7533455680511
 20
104.4441969082556
 30
0.0
 10
567.808174264639
 20
104.4140407149293
 30
0.0
 10
567.915081247299
 20
104.3044555135636
 30
0.0
 10
567.9675027622712
 20
104.2259125397614
 30
0.0
 10
568.0192400276735
 20
104.1316219352302
 30
0.0
  0
SPLINE
  5
3E8
330
1F
100
AcDbEntity
  8
0
  6
Continuous
 62
     7
370
    25
100
AcDbSpline
210
0.0
220
0.0
230
1.0
 70
     8
 71
     3
 72
    12
 73
     8
 74
     0
 42
0.000000001
 43
0.00000001
 40
0.0
 40
0.0
 40
0.0
 40
0.0
 40
0.5000000000000077
 40
0.5000000000000077
 40
0.7500000000000038
 40
0.7500000000000038
 40
1.0
 40
1.0
 40
1.0
 40
1.0
 10
567.379089895333
 20
104.1316219352311
 30
0.0
 10
566.7625595054127
 20
104.3221162246546
 30
0.0
 10
566.136791632963
 20
104.443790637717
 30
0.0
 10
565.1737299235781
 20
104.4444468282483
 30
0.0
 10
564.8530368884484
 20
104.4146128264539
 30
0.0
 10
564.2230786384523
 20
104.3056829563463
 30
0.0
 10
563.9118493704214
 20
104.2269877692834
 30
0.0
 10
563.6032000401368
 20
104.1316219352307
 30
0.0
  0
SPLINE
  5
3E9
330
1F
100
AcDbEntity
  8
0
  6
Continuous
 62
     7
370
    25
100
AcDbSpline
210
0.0
220
0.0
230
1.0
 70
     8
 71
     3
 72
    12
 73
     8
 74
     0
 42
0.000000001
 43
0.00000001
 40
0.0
 40
0.0
 40
0.0
 40
0.0
 40
0.4999999999999921
 40
0.4999999999999921
 40
0.749999999999996
 40
0.749999999999996
 40
1.0
 40
1.0
 40
1.0
 40
1.0
 10
563.6032000401369
 20
104.1316219352311
 30
0.0
 10
563.0911938884321
 20
104.3221162246546
 30
0.0
 10
562.5715163421638
 20
104.443790637717
 30
0.0
 10
561.7717284846013
 20
104.4444468282483
 30
0.0
 10
561.5054045377533
 20
104.4146128264539
 30
0.0
 10
560.9822470347518
 20
104.3056829563463
 30
0.0
 10
560.7237824036036
 20
104.2269877692834
 30
0.0
 10
560.4674603172815
 20
104.1316219352307
 30
0.0
  0
SPLINE
  5
3EA
330
1F
100
AcDbEntity
  8
0
  6
Continuous
 62
     7
370
    25
100
AcDbSpline
210
0.0
220
0.0
230
1.0
 70
     8
 71
     3
 72
     9
 73
     5
 74
     0
 42
0.000000001
 43
0.00000001
 40
0.0
 40
0.0
 40
0.0
 40
0.0
 40
0.3722348086954455
 40
1.0
 40
1.0
 40
1.0
 40
1.0
 10
560.4674603172816
 20
104.1316219352302
 30
0.0
 10
560.4954265509534
 20
104.1835462440037
 30
0.0
 10
560.5705571755442
 20
104.3230396700902
 30
0.0
 10
560.6491010337008
 20
104.3310483961954
 30
0.0
 10
560.6984081338423
 20
104.3360759956708
 30
0.0
  0
LINE
  5
3EB
330
1F
100
AcDbEntity
  8
0
  6
Continuous
 62
     7
370
    25
100
AcDbLine
 10
567.3933501725
 20
104.6463019206
 30
0.0
 11
561.0933501725
 21
104.6463019206
 31
0.0
  0
LINE
  5
3EC
330
1F
100
AcDbEntity
  8
0
  6
Continuous
 62
     7
370
    25
100
AcDbLine
 10
567.3790898953
 20
104.1316219352
 30
0.0
 11
567.3790898953
 21
101.960981906
 31
0.0
  0
SPLINE
  5
3ED
330
1F
100
AcDbEntity
  8
0
  6
Continuous
 62
     7
370
    25
100
AcDbSpline
210
0.0
220
0.0
230
1.0
 70
     8
 71
     3
 72
    12
 73
     8
 74
     0
 42
0.000000001
 43
0.00000001
 40
0.0
 40
0.0
 40
0.0
 40
0.0
 40
0.4999999999999887
 40
0.4999999999999887
 40
0.7499999999999943
 40
0.7499999999999943
 40
1.0
 40
1.0
 40
1.0
 40
1.0
 10
563.6032000401367
 20
101.9609819060012
 30
0.0
 10
564.219730430057
 20
101.7704876165777
 30
0.0
 10
564.8454983025068
 20
101.6488132035153
 30
0.0
 10
565.8085600118917
 20
101.6481570129841
 30
0.0
 10
566.1292530470214
 20
101.6779910147785
 30
0.0
 10
566.7592112970175
 20
101.786920884886
 30
0.0
 10
567.0704405650483
 20
101.8656160719489
 30
0.0
 10
567.3790898953329
 20
101.9609819060017
 30
0.0
  0
LINE
  5
3EE
330
1F
100
AcDbEntity
  8
0
  6
Continuous
 62
     7
370
    25
100
AcDbLine
 10
563.6032000401
 20
104.1316219352
 30
0.0
 11
563.6032000401
 21
101.960981906
 31
0.0
  0
SPLINE
  5
3EF
330
1F
100
AcDbEntity
  8
0
  6
Continuous
 62
     7
370
    25
100
AcDbSpline
210
0.0
220
0.0
230
1.0
 70
     8
 71
     3
 72
     9
 73
     5
 74
     0
 42
0.000000001
 43
0.00000001
 40
0.0
 40
0.0
 40
0.0
 40
0.0
 40
0.6277651913045433
 40
1.0
 40
1.0
 40
1.0
 40
1.0
 10
560.6984081338423
 20
101.7565278455615
 30
0.0
 10
560.6491010337008
 20
101.761555445037
 30
0.0
 10
560.5705571755442
 20
101.7695641711421
 30
0.0
 10
560.4954265509534
 20
101.9090575972286
 30
0.0
 10
560.4674603172815
 20
101.9609819060022
 30
0.0
  0
SPLINE
  5
3F0
330
1F
100
AcDbEntity
  8
0
  6
Continuous
 62
     7
370
    25
100
AcDbSpline
210
0.0
220
0.0
230
1.0
 70
     8
 71
     3
 72
    12
 73
     8
 74
     0
 42
0.000000001
 43
0.00000001
 40
0.0
 40
0.0
 40
0.0
 40
0.0
 40
0.5000000000000078
 40
0.5000000000000078
 40
0.7500000000000039
 40
0.7500000000000039
 40
1.0
 40
1.0
 40
1.0
 40
1.0
 10
560.4674603172815
 20
101.9609819060012
 30
0.0
 10
560.9794664689864
 20
101.7704876165777
 30
0.0
 10
561.4991440152546
 20
101.6488132035153
 30
0.0
 10
562.2989318728172
 20
101.6481570129841
 30
0.0
 10
562.5652558196653
 20
101.6779910147785
 30
0.0
 10
563.0884133226666
 20
101.786920884886
 30
0.0
 10
563.3468779538149
 20
101.8656160719489
 30
0.0
 10
563.6032000401369
 20
101.9609819060017
 30
0.0
  0
SPLINE
  5
3F1
330
1F
100
AcDbEntity
  8
0
  6
Continuous
 62
     7
370
    25
100
AcDbSpline
210
0.0
220
0.0
230
1.0
 70
     8
 71
     3
 72
    14
 73
    10
 74
     0
 42
0.000000001
 43
0.00000001
 40
0.0
 40
0.0
 40
0.0
 40
0.0
 40
0.25
 40
0.25
 40
0.5
 40
0.5
 40
0.75
 40
0.75
 40
1.0
 40
1.0
 40
1.0
 40
1.0
 10
567.3790898953328
 20
101.9609819060022
 30
0.0
 10
567.4311476042237
 20
101.8661072966915
 30
0.0
 10
567.4844811425517
 20
101.7865023718158
 30
0.0
 10
567.5914131501798
 20
101.6776657569216
 30
0.0
 10
567.6451665166273
 20
101.6483421512311
 30
0.0
 10
567.7533455680511
 20
101.6484069329767
 30
0.0
 10
567.808174264639
 20
101.678563126303
 30
0.0
 10
567.915081247299
 20
101.7881483276688
 30
0.0
 10
567.9675027622712
 20
101.8666913014709
 30
0.0
 10
568.0192400276735
 20
101.9609819060022
 30
0.0
  0
LINE
  5
3F2
330
1F
100
AcDbEntity
  8
0
  6
Continuous
 62
     7
370
    25
100
AcDbLine
 10
567.3933501725
 20
101.4463019206
 30
0.0
 11
561.0933501725
 21
101.4463019206
 31
0.0
  0
LINE
  5
3F3
330
1F
100
AcDbEntity
  8
0
  6
Continuous
 62
     7
370
    25
100
AcDbLine
 10
560.4674603173
 20
104.1316219352
 30
0.0
 11
560.4674603173
 21
101.960981906
 31
0.0
  0
LINE
  5
3F4
330
1F
100
AcDbEntity
  8
0
  6
Continuous
 62
     7
370
    25
100
AcDbLine
 10
568.0192400277
 20
104.1316219352
 30
0.0
 11
568.0192400277
 21
101.960981906
 31
0.0
  0
SPLINE
  5
3F5
330
1F
100
AcDbEntity
  8
0
  6
Continuous
 62
     7
370
    25
100
AcDbSpline
210
0.0
220
0.0
230
1.0
 70
     8
 71
     3
 72
    14
 73
    10
 74
     0
 42
0.000000001
 43
0.00000001
 40
0.0
 40
0.0
 40
0.0
 40
0.0
 40
0.25
 40
0.25
 40
0.5
 40
0.5
 40
0.75
 40
0.75
 40
1.0
 40
1.0
 40
1.0
 40
1.0
 10
-15.62091010466715
 20
104.1316219352302
 30
0.0
 10
-15.56885239577627
 20
104.2264965445408
 30
0.0
 10
-15.51551885744828
 20
104.3061014694166
 30
0.0
 10
-15.40858684981999
 20
104.4149380843108
 30
0.0
 10
-15.35483348337258
 20
104.4442616900013
 30
0.0
 10
-15.24665443194884
 20
104.4441969082557
 30
0.0
 10
-15.19182573536088
 20
104.4140407149294
 30
0.0
 10
-15.08491875270113
 20
104.3044555135636
 30
0.0
 10
-15.0324972377287
 20
104.2259125397615
 30
0.0
 10
-14.98075997232656
 20
104.1316219352302
 30
0.0
  0
SPLINE
  5
3F6
330
1F
100
AcDbEntity
  8
0
  6
Continuous
 62
     7
370
    25
100
AcDbSpline
210
0.0
220
0.0
230
1.0
 70
     8
 71
     3
 72
    12
 73
     8
 74
     0
 42
0.000000001
 43
0.00000001
 40
0.0
 40
0.0
 40
0.0
 40
0.0
 40
0.5000000000000171
 40
0.5000000000000171
 40
0.7500000000000085
 40
0.7500000000000085
 40
1.0
 40
1.0
 40
1.0
 40
1.0
 10
-15.62091010466698
 20
104.1316219352312
 30
0.0
 10
-16.23744049458725
 20
104.3221162246547
 30
0.0
 10
-16.86320836703709
 20
104.4437906377171
 30
0.0
 10
-17.8262700764219
 20
104.4444468282483
 30
0.0
 10
-18.14696311155178
 20
104.4146128264539
 30
0.0
 10
-18.77692136154763
 20
104.3056829563463
 30
0.0
 10
-19.08815062957858
 20
104.2269877692835
 30
0.0
 10
-19.39679995986315
 20
104.1316219352307
 30
0.0
  0
SPLINE
  5
3F7
330
1F
100
AcDbEntity
  8
0
  6
Continuous
 62
     7
370
    25
100
AcDbSpline
210
0.0
220
0.0
230
1.0
 70
     8
 71
     3
 72
    12
 73
     8
 74
     0
 42
0.000000001
 43
0.00000001
 40
0.0
 40
0.0
 40
0.0
 40
0.0
 40
0.5000000000000031
 40
0.5000000000000031
 40
0.7500000000000016
 40
0.7500000000000016
 40
1.0
 40
1.0
 40
1.0
 40
1.0
 10
-19.39679995986299
 20
104.1316219352312
 30
0.0
 10
-19.90880611156792
 20
104.3221162246547
 30
0.0
 10
-20.42848365783612
 20
104.4437906377171
 30
0.0
 10
-21.22827151539863
 20
104.4444468282483
 30
0.0
 10
-21.49459546224664
 20
104.4146128264539
 30
0.0
 10
-22.01775296524822
 20
104.3056829563463
 30
0.0
 10
-22.27621759639647
 20
104.2269877692835
 30
0.0
 10
-22.53253968271851
 20
104.1316219352307
 30
0.0
  0
SPLINE
  5
3F8
330
1F
100
AcDbEntity
  8
0
  6
Continuous
 62
     7
370
    25
100
AcDbSpline
210
0.0
220
0.0
230
1.0
 70
     8
 71
     3
 72
     9
 73
     5
 74
     0
 42
0.000000001
 43
0.00000001
 40
0.0
 40
0.0
 40
0.0
 40
0.0
 40
0.3722348086954485
 40
1.0
 40
1.0
 40
1.0
 40
1.0
 10
-22.53253968271845
 20
104.1316219352302
 30
0.0
 10
-22.50457344904677
 20
104.1835462440038
 30
0.0
 10
-22.42944282445597
 20
104.3230396700903
 30
0.0
 10
-22.35089896629927
 20
104.3310483961954
 30
0.0
 10
-22.30159186615771
 20
104.3360759956709
 30
0.0
  0
LINE
  5
3F9
330
1F
100
AcDbEntity
  8
0
  6
Continuous
 62
     7
370
    25
100
AcDbLine
 10
-15.6066498275
 20
104.6463019206
 30
0.0
 11
-21.9066498275
 21
104.6463019206
 31
0.0
  0
LINE
  5
3FA
330
1F
100
AcDbEntity
  8
0
  6
Continuous
 62
     7
370
    25
100
AcDbLine
 10
-15.6209101047
 20
104.1316219352
 30
0.0
 11
-15.6209101047
 21
101.960981906
 31
0.0
  0
SPLINE
  5
3FB
330
1F
100
AcDbEntity
  8
0
  6
Continuous
 62
     7
370
    25
100
AcDbSpline
210
0.0
220
0.0
230
1.0
 70
     8
 71
     3
 72
    12
 73
     8
 74
     0
 42
0.000000001
 43
0.00000001
 40
0.0
 40
0.0
 40
0.0
 40
0.0
 40
0.5000000000000207
 40
0.5000000000000207
 40
0.7500000000000103
 40
0.7500000000000103
 40
1.0
 40
1.0
 40
1.0
 40
1.0
 10
-19.39679995986321
 20
101.9609819060013
 30
0.0
 10
-18.78026956994294
 20
101.7704876165777
 30
0.0
 10
-18.15450169749311
 20
101.6488132035153
 30
0.0
 10
-17.19143998810829
 20
101.6481570129841
 30
0.0
 10
-16.87074695297846
 20
101.6779910147785
 30
0.0
 10
-16.24078870298251
 20
101.7869208848861
 30
0.0
 10
-15.92955943495178
 20
101.865616071949
 30
0.0
 10
-15.6209101046671
 20
101.9609819060017
 30
0.0
  0
LINE
  5
3FC
330
1F
100
AcDbEntity
  8
0
  6
Continuous
 62
     7
370
    25
100
AcDbLine
 10
-19.3967999599
 20
104.1316219352
 30
0.0
 11
-19.3967999599
 21
101.960981906
 31
0.0
  0
SPLINE
  5
3FD
330
1F
100
AcDbEntity
  8
0
  6
Continuous
 62
     7
370
    25
100
AcDbSpline
210
0.0
220
0.0
230
1.0
 70
     8
 71
     3
 72
     9
 73
     5
 74
     0
 42
0.000000001
 43
0.00000001
 40
0.0
 40
0.0
 40
0.0
 40
0.0
 40
0.6277651913045451
 40
1.0
 40
1.0
 40
1.0
 40
1.0
 10
-22.30159186615776
 20
101.7565278455615
 30
0.0
 10
-22.35089896629927
 20
101.761555445037
 30
0.0
 10
-22.42944282445591
 20
101.7695641711422
 30
0.0
 10
-22.50457344904677
 20
101.9090575972287
 30
0.0
 10
-22.53253968271845
 20
101.9609819060022
 30
0.0
  0
SPLINE
  5
3FE
330
1F
100
AcDbEntity
  8
0
  6
Continuous
 62
     7
370
    25
100
AcDbSpline
210
0.0
220
0.0
230
1.0
 70
     8
 71
     3
 72
    12
 73
     8
 74
     0
 42
0.000000001
 43
0.00000001
 40
0.0
 40
0.0
 40
0.0
 40
0.0
 40
0.5000000000000031
 40
0.5000000000000031
 40
0.7500000000000016
 40
0.7500000000000016
 40
1.0
 40
1.0
 40
1.0
 40
1.0
 10
-22.53253968271857
 20
101.9609819060013
 30
0.0
 10
-22.02053353101369
 20
101.7704876165778
 30
0.0
 10
-21.50085598474532
 20
101.6488132035154
 30
0.0
 10
-20.70106812718281
 20
101.6481570129841
 30
0.0
 10
-20.43474418033486
 20
101.6779910147785
 30
0.0
 10
-19.91158667733345
 20
101.7869208848861
 30
0.0
 10
-19.65312204618519
 20
101.865616071949
 30
0.0
 10
-19.39679995986304
 20
101.9609819060017
 30
0.0
  0
SPLINE
  5
3FF
330
1F
100
AcDbEntity
  8
0
  6
Continuous
 62
     7
370
    25
100
AcDbSpline
210
0.0
220
0.0
230
1.0
 70
     8
 71
     3
 72
    14
 73
    10
 74
     0
 42
0.000000001
 43
0.00000001
 40
0.0
 40
0.0
 40
0.0
 40
0.0
 40
0.25
 40
0.25
 40
0.5
 40
0.5
 40
0.75
 40
0.75
 40
1.0
 40
1.0
 40
1.0
 40
1.0
 10
-15.62091010466715
 20
101.9609819060022
 30
0.0
 10
-15.56885239577627
 20
101.8661072966916
 30
0.0
 10
-15.51551885744828
 20
101.7865023718159
 30
0.0
 10
-15.40858684981999
 20
101.6776657569217
 30
0.0
 10
-15.35483348337258
 20
101.6483421512312
 30
0.0
 10
-15.24665443194884
 20
101.6484069329768
 30
0.0
 10
-15.19182573536088
 20
101.6785631263031
 30
0.0
 10
-15.08491875270113
 20
101.7881483276688
 30
0.0
 10
-15.0324972377287
 20
101.866691301471
 30
0.0
 10
-14.98075997232656
 20
101.9609819060022
 30
0.0
  0
LINE
  5
400
330
1F
100
AcDbEntity
  8
0
  6
Continuous
 62
     7
370
    25
100
AcDbLine
 10
-15.6066498275
 20
101.4463019206
 30
0.0
 11
-21.9066498275
 21
101.4463019206
 31
0.0
  0
LINE
  5
401
330
1F
100
AcDbEntity
  8
0
  6
Continuous
 62
     7
370
    25
100
AcDbLine
 10
-22.5325396827
 20
104.1316219352
 30
0.0
 11
-22.5325396827
 21
101.960981906
 31
0.0
  0
LINE
  5
402
330
1F
100
AcDbEntity
  8
0
  6
Continuous
 62
     7
370
    25
100
AcDbLine
 10
-14.9807599723
 20
104.1316219352
 30
0.0
 11
-14.9807599723
 21
101.960981906
 31
0.0
  0
LINE
  5
403
330
1F
100
AcDbEntity
  8
0
  6
Continuous
 62
     7
370
    25
100
AcDbLine
 10
-38.7566498275
 20
100.5463019206
 30
0.0
 11
864.2433501725
 21
100.5463019206
 31
0.0
  0
LINE
  5
404
330
1F
100
AcDbEntity
  8
0
  6
Continuous
 62
     7
370
    25
100
AcDbLine
 10
864.2433501725
 20
100.5463019206
 30
0.0
 11
864.2433501725
 21
98.7463019206
 31
0.0
  0
LINE
  5
405
330
1F
100
AcDbEntity
  8
0
  6
Continuous
 62
     7
370
    25
100
AcDbLine
 10
-38.7566498275
 20
98.7463019206
 30
0.0
 11
-38.7566498275
 21
100.5463019206
 31
0.0
  0
LINE
  5
406
330
1F
100
AcDbEntity
  8
0
  6
Continuous
 62
     7
370
    25
100
AcDbLine
 10
-39.6775800601
 20
88.8463019206
 30
0.0
 11
-38.7566498275
 21
98.7463019206
 31
0.0
  0
LINE
  5
407
330
1F
100
AcDbEntity
  8
0
  6
Continuous
 62
     7
370
    25
100
AcDbLine
 10
864.2433501725
 20
98.7463019206
 30
0.0
 11
865.164280405
 21
88.8463019206
 31
0.0
  0
LINE
  5
408
330
1F
100
AcDbEntity
  8
0
  6
Continuous
 62
     7
370
    25
100
AcDbLine
 10
-39.7566498275
 20
87.9963019206
 30
0.0
 11
-39.6775800601
 21
88.8463019206
 31
0.0
  0
LINE
  5
409
330
1F
100
AcDbEntity
  8
0
  6
Continuous
 62
     7
370
    25
100
AcDbLine
 10
865.164280405
 20
88.8463019206
 30
0.0
 11
865.2433501725
 21
87.9963019206
 31
0.0
  0
LINE
  5
40A
330
1F
100
AcDbEntity
  8
0
  6
Continuous
 62
     7
370
    25
100
AcDbLine
 10
843.9265580143
 20
109.7463019206
 30
0.0
 11
846.2433501725
 21
109.7463019206
 31
0.0
  0
LINE
  5
40B
330
1F
100
AcDbEntity
  8
0
  6
Continuous
 62
     7
370
    25
100
AcDbLine
 10
842.2433501725
 20
109.7463019206
 30
0.0
 11
843.9265580143
 21
109.7463019206
 31
0.0
  0
LINE
  5
40C
330
1F
100
AcDbEntity
  8
0
  6
Continuous
 62
     7
370
    25
100
AcDbLine
 10
260.9265580143
 20
109.7463019206
 30
0.0
 11
263.2433501725
 21
109.7463019206
 31
0.0
  0
LINE
  5
40D
330
1F
100
AcDbEntity
  8
0
  6
Continuous
 62
     7
370
    25
100
AcDbLine
 10
259.2433501725
 20
109.7463019206
 30
0.0
 11
260.9265580143
 21
109.7463019206
 31
0.0
  0
LINE
  5
40E
330
1F
100
AcDbEntity
  8
0
  6
Continuous
 62
     7
370
    25
100
AcDbLine
 10
563.9265580143
 20
109.7463019206
 30
0.0
 11
566.2433501725
 21
109.7463019206
 31
0.0
  0
LINE
  5
40F
330
1F
100
AcDbEntity
  8
0
  6
Continuous
 62
     7
370
    25
100
AcDbLine
 10
562.2433501725
 20
109.7463019206
 30
0.0
 11
563.9265580143
 21
109.7463019206
 31
0.0
  0
LINE
  5
410
330
1F
100
AcDbEntity
  8
0
  6
Continuous
 62
     7
370
    25
100
AcDbLine
 10
-19.0734419857
 20
109.7463019206
 30
0.0
 11
-16.7566498275
 21
109.7463019206
 31
0.0
  0
LINE
  5
411
330
1F
100
AcDbEntity
  8
0
  6
Continuous
 62
     7
370
    25
100
AcDbLine
 10
-20.7566498275
 20
109.7463019206
 30
0.0
 11
-19.0734419857
 21
109.7463019206
 31
0.0
  0
LINE
  5
412
330
1F
100
AcDbEntity
  8
0
  6
Continuous
 62
     7
370
    25
100
AcDbLine
 10
865.7433501725
 20
120.9463019206
 30
0.0
 11
866.7433501725
 21
120.9463019206
 31
0.0
  0
LINE
  5
413
330
1F
100
AcDbEntity
  8
0
  6
Continuous
 62
     7
370
    25
100
AcDbLine
 10
866.7433501725
 20
120.9463019206
 30
0.0
 11
866.7433501725
 21
118.9463019206
 31
0.0
  0
LINE
  5
414
330
1F
100
AcDbEntity
  8
0
  6
Continuous
 62
     7
370
    25
100
AcDbLine
 10
864.7433501725
 20
102.5463019206
 30
0.0
 11
864.7433501725
 21
93.3713019206
 31
0.0
  0
LINE
  5
415
330
1F
100
AcDbEntity
  8
0
  6
Continuous
 62
     7
370
    25
100
AcDbLine
 10
866.7433501725
 20
118.9463019206
 30
0.0
 11
866.7433501725
 21
116.0463019206
 31
0.0
  0
LINE
  5
416
330
1F
100
AcDbEntity
  8
0
  6
Continuous
 62
     7
370
    25
100
AcDbLine
 10
866.7433501725
 20
110.0463019206
 30
0.0
 11
866.7433501725
 21
89.9463019206
 31
0.0
  0
LINE
  5
417
330
1F
100
AcDbEntity
  8
0
  6
Continuous
 62
     7
370
    25
100
AcDbLine
 10
866.7416830426
 20
89.8463019206
 30
0.0
 11
866.7433501725
 21
89.9463019206
 31
0.0
  0
LINE
  5
418
330
1F
100
AcDbEntity
  8
0
  6
Continuous
 62
     7
370
    25
100
AcDbLine
 10
866.8036575517
 20
120.9463019206
 30
0.0
 11
866.7433501725
 21
120.9463019206
 31
0.0
  0
LINE
  5
419
330
1F
100
AcDbEntity
  8
0
  6
Continuous
 62
     7
370
    25
100
AcDbLine
 10
866.7433501725
 20
104.9463019206
 30
0.0
 11
866.8036575517
 21
104.9463019206
 31
0.0
  0
LINE
  5
41A
330
1F
100
AcDbEntity
  8
0
  6
Continuous
 62
     7
370
    25
100
AcDbLine
 10
866.8036575517
 20
120.9463019206
 30
0.0
 11
868.674856274
 21
120.9463019206
 31
0.0
  0
LWPOLYLINE
  5
41B
330
1F
100
AcDbEntity
  8
0
  6
Continuous
 62
     7
370
    25
100
AcDbPolyline
 90
        9
 70
   128
 43
0.0
 10
869.3588965607
 20
118.9463019206
 10
869.3457529184
 20
119.3364825646
 10
869.3068270943
 20
119.7116687853
 10
869.2436149859
 20
120.0574423867
 10
869.1585457993
 20
120.360515483
 10
869.0548886955
 20
120.6092411452
 10
868.9366271588
 20
120.7940609856
 10
868.8083059138
 20
120.9078724814
 10
868.674856274
 20
120.9463019206
  0
LINE
  5
41C
330
1F
100
AcDbEntity
  8
0
  6
Continuous
 62
     7
370
    25
100
AcDbLine
 10
869.3588965607
 20
118.9463019206
 30
0.0
 11
869.3588965607
 21
116.0463019206
 31
0.0
  0
LINE
  5
41D
330
1F
100
AcDbEntity
  8
0
  6
Continuous
 62
     7
370
    25
100
AcDbLine
 10
869.3588965607
 20
110.0463019206
 30
0.0
 11
869.3588965607
 21
106.9463019206
 31
0.0
  0
LWPOLYLINE
  5
41E
330
1F
100
AcDbEntity
  8
0
  6
Continuous
 62
     7
370
    25
100
AcDbPolyline
 90
        9
 70
   128
 43
0.0
 10
868.674856274
 20
104.9463019206
 10
868.8083059138
 20
104.9847313598
 10
868.9366271588
 20
105.0985428556
 10
869.0548886955
 20
105.283362696
 10
869.1585457993
 20
105.5320883582
 10
869.2436149859
 20
105.8351614546
 10
869.3068270943
 20
106.1809350559
 10
869.3457529184
 20
106.5561212766
 10
869.3588965607
 20
106.9463019206
  0
LINE
  5
41F
330
1F
100
AcDbEntity
  8
0
  6
Continuous
 62
     7
370
    25
100
AcDbLine
 10
868.674856274
 20
104.9463019206
 30
0.0
 11
866.8036575517
 21
104.9463019206
 31
0.0
  0
LINE
  5
420
330
1F
100
AcDbEntity
  8
0
  6
Continuous
 62
     7
370
    25
100
AcDbLine
 10
-41.2566498275
 20
120.9463019206
 30
0.0
 11
-40.2566498275
 21
120.9463019206
 31
0.0
  0
LINE
  5
421
330
1F
100
AcDbEntity
  8
0
  6
Continuous
 62
     7
370
    25
100
AcDbLine
 10
-41.2566498275
 20
118.9463019206
 30
0.0
 11
-41.2566498275
 21
120.9463019206
 31
0.0
  0
LINE
  5
422
330
1F
100
AcDbEntity
  8
0
  6
Continuous
 62
     7
370
    25
100
AcDbLine
 10
-39.2566498275
 20
93.3713019206
 30
0.0
 11
-39.2566498275
 21
102.5463019206
 31
0.0
  0
LINE
  5
423
330
1F
100
AcDbEntity
  8
0
  6
Continuous
 62
     7
370
    25
100
AcDbLine
 10
-41.2566498275
 20
89.9463019206
 30
0.0
 11
-41.2566498275
 21
110.0463019206
 31
0.0
  0
LINE
  5
424
330
1F
100
AcDbEntity
  8
0
  6
Continuous
 62
     7
370
    25
100
AcDbLine
 10
-41.2566498275
 20
116.0463019206
 30
0.0
 11
-41.2566498275
 21
118.9463019206
 31
0.0
  0
LINE
  5
425
330
1F
100
AcDbEntity
  8
0
  6
Continuous
 62
     7
370
    25
100
AcDbLine
 10
-41.2566498275
 20
89.9463019206
 30
0.0
 11
-41.2549826976
 21
89.8463019206
 31
0.0
  0
LINE
  5
426
330
1F
100
AcDbEntity
  8
0
  6
Continuous
 62
     7
370
    25
100
AcDbLine
 10
-41.3169572067
 20
104.9463019206
 30
0.0
 11
-41.2566498275
 21
104.9463019206
 31
0.0
  0
LINE
  5
427
330
1F
100
AcDbEntity
  8
0
  6
Continuous
 62
     7
370
    25
100
AcDbLine
 10
-41.2566498275
 20
120.9463019206
 30
0.0
 11
-41.3169572067
 21
120.9463019206
 31
0.0
  0
LWPOLYLINE
  5
428
330
1F
100
AcDbEntity
  8
0
  6
Continuous
 62
     7
370
    25
100
AcDbPolyline
 90
        9
 70
   128
 43
0.0
 10
-43.188155929
 20
120.9463019206
 10
-43.3216055688
 20
120.9078724814
 10
-43.4499268138
 20
120.7940609856
 10
-43.5681883505
 20
120.6092411452
 10
-43.6718454543
 20
120.360515483
 10
-43.756914641
 20
120.0574423867
 10
-43.8201267493
 20
119.7116687854
 10
-43.8590525734
 20
119.3364825647
 10
-43.8721962157
 20
118.9463019206
  0
LINE
  5
429
330
1F
100
AcDbEntity
  8
0
  6
Continuous
 62
     7
370
    25
100
AcDbLine
 10
-43.188155929
 20
120.9463019206
 30
0.0
 11
-41.3169572067
 21
120.9463019206
 31
0.0
  0
LINE
  5
42A
330
1F
100
AcDbEntity
  8
0
  6
Continuous
 62
     7
370
    25
100
AcDbLine
 10
-41.3169572067
 20
104.9463019206
 30
0.0
 11
-43.188155929
 21
104.9463019206
 31
0.0
  0
LWPOLYLINE
  5
42B
330
1F
100
AcDbEntity
  8
0
  6
Continuous
 62
     7
370
    25
100
AcDbPolyline
 90
        9
 70
   128
 43
0.0
 10
-43.8721962157
 20
106.9463019206
 10
-43.8590525734
 20
106.5561212766
 10
-43.8201267493
 20
106.1809350559
 10
-43.756914641
 20
105.8351614546
 10
-43.6718454543
 20
105.5320883582
 10
-43.5681883505
 20
105.283362696
 10
-43.4499268138
 20
105.0985428556
 10
-43.3216055688
 20
104.9847313598
 10
-43.188155929
 20
104.9463019206
  0
LINE
  5
42C
330
1F
100
AcDbEntity
  8
0
  6
Continuous
 62
     7
370
    25
100
AcDbLine
 10
-43.8721962157
 20
106.9463019206
 30
0.0
 11
-43.8721962157
 21
110.0463019206
 31
0.0
  0
LINE
  5
42D
330
1F
100
AcDbEntity
  8
0
  6
Continuous
 62
     7
370
    25
100
AcDbLine
 10
-43.8721962157
 20
116.0463019206
 30
0.0
 11
-43.8721962157
 21
118.9463019206
 31
0.0
  0
SPLINE
  5
42E
330
1F
100
AcDbEntity
  8
0
  6
Continuous
 62
     7
370
    25
100
AcDbSpline
210
0.0
220
0.0
230
1.0
 70
    24
 71
     3
 72
     9
 73
     5
 74
     0
 42
0.000000001
 43
0.00000001
 40
0.0
 40
0.0
 40
0.0
 40
0.0
 40
0.7059102712400801
 40
1.0
 40
1.0
 40
1.0
 40
1.0
 10
-39.45664982752256
 20
118.8195507300062
 30
0.0
 10
-39.4566498275225
 20
118.8298034993028
 30
0.0
 10
-39.45664982752256
 20
118.8443276813614
 30
0.0
 10
-39.45664982752256
 20
118.7492757247531
 30
0.0
 10
-39.45664982752256
 20
118.7213219206161
 30
0.0
  0
SPLINE
  5
42F
330
1F
100
AcDbEntity
  8
0
  6
Continuous
 62
     7
370
    25
100
AcDbSpline
210
0.0
220
0.0
230
1.0
 70
    24
 71
     3
 72
    12
 73
     8
 74
     0
 42
0.000000001
 43
0.00000001
 40
0.0
 40
0.0
 40
0.0
 40
0.0
 40
0.3344405486782615
 40
0.5144757571369845
 40
0.6983315710265336
 40
0.8821873849160836
 40
1.0
 40
1.0
 40
1.0
 40
1.0
 10
-38.45664982752256
 20
115.5526092256727
 30
0.0
 10
-38.45664982752262
 20
116.1767547611746
 30
0.0
 10
-38.45664982752262
 20
117.1368887766522
 30
0.0
 10
-38.45664982752262
 20
118.0447996829475
 30
0.0
 10
-38.45664982752245
 20
118.5505170208636
 30
0.0
 10
-38.45664982752262
 20
118.8221367550018
 30
0.0
 10
-38.45664982752239
 20
118.8202770235421
 30
0.0
 10
-38.45664982752256
 20
118.8195507300172
 30
0.0
  0
SPLINE
  5
430
330
1F
100
AcDbEntity
  8
0
  6
Continuous
 62
     7
370
    25
100
AcDbSpline
210
0.0
220
0.0
230
1.0
 70
    24
 71
     3
 72
    15
 73
    11
 74
     0
 42
0.000000001
 43
0.00000001
 40
0.0
 40
0.0
 40
0.0
 40
0.0
 40
0.0346967497918661
 40
0.2211884951269648
 40
0.4076802404620641
 40
0.5080720152630789
 40
0.6105942475634828
 40
0.7131164798638868
 40
0.8135082546649011
 40
1.0
 40
1.0
 40
1.0
 40
1.0
 10
-38.45664982752256
 20
107.2730531112115
 30
0.0
 10
-38.45664982752256
 20
107.26633200758
 30
0.0
 10
-38.45664982752272
 20
107.2234856082273
 30
0.0
 10
-38.4566498275225
 20
107.7115265709857
 30
0.0
 10
-38.45664982752239
 20
108.8074376284543
 30
0.0
 10
-38.45664982752256
 20
110.0263347609018
 30
0.0
 10
-38.45664982752256
 20
111.1065099887587
 30
0.0
 10
-38.45664982752262
 20
112.2669868912244
 30
0.0
 10
-38.45664982752239
 20
113.7975617863395
 30
0.0
 10
-38.4566498275225
 20
114.8611876749896
 30
0.0
 10
-38.45664982752256
 20
115.5526092256727
 30
0.0
  0
LINE
  5
431
330
1F
100
AcDbEntity
  8
0
  6
Continuous
 62
     7
370
    25
100
AcDbLine
 10
-34.4566498275
 20
112.6629068929
 30
0.0
 11
-34.4566498275
 21
117.1719827999
 31
0.0
  0
SPLINE
  5
432
330
1F
100
AcDbEntity
  8
0
  6
Continuous
 62
     7
370
    25
100
AcDbSpline
210
0.0
220
0.0
230
1.0
 70
     8
 71
     3
 72
     8
 73
     4
 74
     0
 42
0.000000001
 43
0.00000001
 40
0.0
 40
0.0
 40
0.0
 40
0.0
 40
1.0
 40
1.0
 40
1.0
 40
1.0
 10
-34.45664982752955
 20
112.6629068929279
 30
0.0
 10
-34.45664982752955
 20
113.6452853375006
 30
0.0
 10
-34.63096512790897
 20
114.6007765056904
 30
0.0
 10
-34.90323181492094
 20
115.5411591550179
 30
0.0
  0
SPLINE
  5
433
330
1F
100
AcDbEntity
  8
0
  6
Continuous
 62
     7
370
    25
100
AcDbSpline
210
0.0
220
0.0
230
1.0
 70
     8
 71
     3
 72
     8
 73
     4
 74
     0
 42
0.000000001
 43
0.00000001
 40
0.0
 40
0.0
 40
0.0
 40
0.0
 40
1.0
 40
1.0
 40
1.0
 40
1.0
 10
-34.90323181492106
 20
115.541159155024
 30
0.0
 10
-34.63096512790964
 20
116.0739818960889
 30
0.0
 10
-34.45664982752972
 20
116.6153651549835
 30
0.0
 10
-34.45664982752972
 20
117.1719827999119
 30
0.0
  0
SPLINE
  5
434
330
1F
100
AcDbEntity
  8
0
  6
Continuous
 62
     7
370
    25
100
AcDbSpline
210
0.0
220
0.0
230
1.0
 70
     8
 71
     3
 72
     8
 73
     4
 74
     0
 42
0.000000001
 43
0.00000001
 40
0.0
 40
0.0
 40
0.0
 40
0.0
 40
1.0
 40
1.0
 40
1.0
 40
1.0
 10
-34.90323181492089
 20
109.7846546308379
 30
0.0
 10
-34.63096512790948
 20
110.7250372801637
 30
0.0
 10
-34.45664982752955
 20
111.6805284483569
 30
0.0
 10
-34.45664982752955
 20
112.6629068929279
 30
0.0
  0
LINE
  5
435
330
1F
100
AcDbEntity
  8
0
  6
Continuous
 62
     7
370
    25
100
AcDbLine
 10
-38.4566498275
 20
109.7846546308
 30
0.0
 11
-34.9032318149
 21
109.7846546308
 31
0.0
  0
LINE
  5
436
330
1F
100
AcDbEntity
  8
0
  6
Continuous
 62
     7
370
    25
100
AcDbLine
 10
-38.4566498275
 20
115.541159155
 30
0.0
 11
-34.9032318149
 21
115.541159155
 31
0.0
  0
LINE
  5
437
330
1F
100
AcDbEntity
  8
0
  6
Continuous
 62
     7
370
    25
100
AcDbLine
 10
-34.4566498275
 20
108.5372260136
 30
0.0
 11
-34.4566498275
 21
112.6629068929
 31
0.0
  0
SPLINE
  5
438
330
1F
100
AcDbEntity
  8
0
  6
Continuous
 62
     7
370
    25
100
AcDbSpline
210
0.0
220
0.0
230
1.0
 70
     8
 71
     3
 72
     8
 73
     4
 74
     0
 42
0.000000001
 43
0.00000001
 40
0.0
 40
0.0
 40
0.0
 40
0.0
 40
1.0
 40
1.0
 40
1.0
 40
1.0
 10
-34.45664982752972
 20
108.5372260136303
 30
0.0
 10
-34.45664982752972
 20
108.9629868132735
 30
0.0
 10
-34.63096512790914
 20
109.3770947225706
 30
0.0
 10
-34.903231814921
 20
109.7846546308323
 30
0.0
  0
SPLINE
  5
439
330
1F
100
AcDbEntity
  8
0
  6
Continuous
 62
     7
370
    25
100
AcDbSpline
210
0.0
220
0.0
230
1.0
 70
     8
 71
     3
 72
     8
 73
     4
 74
     0
 42
0.000000001
 43
0.00000001
 40
0.0
 40
0.0
 40
0.0
 40
0.0
 40
1.0
 40
1.0
 40
1.0
 40
1.0
 10
-34.45664982752972
 20
117.1719827999119
 30
0.0
 10
-34.45664982752972
 20
117.7286004448414
 30
0.0
 10
-34.63096512790914
 20
118.269983703734
 30
0.0
 10
-34.90323181492106
 20
118.8028064447998
 30
0.0
  0
LINE
  5
43A
330
1F
100
AcDbEntity
  8
0
  6
Continuous
 62
     7
370
    25
100
AcDbLine
 10
-38.4566498275
 20
118.8028064448
 30
0.0
 11
-34.9032318149
 21
118.8028064448
 31
0.0
  0
SPLINE
  5
43B
330
1F
100
AcDbEntity
  8
0
  6
Continuous
 62
     7
370
    25
100
AcDbSpline
210
0.0
220
0.0
230
1.0
 70
     8
 71
     3
 72
     8
 73
     4
 74
     0
 42
0.000000001
 43
0.00000001
 40
0.0
 40
0.0
 40
0.0
 40
0.0
 40
1.0
 40
1.0
 40
1.0
 40
1.0
 10
-34.903231814921
 20
107.2897973964283
 30
0.0
 10
-34.63096512790953
 20
107.6973573046894
 30
0.0
 10
-34.45664982752972
 20
108.1114652139877
 30
0.0
 10
-34.45664982752972
 20
108.5372260136303
 30
0.0
  0
LINE
  5
43C
330
1F
100
AcDbEntity
  8
0
  6
Continuous
 62
     7
370
    25
100
AcDbLine
 10
-34.9032318149
 20
107.2897973964
 30
0.0
 11
-38.4566498275
 21
107.2897973964
 31
0.0
  0
LINE
  5
43D
330
1F
100
AcDbEntity
  8
0
  6
Continuous
 62
     7
370
    25
100
AcDbLine
 10
-48.9153998275
 20
110.3408563764
 30
0.0
 11
-48.9153998275
 21
110.0463019206
 31
0.0
  0
LINE
  5
43E
330
1F
100
AcDbEntity
  8
0
  6
Continuous
 62
     7
370
    25
100
AcDbLine
 10
-48.9153998275
 20
116.0463019206
 30
0.0
 11
-48.9153998275
 21
110.3408563764
 31
0.0
  0
LINE
  5
43F
330
1F
100
AcDbEntity
  8
0
  6
Continuous
 62
     7
370
    25
100
AcDbLine
 10
-49.4566498275
 20
115.5050519206
 30
0.0
 11
-49.4566498275
 21
110.5875519206
 31
0.0
  0
LINE
  5
440
330
1F
100
AcDbEntity
  8
0
  6
Continuous
 62
     7
370
    25
100
AcDbLine
 10
-34.9032318149
 20
118.8028064448
 30
0.0
 11
-34.8280440594
 21
118.592785977
 31
0.0
  0
LINE
  5
441
330
1F
100
AcDbEntity
  8
0
  6
Continuous
 62
     7
370
    25
100
AcDbLine
 10
-34.4566498275
 20
117.1719827999
 30
0.0
 11
-34.4566498275
 21
118.0463019206
 31
0.0
  0
LINE
  5
442
330
1F
100
AcDbEntity
  8
0
  6
Continuous
 62
     7
370
    25
100
AcDbLine
 10
-34.4566498275
 20
108.0463019206
 30
0.0
 11
-34.4566498275
 21
108.5372260136
 31
0.0
  0
ARC
  5
443
330
1F
100
AcDbEntity
  8
0
  6
Continuous
 62
     7
370
    25
100
AcDbCircle
 10
-47.7566498275
 20
83.8463019206
 30
0.0
 40
6.000000000000114
100
AcDbArc
 50
90.0
 51
143.1301023542
  0
ARC
  5
444
330
1F
100
AcDbEntity
  8
0
  6
Continuous
 62
     7
370
    25
100
AcDbCircle
 10
873.2433501725
 20
83.8463019206
 30
0.0
 40
6.0
100
AcDbArc
 50
36.8698976458
 51
90.0
  0
LINE
  5
445
330
1F
100
AcDbEntity
  8
0
  6
Continuous
 62
     7
370
    25
100
AcDbLine
 10
-163.9224132819
 20
347.6075204992
 30
0.0
 11
-164.2853510603
 21
346.9788938271
 31
0.0
  0
LINE
  5
446
330
1F
100
AcDbEntity
  8
0
  6
Continuous
 62
     7
370
    25
100
AcDbLine
 10
-164.2853510603
 20
340.6788938271
 30
0.0
 11
-163.9224132819
 21
340.050267155
 31
0.0
  0
LINE
  5
447
330
1F
100
AcDbEntity
  8
0
  6
Continuous
 62
     7
370
    25
100
AcDbLine
 10
-165.9853510603
 20
347.8288938271
 30
0.0
 11
-167.9853510603
 21
347.8288938271
 31
0.0
  0
LINE
  5
448
330
1F
100
AcDbEntity
  8
0
  6
Continuous
 62
     7
370
    25
100
AcDbLine
 10
-167.9853510603
 20
339.8288938271
 30
0.0
 11
-165.9853510603
 21
339.8288938271
 31
0.0
  0
ARC
  5
449
330
1F
100
AcDbEntity
  8
0
  6
Continuous
 62
     7
370
    25
100
AcDbCircle
 10
-161.05714783
 20
343.8288938271
 30
0.0
 40
7.999999999999992
100
AcDbArc
 50
195.2747479997
 51
210.0
  0
ARC
  5
44A
330
1F
100
AcDbEntity
  8
0
  6
Continuous
 62
     7
370
    25
100
AcDbCircle
 10
-161.05714783
 20
343.8288938271
 30
0.0
 40
7.999999999999964
100
AcDbArc
 50
150.0
 51
164.7252520003
  0
LINE
  5
44B
330
1F
100
AcDbEntity
  8
0
  6
Continuous
 62
     7
370
    25
100
AcDbLine
 10
-164.2853510603
 20
345.8288938271
 30
0.0
 11
-164.3853510603
 21
345.8288938271
 31
0.0
  0
LINE
  5
44C
330
1F
100
AcDbEntity
  8
0
  6
Continuous
 62
     7
370
    25
100
AcDbLine
 10
-164.3853510603
 20
341.8288938271
 30
0.0
 11
-164.2853510603
 21
341.8288938271
 31
0.0
  0
CIRCLE
  5
44D
330
1F
100
AcDbEntity
  8
0
  6
Continuous
 62
     7
370
    25
100
AcDbCircle
 10
-152.6853510603
 20
242.8288938271
 30
0.0
 40
2.458750000016587
  0
CIRCLE
  5
44E
330
1F
100
AcDbEntity
  8
0
  6
Continuous
 62
     7
370
    25
100
AcDbCircle
 10
-152.6853510603
 20
242.8288938271
 30
0.0
 40
2.999999999999999
  0
CIRCLE
  5
44F
330
1F
100
AcDbEntity
  8
0
  6
Continuous
 62
     7
370
    25
100
AcDbCircle
 10
-152.6853510603
 20
368.8288938271
 30
0.0
 40
2.458750000016613
  0
CIRCLE
  5
450
330
1F
100
AcDbEntity
  8
0
  6
Continuous
 62
     7
370
    25
100
AcDbCircle
 10
-152.6853510603
 20
368.8288938271
 30
0.0
 40
3.000000000000003
  0
LINE
  5
451
330
1F
100
AcDbEntity
  8
0
  6
Continuous
 62
     7
370
    25
100
AcDbLine
 10
-180.8853510603
 20
339.358183149
 30
0.0
 11
-171.2853510603
 21
339.358183149
 31
0.0
  0
LINE
  5
452
330
1F
100
AcDbEntity
  8
0
  6
Continuous
 62
     7
370
    25
100
AcDbLine
 10
-180.8853510603
 20
196.2996045052
 30
0.0
 11
-171.2853510603
 21
196.2996045052
 31
0.0
  0
LINE
  5
453
330
1F
100
AcDbEntity
  8
0
  6
Continuous
 62
     7
370
    25
100
AcDbLine
 10
-171.2853510603
 20
196.2996045052
 30
0.0
 11
-171.2853510603
 21
339.358183149
 31
0.0
  0
SPLINE
  5
454
330
1F
100
AcDbEntity
  8
0
  6
Continuous
 62
     7
370
    25
100
AcDbSpline
210
0.0
220
0.0
230
1.0
 70
     8
 71
     3
 72
    20
 73
    16
 74
     0
 42
0.000000001
 43
0.00000001
 40
0.0
 40
0.0
 40
0.0
 40
0.0
 40
0.1249999999999993
 40
0.1249999999999993
 40
0.2499999999999987
 40
0.2499999999999987
 40
0.374999999999998
 40
0.374999999999998
 40
0.4999999999999973
 40
0.4999999999999973
 40
0.7499999999999987
 40
0.7499999999999987
 40
0.8749999999999993
 40
0.8749999999999993
 40
1.0
 40
1.0
 40
1.0
 40
1.0
 10
-180.8853510602858
 20
196.2996045052113
 30
0.0
 10
-181.0437302479365
 20
196.3386452360659
 30
0.0
 10
-181.1999759726281
 20
196.3771639402657
 30
0.0
 10
-181.5079678220447
 20
196.4545706915736
 30
0.0
 10
-181.6606119295159
 20
196.4937151095603
 30
0.0
 10
-181.9496962187029
 20
196.5708658634755
 30
0.0
 10
-182.087500756887
 20
196.6091934452165
 30
0.0
 10
-182.3491194325259
 20
196.6867397656931
 30
0.0
 10
-182.4718657392085
 20
196.7257159733618
 30
0.0
 10
-182.8031901161562
 20
196.8412108298068
 30
0.0
 10
-182.9822012401845
 20
196.9191232734769
 30
0.0
 10
-183.1618163395654
 20
197.0346031988777
 30
0.0
 10
-183.2080606884331
 20
197.0734689947428
 30
0.0
 10
-183.2698139944443
 20
197.1512433284113
 30
0.0
 10
-183.2853510602858
 20
197.189853095366
 30
0.0
 10
-183.2853510602858
 20
197.2288938270927
 30
0.0
  0
LINE
  5
455
330
1F
100
AcDbEntity
  8
0
  6
Continuous
 62
     7
370
    25
100
AcDbLine
 10
-183.2853510603
 20
197.2288938271
 30
0.0
 11
-183.2853510603
 21
338.4288938271
 31
0.0
  0
SPLINE
  5
456
330
1F
100
AcDbEntity
  8
0
  6
Continuous
 62
     7
370
    25
100
AcDbSpline
210
0.0
220
0.0
230
1.0
 70
     8
 71
     3
 72
    20
 73
    16
 74
     0
 42
0.000000001
 43
0.00000001
 40
0.0
 40
0.0
 40
0.0
 40
0.0
 40
0.1249999999999952
 40
0.1249999999999952
 40
0.2499999999999905
 40
0.2499999999999905
 40
0.3749999999999857
 40
0.3749999999999857
 40
0.4999999999999809
 40
0.4999999999999809
 40
0.7499999999999984
 40
0.7499999999999984
 40
0.8749999999999992
 40
0.8749999999999992
 40
1.0
 40
1.0
 40
1.0
 40
1.0
 10
-183.2853510602858
 20
338.4288938270925
 30
0.0
 10
-183.2853510602858
 20
338.467934557947
 30
0.0
 10
-183.2698144998109
 20
338.5064532621469
 30
0.0
 10
-183.2084961478503
 20
338.5838600134548
 30
0.0
 10
-183.1620724022634
 20
338.6230044314415
 30
0.0
 10
-183.0421215321093
 20
338.7001551853567
 30
0.0
 10
-182.9685168878259
 20
338.7384827670977
 30
0.0
 10
-182.7937865217303
 20
338.8160290875742
 30
0.0
 10
-182.6929358928287
 20
338.8550052952429
 30
0.0
 10
-182.3616506128448
 20
338.9705001516879
 30
0.0
 10
-182.0939704514609
 20
339.0484125953581
 30
0.0
 10
-181.6612964254055
 20
339.163892520759
 30
0.0
 10
-181.5097783385544
 20
339.202758316624
 30
0.0
 10
-181.2003525811683
 20
339.2805326502926
 30
0.0
 10
-181.0437302514745
 20
339.3191424172472
 30
0.0
 10
-180.8853510602858
 20
339.3581831489739
 30
0.0
  0
LINE
  5
457
330
1F
100
AcDbEntity
  8
0
  6
Continuous
 62
     7
370
    25
100
AcDbLine
 10
-180.8853510603
 20
340.8288938271
 30
0.0
 11
-180.8853510603
 21
339.4288938271
 31
0.0
  0
SPLINE
  5
458
330
1F
100
AcDbEntity
  8
0
  6
Continuous
 62
     7
370
    25
100
AcDbSpline
210
0.0
220
0.0
230
1.0
 70
     8
 71
     3
 72
     9
 73
     5
 74
     0
 42
0.000000001
 43
0.00000001
 40
0.0
 40
0.0
 40
0.0
 40
0.0
 40
0.758455821437617
 40
1.0
 40
1.0
 40
1.0
 40
1.0
 10
-180.8853510602858
 20
339.4288938270925
 30
0.0
 10
-181.037058838222
 20
339.417839291259
 30
0.0
 10
-181.2370807427921
 20
339.4032642355722
 30
0.0
 10
-181.3876348341836
 20
339.2801678519725
 30
0.0
 10
-181.4240002985179
 20
339.2504346371119
 30
0.0
  0
SPLINE
  5
459
330
1F
100
AcDbEntity
  8
0
  6
Continuous
 62
     7
370
    25
100
AcDbSpline
210
0.0
220
0.0
230
1.0
 70
     8
 71
     3
 72
    20
 73
    16
 74
     0
 42
0.000000001
 43
0.00000001
 40
0.0
 40
0.0
 40
0.0
 40
0.0
 40
0.1250000000000014
 40
0.1250000000000014
 40
0.2500000000000027
 40
0.2500000000000027
 40
0.3750000000000041
 40
0.3750000000000041
 40
0.5000000000000053
 40
0.5000000000000053
 40
0.7500000000000079
 40
0.7500000000000079
 40
0.875000000000004
 40
0.875000000000004
 40
1.0
 40
1.0
 40
1.0
 40
1.0
 10
-180.8853510602858
 20
340.8288938270925
 30
0.0
 10
-181.0437302479365
 20
340.8288938270925
 30
0.0
 10
-181.1999759726281
 20
340.8133572666176
 30
0.0
 10
-181.5079678220447
 20
340.752038914657
 30
0.0
 10
-181.6606119295159
 20
340.7056151690701
 30
0.0
 10
-181.9496962187029
 20
340.5856642989161
 30
0.0
 10
-182.087500756887
 20
340.5120596546327
 30
0.0
 10
-182.3491194325258
 20
340.337329288537
 30
0.0
 10
-182.4718657392085
 20
340.2364786596355
 30
0.0
 10
-182.8031901161562
 20
339.9051933796515
 30
0.0
 10
-182.9822012401844
 20
339.6375132182678
 30
0.0
 10
-183.1618163395653
 20
339.2048391922124
 30
0.0
 10
-183.208060688433
 20
339.0533211053612
 30
0.0
 10
-183.2698139944443
 20
338.7438953479751
 30
0.0
 10
-183.2853510602857
 20
338.5872730182813
 30
0.0
 10
-183.2853510602857
 20
338.4288938270926
 30
0.0
  0
SPLINE
  5
45A
330
1F
100
AcDbEntity
  8
0
  6
Continuous
 62
     7
370
    25
100
AcDbSpline
210
0.0
220
0.0
230
1.0
 70
     8
 71
     3
 72
    20
 73
    16
 74
     0
 42
0.000000001
 43
0.00000001
 40
0.0
 40
0.0
 40
0.0
 40
0.0
 40
0.1249999999999993
 40
0.1249999999999993
 40
0.2499999999999987
 40
0.2499999999999987
 40
0.374999999999998
 40
0.374999999999998
 40
0.4999999999999973
 40
0.4999999999999973
 40
0.7499999999999989
 40
0.7499999999999989
 40
0.8749999999999996
 40
0.8749999999999996
 40
1.0
 40
1.0
 40
1.0
 40
1.0
 10
-183.2853510602857
 20
197.2288938270928
 30
0.0
 10
-183.2853510602857
 20
197.0705146394421
 30
0.0
 10
-183.2698144998108
 20
196.9142689147503
 30
0.0
 10
-183.2084961478503
 20
196.6062770653337
 30
0.0
 10
-183.1620724022634
 20
196.4536329578626
 30
0.0
 10
-183.0421215321093
 20
196.1645486686755
 30
0.0
 10
-182.9685168878259
 20
196.0267441304914
 30
0.0
 10
-182.7937865217303
 20
195.7651254548526
 30
0.0
 10
-182.6929358928287
 20
195.6423791481699
 30
0.0
 10
-182.3616506128448
 20
195.3110547712222
 30
0.0
 10
-182.0939704514609
 20
195.1320436471939
 30
0.0
 10
-181.6612964254055
 20
194.952428547813
 30
0.0
 10
-181.5097783385544
 20
194.9061841989453
 30
0.0
 10
-181.2003525811683
 20
194.8444308929341
 30
0.0
 10
-181.0437302514745
 20
194.8288938270927
 30
0.0
 10
-180.8853510602858
 20
194.8288938270927
 30
0.0
  0
SPLINE
  5
45B
330
1F
100
AcDbEntity
  8
0
  6
Continuous
 62
     7
370
    25
100
AcDbSpline
210
0.0
220
0.0
230
1.0
 70
     8
 71
     3
 72
     9
 73
     5
 74
     0
 42
0.000000001
 43
0.00000001
 40
0.0
 40
0.0
 40
0.0
 40
0.0
 40
0.4258694941520607
 40
0.9999999999999999
 40
0.9999999999999999
 40
0.9999999999999999
 40
0.9999999999999999
 10
-181.4417424872947
 20
196.4189723897698
 30
0.0
 10
-181.3713383106899
 20
196.3690507649253
 30
0.0
 10
-181.2060196448274
 20
196.2518279407269
 30
0.0
 10
-181.0023080825711
 20
196.2372585555653
 30
0.0
 10
-180.8853510602858
 20
196.2288938270927
 30
0.0
  0
LINE
  5
45C
330
1F
100
AcDbEntity
  8
0
  6
Continuous
 62
     7
370
    25
100
AcDbLine
 10
-180.8853510603
 20
194.8288938271
 30
0.0
 11
-180.8853510603
 21
196.2288938271
 31
0.0
  0
LINE
  5
45D
330
1F
100
AcDbEntity
  8
0
  6
Continuous
 62
     7
370
    25
100
AcDbLine
 10
-180.8853510603
 20
340.8288938271
 30
0.0
 11
-171.2853510603
 21
340.8288938271
 31
0.0
  0
LINE
  5
45E
330
1F
100
AcDbEntity
  8
0
  6
Continuous
 62
     7
370
    25
100
AcDbLine
 10
-180.8853510603
 20
339.4288938271
 30
0.0
 11
-171.2853510603
 21
339.4288938271
 31
0.0
  0
LINE
  5
45F
330
1F
100
AcDbEntity
  8
0
  6
Continuous
 62
     7
370
    25
100
AcDbLine
 10
-171.2853510603
 20
340.8288938271
 30
0.0
 11
-171.2853510603
 21
339.4288938271
 31
0.0
  0
LINE
  5
460
330
1F
100
AcDbEntity
  8
0
  6
Continuous
 62
     7
370
    25
100
AcDbLine
 10
-171.2853510603
 20
194.8288938271
 30
0.0
 11
-171.2853510603
 21
196.2288938271
 31
0.0
  0
LINE
  5
461
330
1F
100
AcDbEntity
  8
0
  6
Continuous
 62
     7
370
    25
100
AcDbLine
 10
-180.8853510603
 20
196.2288938271
 30
0.0
 11
-171.2853510603
 21
196.2288938271
 31
0.0
  0
LINE
  5
462
330
1F
100
AcDbEntity
  8
0
  6
Continuous
 62
     7
370
    25
100
AcDbLine
 10
-180.8853510603
 20
194.8288938271
 30
0.0
 11
-171.2853510603
 21
194.8288938271
 31
0.0
  0
ARC
  5
463
330
1F
100
AcDbEntity
  8
0
  6
Continuous
 62
     7
370
    25
100
AcDbCircle
 10
-147.1853510603
 20
372.3288938271
 30
0.0
 40
3.0
100
AcDbArc
 50
0.0
 51
90.0
  0
LINE
  5
464
330
1F
100
AcDbEntity
  8
0
  6
Continuous
 62
     7
370
    25
100
AcDbLine
 10
-144.1853510603
 20
338.1288938271
 30
0.0
 11
-144.1853510603
 21
372.3288938271
 31
0.0
  0
LINE
  5
465
330
1F
100
AcDbEntity
  8
0
  6
Continuous
 62
     7
370
    25
100
AcDbLine
 10
-163.1853510603
 20
355.3288938271
 30
0.0
 11
-163.1853510603
 21
338.1288938271
 31
0.0
  0
LINE
  5
466
330
1F
100
AcDbEntity
  8
0
  6
Continuous
 62
     7
370
    25
100
AcDbLine
 10
-167.1853510603
 20
355.3288938271
 30
0.0
 11
-163.1853510603
 21
355.3288938271
 31
0.0
  0
LINE
  5
467
330
1F
100
AcDbEntity
  8
0
  6
Continuous
 62
     7
370
    25
100
AcDbLine
 10
-167.1853510603
 20
372.3288938271
 30
0.0
 11
-167.1853510603
 21
355.3288938271
 31
0.0
  0
ARC
  5
468
330
1F
100
AcDbEntity
  8
0
  6
Continuous
 62
     7
370
    25
100
AcDbCircle
 10
-164.1853510603
 20
372.3288938271
 30
0.0
 40
3.0
100
AcDbArc
 50
90.0
 51
180.0
  0
LINE
  5
469
330
1F
100
AcDbEntity
  8
0
  6
Continuous
 62
     7
370
    25
100
AcDbLine
 10
-147.1853510603
 20
375.3288938271
 30
0.0
 11
-164.1853510603
 21
375.3288938271
 31
0.0
  0
CIRCLE
  5
46A
330
1F
100
AcDbEntity
  8
0
  6
Continuous
 62
     7
370
    25
100
AcDbCircle
 10
-152.6853510603
 20
368.8288938271
 30
0.0
 40
3.249999999999773
  0
CIRCLE
  5
46B
330
1F
100
AcDbEntity
  8
0
  6
Continuous
 62
     7
370
    25
100
AcDbCircle
 10
-152.6853510603
 20
343.8288938271
 30
0.0
 40
3.249999999999829
  0
LINE
  5
46C
330
1F
100
AcDbEntity
  8
0
  6
Continuous
 62
     7
370
    25
100
AcDbLine
 10
-163.1853510603
 20
336.3288938271
 30
0.0
 11
-163.1853510603
 21
338.1288938271
 31
0.0
  0
LINE
  5
46D
330
1F
100
AcDbEntity
  8
0
  6
Continuous
 62
     7
370
    25
100
AcDbLine
 10
-144.1853510603
 20
336.3288938271
 30
0.0
 11
-163.1853510603
 21
336.3288938271
 31
0.0
  0
LINE
  5
46E
330
1F
100
AcDbEntity
  8
0
  6
Continuous
 62
     7
370
    25
100
AcDbLine
 10
-144.1853510603
 20
338.1288938271
 30
0.0
 11
-144.1853510603
 21
336.3288938271
 31
0.0
  0
ARC
  5
46F
330
1F
100
AcDbEntity
  8
0
  6
Continuous
 62
     7
370
    25
100
AcDbCircle
 10
-163.3853510603
 20
338.1288938271
 30
0.0
 40
1.800000000000068
100
AcDbArc
 50
180.0
 51
270.0
  0
ARC
  5
470
330
1F
100
AcDbEntity
  8
0
  6
Continuous
 62
     7
370
    25
100
AcDbCircle
 10
-163.3853510603
 20
338.1288938271
 30
0.0
 40
1.0
100
AcDbArc
 50
180.0
 51
270.0
  0
LINE
  5
471
330
1F
100
AcDbEntity
  8
0
  6
Continuous
 62
     7
370
    25
100
AcDbLine
 10
-163.3853510603
 20
336.3288938271
 30
0.0
 11
-163.1853510603
 21
336.3288938271
 31
0.0
  0
LINE
  5
472
330
1F
100
AcDbEntity
  8
0
  6
Continuous
 62
     7
370
    25
100
AcDbLine
 10
-163.3853510603
 20
337.1288938271
 30
0.0
 11
-163.1853510603
 21
337.1288938271
 31
0.0
  0
LINE
  5
473
330
1F
100
AcDbEntity
  8
0
  6
Continuous
 62
     7
370
    25
100
AcDbLine
 10
-165.1853510603
 20
348.3288938271
 30
0.0
 11
-164.3853510603
 21
348.3288938271
 31
0.0
  0
LINE
  5
474
330
1F
100
AcDbEntity
  8
0
  6
Continuous
 62
     7
370
    25
100
AcDbLine
 10
-164.3853510603
 20
338.1288938271
 30
0.0
 11
-164.3853510603
 21
348.3288938271
 31
0.0
  0
LINE
  5
475
330
1F
100
AcDbEntity
  8
0
  6
Continuous
 62
     7
370
    25
100
AcDbLine
 10
-120.1853510603
 20
337.1288938271
 30
0.0
 11
-120.1853510603
 21
336.3288938271
 31
0.0
  0
LINE
  5
476
330
1F
100
AcDbEntity
  8
0
  6
Continuous
 62
     7
370
    25
100
AcDbLine
 10
-120.1853510603
 20
336.3288938271
 30
0.0
 11
-123.1853510603
 21
336.3288938271
 31
0.0
  0
LINE
  5
477
330
1F
100
AcDbEntity
  8
0
  6
Continuous
 62
     7
370
    25
100
AcDbLine
 10
-123.1853510603
 20
337.1288938271
 30
0.0
 11
-120.1853510603
 21
337.1288938271
 31
0.0
  0
LINE
  5
478
330
1F
100
AcDbEntity
  8
0
  6
Continuous
 62
     7
370
    25
100
AcDbLine
 10
-144.1853510603
 20
336.3288938271
 30
0.0
 11
-123.1853510603
 21
336.3288938271
 31
0.0
  0
LINE
  5
479
330
1F
100
AcDbEntity
  8
0
  6
Continuous
 62
     7
370
    25
100
AcDbLine
 10
-144.1853510603
 20
337.1288938271
 30
0.0
 11
-123.1853510603
 21
337.1288938271
 31
0.0
  0
ARC
  5
47A
330
1F
100
AcDbEntity
  8
0
  6
Continuous
 62
     7
370
    25
100
AcDbCircle
 10
-138.8233002527
 20
338.1288938271
 30
0.0
 40
0.9999999999999694
100
AcDbArc
 50
270.0
 51
300.0
  0
LINE
  5
47B
330
1F
100
AcDbEntity
  8
0
  6
Continuous
 62
     7
370
    25
100
AcDbLine
 10
-131.2984291221
 20
340.3949192309
 30
0.0
 11
-136.9553510603
 21
337.1288938271
 31
0.0
  0
LINE
  5
47C
330
1F
100
AcDbEntity
  8
0
  6
Continuous
 62
     7
370
    25
100
AcDbLine
 10
-131.6984291221
 20
341.0877395539
 30
0.0
 11
-138.3233002527
 21
337.2628684233
 31
0.0
  0
LINE
  5
47D
330
1F
100
AcDbEntity
  8
0
  6
Continuous
 62
     7
370
    25
100
AcDbLine
 10
-121.2807376685
 20
341.3288938271
 30
0.0
 11
-121.2807376685
 21
340.5288938271
 31
0.0
  0
LINE
  5
47E
330
1F
100
AcDbEntity
  8
0
  6
Continuous
 62
     7
370
    25
100
AcDbLine
 10
-121.2807376685
 20
340.5288938271
 30
0.0
 11
-124.2807376685
 21
340.5288938271
 31
0.0
  0
LINE
  5
47F
330
1F
100
AcDbEntity
  8
0
  6
Continuous
 62
     7
370
    25
100
AcDbLine
 10
-124.2807376685
 20
341.3288938271
 30
0.0
 11
-121.2807376685
 21
341.3288938271
 31
0.0
  0
LINE
  5
480
330
1F
100
AcDbEntity
  8
0
  6
Continuous
 62
     7
370
    25
100
AcDbLine
 10
-130.7984291221
 20
341.3288938271
 30
0.0
 11
-124.2807376685
 21
341.3288938271
 31
0.0
  0
LINE
  5
481
330
1F
100
AcDbEntity
  8
0
  6
Continuous
 62
     7
370
    25
100
AcDbLine
 10
-130.7984291221
 20
340.5288938271
 30
0.0
 11
-124.2807376685
 21
340.5288938271
 31
0.0
  0
ARC
  5
482
330
1F
100
AcDbEntity
  8
0
  6
Continuous
 62
     7
370
    25
100
AcDbCircle
 10
-130.7984291221
 20
339.5288938271
 30
0.0
 40
1.800000000000068
100
AcDbArc
 50
90.0
 51
120.0
  0
ARC
  5
483
330
1F
100
AcDbEntity
  8
0
  6
Continuous
 62
     7
370
    25
100
AcDbCircle
 10
-130.7984291221
 20
339.5288938271
 30
0.0
 40
1.000000000000019
100
AcDbArc
 50
90.0
 51
120.0
  0
CIRCLE
  5
484
330
1F
100
AcDbEntity
  8
0
  6
Continuous
 62
     7
370
    25
100
AcDbCircle
 10
-152.6853510603
 20
343.8288938271
 30
0.0
 40
2.458750000016577
  0
CIRCLE
  5
485
330
1F
100
AcDbEntity
  8
0
  6
Continuous
 62
     7
370
    25
100
AcDbCircle
 10
-152.6853510603
 20
343.8288938271
 30
0.0
 40
3.000000000000047
  0
SPLINE
  5
486
330
1F
100
AcDbEntity
  8
0
  6
Continuous
 62
     7
370
    25
100
AcDbSpline
210
0.0
220
0.0
230
1.0
 70
     8
 71
     3
 72
    12
 73
     8
 74
     0
 42
0.000000001
 43
0.00000001
 40
0.0
 40
0.0
 40
0.0
 40
0.0
 40
0.5000000000000031
 40
0.5000000000000031
 40
0.7500000000000016
 40
0.7500000000000016
 40
1.0
 40
1.0
 40
1.0
 40
1.0
 10
-163.7706710749007
 20
342.3880645052221
 30
0.0
 10
-163.9611653643242
 20
341.9717634215676
 30
0.0
 10
-164.0828397773866
 20
341.5492248935792
 30
0.0
 10
-164.0834959679179
 20
340.8989347541183
 30
0.0
 10
-164.0536619661235
 20
340.6823925362039
 30
0.0
 10
-163.9447320960159
 20
340.2570245309636
 30
0.0
 10
-163.866036908953
 20
340.0468725519784
 30
0.0
 10
-163.7706710749002
 20
339.8384626296656
 30
0.0
  0
LINE
  5
487
330
1F
100
AcDbEntity
  8
0
  6
Continuous
 62
     7
370
    25
100
AcDbLine
 10
-163.7706710749
 20
339.8384626297
 30
0.0
 11
-163.8685461121
 21
340.08136738
 31
0.0
  0
SPLINE
  5
488
330
1F
100
AcDbEntity
  8
0
  6
Continuous
 62
     7
370
    25
100
AcDbSpline
210
0.0
220
0.0
230
1.0
 70
     8
 71
     3
 72
    12
 73
     8
 74
     0
 42
0.000000001
 43
0.00000001
 40
0.0
 40
0.0
 40
0.0
 40
0.0
 40
0.5000000000000207
 40
0.5000000000000207
 40
0.7500000000000103
 40
0.7500000000000103
 40
1.0
 40
1.0
 40
1.0
 40
1.0
 10
-163.7706710749007
 20
347.8193250245195
 30
0.0
 10
-163.9611653643242
 20
347.5840652320764
 30
0.0
 10
-164.0828397773866
 20
347.3452805392259
 30
0.0
 10
-164.0834959679179
 20
346.9777890066688
 30
0.0
 10
-164.0536619661235
 20
346.8554168120195
 30
0.0
 10
-163.9447320960159
 20
346.61503312686
 30
0.0
 10
-163.866036908953
 20
346.4962721797984
 30
0.0
 10
-163.7706710749003
 20
346.3784957026489
 30
0.0
  0
SPLINE
  5
489
330
1F
100
AcDbEntity
  8
0
  6
Continuous
 62
     7
370
    25
100
AcDbSpline
210
0.0
220
0.0
230
1.0
 70
     8
 71
     3
 72
    14
 73
    10
 74
     0
 42
0.000000001
 43
0.00000001
 40
0.0
 40
0.0
 40
0.0
 40
0.0
 40
0.25
 40
0.25
 40
0.5
 40
0.5
 40
0.75
 40
0.75
 40
1.0
 40
1.0
 40
1.0
 40
1.0
 10
-163.7706710748998
 20
346.3784957026489
 30
0.0
 10
-163.8655456842104
 20
346.0539894733603
 30
0.0
 10
-163.9451506090861
 20
345.7215302509659
 30
0.0
 10
-164.0539872239804
 20
345.0549603360578
 30
0.0
 10
-164.0833108296708
 20
344.7198840787825
 30
0.0
 10
-164.0832460479252
 20
344.0455406085549
 30
0.0
 10
-164.0530898545989
 20
343.703761187876
 30
0.0
 10
-163.9435046532332
 20
343.0373472682712
 30
0.0
 10
-163.864961679431
 20
342.7105732223184
 30
0.0
 10
-163.7706710748997
 20
342.388064505222
 30
0.0
  0
LINE
  5
48A
330
1F
100
AcDbEntity
  8
0
  6
Continuous
 62
     7
370
    25
100
AcDbLine
 10
-164.2853510603
 20
340.6788938271
 30
0.0
 11
-164.2853510603
 21
346.9788938271
 31
0.0
  0
LINE
  5
48B
330
1F
100
AcDbEntity
  8
0
  6
Continuous
 62
     7
370
    25
100
AcDbLine
 10
-163.1853510603
 20
342.3880645052
 30
0.0
 11
-163.7706710749
 21
342.3880645052
 31
0.0
  0
LINE
  5
48C
330
1F
100
AcDbEntity
  8
0
  6
Continuous
 62
     7
370
    25
100
AcDbLine
 10
-163.1853510603
 20
346.3784957026
 30
0.0
 11
-163.7706710749
 21
346.3784957026
 31
0.0
  0
LINE
  5
48D
330
1F
100
AcDbEntity
  8
0
  6
Continuous
 62
     7
370
    25
100
AcDbLine
 10
-163.1853510603
 20
339.8384626297
 30
0.0
 11
-163.7706710749
 21
339.8384626297
 31
0.0
  0
LINE
  5
48E
330
1F
100
AcDbEntity
  8
0
  6
Continuous
 62
     7
370
    25
100
AcDbLine
 10
-163.1853510603
 20
347.8193250245
 30
0.0
 11
-163.7706710749
 21
347.8193250245
 31
0.0
  0
LINE
  5
48F
330
1F
100
AcDbEntity
  8
0
  6
Continuous
 62
     7
370
    25
100
AcDbLine
 10
-166.9853510603
 20
353.8288938271
 30
0.0
 11
-176.8853510603
 21
353.8288938271
 31
0.0
  0
LINE
  5
490
330
1F
100
AcDbEntity
  8
0
  6
Continuous
 62
     7
370
    25
100
AcDbLine
 10
-166.9853510603
 20
353.0288938271
 30
0.0
 11
-166.9853510603
 21
353.8288938271
 31
0.0
  0
LINE
  5
491
330
1F
100
AcDbEntity
  8
0
  6
Continuous
 62
     7
370
    25
100
AcDbLine
 10
-176.8853510603
 20
353.0288938271
 30
0.0
 11
-166.9853510603
 21
353.0288938271
 31
0.0
  0
LINE
  5
492
330
1F
100
AcDbEntity
  8
0
  6
Continuous
 62
     7
370
    25
100
AcDbLine
 10
-176.8853510603
 20
353.0288938271
 30
0.0
 11
-176.8853510603
 21
352.9288938271
 31
0.0
  0
LINE
  5
493
330
1F
100
AcDbEntity
  8
0
  6
Continuous
 62
     7
370
    25
100
AcDbLine
 10
-176.8853510603
 20
352.9288938271
 30
0.0
 11
-171.7353510603
 21
352.9288938271
 31
0.0
  0
LINE
  5
494
330
1F
100
AcDbEntity
  8
0
  6
Continuous
 62
     7
370
    25
100
AcDbLine
 10
-171.7353510603
 20
352.1288938271
 30
0.0
 11
-171.7353510603
 21
352.9288938271
 31
0.0
  0
LINE
  5
495
330
1F
100
AcDbEntity
  8
0
  6
Continuous
 62
     7
370
    25
100
AcDbLine
 10
-176.8853510603
 20
352.1288938271
 30
0.0
 11
-171.7353510603
 21
352.1288938271
 31
0.0
  0
ARC
  5
496
330
1F
100
AcDbEntity
  8
0
  6
Continuous
 62
     7
370
    25
100
AcDbCircle
 10
-176.8853510603
 20
352.9788938271
 30
0.0
 40
0.8499999999999659
100
AcDbArc
 50
90.0
 51
270.0
  0
LINE
  5
497
330
1F
100
AcDbEntity
  8
0
  6
Continuous
 62
     7
370
    25
100
AcDbLine
 10
-166.9853510603
 20
334.6288938271
 30
0.0
 11
-171.2853510603
 21
334.6288938271
 31
0.0
  0
LINE
  5
498
330
1F
100
AcDbEntity
  8
0
  6
Continuous
 62
     7
370
    25
100
AcDbLine
 10
-166.9853510603
 20
333.8288938271
 30
0.0
 11
-166.9853510603
 21
334.6288938271
 31
0.0
  0
LINE
  5
499
330
1F
100
AcDbEntity
  8
0
  6
Continuous
 62
     7
370
    25
100
AcDbLine
 10
-166.9853510603
 20
333.8288938271
 30
0.0
 11
-171.2853510603
 21
333.8288938271
 31
0.0
  0
LINE
  5
49A
330
1F
100
AcDbEntity
  8
0
  6
Continuous
 62
     7
370
    25
100
AcDbLine
 10
-165.1853510603
 20
335.6288938271
 30
0.0
 11
-165.1853510603
 21
352.0288938271
 31
0.0
  0
ARC
  5
49B
330
1F
100
AcDbEntity
  8
0
  6
Continuous
 62
     7
370
    25
100
AcDbCircle
 10
-166.9853510603
 20
335.6288938271
 30
0.0
 40
1.800000000000125
100
AcDbArc
 50
270.0
 51
0.0
  0
LINE
  5
49C
330
1F
100
AcDbEntity
  8
0
  6
Continuous
 62
     7
370
    25
100
AcDbLine
 10
-165.9853510603
 20
335.6288938271
 30
0.0
 11
-165.9853510603
 21
352.0288938271
 31
0.0
  0
ARC
  5
49D
330
1F
100
AcDbEntity
  8
0
  6
Continuous
 62
     7
370
    25
100
AcDbCircle
 10
-166.9853510603
 20
352.0288938271
 30
0.0
 40
1.000000000000057
100
AcDbArc
 50
360.0
 51
90.0
  0
ARC
  5
49E
330
1F
100
AcDbEntity
  8
0
  6
Continuous
 62
     7
370
    25
100
AcDbCircle
 10
-166.9853510603
 20
352.0288938271
 30
0.0
 40
1.80000000000004
100
AcDbArc
 50
0.0
 51
90.0
  0
ARC
  5
49F
330
1F
100
AcDbEntity
  8
0
  6
Continuous
 62
     7
370
    25
100
AcDbCircle
 10
-166.9853510603
 20
335.6288938271
 30
0.0
 40
1.000000000000057
100
AcDbArc
 50
270.0
 51
0.0
  0
LINE
  5
4A0
330
1F
100
AcDbEntity
  8
0
  6
Continuous
 62
     7
370
    25
100
AcDbLine
 10
-167.9853510603
 20
347.8288938271
 30
0.0
 11
-167.9853510603
 21
339.8288938271
 31
0.0
  0
LWPOLYLINE
  5
4A1
330
1F
100
AcDbEntity
  8
0
  6
Continuous
 62
     7
370
    25
100
AcDbPolyline
 90
        3
 70
   128
 43
0.0
 10
-168.9913951769
 20
344.5526752301
 10
-168.9957957019
 20
344.5099799009
 10
-169.0120205506
 20
344.326281572
  0
ARC
  5
4A2
330
1F
100
AcDbEntity
  8
0
  6
Continuous
 62
     7
370
    25
100
AcDbCircle
 10
-168.4876276261
 20
344.6394094095
 30
0.0
 40
0.6107675350078052
100
AcDbArc
 50
210.8424581413
 51
243.3898036633
  0
ARC
  5
4A3
330
1F
100
AcDbEntity
  8
0
  6
Continuous
 62
     7
370
    25
100
AcDbCircle
 10
-159.6046937048
 20
343.4978964582
 30
0.0
 40
9.175815043531957
100
AcDbArc
 50
177.9327321268
 51
179.6562101038
  0
ARC
  5
4A4
330
1F
100
AcDbEntity
  8
0
  6
Continuous
 62
     7
370
    25
100
AcDbCircle
 10
-161.2483711625
 20
343.734756552
 30
0.0
 40
7.786288415094731
100
AcDbArc
 50
184.3702527064
 51
195.2299003794
  0
ARC
  5
4A5
330
1F
100
AcDbEntity
  8
0
  6
Continuous
 62
     7
370
    25
100
AcDbCircle
 10
-168.5400794953
 20
341.7843927108
 30
0.0
 40
0.2406805056720185
100
AcDbArc
 50
156.7420981704
 51
203.2579018296
  0
ARC
  5
4A6
330
1F
100
AcDbEntity
  8
0
  6
Continuous
 62
     7
370
    25
100
AcDbCircle
 10
-161.2483711625
 20
343.9248318469
 30
0.0
 40
7.786288415091905
100
AcDbArc
 50
184.3702527064
 51
195.2299003794
  0
ARC
  5
4A7
330
1F
100
AcDbEntity
  8
0
  6
Continuous
 62
     7
370
    25
100
AcDbCircle
 10
-168.4876276261
 20
343.0183782446
 30
0.0
 40
0.610767535008302
100
AcDbArc
 50
116.6101963367
 51
149.1575418587
  0
ARC
  5
4A8
330
1F
100
AcDbEntity
  8
0
  6
Continuous
 62
     7
370
    25
100
AcDbCircle
 10
-159.6815654846
 20
344.1568753397
 30
0.0
 40
9.098942710241158
100
AcDbArc
 50
176.2668736478
 51
183.7331263523
  0
ARC
  5
4A9
330
1F
100
AcDbEntity
  8
0
  6
Continuous
 62
     7
370
    25
100
AcDbCircle
 10
-168.4876276261
 20
344.2032290294
 30
0.0
 40
0.6107675350087374
100
AcDbArc
 50
116.6101963367
 51
149.1575418587
  0
ARC
  5
4AA
330
1F
100
AcDbEntity
  8
0
  6
Continuous
 62
     7
370
    25
100
AcDbCircle
 10
-161.2483711625
 20
343.9230311022
 30
0.0
 40
7.786288415092171
100
AcDbArc
 50
164.7700996206
 51
175.6297472936
  0
ARC
  5
4AB
330
1F
100
AcDbEntity
  8
0
  6
Continuous
 62
     7
370
    25
100
AcDbCircle
 10
-168.6281172817
 20
345.8944962039
 30
0.0
 40
0.152243242061457
100
AcDbArc
 50
150.9451665856
 51
179.1449116561
  0
LINE
  5
4AC
330
1F
100
AcDbEntity
  8
0
  6
Continuous
 62
     7
370
    25
100
AcDbLine
 10
-169.0120205506
 20
344.516356867
 30
0.0
 11
-168.7734648927
 21
344.516356867
 31
0.0
  0
LINE
  5
4AD
330
1F
100
AcDbEntity
  8
0
  6
Continuous
 62
     7
370
    25
100
AcDbLine
 10
-169.0120205506
 20
343.1414307872
 30
0.0
 11
-168.9951535588
 21
343.1414307872
 31
0.0
  0
LINE
  5
4AE
330
1F
100
AcDbEntity
  8
0
  6
Continuous
 62
     7
370
    25
100
AcDbLine
 10
-169.0120205506
 20
344.326281572
 30
0.0
 11
-168.7789702342
 21
344.326281572
 31
0.0
  0
LINE
  5
4AF
330
1F
100
AcDbEntity
  8
0
  6
Continuous
 62
     7
370
    25
100
AcDbLine
 10
-144.7853510603
 20
285.1632006645
 30
0.0
 11
-144.7853510603
 21
280.0221244276
 31
0.0
  0
ARC
  5
4B0
330
1F
100
AcDbEntity
  8
0
  6
Continuous
 62
     7
370
    25
100
AcDbCircle
 10
-146.7268621711
 20
280.0843670035
 30
0.0
 40
1.942508566655133
100
AcDbArc
 50
268.2745645851
 51
358.1637932023
  0
LINE
  5
4B1
330
1F
100
AcDbEntity
  8
0
  6
Continuous
 62
     7
370
    25
100
AcDbLine
 10
-146.7853510603
 20
278.142739186
 30
0.0
 11
-158.7853510603
 21
278.142739186
 31
0.0
  0
ARC
  5
4B2
330
1F
100
AcDbEntity
  8
0
  6
Continuous
 62
     7
370
    25
100
AcDbCircle
 10
-158.8438399495
 20
280.0843670035
 30
0.0
 40
1.942508566655244
100
AcDbArc
 50
181.8362067977
 51
271.7254354149
  0
LINE
  5
4B3
330
1F
100
AcDbEntity
  8
0
  6
Continuous
 62
     7
370
    25
100
AcDbLine
 10
-160.7853510603
 20
280.0221244276
 30
0.0
 11
-160.7853510603
 21
285.1632006645
 31
0.0
  0
LINE
  5
4B4
330
1F
100
AcDbEntity
  8
0
  6
Continuous
 62
     7
370
    25
100
AcDbLine
 10
-144.7853510603
 20
280.0221244276
 30
0.0
 11
-144.7853510603
 21
279.338084141
 31
0.0
  0
ARC
  5
4B5
330
1F
100
AcDbEntity
  8
0
  6
Continuous
 62
     7
370
    25
100
AcDbCircle
 10
-146.7268621711
 20
279.4003267168
 30
0.0
 40
1.94250856665519
100
AcDbArc
 50
268.2745645851
 51
358.1637932023
  0
LINE
  5
4B6
330
1F
100
AcDbEntity
  8
0
  6
Continuous
 62
     7
370
    25
100
AcDbLine
 10
-146.7853510603
 20
277.4586988994
 30
0.0
 11
-158.7853510603
 21
277.4586988994
 31
0.0
  0
LINE
  5
4B7
330
1F
100
AcDbEntity
  8
0
  6
Continuous
 62
     7
370
    25
100
AcDbLine
 10
-160.7853510603
 20
279.338084141
 30
0.0
 11
-160.7853510603
 21
280.0221244276
 31
0.0
  0
ARC
  5
4B8
330
1F
100
AcDbEntity
  8
0
  6
Continuous
 62
     7
370
    25
100
AcDbCircle
 10
-158.8438399495
 20
279.4003267168
 30
0.0
 40
1.942508566655332
100
AcDbArc
 50
181.8362067977
 51
271.7254354149
  0
LINE
  5
4B9
330
1F
100
AcDbEntity
  8
0
  6
Continuous
 62
     7
370
    25
100
AcDbLine
 10
-160.7853510603
 20
285.5052208078
 30
0.0
 11
-160.7853510603
 21
285.1632006645
 31
0.0
  0
LINE
  5
4BA
330
1F
100
AcDbEntity
  8
0
  6
Continuous
 62
     7
370
    25
100
AcDbLine
 10
-144.7853510603
 20
285.1632006645
 30
0.0
 11
-144.7853510603
 21
285.5052208078
 31
0.0
  0
LINE
  5
4BB
330
1F
100
AcDbEntity
  8
0
  6
Continuous
 62
     7
370
    25
100
AcDbLine
 10
-171.2853510603
 20
285.3288938271
 30
0.0
 11
-160.7853510603
 21
285.3288938271
 31
0.0
  0
LINE
  5
4BC
330
1F
100
AcDbEntity
  8
0
  6
Continuous
 62
     7
370
    25
100
AcDbLine
 10
-146.7853510603
 20
300.3288938271
 30
0.0
 11
-171.2853510603
 21
300.3288938271
 31
0.0
  0
ARC
  5
4BD
330
1F
100
AcDbEntity
  8
0
  6
Continuous
 62
     7
370
    25
100
AcDbCircle
 10
-146.7853510603
 20
298.3288938271
 30
0.0
 40
2.0
100
AcDbArc
 50
0.0
 51
90.0
  0
LINE
  5
4BE
330
1F
100
AcDbEntity
  8
0
  6
Continuous
 62
     7
370
    25
100
AcDbLine
 10
-144.7853510603
 20
285.5052208078
 30
0.0
 11
-144.7853510603
 21
298.3288938271
 31
0.0
  0
CIRCLE
  5
4BF
330
1F
100
AcDbEntity
  8
0
  6
Continuous
 62
     7
370
    25
100
AcDbCircle
 10
-152.6853510603
 20
292.8288938271
 30
0.0
 40
3.5
  0
ARC
  5
4C0
330
1F
100
AcDbEntity
  8
0
  6
Continuous
 62
     7
370
    25
100
AcDbCircle
 10
-146.7268621711
 20
230.0843670035
 30
0.0
 40
1.942508566655216
100
AcDbArc
 50
268.2745645851
 51
358.1637932023
  0
LINE
  5
4C1
330
1F
100
AcDbEntity
  8
0
  6
Continuous
 62
     7
370
    25
100
AcDbLine
 10
-144.7853510603
 20
230.0221244276
 30
0.0
 11
-144.7853510603
 21
229.338084141
 31
0.0
  0
ARC
  5
4C2
330
1F
100
AcDbEntity
  8
0
  6
Continuous
 62
     7
370
    25
100
AcDbCircle
 10
-146.7268621711
 20
229.4003267168
 30
0.0
 40
1.942508566655215
100
AcDbArc
 50
268.2745645851
 51
358.1637932023
  0
LINE
  5
4C3
330
1F
100
AcDbEntity
  8
0
  6
Continuous
 62
     7
370
    25
100
AcDbLine
 10
-146.7853510603
 20
227.4586988994
 30
0.0
 11
-158.7853510603
 21
227.4586988994
 31
0.0
  0
LINE
  5
4C4
330
1F
100
AcDbEntity
  8
0
  6
Continuous
 62
     7
370
    25
100
AcDbLine
 10
-146.7853510603
 20
228.142739186
 30
0.0
 11
-158.7853510603
 21
228.142739186
 31
0.0
  0
LINE
  5
4C5
330
1F
100
AcDbEntity
  8
0
  6
Continuous
 62
     7
370
    25
100
AcDbLine
 10
-144.7853510603
 20
235.1632006645
 30
0.0
 11
-144.7853510603
 21
230.0221244276
 31
0.0
  0
ARC
  5
4C6
330
1F
100
AcDbEntity
  8
0
  6
Continuous
 62
     7
370
    25
100
AcDbCircle
 10
-158.8438399495
 20
230.0843670035
 30
0.0
 40
1.942508566655215
100
AcDbArc
 50
181.8362067977
 51
271.7254354149
  0
LINE
  5
4C7
330
1F
100
AcDbEntity
  8
0
  6
Continuous
 62
     7
370
    25
100
AcDbLine
 10
-160.7853510603
 20
230.0221244276
 30
0.0
 11
-160.7853510603
 21
235.1632006645
 31
0.0
  0
LINE
  5
4C8
330
1F
100
AcDbEntity
  8
0
  6
Continuous
 62
     7
370
    25
100
AcDbLine
 10
-160.7853510603
 20
229.338084141
 30
0.0
 11
-160.7853510603
 21
230.0221244276
 31
0.0
  0
ARC
  5
4C9
330
1F
100
AcDbEntity
  8
0
  6
Continuous
 62
     7
370
    25
100
AcDbCircle
 10
-158.8438399495
 20
229.4003267168
 30
0.0
 40
1.942508566655188
100
AcDbArc
 50
181.8362067977
 51
271.7254354149
  0
LINE
  5
4CA
330
1F
100
AcDbEntity
  8
0
  6
Continuous
 62
     7
370
    25
100
AcDbLine
 10
-144.7853510603
 20
235.1632006645
 30
0.0
 11
-144.7853510603
 21
235.5052208078
 31
0.0
  0
LINE
  5
4CB
330
1F
100
AcDbEntity
  8
0
  6
Continuous
 62
     7
370
    25
100
AcDbLine
 10
-160.7853510603
 20
235.5052208078
 30
0.0
 11
-160.7853510603
 21
235.1632006645
 31
0.0
  0
LINE
  5
4CC
330
1F
100
AcDbEntity
  8
0
  6
Continuous
 62
     7
370
    25
100
AcDbLine
 10
-171.2853510603
 20
235.3288938271
 30
0.0
 11
-160.7853510603
 21
235.3288938271
 31
0.0
  0
CIRCLE
  5
4CD
330
1F
100
AcDbEntity
  8
0
  6
Continuous
 62
     7
370
    25
100
AcDbCircle
 10
-152.6853510603
 20
242.8288938271
 30
0.0
 40
3.5
  0
ARC
  5
4CE
330
1F
100
AcDbEntity
  8
0
  6
Continuous
 62
     7
370
    25
100
AcDbCircle
 10
-146.7853510603
 20
248.3288938271
 30
0.0
 40
2.000000000000028
100
AcDbArc
 50
0.0
 51
90.0
  0
LINE
  5
4CF
330
1F
100
AcDbEntity
  8
0
  6
Continuous
 62
     7
370
    25
100
AcDbLine
 10
-144.7853510603
 20
235.5052208078
 30
0.0
 11
-144.7853510603
 21
248.3288938271
 31
0.0
  0
LINE
  5
4D0
330
1F
100
AcDbEntity
  8
0
  6
Continuous
 62
     7
370
    25
100
AcDbLine
 10
-146.7853510603
 20
250.3288938271
 30
0.0
 11
-171.2853510603
 21
250.3288938271
 31
0.0
  0
CIRCLE
  5
4D1
330
1F
100
AcDbEntity
  8
0
  6
Continuous
 62
     7
370
    25
100
AcDbCircle
 10
-152.6853510603
 20
292.8288938271
 30
0.0
 40
2.458750000016643
  0
CIRCLE
  5
4D2
330
1F
100
AcDbEntity
  8
0
  6
Continuous
 62
     7
370
    25
100
AcDbCircle
 10
-152.6853510603
 20
292.8288938271
 30
0.0
 40
2.999999999999999
  0
ENDSEC
  0
SECTION
  2
OBJECTS
  0
DICTIONARY
  5
C
330
0
100
AcDbDictionary
281
     1
  3
ACAD_GROUP
350
D
  3
ACAD_LAYOUT
350
1A
  3
ACAD_MLINESTYLE
350
17
  3
ACAD_PLOTSETTINGS
350
19
  3
ACAD_PLOTSTYLENAME
350
E
  3
ACAD_SCALELIST
350
47
  0
DICTIONARY
  5
D
102
{ACAD_REACTORS
330
C
102
}
330
C
100
AcDbDictionary
281
     1
  0
DICTIONARY
  5
1A
102
{ACAD_REACTORS
330
C
102
}
330
C
100
AcDbDictionary
281
     1
  3
Layout1
350
1E
  3
Layout2
350
26
  3
Model
350
22
  0
DICTIONARY
  5
17
102
{ACAD_REACTORS
330
C
102
}
330
C
100
AcDbDictionary
281
     1
  3
Standard
350
18
  0
DICTIONARY
  5
19
102
{ACAD_REACTORS
330
C
102
}
330
C
100
AcDbDictionary
281
     1
  0
ACDBDICTIONARYWDFLT
  5
E
102
{ACAD_REACTORS
330
C
102
}
330
C
100
AcDbDictionary
281
     1
  3
Normal
350
F
100
AcDbDictionaryWithDefault
340
F
  0
DICTIONARY
  5
47
102
{ACAD_REACTORS
330
C
102
}
330
C
100
AcDbDictionary
281
     1
  3
A0
350
48
  3
A1
350
49
  3
A2
350
4A
  3
A3
350
4B
  3
A4
350
4C
  3
A5
350
4D
  3
A6
350
4E
  3
A7
350
4F
  3
A8
350
50
  3
A9
350
51
  3
B0
350
52
  3
B1
350
53
  3
B2
350
54
  3
B3
350
55
  3
B4
350
56
  3
B5
350
57
  3
B6
350
58
  3
B7
350
59
  3
B8
350
5A
  3
B9
350
5B
  3
C0
350
5C
  3
C1
350
5D
  3
C2
350
5E
  3
C3
350
5F
  3
C4
350
60
  3
C5
350
61
  3
C6
350
62
  3
C7
350
63
  3
C8
350
64
  3
C9
350
65
  3
D0
350
66
  3
D1
350
67
  3
D2
350
68
  0
LAYOUT
  5
1E
102
{ACAD_REACTORS
330
1A
102
}
330
1A
100
AcDbPlotSettings
  1

  2
none_device
  4

  6

 40
0.0
 41
0.0
 42
0.0
 43
0.0
 44
0.0
 45
0.0
 46
0.0
 47
0.0
 48
0.0
 49
0.0
140
0.0
141
0.0
142
1.0
143
1.0
 70
   688
 72
     1
 73
     0
 74
     5
  7

 75
    16
147
1.0
148
0.0
149
0.0
100
AcDbLayout
  1
Layout1
 70
     1
 71
     1
 10
0.0
 20
0.0
 11
420.0
 21
297.0
 12
0.0
 22
0.0
 32
0.0
 14
1.0000000000E+20
 24
1.0000000000E+20
 34
1.0000000000E+20
 15
-1.0000000000E+20
 25
-1.0000000000E+20
 35
-1.0000000000E+20
146
0.0
 13
0.0
 23
0.0
 33
0.0
 16
1.0
 26
0.0
 36
0.0
 17
0.0
 27
1.0
 37
0.0
 76
     0
330
1B
  0
LAYOUT
  5
26
102
{ACAD_REACTORS
330
1A
102
}
330
1A
100
AcDbPlotSettings
  1

  2
none_device
  4

  6

 40
0.0
 41
0.0
 42
0.0
 43
0.0
 44
0.0
 45
0.0
 46
0.0
 47
0.0
 48
0.0
 49
0.0
140
0.0
141
0.0
142
1.0
143
1.0
 70
   688
 72
     1
 73
     0
 74
     5
  7

 75
    16
147
1.0
148
0.0
149
0.0
100
AcDbLayout
  1
Layout2
 70
     1
 71
     2
 10
0.0
 20
0.0
 11
0.0
 21
0.0
 12
0.0
 22
0.0
 32
0.0
 14
0.0
 24
0.0
 34
0.0
 15
0.0
 25
0.0
 35
0.0
146
0.0
 13
0.0
 23
0.0
 33
0.0
 16
1.0
 26
0.0
 36
0.0
 17
0.0
 27
1.0
 37
0.0
 76
     0
330
23
  0
LAYOUT
  5
22
102
{ACAD_REACTORS
330
1A
102
}
330
1A
100
AcDbPlotSettings
  1

  2
none_device
  4
Letter_(8.50_x_11.00_Inches)
  6

 40
6.35
 41
6.35
 42
6.35000508
 43
6.35000508
 44
215.9
 45
279.4
 46
0.0
 47
0.0
 48
0.0
 49
0.0
140
0.0
141
0.0
142
1.0
143
1.0
 70
  1712
 72
     1
 73
     0
 74
     0
  7

 75
     0
147
1.0
148
0.0
149
0.0
100
AcDbLayout
  1
Model
 70
     1
 71
     0
 10
0.0
 20
0.0
 11
841.0
 21
594.0
 12
0.0
 22
0.0
 32
0.0
 14
0.0
 24
0.0
 34
0.0
 15
841.0
 25
594.0
 35
0.0
146
0.0
 13
0.0
 23
0.0
 33
0.0
 16
1.0
 26
0.0
 36
0.0
 17
0.0
 27
1.0
 37
0.0
 76
     0
330
1F
331
29
  0
MLINESTYLE
  5
18
102
{ACAD_REACTORS
330
17
102
}
330
17
100
AcDbMlineStyle
  2
Standard
 70
     0
  3

 62
   256
 51
90.0
 52
90.0
 71
     2
 49
0.5
 62
   256
  6
BYLAYER
 49
-0.5
 62
   256
  6
BYLAYER
  0
ACDBPLACEHOLDER
  5
F
102
{ACAD_REACTORS
330
E
102
}
330
E
  0
SCALE
  5
48
102
{ACAD_REACTORS
330
47
102
}
330
47
100
AcDbScale
 70
     0
300
1:1
140
1.0
141
1.0
290
     1
  0
SCALE
  5
49
102
{ACAD_REACTORS
330
47
102
}
330
47
100
AcDbScale
 70
     0
300
1:2
140
1.0
141
2.0
290
     0
  0
SCALE
  5
4A
102
{ACAD_REACTORS
330
47
102
}
330
47
100
AcDbScale
 70
     0
300
1:4
140
1.0
141
4.0
290
     0
  0
SCALE
  5
4B
102
{ACAD_REACTORS
330
47
102
}
330
47
100
AcDbScale
 70
     0
300
1:5
140
1.0
141
5.0
290
     0
  0
SCALE
  5
4C
102
{ACAD_REACTORS
330
47
102
}
330
47
100
AcDbScale
 70
     0
300
1:8
140
1.0
141
8.0
290
     0
  0
SCALE
  5
4D
102
{ACAD_REACTORS
330
47
102
}
330
47
100
AcDbScale
 70
     0
300
1:10
140
1.0
141
10.0
290
     0
  0
SCALE
  5
4E
102
{ACAD_REACTORS
330
47
102
}
330
47
100
AcDbScale
 70
     0
300
1:16
140
1.0
141
16.0
290
     0
  0
SCALE
  5
4F
102
{ACAD_REACTORS
330
47
102
}
330
47
100
AcDbScale
 70
     0
300
1:20
140
1.0
141
20.0
290
     0
  0
SCALE
  5
50
102
{ACAD_REACTORS
330
47
102
}
330
47
100
AcDbScale
 70
     0
300
1:30
140
1.0
141
30.0
290
     0
  0
SCALE
  5
51
102
{ACAD_REACTORS
330
47
102
}
330
47
100
AcDbScale
 70
     0
300
1:40
140
1.0
141
40.0
290
     0
  0
SCALE
  5
52
102
{ACAD_REACTORS
330
47
102
}
330
47
100
AcDbScale
 70
     0
300
1:50
140
1.0
141
50.0
290
     0
  0
SCALE
  5
53
102
{ACAD_REACTORS
330
47
102
}
330
47
100
AcDbScale
 70
     0
300
1:100
140
1.0
141
100.0
290
     0
  0
SCALE
  5
54
102
{ACAD_REACTORS
330
47
102
}
330
47
100
AcDbScale
 70
     0
300
2:1
140
2.0
141
1.0
290
     0
  0
SCALE
  5
55
102
{ACAD_REACTORS
330
47
102
}
330
47
100
AcDbScale
 70
     0
300
4:1
140
4.0
141
1.0
290
     0
  0
SCALE
  5
56
102
{ACAD_REACTORS
330
47
102
}
330
47
100
AcDbScale
 70
     0
300
8:1
140
8.0
141
1.0
290
     0
  0
SCALE
  5
57
102
{ACAD_REACTORS
330
47
102
}
330
47
100
AcDbScale
 70
     0
300
10:1
140
10.0
141
1.0
290
     0
  0
SCALE
  5
58
102
{ACAD_REACTORS
330
47
102
}
330
47
100
AcDbScale
 70
     0
300
100:1
140
100.0
141
1.0
290
     0
  0
SCALE
  5
59
102
{ACAD_REACTORS
330
47
102
}
330
47
100
AcDbScale
 70
     0
300
1/128" = 1'-0"
140
0.0078125
141
12.0
290
     0
  0
SCALE
  5
5A
102
{ACAD_REACTORS
330
47
102
}
330
47
100
AcDbScale
 70
     0
300
1/64" = 1'-0"
140
0.015625
141
12.0
290
     0
  0
SCALE
  5
5B
102
{ACAD_REACTORS
330
47
102
}
330
47
100
AcDbScale
 70
     0
300
1/32" = 1'-0"
140
0.03125
141
12.0
290
     0
  0
SCALE
  5
5C
102
{ACAD_REACTORS
330
47
102
}
330
47
100
AcDbScale
 70
     0
300
1/16" = 1'-0"
140
0.0625
141
12.0
290
     0
  0
SCALE
  5
5D
102
{ACAD_REACTORS
330
47
102
}
330
47
100
AcDbScale
 70
     0
300
3/32" = 1'-0"
140
0.09375
141
12.0
290
     0
  0
SCALE
  5
5E
102
{ACAD_REACTORS
330
47
102
}
330
47
100
AcDbScale
 70
     0
300
1/8" = 1'-0"
140
0.125
141
12.0
290
     0
  0
SCALE
  5
5F
102
{ACAD_REACTORS
330
47
102
}
330
47
100
AcDbScale
 70
     0
300
3/16" = 1'-0"
140
0.1875
141
12.0
290
     0
  0
SCALE
  5
60
102
{ACAD_REACTORS
330
47
102
}
330
47
100
AcDbScale
 70
     0
300
1/4" = 1'-0"
140
0.25
141
12.0
290
     0
  0
SCALE
  5
61
102
{ACAD_REACTORS
330
47
102
}
330
47
100
AcDbScale
 70
     0
300
3/8" = 1'-0"
140
0.375
141
12.0
290
     0
  0
SCALE
  5
62
102
{ACAD_REACTORS
330
47
102
}
330
47
100
AcDbScale
 70
     0
300
1/2" = 1'-0"
140
0.5
141
12.0
290
     0
  0
SCALE
  5
63
102
{ACAD_REACTORS
330
47
102
}
330
47
100
AcDbScale
 70
     0
300
3/4" = 1'-0"
140
0.75
141
12.0
290
     0
  0
SCALE
  5
64
102
{ACAD_REACTORS
330
47
102
}
330
47
100
AcDbScale
 70
     0
300
1" = 1'-0"
140
1.0
141
12.0
290
     0
  0
SCALE
  5
65
102
{ACAD_REACTORS
330
47
102
}
330
47
100
AcDbScale
 70
     0
300
1-1/2" = 1'-0"
140
1.5
141
12.0
290
     0
  0
SCALE
  5
66
102
{ACAD_REACTORS
330
47
102
}
330
47
100
AcDbScale
 70
     0
300
3" = 1'-0"
140
3.0
141
12.0
290
     0
  0
SCALE
  5
67
102
{ACAD_REACTORS
330
47
102
}
330
47
100
AcDbScale
 70
     0
300
6" = 1'-0"
140
6.0
141
12.0
290
     0
  0
SCALE
  5
68
102
{ACAD_REACTORS
330
47
102
}
330
47
100
AcDbScale
 70
     0
300
1'-0" = 1'-0"
140
12.0
141
12.0
290
     0
  0
ENDSEC
  0
EOF
