ISO-10303-21;
HEADER;
FILE_DESCRIPTION (( 'STEP AP203' ),
    '1' );
FILE_NAME ('CLP1K-050-2 Êðûøêà íà ëîòîê îñí. 50 ( äëèíà 2 ìåòðà).STEP',
    '2016-03-14T08:16:09',
    ( '' ),
    ( '' ),
    'SwSTEP 2.0',
    'SolidWorks 2014',
    '' );
FILE_SCHEMA (( 'CONFIG_CONTROL_DESIGN' ));
ENDSEC;

DATA;
#1 = CARTESIAN_POINT ( 'NONE',  ( 0.0000000000000000000, -3.851859888774471700E-031, -1.000000000000000000 ) ) ;
#2 = CARTESIAN_POINT ( 'NONE',  ( -1042.500000000000000, 0.0000000000000000000, 48.00000000000000000 ) ) ;
#3 =( NAMED_UNIT ( * ) PLANE_ANGLE_UNIT ( ) SI_UNIT ( $, .RADIAN. ) );
#4 = LINE ( 'NONE', #73, #306 ) ;
#5 = ORIENTED_EDGE ( 'NONE', *, *, #60, .F. ) ;
#6 = PERSON_AND_ORGANIZATION_ROLE ( 'creator' ) ;
#7 = ADVANCED_FACE ( 'NONE', ( #328 ), #345, .T. ) ;
#8 = ORIENTED_EDGE ( 'NONE', *, *, #98, .F. ) ;
#9 = VERTEX_POINT ( 'NONE', #200 ) ;
#10 = LOCAL_TIME ( 11, 16, 9.000000000000000000, #90 ) ;
#11 = VECTOR ( 'NONE', #278, 1000.000000000000000 ) ;
#12 = ORIENTED_EDGE ( 'NONE', *, *, #350, .T. ) ;
#13 = EDGE_CURVE ( 'NONE', #309, #156, #351, .T. ) ;
#14 = ORIENTED_EDGE ( 'NONE', *, *, #149, .T. ) ;
#15 = CALENDAR_DATE ( 2016, 14, 3 ) ;
#16 = CARTESIAN_POINT ( 'NONE',  ( -1042.500000000000000, 5.127050073817270800E-016, 49.00000000000000000 ) ) ;
#17 = DIRECTION ( 'NONE',  ( -0.0000000000000000000, -0.0000000000000000000, -1.000000000000000000 ) ) ;
#18 = ORIENTED_EDGE ( 'NONE', *, *, #149, .F. ) ;
#19 = LINE ( 'NONE', #216, #168 ) ;
#20 = PLANE ( 'NONE',  #184 ) ;
#21 = ORIENTED_EDGE ( 'NONE', *, *, #13, .T. ) ;
#22 = CARTESIAN_POINT ( 'NONE',  ( -1042.500000000000000, -16.14999999999973900, 49.70000000000006000 ) ) ;
#23 = ADVANCED_FACE ( 'NONE', ( #45 ), #319, .F. ) ;
#24 = DIRECTION ( 'NONE',  ( 0.0000000000000000000, 0.0000000000000000000, -1.000000000000000000 ) ) ;
#25 = DIRECTION ( 'NONE',  ( -0.0000000000000000000, -1.000000000000000000, 3.437222986455592900E-015 ) ) ;
#26 = ORIENTED_EDGE ( 'NONE', *, *, #169, .T. ) ;
#27 = DIRECTION ( 'NONE',  ( -0.0000000000000000000, 0.0000000000000000000, -1.000000000000000000 ) ) ;
#28 = PERSON_AND_ORGANIZATION ( #147, #112 ) ;
#29 = DIRECTION ( 'NONE',  ( 1.000000000000000000, 0.0000000000000000000, -0.0000000000000000000 ) ) ;
#30 = PLANE ( 'NONE',  #111 ) ;
#31 = FACE_OUTER_BOUND ( 'NONE', #97, .T. ) ;
#32 = EDGE_LOOP ( 'NONE', ( #67, #21, #209, #95 ) ) ;
#33 = APPROVAL_STATUS ( 'not_yet_approved' ) ;
#34 = LINE ( 'NONE', #152, #259 ) ;
#35 = ORIENTED_EDGE ( 'NONE', *, *, #364, .F. ) ;
#36 = AXIS2_PLACEMENT_3D ( 'NONE', #365, #258, #99 ) ;
#37 = EDGE_CURVE ( 'NONE', #106, #270, #202, .T. ) ;
#38 = LINE ( 'NONE', #316, #346 ) ;
#39 = ORIENTED_EDGE ( 'NONE', *, *, #130, .F. ) ;
#40 = FACE_OUTER_BOUND ( 'NONE', #341, .T. ) ;
#41 = ADVANCED_FACE ( 'NONE', ( #59 ), #175, .T. ) ;
#42 = ORIENTED_EDGE ( 'NONE', *, *, #256, .T. ) ;
#43 = MANIFOLD_SOLID_BREP ( 'Áîáûøêà-Âûòÿíóòü1', #352 ) ;
#44 = CARTESIAN_POINT ( 'NONE',  ( -1042.500000000000000, -16.14999999999974300, 49.00000000000005700 ) ) ;
#45 = FACE_OUTER_BOUND ( 'NONE', #189, .T. ) ;
#46 = VERTEX_POINT ( 'NONE', #123 ) ;
#47 = DESIGN_CONTEXT ( 'detailed design', #325, 'design' ) ;
#48 = DIRECTION ( 'NONE',  ( 0.0000000000000000000, -3.491481338843133400E-015, -1.000000000000000000 ) ) ;
#49 = COORDINATED_UNIVERSAL_TIME_OFFSET ( 3, 0, .AHEAD. ) ;
#50 = DIRECTION ( 'NONE',  ( 1.000000000000000000, 0.0000000000000000000, 0.0000000000000000000 ) ) ;
#51 = DIRECTION ( 'NONE',  ( 0.0000000000000000000, -0.0000000000000000000, -1.000000000000000000 ) ) ;
#52 = CARTESIAN_POINT ( 'NONE',  ( 1042.500000000000000, 0.7000000000000001800, -1.700000000000000200 ) ) ;
#53 = VERTEX_POINT ( 'NONE', #93 ) ;
#54 = CARTESIAN_POINT ( 'NONE',  ( -1042.500000000000000, 0.6999999999999999600, 48.00000000000000000 ) ) ;
#55 = FACE_OUTER_BOUND ( 'NONE', #32, .T. ) ;
#56 = CARTESIAN_POINT ( 'NONE',  ( 1042.500000000000000, -16.14999999999999900, 49.70000000000006000 ) ) ;
#57 = ADVANCED_FACE ( 'NONE', ( #126 ), #30, .T. ) ;
#58 = CC_DESIGN_PERSON_AND_ORGANIZATION_ASSIGNMENT ( #28, #131, ( #85 ) ) ;
#59 = FACE_OUTER_BOUND ( 'NONE', #88, .T. ) ;
#60 = EDGE_CURVE ( 'NONE', #53, #142, #38, .T. ) ;
#61 = LOCAL_TIME ( 11, 16, 9.000000000000000000, #145 ) ;
#62 = EDGE_CURVE ( 'NONE', #164, #308, #272, .T. ) ;
#63 = ORIENTED_EDGE ( 'NONE', *, *, #237, .F. ) ;
#64 = VECTOR ( 'NONE', #359, 1000.000000000000000 ) ;
#65 = PERSON_AND_ORGANIZATION_ROLE ( 'creator' ) ;
#66 = DIRECTION ( 'NONE',  ( 1.000000000000000000, -1.477758086569391400E-045, -4.232467377468589100E-031 ) ) ;
#67 = ORIENTED_EDGE ( 'NONE', *, *, #127, .T. ) ;
#68 = ORIENTED_EDGE ( 'NONE', *, *, #81, .T. ) ;
#69 = APPROVAL_DATE_TIME ( #158, #190 ) ;
#70 = CARTESIAN_POINT ( 'NONE',  ( 1042.500000000000000, 2.444036937190193300E-015, -1.700000000000000200 ) ) ;
#71 = LINE ( 'NONE', #220, #64 ) ;
#72 = PRODUCT_DEFINITION ( 'UNKNOWN', '', #177, #47 ) ;
#73 = CARTESIAN_POINT ( 'NONE',  ( -1042.500000000000000, -16.14999999999999900, -1.700000000000056600 ) ) ;
#74 = EDGE_LOOP ( 'NONE', ( #217, #18, #305, #12 ) ) ;
#75 = ORIENTED_EDGE ( 'NONE', *, *, #169, .F. ) ;
#76 = APPROVAL_PERSON_ORGANIZATION ( #166, #190, #238 ) ;
#77 = CARTESIAN_POINT ( 'NONE',  ( 1042.500000000000000, -16.14999999999999900, 49.70000000000006000 ) ) ;
#78 = EDGE_CURVE ( 'NONE', #9, #296, #191, .T. ) ;
#79 = CARTESIAN_POINT ( 'NONE',  ( 1042.500000000000000, -16.14999999999999900, 49.70000000000006000 ) ) ;
#80 = DIRECTION ( 'NONE',  ( 0.0000000000000000000, -1.000000000000000000, 0.0000000000000000000 ) ) ;
#81 = EDGE_CURVE ( 'NONE', #367, #308, #187, .T. ) ;
#82 = LINE ( 'NONE', #77, #214 ) ;
#83 = ORIENTED_EDGE ( 'NONE', *, *, #274, .T. ) ;
#84 = CARTESIAN_POINT ( 'NONE',  ( 1042.500000000000000, 0.0000000000000000000, -1.000000000000000000 ) ) ;
#85 = PRODUCT ( 'CLP1K-050-2 Êðûøêà íà ëîòîê îñí. 50 ( äëèíà 2 ìåòðà)', 'CLP1K-050-2 Êðûøêà íà ëîòîê îñí. 50 ( äëèíà 2 ìåòðà)', '', ( #295 ) ) ;
#86 = DIRECTION ( 'NONE',  ( -1.000000000000000000, 1.231362467360036000E-016, -8.758115402030106700E-047 ) ) ;
#87 = CARTESIAN_POINT ( 'NONE',  ( 1042.500000000000000, -16.14999999999999900, -1.700000000000056600 ) ) ;
#88 = EDGE_LOOP ( 'NONE', ( #101, #163, #14, #227, #239, #39, #75, #83 ) ) ;
#89 = ORIENTED_EDGE ( 'NONE', *, *, #62, .T. ) ;
#90 = COORDINATED_UNIVERSAL_TIME_OFFSET ( 3, 0, .AHEAD. ) ;
#91 = ORIENTED_EDGE ( 'NONE', *, *, #37, .T. ) ;
#92 = ADVANCED_FACE ( 'NONE', ( #251 ), #148, .T. ) ;
#93 = CARTESIAN_POINT ( 'NONE',  ( -1042.500000000000000, -16.14999999999999900, -1.700000000000056600 ) ) ;
#94 = ADVANCED_FACE ( 'NONE', ( #31 ), #20, .F. ) ;
#95 = ORIENTED_EDGE ( 'NONE', *, *, #105, .T. ) ;
#96 = VECTOR ( 'NONE', #113, 1000.000000000000000 ) ;
#97 = EDGE_LOOP ( 'NONE', ( #35, #63, #275, #250 ) ) ;
#98 = EDGE_CURVE ( 'NONE', #142, #270, #180, .T. ) ;
#99 = DIRECTION ( 'NONE',  ( 1.000000000000000000, 0.0000000000000000000, 0.0000000000000000000 ) ) ;
#100 = SECURITY_CLASSIFICATION_LEVEL ( 'unclassified' ) ;
#101 = ORIENTED_EDGE ( 'NONE', *, *, #318, .T. ) ;
#102 = APPROVAL ( #349, 'UNSPECIFIED' ) ;
#103 = LOCAL_TIME ( 11, 16, 9.000000000000000000, #176 ) ;
#104 = DIRECTION ( 'NONE',  ( 0.0000000000000000000, 1.000000000000000000, -3.437222986455592900E-015 ) ) ;
#105 = EDGE_CURVE ( 'NONE', #164, #186, #107, .T. ) ;
#106 = VERTEX_POINT ( 'NONE', #173 ) ;
#107 = LINE ( 'NONE', #167, #241 ) ;
#108 = ORIENTED_EDGE ( 'NONE', *, *, #81, .F. ) ;
#109 = EDGE_CURVE ( 'NONE', #308, #9, #324, .T. ) ;
#110 = DIRECTION ( 'NONE',  ( -4.232467377468589100E-031, -3.437222986455592900E-015, -1.000000000000000000 ) ) ;
#111 = AXIS2_PLACEMENT_3D ( 'NONE', #178, #29, #27 ) ;
#112 = ORGANIZATION ( 'UNSPECIFIED', 'UNSPECIFIED', '' ) ;
#113 = DIRECTION ( 'NONE',  ( 0.0000000000000000000, -1.000000000000000000, 3.437222986455592900E-015 ) ) ;
#114 = DIRECTION ( 'NONE',  ( 0.0000000000000000000, -1.000000000000000000, -3.491481338843133700E-015 ) ) ;
#115 = CARTESIAN_POINT ( 'NONE',  ( 0.0000000000000000000, 2.444036937190193300E-015, -1.700000000000000200 ) ) ;
#116 = VECTOR ( 'NONE', #361, 1000.000000000000000 ) ;
#117 = DIRECTION ( 'NONE',  ( -1.231362467360036000E-016, -1.000000000000000000, 3.491481338843133400E-015 ) ) ;
#118 = DIRECTION ( 'NONE',  ( 0.0000000000000000000, -3.491481338843133400E-015, 1.000000000000000000 ) ) ;
#119 = DIRECTION ( 'NONE',  ( -0.0000000000000000000, -0.0000000000000000000, -1.000000000000000000 ) ) ;
#120 = VECTOR ( 'NONE', #119, 1000.000000000000000 ) ;
#121 =( LENGTH_UNIT ( ) NAMED_UNIT ( * ) SI_UNIT ( .MILLI., .METRE. ) );
#122 = ORIENTED_EDGE ( 'NONE', *, *, #213, .F. ) ;
#123 = CARTESIAN_POINT ( 'NONE',  ( -1042.500000000000000, 0.7000000000000001800, -1.700000000000000200 ) ) ;
#124 = CARTESIAN_POINT ( 'NONE',  ( -1.988650384786442700E-015, -16.14999999999987400, 49.00000000000005700 ) ) ;
#125 = CC_DESIGN_APPROVAL ( #102, ( #72 ) ) ;
#126 = FACE_OUTER_BOUND ( 'NONE', #181, .T. ) ;
#127 = EDGE_CURVE ( 'NONE', #186, #309, #171, .T. ) ;
#128 = ORIENTED_EDGE ( 'NONE', *, *, #105, .F. ) ;
#129 = APPROVAL_DATE_TIME ( #193, #261 ) ;
#130 = EDGE_CURVE ( 'NONE', #156, #164, #19, .T. ) ;
#131 = PERSON_AND_ORGANIZATION_ROLE ( 'design_owner' ) ;
#132 = DATE_TIME_ROLE ( 'classification_date' ) ;
#133 = EDGE_LOOP ( 'NONE', ( #290, #320, #192, #26 ) ) ;
#134 = VECTOR ( 'NONE', #286, 1000.000000000000000 ) ;
#135 = VECTOR ( 'NONE', #234, 1000.000000000000000 ) ;
#136 = VERTEX_POINT ( 'NONE', #141 ) ;
#137 = APPROVAL_PERSON_ORGANIZATION ( #203, #261, #162 ) ;
#138 = VECTOR ( 'NONE', #50, 1000.000000000000000 ) ;
#139 = VECTOR ( 'NONE', #25, 1000.000000000000000 ) ;
#140 = CC_DESIGN_PERSON_AND_ORGANIZATION_ASSIGNMENT ( #170, #6, ( #72 ) ) ;
#141 = CARTESIAN_POINT ( 'NONE',  ( -1042.500000000000000, -16.14999999999973900, 49.70000000000006000 ) ) ;
#142 = VERTEX_POINT ( 'NONE', #355 ) ;
#143 = ORIENTED_EDGE ( 'NONE', *, *, #213, .T. ) ;
#144 = DIRECTION ( 'NONE',  ( 0.0000000000000000000, -3.491481338843133400E-015, -1.000000000000000000 ) ) ;
#145 = COORDINATED_UNIVERSAL_TIME_OFFSET ( 3, 0, .AHEAD. ) ;
#146 = DIRECTION ( 'NONE',  ( 0.0000000000000000000, 3.491481338843133700E-015, -1.000000000000000000 ) ) ;
#147 = PERSON ( 'UNSPECIFIED', 'UNSPECIFIED', 'UNSPECIFIED', ('UNSPECIFIED'), ('UNSPECIFIED'), ('UNSPECIFIED') ) ;
#148 = PLANE ( 'NONE',  #153 ) ;
#149 = EDGE_CURVE ( 'NONE', #53, #9, #4, .T. ) ;
#150 = PLANE ( 'NONE',  #332 ) ;
#151 = FACE_OUTER_BOUND ( 'NONE', #155, .T. ) ;
#152 = CARTESIAN_POINT ( 'NONE',  ( 1042.500000000000000, -16.14999999999999900, -1.700000000000056600 ) ) ;
#153 = AXIS2_PLACEMENT_3D ( 'NONE', #255, #80, #51 ) ;
#154 = DIRECTION ( 'NONE',  ( -0.0000000000000000000, -0.0000000000000000000, -1.000000000000000000 ) ) ;
#155 = EDGE_LOOP ( 'NONE', ( #356, #42, #8, #5 ) ) ;
#156 = VERTEX_POINT ( 'NONE', #44 ) ;
#157 = DIRECTION ( 'NONE',  ( 0.0000000000000000000, 0.0000000000000000000, 1.000000000000000000 ) ) ;
#158 = DATE_AND_TIME ( #219, #303 ) ;
#159 = VECTOR ( 'NONE', #144, 1000.000000000000000 ) ;
#160 = APPLICATION_PROTOCOL_DEFINITION ( 'international standard', 'config_control_design', 1994, #325 ) ;
#161 = ORIENTED_EDGE ( 'NONE', *, *, #195, .T. ) ;
#162 = APPROVAL_ROLE ( '' ) ;
#163 = ORIENTED_EDGE ( 'NONE', *, *, #182, .T. ) ;
#164 = VERTEX_POINT ( 'NONE', #16 ) ;
#165 = CC_DESIGN_DATE_AND_TIME_ASSIGNMENT ( #233, #205, ( #72 ) ) ;
#166 = PERSON_AND_ORGANIZATION ( #147, #112 ) ;
#167 = CARTESIAN_POINT ( 'NONE',  ( 2.031584341184922900E-029, 2.465190328815661900E-029, 49.00000000000000000 ) ) ;
#168 = VECTOR ( 'NONE', #333, 1000.000000000000000 ) ;
#169 = EDGE_CURVE ( 'NONE', #136, #156, #315, .T. ) ;
#170 = PERSON_AND_ORGANIZATION ( #147, #112 ) ;
#171 = LINE ( 'NONE', #246, #96 ) ;
#172 = CARTESIAN_POINT ( 'NONE',  ( -1042.500000000000000, 0.7000000000000017300, 49.70000000000000300 ) ) ;
#173 = CARTESIAN_POINT ( 'NONE',  ( 1042.500000000000000, 0.7000000000000017300, 49.70000000000000300 ) ) ;
#174 = DIRECTION ( 'NONE',  ( -1.000000000000000000, 0.0000000000000000000, 0.0000000000000000000 ) ) ;
#175 = PLANE ( 'NONE',  #252 ) ;
#176 = COORDINATED_UNIVERSAL_TIME_OFFSET ( 3, 0, .AHEAD. ) ;
#177 = PRODUCT_DEFINITION_FORMATION_WITH_SPECIFIED_SOURCE ( 'ANY', '', #85, .NOT_KNOWN. ) ;
#178 = CARTESIAN_POINT ( 'NONE',  ( 1042.500000000000000, 0.6999999999999999600, 48.00000000000000000 ) ) ;
#179 = AXIS2_PLACEMENT_3D ( 'NONE', #87, #366, #228 ) ;
#180 = LINE ( 'NONE', #70, #335 ) ;
#181 = EDGE_LOOP ( 'NONE', ( #143, #210, #230, #242, #244, #336, #161, #347 ) ) ;
#182 = EDGE_CURVE ( 'NONE', #46, #53, #235, .T. ) ;
#183 = APPROVAL_ROLE ( '' ) ;
#184 = AXIS2_PLACEMENT_3D ( 'NONE', #339, #110, #104 ) ;
#185 = SHAPE_DEFINITION_REPRESENTATION ( #294, #344 ) ;
#186 = VERTEX_POINT ( 'NONE', #313 ) ;
#187 = LINE ( 'NONE', #1, #330 ) ;
#188 = LINE ( 'NONE', #289, #269 ) ;
#189 = EDGE_LOOP ( 'NONE', ( #68, #310, #291, #243 ) ) ;
#190 = APPROVAL ( #33, 'UNSPECIFIED' ) ;
#191 = LINE ( 'NONE', #285, #116 ) ;
#192 = ORIENTED_EDGE ( 'NONE', *, *, #331, .T. ) ;
#193 = DATE_AND_TIME ( #273, #348 ) ;
#194 = DIRECTION ( 'NONE',  ( 0.0000000000000000000, 1.000000000000000000, -3.437222986455592900E-015 ) ) ;
#195 = EDGE_CURVE ( 'NONE', #368, #309, #82, .T. ) ;
#196 = DIRECTION ( 'NONE',  ( 0.0000000000000000000, -1.000000000000000000, 0.0000000000000000000 ) ) ;
#197 = CARTESIAN_POINT ( 'NONE',  ( 1042.500000000000000, 0.6999999999999999600, 48.00000000000000000 ) ) ;
#198 = LINE ( 'NONE', #54, #120 ) ;
#199 = CARTESIAN_POINT ( 'NONE',  ( 1042.500000000000000, -3.851859888774471700E-031, -1.000000000000000000 ) ) ;
#200 = CARTESIAN_POINT ( 'NONE',  ( -1042.500000000000000, -16.15000000000000200, -1.000000000000056400 ) ) ;
#201 = DIRECTION ( 'NONE',  ( -0.0000000000000000000, -0.0000000000000000000, -1.000000000000000000 ) ) ;
#202 = LINE ( 'NONE', #197, #280 ) ;
#203 = PERSON_AND_ORGANIZATION ( #147, #112 ) ;
#204 =( NAMED_UNIT ( * ) SI_UNIT ( $, .STERADIAN. ) SOLID_ANGLE_UNIT ( ) );
#205 = DATE_TIME_ROLE ( 'creation_date' ) ;
#206 = FACE_OUTER_BOUND ( 'NONE', #133, .T. ) ;
#207 = LINE ( 'NONE', #342, #139 ) ;
#208 = CC_DESIGN_APPROVAL ( #190, ( #177 ) ) ;
#209 = ORIENTED_EDGE ( 'NONE', *, *, #130, .T. ) ;
#210 = ORIENTED_EDGE ( 'NONE', *, *, #298, .F. ) ;
#211 = PERSON_AND_ORGANIZATION ( #147, #112 ) ;
#212 = AXIS2_PLACEMENT_3D ( 'NONE', #287, #226, #225 ) ;
#213 = EDGE_CURVE ( 'NONE', #186, #367, #362, .T. ) ;
#214 = VECTOR ( 'NONE', #48, 1000.000000000000000 ) ;
#215 = AXIS2_PLACEMENT_3D ( 'NONE', #115, #146, #337 ) ;
#216 = CARTESIAN_POINT ( 'NONE',  ( -1042.500000000000000, 1.649867033498684800E-013, 49.00000000000000000 ) ) ;
#217 = ORIENTED_EDGE ( 'NONE', *, *, #78, .F. ) ;
#218 = ADVANCED_FACE ( 'NONE', ( #151 ), #283, .T. ) ;
#219 = CALENDAR_DATE ( 2016, 14, 3 ) ;
#220 = CARTESIAN_POINT ( 'NONE',  ( -1043.489949493661200, 0.7000000000000017300, 49.70000000000000300 ) ) ;
#221 = CARTESIAN_POINT ( 'NONE',  ( -1043.489949493661200, 0.7000000000000001800, -1.700000000000000200 ) ) ;
#222 = DIRECTION ( 'NONE',  ( -1.000000000000000000, -0.0000000000000000000, -0.0000000000000000000 ) ) ;
#223 = CARTESIAN_POINT ( 'NONE',  ( 1042.500000000000000, -16.15000000000000200, -1.000000000000056400 ) ) ;
#224 = VECTOR ( 'NONE', #114, 1000.000000000000000 ) ;
#225 = DIRECTION ( 'NONE',  ( 0.0000000000000000000, 1.000000000000000000, 3.491481338843133700E-015 ) ) ;
#226 = DIRECTION ( 'NONE',  ( 0.0000000000000000000, 3.491481338843133700E-015, -1.000000000000000000 ) ) ;
#227 = ORIENTED_EDGE ( 'NONE', *, *, #109, .F. ) ;
#228 = DIRECTION ( 'NONE',  ( 0.0000000000000000000, 3.491481338843133400E-015, -1.000000000000000000 ) ) ;
#229 = ORIENTED_EDGE ( 'NONE', *, *, #256, .F. ) ;
#230 = ORIENTED_EDGE ( 'NONE', *, *, #350, .F. ) ;
#231 = CARTESIAN_POINT ( 'NONE',  ( -1042.500000000000000, 0.0000000000000000000, 48.00000000000000000 ) ) ;
#232 = CC_DESIGN_PERSON_AND_ORGANIZATION_ASSIGNMENT ( #357, #65, ( #177 ) ) ;
#233 = DATE_AND_TIME ( #311, #10 ) ;
#234 = DIRECTION ( 'NONE',  ( -1.000000000000000000, 1.231362467360036000E-016, -8.758115402030106700E-047 ) ) ;
#235 = LINE ( 'NONE', #334, #224 ) ;
#236 = APPLICATION_PROTOCOL_DEFINITION ( 'international standard', 'config_control_design', 1994, #266 ) ;
#237 = EDGE_CURVE ( 'NONE', #265, #106, #71, .T. ) ;
#238 = APPROVAL_ROLE ( '' ) ;
#239 = ORIENTED_EDGE ( 'NONE', *, *, #62, .F. ) ;
#240 = APPROVAL_DATE_TIME ( #323, #102 ) ;
#241 = VECTOR ( 'NONE', #66, 1000.000000000000000 ) ;
#242 = ORIENTED_EDGE ( 'NONE', *, *, #98, .T. ) ;
#243 = ORIENTED_EDGE ( 'NONE', *, *, #298, .T. ) ;
#244 = ORIENTED_EDGE ( 'NONE', *, *, #37, .F. ) ;
#245 = APPROVAL_PERSON_ORGANIZATION ( #329, #102, #183 ) ;
#246 = CARTESIAN_POINT ( 'NONE',  ( 1042.500000000000000, 1.649867033498684800E-013, 49.00000000000000000 ) ) ;
#247 = CC_DESIGN_PERSON_AND_ORGANIZATION_ASSIGNMENT ( #293, #267, ( #177 ) ) ;
#248 = DIRECTION ( 'NONE',  ( 0.0000000000000000000, -3.491481338843133400E-015, 1.000000000000000000 ) ) ;
#249 = DIRECTION ( 'NONE',  ( -0.0000000000000000000, 1.000000000000000000, 3.491481338843133700E-015 ) ) ;
#250 = ORIENTED_EDGE ( 'NONE', *, *, #331, .F. ) ;
#251 = FACE_OUTER_BOUND ( 'NONE', #302, .T. ) ;
#252 = AXIS2_PLACEMENT_3D ( 'NONE', #231, #174, #157 ) ;
#253 = PLANE ( 'NONE',  #260 ) ;
#254 = DIRECTION ( 'NONE',  ( 1.000000000000000000, 0.0000000000000000000, 0.0000000000000000000 ) ) ;
#255 = CARTESIAN_POINT ( 'NONE',  ( -1042.500000000000000, 0.0000000000000000000, 48.00000000000000000 ) ) ;
#256 = EDGE_CURVE ( 'NONE', #46, #270, #288, .T. ) ;
#257 = CARTESIAN_POINT ( 'NONE',  ( 1042.500000000000000, -16.15000000000000200, 49.00000000000005700 ) ) ;
#258 = DIRECTION ( 'NONE',  ( 0.0000000000000000000, 0.0000000000000000000, 1.000000000000000000 ) ) ;
#259 = VECTOR ( 'NONE', #118, 1000.000000000000000 ) ;
#260 = AXIS2_PLACEMENT_3D ( 'NONE', #79, #117, #314 ) ;
#261 = APPROVAL ( #326, 'UNSPECIFIED' ) ;
#262 = ADVANCED_FACE ( 'NONE', ( #206 ), #253, .T. ) ;
#263 = VECTOR ( 'NONE', #154, 1000.000000000000000 ) ;
#264 = ADVANCED_FACE ( 'NONE', ( #55 ), #338, .T. ) ;
#265 = VERTEX_POINT ( 'NONE', #172 ) ;
#266 = APPLICATION_CONTEXT ( 'configuration controlled 3d designs of mechanical parts and assemblies' ) ;
#267 = PERSON_AND_ORGANIZATION_ROLE ( 'design_supplier' ) ;
#268 = ORIENTED_EDGE ( 'NONE', *, *, #237, .T. ) ;
#269 = VECTOR ( 'NONE', #86, 1000.000000000000000 ) ;
#270 = VERTEX_POINT ( 'NONE', #52 ) ;
#271 = SECURITY_CLASSIFICATION ( '', '', #100 ) ;
#272 = LINE ( 'NONE', #2, #263 ) ;
#273 = CALENDAR_DATE ( 2016, 14, 3 ) ;
#274 = EDGE_CURVE ( 'NONE', #136, #265, #354, .T. ) ;
#275 = ORIENTED_EDGE ( 'NONE', *, *, #274, .F. ) ;
#276 = LINE ( 'NONE', #84, #343 ) ;
#277 = CC_DESIGN_APPROVAL ( #261, ( #271 ) ) ;
#278 = DIRECTION ( 'NONE',  ( -0.0000000000000000000, -1.000000000000000000, -3.491481338843133700E-015 ) ) ;
#279 = CARTESIAN_POINT ( 'NONE',  ( -1042.500000000000000, -16.14999999999973900, 49.70000000000006000 ) ) ;
#280 = VECTOR ( 'NONE', #201, 1000.000000000000000 ) ;
#281 = CARTESIAN_POINT ( 'NONE',  ( -1042.500000000000000, 0.0000000000000000000, -1.000000000000000000 ) ) ;
#282 = DATE_AND_TIME ( #353, #61 ) ;
#283 = PLANE ( 'NONE',  #215 ) ;
#284 = CARTESIAN_POINT ( 'NONE',  ( 2.031584341184922900E-029, 1.649867033498684800E-013, 49.00000000000000000 ) ) ;
#285 = CARTESIAN_POINT ( 'NONE',  ( 0.0000000000000000000, -16.15000000000000200, -1.000000000000056400 ) ) ;
#286 = DIRECTION ( 'NONE',  ( -0.0000000000000000000, 1.000000000000000000, -3.437222986455592900E-015 ) ) ;
#287 = CARTESIAN_POINT ( 'NONE',  ( 0.0000000000000000000, 0.0000000000000000000, -1.000000000000000000 ) ) ;
#288 = LINE ( 'NONE', #221, #138 ) ;
#289 = CARTESIAN_POINT ( 'NONE',  ( 1042.500000000000000, -16.14999999999999900, 49.70000000000006000 ) ) ;
#290 = ORIENTED_EDGE ( 'NONE', *, *, #13, .F. ) ;
#291 = ORIENTED_EDGE ( 'NONE', *, *, #78, .T. ) ;
#292 = CC_DESIGN_PERSON_AND_ORGANIZATION_ASSIGNMENT ( #211, #299, ( #271 ) ) ;
#293 = PERSON_AND_ORGANIZATION ( #147, #112 ) ;
#294 = PRODUCT_DEFINITION_SHAPE ( 'NONE', 'NONE',  #72 ) ;
#295 = MECHANICAL_CONTEXT ( 'NONE', #266, 'mechanical' ) ;
#296 = VERTEX_POINT ( 'NONE', #223 ) ;
#297 = VECTOR ( 'NONE', #17, 1000.000000000000000 ) ;
#298 = EDGE_CURVE ( 'NONE', #296, #367, #276, .T. ) ;
#299 = PERSON_AND_ORGANIZATION_ROLE ( 'classification_officer' ) ;
#300 = AXIS2_PLACEMENT_3D ( 'NONE', #284, #360, #194 ) ;
#301 = CC_DESIGN_SECURITY_CLASSIFICATION ( #271, ( #177 ) ) ;
#302 = EDGE_LOOP ( 'NONE', ( #89, #108, #122, #128 ) ) ;
#303 = LOCAL_TIME ( 11, 16, 9.000000000000000000, #369 ) ;
#304 = ADVANCED_FACE ( 'NONE', ( #40 ), #150, .F. ) ;
#305 = ORIENTED_EDGE ( 'NONE', *, *, #60, .T. ) ;
#306 = VECTOR ( 'NONE', #248, 1000.000000000000000 ) ;
#307 = UNCERTAINTY_MEASURE_WITH_UNIT (LENGTH_MEASURE( 1.000000000000000100E-005 ), #121, 'distance_accuracy_value', 'NONE');
#308 = VERTEX_POINT ( 'NONE', #317 ) ;
#309 = VERTEX_POINT ( 'NONE', #257 ) ;
#310 = ORIENTED_EDGE ( 'NONE', *, *, #109, .T. ) ;
#311 = CALENDAR_DATE ( 2016, 14, 3 ) ;
#312 = CC_DESIGN_DATE_AND_TIME_ASSIGNMENT ( #282, #132, ( #271 ) ) ;
#313 = CARTESIAN_POINT ( 'NONE',  ( 1042.500000000000000, 0.0000000000000000000, 49.00000000000000000 ) ) ;
#314 = DIRECTION ( 'NONE',  ( 0.0000000000000000000, -3.491481338843133400E-015, -1.000000000000000000 ) ) ;
#315 = LINE ( 'NONE', #279, #159 ) ;
#316 = CARTESIAN_POINT ( 'NONE',  ( 1042.500000000000000, -16.14999999999999900, -1.700000000000056600 ) ) ;
#317 = CARTESIAN_POINT ( 'NONE',  ( -1042.500000000000000, 0.0000000000000000000, -1.000000000000000000 ) ) ;
#318 = EDGE_CURVE ( 'NONE', #265, #46, #198, .T. ) ;
#319 = PLANE ( 'NONE',  #212 ) ;
#320 = ORIENTED_EDGE ( 'NONE', *, *, #195, .F. ) ;
#321 =( GEOMETRIC_REPRESENTATION_CONTEXT ( 3 ) GLOBAL_UNCERTAINTY_ASSIGNED_CONTEXT ( ( #307 ) ) GLOBAL_UNIT_ASSIGNED_CONTEXT ( ( #121, #3, #204 ) ) REPRESENTATION_CONTEXT ( 'NONE', 'WORKASPACE' ) );
#322 = PRODUCT_RELATED_PRODUCT_CATEGORY ( 'detail', '', ( #85 ) ) ;
#323 = DATE_AND_TIME ( #15, #103 ) ;
#324 = LINE ( 'NONE', #281, #11 ) ;
#325 = APPLICATION_CONTEXT ( 'configuration controlled 3d designs of mechanical parts and assemblies' ) ;
#326 = APPROVAL_STATUS ( 'not_yet_approved' ) ;
#327 = ORIENTED_EDGE ( 'NONE', *, *, #318, .F. ) ;
#328 = FACE_OUTER_BOUND ( 'NONE', #74, .T. ) ;
#329 = PERSON_AND_ORGANIZATION ( #147, #112 ) ;
#330 = VECTOR ( 'NONE', #222, 1000.000000000000000 ) ;
#331 = EDGE_CURVE ( 'NONE', #368, #136, #188, .T. ) ;
#332 = AXIS2_PLACEMENT_3D ( 'NONE', #363, #196, #24 ) ;
#333 = DIRECTION ( 'NONE',  ( 0.0000000000000000000, 1.000000000000000000, -3.437222986455592900E-015 ) ) ;
#334 = CARTESIAN_POINT ( 'NONE',  ( -1042.500000000000000, -16.14999999999999900, -1.700000000000056600 ) ) ;
#335 = VECTOR ( 'NONE', #249, 1000.000000000000000 ) ;
#336 = ORIENTED_EDGE ( 'NONE', *, *, #364, .T. ) ;
#337 = DIRECTION ( 'NONE',  ( 0.0000000000000000000, 1.000000000000000000, 3.491481338843133700E-015 ) ) ;
#338 = PLANE ( 'NONE',  #300 ) ;
#339 = CARTESIAN_POINT ( 'NONE',  ( 2.031584341184922900E-029, 1.674307402870586800E-013, 49.70000000000000300 ) ) ;
#340 = DIRECTION ( 'NONE',  ( -0.0000000000000000000, 1.000000000000000000, 3.491481338843133700E-015 ) ) ;
#341 = EDGE_LOOP ( 'NONE', ( #91, #229, #327, #268 ) ) ;
#342 = CARTESIAN_POINT ( 'NONE',  ( 1042.500000000000000, 2.444036937190193300E-015, 49.70000000000000300 ) ) ;
#343 = VECTOR ( 'NONE', #340, 1000.000000000000000 ) ;
#344 = ADVANCED_BREP_SHAPE_REPRESENTATION ( 'CLP1K-050-2 ¦¨v°úð ýð ûþªþú þ¸ý. 50 ( ôûøýð 2 üõª¨ð)', ( #43, #36 ), #321 ) ;
#345 = PLANE ( 'NONE',  #179 ) ;
#346 = VECTOR ( 'NONE', #254, 1000.000000000000000 ) ;
#347 = ORIENTED_EDGE ( 'NONE', *, *, #127, .F. ) ;
#348 = LOCAL_TIME ( 11, 16, 9.000000000000000000, #49 ) ;
#349 = APPROVAL_STATUS ( 'not_yet_approved' ) ;
#350 = EDGE_CURVE ( 'NONE', #142, #296, #34, .T. ) ;
#351 = LINE ( 'NONE', #124, #135 ) ;
#352 = CLOSED_SHELL ( 'NONE', ( #304, #41, #92, #57, #7, #218, #23, #262, #94, #264 ) ) ;
#353 = CALENDAR_DATE ( 2016, 14, 3 ) ;
#354 = LINE ( 'NONE', #22, #134 ) ;
#355 = CARTESIAN_POINT ( 'NONE',  ( 1042.500000000000000, -16.14999999999999900, -1.700000000000056600 ) ) ;
#356 = ORIENTED_EDGE ( 'NONE', *, *, #182, .F. ) ;
#357 = PERSON_AND_ORGANIZATION ( #147, #112 ) ;
#358 = CARTESIAN_POINT ( 'NONE',  ( 1042.500000000000000, 0.0000000000000000000, 48.00000000000000000 ) ) ;
#359 = DIRECTION ( 'NONE',  ( 1.000000000000000000, 0.0000000000000000000, 0.0000000000000000000 ) ) ;
#360 = DIRECTION ( 'NONE',  ( -4.232467377468589100E-031, -3.437222986455592900E-015, -1.000000000000000000 ) ) ;
#361 = DIRECTION ( 'NONE',  ( 1.000000000000000000, -0.0000000000000000000, -0.0000000000000000000 ) ) ;
#362 = LINE ( 'NONE', #358, #297 ) ;
#363 = CARTESIAN_POINT ( 'NONE',  ( -1042.500000000000000, 0.6999999999999999600, 48.00000000000000000 ) ) ;
#364 = EDGE_CURVE ( 'NONE', #106, #368, #207, .T. ) ;
#365 = CARTESIAN_POINT ( 'NONE',  ( 0.0000000000000000000, 0.0000000000000000000, 0.0000000000000000000 ) ) ;
#366 = DIRECTION ( 'NONE',  ( 0.0000000000000000000, -1.000000000000000000, -3.491481338843133400E-015 ) ) ;
#367 = VERTEX_POINT ( 'NONE', #199 ) ;
#368 = VERTEX_POINT ( 'NONE', #56 ) ;
#369 = COORDINATED_UNIVERSAL_TIME_OFFSET ( 3, 0, .AHEAD. ) ;
ENDSEC;
END-ISO-10303-21;
