ISO-10303-21;
HEADER;
FILE_DESCRIPTION (( 'STEP AP203' ),
    '1' );
FILE_NAME ('CTA12D-M040-K02 Ìóôòà ñîåäèíèòåëüíàÿ äëÿ äâóñòåííîé òðóáû d40.STEP',
    '2016-06-20T13:40:07',
    ( '' ),
    ( '' ),
    'SwSTEP 2.0',
    'SolidWorks 2014',
    '' );
FILE_SCHEMA (( 'CONFIG_CONTROL_DESIGN' ));
ENDSEC;

DATA;
#1 = VERTEX_POINT ( 'NONE', #94 ) ;
#2 = APPROVAL ( #118, 'UNSPECIFIED' ) ;
#3 = EDGE_LOOP ( 'NONE', ( #243 ) ) ;
#4 = APPROVAL_DATE_TIME ( #44, #2 ) ;
#5 = PRODUCT_DEFINITION_SHAPE ( 'NONE', 'NONE',  #241 ) ;
#6 = CLOSED_SHELL ( 'NONE', ( #129, #196, #240, #169, #226, #213, #242, #227 ) ) ;
#7 = AXIS2_PLACEMENT_3D ( 'NONE', #203, #72, #85 ) ;
#8 = APPROVAL_PERSON_ORGANIZATION ( #47, #2, #120 ) ;
#9 = EDGE_CURVE ( 'NONE', #52, #52, #19, .T. ) ;
#10 = AXIS2_PLACEMENT_3D ( 'NONE', #78, #137, #130 ) ;
#11 = ORIENTED_EDGE ( 'NONE', *, *, #228, .T. ) ;
#12 = CC_DESIGN_APPROVAL ( #2, ( #241 ) ) ;
#13 = VERTEX_POINT ( 'NONE', #84 ) ;
#14 = VERTEX_POINT ( 'NONE', #98 ) ;
#15 = DIRECTION ( 'NONE',  ( -1.000000000000000000, -0.0000000000000000000, -0.0000000000000000000 ) ) ;
#16 = AXIS2_PLACEMENT_3D ( 'NONE', #161, #160, #162 ) ;
#17 = CIRCLE ( 'NONE', #46, 19.99999999999999600 ) ;
#18 = CIRCLE ( 'NONE', #249, 18.49999999999996100 ) ;
#19 = CIRCLE ( 'NONE', #246, 21.50000000000000000 ) ;
#20 = AXIS2_PLACEMENT_3D ( 'NONE', #143, #138, #144 ) ;
#21 = CIRCLE ( 'NONE', #189, 18.49999999999996100 ) ;
#22 = CC_DESIGN_PERSON_AND_ORGANIZATION_ASSIGNMENT ( #216, #119, ( #241 ) ) ;
#23 = ORIENTED_EDGE ( 'NONE', *, *, #179, .T. ) ;
#24 = DATE_AND_TIME ( #58, #149 ) ;
#25 = AXIS2_PLACEMENT_3D ( 'NONE', #132, #178, #76 ) ;
#26 = APPROVAL_STATUS ( 'not_yet_approved' ) ;
#27 = ORIENTED_EDGE ( 'NONE', *, *, #179, .F. ) ;
#28 = PERSON_AND_ORGANIZATION ( #80, #184 ) ;
#29 = CIRCLE ( 'NONE', #37, 21.50000000000000000 ) ;
#30 = CALENDAR_DATE ( 2016, 20, 6 ) ;
#31 = CC_DESIGN_DATE_AND_TIME_ASSIGNMENT ( #248, #125, ( #241 ) ) ;
#32 = ORIENTED_EDGE ( 'NONE', *, *, #187, .T. ) ;
#33 = LOCAL_TIME ( 16, 40, 7.000000000000000000, #68 ) ;
#34 = FACE_BOUND ( 'NONE', #208, .T. ) ;
#35 = DATE_TIME_ROLE ( 'classification_date' ) ;
#36 = SHAPE_DEFINITION_REPRESENTATION ( #5, #211 ) ;
#37 = AXIS2_PLACEMENT_3D ( 'NONE', #168, #166, #163 ) ;
#38 = EDGE_LOOP ( 'NONE', ( #23 ) ) ;
#39 = APPROVAL_ROLE ( '' ) ;
#40 = CALENDAR_DATE ( 2016, 20, 6 ) ;
#41 = CONICAL_SURFACE ( 'NONE', #51, 19.99999999999999600, 1.265363707695981800 ) ;
#42 = PRODUCT_DEFINITION_FORMATION_WITH_SPECIFIED_SOURCE ( 'ANY', '', #89, .NOT_KNOWN. ) ;
#43 = EDGE_LOOP ( 'NONE', ( #133 ) ) ;
#44 = DATE_AND_TIME ( #95, #181 ) ;
#45 = EDGE_LOOP ( 'NONE', ( #190 ) ) ;
#46 = AXIS2_PLACEMENT_3D ( 'NONE', #135, #123, #131 ) ;
#47 = PERSON_AND_ORGANIZATION ( #80, #184 ) ;
#48 =( GEOMETRIC_REPRESENTATION_CONTEXT ( 3 ) GLOBAL_UNCERTAINTY_ASSIGNED_CONTEXT ( ( #63 ) ) GLOBAL_UNIT_ASSIGNED_CONTEXT ( ( #106, #105, #103 ) ) REPRESENTATION_CONTEXT ( 'NONE', 'WORKASPACE' ) );
#49 = APPROVAL ( #122, 'UNSPECIFIED' ) ;
#50 = FACE_OUTER_BOUND ( 'NONE', #247, .T. ) ;
#51 = AXIS2_PLACEMENT_3D ( 'NONE', #82, #164, #77 ) ;
#52 = VERTEX_POINT ( 'NONE', #99 ) ;
#53 = DIRECTION ( 'NONE',  ( 1.000000000000000000, 0.0000000000000000000, 0.0000000000000000000 ) ) ;
#54 = LOCAL_TIME ( 16, 40, 7.000000000000000000, #136 ) ;
#55 = AXIS2_PLACEMENT_3D ( 'NONE', #100, #108, #152 ) ;
#56 = CC_DESIGN_APPROVAL ( #49, ( #42 ) ) ;
#57 = EDGE_LOOP ( 'NONE', ( #67 ) ) ;
#58 = CALENDAR_DATE ( 2016, 20, 6 ) ;
#59 = CYLINDRICAL_SURFACE ( 'NONE', #25, 19.99999999999999600 ) ;
#60 = EDGE_LOOP ( 'NONE', ( #147 ) ) ;
#61 = CARTESIAN_POINT ( 'NONE',  ( -1229.991103041891800, 0.0000000000000000000, 0.0000000000000000000 ) ) ;
#62 = PERSON_AND_ORGANIZATION ( #80, #184 ) ;
#63 = UNCERTAINTY_MEASURE_WITH_UNIT (LENGTH_MEASURE( 1.000000000000000100E-005 ), #106, 'distance_accuracy_value', 'NONE');
#64 = PERSON_AND_ORGANIZATION_ROLE ( 'classification_officer' ) ;
#65 = CIRCLE ( 'NONE', #7, 19.99999999999999600 ) ;
#66 = CC_DESIGN_PERSON_AND_ORGANIZATION_ASSIGNMENT ( #62, #114, ( #42 ) ) ;
#67 = ORIENTED_EDGE ( 'NONE', *, *, #193, .T. ) ;
#68 = COORDINATED_UNIVERSAL_TIME_OFFSET ( 3, 0, .AHEAD. ) ;
#69 = FACE_OUTER_BOUND ( 'NONE', #45, .T. ) ;
#70 = FACE_OUTER_BOUND ( 'NONE', #219, .T. ) ;
#71 = CARTESIAN_POINT ( 'NONE',  ( 40.00000000000003600, 0.0000000000000000000, 0.0000000000000000000 ) ) ;
#72 = DIRECTION ( 'NONE',  ( -1.000000000000000000, -0.0000000000000000000, -0.0000000000000000000 ) ) ;
#73 = ORIENTED_EDGE ( 'NONE', *, *, #218, .T. ) ;
#74 = DIRECTION ( 'NONE',  ( -1.000000000000000000, -0.0000000000000000000, -0.0000000000000000000 ) ) ;
#75 = LOCAL_TIME ( 16, 40, 7.000000000000000000, #175 ) ;
#76 = DIRECTION ( 'NONE',  ( 0.0000000000000000000, 0.0000000000000000000, 1.000000000000000000 ) ) ;
#77 = DIRECTION ( 'NONE',  ( 0.0000000000000000000, 0.0000000000000000000, 1.000000000000000000 ) ) ;
#78 = CARTESIAN_POINT ( 'NONE',  ( 40.00000000000001400, 19.99999999999999600, 0.0000000000000000000 ) ) ;
#79 = DIRECTION ( 'NONE',  ( 0.0000000000000000000, 0.0000000000000000000, 1.000000000000000000 ) ) ;
#80 = PERSON ( 'UNSPECIFIED', 'UNSPECIFIED', 'UNSPECIFIED', ('UNSPECIFIED'), ('UNSPECIFIED'), ('UNSPECIFIED') ) ;
#81 = AXIS2_PLACEMENT_3D ( 'NONE', #176, #87, #153 ) ;
#82 = CARTESIAN_POINT ( 'NONE',  ( -1.972948183318390400, 0.0000000000000000000, 0.0000000000000000000 ) ) ;
#83 = FACE_OUTER_BOUND ( 'NONE', #182, .T. ) ;
#84 = CARTESIAN_POINT ( 'NONE',  ( -40.00000000000003600, 0.0000000000000000000, 19.99999999999999600 ) ) ;
#85 = DIRECTION ( 'NONE',  ( 0.0000000000000000000, 0.0000000000000000000, 1.000000000000000000 ) ) ;
#86 = CARTESIAN_POINT ( 'NONE',  ( -40.00000000000003600, 0.0000000000000000000, 0.0000000000000000000 ) ) ;
#87 = DIRECTION ( 'NONE',  ( -1.000000000000000000, -0.0000000000000000000, -0.0000000000000000000 ) ) ;
#88 = DIRECTION ( 'NONE',  ( 0.0000000000000000000, 0.0000000000000000000, 1.000000000000000000 ) ) ;
#89 = PRODUCT ( 'CTA12D-M040-K02 Ìóôòà ñîåäèíèòåëüíàÿ äëÿ äâóñòåííîé òðóáû d40', 'CTA12D-M040-K02 Ìóôòà ñîåäèíèòåëüíàÿ äëÿ äâóñòåííîé òðóáû d40', '', ( #121 ) ) ;
#90 = ORIENTED_EDGE ( 'NONE', *, *, #228, .F. ) ;
#91 = DIRECTION ( 'NONE',  ( -1.000000000000000000, -0.0000000000000000000, -0.0000000000000000000 ) ) ;
#92 = CC_DESIGN_PERSON_AND_ORGANIZATION_ASSIGNMENT ( #28, #113, ( #42 ) ) ;
#93 = CARTESIAN_POINT ( 'NONE',  ( 1.500000000000056800, 0.0000000000000000000, 18.49999999999996100 ) ) ;
#94 = CARTESIAN_POINT ( 'NONE',  ( -1.500000000000056800, 0.0000000000000000000, 18.49999999999996100 ) ) ;
#95 = CALENDAR_DATE ( 2016, 20, 6 ) ;
#96 = CARTESIAN_POINT ( 'NONE',  ( 0.0000000000000000000, 0.0000000000000000000, 0.0000000000000000000 ) ) ;
#97 = CARTESIAN_POINT ( 'NONE',  ( -40.00000000000003600, 0.0000000000000000000, 21.50000000000000000 ) ) ;
#98 = CARTESIAN_POINT ( 'NONE',  ( 1.972948183318390400, 0.0000000000000000000, 19.99999999999999600 ) ) ;
#99 = CARTESIAN_POINT ( 'NONE',  ( 40.00000000000003600, 0.0000000000000000000, 21.50000000000000000 ) ) ;
#100 = CARTESIAN_POINT ( 'NONE',  ( -1229.991103041891800, 0.0000000000000000000, 0.0000000000000000000 ) ) ;
#101 = CARTESIAN_POINT ( 'NONE',  ( -1.972948183318390400, 0.0000000000000000000, 19.99999999999999600 ) ) ;
#102 = ORIENTED_EDGE ( 'NONE', *, *, #193, .F. ) ;
#103 =( NAMED_UNIT ( * ) SI_UNIT ( $, .STERADIAN. ) SOLID_ANGLE_UNIT ( ) );
#104 = PERSON_AND_ORGANIZATION ( #80, #184 ) ;
#105 =( NAMED_UNIT ( * ) PLANE_ANGLE_UNIT ( ) SI_UNIT ( $, .RADIAN. ) );
#106 =( LENGTH_UNIT ( ) NAMED_UNIT ( * ) SI_UNIT ( .MILLI., .METRE. ) );
#107 = CARTESIAN_POINT ( 'NONE',  ( 40.00000000000003600, 0.0000000000000000000, 19.99999999999999600 ) ) ;
#108 = DIRECTION ( 'NONE',  ( -1.000000000000000000, -0.0000000000000000000, -0.0000000000000000000 ) ) ;
#109 = DESIGN_CONTEXT ( 'detailed design', #117, 'design' ) ;
#110 = FACE_OUTER_BOUND ( 'NONE', #202, .T. ) ;
#111 = SECURITY_CLASSIFICATION ( '', '', #112 ) ;
#112 = SECURITY_CLASSIFICATION_LEVEL ( 'unclassified' ) ;
#113 = PERSON_AND_ORGANIZATION_ROLE ( 'design_supplier' ) ;
#114 = PERSON_AND_ORGANIZATION_ROLE ( 'creator' ) ;
#115 = APPLICATION_PROTOCOL_DEFINITION ( 'international standard', 'config_control_design', 1994, #127 ) ;
#116 = APPLICATION_PROTOCOL_DEFINITION ( 'international standard', 'config_control_design', 1994, #117 ) ;
#117 = APPLICATION_CONTEXT ( 'configuration controlled 3d designs of mechanical parts and assemblies' ) ;
#118 = APPROVAL_STATUS ( 'not_yet_approved' ) ;
#119 = PERSON_AND_ORGANIZATION_ROLE ( 'creator' ) ;
#120 = APPROVAL_ROLE ( '' ) ;
#121 = MECHANICAL_CONTEXT ( 'NONE', #127, 'mechanical' ) ;
#122 = APPROVAL_STATUS ( 'not_yet_approved' ) ;
#123 = DIRECTION ( 'NONE',  ( -1.000000000000000000, -0.0000000000000000000, -0.0000000000000000000 ) ) ;
#124 = DIRECTION ( 'NONE',  ( 0.0000000000000000000, 0.0000000000000000000, 1.000000000000000000 ) ) ;
#125 = DATE_TIME_ROLE ( 'creation_date' ) ;
#126 = DIRECTION ( 'NONE',  ( 1.000000000000000000, 0.0000000000000000000, 0.0000000000000000000 ) ) ;
#127 = APPLICATION_CONTEXT ( 'configuration controlled 3d designs of mechanical parts and assemblies' ) ;
#128 = APPROVAL_ROLE ( '' ) ;
#129 = ADVANCED_FACE ( 'NONE', ( #110, #229 ), #59, .F. ) ;
#130 = DIRECTION ( 'NONE',  ( -0.0000000000000000000, 0.0000000000000000000, 1.000000000000000000 ) ) ;
#131 = DIRECTION ( 'NONE',  ( 0.0000000000000000000, 0.0000000000000000000, 1.000000000000000000 ) ) ;
#132 = CARTESIAN_POINT ( 'NONE',  ( -1229.991103041891800, 0.0000000000000000000, 0.0000000000000000000 ) ) ;
#133 = ORIENTED_EDGE ( 'NONE', *, *, #207, .T. ) ;
#134 = DIRECTION ( 'NONE',  ( -1.000000000000000000, -0.0000000000000000000, -0.0000000000000000000 ) ) ;
#135 = CARTESIAN_POINT ( 'NONE',  ( 40.00000000000003600, 0.0000000000000000000, 0.0000000000000000000 ) ) ;
#136 = COORDINATED_UNIVERSAL_TIME_OFFSET ( 3, 0, .AHEAD. ) ;
#137 = DIRECTION ( 'NONE',  ( -1.000000000000000000, 0.0000000000000000000, -0.0000000000000000000 ) ) ;
#138 = DIRECTION ( 'NONE',  ( -1.000000000000000000, -0.0000000000000000000, -0.0000000000000000000 ) ) ;
#139 = CARTESIAN_POINT ( 'NONE',  ( -40.00000000000001400, 19.99999999999999600, 0.0000000000000000000 ) ) ;
#140 = DIRECTION ( 'NONE',  ( 0.0000000000000000000, 0.0000000000000000000, 1.000000000000000000 ) ) ;
#141 = CARTESIAN_POINT ( 'NONE',  ( 1.500000000000056800, 0.0000000000000000000, 0.0000000000000000000 ) ) ;
#142 = FACE_OUTER_BOUND ( 'NONE', #3, .T. ) ;
#143 = CARTESIAN_POINT ( 'NONE',  ( 1.972948183318390400, 0.0000000000000000000, 0.0000000000000000000 ) ) ;
#144 = DIRECTION ( 'NONE',  ( 0.0000000000000000000, 0.0000000000000000000, 1.000000000000000000 ) ) ;
#145 = CC_DESIGN_PERSON_AND_ORGANIZATION_ASSIGNMENT ( #237, #64, ( #111 ) ) ;
#146 = PLANE ( 'NONE',  #10 ) ;
#147 = ORIENTED_EDGE ( 'NONE', *, *, #235, .T. ) ;
#148 = DIRECTION ( 'NONE',  ( 0.0000000000000000000, 0.0000000000000000000, 1.000000000000000000 ) ) ;
#149 = LOCAL_TIME ( 16, 40, 7.000000000000000000, #198 ) ;
#150 = DIRECTION ( 'NONE',  ( -1.000000000000000000, -0.0000000000000000000, -0.0000000000000000000 ) ) ;
#151 = CARTESIAN_POINT ( 'NONE',  ( -1.500000000000056800, 0.0000000000000000000, 0.0000000000000000000 ) ) ;
#152 = DIRECTION ( 'NONE',  ( 0.0000000000000000000, 0.0000000000000000000, 1.000000000000000000 ) ) ;
#153 = DIRECTION ( 'NONE',  ( 0.0000000000000000000, 0.0000000000000000000, 1.000000000000000000 ) ) ;
#154 = ORIENTED_EDGE ( 'NONE', *, *, #9, .T. ) ;
#155 = DIRECTION ( 'NONE',  ( 0.0000000000000000000, 0.0000000000000000000, -1.000000000000000000 ) ) ;
#156 = CC_DESIGN_DATE_AND_TIME_ASSIGNMENT ( #24, #35, ( #111 ) ) ;
#157 = MANIFOLD_SOLID_BREP ( 'Ïîâåðíóòü1', #6 ) ;
#158 = PLANE ( 'NONE',  #210 ) ;
#159 = APPROVAL_DATE_TIME ( #205, #49 ) ;
#160 = DIRECTION ( 'NONE',  ( 1.000000000000000000, 0.0000000000000000000, 0.0000000000000000000 ) ) ;
#161 = CARTESIAN_POINT ( 'NONE',  ( 1.500000000000056800, 0.0000000000000000000, 0.0000000000000000000 ) ) ;
#162 = DIRECTION ( 'NONE',  ( 0.0000000000000000000, 0.0000000000000000000, -1.000000000000000000 ) ) ;
#163 = DIRECTION ( 'NONE',  ( 0.0000000000000000000, 0.0000000000000000000, 1.000000000000000000 ) ) ;
#164 = DIRECTION ( 'NONE',  ( -1.000000000000000000, -0.0000000000000000000, -0.0000000000000000000 ) ) ;
#165 = FACE_BOUND ( 'NONE', #223, .T. ) ;
#166 = DIRECTION ( 'NONE',  ( -1.000000000000000000, -0.0000000000000000000, -0.0000000000000000000 ) ) ;
#167 = CYLINDRICAL_SURFACE ( 'NONE', #81, 18.49999999999996100 ) ;
#168 = CARTESIAN_POINT ( 'NONE',  ( -40.00000000000003600, 0.0000000000000000000, 0.0000000000000000000 ) ) ;
#169 = ADVANCED_FACE ( 'NONE', ( #50, #34 ), #206, .F. ) ;
#170 = PERSON_AND_ORGANIZATION_ROLE ( 'design_owner' ) ;
#171 = EDGE_LOOP ( 'NONE', ( #11 ) ) ;
#172 = APPROVAL_PERSON_ORGANIZATION ( #209, #49, #128 ) ;
#173 = FACE_OUTER_BOUND ( 'NONE', #180, .T. ) ;
#174 = EDGE_LOOP ( 'NONE', ( #236 ) ) ;
#175 = COORDINATED_UNIVERSAL_TIME_OFFSET ( 3, 0, .AHEAD. ) ;
#176 = CARTESIAN_POINT ( 'NONE',  ( -1229.991103041891800, 0.0000000000000000000, 0.0000000000000000000 ) ) ;
#177 = APPROVAL ( #26, 'UNSPECIFIED' ) ;
#178 = DIRECTION ( 'NONE',  ( -1.000000000000000000, -0.0000000000000000000, -0.0000000000000000000 ) ) ;
#179 = EDGE_CURVE ( 'NONE', #201, #201, #65, .T. ) ;
#180 = EDGE_LOOP ( 'NONE', ( #197 ) ) ;
#181 = LOCAL_TIME ( 16, 40, 7.000000000000000000, #220 ) ;
#182 = EDGE_LOOP ( 'NONE', ( #102 ) ) ;
#183 = FACE_OUTER_BOUND ( 'NONE', #215, .T. ) ;
#184 = ORGANIZATION ( 'UNSPECIFIED', 'UNSPECIFIED', '' ) ;
#185 = CC_DESIGN_APPROVAL ( #177, ( #111 ) ) ;
#186 = VERTEX_POINT ( 'NONE', #107 ) ;
#187 = EDGE_CURVE ( 'NONE', #225, #225, #29, .T. ) ;
#188 = VERTEX_POINT ( 'NONE', #93 ) ;
#189 = AXIS2_PLACEMENT_3D ( 'NONE', #141, #15, #140 ) ;
#190 = ORIENTED_EDGE ( 'NONE', *, *, #9, .F. ) ;
#191 = CC_DESIGN_SECURITY_CLASSIFICATION ( #111, ( #42 ) ) ;
#192 = APPROVAL_PERSON_ORGANIZATION ( #234, #177, #39 ) ;
#193 = EDGE_CURVE ( 'NONE', #186, #186, #17, .T. ) ;
#194 = FACE_OUTER_BOUND ( 'NONE', #43, .T. ) ;
#195 = FACE_OUTER_BOUND ( 'NONE', #171, .T. ) ;
#196 = ADVANCED_FACE ( 'NONE', ( #165, #199 ), #41, .F. ) ;
#197 = ORIENTED_EDGE ( 'NONE', *, *, #218, .F. ) ;
#198 = COORDINATED_UNIVERSAL_TIME_OFFSET ( 3, 0, .AHEAD. ) ;
#199 = FACE_OUTER_BOUND ( 'NONE', #38, .T. ) ;
#200 = APPROVAL_DATE_TIME ( #239, #177 ) ;
#201 = VERTEX_POINT ( 'NONE', #101 ) ;
#202 = EDGE_LOOP ( 'NONE', ( #27 ) ) ;
#203 = CARTESIAN_POINT ( 'NONE',  ( -1.972948183318390400, 0.0000000000000000000, 0.0000000000000000000 ) ) ;
#204 = PRODUCT_RELATED_PRODUCT_CATEGORY ( 'detail', '', ( #89 ) ) ;
#205 = DATE_AND_TIME ( #244, #33 ) ;
#206 = CONICAL_SURFACE ( 'NONE', #16, 18.49999999999996100, 1.265363707695981800 ) ;
#207 = EDGE_CURVE ( 'NONE', #14, #14, #232, .T. ) ;
#208 = EDGE_LOOP ( 'NONE', ( #73 ) ) ;
#209 = PERSON_AND_ORGANIZATION ( #80, #184 ) ;
#210 = AXIS2_PLACEMENT_3D ( 'NONE', #139, #53, #155 ) ;
#211 = ADVANCED_BREP_SHAPE_REPRESENTATION ( 'CTA12D-M040-K02 ¦º¯ªð ¸þõôøýøªõû¹ýð  ôû  ôòº¸ªõýýþù ª¨ºñv d40', ( #157, #222 ), #48 ) ;
#212 = FACE_BOUND ( 'NONE', #174, .T. ) ;
#213 = ADVANCED_FACE ( 'NONE', ( #69, #238 ), #146, .F. ) ;
#214 = CIRCLE ( 'NONE', #221, 19.99999999999999600 ) ;
#215 = EDGE_LOOP ( 'NONE', ( #32 ) ) ;
#216 = PERSON_AND_ORGANIZATION ( #80, #184 ) ;
#217 = DIRECTION ( 'NONE',  ( 0.0000000000000000000, 0.0000000000000000000, 1.000000000000000000 ) ) ;
#218 = EDGE_CURVE ( 'NONE', #188, #188, #21, .T. ) ;
#219 = EDGE_LOOP ( 'NONE', ( #154 ) ) ;
#220 = COORDINATED_UNIVERSAL_TIME_OFFSET ( 3, 0, .AHEAD. ) ;
#221 = AXIS2_PLACEMENT_3D ( 'NONE', #86, #91, #88 ) ;
#222 = AXIS2_PLACEMENT_3D ( 'NONE', #96, #217, #126 ) ;
#223 = EDGE_LOOP ( 'NONE', ( #90 ) ) ;
#224 = CYLINDRICAL_SURFACE ( 'NONE', #230, 19.99999999999999600 ) ;
#225 = VERTEX_POINT ( 'NONE', #97 ) ;
#226 = ADVANCED_FACE ( 'NONE', ( #83, #194 ), #224, .F. ) ;
#227 = ADVANCED_FACE ( 'NONE', ( #212, #183 ), #158, .F. ) ;
#228 = EDGE_CURVE ( 'NONE', #1, #1, #18, .T. ) ;
#229 = FACE_OUTER_BOUND ( 'NONE', #60, .T. ) ;
#230 = AXIS2_PLACEMENT_3D ( 'NONE', #61, #134, #124 ) ;
#231 = CC_DESIGN_PERSON_AND_ORGANIZATION_ASSIGNMENT ( #104, #170, ( #89 ) ) ;
#232 = CIRCLE ( 'NONE', #20, 19.99999999999999600 ) ;
#233 = ORIENTED_EDGE ( 'NONE', *, *, #207, .F. ) ;
#234 = PERSON_AND_ORGANIZATION ( #80, #184 ) ;
#235 = EDGE_CURVE ( 'NONE', #13, #13, #214, .T. ) ;
#236 = ORIENTED_EDGE ( 'NONE', *, *, #235, .F. ) ;
#237 = PERSON_AND_ORGANIZATION ( #80, #184 ) ;
#238 = FACE_BOUND ( 'NONE', #57, .T. ) ;
#239 = DATE_AND_TIME ( #30, #54 ) ;
#240 = ADVANCED_FACE ( 'NONE', ( #173, #195 ), #167, .F. ) ;
#241 = PRODUCT_DEFINITION ( 'UNKNOWN', '', #42, #109 ) ;
#242 = ADVANCED_FACE ( 'NONE', ( #142, #70 ), #245, .T. ) ;
#243 = ORIENTED_EDGE ( 'NONE', *, *, #187, .F. ) ;
#244 = CALENDAR_DATE ( 2016, 20, 6 ) ;
#245 = CYLINDRICAL_SURFACE ( 'NONE', #55, 21.50000000000000000 ) ;
#246 = AXIS2_PLACEMENT_3D ( 'NONE', #71, #74, #79 ) ;
#247 = EDGE_LOOP ( 'NONE', ( #233 ) ) ;
#248 = DATE_AND_TIME ( #40, #75 ) ;
#249 = AXIS2_PLACEMENT_3D ( 'NONE', #151, #150, #148 ) ;
ENDSEC;
END-ISO-10303-21;
