  0
SECTION
  2
HEADER
  9
$ACADVER
  1
AC1015
  9
$ACADMAINTVER
 70
     6
  9
$DWGCODEPAGE
  3
ANSI_1251
  9
$INSBASE
 10
0.0
 20
0.0
 30
0.0
  9
$EXTMIN
 10
0.0
 20
0.0
 30
0.0
  9
$EXTMAX
 10
431.8
 20
279.4
 30
0.0
  9
$LIMMIN
 10
0.0
 20
0.0
  9
$LIMMAX
 10
431.8
 20
279.4
  9
$ORTHOMODE
 70
     0
  9
$REGENMODE
 70
     1
  9
$FILLMODE
 70
     1
  9
$QTEXTMODE
 70
     0
  9
$MIRRTEXT
 70
     1
  9
$LTSCALE
 40
1.0
  9
$ATTMODE
 70
     1
  9
$TEXTSIZE
 40
3.5
  9
$TRACEWID
 40
1.0
  9
$TEXTSTYLE
  7
STANDARD
  9
$CLAYER
  8
0
  9
$CELTYPE
  6
ByLayer
  9
$CECOLOR
 62
   256
  9
$CELTSCALE
 40
1.0
  9
$DISPSILH
 70
     0
  9
$DIMSCALE
 40
1.0
  9
$DIMASZ
 40
5.0
  9
$DIMEXO
 40
0.0
  9
$DIMDLI
 40
3.75
  9
$DIMRND
 40
0.0
  9
$DIMDLE
 40
0.0
  9
$DIMEXE
 40
1.0
  9
$DIMTP
 40
0.0
  9
$DIMTM
 40
0.0
  9
$DIMTXT
 40
3.5
  9
$DIMCEN
 40
2.5
  9
$DIMTSZ
 40
0.0
  9
$DIMTOL
 70
     0
  9
$DIMLIM
 70
     0
  9
$DIMTIH
 70
     1
  9
$DIMTOH
 70
     1
  9
$DIMSE1
 70
     0
  9
$DIMSE2
 70
     0
  9
$DIMTAD
 70
     1
  9
$DIMZIN
 70
     0
  9
$DIMBLK
  1

  9
$DIMASO
 70
     1
  9
$DIMSHO
 70
     1
  9
$DIMPOST
  1

  9
$DIMAPOST
  1

  9
$DIMALT
 70
     0
  9
$DIMALTD
 70
     3
  9
$DIMALTF
 40
0.0393700787
  9
$DIMLFAC
 40
1.0
  9
$DIMTOFL
 70
     1
  9
$DIMTVP
 40
0.0
  9
$DIMTIX
 70
     0
  9
$DIMSOXD
 70
     0
  9
$DIMSAH
 70
     0
  9
$DIMBLK1
  1

  9
$DIMBLK2
  1

  9
$DIMSTYLE
  2
ISO-25
  9
$DIMCLRD
 70
     0
  9
$DIMCLRE
 70
     0
  9
$DIMCLRT
 70
     0
  9
$DIMTFAC
 40
1.0
  9
$DIMGAP
 40
1.5
  9
$DIMJUST
 70
     0
  9
$DIMSD1
 70
     0
  9
$DIMSD2
 70
     0
  9
$DIMTOLJ
 70
     0
  9
$DIMTZIN
 70
     0
  9
$DIMALTZ
 70
     0
  9
$DIMALTTZ
 70
     0
  9
$DIMUPT
 70
     0
  9
$DIMDEC
 70
     1
  9
$DIMTDEC
 70
     3
  9
$DIMALTU
 70
     2
  9
$DIMALTTD
 70
     3
  9
$DIMTXSTY
  7
STANDARD
  9
$DIMAUNIT
 70
     0
  9
$DIMADEC
 70
     2
  9
$DIMALTRND
 40
0.0
  9
$DIMAZIN
 70
     0
  9
$DIMDSEP
 70
    44
  9
$DIMATFIT
 70
     3
  9
$DIMFRAC
 70
     0
  9
$DIMLDRBLK
  1

  9
$DIMLUNIT
 70
     2
  9
$DIMLWD
 70
    -2
  9
$DIMLWE
 70
    -2
  9
$DIMTMOVE
 70
     0
  9
$LUNITS
 70
     2
  9
$LUPREC
 70
     1
  9
$SKETCHINC
 40
1.0
  9
$FILLETRAD
 40
0.0
  9
$AUNITS
 70
     0
  9
$AUPREC
 70
     2
  9
$MENU
  1
.
  9
$ELEVATION
 40
0.0
  9
$PELEVATION
 40
0.0
  9
$THICKNESS
 40
0.0
  9
$LIMCHECK
 70
     0
  9
$CHAMFERA
 40
0.0
  9
$CHAMFERB
 40
0.0
  9
$CHAMFERC
 40
0.0
  9
$CHAMFERD
 40
0.0
  9
$SKPOLY
 70
     0
  9
$TDCREATE
 40
2460934.59298316
  9
$TDUCREATE
 40
2460934.46798316
  9
$TDUPDATE
 40
2460934.592984109
  9
$TDUUPDATE
 40
2460934.467984109
  9
$TDINDWG
 40
0.0000000116
  9
$TDUSRTIMER
 40
0.0000000116
  9
$USRTIMER
 70
     1
  9
$ANGBASE
 50
0.0
  9
$ANGDIR
 70
     0
  9
$PDMODE
 70
     0
  9
$PDSIZE
 40
-1.0
  9
$PLINEWID
 40
0.0
  9
$SPLFRAME
 70
     0
  9
$SPLINETYPE
 70
     6
  9
$SPLINESEGS
 70
     8
  9
$HANDSEED
  5
2D9
  9
$SURFTAB1
 70
     6
  9
$SURFTAB2
 70
     6
  9
$SURFTYPE
 70
     6
  9
$SURFU
 70
     6
  9
$SURFV
 70
     6
  9
$UCSBASE
  2

  9
$UCSNAME
  2

  9
$UCSORG
 10
0.0
 20
0.0
 30
0.0
  9
$UCSXDIR
 10
1.0
 20
0.0
 30
0.0
  9
$UCSYDIR
 10
0.0
 20
1.0
 30
0.0
  9
$UCSORTHOREF
  2

  9
$UCSORTHOVIEW
 70
     0
  9
$UCSORGTOP
 10
0.0
 20
0.0
 30
0.0
  9
$UCSORGBOTTOM
 10
0.0
 20
0.0
 30
0.0
  9
$UCSORGLEFT
 10
0.0
 20
0.0
 30
0.0
  9
$UCSORGRIGHT
 10
0.0
 20
0.0
 30
0.0
  9
$UCSORGFRONT
 10
0.0
 20
0.0
 30
0.0
  9
$UCSORGBACK
 10
0.0
 20
0.0
 30
0.0
  9
$PUCSBASE
  2

  9
$PUCSNAME
  2

  9
$PUCSORG
 10
0.0
 20
0.0
 30
0.0
  9
$PUCSXDIR
 10
1.0
 20
0.0
 30
0.0
  9
$PUCSYDIR
 10
0.0
 20
1.0
 30
0.0
  9
$PUCSORTHOREF
  2

  9
$PUCSORTHOVIEW
 70
     0
  9
$PUCSORGTOP
 10
0.0
 20
0.0
 30
0.0
  9
$PUCSORGBOTTOM
 10
0.0
 20
0.0
 30
0.0
  9
$PUCSORGLEFT
 10
0.0
 20
0.0
 30
0.0
  9
$PUCSORGRIGHT
 10
0.0
 20
0.0
 30
0.0
  9
$PUCSORGFRONT
 10
0.0
 20
0.0
 30
0.0
  9
$PUCSORGBACK
 10
0.0
 20
0.0
 30
0.0
  9
$USERI1
 70
     0
  9
$USERI2
 70
     0
  9
$USERI3
 70
     0
  9
$USERI4
 70
     0
  9
$USERI5
 70
     0
  9
$USERR1
 40
0.0
  9
$USERR2
 40
0.0
  9
$USERR3
 40
0.0
  9
$USERR4
 40
0.0
  9
$USERR5
 40
0.0
  9
$WORLDVIEW
 70
     1
  9
$SHADEDGE
 70
     3
  9
$SHADEDIF
 70
    70
  9
$TILEMODE
 70
     1
  9
$MAXACTVP
 70
    64
  9
$PINSBASE
 10
0.0
 20
0.0
 30
0.0
  9
$PLIMCHECK
 70
     0
  9
$PEXTMIN
 10
1.0000000000E+20
 20
1.0000000000E+20
 30
1.0000000000E+20
  9
$PEXTMAX
 10
-1.0000000000E+20
 20
-1.0000000000E+20
 30
-1.0000000000E+20
  9
$PLIMMIN
 10
0.0
 20
0.0
  9
$PLIMMAX
 10
420.0
 20
297.0
  9
$UNITMODE
 70
     0
  9
$VISRETAIN
 70
     1
  9
$PLINEGEN
 70
     0
  9
$PSLTSCALE
 70
     1
  9
$TREEDEPTH
 70
  3020
  9
$CMLSTYLE
  2
Standard
  9
$CMLJUST
 70
     0
  9
$CMLSCALE
 40
20.0
  9
$PROXYGRAPHICS
 70
     1
  9
$MEASUREMENT
 70
     1
  9
$CELWEIGHT
370
    -1
  9
$ENDCAPS
280
     0
  9
$JOINSTYLE
280
     0
  9
$LWDISPLAY
290
     1
  9
$INSUNITS
 70
     4
  9
$HYPERLINKBASE
  1

  9
$STYLESHEET
  1

  9
$XEDIT
290
     1
  9
$CEPSNTYPE
380
     0
  9
$PSTYLEMODE
290
     1
  9
$FINGERPRINTGUID
  2
{69cdf253-3971-46e5-9a72-cb0307c61337}
  9
$VERSIONGUID
  2
{FAEB1C32-E019-11D5-929B-00C0DF256EC4}
  9
$EXTNAMES
290
     1
  9
$PSVPSCALE
 40
0.0
  9
$OLESTARTUP
290
     0
  0
ENDSEC
  0
SECTION
  2
CLASSES
  0
CLASS
  1
ACDBDICTIONARYWDFLT
  2
AcDbDictionaryWithDefault
  3
ObjectDBX Classes
 90
        0
280
     0
281
     0
  0
CLASS
  1
VISUALSTYLE
  2
AcDbVisualStyle
  3
ObjectDBX Classes
 90
     4095
280
     0
281
     0
  0
CLASS
  1
MATERIAL
  2
AcDbMaterial
  3
ObjectDBX Classes
 90
     1153
280
     0
281
     0
  0
CLASS
  1
SCALE
  2
AcDbScale
  3
ObjectDBX Classes
 90
     1153
280
     0
281
     0
  0
CLASS
  1
TABLESTYLE
  2
AcDbTableStyle
  3
ObjectDBX Classes
 90
     4095
280
     0
281
     0
  0
CLASS
  1
MLEADERSTYLE
  2
AcDbMLeaderStyle
  3
ACDB_MLEADERSTYLE_CLASS
 90
     4095
280
     0
281
     0
  0
CLASS
  1
SUN
  2
AcDbSun
  3
SCENEOE
 90
     1153
280
     0
281
     0
  0
CLASS
  1
ACDBPLACEHOLDER
  2
AcDbPlaceHolder
  3
ObjectDBX Classes
 90
        0
280
     0
281
     0
  0
CLASS
  1
LAYOUT
  2
AcDbLayout
  3
ObjectDBX Classes
 90
        0
280
     0
281
     0
  0
ENDSEC
  0
SECTION
  2
TABLES
  0
TABLE
  2
VPORT
  5
8
330
0
100
AcDbSymbolTable
 70
     1
  0
VPORT
  5
29
330
8
100
AcDbSymbolTableRecord
100
AcDbViewportTableRecord
  2
*Active
 70
     0
 10
0.0
 20
0.0
 11
1.0
 21
1.0
 12
215.9
 22
139.7
 13
0.0
 23
0.0
 14
10.0
 24
10.0
 15
10.0
 25
10.0
 16
0.0
 26
0.0
 36
1.0
 17
0.0
 27
0.0
 37
0.0
 40
279.4
 41
1.5454545455
 42
50.0
 43
0.0
 44
0.0
 50
0.0
 51
0.0
 71
     0
 72
  2000
 73
     1
 74
     3
 75
     0
 76
     0
 77
     0
 78
     0
281
     0
 65
     1
110
0.0
120
0.0
130
0.0
111
1.0
121
0.0
131
0.0
112
0.0
122
1.0
132
0.0
 79
     0
146
0.0
  0
ENDTAB
  0
TABLE
  2
LTYPE
  5
5
330
0
100
AcDbSymbolTable
 70
     8
  0
LTYPE
  5
14
330
5
100
AcDbSymbolTableRecord
100
AcDbLinetypeTableRecord
  2
ByBlock
 70
     0
  3

 72
    65
 73
     0
 40
0.0
  0
LTYPE
  5
15
330
5
100
AcDbSymbolTableRecord
100
AcDbLinetypeTableRecord
  2
ByLayer
 70
     0
  3

 72
    65
 73
     0
 40
0.0
  0
LTYPE
  5
16
330
5
100
AcDbSymbolTableRecord
100
AcDbLinetypeTableRecord
  2
Continuous
 70
     0
  3
Solid line
 72
    65
 73
     0
 40
0.0
  0
LTYPE
  5
5E
330
5
100
AcDbSymbolTableRecord
100
AcDbLinetypeTableRecord
  2
SLD-Сплошная
 70
     0
  3
SolidWorks Line Style
 72
    65
 73
     0
 40
0.0
  0
LTYPE
  5
5F
330
5
100
AcDbSymbolTableRecord
100
AcDbLinetypeTableRecord
  2
SLD-Штриховая
 70
     0
  3
SolidWorks Line Style
 72
    65
 73
     2
 40
1.905
 49
1.27
 74
     0
 49
-0.635
 74
     0
  0
LTYPE
  5
60
330
5
100
AcDbSymbolTableRecord
100
AcDbLinetypeTableRecord
  2
SLD-Штрихпункт.-с-двумя-точками
 70
     0
  3
SolidWorks Line Style
 72
    65
 73
     6
 40
12.7
 49
6.35
 74
     0
 49
-1.27
 74
     0
 49
1.27
 74
     0
 49
-1.27
 74
     0
 49
1.27
 74
     0
 49
-1.27
 74
     0
  0
LTYPE
  5
61
330
5
100
AcDbSymbolTableRecord
100
AcDbLinetypeTableRecord
  2
SLD-Штрихпункт.-утолщ.
 70
     0
  3
SolidWorks Line Style
 72
    65
 73
     4
 40
10.16
 49
6.35
 74
     0
 49
-1.27
 74
     0
 49
1.27
 74
     0
 49
-1.27
 74
     0
  0
LTYPE
  5
62
330
5
100
AcDbSymbolTableRecord
100
AcDbLinetypeTableRecord
  2
SLD-Осевая
 70
     0
  3
SolidWorks Line Style
 72
    65
 73
     4
 40
19.05
 49
15.24
 74
     0
 49
-1.27
 74
     0
 49
1.27
 74
     0
 49
-1.27
 74
     0
  0
LTYPE
  5
63
330
5
100
AcDbSymbolTableRecord
100
AcDbLinetypeTableRecord
  2
SLD-Сшитая
 70
     0
  3
SolidWorks Line Style
 72
    65
 73
     2
 40
0.635
 49
0.0
 74
     0
 49
-0.635
 74
     0
  0
LTYPE
  5
64
330
5
100
AcDbSymbolTableRecord
100
AcDbLinetypeTableRecord
  2
SLD-Тонкая-Толстая
 70
     0
  3
SolidWorks Line Style
 72
    65
 73
     2
 40
5.080508
 49
0.000508
 74
     0
 49
-5.08
 74
     0
  0
ENDTAB
  0
TABLE
  2
LAYER
  5
2
330
0
100
AcDbSymbolTable
 70
     3
  0
LAYER
  5
10
330
2
100
AcDbSymbolTableRecord
100
AcDbLayerTableRecord
  2
0
 70
     0
 62
     7
  6
Continuous
370
    -3
390
F
  0
LAYER
  5
65
330
2
100
AcDbSymbolTableRecord
100
AcDbLayerTableRecord
  2
ВОДЯНОЙ_ЗНАК
 70
     0
 62
    11
  6
SLD-Сплошная
370
    -3
390
F
  0
LAYER
  5
66
330
2
100
AcDbSymbolTableRecord
100
AcDbLayerTableRecord
  2
ОСНОВНОЙ
 70
     0
 62
     7
  6
SLD-Сплошная
370
    -3
390
F
  0
ENDTAB
  0
TABLE
  2
STYLE
  5
3
330
0
100
AcDbSymbolTable
 70
     1
  0
STYLE
  5
11
330
3
100
AcDbSymbolTableRecord
100
AcDbTextStyleTableRecord
  2
STANDARD
 70
     0
 40
0.0
 41
1.0
 50
0.0
 71
     0
 42
3.5
  3
GOST-TYPE-A.TTF
  4

1001
ACAD
1000
GOST TYPE A
1071
 16777250
  0
ENDTAB
  0
TABLE
  2
VIEW
  5
6
330
0
100
AcDbSymbolTable
 70
     0
  0
ENDTAB
  0
TABLE
  2
UCS
  5
7
330
0
100
AcDbSymbolTable
 70
     0
  0
ENDTAB
  0
TABLE
  2
APPID
  5
9
330
0
100
AcDbSymbolTable
 70
     1
  0
APPID
  5
12
330
9
100
AcDbSymbolTableRecord
100
AcDbRegAppTableRecord
  2
ACAD
 70
     0
  0
ENDTAB
  0
TABLE
  2
DIMSTYLE
  5
A
330
0
100
AcDbSymbolTable
 70
     1
100
AcDbDimStyleTable
  0
DIMSTYLE
105
27
330
A
100
AcDbSymbolTableRecord
100
AcDbDimStyleTableRecord
  2
ISO-25
 70
     0
 41
2.5
 42
0.625
 43
3.75
 44
1.25
 73
     0
 74
     0
 77
     1
 78
     8
140
2.5
141
2.5
143
0.0393700787
147
0.625
171
     3
172
     1
178
     0
271
     2
272
     2
274
     3
278
    44
283
     0
284
     8
340
11
  0
ENDTAB
  0
TABLE
  2
BLOCK_RECORD
  5
1
330
0
100
AcDbSymbolTable
 70
     1
  0
BLOCK_RECORD
  5
1F
330
1
100
AcDbSymbolTableRecord
100
AcDbBlockTableRecord
  2
*Model_Space
340
22
  0
BLOCK_RECORD
  5
1B
330
1
100
AcDbSymbolTableRecord
100
AcDbBlockTableRecord
  2
*Paper_Space
340
1E
  0
BLOCK_RECORD
  5
23
330
1
100
AcDbSymbolTableRecord
100
AcDbBlockTableRecord
  2
*Paper_Space0
340
26
  0
ENDTAB
  0
ENDSEC
  0
SECTION
  2
BLOCKS
  0
BLOCK
  5
20
330
1F
100
AcDbEntity
  8
0
100
AcDbBlockBegin
  2
*Model_Space
 70
     0
 10
0.0
 20
0.0
 30
0.0
  3
*Model_Space
  1

  0
ENDBLK
  5
21
330
1F
100
AcDbEntity
  8
0
100
AcDbBlockEnd
  0
BLOCK
  5
1C
330
1B
100
AcDbEntity
 67
     1
  8
0
100
AcDbBlockBegin
  2
*Paper_Space
 70
     0
 10
0.0
 20
0.0
 30
0.0
  3
*Paper_Space
  1

  0
ENDBLK
  5
1D
330
1B
100
AcDbEntity
 67
     1
  8
0
100
AcDbBlockEnd
  0
BLOCK
  5
24
330
23
100
AcDbEntity
  8
0
100
AcDbBlockBegin
  2
*Paper_Space0
 70
     0
 10
0.0
 20
0.0
 30
0.0
  3
*Paper_Space0
  1

  0
ENDBLK
  5
25
330
23
100
AcDbEntity
  8
0
100
AcDbBlockEnd
  0
ENDSEC
  0
SECTION
  2
ENTITIES
  0
LINE
  5
67
330
1F
100
AcDbEntity
  8
0
  6
SLD-Сплошная
 62
     7
370
    25
100
AcDbLine
 10
192.2382980791
 20
192.1249030168
 30
0.0
 11
188.6643725219
 21
193.0825334837
 31
0.0
  0
LINE
  5
68
330
1F
100
AcDbEntity
  8
0
  6
SLD-Сплошная
 62
     7
370
    25
100
AcDbLine
 10
185.2609020788
 20
180.380608868
 30
0.0
 11
181.3971987736
 21
181.4158850484
 31
0.0
  0
LINE
  5
69
330
1F
100
AcDbEntity
  8
0
  6
SLD-Сплошная
 62
     7
370
    25
100
AcDbLine
 10
168.63741985
 20
133.7957418123
 30
0.0
 11
172.5011231552
 21
132.7604656319
 31
0.0
  0
LINE
  5
6A
330
1F
100
AcDbEntity
  8
0
  6
SLD-Сплошная
 62
     7
370
    25
100
AcDbLine
 10
161.8854970826
 20
186.6440297595
 30
0.0
 11
150.0046094192
 21
189.8275040142
 31
0.0
  0
LINE
  5
6B
330
1F
100
AcDbEntity
  8
0
  6
SLD-Сплошная
 62
     7
370
    25
100
AcDbLine
 10
181.1772025853
 20
180.594848096
 30
0.0
 11
161.6655008942
 21
185.8229928071
 31
0.0
  0
LINE
  5
6C
330
1F
100
AcDbEntity
  8
0
  6
SLD-Сплошная
 62
     7
370
    25
100
AcDbLine
 10
149.3457143473
 20
139.8449234757
 30
0.0
 11
168.8574160384
 21
134.6167787647
 31
0.0
  0
LINE
  5
6D
330
1F
100
AcDbEntity
  8
0
  6
SLD-Сплошная
 62
     7
370
    25
100
AcDbLine
 10
167.3894470144
 20
113.6834305627
 30
0.0
 11
170.9633725717
 21
112.7258000958
 31
0.0
  0
ARC
  5
6E
330
1F
100
AcDbEntity
  8
0
  6
SLD-Сплошная
 62
     7
370
    25
100
AcDbCircle
 10
141.8430162259
 20
157.4361718936
 30
0.0
 40
1.500000000000018
100
AcDbArc
 50
94.4712206345
 51
165.0
  0
ARC
  5
6F
330
1F
100
AcDbEntity
  8
0
  6
SLD-Сплошная
 62
     7
370
    25
100
AcDbCircle
 10
140.8077400455
 20
153.5724685884
 30
0.0
 40
1.499999999999999
100
AcDbArc
 50
165.0
 51
235.5287793655
  0
LINE
  5
70
330
1F
100
AcDbEntity
  8
0
  6
SLD-Сплошная
 62
     7
370
    25
100
AcDbLine
 10
136.1577905062
 20
138.1504723077
 30
0.0
 11
148.0386781696
 21
134.966998053
 31
0.0
  0
LINE
  5
71
330
1F
100
AcDbEntity
  8
0
  6
SLD-Сплошная
 62
     7
370
    25
100
AcDbLine
 10
279.0581982422
 20
152.7296392858
 30
0.0
 11
279.0593428394
 21
152.7582229555
 31
0.0
  0
SPLINE
  5
72
330
1F
100
AcDbEntity
  8
0
  6
SLD-Сплошная
 62
     7
370
    25
100
AcDbSpline
210
0.0
220
0.0
230
1.0
 70
     8
 71
     3
 72
    13
 73
     9
 74
     0
 42
0.00000001
 43
0.00000001
 40
0.0
 40
0.0
 40
0.0
 40
0.0
 40
0.165210936246775
 40
0.3038552155349283
 40
0.4999732069751148
 40
0.6961460105483006
 40
0.8347311856070586
 40
1.0
 40
1.0
 40
1.0
 40
1.0
 10
279.0597690222063
 20
152.752960402893
 30
0.0
 10
278.9896634856186
 20
153.1497290803361
 30
0.0
 10
278.860725696063
 20
153.8794642585323
 30
0.0
 10
278.2186072362303
 20
154.9288633022717
 30
0.0
 10
277.2249177854357
 20
155.7871743827435
 30
0.0
 10
275.9801494380371
 20
156.2059532109127
 30
0.0
 10
274.7499036840474
 20
156.2219360609849
 30
0.0
 10
274.0562806571929
 20
155.9613571257408
 30
0.0
 10
273.6790130903238
 20
155.8196259878304
 30
0.0
  0
ARC
  5
73
330
1F
100
AcDbEntity
  8
0
  6
SLD-Сплошная
 62
     7
370
    25
100
AcDbCircle
 10
106.8681301473
 20
-126.4809011555
 30
0.0
 40
328.045
100
AcDbArc
 50
67.4151618402
 51
75.0
  0
ARC
  5
74
330
1F
100
AcDbEntity
  8
0
  6
SLD-Сплошная
 62
     7
370
    25
100
AcDbCircle
 10
106.8681301473
 20
-126.4809011555
 30
0.0
 40
328.045
100
AcDbArc
 50
59.4021343421
 51
66.0031024024
  0
ARC
  5
75
330
1F
100
AcDbEntity
  8
0
  6
SLD-Сплошная
 62
     7
370
    25
100
AcDbCircle
 10
106.8681301473
 20
-126.4809011555
 30
0.0
 40
328.045
100
AcDbArc
 50
58.1024716458
 51
58.3366393807
  0
SPLINE
  5
76
330
1F
100
AcDbEntity
  8
0
  6
SLD-Сплошная
 62
     7
370
    25
100
AcDbSpline
210
0.0
220
0.0
230
1.0
 70
    24
 71
     3
 72
    22
 73
    18
 74
     0
 42
0.00000001
 43
0.00000001
 40
0.0
 40
0.0
 40
0.0
 40
0.0
 40
0.1249999999999991
 40
0.1249999999999991
 40
0.2499999999999982
 40
0.2499999999999982
 40
0.3749999999999973
 40
0.3749999999999973
 40
0.4999999999999964
 40
0.4999999999999964
 40
0.6249999999999956
 40
0.6249999999999956
 40
0.749999999999997
 40
0.749999999999997
 40
0.8749999999999984
 40
0.8749999999999984
 40
1.0
 40
1.0
 40
1.0
 40
1.0
 10
160.5426445301444
 20
104.6626113783251
 30
0.0
 10
160.17661912636
 20
104.6626113783251
 30
0.0
 10
159.7969056667975
 20
104.6626113783251
 30
0.0
 10
159.0277992269674
 20
104.6626113783251
 30
0.0
 10
158.6384844423189
 20
104.6626113783251
 30
0.0
 10
157.8738483986376
 20
104.6626113783251
 30
0.0
 10
157.4986821267826
 20
104.6626113783251
 30
0.0
 10
156.7884482530939
 20
104.6626113783251
 30
0.0
 10
156.4535650575724
 20
104.6626113783251
 30
0.0
 10
155.84711431189
 20
104.6626113783251
 30
0.0
 10
155.57568328864
 20
104.6626113783251
 30
0.0
 10
155.1113475811509
 20
104.6626113783251
 30
0.0
 10
154.918474663113
 20
104.6626113783251
 30
0.0
 10
154.6157622262091
 20
104.6626113783251
 30
0.0
 10
154.505851283789
 20
104.6626113783251
 30
0.0
 10
154.3635262646073
 20
104.6626113783251
 30
0.0
 10
154.3309874476838
 20
104.6626113783251
 30
0.0
 10
154.3309874476838
 20
104.6626113783251
 30
0.0
  0
LINE
  5
77
330
1F
100
AcDbEntity
  8
0
  6
SLD-Сплошная
 62
     7
370
    25
100
AcDbLine
 10
154.3309874477
 20
104.6626113783
 30
0.0
 11
156.2066317947
 21
111.6626113783
 31
0.0
  0
SPLINE
  5
78
330
1F
100
AcDbEntity
  8
0
  6
SLD-Сплошная
 62
     7
370
    25
100
AcDbSpline
210
0.0
220
0.0
230
1.0
 70
    24
 71
     3
 72
    22
 73
    18
 74
     0
 42
0.00000001
 43
0.00000001
 40
0.0
 40
0.0
 40
0.0
 40
0.0
 40
0.125
 40
0.125
 40
0.25
 40
0.25
 40
0.375
 40
0.375
 40
0.5
 40
0.5
 40
0.625
 40
0.625
 40
0.75
 40
0.75
 40
0.875
 40
0.875
 40
1.0
 40
1.0
 40
1.0
 40
1.0
 10
156.2066317947018
 20
111.662611378325
 30
0.0
 10
156.2066317947018
 20
111.662611378325
 30
0.0
 10
156.2391706116252
 20
111.662611378325
 30
0.0
 10
156.3814956308069
 20
111.662611378325
 30
0.0
 10
156.491406573227
 20
111.662611378325
 30
0.0
 10
156.794119010131
 20
111.662611378325
 30
0.0
 10
156.9869919281687
 20
111.662611378325
 30
0.0
 10
157.4513276356579
 20
111.662611378325
 30
0.0
 10
157.7227586589079
 20
111.662611378325
 30
0.0
 10
158.3292094045903
 20
111.662611378325
 30
0.0
 10
158.6640926001117
 20
111.662611378325
 30
0.0
 10
159.3743264738005
 20
111.662611378325
 30
0.0
 10
159.7494927456555
 20
111.662611378325
 30
0.0
 10
160.5141287893369
 20
111.662611378325
 30
0.0
 10
160.9034435739853
 20
111.662611378325
 30
0.0
 10
161.6725500138154
 20
111.662611378325
 30
0.0
 10
162.052263473378
 20
111.662611378325
 30
0.0
 10
162.4182888771624
 20
111.662611378325
 30
0.0
  0
LINE
  5
79
330
1F
100
AcDbEntity
  8
0
  6
SLD-Сплошная
 62
     7
370
    25
100
AcDbLine
 10
160.5426445301
 20
104.6626113783
 30
0.0
 11
274.2066317947
 21
104.6626113783
 31
0.0
  0
LINE
  5
7A
330
1F
100
AcDbEntity
  8
0
  6
SLD-Сплошная
 62
     7
370
    25
100
AcDbLine
 10
162.4182888772
 20
111.6626113783
 30
0.0
 11
274.2066317947
 21
111.6626113783
 31
0.0
  0
LINE
  5
7B
330
1F
100
AcDbEntity
  8
0
  6
SLD-Сплошная
 62
     7
370
    25
100
AcDbLine
 10
280.2066317947
 20
111.6626113783
 30
0.0
 11
280.2066317947
 21
104.6626113783
 31
0.0
  0
LINE
  5
7C
330
1F
100
AcDbEntity
  8
0
  6
SLD-Сплошная
 62
     7
370
    25
100
AcDbLine
 10
274.2066317947
 20
111.6626113783
 30
0.0
 11
280.2066317947
 21
111.6626113783
 31
0.0
  0
LINE
  5
7D
330
1F
100
AcDbEntity
  8
0
  6
SLD-Сплошная
 62
     7
370
    25
100
AcDbLine
 10
280.2066317947
 20
104.6626113783
 30
0.0
 11
274.2066317947
 21
104.6626113783
 31
0.0
  0
LINE
  5
7E
330
1F
100
AcDbEntity
  8
0
  6
SLD-Сплошная
 62
     7
370
    25
100
AcDbLine
 10
172.9635792433
 20
120.19067302
 30
0.0
 11
169.3896536861
 21
121.1483034869
 31
0.0
  0
LINE
  5
7F
330
1F
100
AcDbEntity
  8
0
  6
SLD-Сплошная
 62
     7
370
    25
100
AcDbLine
 10
169.3896536861
 20
121.1483034869
 30
0.0
 11
178.881012617
 21
156.5705372499
 31
0.0
  0
LINE
  5
80
330
1F
100
AcDbEntity
  8
0
  6
SLD-Сплошная
 62
     7
370
    25
100
AcDbLine
 10
179.4718872728
 20
144.4800092573
 30
0.0
 11
182.4549381742
 21
155.6129067831
 31
0.0
  0
LINE
  5
81
330
1F
100
AcDbEntity
  8
0
  6
SLD-Сплошная
 62
     7
370
    25
100
AcDbLine
 10
178.881012617
 20
156.5705372499
 30
0.0
 11
188.6643725219
 21
193.0825334837
 31
0.0
  0
LINE
  5
82
330
1F
100
AcDbEntity
  8
0
  6
SLD-Сплошная
 62
     7
370
    25
100
AcDbLine
 10
182.4549381742
 20
155.6129067831
 30
0.0
 11
192.2382980791
 21
192.1249030168
 31
0.0
  0
SPLINE
  5
83
330
1F
100
AcDbEntity
  8
0
  6
SLD-Сплошная
 62
     7
370
    25
100
AcDbSpline
210
0.0
220
0.0
230
1.0
 70
     8
 71
     3
 72
    29
 73
    25
 74
     0
 42
0.00000001
 43
0.00000001
 40
0.0
 40
0.0
 40
0.0
 40
0.0
 40
0.0386076270384765
 40
0.0771658372985882
 40
0.1156810387180307
 40
0.154159660721478
 40
0.1926081510840517
 40
0.2310329727492105
 40
0.2694406006086525
 40
0.307837518252102
 40
0.3462302146952
 40
0.3846251810936862
 40
0.4230289074520823
 40
0.4614478793353661
 40
0.4998885745918439
 40
0.5623785516416383
 40
0.6249944899346063
 40
0.690649355058241
 40
0.7499204893766735
 40
0.7999863899332271
 40
0.8499883705648601
 40
0.8999653318747752
 40
0.949956232870276
 40
1.0
 40
1.0
 40
1.0
 40
1.0
 10
178.1620596658369
 20
139.5916660789544
 30
0.0
 10
178.3462698335848
 20
139.791607531289
 30
0.0
 10
178.714454384762
 20
140.1912345159966
 30
0.0
 10
179.2761235556027
 20
140.7812567543758
 30
0.0
 10
179.8441779306681
 20
141.3638419942176
 30
0.0
 10
180.4193181940895
 20
141.938348969579
 30
0.0
 10
181.00135593797
 20
142.5049494047198
 30
0.0
 10
181.5903405124786
 20
143.0635975486054
 30
0.0
 10
182.1862575250404
 20
143.6143058819668
 30
0.0
 10
182.7891095435807
 20
144.1570713222533
 30
0.0
 10
183.3988944072773
 20
144.6918950264883
 30
0.0
 10
184.0156113296769
 20
145.2187769143021
 30
0.0
 10
184.6392581337888
 20
145.7377177952237
 30
0.0
 10
185.2698361862175
 20
146.248716341395
 30
0.0
 10
186.0401138503195
 20
146.8565590017058
 30
0.0
 10
186.9562119506805
 20
147.5544630842092
 30
0.0
 10
188.0414770117289
 20
148.3459699936267
 30
0.0
 10
189.1251577752703
 20
149.1007001064321
 30
0.0
 10
190.1572211022235
 20
149.7740176254346
 30
0.0
 10
191.1166566490882
 20
150.3555936965514
 30
0.0
 10
192.0345458698606
 20
150.8786235615278
 30
0.0
 10
192.9664729503018
 20
151.3748987505545
 30
0.0
 10
193.9112154431862
 20
151.8470654920877
 30
0.0
 10
194.5517890879448
 20
152.1394365934981
 30
0.0
 10
194.8722451749046
 20
152.2856994000696
 30
0.0
  0
SPLINE
  5
84
330
1F
100
AcDbEntity
  8
0
  6
SLD-Сплошная
 62
     7
370
    25
100
AcDbSpline
210
0.0
220
0.0
230
1.0
 70
     8
 71
     3
 72
    27
 73
    23
 74
     0
 42
0.00000001
 43
0.00000001
 40
0.0
 40
0.0
 40
0.0
 40
0.0
 40
0.0215125928397554
 40
0.0447515674121507
 40
0.0697345715800128
 40
0.0964806297297141
 40
0.1250061613776787
 40
0.1729973862815785
 40
0.2497608359149935
 40
0.3205147883707404
 40
0.3749802654126965
 40
0.4399774469547654
 40
0.4993540803870319
 40
0.6324857294268225
 40
0.7494496941775644
 40
0.7901967999695539
 40
0.8292735951990158
 40
0.8666795052552664
 40
0.9024241421566742
 40
0.9365315438816412
 40
0.9690449044855912
 40
0.9999999999999999
 40
0.9999999999999999
 40
0.9999999999999999
 40
0.9999999999999999
 10
205.8701185383003
 20
149.3388281138879
 30
0.0
 10
205.7988921542014
 20
149.3578949052872
 30
0.0
 10
205.6507234814027
 20
149.3975585946897
 30
0.0
 10
205.4152863344864
 20
149.4605137484749
 30
0.0
 10
205.1589389458065
 20
149.5291670194549
 30
0.0
 10
204.8807765364598
 20
149.6037941565094
 30
0.0
 10
204.5183322422068
 20
149.7011690173749
 30
0.0
 10
203.9714272984206
 20
149.8469104545723
 30
0.0
 10
203.2605263940361
 20
150.0381439457294
 30
0.0
 10
202.5124564446617
 20
150.2388523325245
 30
0.0
 10
201.7990824453615
 20
150.4295313574876
 30
0.0
 10
201.1217971107469
 20
150.6113004050297
 30
0.0
 10
200.1386227356231
 20
150.874318678255
 30
0.0
 10
198.9452585949712
 20
151.1959053770107
 30
0.0
 10
197.8262320267653
 20
151.494041159936
 30
0.0
 10
197.0830579436825
 20
151.6933511849339
 30
0.0
 10
196.6459900090238
 20
151.8104912638738
 30
0.0
 10
196.2348743004456
 20
151.9206883168516
 30
0.0
 10
195.850782090739
 20
152.023621258153
 30
0.0
 10
195.4954489926332
 20
152.1188518371509
 30
0.0
 10
195.1683090790426
 20
152.2065083939501
 30
0.0
 10
194.9693045025026
 20
152.2597380258583
 30
0.0
 10
194.8722451749035
 20
152.2856994000698
 30
0.0
  0
SPLINE
  5
85
330
1F
100
AcDbEntity
  8
0
  6
SLD-Сплошная
 62
     7
370
    25
100
AcDbSpline
210
0.0
220
0.0
230
1.0
 70
     8
 71
     3
 72
    34
 73
    30
 74
     0
 42
0.00000001
 43
0.00000001
 40
0.0
 40
0.0
 40
0.0
 40
0.0
 40
0.0139471653065286
 40
0.0278739744797223
 40
0.0417851547768127
 40
0.0556854494003946
 40
0.0695796127015839
 40
0.0834724053262465
 40
0.0973685893290231
 40
0.1112729232800568
 40
0.1251901573896643
 40
0.1877625998100853
 40
0.2503482463744687
 40
0.2816630136184202
 40
0.312969399187784
 40
0.3442534169801593
 40
0.3590283213592007
 40
0.3754885848667532
 40
0.4380101114142185
 40
0.5004832191216629
 40
0.5629022316648201
 40
0.6254763669470073
 40
0.6880629758132827
 40
0.7505161849065124
 40
0.8127988013421211
 40
0.8752152467664474
 40
0.8891050429221656
 40
0.9306999610547753
 40
1.0
 40
1.0
 40
1.0
 40
1.0
 10
205.8701185383008
 20
149.3388281138878
 30
0.0
 10
205.6752188460957
 20
149.310272309242
 30
0.0
 10
205.2857039212178
 20
149.25320237765
 30
0.0
 10
204.7038093144238
 20
149.1540492575235
 30
0.0
 10
204.1243028487341
 20
149.045061887438
 30
0.0
 10
203.5473175815534
 20
148.9252653512747
 30
0.0
 10
202.9728221136243
 20
148.7949195703507
 30
0.0
 10
202.4008282587943
 20
148.6539537155339
 30
0.0
 10
201.8313386430816
 20
148.5023870238293
 30
0.0
 10
201.2643488948097
 20
148.3402091643186
 30
0.0
 10
200.0424155278012
 20
147.9661961652473
 30
0.0
 10
198.1910912114301
 20
147.2953850115363
 30
0.0
 10
196.1780562867865
 20
146.3689339865528
 30
0.0
 10
194.617588261504
 20
145.5297859335022
 30
0.0
 10
193.4740745785163
 20
144.852469076563
 30
0.0
 10
192.5560204330211
 20
144.2554908686384
 30
0.0
 10
191.8291352584112
 20
143.7511145975831
 30
0.0
 10
190.7481034901496
 20
142.981853374131
 30
0.0
 10
189.1500733150682
 20
141.7747071277762
 30
0.0
 10
187.1108027716673
 20
140.0769628202799
 30
0.0
 10
185.1524692300372
 20
138.2851333910741
 30
0.0
 10
183.2789294308721
 20
136.4024550927287
 30
0.0
 10
181.494298731177
 20
134.4345393862557
 30
0.0
 10
179.8068796345394
 20
132.3879876586759
 30
0.0
 10
178.2176011110718
 20
130.2672345679295
 30
0.0
 10
177.1188348498384
 20
128.6411728727277
 30
0.0
 10
176.2174353082998
 20
127.2366497091146
 30
0.0
 10
175.2599516877532
 20
125.7523192909217
 30
0.0
 10
174.4101936458942
 20
124.4324792839369
 30
0.0
 10
173.8791662038302
 20
123.6076900753409
 30
0.0
  0
SPLINE
  5
86
330
1F
100
AcDbEntity
  8
0
  6
SLD-Сплошная
 62
     7
370
    25
100
AcDbSpline
210
0.0
220
0.0
230
1.0
 70
     8
 71
     3
 72
    36
 73
    32
 74
     0
 42
0.00000001
 43
0.00000001
 40
0.0
 40
0.0
 40
0.0
 40
0.0
 40
0.0141581473228758
 40
0.0288682063071113
 40
0.0441393177824562
 40
0.0599762153768327
 40
0.0763826666033236
 40
0.0933643498353345
 40
0.1109256737230848
 40
0.1290699644155375
 40
0.1477996317102364
 40
0.1671163172059113
 40
0.1870210272172669
 40
0.2075142528809171
 40
0.2285960795618039
 40
0.2502662873744558
 40
0.306517577736309
 40
0.3669110099166807
 40
0.4314314782803962
 40
0.5000608205773984
 40
0.5608689909951262
 40
0.6248814318957242
 40
0.6560730712141111
 40
0.6872709529798856
 40
0.7497146255490771
 40
0.815919489225951
 40
0.8749183224070977
 40
0.9095426688204286
 40
0.9419198723698864
 40
0.9720656009948553
 40
1.0
 40
1.0
 40
1.0
 40
1.0
 10
178.1620596658371
 20
139.5916660789543
 30
0.0
 10
178.1441408006462
 20
139.5248474508529
 30
0.0
 10
178.1076045586277
 20
139.3886054767302
 30
0.0
 10
178.0501361575958
 20
139.1746701962167
 30
0.0
 10
177.9896028448902
 20
138.9490035022834
 30
0.0
 10
177.9259072182041
 20
138.7112045252413
 30
0.0
 10
177.8590404275931
 20
138.4615661921109
 30
0.0
 10
177.7890440603461
 20
138.2001972901222
 30
0.0
 10
177.7159431711603
 20
137.9272383331362
 30
0.0
 10
177.6397694521508
 20
137.6428179215111
 30
0.0
 10
177.5605554276342
 20
137.3470695485827
 30
0.0
 10
177.4783357245814
 20
137.0401265375489
 30
0.0
 10
177.393145542704
 20
136.722123084663
 30
0.0
 10
177.3050229830999
 20
136.3931936442864
 30
0.0
 10
177.2139982460816
 20
136.0534723945146
 30
0.0
 10
177.0710524091157
 20
135.5198849290557
 30
0.0
 10
176.8700368455977
 20
134.7706719782933
 30
0.0
 10
176.6056278092006
 20
133.7853311561372
 30
0.0
 10
176.3232142995411
 20
132.7303921077882
 30
0.0
 10
176.0404214400534
 20
131.6730214989928
 30
0.0
 10
175.7578648938628
 20
130.6200600222258
 30
0.0
 10
175.5310401786861
 20
129.7723786435583
 30
0.0
 10
175.3473002465593
 20
129.08698388817
 30
0.0
 10
175.1663109540935
 20
128.4109594857798
 30
0.0
 10
174.9348667373253
 20
127.5478546537632
 30
0.0
 10
174.6650067906172
 20
126.5401257489832
 30
0.0
 10
174.4367237351269
 20
125.6886717027258
 30
0.0
 10
174.2585690462916
 20
125.023424226364
 30
0.0
 10
174.122523982677
 20
124.5150397745118
 30
0.0
 10
173.996739867219
 20
124.0461043792663
 30
0.0
 10
173.9173498659892
 20
123.7500711425205
 30
0.0
 10
173.8791662038338
 20
123.6076900753386
 30
0.0
  0
SPLINE
  5
87
330
1F
100
AcDbEntity
  8
0
  6
SLD-Сплошная
 62
     7
370
    25
100
AcDbSpline
210
0.0
220
0.0
230
1.0
 70
     8
 71
     3
 72
     8
 73
     4
 74
     0
 42
0.00000001
 43
0.00000001
 40
0.0
 40
0.0
 40
0.0
 40
0.0
 40
1.0
 40
1.0
 40
1.0
 40
1.0
 10
180.533215441969
 20
147.2818289165924
 30
0.0
 10
180.4367231495243
 20
147.3080828371166
 30
0.0
 10
180.3401800555183
 20
147.3341509503044
 30
0.0
 10
180.243587283533
 20
147.3600329055527
 30
0.0
  0
LINE
  5
88
330
1F
100
AcDbEntity
  8
0
  6
SLD-Сплошная
 62
     7
370
    25
100
AcDbLine
 10
182.7447159221
 20
155.5352610695
 30
0.0
 11
194.8722451749
 21
152.2856994001
 31
0.0
  0
LINE
  5
89
330
1F
100
AcDbEntity
  8
0
  6
SLD-Сплошная
 62
     7
370
    25
100
AcDbLine
 10
178.1620596658
 20
139.591666079
 30
0.0
 11
179.4718872728
 21
144.4800092573
 31
0.0
  0
LINE
  5
8A
330
1F
100
AcDbEntity
  8
0
  6
SLD-Сплошная
 62
     7
370
    25
100
AcDbLine
 10
280.2066317947
 20
129.4204194187
 30
0.0
 11
205.8701185383
 21
149.3388281139
 31
0.0
  0
LINE
  5
8B
330
1F
100
AcDbEntity
  8
0
  6
SLD-Сплошная
 62
     7
370
    25
100
AcDbLine
 10
170.6784920134
 20
111.6626113783
 30
0.0
 11
173.8791662038
 21
123.6076900753
 31
0.0
  0
SPLINE
  5
8C
330
1F
100
AcDbEntity
  8
0
  6
SLD-Сплошная
 62
     7
370
    25
100
AcDbSpline
210
0.0
220
0.0
230
1.0
 70
    24
 71
     3
 72
     8
 73
     4
 74
     0
 42
0.00000001
 43
0.00000001
 40
0.0
 40
0.0
 40
0.0
 40
0.0
 40
1.0
 40
1.0
 40
1.0
 40
1.0
 10
280.2066317947018
 20
111.662611378325
 30
0.0
 10
280.2066317947018
 20
117.5671903210955
 30
0.0
 10
280.2066317947018
 20
123.486782262053
 30
0.0
 10
280.2066317947018
 20
129.4204194186896
 30
0.0
  0
LINE
  5
8D
330
1F
100
AcDbEntity
  8
0
  6
SLD-Сплошная
 62
     7
370
    25
100
AcDbLine
 10
182.4549381742
 20
155.6129067831
 30
0.0
 11
182.7447159221
 21
155.5352610695
 31
0.0
  0
LINE
  5
8E
330
1F
100
AcDbEntity
  8
0
  6
SLD-Сплошная
 62
     7
370
    25
100
AcDbLine
 10
181.3971987736
 20
181.4158850484
 30
0.0
 11
168.63741985
 21
133.7957418123
 31
0.0
  0
LINE
  5
8F
330
1F
100
AcDbEntity
  8
0
  6
SLD-Сплошная
 62
     7
370
    25
100
AcDbLine
 10
150.0046094192
 20
189.8275040142
 30
0.0
 11
143.6247199574
 21
166.0174323962
 31
0.0
  0
LINE
  5
90
330
1F
100
AcDbEntity
  8
0
  6
SLD-Сплошная
 62
     7
370
    25
100
AcDbLine
 10
161.8854970826
 20
186.6440297595
 30
0.0
 11
149.1731433405
 21
139.2008797102
 31
0.0
  0
LINE
  5
91
330
1F
100
AcDbEntity
  8
0
  6
SLD-Сплошная
 62
     7
370
    25
100
AcDbLine
 10
149.1731433405
 20
139.2008797102
 30
0.0
 11
137.2922556771
 21
142.3843539649
 31
0.0
  0
LINE
  5
92
330
1F
100
AcDbEntity
  8
0
  6
SLD-Сплошная
 62
     7
370
    25
100
AcDbLine
 10
143.6247199574
 20
166.0174323962
 30
0.0
 11
137.2922556771
 21
142.3843539649
 31
0.0
  0
LINE
  5
93
330
1F
100
AcDbEntity
  8
0
  6
SLD-Сплошная
 62
     7
370
    25
100
AcDbLine
 10
166.6164968705
 20
160.7408350469
 30
0.0
 11
164.3484354156
 21
161.3485602821
 31
0.0
  0
LINE
  5
94
330
1F
100
AcDbEntity
  8
0
  6
SLD-Сплошная
 62
     7
370
    25
100
AcDbLine
 10
166.6164968705
 20
160.7408350469
 30
0.0
 11
165.1892928318
 21
155.4144370616
 31
0.0
  0
LINE
  5
95
330
1F
100
AcDbEntity
  8
0
  6
SLD-Сплошная
 62
     7
370
    25
100
AcDbLine
 10
165.9453224699
 20
155.2118595306
 30
0.0
 11
165.1892928318
 21
155.4144370616
 31
0.0
  0
LINE
  5
96
330
1F
100
AcDbEntity
  8
0
  6
SLD-Сплошная
 62
     7
370
    25
100
AcDbLine
 10
167.3725265086
 20
160.5382575159
 30
0.0
 11
165.9453224699
 21
155.2118595306
 31
0.0
  0
LINE
  5
97
330
1F
100
AcDbEntity
  8
0
  6
SLD-Сплошная
 62
     7
370
    25
100
AcDbLine
 10
169.6405879636
 20
159.9305322807
 30
0.0
 11
167.3725265086
 21
160.5382575159
 31
0.0
  0
LINE
  5
98
330
1F
100
AcDbEntity
  8
0
  6
SLD-Сплошная
 62
     7
370
    25
100
AcDbLine
 10
169.6405879636
 20
159.9305322807
 30
0.0
 11
167.5284494553
 21
152.0479240553
 31
0.0
  0
LINE
  5
99
330
1F
100
AcDbEntity
  8
0
  6
SLD-Сплошная
 62
     7
370
    25
100
AcDbLine
 10
162.2362969074
 20
153.4659520567
 30
0.0
 11
167.5284494553
 21
152.0479240553
 31
0.0
  0
LINE
  5
9A
330
1F
100
AcDbEntity
  8
0
  6
SLD-Сплошная
 62
     7
370
    25
100
AcDbLine
 10
164.3484354156
 20
161.3485602821
 30
0.0
 11
162.2362969074
 21
153.4659520567
 31
0.0
  0
LINE
  5
9B
330
1F
100
AcDbEntity
  8
0
  6
SLD-Сплошная
 62
     7
370
    25
100
AcDbLine
 10
161.3243443226
 20
162.1588630483
 30
0.0
 11
159.2122058143
 21
154.2762548229
 31
0.0
  0
LINE
  5
9C
330
1F
100
AcDbEntity
  8
0
  6
SLD-Сплошная
 62
     7
370
    25
100
AcDbLine
 10
163.5924057775
 20
161.5511378131
 30
0.0
 11
161.3243443226
 21
162.1588630483
 31
0.0
  0
LINE
  5
9D
330
1F
100
AcDbEntity
  8
0
  6
SLD-Сплошная
 62
     7
370
    25
100
AcDbLine
 10
163.5924057775
 20
161.5511378131
 30
0.0
 11
161.4802672693
 21
153.6685295877
 31
0.0
  0
LINE
  5
9E
330
1F
100
AcDbEntity
  8
0
  6
SLD-Сплошная
 62
     7
370
    25
100
AcDbLine
 10
159.2122058143
 20
154.2762548229
 30
0.0
 11
161.4802672693
 21
153.6685295877
 31
0.0
  0
LINE
  5
9F
330
1F
100
AcDbEntity
  8
0
  6
SLD-Сплошная
 62
     7
370
    25
100
AcDbLine
 10
160.6083346546
 20
175.1161139046
 30
0.0
 11
153.8026168181
 21
149.7168291571
 31
0.0
  0
LINE
  5
A0
330
1F
100
AcDbEntity
  8
0
  6
SLD-Сплошная
 62
     7
370
    25
100
AcDbLine
 10
153.8026168181
 20
149.7168291571
 30
0.0
 11
169.9335781172
 21
145.3945511039
 31
0.0
  0
LINE
  5
A1
330
1F
100
AcDbEntity
  8
0
  6
SLD-Сплошная
 62
     7
370
    25
100
AcDbLine
 10
176.7392959536
 20
170.7938358514
 30
0.0
 11
160.6083346546
 21
175.1161139046
 31
0.0
  0
LINE
  5
A2
330
1F
100
AcDbEntity
  8
0
  6
SLD-Сплошная
 62
     7
370
    25
100
AcDbLine
 10
176.7392959536
 20
170.7938358514
 30
0.0
 11
169.9335781172
 21
145.3945511039
 31
0.0
  0
LINE
  5
A3
330
1F
100
AcDbEntity
  8
0
  6
SLD-Сплошная
 62
     7
370
    25
100
AcDbLine
 10
161.5266257823
 20
162.9137877333
 30
0.0
 11
169.8428694233
 21
160.6854569657
 31
0.0
  0
LINE
  5
A4
330
1F
100
AcDbEntity
  8
0
  6
SLD-Сплошная
 62
     7
370
    25
100
AcDbLine
 10
161.526561908
 20
162.9135493513
 30
0.0
 11
169.842805549
 21
160.6852185836
 31
0.0
  0
LINE
  5
A5
330
1F
100
AcDbEntity
  8
0
  6
SLD-Сплошная
 62
     7
370
    25
100
AcDbLine
 10
161.526561908
 20
162.9135493513
 30
0.0
 11
161.5266257823
 21
162.9137877333
 31
0.0
  0
LINE
  5
A6
330
1F
100
AcDbEntity
  8
0
  6
SLD-Сплошная
 62
     7
370
    25
100
AcDbLine
 10
169.842805549
 20
160.6852185836
 30
0.0
 11
169.8428694233
 21
160.6854569657
 31
0.0
  0
LINE
  5
A7
330
1F
100
AcDbEntity
  8
0
  6
SLD-Сплошная
 62
     7
370
    25
100
AcDbLine
 10
162.2293656336
 20
165.5364485629
 30
0.0
 11
161.5266257823
 21
162.9137877333
 31
0.0
  0
LINE
  5
A8
330
1F
100
AcDbEntity
  8
0
  6
SLD-Сплошная
 62
     7
370
    25
100
AcDbLine
 10
166.2813134959
 20
164.4507324055
 30
0.0
 11
162.2293656336
 21
165.5364485629
 31
0.0
  0
LINE
  5
A9
330
1F
100
AcDbEntity
  8
0
  6
SLD-Сплошная
 62
     7
370
    25
100
AcDbLine
 10
166.3047010058
 20
164.5380157806
 30
0.0
 11
166.2813134959
 21
164.4507324055
 31
0.0
  0
SPLINE
  5
AA
330
1F
100
AcDbEntity
  8
0
  6
SLD-Сплошная
 62
     7
370
    25
100
AcDbSpline
210
0.0
220
0.0
230
1.0
 70
     8
 71
     3
 72
     8
 73
     4
 74
     0
 42
0.00000001
 43
0.00000001
 40
0.0
 40
0.0
 40
0.0
 40
0.0
 40
1.0
 40
1.0
 40
1.0
 40
1.0
 10
163.1287042095325
 20
168.8928258215385
 30
0.0
 10
164.1943655102401
 20
167.4648918831192
 30
0.0
 10
165.2516145035711
 20
166.0096187607936
 30
0.0
 10
166.3047010058166
 20
164.5380157805977
 30
0.0
  0
LINE
  5
AB
330
1F
100
AcDbEntity
  8
0
  6
SLD-Сплошная
 62
     7
370
    25
100
AcDbLine
 10
163.8561385442
 20
171.6076477176
 30
0.0
 11
163.1287042095
 21
168.8928258215
 31
0.0
  0
SPLINE
  5
AC
330
1F
100
AcDbEntity
  8
0
  6
SLD-Сплошная
 62
     7
370
    25
100
AcDbSpline
210
0.0
220
0.0
230
1.0
 70
     8
 71
     3
 72
     8
 73
     4
 74
     0
 42
0.00000001
 43
0.00000001
 40
0.0
 40
0.0
 40
0.0
 40
0.0
 40
1.0
 40
1.0
 40
1.0
 40
1.0
 10
167.1543272270015
 20
167.2841681728726
 30
0.0
 10
166.0639390242627
 20
168.7570223016235
 30
0.0
 10
164.9660567989889
 20
170.2019602158536
 30
0.0
 10
163.8561385441706
 20
171.607647717578
 30
0.0
  0
SPLINE
  5
AD
330
1F
100
AcDbEntity
  8
0
  6
SLD-Сплошная
 62
     7
370
    25
100
AcDbSpline
210
0.0
220
0.0
230
1.0
 70
     8
 71
     3
 72
     8
 73
     4
 74
     0
 42
0.00000001
 43
0.00000001
 40
0.0
 40
0.0
 40
0.0
 40
0.0
 40
1.0
 40
1.0
 40
1.0
 40
1.0
 10
172.1723821851576
 20
169.3793169499151
 30
0.0
 10
170.50832046952
 20
168.7169147681409
 30
0.0
 10
168.8350586524461
 20
168.0145033705654
 30
0.0
 10
167.1543272270015
 20
167.2841681728726
 30
0.0
  0
LINE
  5
AE
330
1F
100
AcDbEntity
  8
0
  6
SLD-Сплошная
 62
     7
370
    25
100
AcDbLine
 10
172.1723821852
 20
169.3793169499
 30
0.0
 11
171.4449478505
 21
166.6644950539
 31
0.0
  0
SPLINE
  5
AF
330
1F
100
AcDbEntity
  8
0
  6
SLD-Сплошная
 62
     7
370
    25
100
AcDbSpline
210
0.0
220
0.0
230
1.0
 70
     8
 71
     3
 72
     8
 73
     4
 74
     0
 42
0.00000001
 43
0.00000001
 40
0.0
 40
0.0
 40
0.0
 40
0.0
 40
1.0
 40
1.0
 40
1.0
 40
1.0
 10
166.5170489221287
 20
164.4811173279092
 30
0.0
 10
168.1648498185711
 20
165.2290195252813
 30
0.0
 10
169.8080914394366
 20
165.9606987746618
 30
0.0
 10
171.4449478505195
 20
166.6644950538756
 30
0.0
  0
LINE
  5
B0
330
1F
100
AcDbEntity
  8
0
  6
SLD-Сплошная
 62
     7
370
    25
100
AcDbLine
 10
166.5170489221
 20
164.4811173279
 30
0.0
 11
166.4936614122
 21
164.3938339528
 31
0.0
  0
LINE
  5
B1
330
1F
100
AcDbEntity
  8
0
  6
SLD-Сплошная
 62
     7
370
    25
100
AcDbLine
 10
170.5456092746
 20
163.3081177953
 30
0.0
 11
166.4936614122
 21
164.3938339528
 31
0.0
  0
LINE
  5
B2
330
1F
100
AcDbEntity
  8
0
  6
SLD-Сплошная
 62
     7
370
    25
100
AcDbLine
 10
170.5456092746
 20
163.3081177953
 30
0.0
 11
169.8428694233
 21
160.6854569657
 31
0.0
  0
LINE
  5
B3
330
1F
100
AcDbEntity
  8
0
  6
SLD-Сплошная
 62
     7
370
    25
100
AcDbLine
 10
176.6819454185
 20
170.5798007406
 30
0.0
 11
160.5509841195
 21
174.9020787938
 31
0.0
  0
LINE
  5
B4
330
1F
100
AcDbEntity
  8
0
  6
SLD-Сплошная
 62
     7
370
    25
100
AcDbLine
 10
153.8596480954
 20
149.9296727815
 30
0.0
 11
169.9906093944
 21
145.6073947283
 31
0.0
  0
LINE
  5
B5
330
1F
100
AcDbEntity
  8
0
  6
SLD-Сплошная
 62
     7
370
    25
100
AcDbLine
 10
158.3708105624
 20
151.1361249935
 30
0.0
 11
160.6388720173
 21
150.5283997582
 31
0.0
  0
LINE
  5
B6
330
1F
100
AcDbEntity
  8
0
  6
SLD-Сплошная
 62
     7
370
    25
100
AcDbLine
 10
161.3949016554
 20
150.3258222272
 30
0.0
 11
166.6870542034
 21
148.9077942258
 31
0.0
  0
LINE
  5
B7
330
1F
100
AcDbEntity
  8
0
  6
SLD-Сплошная
 62
     7
370
    25
100
AcDbLine
 10
162.2362298772
 20
153.4657018966
 30
0.0
 11
167.5283824251
 21
152.0476738952
 31
0.0
  0
LINE
  5
B8
330
1F
100
AcDbEntity
  8
0
  6
SLD-Сплошная
 62
     7
370
    25
100
AcDbLine
 10
159.2121387841
 20
154.2760046628
 30
0.0
 11
161.4802002391
 21
153.6682794276
 31
0.0
  0
SPLINE
  5
B9
330
1F
100
AcDbEntity
  8
0
  6
SLD-Сплошная
 62
     7
370
    25
100
AcDbSpline
210
0.0
220
0.0
230
1.0
 70
     8
 71
     3
 72
     8
 73
     4
 74
     0
 42
0.00000001
 43
0.00000001
 40
0.0
 40
0.0
 40
0.0
 40
0.0
 40
1.0
 40
1.0
 40
1.0
 40
1.0
 10
166.5169840471794
 20
164.4808752113024
 30
0.0
 10
168.1652338559149
 20
165.2289791468205
 30
0.0
 10
169.8085662312999
 20
165.9606838049224
 30
0.0
 10
171.4448803201503
 20
166.6642430271066
 30
0.0
  0
SPLINE
  5
BA
330
1F
100
AcDbEntity
  8
0
  6
SLD-Сплошная
 62
     7
370
    25
100
AcDbSpline
210
0.0
220
0.0
230
1.0
 70
     8
 71
     3
 72
     8
 73
     4
 74
     0
 42
0.00000001
 43
0.00000001
 40
0.0
 40
0.0
 40
0.0
 40
0.0
 40
1.0
 40
1.0
 40
1.0
 40
1.0
 10
163.1286366791632
 20
168.8925737947696
 30
0.0
 10
164.1939466366584
 20
167.4651165921079
 30
0.0
 10
165.251261893271
 20
166.0097755800821
 30
0.0
 10
166.3046361308672
 20
164.5377736639909
 30
0.0
  0
LINE
  5
BB
330
1F
100
AcDbEntity
  8
0
  6
SLD-Сплошная
 62
     7
370
    25
100
AcDbLine
 10
163.1286366792
 20
168.8925737948
 30
0.0
 11
163.1287042095
 21
168.8928258215
 31
0.0
  0
LINE
  5
BC
330
1F
100
AcDbEntity
  8
0
  6
SLD-Сплошная
 62
     7
370
    25
100
AcDbLine
 10
171.4448803202
 20
166.6642430271
 30
0.0
 11
171.4449478505
 21
166.6644950539
 31
0.0
  0
LINE
  5
BD
330
1F
100
AcDbEntity
  8
0
  6
SLD-Сплошная
 62
     7
370
    25
100
AcDbLine
 10
159.2121387841
 20
154.2760046628
 30
0.0
 11
159.2122058143
 21
154.2762548229
 31
0.0
  0
LINE
  5
BE
330
1F
100
AcDbEntity
  8
0
  6
SLD-Сплошная
 62
     7
370
    25
100
AcDbLine
 10
161.4802002391
 20
153.6682794276
 30
0.0
 11
161.4802672693
 21
153.6685295877
 31
0.0
  0
LINE
  5
BF
330
1F
100
AcDbEntity
  8
0
  6
SLD-Сплошная
 62
     7
370
    25
100
AcDbLine
 10
167.5283824251
 20
152.0476738952
 30
0.0
 11
167.5284494553
 21
152.0479240553
 31
0.0
  0
LINE
  5
C0
330
1F
100
AcDbEntity
  8
0
  6
SLD-Сплошная
 62
     7
370
    25
100
AcDbLine
 10
162.2362298772
 20
153.4657018966
 30
0.0
 11
162.2362969074
 21
153.4659520567
 31
0.0
  0
LINE
  5
C1
330
1F
100
AcDbEntity
  8
0
  6
SLD-Сплошная
 62
     7
370
    25
100
AcDbLine
 10
161.288916504
 20
152.9543988097
 30
0.0
 11
160.6389432906
 21
150.5286657537
 31
0.0
  0
LINE
  5
C2
330
1F
100
AcDbEntity
  8
0
  6
SLD-Сплошная
 62
     7
370
    25
100
AcDbLine
 10
158.3708818357
 20
151.136390989
 30
0.0
 11
160.6389432906
 21
150.5286657537
 31
0.0
  0
LINE
  5
C3
330
1F
100
AcDbEntity
  8
0
  6
SLD-Сплошная
 62
     7
370
    25
100
AcDbLine
 10
159.0208550491
 20
153.5621240449
 30
0.0
 11
158.3708818357
 21
151.136390989
 31
0.0
  0
LINE
  5
C4
330
1F
100
AcDbEntity
  8
0
  6
SLD-Сплошная
 62
     7
370
    25
100
AcDbLine
 10
161.288916504
 20
152.9543988097
 30
0.0
 11
159.0208550491
 21
153.5621240449
 31
0.0
  0
LINE
  5
C5
330
1F
100
AcDbEntity
  8
0
  6
SLD-Сплошная
 62
     7
370
    25
100
AcDbLine
 10
167.3370986901
 20
151.3337932772
 30
0.0
 11
166.6871254767
 21
148.9080602213
 31
0.0
  0
LINE
  5
C6
330
1F
100
AcDbEntity
  8
0
  6
SLD-Сплошная
 62
     7
370
    25
100
AcDbLine
 10
161.3949729287
 20
150.3260882228
 30
0.0
 11
166.6871254767
 21
148.9080602213
 31
0.0
  0
LINE
  5
C7
330
1F
100
AcDbEntity
  8
0
  6
SLD-Сплошная
 62
     7
370
    25
100
AcDbLine
 10
167.3370986901
 20
151.3337932772
 30
0.0
 11
162.0449461421
 21
152.7518212787
 31
0.0
  0
LINE
  5
C8
330
1F
100
AcDbEntity
  8
0
  6
SLD-Сплошная
 62
     7
370
    25
100
AcDbLine
 10
162.0449461421
 20
152.7518212787
 30
0.0
 11
161.3949729287
 21
150.3260882228
 31
0.0
  0
LINE
  5
C9
330
1F
100
AcDbEntity
  8
0
  6
SLD-Сплошная
 62
     7
370
    25
100
AcDbLine
 10
160.6388720173
 20
150.5283997582
 30
0.0
 11
160.6389432906
 21
150.5286657537
 31
0.0
  0
LINE
  5
CA
330
1F
100
AcDbEntity
  8
0
  6
SLD-Сплошная
 62
     7
370
    25
100
AcDbLine
 10
158.3708105624
 20
151.1361249935
 30
0.0
 11
158.3708818357
 21
151.136390989
 31
0.0
  0
LINE
  5
CB
330
1F
100
AcDbEntity
  8
0
  6
SLD-Сплошная
 62
     7
370
    25
100
AcDbLine
 10
166.6870542034
 20
148.9077942258
 30
0.0
 11
166.6871254767
 21
148.9080602213
 31
0.0
  0
LINE
  5
CC
330
1F
100
AcDbEntity
  8
0
  6
SLD-Сплошная
 62
     7
370
    25
100
AcDbLine
 10
161.3949016554
 20
150.3258222272
 30
0.0
 11
161.3949729287
 21
150.3260882228
 31
0.0
  0
LINE
  5
CD
330
1F
100
AcDbEntity
  8
0
  6
SLD-Сплошная
 62
     7
370
    25
100
AcDbLine
 10
167.3894470144
 20
113.6834305627
 30
0.0
 11
169.3896536861
 21
121.1483034869
 31
0.0
  0
LINE
  5
CE
330
1F
100
AcDbEntity
  8
0
  6
SLD-Сплошная
 62
     7
370
    25
100
AcDbLine
 10
140.3941274865
 20
157.8244004613
 30
0.0
 11
139.7127978594
 21
155.2816436763
 31
0.0
  0
LINE
  5
CF
330
1F
100
AcDbEntity
  8
0
  6
SLD-Сплошная
 62
     7
370
    25
100
AcDbLine
 10
139.7127978594
 20
155.2816436763
 30
0.0
 11
139.3588513061
 21
153.9606971561
 31
0.0
  0
LINE
  5
D0
330
1F
100
AcDbEntity
  8
0
  6
SLD-Сплошная
 62
     7
370
    25
100
AcDbLine
 10
148.0386781696
 20
134.966998053
 30
0.0
 11
148.8151353049
 21
137.8647755319
 31
0.0
  0
LINE
  5
D1
330
1F
100
AcDbEntity
  8
0
  6
SLD-Сплошная
 62
     7
370
    25
100
AcDbLine
 10
136.1577905062
 20
138.1504723077
 30
0.0
 11
136.9342476415
 21
141.0482497866
 31
0.0
  0
LINE
  5
D2
330
1F
100
AcDbEntity
  8
0
  6
SLD-Сплошная
 62
     7
370
    25
100
AcDbLine
 10
148.8151353049
 20
137.8647755319
 30
0.0
 11
149.1731433405
 21
139.2008797102
 31
0.0
  0
LINE
  5
D3
330
1F
100
AcDbEntity
  8
0
  6
SLD-Сплошная
 62
     7
370
    25
100
AcDbLine
 10
136.9342476415
 20
141.0482497866
 30
0.0
 11
137.2922556771
 21
142.3843539649
 31
0.0
  0
SPLINE
  5
D4
330
1F
100
AcDbEntity
  8
0
  6
SLD-Сплошная
 62
     7
370
    25
100
AcDbSpline
210
0.0
220
0.0
230
1.0
 70
     8
 71
     3
 72
    42
 73
    38
 74
     0
 42
0.00000001
 43
0.00000001
 40
0.0
 40
0.0
 40
0.0
 40
0.0
 40
0.0350146600220185
 40
0.0698677428273382
 40
0.0790428217351834
 40
0.0881961641554904
 40
0.0973322362683556
 40
0.1064600539763348
 40
0.1137867303324901
 40
0.1247067450688073
 40
0.1427660543988687
 40
0.1607311727883099
 40
0.1786030103119443
 40
0.1963824642820499
 40
0.2140704163614846
 40
0.2316677297725368
 40
0.2491752466081662
 40
0.3332296586006291
 40
0.4166213724814122
 40
0.4981559771611373
 40
0.5292856421252399
 40
0.560419737302181
 40
0.5916098636231928
 40
0.6227503524390287
 40
0.6540400039028952
 40
0.6852171093142774
 40
0.7164385668129785
 40
0.74770429550412
 40
0.7788409816568279
 40
0.8101260252423191
 40
0.8411772900639659
 40
0.8724035925936805
 40
0.9040813780689738
 40
0.9353520014261695
 40
0.9662025001173491
 40
0.9966208532355239
 40
1.0
 40
1.0
 40
1.0
 40
1.0
 10
205.8682887538361
 20
149.3393184031615
 30
0.0
 10
207.0306982277855
 20
149.4862239285365
 30
0.0
 10
209.3501531685129
 20
149.7793570750632
 30
0.0
 10
211.9957670027618
 20
149.7286416214124
 30
0.0
 10
213.7623585133518
 20
149.5812697452241
 30
0.0
 10
214.6719722958573
 20
149.4769482323061
 30
0.0
 10
215.5761996741945
 20
149.3454553015277
 30
0.0
 10
216.4162766823909
 20
149.1986395090105
 30
0.0
 10
217.3093075782118
 20
149.0131054900195
 30
0.0
 10
218.4895443188632
 20
148.7492991424735
 30
0.0
 10
220.0135863905876
 20
148.4026632680926
 30
0.0
 10
221.7588612956817
 20
147.9901962357486
 30
0.0
 10
223.4909026549971
 20
147.5672968455521
 30
0.0
 10
225.2096314525194
 20
147.1337108404668
 30
0.0
 10
226.9151036439785
 20
146.6898087039134
 30
0.0
 10
228.60734585886
 20
146.2357861378077
 30
0.0
 10
232.4166099299843
 20
145.1836418302238
 30
0.0
 10
238.2816542362766
 20
143.4252893865596
 30
0.0
 10
246.0590542063241
 20
140.794787622572
 30
0.0
 10
252.0681146530408
 20
138.4910874404632
 30
0.0
 10
256.4343013555681
 20
136.7521285110082
 30
0.0
 10
259.2038679896387
 20
135.4658885755433
 30
0.0
 10
262.1794139144157
 20
134.743721550225
 30
0.0
 10
265.2389633415434
 20
134.7209968627606
 30
0.0
 10
268.2169168831261
 20
135.3586617097648
 30
0.0
 10
270.9694909213727
 20
136.5942024893196
 30
0.0
 10
273.3627888245434
 20
138.3242992975219
 30
0.0
 10
275.3035544555827
 20
140.4036589489432
 30
0.0
 10
276.7380002858913
 20
142.6766049317937
 30
0.0
 10
277.6856764280661
 20
144.9724213387796
 30
0.0
 10
278.1121059930131
 20
147.2097076651985
 30
0.0
 10
278.436195987029
 20
149.1456910581455
 30
0.0
 10
278.7087361630101
 20
150.698866155147
 30
0.0
 10
278.9077176072095
 20
151.8485081901541
 30
0.0
 10
279.023045858575
 20
152.5139058535156
 30
0.0
 10
279.0702917693953
 20
152.7918715699246
 30
0.0
 10
279.0585134385077
 20
152.7236181963531
 30
0.0
 10
279.0573358156407
 20
152.7167940771943
 30
0.0
  0
SPLINE
  5
D5
330
1F
100
AcDbEntity
  8
0
  6
SLD-Сплошная
 62
     7
370
    25
100
AcDbSpline
210
0.0
220
0.0
230
1.0
 70
    24
 71
     3
 72
    26
 73
    22
 74
     0
 42
0.00000001
 43
0.00000001
 40
0.0
 40
0.0
 40
0.0
 40
0.0
 40
0.0302695357680213
 40
0.0607588632298527
 40
0.0914922688659407
 40
0.1224934655261404
 40
0.1537855572777458
 40
0.1853910102482693
 40
0.2173316293438247
 40
0.2496285406264411
 40
0.3756615897449564
 40
0.4986923020530695
 40
0.6271864366155769
 40
0.7488665067058066
 40
0.7890533417034391
 40
0.8275634909692743
 40
0.8645237493729944
 40
0.9000774977197699
 40
0.9343857555768023
 40
0.9676276464421947
 40
1.0
 40
1.0
 40
1.0
 40
1.0
 10
205.8682887538352
 20
149.3393184031577
 30
0.0
 10
205.7671943573683
 20
149.3664065650503
 30
0.0
 10
205.5642715026767
 20
149.4207795800907
 30
0.0
 10
205.2525714573282
 20
149.5042993555226
 30
0.0
 10
204.9342656617644
 20
149.58958913639
 30
0.0
 10
204.6088869035792
 20
149.67677411188
 30
0.0
 10
204.2765618350066
 20
149.7658203456287
 30
0.0
 10
203.9372600370053
 20
149.8567359883935
 30
0.0
 10
203.5909779990056
 20
149.949521980829
 30
0.0
 10
202.8974956550344
 20
150.1353400148613
 30
0.0
 10
201.8509899770349
 20
150.4157503661558
 30
0.0
 10
200.4153146421123
 20
150.8004384127416
 30
0.0
 10
198.9789898010127
 20
151.185300493983
 30
0.0
 10
197.8638538345919
 20
151.4841002756364
 30
0.0
 10
197.1080148110829
 20
151.6866267315935
 30
0.0
 10
196.6769611763048
 20
151.8021272049268
 30
0.0
 10
196.2701816095343
 20
151.9111234613405
 30
0.0
 10
195.8875119761181
 20
152.0136594805823
 30
0.0
 10
195.5294812103444
 20
152.1095935351368
 30
0.0
 10
195.1943150234724
 20
152.1994010442394
 30
0.0
 10
194.9881521727842
 20
152.2546422135906
 30
0.0
 10
194.886436809731
 20
152.2818967629785
 30
0.0
  0
SPLINE
  5
D6
330
1F
100
AcDbEntity
  8
0
  6
SLD-Сплошная
 62
     7
370
    25
100
AcDbSpline
210
0.0
220
0.0
230
1.0
 70
     8
 71
     3
 72
    44
 73
    40
 74
     0
 42
0.00000001
 43
0.00000001
 40
0.0
 40
0.0
 40
0.0
 40
0.0
 40
0.0086832740030803
 40
0.0285904733299584
 40
0.0491261536037099
 40
0.0809225675852971
 40
0.1122248046965924
 40
0.143631757722027
 40
0.1748498361652732
 40
0.1910992771218887
 40
0.2062338865517342
 40
0.2223894074399553
 40
0.2376796646690017
 40
0.2534525906062184
 40
0.2690557574575547
 40
0.2848158965791812
 40
0.30049748218181
 40
0.3162359345504019
 40
0.3319878943116946
 40
0.3375688674661045
 40
0.3431705647589177
 40
0.3482291950948632
 40
0.348948446291599
 40
0.3513146043535559
 40
0.3557996152095444
 40
0.3637796850694272
 40
0.4047263659824167
 40
0.4472787915565844
 40
0.4914461873927106
 40
0.5540672055846327
 40
0.6191072349441772
 40
0.6823169455718988
 40
0.7467693100741062
 40
0.7892125608244559
 40
0.8312419262224695
 40
0.8735596257770698
 40
0.9157284015738687
 40
0.9575372254151391
 40
1.0
 40
1.0
 40
1.0
 40
1.0
 10
273.8328450986335
 20
155.8658217028072
 30
0.0
 10
273.8339351874385
 20
155.8723969031327
 30
0.0
 10
273.837524404466
 20
155.8940463511953
 30
0.0
 10
273.8044340464425
 20
155.7179000626498
 30
0.0
 10
273.7265971784327
 20
155.2809096923743
 30
0.0
 10
273.5646927528122
 20
154.419247083434
 30
0.0
 10
273.3077507421798
 20
153.0048414989714
 30
0.0
 10
272.9622246705228
 20
151.1946257388013
 30
0.0
 10
272.6555777778652
 20
149.3442625550217
 30
0.0
 10
272.2837847533664
 20
147.7555486802085
 30
0.0
 10
271.841646790177
 20
146.5414393625961
 30
0.0
 10
271.2510608647217
 20
145.3613888788495
 30
0.0
 10
270.4712126687622
 20
144.2114090276619
 30
0.0
 10
269.5101535507871
 20
143.1645480043768
 30
0.0
 10
268.3489187264469
 20
142.245910790591
 30
0.0
 10
267.0077305863256
 20
141.5368454144595
 30
0.0
 10
265.5281379363652
 20
141.0600975475993
 30
0.0
 10
263.954532407188
 20
140.8791790645468
 30
0.0
 10
262.6934453282516
 20
140.981021167954
 30
0.0
 10
261.7922197618606
 20
141.1774032247899
 30
0.0
 10
261.2558533910683
 20
141.3352428789083
 30
0.0
 10
260.8859489492838
 20
141.469497284514
 30
0.0
 10
260.6254059356986
 20
141.5780533537318
 30
0.0
 10
260.383352433147
 20
141.6794502209661
 30
0.0
 10
259.9092958013563
 20
141.8789542387849
 30
0.0
 10
258.1990881428783
 20
142.591567713146
 30
0.0
 10
255.2536415979532
 20
143.7831045921524
 30
0.0
 10
251.1053018382778
 20
145.3730201251097
 30
0.0
 10
246.2093980573247
 20
147.1437208829655
 30
0.0
 10
240.5184286135915
 20
149.0552892337363
 30
0.0
 10
234.1255421101114
 20
151.0060874576424
 30
0.0
 10
227.606216272201
 20
152.8094421178918
 30
0.0
 10
221.7943460137528
 20
154.2161192104071
 30
0.0
 10
216.6795883288953
 20
155.4075625708723
 30
0.0
 10
212.2321083186617
 20
155.8725092401025
 30
0.0
 10
207.7762641697151
 20
155.7858374800826
 30
0.0
 10
203.3665493375558
 20
155.1578970818641
 30
0.0
 10
199.0427832082759
 20
153.9986179858208
 30
0.0
 10
196.2790345401254
 20
152.8570899373231
 30
0.0
 10
194.8864368097315
 20
152.2818967629805
 30
0.0
  0
LINE
  5
D7
330
1F
100
AcDbEntity
  8
0
  6
SLD-Сплошная
 62
     7
370
    25
100
AcDbLine
 10
232.8541422786
 20
176.4069440483
 30
0.0
 11
232.7559262846
 21
176.0403969684
 31
0.0
  0
SPLINE
  5
D8
330
1F
100
AcDbEntity
  8
0
  6
SLD-Сплошная
 62
     7
370
    25
100
AcDbSpline
210
0.0
220
0.0
230
1.0
 70
     8
 71
     3
 72
    10
 73
     6
 74
     0
 42
0.00000001
 43
0.00000001
 40
0.0
 40
0.0
 40
0.0
 40
0.0
 40
0.5
 40
0.5
 40
1.0
 40
1.0
 40
1.0
 40
1.0
 10
232.7559262845521
 20
176.0403969683713
 30
0.0
 10
233.9988213268214
 20
175.5212043203545
 30
0.0
 10
235.2386591178726
 20
174.9941634970526
 30
0.0
 10
237.712205419054
 20
173.9243475624867
 30
0.0
 10
238.9478204025638
 20
173.3807265980786
 30
0.0
 10
240.177983088443
 20
172.8302636159043
 30
0.0
  0
LINE
  5
D9
330
1F
100
AcDbEntity
  8
0
  6
SLD-Сплошная
 62
     7
370
    25
100
AcDbLine
 10
240.1779830884
 20
172.8302636159
 30
0.0
 11
240.2798249982
 21
173.2103427973
 31
0.0
  0
LINE
  5
DA
330
1F
100
AcDbEntity
  8
0
  6
SLD-Сплошная
 62
     7
370
    25
100
AcDbLine
 10
215.7784218621
 20
167.9304451418
 30
0.0
 11
213.3396785373
 21
158.8289311469
 31
0.0
  0
SPLINE
  5
DB
330
1F
100
AcDbEntity
  8
0
  6
SLD-Сплошная
 62
     7
370
    25
100
AcDbSpline
210
0.0
220
0.0
230
1.0
 70
    24
 71
     3
 72
    13
 73
     9
 74
     0
 42
0.00000001
 43
0.00000001
 40
0.0
 40
0.0
 40
0.0
 40
0.0
 40
0.4999999999999987
 40
0.4999999999999987
 40
0.6249999999999989
 40
0.6249999999999989
 40
0.7499999999999991
 40
1.0
 40
1.0
 40
1.0
 40
1.0
 10
213.3396785372689
 20
158.8289311469003
 30
0.0
 10
214.9565293303819
 20
158.3956972826041
 30
0.0
 10
216.5740230515968
 20
157.9622911462422
 30
0.0
 10
218.5967036569002
 20
157.420315511505
 30
0.0
 10
218.9966195444885
 20
157.3131583723854
 30
0.0
 10
219.7980496735356
 20
157.0984158165172
 30
0.0
 10
220.9996579216345
 20
156.7764458568204
 30
0.0
 10
222.199655155955
 20
156.4549075669648
 30
0.0
 10
222.9989368001596
 20
156.2407406958751
 30
0.0
  0
LINE
  5
DC
330
1F
100
AcDbEntity
  8
0
  6
SLD-Сплошная
 62
     7
370
    25
100
AcDbLine
 10
222.9989368002
 20
156.2407406959
 30
0.0
 11
224.9674326816
 21
163.5872673399
 31
0.0
  0
SPLINE
  5
DD
330
1F
100
AcDbEntity
  8
0
  6
SLD-Сплошная
 62
     7
370
    25
100
AcDbSpline
210
0.0
220
0.0
230
1.0
 70
     8
 71
     3
 72
    31
 73
    27
 74
     0
 42
0.00000001
 43
0.00000001
 40
0.0
 40
0.0
 40
0.0
 40
0.0
 40
0.0190231734916142
 40
0.0376104422892286
 40
0.0557634849391542
 40
0.0734841033914985
 40
0.0907742348067791
 40
0.1076359647260765
 40
0.1240715417837855
 40
0.1889580503376518
 40
0.2485839807623429
 40
0.3421949201024141
 40
0.4246003028476797
 40
0.4987103978571324
 40
0.5589239757930103
 40
0.6187587807446414
 40
0.6812595188361541
 40
0.7491129654543366
 40
0.778178979110452
 40
0.8086822052851209
 40
0.8407145087120707
 40
0.8743552298248052
 40
0.9036044639708714
 40
0.9342760700729374
 40
0.9663993996675124
 40
1.0
 40
1.0
 40
1.0
 40
1.0
 10
224.9674326816059
 20
163.5872673399226
 30
0.0
 10
224.994156714379
 20
163.6903972658178
 30
0.0
 10
225.0469924146262
 20
163.8942939567605
 30
0.0
 10
225.1135030499788
 20
164.1972313460511
 30
0.0
 10
225.1697550130907
 20
164.4934461740907
 30
0.0
 10
225.215227000516
 20
164.7829111271425
 30
0.0
 10
225.250425820411
 20
165.0655298525704
 30
0.0
 10
225.2756047527467
 20
165.3412389093466
 30
0.0
 10
225.3064332487113
 20
165.876192307023
 30
0.0
 10
225.2847400324778
 20
166.6440486277077
 30
0.0
 10
225.0683942310659
 20
167.8196271545803
 30
0.0
 10
224.5494481112429
 20
169.0591147966092
 30
0.0
 10
223.5774818489951
 20
170.2601057709709
 30
0.0
 10
222.3945251437406
 20
171.1066072665714
 30
0.0
 10
221.1546682755587
 20
171.5976919062132
 30
0.0
 10
219.9583727907733
 20
171.7681977893879
 30
0.0
 10
218.8161561891856
 20
171.6272631269404
 30
0.0
 10
218.0174592973724
 20
171.2699703403858
 30
0.0
 10
217.4803383260953
 20
170.8810822028519
 30
0.0
 10
217.135155408634
 20
170.5614878971944
 30
0.0
 10
216.8157515850639
 20
170.1883286262305
 30
0.0
 10
216.5416436910688
 20
169.7866195509635
 30
0.0
 10
216.3068476989029
 20
169.3638850815909
 30
0.0
 10
216.1069299214795
 20
168.9258529359352
 30
0.0
 10
215.926447168342
 20
168.4475122762563
 30
0.0
 10
215.828497499413
 20
168.1053643292527
 30
0.0
 10
215.7784218620914
 20
167.9304451417572
 30
0.0
  0
LINE
  5
DE
330
1F
100
AcDbEntity
  8
0
  6
SLD-Сплошная
 62
     7
370
    25
100
AcDbLine
 10
194.8864368097
 20
152.281896763
 30
0.0
 11
182.4549381742
 21
155.6129067831
 31
0.0
  0
SPLINE
  5
DF
330
1F
100
AcDbEntity
  8
0
  6
SLD-Сплошная
 62
     7
370
    25
100
AcDbSpline
210
0.0
220
0.0
230
1.0
 70
    24
 71
     3
 72
    21
 73
    17
 74
     0
 42
0.00000001
 43
0.00000001
 40
0.0
 40
0.0
 40
0.0
 40
0.0
 40
0.0613969410866054
 40
0.1241155398169964
 40
0.1865414055001729
 40
0.2491240706605073
 40
0.3115085234535359
 40
0.3741131606112145
 40
0.4366867274182068
 40
0.4995079711093646
 40
0.5618181215028043
 40
0.6243606872244771
 40
0.6868475765720192
 40
0.7495201388406248
 40
0.8746522668876624
 40
1.0
 40
1.0
 40
1.0
 40
1.0
 10
280.2066317947018
 20
152.0258616716902
 30
0.0
 10
280.2066317947018
 20
152.005263271574
 30
0.0
 10
280.2066317947018
 20
151.9636230610921
 30
0.0
 10
280.2066317947018
 20
151.6075459915285
 30
0.0
 10
280.2066317947018
 20
151.0425377543753
 30
0.0
 10
280.2066317947018
 20
150.2547134552556
 30
0.0
 10
280.2066317947018
 20
149.2623768417045
 30
0.0
 10
280.2066317947018
 20
148.0745982506131
 30
0.0
 10
280.2066317947017
 20
146.7065962024305
 30
0.0
 10
280.2066317947017
 20
145.1772734090401
 30
0.0
 10
280.2066317947017
 20
143.5058101595093
 30
0.0
 10
280.2066317947017
 20
141.7123025100586
 30
0.0
 10
280.2066317947017
 20
139.8109081601336
 30
0.0
 10
280.2066317947017
 20
137.1630221323856
 30
0.0
 10
280.2066317947017
 20
133.6772076603607
 30
0.0
 10
280.2066317947017
 20
130.8401628451051
 30
0.0
 10
280.2066317947016
 20
129.42041941869
 30
0.0
  0
LINE
  5
E0
330
1F
100
AcDbEntity
  8
0
  6
SLD-Сплошная
 62
     7
370
    25
100
AcDbLine
 10
280.2066317947
 20
129.4204194187
 30
0.0
 11
205.8682887538
 21
149.3393184032
 31
0.0
  0
LINE
  5
E1
330
1F
100
AcDbEntity
  8
0
  6
SLD-Сплошная
 62
     7
370
    25
100
AcDbLine
 10
239.984878407
 20
172.9153962062
 30
0.0
 11
240.2798249982
 21
173.2103427973
 31
0.0
  0
LINE
  5
E2
330
1F
100
AcDbEntity
  8
0
  6
SLD-Сплошная
 62
     7
370
    25
100
AcDbLine
 10
284.4425076757
 20
111.4204194187
 30
0.0
 11
284.4425076757
 21
139.4204194187
 31
0.0
  0
LINE
  5
E3
330
1F
100
AcDbEntity
  8
0
  6
SLD-Сплошная
 62
     7
370
    25
100
AcDbLine
 10
287.2191281842
 20
126.4204194187
 30
0.0
 11
284.4425076757
 21
139.4204194187
 31
0.0
  0
LINE
  5
E4
330
1F
100
AcDbEntity
  8
0
  6
SLD-Сплошная
 62
     7
370
    25
100
AcDbLine
 10
287.2191281842
 20
124.4204194187
 30
0.0
 11
287.2191281842
 21
126.4204194187
 31
0.0
  0
LINE
  5
E5
330
1F
100
AcDbEntity
  8
0
  6
SLD-Сплошная
 62
     7
370
    25
100
AcDbLine
 10
287.2191281842
 20
124.4204194187
 30
0.0
 11
284.4425076757
 21
111.4204194187
 31
0.0
  0
LINE
  5
E6
330
1F
100
AcDbEntity
  8
0
  6
SLD-Сплошная
 62
     7
370
    25
100
AcDbLine
 10
284.4425076757
 20
139.4204194187
 30
0.0
 11
280.2066317947
 21
139.4204194187
 31
0.0
  0
LINE
  5
E7
330
1F
100
AcDbEntity
  8
0
  6
SLD-Сплошная
 62
     7
370
    25
100
AcDbLine
 10
284.4425076757
 20
111.4204194187
 30
0.0
 11
280.2066317947
 21
111.4204194187
 31
0.0
  0
SPLINE
  5
E8
330
1F
100
AcDbEntity
  8
0
  6
SLD-Сплошная
 62
     7
370
    25
100
AcDbSpline
210
0.0
220
0.0
230
1.0
 70
     8
 71
     3
 72
    16
 73
    12
 74
     0
 42
0.00000001
 43
0.00000001
 40
0.0
 40
0.0
 40
0.0
 40
0.0
 40
0.1132922038425494
 40
0.2241062008002509
 40
0.356241712112817
 40
0.4699131461111209
 40
0.5660304236106578
 40
0.6527499920202599
 40
0.7536887829670232
 40
0.8706086477159618
 40
0.9999999999999999
 40
0.9999999999999999
 40
0.9999999999999999
 40
0.9999999999999999
 10
40.7267221853064
 20
151.4705067231842
 30
0.0
 10
40.66394128691526
 20
150.9942786491594
 30
0.0
 10
40.53975278899514
 20
150.052239737705
 30
0.0
 10
40.405922782263
 20
148.219944393341
 30
0.0
 10
40.31168534405396
 20
146.1321332498915
 30
0.0
 10
40.25307967976144
 20
144.000847858993
 30
0.0
 10
40.2193003387015
 20
142.0838821110004
 30
0.0
 10
40.19733944622951
 20
140.2122920986392
 30
0.0
 10
40.18140651341601
 20
138.1013668888534
 30
0.0
 10
40.17134728539298
 20
135.5901908197352
 30
0.0
 10
40.17045821052553
 20
133.6938255999699
 30
0.0
 10
40.16999116480685
 20
132.6976336150267
 30
0.0
  0
SPLINE
  5
E9
330
1F
100
AcDbEntity
  8
0
  6
SLD-Сплошная
 62
     7
370
    25
100
AcDbSpline
210
0.0
220
0.0
230
1.0
 70
     8
 71
     3
 72
    17
 73
    13
 74
     0
 42
0.00000001
 43
0.00000001
 40
0.0
 40
0.0
 40
0.0
 40
0.0
 40
0.1004210604963002
 40
0.2737233432883986
 40
0.4265071250138344
 40
0.5591814602241714
 40
0.6717452601917091
 40
0.7520522428149934
 40
0.8167684198864873
 40
0.8791679603372116
 40
0.9542042175257264
 40
0.9999999999999999
 40
0.9999999999999999
 40
0.9999999999999999
 40
0.9999999999999999
 10
115.0689199947752
 20
132.5688742502688
 30
0.0
 10
115.0692792338714
 20
133.3738813289889
 30
0.0
 10
115.070258432119
 20
135.5681344853394
 30
0.0
 10
115.0568959106251
 20
138.6886656622342
 30
0.0
 10
115.0262144491464
 20
141.8521815763729
 30
0.0
 10
114.9795607599585
 20
144.3891851928087
 30
0.0
 10
114.9248885346873
 20
146.3295130842367
 30
0.0
 10
114.8681429628136
 20
147.7614387609937
 30
0.0
 10
114.813134784772
 20
148.8023650934103
 30
0.0
 10
114.7441522703804
 20
149.7741336294868
 30
0.0
 10
114.6668615098363
 20
150.6408483856578
 30
0.0
 10
114.5903298869418
 20
151.144413531844
 30
0.0
 10
114.5613241235345
 20
151.3352665536148
 30
0.0
  0
SPLINE
  5
EA
330
1F
100
AcDbEntity
  8
0
  6
SLD-Сплошная
 62
     7
370
    25
100
AcDbSpline
210
0.0
220
0.0
230
1.0
 70
     8
 71
     3
 72
    15
 73
    11
 74
     0
 42
0.00000001
 43
0.00000001
 40
0.0
 40
0.0
 40
0.0
 40
0.0
 40
0.037439171428682
 40
0.1664334919521026
 40
0.2969793697128617
 40
0.429121427833942
 40
0.562908252431466
 40
0.7530704286883712
 40
0.9467178317653917
 40
1.0
 40
1.0
 40
1.0
 40
1.0
 10
105.6098179431296
 20
138.3099120117857
 30
0.0
 10
105.686535206661
 20
138.4337699171211
 30
0.0
 10
106.0275769972586
 20
138.9843724786682
 30
0.0
 10
106.585109036753
 20
139.9127846229282
 30
0.0
 10
107.2864760217612
 20
141.0950837269774
 30
0.0
 10
107.9449003061876
 20
142.2274960303598
 30
0.0
 10
108.6518873529087
 20
143.4624630408946
 30
0.0
 10
109.376246807256
 20
144.7566343832352
 30
0.0
 10
109.9389015403703
 20
145.7803790124292
 30
0.0
 10
110.200522930766
 20
146.2857529252251
 30
0.0
 10
110.2569752821908
 20
146.3948019050615
 30
0.0
  0
SPLINE
  5
EB
330
1F
100
AcDbEntity
  8
0
  6
SLD-Сплошная
 62
     7
370
    25
100
AcDbSpline
210
0.0
220
0.0
230
1.0
 70
     8
 71
     3
 72
    12
 73
     8
 74
     0
 42
0.00000001
 43
0.00000001
 40
0.0
 40
0.0
 40
0.0
 40
0.0
 40
0.2531100388865178
 40
0.53802595185095
 40
0.7349290133720426
 40
0.917590280981477
 40
1.0
 40
1.0
 40
1.0
 40
1.0
 10
114.5177367253321
 20
151.4171125271396
 30
0.0
 10
114.4395923242647
 20
151.8431683196593
 30
0.0
 10
114.2734838761325
 20
152.7488181876791
 30
0.0
 10
113.8199665726697
 20
153.8396625102327
 30
0.0
 10
113.2199658662083
 20
154.7235639504556
 30
0.0
 10
112.7021769182877
 20
155.2824673094446
 30
0.0
 10
112.298500033914
 20
155.5273268974574
 30
0.0
 10
112.1729981861309
 20
155.6034529575133
 30
0.0
  0
SPLINE
  5
EC
330
1F
100
AcDbEntity
  8
0
  6
SLD-Сплошная
 62
     7
370
    25
100
AcDbSpline
210
0.0
220
0.0
230
1.0
 70
     8
 71
     3
 72
    35
 73
    31
 74
     0
 42
0.00000001
 43
0.00000001
 40
0.0
 40
0.0
 40
0.0
 40
0.0
 40
0.0084286045738323
 40
0.0247973124264836
 40
0.040008982952774
 40
0.0542819973746514
 40
0.0687337560124185
 40
0.0985748737449934
 40
0.1295098219080465
 40
0.1614662942822814
 40
0.194371495194386
 40
0.2292244141559078
 40
0.2772451100618656
 40
0.3237829559384749
 40
0.3688463706957914
 40
0.4333708489231776
 40
0.496167198885429
 40
0.5596262427179567
 40
0.624144182407267
 40
0.6674795875174517
 40
0.7116150586637757
 40
0.7573844102606718
 40
0.7924083655024974
 40
0.8242855125025011
 40
0.8560885897105311
 40
0.8881630557311776
 40
0.9206938412982835
 40
0.9552737402152398
 40
0.9910157802972608
 40
1.0
 40
1.0
 40
1.0
 40
1.0
 10
101.3437334278653
 20
141.2508826104034
 30
0.0
 10
101.3521996565229
 20
141.253282284665
 30
0.0
 10
101.3771076606008
 20
141.2603422282019
 30
0.0
 10
101.252471484138
 20
141.4069197794708
 30
0.0
 10
101.009541057992
 20
141.7013418040834
 30
0.0
 10
100.6493255545952
 20
142.1483033700453
 30
0.0
 10
100.1346471646604
 20
142.8186643613703
 30
0.0
 10
99.38009948422031
 20
143.8223474746139
 30
0.0
 10
98.30828444456175
 20
145.2084855863831
 30
0.0
 10
97.05360351494346
 20
146.7220036207612
 30
0.0
 10
95.61708766426558
 20
148.3082453435345
 30
0.0
 10
93.8239625629512
 20
150.1062293773291
 30
0.0
 10
91.60090418197584
 20
151.877361008631
 30
0.0
 10
88.97385650086017
 20
153.4680152060477
 30
0.0
 10
85.8370289971348
 20
154.871159498646
 30
0.0
 10
82.16690899039396
 20
155.8961376057139
 30
0.0
 10
77.97062350649978
 20
156.314206801199
 30
0.0
 10
73.76343042421439
 20
156.0167282027692
 30
0.0
 10
70.08882462629367
 20
155.1002467511132
 30
0.0
 10
66.99412255732882
 20
153.8288185840352
 30
0.0
 10
64.43610445880869
 20
152.3985674873774
 30
0.0
 10
62.21645479519551
 20
150.7851091908998
 30
0.0
 10
60.39970516695777
 20
149.1097110055812
 30
0.0
 10
58.92249681127693
 20
147.5514280191537
 30
0.0
 10
57.59604677100342
 20
146.0246478249197
 30
0.0
 10
56.38043910559352
 20
144.507066686368
 30
0.0
 10
55.28866907922995
 20
143.0731512036078
 30
0.0
 10
54.50621271832551
 20
142.0012487246194
 30
0.0
 10
54.10124355503223
 20
141.4578687078844
 30
0.0
 10
54.11796023342372
 20
141.4178893784571
 30
0.0
 10
54.12131813350507
 20
141.4098586805881
 30
0.0
  0
SPLINE
  5
ED
330
1F
100
AcDbEntity
  8
0
  6
SLD-Сплошная
 62
     7
370
    25
100
AcDbSpline
210
0.0
220
0.0
230
1.0
 70
     8
 71
     3
 72
    12
 73
     8
 74
     0
 42
0.00000001
 43
0.00000001
 40
0.0
 40
0.0
 40
0.0
 40
0.0
 40
0.0399394971898664
 40
0.2117295481889506
 40
0.4049753014138571
 40
0.695468275695954
 40
1.0
 40
1.0
 40
1.0
 40
1.0
 10
43.06110842133904
 20
155.6089965938416
 30
0.0
 10
42.99930249970274
 20
155.5738778881884
 30
0.0
 10
42.67165341085106
 20
155.3877045959811
 30
0.0
 10
42.21129254409349
 20
154.9296064967585
 30
0.0
 10
41.57837910217603
 20
154.1121610256507
 30
0.0
 10
41.0444750791488
 20
152.9796736365099
 30
0.0
 10
40.83495162120567
 20
151.9657018187473
 30
0.0
 10
40.72771819025537
 20
151.4467543081773
 30
0.0
  0
ARC
  5
EE
330
1F
100
AcDbEntity
  8
0
  6
SLD-Сплошная
 62
     7
370
    25
100
AcDbCircle
 10
91.6008218946
 20
155.6137161873
 30
0.0
 40
22.01949270964591
100
AcDbArc
 50
356.4131919533
 51
359.7958555768
  0
SPLINE
  5
EF
330
1F
100
AcDbEntity
  8
0
  6
SLD-Сплошная
 62
     7
370
    25
100
AcDbSpline
210
0.0
220
0.0
230
1.0
 70
     8
 71
     3
 72
    13
 73
     9
 74
     0
 42
0.00000001
 43
0.00000001
 40
0.0
 40
0.0
 40
0.0
 40
0.0
 40
0.1328050127972935
 40
0.3101148225301066
 40
0.4826410426888202
 40
0.6550556248485122
 40
0.826927034185781
 40
1.0
 40
1.0
 40
1.0
 40
1.0
 10
114.4876769420975
 20
151.493748542797
 30
0.0
 10
114.5342098764931
 20
151.3951476046981
 30
0.0
 10
114.6428695753099
 20
151.1649031901555
 30
0.0
 10
114.5604950895986
 20
150.8032212706144
 30
0.0
 10
114.3276128210187
 20
150.4174840090362
 30
0.0
 10
113.9439924756614
 20
150.0439935651822
 30
0.0
 10
113.4394795517123
 20
149.6790520548028
 30
0.0
 10
112.9626629369219
 20
149.4524991473395
 30
0.0
 10
112.7234241737589
 20
149.3388281138829
 30
0.0
  0
LWPOLYLINE
  5
F0
330
1F
100
AcDbEntity
  8
0
  6
SLD-Сплошная
 62
     7
370
    25
100
AcDbPolyline
 90
       10
 70
   128
 43
0.0
 10
112.7234241738
 20
149.3388281139
 10
111.9620515714
 20
147.0867212668
 10
110.9692788756
 20
144.8406592736
 10
109.7458099375
 20
142.6022345363
 10
108.2925121662
 20
140.3730340426
 10
106.6104159137
 20
138.1546382402
 10
104.7007137446
 20
135.9486199166
 10
102.5647595903
 20
133.7565430842
 10
100.2040677891
 20
131.5799618709
 10
97.620312013
 20
129.4204194187
  0
LINE
  5
F1
330
1F
100
AcDbEntity
  8
0
  6
SLD-Сплошная
 62
     7
370
    25
100
AcDbLine
 10
97.620312013
 20
129.4204194187
 30
0.0
 11
93.6281226065
 21
129.4204194187
 31
0.0
  0
SPLINE
  5
F2
330
1F
100
AcDbEntity
  8
0
  6
SLD-Сплошная
 62
     7
370
    25
100
AcDbSpline
210
0.0
220
0.0
230
1.0
 70
     8
 71
     3
 72
     8
 73
     4
 74
     0
 42
0.00000001
 43
0.00000001
 40
0.0
 40
0.0
 40
0.0
 40
0.0
 40
1.0
 40
1.0
 40
1.0
 40
1.0
 10
96.09216492431774
 20
111.662611378325
 30
0.0
 10
96.61284322384459
 20
117.5671903210947
 30
0.0
 10
97.12225334754883
 20
123.4867822620522
 30
0.0
 10
97.62031201296575
 20
129.4204194186896
 30
0.0
  0
SPLINE
  5
F3
330
1F
100
AcDbEntity
  8
0
  6
SLD-Сплошная
 62
     7
370
    25
100
AcDbSpline
210
0.0
220
0.0
230
1.0
 70
     8
 71
     3
 72
    32
 73
    28
 74
     0
 42
0.00000001
 43
0.00000001
 40
0.0
 40
0.0
 40
0.0
 40
0.0
 40
0.0693853619461809
 40
0.1111105938818767
 40
0.1251756946435028
 40
0.1564965893946975
 40
0.1877724758876529
 40
0.2190205278831454
 40
0.2502579650488213
 40
0.312674812899488
 40
0.375242497598337
 40
0.4377875693779851
 40
0.5001926011611982
 40
0.562698867131208
 40
0.6252701500557748
 40
0.641808601741518
 40
0.6565361236575665
 40
0.6878275006637515
 40
0.719090369196365
 40
0.7503764138626671
 40
0.812853945017931
 40
0.8753298876831739
 40
0.9002658409604039
 40
0.9251734200113454
 40
0.950080041103026
 40
0.9750131236616657
 40
1.0
 40
1.0
 40
1.0
 40
1.0
 10
113.6203120129657
 20
123.6076900753198
 30
0.0
 10
113.6200845622404
 20
124.433489614488
 30
0.0
 10
113.619720332892
 20
125.755887806999
 30
0.0
 10
113.6177145748674
 20
127.2449357894238
 30
0.0
 10
113.6159689848795
 20
128.2825711623008
 30
0.0
 10
113.614063636864
 20
129.1883585856729
 30
0.0
 10
113.610961460578
 20
130.2785485168803
 30
0.0
 10
113.6069832376739
 20
131.349994463729
 30
0.0
 10
113.6003432406028
 20
132.7522610766314
 30
0.0
 10
113.5891990790097
 20
134.4581681910817
 30
0.0
 10
113.570166176952
 20
136.4242705653282
 30
0.0
 10
113.5443109105799
 20
138.3053577542179
 30
0.0
 10
113.5103895714236
 20
140.0961032703645
 30
0.0
 10
113.4671001269302
 20
141.7934442556901
 30
0.0
 10
113.4262779095789
 20
143.0010468047613
 30
0.0
 10
113.3954598650192
 20
143.7704040452765
 30
0.0
 10
113.3738707730321
 20
144.2745057637669
 30
0.0
 10
113.3448388813378
 20
144.8697634812555
 30
0.0
 10
113.3054085169157
 20
145.5454931130759
 30
0.0
 10
113.2469705404472
 20
146.3819005747113
 30
0.0
 10
113.1622040477197
 20
147.3052048434149
 30
0.0
 10
113.0642906119333
 20
148.0266591998083
 30
0.0
 10
112.9815904415654
 20
148.4792697409874
 30
0.0
 10
112.9229289430634
 20
148.7469247929363
 30
0.0
 10
112.8604746392901
 20
148.9798116137048
 30
0.0
 10
112.7944380502511
 20
149.1810663550638
 30
0.0
 10
112.7471124652832
 20
149.2862030958034
 30
0.0
 10
112.7234241737588
 20
149.3388281138828
 30
0.0
  0
LINE
  5
F4
330
1F
100
AcDbEntity
  8
0
  6
SLD-Сплошная
 62
     7
370
    25
100
AcDbLine
 10
113.620312013
 20
111.6626113783
 30
0.0
 11
113.620312013
 21
123.6076900753
 31
0.0
  0
LINE
  5
F5
330
1F
100
AcDbEntity
  8
0
  6
SLD-Сплошная
 62
     7
370
    25
100
AcDbLine
 10
61.6125014194
 20
129.4204194187
 30
0.0
 11
57.620312013
 21
129.4204194187
 31
0.0
  0
LWPOLYLINE
  5
F6
330
1F
100
AcDbEntity
  8
0
  6
SLD-Сплошная
 62
     7
370
    25
100
AcDbPolyline
 90
       10
 70
   128
 43
0.0
 10
57.620312013
 20
129.4204194187
 10
55.0365562368
 20
131.5799618709
 10
52.6758644357
 20
133.7565430842
 10
50.5399102813
 20
135.9486199166
 10
48.6302081122
 20
138.1546382402
 10
46.9481118597
 20
140.3730340426
 10
45.4948140885
 20
142.6022345363
 10
44.2713451504
 20
144.8406592736
 10
43.2785724545
 20
147.0867212668
 10
42.5171998522
 20
149.3388281139
  0
SPLINE
  5
F7
330
1F
100
AcDbEntity
  8
0
  6
SLD-Сплошная
 62
     7
370
    25
100
AcDbSpline
210
0.0
220
0.0
230
1.0
 70
     8
 71
     3
 72
    10
 73
     6
 74
     0
 42
0.00000001
 43
0.00000001
 40
0.0
 40
0.0
 40
0.0
 40
0.0
 40
0.3847241172922622
 40
0.7688248453819857
 40
0.9999999999999999
 40
0.9999999999999999
 40
0.9999999999999999
 40
0.9999999999999999
 10
42.51719985216059
 20
149.338828113888
 30
0.0
 10
42.2819078820956
 20
149.4523158517373
 30
0.0
 10
41.8117051982139
 20
149.6791074371436
 30
0.0
 10
41.33240214049193
 20
149.9928189579549
 30
0.0
 10
41.18782788407851
 20
150.1957169904354
 30
0.0
 10
41.13350757506026
 20
150.2719510593282
 30
0.0
  0
SPLINE
  5
F8
330
1F
100
AcDbEntity
  8
0
  6
SLD-Сплошная
 62
     7
370
    25
100
AcDbSpline
210
0.0
220
0.0
230
1.0
 70
     8
 71
     3
 72
    10
 73
     6
 74
     0
 42
0.00000001
 43
0.00000001
 40
0.0
 40
0.0
 40
0.0
 40
0.0
 40
0.188800951144497
 40
0.6714495859723635
 40
1.0
 40
1.0
 40
1.0
 40
1.0
 10
40.82974842005067
 20
150.6468325207306
 30
0.0
 10
40.78466568569029
 20
150.697481942225
 30
0.0
 10
40.62433395464087
 20
150.8776109769888
 30
0.0
 10
40.605921358186
 20
151.1558393357167
 30
0.0
 10
40.70358595788286
 20
151.377382439152
 30
0.0
 10
40.74314190252002
 20
151.4671114378008
 30
0.0
  0
ARC
  5
F9
330
1F
100
AcDbEntity
  8
0
  6
SLD-Сплошная
 62
     7
370
    25
100
AcDbCircle
 10
63.6391907453
 20
155.6137023096
 30
0.0
 40
22.0188812780626
100
AcDbArc
 50
180.2041139805
 51
183.5463516244
  0
LINE
  5
FA
330
1F
100
AcDbEntity
  8
0
  6
SLD-Сплошная
 62
     7
370
    25
100
AcDbLine
 10
41.6204491893
 20
155.6129067831
 30
0.0
 11
41.6204491893
 21
155.5352610695
 31
0.0
  0
SPLINE
  5
FB
330
1F
100
AcDbEntity
  8
0
  6
SLD-Сплошная
 62
     7
370
    25
100
AcDbSpline
210
0.0
220
0.0
230
1.0
 70
     8
 71
     3
 72
     8
 73
     4
 74
     0
 42
0.00000001
 43
0.00000001
 40
0.0
 40
0.0
 40
0.0
 40
0.0
 40
1.0
 40
1.0
 40
1.0
 40
1.0
 10
59.1484591016137
 20
111.662611378325
 30
0.0
 10
58.62778080208685
 20
117.5671903210955
 30
0.0
 10
58.11837067838262
 20
123.486782262053
 30
0.0
 10
57.62031201296575
 20
129.4204194186896
 30
0.0
  0
LINE
  5
FC
330
1F
100
AcDbEntity
  8
0
  6
SLD-Сплошная
 62
     7
370
    25
100
AcDbLine
 10
41.620312013
 20
111.6626113783
 30
0.0
 11
41.620312013
 21
123.6076900753
 31
0.0
  0
SPLINE
  5
FD
330
1F
100
AcDbEntity
  8
0
  6
SLD-Сплошная
 62
     7
370
    25
100
AcDbSpline
210
0.0
220
0.0
230
1.0
 70
     8
 71
     3
 72
    34
 73
    30
 74
     0
 42
0.00000001
 43
0.00000001
 40
0.0
 40
0.0
 40
0.0
 40
0.0
 40
0.0139471653065286
 40
0.0278739744797223
 40
0.0417851547768127
 40
0.0556854494003946
 40
0.0695796127015839
 40
0.0834724053262465
 40
0.0973685893290231
 40
0.1112729232800568
 40
0.1251901573896643
 40
0.1877625998100853
 40
0.2503482463744687
 40
0.2816630136184202
 40
0.312969399187784
 40
0.3442534169801593
 40
0.3590283213592007
 40
0.3754885848667532
 40
0.4380101114142185
 40
0.5004832191216629
 40
0.5629022316648201
 40
0.6254763669470073
 40
0.6880629758132827
 40
0.7505161849065124
 40
0.8127988013421211
 40
0.8752152467664474
 40
0.8891050429221656
 40
0.9306999610547753
 40
1.0
 40
1.0
 40
1.0
 40
1.0
 10
42.51719985217122
 20
149.3388281138878
 30
0.0
 10
42.50388527754464
 20
149.310272309242
 30
0.0
 10
42.47727556114758
 20
149.25320237765
 30
0.0
 10
42.43891945484179
 20
149.1540492575235
 30
0.0
 10
42.40171670277864
 20
149.045061887438
 30
0.0
 10
42.36575252253935
 20
148.9252653512747
 30
0.0
 10
42.3309723119376
 20
148.7949195703507
 30
0.0
 10
42.29735916234112
 20
148.6539537155339
 30
0.0
 10
42.26488646201404
 20
148.5023870238293
 30
0.0
 10
42.23353019216501
 20
148.3402091643186
 30
0.0
 10
42.16801690288102
 20
147.9661961652473
 30
0.0
 10
42.07730730967203
 20
147.2953850115363
 30
0.0
 10
41.99259241791216
 20
146.3689339865528
 30
0.0
 10
41.93421377299441
 20
145.5297859335022
 30
0.0
 10
41.89486084633625
 20
144.852469076563
 30
0.0
 10
41.86588560596979
 20
144.2554908686384
 30
0.0
 10
41.84436892599381
 20
143.7511145975831
 30
0.0
 10
41.81365226119997
 20
142.981853374131
 30
0.0
 10
41.7729782388237
 20
141.7747071277762
 30
0.0
 10
41.72981431505277
 20
140.0769628202799
 30
0.0
 10
41.69598587354348
 20
138.2851333910741
 30
0.0
 10
41.67020532060921
 20
136.4024550927287
 30
0.0
 10
41.65123546686797
 20
134.4345393862557
 30
0.0
 10
41.63793546530717
 20
132.3879876586759
 30
0.0
 10
41.62915641972124
 20
130.2672345679295
 30
0.0
 10
41.62525410833766
 20
128.6411728727277
 30
0.0
 10
41.62289817045516
 20
127.2366497091146
 30
0.0
 10
41.62090177888348
 20
125.7523192909217
 30
0.0
 10
41.62053882726125
 20
124.4324792839369
 30
0.0
 10
41.62031201296583
 20
123.6076900753409
 30
0.0
  0
LINE
  5
FE
330
1F
100
AcDbEntity
  8
0
  6
SLD-Сплошная
 62
     7
370
    25
100
AcDbLine
 10
115.620312013
 20
111.6626113783
 30
0.0
 11
121.620312013
 21
111.6626113783
 31
0.0
  0
LINE
  5
FF
330
1F
100
AcDbEntity
  8
0
  6
SLD-Сплошная
 62
     7
370
    25
100
AcDbLine
 10
121.620312013
 20
111.6626113783
 30
0.0
 11
121.620312013
 21
104.6626113783
 31
0.0
  0
LINE
  5
100
330
1F
100
AcDbEntity
  8
0
  6
SLD-Сплошная
 62
     7
370
    25
100
AcDbLine
 10
121.620312013
 20
104.6626113783
 30
0.0
 11
115.620312013
 21
104.6626113783
 31
0.0
  0
LINE
  5
101
330
1F
100
AcDbEntity
  8
0
  6
SLD-Сплошная
 62
     7
370
    25
100
AcDbLine
 10
115.620312013
 20
111.6626113783
 30
0.0
 11
96.0921649243
 21
111.6626113783
 31
0.0
  0
LINE
  5
102
330
1F
100
AcDbEntity
  8
0
  6
SLD-Сплошная
 62
     7
370
    25
100
AcDbLine
 10
59.1484591016
 20
111.6626113783
 30
0.0
 11
39.620312013
 21
111.6626113783
 31
0.0
  0
LINE
  5
103
330
1F
100
AcDbEntity
  8
0
  6
SLD-Сплошная
 62
     7
370
    25
100
AcDbLine
 10
115.620312013
 20
104.6626113783
 30
0.0
 11
39.620312013
 21
104.6626113783
 31
0.0
  0
ARC
  5
104
330
1F
100
AcDbEntity
  8
0
  6
SLD-Сплошная
 62
     7
370
    25
100
AcDbCircle
 10
77.620312013
 20
125.4204194187
 30
0.0
 40
16.50000000000002
100
AcDbArc
 50
14.0296654013
 51
165.9703345987
  0
LINE
  5
105
330
1F
100
AcDbEntity
  8
0
  6
SLD-Сплошная
 62
     7
370
    25
100
AcDbLine
 10
33.620312013
 20
104.6626113783
 30
0.0
 11
33.620312013
 21
111.6626113783
 31
0.0
  0
LINE
  5
106
330
1F
100
AcDbEntity
  8
0
  6
SLD-Сплошная
 62
     7
370
    25
100
AcDbLine
 10
33.620312013
 20
111.6626113783
 30
0.0
 11
39.620312013
 21
111.6626113783
 31
0.0
  0
LINE
  5
107
330
1F
100
AcDbEntity
  8
0
  6
SLD-Сплошная
 62
     7
370
    25
100
AcDbLine
 10
39.620312013
 20
104.6626113783
 30
0.0
 11
33.620312013
 21
104.6626113783
 31
0.0
  0
SPLINE
  5
108
330
1F
100
AcDbEntity
  8
0
  6
SLD-Сплошная
 62
     7
370
    25
100
AcDbSpline
210
0.0
220
0.0
230
1.0
 70
     8
 71
     3
 72
    11
 73
     7
 74
     0
 42
0.00000001
 43
0.00000001
 40
0.0
 40
0.0
 40
0.0
 40
0.0
 40
0.1155263808738584
 40
0.4131716347181671
 40
0.7080748910551371
 40
0.9999999999999999
 40
0.9999999999999999
 40
0.9999999999999999
 40
0.9999999999999999
 10
40.17750200012252
 20
132.697764841432
 30
0.0
 10
40.17847483466425
 20
132.3419573368614
 30
0.0
 10
40.1819541061075
 20
131.0694378725066
 30
0.0
 10
40.38262236957209
 20
128.896326066231
 30
0.0
 10
40.76605261959773
 20
126.1898761484111
 30
0.0
 10
41.33652392701186
 20
124.4655017060263
 30
0.0
 10
41.62031201296575
 20
123.6076900753409
 30
0.0
  0
SPLINE
  5
109
330
1F
100
AcDbEntity
  8
0
  6
SLD-Сплошная
 62
     7
370
    25
100
AcDbSpline
210
0.0
220
0.0
230
1.0
 70
     8
 71
     3
 72
    12
 73
     8
 74
     0
 42
0.00000001
 43
0.00000001
 40
0.0
 40
0.0
 40
0.0
 40
0.0
 40
0.2254339231748827
 40
0.4492094266536529
 40
0.672167792359235
 40
0.8952693076747211
 40
1.0
 40
1.0
 40
1.0
 40
1.0
 10
113.6203120129657
 20
123.60769007532
 30
0.0
 10
113.8453980706682
 20
124.2576649261365
 30
0.0
 10
114.2939143254727
 20
125.5528330444154
 30
0.0
 10
114.6732024973794
 20
127.5664488509178
 30
0.0
 10
114.922801554712
 20
129.5852381471814
 30
0.0
 10
115.0651136739693
 20
131.2549827901956
 30
0.0
 10
115.0527027386913
 20
132.2507094906524
 30
0.0
 10
115.0487378877286
 20
132.5688086409955
 30
0.0
  0
LINE
  5
10A
330
1F
100
AcDbEntity
  8
0
  6
SLD-Сплошная
 62
     7
370
    25
100
AcDbLine
 10
41.6204491893
 20
154.0621687051
 30
0.0
 11
41.6204491893
 21
155.5352610695
 31
0.0
  0
LINE
  5
10B
330
1F
100
AcDbEntity
  8
0
  6
SLD-Сплошная
 62
     7
370
    25
100
AcDbLine
 10
113.6201748366
 20
155.5352610695
 30
0.0
 11
113.6201748366
 21
154.0879236784
 31
0.0
  0
ARC
  5
10C
330
1F
100
AcDbEntity
  8
0
  6
SLD-Сплошная
 62
     7
370
    25
100
AcDbCircle
 10
75.1254440453
 20
155.6144761215
 30
0.0
 40
35.30513206726148
100
AcDbArc
 50
180.0025468384
 51
190.6722651072
  0
LWPOLYLINE
  5
10D
330
1F
100
AcDbEntity
  8
0
  6
SLD-Сплошная
 62
     7
370
    25
100
AcDbPolyline
 90
       42
 70
   128
 43
0.0
 10
39.820312013
 20
155.6129067831
 10
39.9312247282
 20
158.4078728143
 10
40.2633119941
 20
161.1864368735
 10
40.8146249904
 20
163.932293242
 10
41.5819283933
 20
166.6293281426
 10
42.5607193613
 20
169.2617143022
 10
43.7452539598
 20
171.8140038321
 10
45.1285808688
 20
174.2712188824
 10
46.702582176
 20
176.6189395382
 10
48.4580210157
 20
178.843388441
 10
50.3845957749
 20
180.9315116403
 10
52.4710005467
 20
182.8710551988
 10
54.7049914784
 20
184.6506371037
 10
57.0734586229
 20
186.2598140607
 10
59.5625028732
 20
187.6891427796
 10
62.1575175279
 20
188.9302353911
 10
64.8432740091
 20
189.9758086703
 10
67.6040112299
 20
190.8197267774
 10
70.4235280865
 20
191.4570372654
 10
73.2852785329
 20
191.8840001429
 10
76.1724686795
 20
192.0981098221
 10
79.0681553464
 20
192.0981098221
 10
81.955345493
 20
191.8840001429
 10
84.8170959394
 20
191.4570372654
 10
87.636612796
 20
190.8197267774
 10
90.3973500168
 20
189.9758086703
 10
93.083106498
 20
188.9302353911
 10
95.6781211527
 20
187.6891427796
 10
98.167165403
 20
186.2598140607
 10
100.5356325475
 20
184.6506371037
 10
102.7696234792
 20
182.8710551988
 10
104.8560282511
 20
180.9315116403
 10
106.7826030102
 20
178.843388441
 10
108.5380418499
 20
176.6189395382
 10
110.1120431571
 20
174.2712188824
 10
111.4953700661
 20
171.8140038321
 10
112.6799046646
 20
169.2617143022
 10
113.6586956326
 20
166.6293281426
 10
114.4259990355
 20
163.932293242
 10
114.9773120319
 20
161.1864368735
 10
115.3093992977
 20
158.4078728143
 10
115.420312013
 20
155.6129067831
  0
ARC
  5
10E
330
1F
100
AcDbEntity
  8
0
  6
SLD-Сплошная
 62
     7
370
    25
100
AcDbCircle
 10
80.1133796873
 20
155.6146899625
 30
0.0
 40
35.3069323706774
100
AcDbArc
 50
349.5803510604
 51
359.9971062722
  0
LINE
  5
10F
330
1F
100
AcDbEntity
  8
0
  6
SLD-Сплошная
 62
     7
370
    25
100
AcDbLine
 10
39.820312013
 20
155.6129067831
 30
0.0
 11
39.820312013
 21
156.5705372499
 31
0.0
  0
LWPOLYLINE
  5
110
330
1F
100
AcDbEntity
  8
0
  6
SLD-Сплошная
 62
     7
370
    25
100
AcDbPolyline
 90
       42
 70
   128
 43
0.0
 10
39.820312013
 20
156.5705372499
 10
39.9312247282
 20
159.3655032812
 10
40.2633119941
 20
162.1440673404
 10
40.8146249904
 20
164.8899237089
 10
41.5819283933
 20
167.5869586095
 10
42.5607193613
 20
170.2193447691
 10
43.7452539598
 20
172.771634299
 10
45.1285808688
 20
175.2288493493
 10
46.702582176
 20
177.576570005
 10
48.4580210157
 20
179.8010189079
 10
50.3845957749
 20
181.8891421072
 10
52.4710005467
 20
183.8286856657
 10
54.7049914784
 20
185.6082675706
 10
57.0734586229
 20
187.2174445276
 10
59.5625028732
 20
188.6467732465
 10
62.1575175279
 20
189.887865858
 10
64.8432740091
 20
190.9334391372
 10
67.6040112299
 20
191.7773572443
 10
70.4235280865
 20
192.4146677323
 10
73.2852785329
 20
192.8416306098
 10
76.1724686795
 20
193.055740289
 10
79.0681553464
 20
193.055740289
 10
81.955345493
 20
192.8416306098
 10
84.8170959394
 20
192.4146677323
 10
87.636612796
 20
191.7773572443
 10
90.3973500168
 20
190.9334391372
 10
93.083106498
 20
189.887865858
 10
95.6781211527
 20
188.6467732465
 10
98.167165403
 20
187.2174445276
 10
100.5356325475
 20
185.6082675706
 10
102.7696234792
 20
183.8286856657
 10
104.8560282511
 20
181.8891421072
 10
106.7826030102
 20
179.8010189079
 10
108.5380418499
 20
177.576570005
 10
110.1120431571
 20
175.2288493493
 10
111.4953700661
 20
172.771634299
 10
112.6799046646
 20
170.2193447691
 10
113.6586956326
 20
167.5869586095
 10
114.4259990355
 20
164.8899237089
 10
114.9773120319
 20
162.1440673404
 10
115.3093992977
 20
159.3655032812
 10
115.420312013
 20
156.5705372499
  0
LINE
  5
111
330
1F
100
AcDbEntity
  8
0
  6
SLD-Сплошная
 62
     7
370
    25
100
AcDbLine
 10
115.420312013
 20
155.6129067831
 30
0.0
 11
115.420312013
 21
156.5705372499
 31
0.0
  0
LWPOLYLINE
  5
112
330
1F
100
AcDbEntity
  8
0
  6
SLD-Сплошная
 62
     7
370
    25
100
AcDbPolyline
 90
       10
 70
   128
 43
0.0
 10
97.620312013
 20
129.4204194187
 10
100.2042086517
 20
131.5800854032
 10
102.5650157998
 20
133.7567920027
 10
104.7010595129
 20
135.9489958104
 10
106.6108252165
 20
138.1551424311
 10
108.29295878
 20
140.3736675835
 10
109.7462674764
 20
142.6029982091
 10
110.9697208286
 20
144.8415535877
 10
111.9624513398
 20
147.0877464584
 10
112.7237551084
 20
149.3399841447
  0
SPLINE
  5
113
330
1F
100
AcDbEntity
  8
0
  6
SLD-Сплошная
 62
     7
370
    25
100
AcDbSpline
210
0.0
220
0.0
230
1.0
 70
     8
 71
     3
 72
    49
 73
    45
 74
     0
 42
0.00000001
 43
0.00000001
 40
0.0
 40
0.0
 40
0.0
 40
0.0
 40
0.0069446150297618
 40
0.0138776640484879
 40
0.0208024311862884
 40
0.0277222123650323
 40
0.0346403106328277
 40
0.0415600314477366
 40
0.0484846779442683
 40
0.055417546216478
 40
0.0623619206512224
 40
0.0936185531313223
 40
0.1248353146845612
 40
0.1560202563894449
 40
0.1871294206653847
 40
0.2184919593006124
 40
0.2497537147646763
 40
0.2809329330093347
 40
0.3120058442848893
 40
0.3433405003109493
 40
0.3745803582288467
 40
0.4058689085679729
 40
0.4370945337102187
 40
0.4682781956918733
 40
0.4994443757880374
 40
0.5307552315577745
 40
0.5620990320859718
 40
0.5932965384298976
 40
0.6245724057645734
 40
0.6557492158972578
 40
0.6870360638009497
 40
0.718307384207313
 40
0.7497024818505706
 40
0.7808421591448527
 40
0.8120979866694539
 40
0.8433259897655727
 40
0.8746467834392733
 40
0.9059246643851031
 40
0.9372590014877151
 40
0.9498239930920903
 40
0.9623609777436876
 40
0.9748895559417556
 40
0.9874293676050224
 40
1.0
 40
1.0
 40
1.0
 40
1.0
 10
97.62031201296625
 20
129.42041941869
 30
0.0
 10
97.63246433731952
 20
129.5769130273532
 30
0.0
 10
97.65674874675912
 20
129.889639610102
 30
0.0
 10
97.6802346189892
 20
130.3592746900572
 30
0.0
 10
97.69418958809474
 20
130.8287006668518
 30
0.0
 10
97.6976923199288
 20
131.2979946461451
 30
0.0
 10
97.69098935394135
 20
131.7671354092703
 30
0.0
 10
97.67401434464645
 20
132.2361289239336
 30
0.0
 10
97.64678636832836
 20
132.7049705941152
 30
0.0
 10
97.60929564035946
 20
133.1736709398519
 30
0.0
 10
97.50590074806858
 20
134.1885349550726
 30
0.0
 10
97.25359087547828
 20
135.7400196106055
 30
0.0
 10
96.70704142438753
 20
137.7884956021184
 30
0.0
 10
95.9630301266878
 20
139.7704591402369
 30
0.0
 10
95.02245222525951
 20
141.6707099191416
 30
0.0
 10
93.89569822284774
 20
143.4690727401576
 30
0.0
 10
92.58907345221049
 20
145.1433793960999
 30
0.0
 10
91.12304521728525
 20
146.6710675369475
 30
0.0
 10
89.50421363617772
 20
148.038408619118
 30
0.0
 10
87.75050840205026
 20
149.2305945159558
 30
0.0
 10
85.87473749346982
 20
150.2301744487162
 30
0.0
 10
83.90546729319483
 20
151.0236268486024
 30
0.0
 10
81.86265940417749
 20
151.5974419600483
 30
0.0
 10
79.77265896369994
 20
151.9476015666713
 30
0.0
 10
77.65492087525487
 20
152.0664626871455
 30
0.0
 10
75.53309580668567
 20
151.9551467664835
 30
0.0
 10
73.43578946019305
 20
151.6104454102031
 30
0.0
 10
71.38875448139049
 20
151.0417601555067
 30
0.0
 10
69.41936373329611
 20
150.2549212527065
 30
0.0
 10
67.54307094960565
 20
149.2623210957835
 30
0.0
 10
65.78395476786342
 20
148.0746129091373
 30
0.0
 10
64.15477362044784
 20
146.7065933431444
 30
0.0
 10
62.68081302715142
 20
145.1772701088779
 30
0.0
 10
61.37105772362212
 20
143.505826063473
 30
0.0
 10
60.24142568664688
 20
141.712241916208
 30
0.0
 10
59.29496113436795
 20
139.8111346021078
 30
0.0
 10
58.54470702480166
 20
137.823855632693
 30
0.0
 10
57.99334557880406
 20
135.7701871590095
 30
0.0
 10
57.71790883582455
 20
134.0904110750944
 30
0.0
 10
57.59819628513237
 20
132.8202728040619
 30
0.0
 10
57.55169566774924
 20
131.9707804754386
 30
0.0
 10
57.53952446518214
 20
131.1207622060551
 30
0.0
 10
57.55866118505821
 20
130.2699432837869
 30
0.0
 10
57.5997449281741
 20
129.7038256592774
 30
0.0
 10
57.62031201296644
 20
129.42041941869
 30
0.0
  0
LWPOLYLINE
  5
114
330
1F
100
AcDbEntity
  8
0
  6
SLD-Сплошная
 62
     7
370
    25
100
AcDbPolyline
 90
       10
 70
   128
 43
0.0
 10
57.620312013
 20
129.4204194187
 10
55.0364964949
 20
131.5800142627
 10
52.6757557732
 20
133.7566486541
 10
50.5397636352
 20
135.9487793386
 10
48.6300345195
 20
138.1548520748
 10
46.9479224421
 20
140.3733027363
 10
45.4946200363
 20
142.6025584208
 10
44.2711577072
 20
144.841038565
 10
43.2784029011
 20
147.0871560653
 10
42.5170594905
 20
149.3393184032
  0
SPLINE
  5
115
330
1F
100
AcDbEntity
  8
0
  6
SLD-Сплошная
 62
     7
370
    25
100
AcDbSpline
210
0.0
220
0.0
230
1.0
 70
     8
 71
     3
 72
    61
 73
    57
 74
     0
 42
0.00000001
 43
0.00000001
 40
0.0
 40
0.0
 40
0.0
 40
0.0
 40
0.0231751052137649
 40
0.0462432675357586
 40
0.0523159644832713
 40
0.0583742747314599
 40
0.0644211543048457
 40
0.0704625705465417
 40
0.0753118678212926
 40
0.0825394830627621
 40
0.0944923734677786
 40
0.1063829218435512
 40
0.1182117305400539
 40
0.1299793934601389
 40
0.1416864941487978
 40
0.153333603945788
 40
0.1649212802060267
 40
0.2205542590892006
 40
0.2757486188781586
 40
0.3297138163362269
 40
0.3503175651762461
 40
0.3709242462351869
 40
0.3915680125509393
 40
0.4121789253589244
 40
0.4328885642450694
 40
0.4535237124291462
 40
0.4741882158686909
 40
0.4948820210219206
 40
0.515490416966454
 40
0.5361970060424311
 40
0.556748864287224
 40
0.5774165745008294
 40
0.5983831071150928
 40
0.6190801518942598
 40
0.6394991293344408
 40
0.6596320831743426
 40
0.6797278878860558
 40
0.7001532431093775
 40
0.7209001156006412
 40
0.7419597452419254
 40
0.7555834410929165
 40
0.7694629699345358
 40
0.7831872751512995
 40
0.7975332219341462
 40
0.8112335246735708
 40
0.8244751842594296
 40
0.8451188944672344
 40
0.8658025950089627
 40
0.8864874669719975
 40
0.9071122266359132
 40
0.927845039754385
 40
0.9381140281040091
 40
0.9484959648397563
 40
0.9693982849860345
 40
0.9903174528600657
 40
1.0
 40
1.0
 40
1.0
 40
1.0
 10
42.51705949054065
 20
149.3393184031615
 30
0.0
 10
42.60600205078446
 20
149.4862239285365
 30
0.0
 10
42.78347674057476
 20
149.7793570750632
 30
0.0
 10
43.05254425801179
 20
149.7286416214124
 30
0.0
 10
43.24016660821187
 20
149.5812697452241
 30
0.0
 10
43.33913321149799
 20
149.4769482323061
 30
0.0
 10
43.43929531472039
 20
149.3454553015277
 30
0.0
 10
43.53393825855117
 20
149.1986395090105
 30
0.0
 10
43.6356313773853
 20
149.0131054900195
 30
0.0
 10
43.77267675961073
 20
148.7492991424735
 30
0.0
 10
43.95655477084343
 20
148.4026632680926
 30
0.0
 10
44.17660318193449
 20
147.9901962357486
 30
0.0
 10
44.40439656286283
 20
147.5672968455521
 30
0.0
 10
44.63969873105437
 20
147.1337108404668
 30
0.0
 10
44.88233519411043
 20
146.6898087039134
 30
0.0
 10
45.13213440963035
 20
146.2357861378076
 30
0.0
 10
45.71477575229929
 20
145.1836418302248
 30
0.0
 10
46.70315916573563
 20
143.4252893865376
 30
0.0
 10
48.22046663244134
 20
140.7947876226493
 30
0.0
 10
49.56537060971411
 20
138.4910874402559
 30
0.0
 10
50.63614986034397
 20
136.7521285112758
 30
0.0
 10
51.35888362781243
 20
135.465888574513
 30
0.0
 10
52.13881010870596
 20
134.7437215540838
 30
0.0
 10
52.94213124412063
 20
134.7209968483545
 30
0.0
 10
53.78710823823241
 20
135.3586617637372
 30
0.0
 10
54.73439393710811
 20
136.594202288609
 30
0.0
 10
55.86073814493267
 20
138.3243000483021
 30
0.0
 10
57.23544429389632
 20
140.4036561475768
 30
0.0
 10
58.89383157558782
 20
142.6766153590389
 30
0.0
 10
60.83430488878233
 20
144.9723823356533
 30
0.0
 10
63.00798569103198
 20
147.2098523387516
 30
0.0
 10
65.48492320649899
 20
149.1451442865457
 30
0.0
 10
68.23216129932023
 20
150.7009279725962
 30
0.0
 10
71.16785068961065
 20
151.8409700855367
 30
0.0
 10
74.19858874220155
 20
152.5414649784229
 30
0.0
 10
77.26893849761798
 20
152.8066715105417
 30
0.0
 10
80.34672410670473
 20
152.6402715011307
 30
0.0
 10
83.3999182537242
 20
152.0368831569574
 30
0.0
 10
86.37877194004297
 20
150.988750065884
 30
0.0
 10
88.86477536105279
 20
149.6802699362036
 30
0.0
 10
90.88084112421635
 20
148.2862017938333
 30
0.0
 10
92.46581003594467
 20
146.9403091822117
 30
0.0
 10
93.94791278735315
 20
145.4411929063706
 30
0.0
 10
95.31999839680996
 20
143.9088511679023
 30
0.0
 10
96.55351533562539
 20
142.3757194131893
 30
0.0
 10
97.83502929546015
 20
140.6416724016106
 30
0.0
 10
99.09992187033056
 20
138.7615914886079
 30
0.0
 10
100.2760942266708
 20
136.9355378619618
 30
0.0
 10
101.2560286628192
 20
135.5842689580453
 30
0.0
 10
102.1179338136884
 20
134.8032910358757
 30
0.0
 10
102.7932081702043
 20
134.7042313893653
 30
0.0
 10
103.3205378170406
 20
134.9613697968907
 30
0.0
 10
103.8417694328722
 20
135.442507165313
 30
0.0
 10
104.4559916288571
 20
136.5019422389765
 30
0.0
 10
105.0551926938801
 20
137.4720503910822
 30
0.0
 10
105.3685664696515
 20
138.0055169559871
 30
0.0
 10
105.4677196169487
 20
138.1743086449468
 30
0.0
  0
SPLINE
  5
116
330
1F
100
AcDbEntity
  8
0
  6
SLD-Сплошная
 62
     7
370
    25
100
AcDbSpline
210
0.0
220
0.0
230
1.0
 70
     8
 71
     3
 72
    12
 73
     8
 74
     0
 42
0.00000001
 43
0.00000001
 40
0.0
 40
0.0
 40
0.0
 40
0.0
 40
0.0440912492691886
 40
0.4571224538260567
 40
0.6387060839973117
 40
0.8190559571797311
 40
1.0
 40
1.0
 40
1.0
 40
1.0
 10
110.1140464925217
 20
146.2502790384958
 30
0.0
 10
110.1665948001385
 20
146.3441191413305
 30
0.0
 10
110.711397039139
 20
147.3170200862135
 30
0.0
 10
111.2960785076255
 20
148.4536791716345
 30
0.0
 10
111.9577885743802
 20
149.636563148845
 30
0.0
 10
112.3997908605528
 20
149.832505576908
 30
0.0
 10
112.6156486953959
 20
149.5043378526629
 30
0.0
 10
112.7237551084323
 20
149.3399841447317
 30
0.0
  0
ARC
  5
117
330
1F
100
AcDbEntity
  8
0
  6
SLD-Сплошная
 62
     7
370
    25
100
AcDbCircle
 10
77.620312013
 20
125.4204194187
 30
0.0
 40
16.5
100
AcDbArc
 50
14.0296654013
 51
90.0
  0
ARC
  5
118
330
1F
100
AcDbEntity
  8
0
  6
SLD-Сплошная
 62
     7
370
    25
100
AcDbCircle
 10
77.620312013
 20
125.4204194187
 30
0.0
 40
16.50000000000001
100
AcDbArc
 50
90.0
 51
165.9703345987
  0
SPLINE
  5
119
330
1F
100
AcDbEntity
  8
0
  6
SLD-Сплошная
 62
     7
370
    25
100
AcDbSpline
210
0.0
220
0.0
230
1.0
 70
     8
 71
     3
 72
    23
 73
    19
 74
     0
 42
0.00000001
 43
0.00000001
 40
0.0
 40
0.0
 40
0.0
 40
0.0
 40
0.0057025302683054
 40
0.0755411811480037
 40
0.1449657525647319
 40
0.2146676933426371
 40
0.3548390520272776
 40
0.4949228530262266
 40
0.6328902239617639
 40
0.6936794533507402
 40
0.7527469811736358
 40
0.8101013374488328
 40
0.8431714363788693
 40
0.877865387001326
 40
0.9122272905442325
 40
0.946684021631191
 40
0.9736051616154399
 40
1.0
 40
1.0
 40
1.0
 40
1.0
 10
112.1753018229051
 20
155.608407908104
 30
0.0
 10
112.1603664013111
 20
155.6264657200825
 30
0.0
 10
111.9625174930066
 20
155.8656768038685
 30
0.0
 10
111.5287642394235
 20
155.8491648308393
 30
0.0
 10
110.9390419988221
 20
155.5288819903913
 30
0.0
 10
110.2363144964816
 20
154.2751697139589
 30
0.0
 10
109.2529044685149
 20
152.5647191550798
 30
0.0
 10
107.920248949784
 20
150.212224665833
 30
0.0
 10
106.7198898823394
 20
148.0829530803511
 30
0.0
 10
105.7413872835265
 20
146.3415005260902
 30
0.0
 10
105.0421439489683
 20
145.0932136774308
 30
0.0
 10
104.4289296843215
 20
144.0024860007433
 30
0.0
 10
103.9031441357619
 20
143.0551705168942
 30
0.0
 10
103.4575221895835
 20
142.2907247063631
 30
0.0
 10
103.0235839337939
 20
141.4043929858483
 30
0.0
 10
102.5091879793245
 20
140.9274868274477
 30
0.0
 10
101.9403529463966
 20
140.8954792113881
 30
0.0
 10
101.5346326554631
 20
141.1250539308889
 30
0.0
 10
101.3337750169809
 20
141.2387081824623
 30
0.0
  0
SPLINE
  5
11A
330
1F
100
AcDbEntity
  8
0
  6
SLD-Сплошная
 62
     7
370
    25
100
AcDbSpline
210
0.0
220
0.0
230
1.0
 70
     8
 71
     3
 72
    28
 73
    24
 74
     0
 42
0.00000001
 43
0.00000001
 40
0.0
 40
0.0
 40
0.0
 40
0.0
 40
0.0173950759337579
 40
0.0440542730580493
 40
0.070736350211216
 40
0.0801899012964363
 40
0.0896785567793438
 40
0.0982473169183025
 40
0.0994656488728426
 40
0.1034736588552487
 40
0.1110707710562549
 40
0.1245881265419053
 40
0.1939472739650208
 40
0.2660263751962411
 40
0.3408410573826346
 40
0.4469141342649488
 40
0.5570847484433824
 40
0.6641550051832839
 40
0.7733301801083619
 40
0.8452243512663442
 40
0.9164174464267398
 40
0.9880989477491955
 40
1.0
 40
1.0
 40
1.0
 40
1.0
 10
54.1186715681434
 20
141.4143582315577
 30
0.0
 10
53.97553313821776
 20
141.3023849314997
 30
0.0
 10
53.61302483408284
 20
141.0188045461798
 30
0.0
 10
53.11410106148007
 20
140.8858471610244
 30
0.0
 10
52.71966970467183
 20
140.9804536282094
 30
0.0
 10
52.46673568942897
 20
141.1774900347669
 30
0.0
 10
52.32485119431629
 20
141.3352209977332
 30
0.0
 10
52.2324603430713
 20
141.4694978901626
 30
0.0
 10
52.17028218071872
 20
141.5780531710326
 30
0.0
 10
52.11277014416498
 20
141.6794503564643
 30
0.0
 10
52.00096743647705
 20
141.8789541548348
 30
0.0
 10
51.60061111816296
 20
142.5915679058504
 30
0.0
 10
50.93312070892876
 20
143.7831037160471
 30
0.0
 10
50.04241066478177
 20
145.3730232084011
 30
0.0
 10
49.04891505364553
 20
147.1437069033283
 30
0.0
 10
47.97391355480486
 20
149.0553672852774
 30
0.0
 10
46.86964806488216
 20
151.0057907931615
 30
0.0
 10
45.85034183947354
 20
152.8105213284148
 30
0.0
 10
45.02992732004114
 20
154.2125954999704
 30
0.0
 10
44.39316630206006
 20
155.4157949500192
 30
0.0
 10
43.78964838838396
 20
155.8416109553371
 30
0.0
 10
43.32300308593091
 20
155.8852343846049
 30
0.0
 10
43.10061339451144
 20
155.6270593829925
 30
0.0
 10
43.06894803823223
 20
155.5902986709458
 30
0.0
  0
SPLINE
  5
11B
330
1F
100
AcDbEntity
  8
0
  6
SLD-Сплошная
 62
     7
370
    25
100
AcDbSpline
210
0.0
220
0.0
230
1.0
 70
     8
 71
     3
 72
     9
 73
     5
 74
     0
 42
0.00000001
 43
0.00000001
 40
0.0
 40
0.0
 40
0.0
 40
0.0
 40
0.1582000217867315
 40
1.0
 40
1.0
 40
1.0
 40
1.0
 10
40.80551871551491
 20
150.6775772157359
 30
0.0
 10
40.77060211511615
 20
150.7168558449493
 30
0.0
 10
40.54989038572185
 20
150.9651404454804
 30
0.0
 10
40.67220306127872
 20
151.2214940879478
 30
0.0
 10
40.77516586889769
 20
151.4372925785918
 30
0.0
  0
SPLINE
  5
11C
330
1F
100
AcDbEntity
  8
0
  6
SLD-Сплошная
 62
     7
370
    25
100
AcDbSpline
210
0.0
220
0.0
230
1.0
 70
     8
 71
     3
 72
     9
 73
     5
 74
     0
 42
0.00000001
 43
0.00000001
 40
0.0
 40
0.0
 40
0.0
 40
0.0
 40
0.8448877081275824
 40
0.9999999999999999
 40
0.9999999999999999
 40
0.9999999999999999
 40
0.9999999999999999
 10
114.4687341829548
 20
151.408308003979
 30
0.0
 10
114.5671300336222
 20
151.2026905589521
 30
0.0
 10
114.6835903036922
 20
150.9593239635467
 30
0.0
 10
114.4748962057273
 20
150.7235770718786
 30
0.0
 10
114.4425251858918
 20
150.6870098312102
 30
0.0
  0
LWPOLYLINE
  5
11D
330
1F
100
AcDbEntity
  8
0
  6
SLD-Сплошная
 62
     7
370
    25
100
AcDbPolyline
 90
       41
 70
   128
 43
0.0
 10
113.620312013
 20
155.6129067831
 10
113.5093360274
 20
158.3411907904
 10
113.1770922744
 20
161.0526540196
 10
112.6256291473
 20
163.7305793982
 10
111.8583465996
 20
166.3584566257
 10
110.8799751834
 20
168.9200839652
 10
109.6965468837
 20
171.3996681322
 10
108.3153579297
 20
173.781921666
 10
106.7449238105
 20
176.0521571811
 10
104.9949267746
 20
178.1963779208
 10
103.0761561357
 20
180.2013640512
 10
101.0004417529
 20
182.054754166
 10
98.7805810955
 20
183.7451214989
 10
96.4302603427
 20
185.2620443732
 10
93.9639700036
 20
186.5961704549
 10
91.3969155781
 20
187.739274413
 10
88.7449238105
 20
188.6843086317
 10
86.0243451118
 20
189.4254466605
 10
83.2519527544
 20
189.9581191373
 10
80.4448394592
 20
190.2790419589
 10
77.620312013
 20
190.3862365295
 10
74.7957845668
 20
190.2790419589
 10
71.9886712715
 20
189.9581191373
 10
69.2162789142
 20
189.4254466605
 10
66.4957002155
 20
188.6843086317
 10
63.8437084478
 20
187.739274413
 10
61.2766540223
 20
186.5961704549
 10
58.8103636832
 20
185.2620443732
 10
56.4600429304
 20
183.7451214989
 10
54.2401822731
 20
182.054754166
 10
52.1644678903
 20
180.2013640512
 10
50.2456972514
 20
178.1963779208
 10
48.4957002155
 20
176.0521571811
 10
46.9252660962
 20
173.781921666
 10
45.5440771422
 20
171.3996681322
 10
44.3606488426
 20
168.9200839652
 10
43.3822774263
 20
166.3584566257
 10
42.6149948786
 20
163.7305793982
 10
42.0635317515
 20
161.0526540196
 10
41.7312879986
 20
158.3411907904
 10
41.620312013
 20
155.6129067831
  0
ARC
  5
11E
330
1F
100
AcDbEntity
  8
0
  6
SLD-Сплошная
 62
     7
370
    25
100
AcDbCircle
 10
77.620312013
 20
142.123835416
 30
0.0
 40
34.28313211385358
100
AcDbArc
 50
81.6138252134
 51
98.3861747866
  0
SPLINE
  5
11F
330
1F
100
AcDbEntity
  8
0
  6
SLD-Сплошная
 62
     7
370
    25
100
AcDbSpline
210
0.0
220
0.0
230
1.0
 70
    24
 71
     3
 72
    10
 73
     6
 74
     0
 42
0.00000001
 43
0.00000001
 40
0.0
 40
0.0
 40
0.0
 40
0.0
 40
0.5
 40
0.5
 40
1.0
 40
1.0
 40
1.0
 40
1.0
 10
72.62031201296628
 20
176.0403969683713
 30
0.0
 10
72.62031201296628
 20
175.5212043203545
 30
0.0
 10
72.62031201296628
 20
174.9941634970526
 30
0.0
 10
72.62031201296628
 20
173.9243475624867
 30
0.0
 10
72.62031201296628
 20
173.3807265980786
 30
0.0
 10
72.62031201296628
 20
172.8302636159043
 30
0.0
  0
ARC
  5
120
330
1F
100
AcDbEntity
  8
0
  6
SLD-Сплошная
 62
     7
370
    25
100
AcDbCircle
 10
77.6194942923
 20
140.143176526
 30
0.0
 40
33.067166281418
100
AcDbArc
 50
89.9985831279
 51
98.6954698623
  0
ARC
  5
121
330
1F
100
AcDbEntity
  8
0
  6
SLD-Сплошная
 62
     7
370
    25
100
AcDbCircle
 10
77.6211297336
 20
140.143176526
 30
0.0
 40
33.06716628142519
100
AcDbArc
 50
81.3045301377
 51
90.0014168721
  0
SPLINE
  5
122
330
1F
100
AcDbEntity
  8
0
  6
SLD-Сплошная
 62
     7
370
    25
100
AcDbSpline
210
0.0
220
0.0
230
1.0
 70
    24
 71
     3
 72
    14
 73
    10
 74
     0
 42
0.00000001
 43
0.00000001
 40
0.0
 40
0.0
 40
0.0
 40
0.0
 40
0.250000000000002
 40
0.3750000000000018
 40
0.4375000000000017
 40
0.4375000000000017
 40
0.5000000000000016
 40
0.5000000000000016
 40
1.0
 40
1.0
 40
1.0
 40
1.0
 10
82.62031201296628
 20
172.8302636159043
 30
0.0
 10
82.62031201296628
 20
173.1037597431608
 30
0.0
 10
82.62031201296628
 20
173.5112530276517
 30
0.0
 10
82.6203120129663
 20
173.9818437651288
 30
0.0
 10
82.62031201296628
 20
174.1824925469808
 30
0.0
 10
82.62031201296628
 20
174.3160287949771
 30
0.0
 10
82.62031201296628
 20
174.3822318385972
 30
0.0
 10
82.62031201296628
 20
174.9879524084451
 30
0.0
 10
82.62031201296628
 20
175.5182281834986
 30
0.0
 10
82.62031201296628
 20
176.0403969683713
 30
0.0
  0
SPLINE
  5
123
330
1F
100
AcDbEntity
  8
0
  6
SLD-Сплошная
 62
     7
370
    25
100
AcDbSpline
210
0.0
220
0.0
230
1.0
 70
     8
 71
     3
 72
    38
 73
    34
 74
     0
 42
0.00000001
 43
0.00000001
 40
0.0
 40
0.0
 40
0.0
 40
0.0
 40
0.0188257975899486
 40
0.0377817256770519
 40
0.05689118268642
 40
0.0761770082468057
 40
0.095661421779207
 40
0.115365970915397
 40
0.1353114898462777
 40
0.1555180674136463
 40
0.1760050245169403
 40
0.1967909002146414
 40
0.217893445759906
 40
0.2393296257195223
 40
0.2611156252796363
 40
0.283266862834372
 40
0.3057980069770939
 40
0.3287229970611524
 40
0.3520550665606283
 40
0.3758067685354859
 40
0.3999900025846399
 40
0.4246160427504723
 40
0.4496955659162197
 40
0.4752386803111441
 40
0.5012549538060492
 40
0.5594898646019918
 40
0.6204223986627831
 40
0.6841258950879929
 40
0.7506645310395681
 40
0.8088347244058943
 40
0.8697643343629712
 40
0.9334787057974182
 40
1.0
 40
1.0
 40
1.0
 40
1.0
 10
100.6203120129663
 20
171.3049098505528
 30
0.0
 10
100.6210617642276
 20
171.2783193872201
 30
0.0
 10
100.6225664492933
 20
171.2249546579722
 30
0.0
 10
100.6346619405386
 20
171.1364618214539
 30
0.0
 10
100.6539417784808
 20
171.0416104598314
 30
0.0
 10
100.681109032071
 20
170.9398714426659
 30
0.0
 10
100.7159396924754
 20
170.8314901240605
 30
0.0
 10
100.7584459403893
 20
170.7165013608025
 30
0.0
 10
100.8085603101391
 20
170.5949967963782
 30
0.0
 10
100.86622165603
 20
170.4670519867476
 30
0.0
 10
100.9313518211426
 20
170.332746077996
 30
0.0
 10
101.0038621066136
 20
170.192156271475
 30
0.0
 10
101.0836516294984
 20
170.04535917333
 30
0.0
 10
101.1706079163691
 20
169.8924302679912
 30
0.0
 10
101.2646069053891
 20
169.7334439091045
 30
0.0
 10
101.3655131308514
 20
169.5684731724477
 30
0.0
 10
101.4731798783199
 20
169.3975897504599
 30
0.0
 10
101.5874493703119
 20
169.2208638365013
 30
0.0
 10
101.7081529611451
 20
169.0383640214146
 30
0.0
 10
101.8351113676293
 20
168.8501571629083
 30
0.0
 10
101.9681348499844
 20
168.6563083653307
 30
0.0
 10
102.1070236676424
 20
168.4568805457832
 30
0.0
 10
102.2515675662721
 20
168.2519355954028
 30
0.0
 10
102.4015490656497
 20
168.0415294314145
 30
0.0
 10
102.6198259386314
 20
167.7379919260568
 30
0.0
 10
102.9146604016914
 20
167.3325585660855
 30
0.0
 10
103.2927602578365
 20
166.8172104383067
 30
0.0
 10
103.6916005675557
 20
166.2751589851139
 30
0.0
 10
104.0849402882072
 20
165.7390318854789
 30
0.0
 10
104.4699575554691
 20
165.2100291298847
 30
0.0
 10
104.8450428303897
 20
164.6891775273094
 30
0.0
 10
105.23211270921
 20
164.1452219367898
 30
0.0
 10
105.4890662358641
 20
163.7759054542751
 30
0.0
 10
105.6203120129663
 20
163.5872673399226
 30
0.0
  0
ARC
  5
124
330
1F
100
AcDbEntity
  8
0
  6
SLD-Сплошная
 62
     7
370
    25
100
AcDbCircle
 10
79.2283928488
 20
145.3153442858
 30
0.0
 40
32.09979079781952
100
AcDbArc
 50
19.8986409469
 51
34.6960258477
  0
SPLINE
  5
125
330
1F
100
AcDbEntity
  8
0
  6
SLD-Сплошная
 62
     7
370
    25
100
AcDbSpline
210
0.0
220
0.0
230
1.0
 70
     8
 71
     3
 72
    13
 73
     9
 74
     0
 42
0.00000001
 43
0.00000001
 40
0.0
 40
0.0
 40
0.0
 40
0.0
 40
0.5000000000000018
 40
0.5000000000000018
 40
0.6250000000000014
 40
0.6250000000000014
 40
0.7500000000000011
 40
1.0
 40
1.0
 40
1.0
 40
1.0
 10
110.5135684086445
 20
158.8289311469003
 30
0.0
 10
110.3567804025211
 20
158.395697282605
 30
0.0
 10
110.1861361711155
 20
157.9622911462439
 30
0.0
 10
109.9552995298116
 20
157.420315511508
 30
0.0
 10
109.9087951813678
 20
157.3131583723886
 30
0.0
 10
109.8138966976666
 20
157.0984158165209
 30
0.0
 10
109.6690384751115
 20
156.7764458568249
 30
0.0
 10
109.5166479322799
 20
156.4549075669698
 30
0.0
 10
109.4117041738811
 20
156.2407406958808
 30
0.0
  0
ARC
  5
126
330
1F
100
AcDbEntity
  8
0
  6
SLD-Сплошная
 62
     7
370
    25
100
AcDbCircle
 10
79.232461507
 20
147.8773774944
 30
0.0
 40
33.14278468075279
100
AcDbArc
 50
19.2952125698
 51
37.2324958908
  0
SPLINE
  5
127
330
1F
100
AcDbEntity
  8
0
  6
SLD-Сплошная
 62
     7
370
    25
100
AcDbSpline
210
0.0
220
0.0
230
1.0
 70
     8
 71
     3
 72
    30
 73
    26
 74
     0
 42
0.00000001
 43
0.00000001
 40
0.0
 40
0.0
 40
0.0
 40
0.0
 40
0.0381218873876721
 40
0.0753397261076522
 40
0.1116610561045859
 40
0.1470939896498123
 40
0.1816472647471252
 40
0.215330304011358
 40
0.2481532795366472
 40
0.3150401521766339
 40
0.3788874091474511
 40
0.439827552766543
 40
0.4980129493650688
 40
0.5452258474624005
 40
0.5909349211178192
 40
0.6352714664297073
 40
0.6783793224872134
 40
0.7204149433977796
 40
0.7615470204719378
 40
0.8019555625270831
 40
0.8418303784508656
 40
0.8813689644914373
 40
0.9207738727424787
 40
0.9602497130674827
 40
1.0
 40
1.0
 40
1.0
 40
1.0
 10
105.6203120129663
 20
167.9304451417572
 30
0.0
 10
105.5470961087458
 20
168.0259369424409
 30
0.0
 10
105.4024005926344
 20
168.2146559855427
 30
0.0
 10
105.1833454469516
 20
168.4875599907916
 30
0.0
 10
104.9666166073427
 20
168.7486791618033
 30
0.0
 10
104.7522695999946
 20
168.9976135688857
 30
0.0
 10
104.5407714458915
 20
169.2345360126713
 30
0.0
 10
104.3324571899843
 20
169.4594821442738
 30
0.0
 10
104.0551006650485
 20
169.7480258382725
 30
0.0
 10
103.7111604962678
 20
170.0853336940677
 30
0.0
 10
103.3054703100615
 20
170.4510301969425
 30
0.0
 10
102.919328727035
 20
170.7688630848115
 30
0.0
 10
102.5730776375491
 20
171.0263880219243
 30
0.0
 10
102.266156116707
 20
171.231071941389
 30
0.0
 10
101.9965007868851
 20
171.3909243466569
 30
0.0
 10
101.7467917858544
 20
171.5189467957621
 30
0.0
 10
101.5185860381474
 20
171.6155012956635
 30
0.0
 10
101.3133418874241
 20
171.6809821639059
 30
0.0
 10
101.1324077776332
 20
171.7158086738325
 30
0.0
 10
100.9769896560523
 20
171.7204452277079
 30
0.0
 10
100.8482229815349
 20
171.6953301936717
 30
0.0
 10
100.7468528694327
 20
171.6411372945065
 30
0.0
 10
100.6743615658479
 20
171.5578092807373
 30
0.0
 10
100.6287234946988
 20
171.4481468663668
 30
0.0
 10
100.6231223078863
 20
171.3527656589223
 30
0.0
 10
100.6203120129663
 20
171.3049098505528
 30
0.0
  0
ARC
  5
128
330
1F
100
AcDbEntity
  8
0
  6
SLD-Сплошная
 62
     7
370
    25
100
AcDbCircle
 10
76.0081625189
 20
147.8773774944
 30
0.0
 40
33.14278468075446
100
AcDbArc
 50
142.7675041092
 51
160.7047874302
  0
SPLINE
  5
129
330
1F
100
AcDbEntity
  8
0
  6
SLD-Сплошная
 62
     7
370
    25
100
AcDbSpline
210
0.0
220
0.0
230
1.0
 70
     8
 71
     3
 72
    13
 73
     9
 74
     0
 42
0.00000001
 43
0.00000001
 40
0.0
 40
0.0
 40
0.0
 40
0.0
 40
0.4999999999999987
 40
0.4999999999999987
 40
0.6249999999999989
 40
0.6249999999999989
 40
0.7499999999999991
 40
1.0
 40
1.0
 40
1.0
 40
1.0
 10
44.72705561728809
 20
158.8289311469003
 30
0.0
 10
44.88384362341173
 20
158.3956972826041
 30
0.0
 10
45.05448785481778
 20
157.9622911462422
 30
0.0
 10
45.28532449612225
 20
157.420315511505
 30
0.0
 10
45.3318288445663
 20
157.3131583723854
 30
0.0
 10
45.42672732826766
 20
157.0984158165172
 30
0.0
 10
45.57158555082292
 20
156.7764458568204
 30
0.0
 10
45.72397609365509
 20
156.4549075669648
 30
0.0
 10
45.82891985205149
 20
156.2407406958751
 30
0.0
  0
ARC
  5
12A
330
1F
100
AcDbEntity
  8
0
  6
SLD-Сплошная
 62
     7
370
    25
100
AcDbCircle
 10
76.0122311771
 20
145.3153442858
 30
0.0
 40
32.09979079782089
100
AcDbArc
 50
145.3039741523
 51
160.1013590531
  0
SPLINE
  5
12B
330
1F
100
AcDbEntity
  8
0
  6
SLD-Сплошная
 62
     7
370
    25
100
AcDbSpline
210
0.0
220
0.0
230
1.0
 70
     8
 71
     3
 72
    31
 73
    27
 74
     0
 42
0.00000001
 43
0.00000001
 40
0.0
 40
0.0
 40
0.0
 40
0.0
 40
0.0190231734916142
 40
0.0376104422892286
 40
0.0557634849391542
 40
0.0734841033914985
 40
0.0907742348067791
 40
0.1076359647260765
 40
0.1240715417837855
 40
0.1889580503376518
 40
0.2485839807623429
 40
0.3421949201024141
 40
0.4246003028476797
 40
0.4987103978571324
 40
0.5589239757930103
 40
0.6187587807446414
 40
0.6812595188361541
 40
0.7491129654543366
 40
0.778178979110452
 40
0.8086822052851209
 40
0.8407145087120707
 40
0.8743552298248052
 40
0.9036044639708714
 40
0.9342760700729374
 40
0.9663993996675124
 40
1.0
 40
1.0
 40
1.0
 40
1.0
 10
49.62031201296629
 20
163.5872673399226
 30
0.0
 10
49.69187197462517
 20
163.6903972658178
 30
0.0
 10
49.83335214402895
 20
163.8942939567605
 30
0.0
 10
50.04634781407787
 20
164.1972313460511
 30
0.0
 10
50.25634059820152
 20
164.4934461740907
 30
0.0
 10
50.46322812063679
 20
164.7829111271425
 30
0.0
 10
50.66662051425523
 20
165.0655298525704
 30
0.0
 10
50.86624427497963
 20
165.3412389093466
 30
0.0
 10
51.25558910562447
 20
165.876192307023
 30
0.0
 10
51.8206682867292
 20
166.6440486277077
 30
0.0
 10
52.68386610857792
 20
167.8196271545803
 30
0.0
 10
53.56729402203619
 20
169.0591147966092
 30
0.0
 10
54.30773055192606
 20
170.2601057709709
 30
0.0
 10
54.64903323382932
 20
171.1066072665714
 30
0.0
 10
54.61413909150362
 20
171.5976919062132
 30
0.0
 10
54.2761188915082
 20
171.7681977893879
 30
0.0
 10
53.66424659035986
 20
171.6272631269404
 30
0.0
 10
53.01478125102811
 20
171.2699703403858
 30
0.0
 10
52.46671545050553
 20
170.8810822028519
 30
0.0
 10
52.06450497250881
 20
170.5614878971944
 30
0.0
 10
51.63946076559607
 20
170.1883286262305
 30
0.0
 10
51.22179562580105
 20
169.7866195509635
 30
0.0
 10
50.81550198066873
 20
169.3638850815909
 30
0.0
 10
50.4229345245103
 20
168.9258529359352
 30
0.0
 10
50.02022526592979
 20
168.4475122762563
 30
0.0
 10
49.75559909003957
 20
168.1053643292527
 30
0.0
 10
49.62031201296629
 20
167.9304451417572
 30
0.0
  0
ARC
  5
12C
330
1F
100
AcDbEntity
  8
0
  6
SLD-Сплошная
 62
     7
370
    25
100
AcDbCircle
 10
63.635294673
 20
155.613542498
 30
0.0
 40
22.01498266916323
100
AcDbArc
 50
180.0016544997
 51
183.5354497342
  0
ARC
  5
12D
330
1F
100
AcDbEntity
  8
0
  6
SLD-Сплошная
 62
     7
370
    25
100
AcDbCircle
 10
91.6047571942
 20
155.6135537907
 30
0.0
 40
22.01555482825377
100
AcDbArc
 50
356.4253116053
 51
359.9983161538
  0
LINE
  5
12E
330
1F
100
AcDbEntity
  8
0
  6
SLD-Сплошная
 62
     7
370
    25
100
AcDbLine
 10
108.3453542072
 20
158.8289311469
 30
0.0
 11
110.5135684086
 21
158.8289311469
 31
0.0
  0
LWPOLYLINE
  5
12F
330
1F
100
AcDbEntity
  8
0
  6
SLD-Сплошная
 62
     7
370
    25
100
AcDbPolyline
 90
        3
 70
   128
 43
0.0
 10
108.9909335934
 20
157.2908160657
 10
109.001052405
 20
157.300380378
 10
109.120312013
 20
157.5348359214
  0
LWPOLYLINE
  5
130
330
1F
100
AcDbEntity
  8
0
  6
SLD-Сплошная
 62
     7
370
    25
100
AcDbPolyline
 90
        3
 70
   128
 43
0.0
 10
109.120312013
 20
157.5348359214
 10
109.001052405
 20
157.7692914648
 10
108.7392218499
 20
157.9458941368
  0
LINE
  5
131
330
1F
100
AcDbEntity
  8
0
  6
SLD-Сплошная
 62
     7
370
    25
100
AcDbLine
 10
44.7270556173
 20
158.8289311469
 30
0.0
 11
46.8952698187
 21
158.8289311469
 31
0.0
  0
LWPOLYLINE
  5
132
330
1F
100
AcDbEntity
  8
0
  6
SLD-Сплошная
 62
     7
370
    25
100
AcDbPolyline
 90
        3
 70
   128
 43
0.0
 10
46.120312013
 20
157.5348359214
 10
46.239571621
 20
157.300380378
 10
46.2496904325
 20
157.2908160657
  0
LWPOLYLINE
  5
133
330
1F
100
AcDbEntity
  8
0
  6
SLD-Сплошная
 62
     7
370
    25
100
AcDbPolyline
 90
        3
 70
   128
 43
0.0
 10
46.501402176
 20
157.9458941368
 10
46.239571621
 20
157.7692914648
 10
46.120312013
 20
157.5348359214
  0
ARC
  5
134
330
1F
100
AcDbEntity
  8
0
  6
SLD-Сплошная
 62
     7
370
    25
100
AcDbCircle
 10
77.620312013
 20
125.4204194187
 30
0.0
 40
14.00000000000001
100
AcDbArc
 50
270.0
 51
90.0
  0
ARC
  5
135
330
1F
100
AcDbEntity
  8
0
  6
SLD-Сплошная
 62
     7
370
    25
100
AcDbCircle
 10
77.620312013
 20
125.4204194187
 30
0.0
 40
1.0
100
AcDbArc
 50
270.0
 51
90.0
  0
ARC
  5
136
330
1F
100
AcDbEntity
  8
0
  6
SLD-Сплошная
 62
     7
370
    25
100
AcDbCircle
 10
77.620312013
 20
125.4204194187
 30
0.0
 40
1.0
100
AcDbArc
 50
90.0
 51
270.0
  0
ARC
  5
137
330
1F
100
AcDbEntity
  8
0
  6
SLD-Сплошная
 62
     7
370
    25
100
AcDbCircle
 10
77.620312013
 20
125.4204194187
 30
0.0
 40
14.00000000000001
100
AcDbArc
 50
90.0
 51
270.0
  0
LINE
  5
138
330
1F
100
AcDbEntity
  8
0
  6
SLD-Сплошная
 62
     7
370
    25
100
AcDbLine
 10
374.838932201
 20
162.8339581414
 30
0.0
 11
374.838932201
 21
163.4525356592
 31
0.0
  0
SPLINE
  5
139
330
1F
100
AcDbEntity
  8
0
  6
SLD-Сплошная
 62
     7
370
    25
100
AcDbSpline
210
0.0
220
0.0
230
1.0
 70
     8
 71
     3
 72
     9
 73
     5
 74
     0
 42
0.00000001
 43
0.00000001
 40
0.0
 40
0.0
 40
0.0
 40
0.0
 40
0.4599122300757061
 40
1.0
 40
1.0
 40
1.0
 40
1.0
 10
346.8736217434138
 20
156.6045465417074
 30
0.0
 10
346.8189223226153
 20
156.4247851229609
 30
0.0
 10
346.699987845075
 20
156.0339248522589
 30
0.0
 10
346.703172981213
 20
155.6252376277109
 30
0.0
 10
346.7048932342866
 20
155.4045106560083
 30
0.0
  0
SPLINE
  5
13A
330
1F
100
AcDbEntity
  8
0
  6
SLD-Сплошная
 62
     7
370
    25
100
AcDbSpline
210
0.0
220
0.0
230
1.0
 70
     8
 71
     3
 72
    20
 73
    16
 74
     0
 42
0.00000001
 43
0.00000001
 40
0.0
 40
0.0
 40
0.0
 40
0.0
 40
0.0154201165218929
 40
0.0993158991783036
 40
0.1830578262727062
 40
0.2668119667607019
 40
0.3507413666679345
 40
0.4349610607272346
 40
0.5195204517008638
 40
0.6044021640556372
 40
0.6895263953222243
 40
0.774739351738614
 40
0.8598911525443369
 40
0.9448340672700629
 40
1.0
 40
1.0
 40
1.0
 40
1.0
 10
353.672971167658
 20
155.6041298260479
 30
0.0
 10
353.6760716269744
 20
155.6533849403883
 30
0.0
 10
353.6960406657577
 20
155.970620932925
 30
0.0
 10
353.5453052484898
 20
156.5510838437118
 30
0.0
 10
353.2190667719297
 20
157.2887521445531
 30
0.0
 10
352.7111912339563
 20
157.9281217602359
 30
0.0
 10
352.0707686030505
 20
158.4353800180974
 30
0.0
 10
351.3255763390227
 20
158.7835583527303
 30
0.0
 10
350.5164889088683
 20
158.9530234870334
 30
0.0
 10
349.6865350197237
 20
158.9329817534693
 30
0.0
 10
348.882045583551
 20
158.7225995247506
 30
0.0
 10
348.1476967827617
 20
158.3323855387941
 30
0.0
 10
347.5295753328685
 20
157.7825819201913
 30
0.0
 10
347.105187423787
 20
157.1862959791248
 30
0.0
 10
346.9390400054847
 20
156.7688931629134
 30
0.0
 10
346.8736217434138
 20
156.6045465417074
 30
0.0
  0
LINE
  5
13B
330
1F
100
AcDbEntity
  8
0
  6
SLD-Сплошная
 62
     7
370
    25
100
AcDbLine
 10
346.688932201
 20
155.504320241
 30
0.0
 11
346.688932201
 21
146.1868346173
 31
0.0
  0
LINE
  5
13C
330
1F
100
AcDbEntity
  8
0
  6
SLD-Сплошная
 62
     7
370
    25
100
AcDbLine
 10
353.688932201
 20
146.1868346173
 30
0.0
 11
353.688932201
 21
155.504320241
 31
0.0
  0
SPLINE
  5
13D
330
1F
100
AcDbEntity
  8
0
  6
SLD-Сплошная
 62
     7
370
    25
100
AcDbSpline
210
0.0
220
0.0
230
1.0
 70
     8
 71
     3
 72
     9
 73
     5
 74
     0
 42
0.00000001
 43
0.00000001
 40
0.0
 40
0.0
 40
0.0
 40
0.0
 40
0.6263727044309298
 40
1.0
 40
1.0
 40
1.0
 40
1.0
 10
358.6461766168658
 20
166.3044914845385
 30
0.0
 10
358.5697348715908
 20
166.1062453071972
 30
0.0
 10
358.4476961161755
 20
165.789746558227
 30
0.0
 10
358.4589064654501
 20
165.4530983744452
 30
0.0
 10
358.463094957932
 20
165.3273174239806
 30
0.0
  0
SPLINE
  5
13E
330
1F
100
AcDbEntity
  8
0
  6
SLD-Сплошная
 62
     7
370
    25
100
AcDbSpline
210
0.0
220
0.0
230
1.0
 70
     8
 71
     3
 72
    18
 73
    14
 74
     0
 42
0.00000001
 43
0.00000001
 40
0.0
 40
0.0
 40
0.0
 40
0.0
 40
0.0463511113724733
 40
0.147437806339061
 40
0.2480633739842641
 40
0.3486183024665275
 40
0.449502490161404
 40
0.5510150818579448
 40
0.6532804502430203
 40
0.7561968753980061
 40
0.8594363728429013
 40
0.9625928461277807
 40
1.0
 40
1.0
 40
1.0
 40
1.0
 10
363.4147694440127
 20
165.3099245248396
 30
0.0
 10
363.4204842131803
 20
165.4148056257724
 30
0.0
 10
363.4386622677045
 20
165.748420915462
 30
0.0
 10
363.2634921673241
 20
166.2962376543401
 30
0.0
 10
362.9139234478372
 20
166.8878485197862
 30
0.0
 10
362.4056942721236
 20
167.3594809505835
 30
0.0
 10
361.7892455080482
 20
167.6776054331288
 30
0.0
 10
361.1046368210617
 20
167.8179881264229
 30
0.0
 10
360.4031051376541
 20
167.767091205075
 30
0.0
 10
359.7380116482682
 20
167.5251230826763
 30
0.0
 10
359.1663907464422
 20
167.107554612197
 30
0.0
 10
358.8195609244992
 20
166.6673749156359
 30
0.0
 10
358.6826197534141
 20
166.3807648832741
 30
0.0
 10
358.6461766168658
 20
166.3044914845385
 30
0.0
  0
SPLINE
  5
13F
330
1F
100
AcDbEntity
  8
0
  6
SLD-Сплошная
 62
     7
370
    25
100
AcDbSpline
210
0.0
220
0.0
230
1.0
 70
     8
 71
     3
 72
    19
 73
    15
 74
     0
 42
0.00000001
 43
0.00000001
 40
0.0
 40
0.0
 40
0.0
 40
0.0
 40
0.0397604103460533
 40
0.131731345580328
 40
0.2233274413657641
 40
0.3148438685319941
 40
0.4066462658935671
 40
0.4990122164737155
 40
0.5920623477260732
 40
0.685714251806048
 40
0.7796737403302224
 40
0.8735735258200354
 40
0.9670528066367976
 40
0.9999999999999999
 40
0.9999999999999999
 40
0.9999999999999999
 40
0.9999999999999999
 10
341.918583234105
 20
165.300314004369
 30
0.0
 10
341.9235595908159
 20
165.3991168134133
 30
0.0
 10
341.9400468996719
 20
165.7264632082126
 30
0.0
 10
341.7750571603697
 20
166.2701270013432
 30
0.0
 10
341.4316137354651
 20
166.8656535133494
 30
0.0
 10
340.9289677702412
 20
167.3429447973755
 30
0.0
 10
340.3162061303805
 20
167.6679122057947
 30
0.0
 10
339.633467382651
 20
167.8159331349072
 30
0.0
 10
338.9314420404273
 20
167.7730161728897
 30
0.0
 10
338.264291466159
 20
167.5385906598356
 30
0.0
 10
337.6858350383964
 20
167.1280629308605
 30
0.0
 10
337.2473188864678
 20
166.5735873530386
 30
0.0
 10
337.0334126362021
 20
166.0603738026252
 30
0.0
 10
336.9786917990097
 20
165.7514441458337
 30
0.0
 10
336.9644313522506
 20
165.6709359674323
 30
0.0
  0
LINE
  5
140
330
1F
100
AcDbEntity
  8
0
  6
SLD-Сплошная
 62
     7
370
    25
100
AcDbLine
 10
358.438932201
 20
165.3186209744
 30
0.0
 11
358.438932201
 21
157.3469943853
 31
0.0
  0
LINE
  5
141
330
1F
100
AcDbEntity
  8
0
  6
SLD-Сплошная
 62
     7
370
    25
100
AcDbLine
 10
336.938932201
 20
165.3186209744
 30
0.0
 11
336.938932201
 21
157.3469943853
 31
0.0
  0
LINE
  5
142
330
1F
100
AcDbEntity
  8
0
  6
SLD-Сплошная
 62
     7
370
    25
100
AcDbLine
 10
363.438932201
 20
157.3469943853
 30
0.0
 11
363.438932201
 21
165.3186209744
 31
0.0
  0
LINE
  5
143
330
1F
100
AcDbEntity
  8
0
  6
SLD-Сплошная
 62
     7
370
    25
100
AcDbLine
 10
341.938932201
 20
157.3469943853
 30
0.0
 11
341.938932201
 21
165.3186209744
 31
0.0
  0
SPLINE
  5
144
330
1F
100
AcDbEntity
  8
0
  6
SLD-Сплошная
 62
     7
370
    25
100
AcDbSpline
210
0.0
220
0.0
230
1.0
 70
     8
 71
     3
 72
     9
 73
     5
 74
     0
 42
0.00000001
 43
0.00000001
 40
0.0
 40
0.0
 40
0.0
 40
0.0
 40
0.9003937438258183
 40
1.0
 40
1.0
 40
1.0
 40
1.0
 10
347.7666476005165
 20
176.3141499091555
 30
0.0
 10
347.7153650272957
 20
176.1056242812919
 30
0.0
 10
347.6584093081201
 20
175.8740304599292
 30
0.0
 10
347.6954039484656
 20
175.6434716417603
 30
0.0
 10
347.699088846089
 20
175.6205065410545
 30
0.0
  0
SPLINE
  5
145
330
1F
100
AcDbEntity
  8
0
  6
SLD-Сплошная
 62
     7
370
    25
100
AcDbSpline
210
0.0
220
0.0
230
1.0
 70
     8
 71
     3
 72
    18
 73
    14
 74
     0
 42
0.00000001
 43
0.00000001
 40
0.0
 40
0.0
 40
0.0
 40
0.0
 40
0.087091072273216
 40
0.1835497724499417
 40
0.2797732438746221
 40
0.3761554804517448
 40
0.473034457996507
 40
0.5706068296877382
 40
0.6688772781360419
 40
0.7676022769529078
 40
0.8664198785530995
 40
0.9649311796173458
 40
0.9999999999999999
 40
0.9999999999999999
 40
0.9999999999999999
 40
0.9999999999999999
 10
352.6787755558556
 20
175.7841406729805
 30
0.0
 10
352.6602532434709
 20
175.989981263228
 30
0.0
 10
352.6212163349254
 20
176.4238029227245
 30
0.0
 10
352.331518663813
 20
177.0320685846482
 30
0.0
 10
351.8881404593013
 20
177.5595511456168
 30
0.0
 10
351.312409772939
 20
177.9464632576965
 30
0.0
 10
350.6511474029206
 20
178.1648205580784
 30
0.0
 10
349.9502351811936
 20
178.1961815707492
 30
0.0
 10
349.2631936893271
 20
178.0344657004586
 30
0.0
 10
348.6441957369296
 20
177.6887759097488
 30
0.0
 10
348.1475921832142
 20
177.1847084486295
 30
0.0
 10
347.8780864544814
 20
176.6962759927014
 30
0.0
 10
347.7898201689948
 20
176.3936091150184
 30
0.0
 10
347.7666476005165
 20
176.3141499091555
 30
0.0
  0
LINE
  5
146
330
1F
100
AcDbEntity
  8
0
  6
SLD-Сплошная
 62
     7
370
    25
100
AcDbLine
 10
347.688932201
 20
175.702323607
 30
0.0
 11
347.688932201
 21
167.7306970179
 31
0.0
  0
LINE
  5
147
330
1F
100
AcDbEntity
  8
0
  6
SLD-Сплошная
 62
     7
370
    25
100
AcDbLine
 10
352.688932201
 20
167.7306970179
 30
0.0
 11
352.688932201
 21
175.702323607
 31
0.0
  0
LINE
  5
148
330
1F
100
AcDbEntity
  8
0
  6
SLD-Сплошная
 62
     7
370
    25
100
AcDbLine
 10
374.838932201
 20
156.9872359126
 30
0.0
 11
374.838932201
 21
157.6058134304
 31
0.0
  0
SPLINE
  5
149
330
1F
100
AcDbEntity
  8
0
  6
SLD-Сплошная
 62
     7
370
    25
100
AcDbSpline
210
0.0
220
0.0
230
1.0
 70
     8
 71
     3
 72
    15
 73
    11
 74
     0
 42
0.00000001
 43
0.00000001
 40
0.0
 40
0.0
 40
0.0
 40
0.0
 40
0.1563151775603142
 40
0.2975637934526509
 40
0.4195059847277737
 40
0.5242702096517357
 40
0.6403876242527702
 40
0.7777118740988879
 40
0.9373422168400762
 40
1.0
 40
1.0
 40
1.0
 40
1.0
 10
387.6392530491313
 20
132.6976336150267
 30
0.0
 10
387.6387868180507
 20
133.6938302350607
 30
0.0
 10
387.6378992939401
 20
135.5902042782509
 30
0.0
 10
387.6278297667911
 20
138.1013217478759
 30
0.0
 10
387.6119286112544
 20
140.2124277625499
 30
0.0
 10
387.5898649489305
 20
142.0834330397325
 30
0.0
 10
387.5565226606203
 20
144.0028855103684
 30
0.0
 10
387.4958412505474
 20
146.1223604183488
 30
0.0
 10
387.4244656528821
 20
147.9065102223601
 30
0.0
 10
387.3502147238158
 20
148.8271720654847
 30
0.0
 10
387.3292851370733
 20
149.0866849382316
 30
0.0
  0
SPLINE
  5
14A
330
1F
100
AcDbEntity
  8
0
  6
SLD-Сплошная
 62
     7
370
    25
100
AcDbSpline
210
0.0
220
0.0
230
1.0
 70
     8
 71
     3
 72
    16
 73
    12
 74
     0
 42
0.00000001
 43
0.00000001
 40
0.0
 40
0.0
 40
0.0
 40
0.0
 40
0.035488823387011
 40
0.1121350452080998
 40
0.207246145437748
 40
0.3200556336619819
 40
0.4503834223024167
 40
0.5981741886431435
 40
0.7636076490052089
 40
0.9471769547605692
 40
0.9999999999999999
 40
0.9999999999999999
 40
0.9999999999999999
 40
0.9999999999999999
 10
313.0298827660142
 20
149.2412261120228
 30
0.0
 10
313.0193560385115
 20
149.0972378199266
 30
0.0
 10
312.9860944380483
 20
148.6422739157259
 30
0.0
 10
312.9417193880479
 20
147.7602499487281
 30
0.0
 10
312.8879403997335
 20
146.4262834270065
 30
0.0
 10
312.8390001149813
 20
144.733102619535
 30
0.0
 10
312.7964341391101
 20
142.6608148146554
 30
0.0
 10
312.7645304213876
 20
140.156991319735
 30
0.0
 10
312.7450661987656
 20
137.1557965005383
 30
0.0
 10
312.7380878868601
 20
134.6186276486038
 30
0.0
 10
312.7392746270262
 20
133.003898524651
 30
0.0
 10
312.7395398100122
 20
132.6430792798445
 30
0.0
  0
LINE
  5
14B
330
1F
100
AcDbEntity
  8
0
  6
SLD-Сплошная
 62
     7
370
    25
100
AcDbLine
 10
365.1201395877
 20
159.6372574041
 30
0.0
 11
364.8413924285
 21
159.9918466563
 31
0.0
  0
LINE
  5
14C
330
1F
100
AcDbEntity
  8
0
  6
SLD-Сплошная
 62
     7
370
    25
100
AcDbLine
 10
343.6201395877
 20
159.6372574041
 30
0.0
 11
343.3413924285
 21
159.9918466563
 31
0.0
  0
LINE
  5
14D
330
1F
100
AcDbEntity
  8
0
  6
SLD-Сплошная
 62
     7
370
    25
100
AcDbLine
 10
335.5364719734
 20
159.9918466563
 30
0.0
 11
335.2577248143
 21
159.6372574041
 31
0.0
  0
LINE
  5
14E
330
1F
100
AcDbEntity
  8
0
  6
SLD-Сплошная
 62
     7
370
    25
100
AcDbLine
 10
357.0364719734
 20
159.9918466563
 30
0.0
 11
356.7577248143
 21
159.6372574041
 31
0.0
  0
LINE
  5
14F
330
1F
100
AcDbEntity
  8
0
  6
SLD-Сплошная
 62
     7
370
    25
100
AcDbLine
 10
354.3701395877
 20
170.0209600367
 30
0.0
 11
354.0913924285
 21
170.3755492889
 31
0.0
  0
LINE
  5
150
330
1F
100
AcDbEntity
  8
0
  6
SLD-Сплошная
 62
     7
370
    25
100
AcDbLine
 10
346.2864719734
 20
170.3755492889
 30
0.0
 11
346.0077248143
 21
170.0209600367
 31
0.0
  0
LINE
  5
151
330
1F
100
AcDbEntity
  8
0
  6
SLD-Сплошная
 62
     7
370
    25
100
AcDbLine
 10
353.188932201
 20
137.8647755319
 30
0.0
 11
353.188932201
 21
141.0482497866
 31
0.0
  0
ARC
  5
152
330
1F
100
AcDbEntity
  8
0
  6
SLD-Сплошная
 62
     7
370
    25
100
AcDbCircle
 10
350.188932201
 20
137.944050332
 30
0.0
 40
3.001047232873246
100
AcDbArc
 50
181.5136848982
 51
358.4863151018
  0
LINE
  5
153
330
1F
100
AcDbEntity
  8
0
  6
SLD-Сплошная
 62
     7
370
    25
100
AcDbLine
 10
347.188932201
 20
137.8647755319
 30
0.0
 11
347.188932201
 21
141.0482497866
 31
0.0
  0
ARC
  5
154
330
1F
100
AcDbEntity
  8
0
  6
SLD-Сплошная
 62
     7
370
    25
100
AcDbCircle
 10
350.188932201
 20
141.1275245867
 30
0.0
 40
3.001047232873245
100
AcDbArc
 50
181.5136848982
 51
358.4863151018
  0
LWPOLYLINE
  5
155
330
1F
100
AcDbEntity
  8
0
  6
SLD-Сплошная
 62
     7
370
    25
100
AcDbPolyline
 90
       32
 70
   128
 43
0.0
 10
371.938932201
 20
166.0174323962
 10
371.8273399847
 20
163.8919985797
 10
371.4937084232
 20
161.7883745904
 10
370.9414610277
 20
159.728146457
 10
370.1762646037
 20
157.732454908
 10
369.2059711021
 20
155.8217784395
 10
368.0405370472
 20
154.0157231775
 10
366.6919213695
 20
152.332821693
 10
365.1739626909
 20
150.7903428325
 10
363.5022373214
 20
149.4041145165
 10
361.6938994256
 20
148.1883613234
 10
359.7675049974
 20
147.155558526
 10
357.7428214503
 20
146.3163040788
 10
355.6406247776
 20
145.679209868
 10
353.4824863617
 20
145.2508133423
 10
351.2905516232
 20
145.0355104299
 10
349.0873127787
 20
145.0355104299
 10
346.8953780402
 20
145.2508133423
 10
344.7372396243
 20
145.679209868
 10
342.6350429516
 20
146.3163040788
 10
340.6103594046
 20
147.155558526
 10
338.6839649764
 20
148.1883613234
 10
336.8756270806
 20
149.4041145165
 10
335.2039017111
 20
150.7903428325
 10
333.6859430324
 20
152.332821693
 10
332.3373273547
 20
154.0157231775
 10
331.1718932998
 20
155.8217784395
 10
330.2015997982
 20
157.732454908
 10
329.4364033743
 20
159.728146457
 10
328.8841559787
 20
161.7883745904
 10
328.5505244172
 20
163.8919985797
 10
328.438932201
 20
166.0174323962
  0
LWPOLYLINE
  5
156
330
1F
100
AcDbEntity
  8
0
  6
SLD-Сплошная
 62
     7
370
    25
100
AcDbPolyline
 90
       32
 70
   128
 43
0.0
 10
328.438932201
 20
166.0174323962
 10
328.5505244172
 20
168.1428662127
 10
328.8841559787
 20
170.246490202
 10
329.4364033743
 20
172.3067183354
 10
330.2015997982
 20
174.3024098843
 10
331.1718932998
 20
176.2130863529
 10
332.3373273547
 20
178.0191416149
 10
333.6859430324
 20
179.7020430994
 10
335.2039017111
 20
181.2445219599
 10
336.8756270806
 20
182.6307502758
 10
338.6839649764
 20
183.846503469
 10
340.6103594046
 20
184.8793062663
 10
342.6350429516
 20
185.7185607136
 10
344.7372396243
 20
186.3556549244
 10
346.8953780402
 20
186.7840514501
 10
349.0873127787
 20
186.9993543625
 10
351.2905516232
 20
186.9993543625
 10
353.4824863617
 20
186.7840514501
 10
355.6406247776
 20
186.3556549244
 10
357.7428214503
 20
185.7185607136
 10
359.7675049974
 20
184.8793062663
 10
361.6938994256
 20
183.846503469
 10
363.5022373214
 20
182.6307502758
 10
365.1739626909
 20
181.2445219599
 10
366.6919213695
 20
179.7020430994
 10
368.0405370472
 20
178.0191416149
 10
369.2059711021
 20
176.2130863529
 10
370.1762646037
 20
174.3024098843
 10
370.9414610277
 20
172.3067183354
 10
371.4937084232
 20
170.246490202
 10
371.8273399847
 20
168.1428662127
 10
371.938932201
 20
166.0174323962
  0
LWPOLYLINE
  5
157
330
1F
100
AcDbEntity
  8
0
  6
SLD-Сплошная
 62
     7
370
    25
100
AcDbPolyline
 90
       34
 70
   128
 43
0.0
 10
325.538932201
 20
166.0174323962
 10
325.6505493095
 20
168.280723595
 10
325.9843898134
 20
170.5235180782
 10
326.5374304014
 20
172.7255047517
 10
327.3046626521
 20
174.8667420832
 10
328.2791383916
 20
176.9278386958
 10
329.4520326167
 20
178.8901289794
 10
330.8127234156
 20
180.7358421294
 10
332.3488881617
 20
182.4482630817
 10
334.0466151092
 20
184.0118838869
 10
335.89052938
 20
185.4125441528
 10
337.863932201
 20
186.6375592833
 10
339.9489521305
 20
187.6758353516
 10
342.1267069052
 20
188.5179695689
 10
344.3774744407
 20
189.1563354372
 10
346.6808714375
 20
189.5851518164
 10
349.0160379759
 20
189.800535279
 10
351.361826426
 20
189.800535279
 10
353.6969929644
 20
189.5851518164
 10
356.0003899613
 20
189.1563354372
 10
358.2511574967
 20
188.5179695689
 10
360.4289122715
 20
187.6758353516
 10
362.513932201
 20
186.6375592833
 10
364.4873350219
 20
185.4125441528
 10
366.3312492927
 20
184.0118838869
 10
368.0289762403
 20
182.4482630817
 10
369.5651409864
 20
180.7358421294
 10
370.9258317853
 20
178.8901289794
 10
372.0987260103
 20
176.9278386958
 10
373.0732017498
 20
174.8667420832
 10
373.8404340006
 20
172.7255047517
 10
374.3934745885
 20
170.5235180782
 10
374.7273150924
 20
168.280723595
 10
374.838932201
 20
166.0174323962
  0
ARC
  5
158
330
1F
100
AcDbEntity
  8
0
  6
SLD-Сплошная
 62
     7
370
    25
100
AcDbCircle
 10
350.695280466
 20
166.4019617337
 30
0.0
 40
24.14671368757945
100
AcDbArc
 50
275.9275521674
 51
359.0875429373
  0
LINE
  5
159
330
1F
100
AcDbEntity
  8
0
  6
SLD-Сплошная
 62
     7
370
    25
100
AcDbLine
 10
353.188932201
 20
141.0482497866
 30
0.0
 11
353.188932201
 21
142.3843539649
 31
0.0
  0
LINE
  5
15A
330
1F
100
AcDbEntity
  8
0
  6
SLD-Сплошная
 62
     7
370
    25
100
AcDbLine
 10
347.188932201
 20
142.3843539649
 30
0.0
 11
347.188932201
 21
141.0482497866
 31
0.0
  0
ARC
  5
15B
330
1F
100
AcDbEntity
  8
0
  6
SLD-Сплошная
 62
     7
370
    25
100
AcDbCircle
 10
349.6262427616
 20
166.3503482112
 30
0.0
 40
24.08961110069644
100
AcDbArc
 50
180.7918466713
 51
264.193058224
  0
ARC
  5
15C
330
1F
100
AcDbEntity
  8
0
  6
SLD-Сплошная
 62
     7
370
    25
100
AcDbCircle
 10
349.6262427616
 20
163.1668739565
 30
0.0
 40
24.0896111006961
100
AcDbArc
 50
180.7918466713
 51
264.193058224
  0
LINE
  5
15D
330
1F
100
AcDbEntity
  8
0
  6
SLD-Сплошная
 62
     7
370
    25
100
AcDbLine
 10
325.538932201
 20
166.0174323962
 30
0.0
 11
325.538932201
 21
162.8339581414
 31
0.0
  0
ARC
  5
15E
330
1F
100
AcDbEntity
  8
0
  6
SLD-Сплошная
 62
     7
370
    25
100
AcDbCircle
 10
350.7383922037
 20
163.178993296
 30
0.0
 40
24.10300971695786
100
AcDbArc
 50
275.8353135594
 51
359.1797815453
  0
LINE
  5
15F
330
1F
100
AcDbEntity
  8
0
  6
SLD-Сплошная
 62
     7
370
    25
100
AcDbLine
 10
374.838932201
 20
166.0174323962
 30
0.0
 11
374.838932201
 21
163.4551238497
 31
0.0
  0
ARC
  5
160
330
1F
100
AcDbEntity
  8
0
  6
SLD-Сплошная
 62
     7
370
    25
100
AcDbCircle
 10
349.8795043357
 20
156.0196802905
 30
0.0
 40
21.53945725350491
100
AcDbArc
 50
93.9325758935
 51
165.8260198369
  0
ARC
  5
161
330
1F
100
AcDbEntity
  8
0
  6
SLD-Сплошная
 62
     7
370
    25
100
AcDbCircle
 10
350.5143374143
 20
156.0387661966
 30
0.0
 40
21.51929774648258
100
AcDbArc
 50
14.1351270813
 51
86.0999489078
  0
LINE
  5
162
330
1F
100
AcDbEntity
  8
0
  6
SLD-Сплошная
 62
     7
370
    25
100
AcDbLine
 10
346.690442206
 20
155.4050234663
 30
0.0
 11
346.688932201
 21
155.504320241
 31
0.0
  0
LINE
  5
163
330
1F
100
AcDbEntity
  8
0
  6
SLD-Сплошная
 62
     7
370
    25
100
AcDbLine
 10
353.687422196
 20
155.6036170158
 30
0.0
 11
353.688932201
 21
155.504320241
 31
0.0
  0
LWPOLYLINE
  5
164
330
1F
100
AcDbEntity
  8
0
  6
SLD-Сплошная
 62
     7
370
    25
100
AcDbPolyline
 90
        3
 70
   128
 43
0.0
 10
346.688932201
 20
146.1868346173
 10
346.7599901835
 20
145.5090625318
 10
346.8225233094
 20
145.2617160749
  0
LWPOLYLINE
  5
165
330
1F
100
AcDbEntity
  8
0
  6
SLD-Сплошная
 62
     7
370
    25
100
AcDbPolyline
 90
        3
 70
   128
 43
0.0
 10
353.5553410925
 20
145.2617160749
 10
353.6826443354
 20
145.9842766748
 10
353.688932201
 20
146.1868346173
  0
LINE
  5
166
330
1F
100
AcDbEntity
  8
0
  6
SLD-Сплошная
 62
     7
370
    25
100
AcDbLine
 10
336.9389962265
 20
165.3359033099
 30
0.0
 11
336.9632620291
 21
165.6546982058
 31
0.0
  0
LINE
  5
167
330
1F
100
AcDbEntity
  8
0
  6
SLD-Сплошная
 62
     7
370
    25
100
AcDbLine
 10
341.9388681755
 20
165.3013386389
 30
0.0
 11
341.9146023728
 21
164.9825437431
 31
0.0
  0
ARC
  5
168
330
1F
100
AcDbEntity
  8
0
  6
SLD-Сплошная
 62
     7
370
    25
100
AcDbCircle
 10
360.9480424194
 20
157.4272238193
 30
0.0
 40
2.510392568964022
100
AcDbArc
 50
181.8314230572
 51
335.9324270378
  0
ARC
  5
169
330
1F
100
AcDbEntity
  8
0
  6
SLD-Сплошная
 62
     7
370
    25
100
AcDbCircle
 10
339.4426680242
 20
157.4143683973
 30
0.0
 40
2.504642156049096
100
AcDbArc
 50
181.5414226822
 51
350.730330394
  0
LWPOLYLINE
  5
16A
330
1F
100
AcDbEntity
  8
0
  6
SLD-Сплошная
 62
     7
370
    25
100
AcDbPolyline
 90
        3
 70
   128
 43
0.0
 10
363.2401943346
 20
156.4034511649
 10
363.4294189462
 20
157.1365294282
 10
363.438932201
 20
157.3469943853
  0
LINE
  5
16B
330
1F
100
AcDbEntity
  8
0
  6
SLD-Сплошная
 62
     7
370
    25
100
AcDbLine
 10
341.9146023728
 20
157.0109171539
 30
0.0
 11
341.938932201
 21
157.3469943853
 31
0.0
  0
LINE
  5
16C
330
1F
100
AcDbEntity
  8
0
  6
SLD-Сплошная
 62
     7
370
    25
100
AcDbLine
 10
347.690239639
 20
175.6242359235
 30
0.0
 11
347.688932201
 21
175.702323607
 31
0.0
  0
LINE
  5
16D
330
1F
100
AcDbEntity
  8
0
  6
SLD-Сплошная
 62
     7
370
    25
100
AcDbLine
 10
352.687624763
 20
175.7804112905
 30
0.0
 11
352.688932201
 21
175.702323607
 31
0.0
  0
ARC
  5
16E
330
1F
100
AcDbEntity
  8
0
  6
SLD-Сплошная
 62
     7
370
    25
100
AcDbCircle
 10
350.194597338
 20
167.79943517
 30
0.0
 40
2.506607809894542
100
AcDbArc
 50
181.5714064966
 51
344.9011356192
  0
LINE
  5
16F
330
1F
100
AcDbEntity
  8
0
  6
SLD-Сплошная
 62
     7
370
    25
100
AcDbLine
 10
352.6146715167
 20
167.1465005006
 30
0.0
 11
352.688932201
 21
167.7306970179
 31
0.0
  0
LINE
  5
170
330
1F
100
AcDbEntity
  8
0
  6
SLD-Сплошная
 62
     7
370
    25
100
AcDbLine
 10
370.0520449866
 20
148.7341124971
 30
0.0
 11
370.0520449866
 21
145.3945511039
 31
0.0
  0
ARC
  5
171
330
1F
100
AcDbEntity
  8
0
  6
SLD-Сплошная
 62
     7
370
    25
100
AcDbCircle
 10
351.5265320264
 20
158.1019173199
 30
0.0
 40
22.46490121473174
100
AcDbArc
 50
325.5522660156
 51
355.7142430289
  0
LWPOLYLINE
  5
172
330
1F
100
AcDbEntity
  8
0
  6
SLD-Сплошная
 62
     7
370
    25
100
AcDbPolyline
 90
       34
 70
   128
 43
0.0
 10
373.9635886152
 20
156.5451792007
 10
373.8811639582
 20
155.4205667557
 10
373.5588351958
 20
153.2551100132
 10
373.024864973
 20
151.1290539147
 10
372.2840890068
 20
149.0616523532
 10
371.343215879
 20
147.0716280376
 10
370.2107662824
 20
145.1770029362
 10
368.8969958559
 20
143.3949350672
 10
367.4138023079
 20
141.7415631133
 10
365.7746176689
 20
140.231860267
 10
363.9942866488
 20
138.8794986308
 10
362.088932201
 20
137.6967254014
 10
360.0758095104
 20
136.6942519561
 10
357.9731497279
 20
135.8811568498
 10
355.7999948661
 20
135.2648035977
 10
353.5760253519
 20
134.8507739901
 10
351.3213817976
 20
134.6428175435
 10
349.0564826044
 20
134.6428175435
 10
346.8018390501
 20
134.8507739901
 10
344.5778695358
 20
135.2648035977
 10
342.404714674
 20
135.8811568498
 10
340.3020548915
 20
136.6942519561
 10
338.288932201
 20
137.6967254014
 10
336.3835777532
 20
138.8794986308
 10
334.6032467331
 20
140.231860267
 10
332.9640620941
 20
141.7415631133
 10
331.4808685461
 20
143.3949350672
 10
330.1670981196
 20
145.1770029362
 10
329.034648523
 20
147.0716280376
 10
328.0937753952
 20
149.0616523532
 10
327.3529994289
 20
151.1290539147
 10
326.8190292061
 20
153.2551100132
 10
326.4967004437
 20
155.4205667557
 10
326.4142757867
 20
156.5451792007
  0
LWPOLYLINE
  5
173
330
1F
100
AcDbEntity
  8
0
  6
SLD-Сплошная
 62
     7
370
    25
100
AcDbPolyline
 90
        3
 70
   128
 43
0.0
 10
372.7463096968
 20
152.047868611
 10
372.6065849338
 20
151.5784824922
 10
372.5876022322
 20
151.5175258166
  0
ARC
  5
174
330
1F
100
AcDbEntity
  8
0
  6
SLD-Сплошная
 62
     7
370
    25
100
AcDbCircle
 10
351.3289008567
 20
158.19091289
 30
0.0
 40
22.28224716936525
100
AcDbArc
 50
327.1688330814
 51
338.9010563009
  0
LINE
  5
175
330
1F
100
AcDbEntity
  8
0
  6
SLD-Сплошная
 62
     7
370
    25
100
AcDbLine
 10
371.0718343677
 20
150.183393976
 30
0.0
 11
371.0718343677
 21
148.9077942258
 31
0.0
  0
LINE
  5
176
330
1F
100
AcDbEntity
  8
0
  6
SLD-Сплошная
 62
     7
370
    25
100
AcDbLine
 10
306.188932201
 20
104.6626113783
 30
0.0
 11
306.188932201
 21
111.6626113783
 31
0.0
  0
SPLINE
  5
177
330
1F
100
AcDbEntity
  8
0
  6
SLD-Сплошная
 62
     7
370
    25
100
AcDbSpline
210
0.0
220
0.0
230
1.0
 70
    24
 71
     3
 72
    22
 73
    18
 74
     0
 42
0.00000001
 43
0.00000001
 40
0.0
 40
0.0
 40
0.0
 40
0.0
 40
0.125
 40
0.125
 40
0.25
 40
0.25
 40
0.375
 40
0.375
 40
0.5
 40
0.5
 40
0.625
 40
0.625
 40
0.75
 40
0.75
 40
0.875
 40
0.875
 40
1.0
 40
1.0
 40
1.0
 40
1.0
 10
306.1889322009724
 20
111.662611378325
 30
0.0
 10
306.1889322009724
 20
111.662611378325
 30
0.0
 10
306.2203622845956
 20
111.662611378325
 30
0.0
 10
306.3578376963503
 20
111.662611378325
 30
0.0
 10
306.4640035142255
 20
111.662611378325
 30
0.0
 10
306.75640127497
 20
111.662611378325
 30
0.0
 10
306.9427022076945
 20
111.662611378325
 30
0.0
 10
307.3912160596265
 20
111.662611378325
 30
0.0
 10
307.6533982950396
 20
111.662611378325
 30
0.0
 10
308.2391847326666
 20
111.662611378325
 30
0.0
 10
308.5626570600109
 20
111.662611378325
 30
0.0
 10
309.2486903013121
 20
111.662611378325
 30
0.0
 10
309.6110730924495
 20
111.662611378325
 30
0.0
 10
310.3496547947528
 20
111.662611378325
 30
0.0
 10
310.7257039998009
 20
111.662611378325
 30
0.0
 10
311.468603773198
 20
111.662611378325
 30
0.0
 10
311.8353788103791
 20
111.662611378325
 30
0.0
 10
312.1889322009724
 20
111.662611378325
 30
0.0
  0
SPLINE
  5
178
330
1F
100
AcDbEntity
  8
0
  6
SLD-Сплошная
 62
     7
370
    25
100
AcDbSpline
210
0.0
220
0.0
230
1.0
 70
    24
 71
     3
 72
    22
 73
    18
 74
     0
 42
0.00000001
 43
0.00000001
 40
0.0
 40
0.0
 40
0.0
 40
0.0
 40
0.125
 40
0.125
 40
0.25
 40
0.25
 40
0.375
 40
0.375
 40
0.5
 40
0.5
 40
0.625
 40
0.625
 40
0.75
 40
0.75
 40
0.875
 40
0.875
 40
1.0
 40
1.0
 40
1.0
 40
1.0
 10
312.1889322009724
 20
104.6626113783251
 30
0.0
 10
311.8353788103791
 20
104.6626113783251
 30
0.0
 10
311.468603773198
 20
104.6626113783251
 30
0.0
 10
310.7257039998009
 20
104.6626113783251
 30
0.0
 10
310.3496547947527
 20
104.6626113783251
 30
0.0
 10
309.6110730924494
 20
104.6626113783251
 30
0.0
 10
309.2486903013121
 20
104.6626113783251
 30
0.0
 10
308.5626570600109
 20
104.6626113783251
 30
0.0
 10
308.2391847326665
 20
104.6626113783251
 30
0.0
 10
307.6533982950396
 20
104.6626113783251
 30
0.0
 10
307.3912160596265
 20
104.6626113783251
 30
0.0
 10
306.9427022076945
 20
104.6626113783251
 30
0.0
 10
306.75640127497
 20
104.6626113783251
 30
0.0
 10
306.4640035142255
 20
104.6626113783251
 30
0.0
 10
306.3578376963502
 20
104.6626113783251
 30
0.0
 10
306.2203622845956
 20
104.6626113783251
 30
0.0
 10
306.1889322009724
 20
104.6626113783251
 30
0.0
 10
306.1889322009724
 20
104.6626113783251
 30
0.0
  0
LINE
  5
179
330
1F
100
AcDbEntity
  8
0
  6
SLD-Сплошная
 62
     7
370
    25
100
AcDbLine
 10
312.188932201
 20
111.6626113783
 30
0.0
 11
388.188932201
 21
111.6626113783
 31
0.0
  0
LINE
  5
17A
330
1F
100
AcDbEntity
  8
0
  6
SLD-Сплошная
 62
     7
370
    25
100
AcDbLine
 10
312.188932201
 20
104.6626113783
 30
0.0
 11
388.188932201
 21
104.6626113783
 31
0.0
  0
LINE
  5
17B
330
1F
100
AcDbEntity
  8
0
  6
SLD-Сплошная
 62
     7
370
    25
100
AcDbLine
 10
394.188932201
 20
111.6626113783
 30
0.0
 11
394.188932201
 21
104.6626113783
 31
0.0
  0
SPLINE
  5
17C
330
1F
100
AcDbEntity
  8
0
  6
SLD-Сплошная
 62
     7
370
    25
100
AcDbSpline
210
0.0
220
0.0
230
1.0
 70
    24
 71
     3
 72
    22
 73
    18
 74
     0
 42
0.00000001
 43
0.00000001
 40
0.0
 40
0.0
 40
0.0
 40
0.0
 40
0.125
 40
0.125
 40
0.25
 40
0.25
 40
0.375
 40
0.375
 40
0.5
 40
0.5
 40
0.625
 40
0.625
 40
0.75
 40
0.75
 40
0.875
 40
0.875
 40
1.0
 40
1.0
 40
1.0
 40
1.0
 10
388.1889322009723
 20
111.662611378325
 30
0.0
 10
388.5424855915657
 20
111.662611378325
 30
0.0
 10
388.9092606287467
 20
111.662611378325
 30
0.0
 10
389.6521604021437
 20
111.662611378325
 30
0.0
 10
390.0282096071919
 20
111.662611378325
 30
0.0
 10
390.7667913094952
 20
111.662611378325
 30
0.0
 10
391.1291741006326
 20
111.662611378325
 30
0.0
 10
391.8152073419338
 20
111.662611378325
 30
0.0
 10
392.1386796692782
 20
111.662611378325
 30
0.0
 10
392.7244661069051
 20
111.662611378325
 30
0.0
 10
392.9866483423183
 20
111.662611378325
 30
0.0
 10
393.4351621942502
 20
111.662611378325
 30
0.0
 10
393.6214631269747
 20
111.662611378325
 30
0.0
 10
393.9138608877192
 20
111.662611378325
 30
0.0
 10
394.0200267055944
 20
111.662611378325
 30
0.0
 10
394.1575021173491
 20
111.662611378325
 30
0.0
 10
394.1889322009723
 20
111.662611378325
 30
0.0
 10
394.1889322009723
 20
111.662611378325
 30
0.0
  0
SPLINE
  5
17D
330
1F
100
AcDbEntity
  8
0
  6
SLD-Сплошная
 62
     7
370
    25
100
AcDbSpline
210
0.0
220
0.0
230
1.0
 70
    24
 71
     3
 72
    22
 73
    18
 74
     0
 42
0.00000001
 43
0.00000001
 40
0.0
 40
0.0
 40
0.0
 40
0.0
 40
0.1249999999999991
 40
0.1249999999999991
 40
0.2499999999999982
 40
0.2499999999999982
 40
0.3749999999999973
 40
0.3749999999999973
 40
0.4999999999999964
 40
0.4999999999999964
 40
0.6249999999999956
 40
0.6249999999999956
 40
0.749999999999997
 40
0.749999999999997
 40
0.8749999999999984
 40
0.8749999999999984
 40
1.0
 40
1.0
 40
1.0
 40
1.0
 10
394.1889322009723
 20
104.6626113783251
 30
0.0
 10
394.1889322009723
 20
104.6626113783251
 30
0.0
 10
394.1575021173491
 20
104.6626113783251
 30
0.0
 10
394.0200267055944
 20
104.6626113783251
 30
0.0
 10
393.9138608877192
 20
104.6626113783251
 30
0.0
 10
393.6214631269747
 20
104.6626113783251
 30
0.0
 10
393.4351621942502
 20
104.6626113783251
 30
0.0
 10
392.9866483423183
 20
104.6626113783251
 30
0.0
 10
392.7244661069051
 20
104.6626113783251
 30
0.0
 10
392.1386796692782
 20
104.6626113783251
 30
0.0
 10
391.8152073419338
 20
104.6626113783251
 30
0.0
 10
391.1291741006326
 20
104.6626113783251
 30
0.0
 10
390.7667913094952
 20
104.6626113783251
 30
0.0
 10
390.0282096071919
 20
104.6626113783251
 30
0.0
 10
389.6521604021437
 20
104.6626113783251
 30
0.0
 10
388.9092606287467
 20
104.6626113783251
 30
0.0
 10
388.5424855915657
 20
104.6626113783251
 30
0.0
 10
388.1889322009723
 20
104.6626113783251
 30
0.0
  0
LINE
  5
17E
330
1F
100
AcDbEntity
  8
0
  6
SLD-Сплошная
 62
     7
370
    25
100
AcDbLine
 10
371.5192256248
 20
150.9001377658
 30
0.0
 11
371.5192256248
 21
150.5286657537
 31
0.0
  0
LINE
  5
17F
330
1F
100
AcDbEntity
  8
0
  6
SLD-Сплошная
 62
     7
370
    25
100
AcDbLine
 10
371.2917099435
 20
150.5285304848
 30
0.0
 11
371.5192256248
 21
150.5286657537
 31
0.0
  0
ARC
  5
180
330
1F
100
AcDbEntity
  8
0
  6
SLD-Сплошная
 62
     7
370
    25
100
AcDbCircle
 10
351.4250335653
 20
160.8271539399
 30
0.0
 40
22.57953527964839
100
AcDbArc
 50
332.8643754138
 51
339.0445790897
  0
ARC
  5
181
330
1F
100
AcDbEntity
  8
0
  6
SLD-Сплошная
 62
     7
370
    25
100
AcDbCircle
 10
351.4298133939
 20
160.6223006349
 30
0.0
 40
22.5742435935516
100
AcDbArc
 50
332.8639825315
 51
339.5953177639
  0
LINE
  5
182
330
1F
100
AcDbEntity
  8
0
  6
SLD-Сплошная
 62
     7
370
    25
100
AcDbLine
 10
371.1636228027
 20
150.3258767999
 30
0.0
 11
371.5192256248
 21
150.3260882228
 31
0.0
  0
LINE
  5
183
330
1F
100
AcDbEntity
  8
0
  6
SLD-Сплошная
 62
     7
370
    25
100
AcDbLine
 10
372.519942978
 20
152.751781052
 30
0.0
 11
372.5876022322
 21
152.7518212787
 31
0.0
  0
LINE
  5
184
330
1F
100
AcDbEntity
  8
0
  6
SLD-Сплошная
 62
     7
370
    25
100
AcDbLine
 10
371.5192256248
 20
150.3260882228
 30
0.0
 11
371.5192256248
 21
148.9080602213
 31
0.0
  0
LINE
  5
185
330
1F
100
AcDbEntity
  8
0
  6
SLD-Сплошная
 62
     7
370
    25
100
AcDbLine
 10
371.0718343677
 20
148.9077942258
 30
0.0
 11
371.5192256248
 21
148.9080602213
 31
0.0
  0
LINE
  5
186
330
1F
100
AcDbEntity
  8
0
  6
SLD-Сплошная
 62
     7
370
    25
100
AcDbLine
 10
372.5876022322
 20
151.3337932772
 30
0.0
 11
372.5876022322
 21
152.7518212787
 31
0.0
  0
ARC
  5
187
330
1F
100
AcDbEntity
  8
0
  6
SLD-Сплошная
 62
     7
370
    25
100
AcDbCircle
 10
351.4298133939
 20
159.2042726334
 30
0.0
 40
22.57424359355494
100
AcDbArc
 50
332.8639825315
 51
339.5953177639
  0
LINE
  5
188
330
1F
100
AcDbEntity
  8
0
  6
SLD-Сплошная
 62
     7
370
    25
100
AcDbLine
 10
372.8395643093
 20
153.4405410386
 30
0.0
 11
372.8395643093
 21
152.0479240553
 31
0.0
  0
LINE
  5
189
330
1F
100
AcDbEntity
  8
0
  6
SLD-Сплошная
 62
     7
370
    25
100
AcDbLine
 10
372.5876022322
 20
152.0477742518
 30
0.0
 11
372.8395643093
 21
152.0479240553
 31
0.0
  0
ARC
  5
18A
330
1F
100
AcDbEntity
  8
0
  6
SLD-Сплошная
 62
     7
370
    25
100
AcDbCircle
 10
351.6605676938
 20
159.1239524882
 30
0.0
 40
22.32980241785726
100
AcDbArc
 50
341.5252203642
 51
351.4827840144
  0
LINE
  5
18B
330
1F
100
AcDbEntity
  8
0
  6
SLD-Сплошная
 62
     7
370
    25
100
AcDbLine
 10
341.0227191944
 20
120.19067302
 30
0.0
 11
341.0227191944
 21
121.1483034869
 31
0.0
  0
ARC
  5
18C
330
1F
100
AcDbEntity
  8
0
  6
SLD-Сплошная
 62
     7
370
    25
100
AcDbCircle
 10
350.188932201
 20
122.9816268014
 30
0.0
 40
9.34775562669587
100
AcDbArc
 50
191.3104175872
 51
348.6895824128
  0
LINE
  5
18D
330
1F
100
AcDbEntity
  8
0
  6
SLD-Сплошная
 62
     7
370
    25
100
AcDbLine
 10
359.3551452075
 20
120.19067302
 30
0.0
 11
359.3551452075
 21
121.1483034869
 31
0.0
  0
ARC
  5
18E
330
1F
100
AcDbEntity
  8
0
  6
SLD-Сплошная
 62
     7
370
    25
100
AcDbCircle
 10
350.188932201
 20
122.0239963345
 30
0.0
 40
9.347755626695875
100
AcDbArc
 50
191.3104175872
 51
348.6895824128
  0
LWPOLYLINE
  5
18F
330
1F
100
AcDbEntity
  8
0
  6
SLD-Сплошная
 62
     7
370
    25
100
AcDbPolyline
 90
       34
 70
   128
 43
0.0
 10
325.538932201
 20
156.5705372499
 10
325.6505493095
 20
154.3072460511
 10
325.9843898134
 20
152.0644515679
 10
326.5374304014
 20
149.8624648944
 10
327.3046626521
 20
147.7212275629
 10
328.2791383916
 20
145.6601309503
 10
329.4520326167
 20
143.6978406667
 10
330.8127234156
 20
141.8521275167
 10
332.3488881617
 20
140.1397065645
 10
334.0466151092
 20
138.5760857593
 10
335.89052938
 20
137.1754254933
 10
337.863932201
 20
135.9504103628
 10
339.9489521305
 20
134.9121342945
 10
342.1267069052
 20
134.0700000773
 10
344.3774744407
 20
133.4316342089
 10
346.6808714375
 20
133.0028178297
 10
349.0160379759
 20
132.7874343671
 10
351.361826426
 20
132.7874343671
 10
353.6969929644
 20
133.0028178297
 10
356.0003899613
 20
133.4316342089
 10
358.2511574967
 20
134.0700000773
 10
360.4289122715
 20
134.9121342945
 10
362.513932201
 20
135.9504103628
 10
364.4873350219
 20
137.1754254933
 10
366.3312492927
 20
138.5760857593
 10
368.0289762403
 20
140.1397065645
 10
369.5651409864
 20
141.8521275167
 10
370.9258317853
 20
143.6978406667
 10
372.0987260103
 20
145.6601309503
 10
373.0732017498
 20
147.7212275629
 10
373.8404340006
 20
149.8624648944
 10
374.3934745885
 20
152.0644515679
 10
374.7273150924
 20
154.3072460511
 10
374.838932201
 20
156.5705372499
  0
ARC
  5
190
330
1F
100
AcDbEntity
  8
0
  6
SLD-Сплошная
 62
     7
370
    25
100
AcDbCircle
 10
349.1828907709
 20
157.028898269
 30
0.0
 40
36.79681347715997
100
AcDbArc
 50
180.7137256901
 51
257.1873966767
  0
LWPOLYLINE
  5
191
330
1F
100
AcDbEntity
  8
0
  6
SLD-Сплошная
 62
     7
370
    25
100
AcDbPolyline
 90
       42
 70
   128
 43
0.0
 10
387.988932201
 20
156.5705372499
 10
387.8780194857
 20
159.3655032812
 10
387.5459322199
 20
162.1440673404
 10
386.9946192236
 20
164.8899237089
 10
386.2273158206
 20
167.5869586095
 10
385.2485248526
 20
170.2193447691
 10
384.0639902541
 20
172.771634299
 10
382.6806633451
 20
175.2288493493
 10
381.106662038
 20
177.576570005
 10
379.3512231982
 20
179.8010189079
 10
377.4246484391
 20
181.8891421072
 10
375.3382436672
 20
183.8286856657
 10
373.1042527355
 20
185.6082675706
 10
370.735785591
 20
187.2174445276
 10
368.2467413407
 20
188.6467732465
 10
365.651726686
 20
189.887865858
 10
362.9659702048
 20
190.9334391372
 10
360.205232984
 20
191.7773572443
 10
357.3857161274
 20
192.4146677323
 10
354.523965681
 20
192.8416306098
 10
351.6367755345
 20
193.055740289
 10
348.7410888675
 20
193.055740289
 10
345.8538987209
 20
192.8416306098
 10
342.9921482745
 20
192.4146677323
 10
340.1726314179
 20
191.7773572443
 10
337.4118941971
 20
190.9334391372
 10
334.7261377159
 20
189.887865858
 10
332.1311230612
 20
188.6467732465
 10
329.6420788109
 20
187.2174445276
 10
327.2736116664
 20
185.6082675706
 10
325.0396207347
 20
183.8286856657
 10
322.9532159629
 20
181.8891421072
 10
321.0266412037
 20
179.8010189079
 10
319.271202364
 20
177.576570005
 10
317.6972010569
 20
175.2288493493
 10
316.3138741478
 20
172.771634299
 10
315.1293395493
 20
170.2193447691
 10
314.1505485813
 20
167.5869586095
 10
313.3832451784
 20
164.8899237089
 10
312.8319321821
 20
162.1440673404
 10
312.4998449162
 20
159.3655032812
 10
312.388932201
 20
156.5705372499
  0
ARC
  5
192
330
1F
100
AcDbEntity
  8
0
  6
SLD-Сплошная
 62
     7
370
    25
100
AcDbCircle
 10
351.2201356014
 20
157.0085584309
 30
0.0
 40
36.7714055475035
100
AcDbArc
 50
282.7814014092
 51
359.317476224
  0
LWPOLYLINE
  5
193
330
1F
100
AcDbEntity
  8
0
  6
SLD-Сплошная
 62
     7
370
    25
100
AcDbPolyline
 90
        3
 70
   128
 43
0.0
 10
325.538932201
 20
157.6058134304
 10
325.6472447441
 20
159.8354240026
 10
325.6879421899
 20
160.2198857859
  0
LWPOLYLINE
  5
194
330
1F
100
AcDbEntity
  8
0
  6
SLD-Сплошная
 62
     7
370
    25
100
AcDbPolyline
 90
       37
 70
   128
 43
0.0
 10
374.689922212
 20
160.2198857859
 10
374.8118391761
 20
158.7218453567
 10
374.8118391761
 20
156.489781504
 10
374.5954521843
 20
154.2675253801
 10
374.1645798172
 20
152.0746062516
 10
373.5230085969
 20
149.9302955707
 10
372.6763766742
 20
147.8534376167
 10
371.6321242808
 20
145.862283892
 10
370.3994283445
 20
143.9743327271
 10
368.9891218414
 20
142.2061755048
 10
367.4135985957
 20
140.5733508543
 10
365.6867043624
 20
139.0902080974
 10
363.8236151502
 20
137.7697811458
 10
361.8407038539
 20
136.6236739592
 10
359.7553963693
 20
135.6619585688
 10
357.5860184537
 20
134.8930865638
 10
355.3516346782
 20
134.3238148192
 10
353.0718808876
 20
133.9591461156
 10
350.7667916403
 20
133.8022851745
 10
348.4566241435
 20
133.8546104957
 10
346.1616802321
 20
134.1156622422
 10
343.9021279559
 20
134.583146282
 10
341.6978243415
 20
135.2529543486
 10
339.5681408882
 20
136.1192001444
 10
337.5317933308
 20
137.1742710704
 10
335.606677165
 20
138.4088951253
 10
333.8097103807
 20
139.8122223885
 10
332.1566847867
 20
141.3719203695
 10
330.6621272314
 20
143.0742823865
 10
329.3391719402
 20
144.9043480208
 10
328.1994450919
 20
146.8460345898
 10
327.252962647
 20
148.8822784822
 10
326.5080423272
 20
150.9951851133
 10
325.9712305191
 20
153.1661861838
 10
325.6472447441
 20
155.3762028581
 10
325.538932201
 20
157.6058134304
 10
325.538932201
 20
157.6058134304
  0
LINE
  5
195
330
1F
100
AcDbEntity
  8
0
  6
SLD-Сплошная
 62
     7
370
    25
100
AcDbLine
 10
325.538932201
 20
157.6058134304
 30
0.0
 11
325.538932201
 21
156.5705372499
 31
0.0
  0
LINE
  5
196
330
1F
100
AcDbEntity
  8
0
  6
SLD-Сплошная
 62
     7
370
    25
100
AcDbLine
 10
374.838932201
 20
156.9846477221
 30
0.0
 11
374.838932201
 21
156.5705372499
 31
0.0
  0
SPLINE
  5
197
330
1F
100
AcDbEntity
  8
0
  6
SLD-Сплошная
 62
     7
370
    25
100
AcDbSpline
210
0.0
220
0.0
230
1.0
 70
     8
 71
     3
 72
    36
 73
    32
 74
     0
 42
0.00000001
 43
0.00000001
 40
0.0
 40
0.0
 40
0.0
 40
0.0
 40
0.0141581473228758
 40
0.0288682063071113
 40
0.0441393177824562
 40
0.0599762153768327
 40
0.0763826666033236
 40
0.0933643498353345
 40
0.1109256737230848
 40
0.1290699644155375
 40
0.1477996317102364
 40
0.1671163172059113
 40
0.1870210272172669
 40
0.2075142528809171
 40
0.2285960795618039
 40
0.2502662873744558
 40
0.306517577736309
 40
0.3669110099166807
 40
0.4314314782803962
 40
0.5000608205773984
 40
0.5608689909951262
 40
0.6248814318957242
 40
0.6560730712141111
 40
0.6872709529798856
 40
0.7497146255490771
 40
0.815919489225951
 40
0.8749183224070977
 40
0.9095426688204286
 40
0.9419198723698864
 40
0.9720656009948553
 40
1.0
 40
1.0
 40
1.0
 40
1.0
 10
386.1889322009653
 20
139.5916660789543
 30
0.0
 10
386.2289039946895
 20
139.5248474508529
 30
0.0
 10
386.3104057591067
 20
139.3886054767302
 30
0.0
 10
386.4244346254769
 20
139.1746701962167
 30
0.0
 10
386.535189370474
 20
138.9490035022834
 30
0.0
 10
386.6415010418315
 20
138.7112045252413
 30
0.0
 10
386.7433834875941
 20
138.4615661921109
 30
0.0
 10
386.840632738947
 20
138.2001972901222
 30
0.0
 10
386.9331144755504
 20
137.9272383331362
 30
0.0
 10
387.0206738855559
 20
137.6428179215111
 30
0.0
 10
387.1031590694516
 20
137.3470695485827
 30
0.0
 10
387.1804145397435
 20
137.0401265375489
 30
0.0
 10
387.2522831216825
 20
136.722123084663
 30
0.0
 10
387.3186055190388
 20
136.3931936442864
 30
0.0
 10
387.3792203729819
 20
136.0534723945146
 30
0.0
 10
387.4625900409659
 20
135.5198849290557
 30
0.0
 10
387.5514252623292
 20
134.7706719782933
 30
0.0
 10
387.6207169311726
 20
133.7853311561372
 30
0.0
 10
387.6471571395905
 20
132.7303921077882
 30
0.0
 10
387.6277893546634
 20
131.6730214989928
 30
0.0
 10
387.5709016426008
 20
130.6200600222258
 30
0.0
 10
387.4992117134494
 20
129.7723786435583
 30
0.0
 10
387.4272334270733
 20
129.08698388817
 30
0.0
 10
387.3472286629247
 20
128.4109594857798
 30
0.0
 10
387.2236229977191
 20
127.5478546537632
 30
0.0
 10
387.0411633464456
 20
126.5401257489832
 30
0.0
 10
386.849503135192
 20
125.6886717027258
 30
0.0
 10
386.6724907057882
 20
125.023424226364
 30
0.0
 10
386.5189254431408
 20
124.5150397745118
 30
0.0
 10
386.3609096974484
 20
124.0461043792663
 30
0.0
 10
386.2447842552077
 20
123.7500711425205
 30
0.0
 10
386.1889322009757
 20
123.6076900753386
 30
0.0
  0
SPLINE
  5
198
330
1F
100
AcDbEntity
  8
0
  6
SLD-Сплошная
 62
     7
370
    25
100
AcDbSpline
210
0.0
220
0.0
230
1.0
 70
     8
 71
     3
 72
    32
 73
    28
 74
     0
 42
0.00000001
 43
0.00000001
 40
0.0
 40
0.0
 40
0.0
 40
0.0
 40
0.018457922245325
 40
0.0379042700854843
 40
0.0583466115776726
 40
0.0797904717694156
 40
0.1022396972417415
 40
0.1257002253024159
 40
0.1844784106948359
 40
0.2504086644722667
 40
0.3125445565810016
 40
0.3435981742749232
 40
0.3746510650590861
 40
0.4384289107161343
 40
0.4989710067301522
 40
0.5677349056054253
 40
0.6323774771744374
 40
0.6928802449305728
 40
0.7492280564307064
 40
0.786849776416991
 40
0.8226630159161437
 40
0.856668550100085
 40
0.8888714946975695
 40
0.9192832789352101
 40
0.9479240099576091
 40
0.9748201096032993
 40
1.0
 40
1.0
 40
1.0
 40
1.0
 10
314.1889322009723
 20
123.6076900753199
 30
0.0
 10
314.1516309984495
 20
123.7016175169287
 30
0.0
 10
314.0750311062112
 20
123.8945022342799
 30
0.0
 10
313.9671829853018
 20
124.1949773121244
 30
0.0
 10
313.8609472054202
 20
124.5131214167661
 30
0.0
 10
313.7575629483201
 20
124.8492946464367
 30
0.0
 10
313.6571884161319
 20
125.2033970987882
 30
0.0
 10
313.5129050516274
 20
125.7567313803062
 30
0.0
 10
313.3355626305305
 20
126.5461493977329
 30
0.0
 10
313.154020838856
 20
127.5495646543841
 30
0.0
 10
313.0309615961332
 20
128.4087317122769
 30
0.0
 10
312.9512472017221
 20
129.0815373824473
 30
0.0
 10
312.8794530828056
 20
129.764105490758
 30
0.0
 10
312.8078269490531
 20
130.6082859575748
 30
0.0
 10
312.7506012653877
 20
131.6592108726535
 30
0.0
 10
312.7306490845534
 20
132.7165060051494
 30
0.0
 10
312.7565690445992
 20
133.7734400153175
 30
0.0
 10
312.8254759400398
 20
134.7605898422841
 30
0.0
 10
312.924271475139
 20
135.5973398946227
 30
0.0
 10
313.0384950150947
 20
136.2961831205857
 30
0.0
 10
313.1554777391544
 20
136.8708991173401
 30
0.0
 10
313.2892312098591
 20
137.4118981491237
 30
0.0
 10
313.4389750991052
 20
137.9184335136898
 30
0.0
 10
313.6036538419255
 20
138.3899342636727
 30
0.0
 10
313.7832528751001
 20
138.8252495921293
 30
0.0
 10
313.9742372105958
 20
139.2250884997002
 30
0.0
 10
314.1189569926688
 20
139.4721880118396
 30
0.0
 10
314.1889322009724
 20
139.5916660789428
 30
0.0
  0
ARC
  5
199
330
1F
100
AcDbEntity
  8
0
  6
SLD-Сплошная
 62
     7
370
    25
100
AcDbCircle
 10
349.476040009
 20
156.4965889635
 30
0.0
 40
37.27704609127555
100
AcDbArc
 50
198.8056285231
 51
256.8930096057
  0
ARC
  5
19A
330
1F
100
AcDbEntity
  8
0
  6
SLD-Сплошная
 62
     7
370
    25
100
AcDbCircle
 10
347.7640676431
 20
155.6205005057
 30
0.0
 40
35.3751362571991
100
AcDbArc
 50
180.0122992675
 51
198.3562460068
  0
LINE
  5
19B
330
1F
100
AcDbEntity
  8
0
  6
SLD-Сплошная
 62
     7
370
    25
100
AcDbLine
 10
312.388932201
 20
155.6129067831
 30
0.0
 11
312.388932201
 21
156.5705372499
 31
0.0
  0
ARC
  5
19C
330
1F
100
AcDbEntity
  8
0
  6
SLD-Сплошная
 62
     7
370
    25
100
AcDbCircle
 10
350.901824393
 20
156.4965889635
 30
0.0
 40
37.27704609127447
100
AcDbArc
 50
283.1069903943
 51
341.1943714769
  0
LINE
  5
19D
330
1F
100
AcDbEntity
  8
0
  6
SLD-Сплошная
 62
     7
370
    25
100
AcDbLine
 10
387.988932201
 20
155.6129067831
 30
0.0
 11
387.988932201
 21
156.5705372499
 31
0.0
  0
ARC
  5
19E
330
1F
100
AcDbEntity
  8
0
  6
SLD-Сплошная
 62
     7
370
    25
100
AcDbCircle
 10
352.6137967588
 20
155.6205005057
 30
0.0
 40
35.37513625720814
100
AcDbArc
 50
341.6437539932
 51
359.9877007325
  0
LINE
  5
19F
330
1F
100
AcDbEntity
  8
0
  6
SLD-Сплошная
 62
     7
370
    25
100
AcDbLine
 10
314.188932201
 20
111.6626113783
 30
0.0
 11
314.188932201
 21
123.6076900753
 31
0.0
  0
LINE
  5
1A0
330
1F
100
AcDbEntity
  8
0
  6
SLD-Сплошная
 62
     7
370
    25
100
AcDbLine
 10
386.188932201
 20
111.6626113783
 30
0.0
 11
386.188932201
 21
123.6076900753
 31
0.0
  0
LINE
  5
1A1
330
1F
100
AcDbEntity
  8
0
  6
SLD-Сплошная
 62
     7
370
    25
100
AcDbLine
 10
314.188932201
 20
139.5916660789
 30
0.0
 11
314.188932201
 21
144.4800092573
 31
0.0
  0
LINE
  5
1A2
330
1F
100
AcDbEntity
  8
0
  6
SLD-Сплошная
 62
     7
370
    25
100
AcDbLine
 10
386.188932201
 20
139.591666079
 30
0.0
 11
386.188932201
 21
144.4800092573
 31
0.0
  0
ARC
  5
1A3
330
1F
100
AcDbEntity
  8
0
  6
SLD-Сплошная
 62
     7
370
    25
100
AcDbCircle
 10
339.2928329239
 20
156.567426001
 30
0.0
 40
5.070104762199804
100
AcDbArc
 50
142.7368316856
 51
271.651254018
  0
ARC
  5
1A4
330
1F
100
AcDbEntity
  8
0
  6
SLD-Сплошная
 62
     7
370
    25
100
AcDbCircle
 10
339.6071713817
 20
156.5560505458
 30
0.0
 40
5.059421856798669
100
AcDbArc
 50
268.0944122458
 51
37.5175020507
  0
ARC
  5
1A5
330
1F
100
AcDbEntity
  8
0
  6
SLD-Сплошная
 62
     7
370
    25
100
AcDbCircle
 10
350.4677499126
 20
166.9413212496
 30
0.0
 40
4.971199074158141
100
AcDbArc
 50
0.1488944559
 51
38.2793514718
  0
ARC
  5
1A6
330
1F
100
AcDbEntity
  8
0
  6
SLD-Сплошная
 62
     7
370
    25
100
AcDbCircle
 10
349.9101144893
 20
166.9413212496
 30
0.0
 40
4.971199074156922
100
AcDbArc
 50
141.7206485282
 51
179.8511055441
  0
ARC
  5
1A7
330
1F
100
AcDbEntity
  8
0
  6
SLD-Сплошная
 62
     7
370
    25
100
AcDbCircle
 10
350.188932201
 20
167.0953519357
 30
0.0
 40
5.251896096794956
100
AcDbArc
 50
181.5396531207
 51
358.4603468793
  0
ARC
  5
1A8
330
1F
100
AcDbEntity
  8
0
  6
SLD-Сплошная
 62
     7
370
    25
100
AcDbCircle
 10
361.1071713817
 20
156.5560505458
 30
0.0
 40
5.059421856798589
100
AcDbArc
 50
268.0944122458
 51
37.5175020507
  0
ARC
  5
1A9
330
1F
100
AcDbEntity
  8
0
  6
SLD-Сплошная
 62
     7
370
    25
100
AcDbCircle
 10
360.7928329239
 20
156.567426001
 30
0.0
 40
5.070104762199721
100
AcDbArc
 50
142.7368316856
 51
271.651254018
  0
ARC
  5
1AA
330
1F
100
AcDbEntity
  8
0
  6
SLD-Сплошная
 62
     7
370
    25
100
AcDbCircle
 10
360.7162832968
 20
157.117278077
 30
0.0
 40
4.675135732386545
100
AcDbArc
 50
119.1514483087
 51
186.7054237098
  0
ARC
  5
1AB
330
1F
100
AcDbEntity
  8
0
  6
SLD-Сплошная
 62
     7
370
    25
100
AcDbCircle
 10
339.2162832968
 20
157.117278077
 30
0.0
 40
4.675135732389215
100
AcDbArc
 50
119.1514483087
 51
186.7054237098
  0
ARC
  5
1AC
330
1F
100
AcDbEntity
  8
0
  6
SLD-Сплошная
 62
     7
370
    25
100
AcDbCircle
 10
361.0342936322
 20
156.9913698271
 30
0.0
 40
4.84735623276705
100
AcDbArc
 50
38.2425938843
 51
60.2595240881
  0
ARC
  5
1AD
330
1F
100
AcDbEntity
  8
0
  6
SLD-Сплошная
 62
     7
370
    25
100
AcDbCircle
 10
339.5342936322
 20
156.9913698271
 30
0.0
 40
4.847356232769243
100
AcDbArc
 50
38.2425938843
 51
60.2595240881
  0
ARC
  5
1AE
330
1F
100
AcDbEntity
  8
0
  6
SLD-Сплошная
 62
     7
370
    25
100
AcDbCircle
 10
350.3781238848
 20
167.4786913464
 30
0.0
 40
4.710935275411035
100
AcDbArc
 50
0.420646427
 51
60.6252297905
  0
ARC
  5
1AF
330
1F
100
AcDbEntity
  8
0
  6
SLD-Сплошная
 62
     7
370
    25
100
AcDbCircle
 10
349.9911633696
 20
167.4837482988
 30
0.0
 40
4.702323884670211
100
AcDbArc
 50
119.3139223468
 51
179.6402014356
  0
SPLINE
  5
1B0
330
1F
100
AcDbEntity
  8
0
  6
SLD-Сплошная
 62
     7
370
    25
100
AcDbSpline
210
0.0
220
0.0
230
1.0
 70
     8
 71
     3
 72
    10
 73
     6
 74
     0
 42
0.00000001
 43
0.00000001
 40
0.0
 40
0.0
 40
0.0
 40
0.0
 40
0.1771230825178462
 40
0.3964821352685393
 40
1.0
 40
1.0
 40
1.0
 40
1.0
 10
161.4226132356112
 20
298.0332075660943
 30
0.0
 10
161.4300424932788
 20
298.0379365794554
 30
0.0
 10
161.4466725558413
 20
298.0485222653437
 30
0.0
 10
161.8419543308438
 20
298.1010735431885
 30
0.0
 10
162.3331657818332
 20
298.0391292681543
 30
0.0
 10
162.6934321591426
 20
297.9936978363002
 30
0.0
  0
SPLINE
  5
1B1
330
1F
100
AcDbEntity
  8
0
  6
SLD-Сплошная
 62
     7
370
    25
100
AcDbSpline
210
0.0
220
0.0
230
1.0
 70
     8
 71
     3
 72
    10
 73
     6
 74
     0
 42
0.00000001
 43
0.00000001
 40
0.0
 40
0.0
 40
0.0
 40
0.0
 40
0.603521941527607
 40
0.8228809417733524
 40
1.0
 40
1.0
 40
1.0
 40
1.0
 10
274.693432160625
 20
216.8608935415884
 30
0.0
 10
274.3331810515105
 20
216.8154643596851
 30
0.0
 10
273.8419913340451
 20
216.7535232678765
 30
0.0
 10
273.4467906138902
 20
216.8060606288318
 30
0.0
 10
273.4301687324609
 20
216.8166407113128
 30
0.0
 10
273.4227432219646
 20
216.8213671626383
 30
0.0
  0
SPLINE
  5
1B2
330
1F
100
AcDbEntity
  8
0
  6
SLD-Сплошная
 62
     7
370
    25
100
AcDbSpline
210
0.0
220
0.0
230
1.0
 70
     8
 71
     3
 72
    10
 73
     6
 74
     0
 42
0.00000001
 43
0.00000001
 40
0.0
 40
0.0
 40
0.0
 40
0.0
 40
0.1771230825179658
 40
0.3964821352687088
 40
1.0
 40
1.0
 40
1.0
 40
1.0
 10
161.422613235612
 20
222.0332075660944
 30
0.0
 10
161.4300424932797
 20
222.0379365794555
 30
0.0
 10
161.4466725558421
 20
222.0485222653439
 30
0.0
 10
161.8419543308444
 20
222.1010735431884
 30
0.0
 10
162.3331657818334
 20
222.0391292681543
 30
0.0
 10
162.6934321591424
 20
221.9936978363001
 30
0.0
  0
SPLINE
  5
1B3
330
1F
100
AcDbEntity
  8
0
  6
SLD-Сплошная
 62
     7
370
    25
100
AcDbSpline
210
0.0
220
0.0
230
1.0
 70
     8
 71
     3
 72
    10
 73
     6
 74
     0
 42
0.00000001
 43
0.00000001
 40
0.0
 40
0.0
 40
0.0
 40
0.0
 40
0.1771230825176145
 40
0.3964821353157234
 40
1.0
 40
1.0
 40
1.0
 40
1.0
 10
273.4226132360776
 20
298.0332075661655
 30
0.0
 10
273.4300424937211
 20
298.0379365795165
 30
0.0
 10
273.4466725562317
 20
298.0485222653837
 30
0.0
 10
273.8419543306991
 20
298.1010735431473
 30
0.0
 10
274.3331657813364
 20
298.0391292682124
 30
0.0
 10
274.6934321583592
 20
297.9936978364346
 30
0.0
  0
LINE
  5
1B4
330
1F
100
AcDbEntity
  8
0
  6
SLD-Сплошная
 62
     7
370
    25
100
AcDbLine
 10
154.3309874477
 20
282.0772956888
 30
0.0
 11
153.197044896
 21
282.0772956888
 31
0.0
  0
LINE
  5
1B5
330
1F
100
AcDbEntity
  8
0
  6
SLD-Сплошная
 62
     7
370
    25
100
AcDbLine
 10
280.2066317947
 20
243.4272956888
 30
0.0
 11
284.4425076757
 21
243.4272956888
 31
0.0
  0
LINE
  5
1B6
330
1F
100
AcDbEntity
  8
0
  6
SLD-Сплошная
 62
     7
370
    25
100
AcDbLine
 10
284.4425076757
 20
243.4272956888
 30
0.0
 11
287.2191281842
 21
256.4272956888
 31
0.0
  0
LINE
  5
1B7
330
1F
100
AcDbEntity
  8
0
  6
SLD-Сплошная
 62
     7
370
    25
100
AcDbLine
 10
284.4425076757
 20
271.4272956888
 30
0.0
 11
280.2066317947
 21
271.4272956888
 31
0.0
  0
LINE
  5
1B8
330
1F
100
AcDbEntity
  8
0
  6
SLD-Сплошная
 62
     7
370
    25
100
AcDbLine
 10
287.2191281842
 20
258.4272956888
 30
0.0
 11
284.4425076757
 21
271.4272956888
 31
0.0
  0
SPLINE
  5
1B9
330
1F
100
AcDbEntity
  8
0
  6
SLD-Сплошная
 62
     7
370
    25
100
AcDbSpline
210
0.0
220
0.0
230
1.0
 70
     8
 71
     3
 72
    38
 73
    34
 74
     0
 42
0.00000001
 43
0.00000001
 40
0.0
 40
0.0
 40
0.0
 40
0.0
 40
0.0625
 40
0.0625
 40
0.125
 40
0.125
 40
0.1875000000000001
 40
0.1875000000000001
 40
0.2500000000000001
 40
0.2500000000000001
 40
0.3125
 40
0.3125
 40
0.3749999999999999
 40
0.3749999999999999
 40
0.4374999999999999
 40
0.4374999999999999
 40
0.4999999999999999
 40
0.4999999999999999
 40
0.5624999999999999
 40
0.5624999999999999
 40
0.6249999999999999
 40
0.6249999999999999
 40
0.6874999999999999
 40
0.6874999999999999
 40
0.7499999999999999
 40
0.7499999999999999
 40
0.8125
 40
0.8125
 40
0.875
 40
0.875
 40
0.9375
 40
0.9375
 40
1.0
 40
1.0
 40
1.0
 40
1.0
 10
246.3959014038723
 20
257.427295688817
 30
0.0
 10
246.3959014038723
 20
256.833545688817
 30
0.0
 10
246.3577747985126
 20
256.2023172253508
 30
0.0
 10
246.172918530102
 20
254.8690883115752
 30
0.0
 10
246.0261007522298
 20
254.166895688817
 30
0.0
 10
245.5854872098473
 20
252.707695688817
 30
0.0
 10
245.2914521495471
 20
251.950493517374
 30
0.0
 10
244.5166614416224
 20
250.4153338153162
 30
0.0
 10
244.0354717125373
 20
249.637295688817
 30
0.0
 10
242.8552568668698
 20
248.117295688817
 30
0.0
 10
242.1556693279339
 20
247.375550520868
 30
0.0
 10
240.5315543216985
 20
246.0064381170399
 30
0.0
 10
239.6066031999892
 20
245.3797178341457
 30
0.0
 10
237.5647090033327
 20
244.3278147199589
 30
0.0
 10
236.4478774532608
 20
243.9035678781661
 30
0.0
 10
234.1014148015195
 20
243.327946576391
 30
0.0
 10
232.8726062972656
 20
243.177295688817
 30
0.0
 10
230.4138253687917
 20
243.177295688817
 30
0.0
 10
229.1850168645377
 20
243.327946576391
 30
0.0
 10
226.8385542127965
 20
243.9035678781661
 30
0.0
 10
225.7217226627245
 20
244.3278147199589
 30
0.0
 10
223.679828466068
 20
245.3797178341457
 30
0.0
 10
222.7548773443587
 20
246.0064381170399
 30
0.0
 10
221.1307623381233
 20
247.375550520868
 30
0.0
 10
220.4311747991874
 20
248.117295688817
 30
0.0
 10
219.2509599535199
 20
249.637295688817
 30
0.0
 10
218.7697702244348
 20
250.4153338153162
 30
0.0
 10
217.9949795165102
 20
251.950493517374
 30
0.0
 10
217.7009444562099
 20
252.707695688817
 30
0.0
 10
217.2603309138274
 20
254.166895688817
 30
0.0
 10
217.1135131359552
 20
254.8690883115752
 30
0.0
 10
216.9286568675446
 20
256.2023172253508
 30
0.0
 10
216.890530262185
 20
256.833545688817
 30
0.0
 10
216.8905302621849
 20
257.427295688817
 30
0.0
  0
SPLINE
  5
1BA
330
1F
100
AcDbEntity
  8
0
  6
SLD-Сплошная
 62
     7
370
    25
100
AcDbSpline
210
0.0
220
0.0
230
1.0
 70
     8
 71
     3
 72
    38
 73
    34
 74
     0
 42
0.00000001
 43
0.00000001
 40
0.0
 40
0.0
 40
0.0
 40
0.0
 40
0.0625
 40
0.0625
 40
0.125
 40
0.125
 40
0.1875000000000001
 40
0.1875000000000001
 40
0.2500000000000001
 40
0.2500000000000001
 40
0.3125
 40
0.3125
 40
0.3749999999999999
 40
0.3749999999999999
 40
0.4374999999999999
 40
0.4374999999999999
 40
0.4999999999999999
 40
0.4999999999999999
 40
0.5624999999999999
 40
0.5624999999999999
 40
0.6249999999999999
 40
0.6249999999999999
 40
0.6874999999999999
 40
0.6874999999999999
 40
0.7499999999999999
 40
0.7499999999999999
 40
0.8125
 40
0.8125
 40
0.875
 40
0.875
 40
0.9375
 40
0.9375
 40
1.0
 40
1.0
 40
1.0
 40
1.0
 10
216.8905302621849
 20
257.427295688817
 30
0.0
 10
216.8905302621849
 20
258.021045688817
 30
0.0
 10
216.9286568675446
 20
258.6522741522832
 30
0.0
 10
217.1135131359552
 20
259.9855030660588
 30
0.0
 10
217.2603309138274
 20
260.687695688817
 30
0.0
 10
217.7009444562099
 20
262.146895688817
 30
0.0
 10
217.9949795165102
 20
262.90409786026
 30
0.0
 10
218.7697702244348
 20
264.4392575623178
 30
0.0
 10
219.2509599535199
 20
265.217295688817
 30
0.0
 10
220.4311747991874
 20
266.737295688817
 30
0.0
 10
221.1307623381233
 20
267.4790408567659
 30
0.0
 10
222.7548773443587
 20
268.8481532605941
 30
0.0
 10
223.679828466068
 20
269.4748735434883
 30
0.0
 10
225.7217226627246
 20
270.5267766576751
 30
0.0
 10
226.8385542127965
 20
270.9510234994679
 30
0.0
 10
229.1850168645377
 20
271.526644801243
 30
0.0
 10
230.4138253687916
 20
271.677295688817
 30
0.0
 10
232.8726062972656
 20
271.677295688817
 30
0.0
 10
234.1014148015195
 20
271.526644801243
 30
0.0
 10
236.4478774532608
 20
270.9510234994679
 30
0.0
 10
237.5647090033327
 20
270.5267766576751
 30
0.0
 10
239.6066031999892
 20
269.4748735434883
 30
0.0
 10
240.5315543216986
 20
268.8481532605941
 30
0.0
 10
242.1556693279339
 20
267.4790408567659
 30
0.0
 10
242.8552568668698
 20
266.737295688817
 30
0.0
 10
244.0354717125373
 20
265.217295688817
 30
0.0
 10
244.5166614416224
 20
264.4392575623178
 30
0.0
 10
245.2914521495471
 20
262.90409786026
 30
0.0
 10
245.5854872098473
 20
262.146895688817
 30
0.0
 10
246.0261007522298
 20
260.687695688817
 30
0.0
 10
246.172918530102
 20
259.9855030660587
 30
0.0
 10
246.3577747985126
 20
258.6522741522832
 30
0.0
 10
246.3959014038723
 20
258.021045688817
 30
0.0
 10
246.3959014038723
 20
257.427295688817
 30
0.0
  0
LINE
  5
1BB
330
1F
100
AcDbEntity
  8
0
  6
SLD-Сплошная
 62
     7
370
    25
100
AcDbLine
 10
274.2066317947
 20
216.7772956888
 30
0.0
 11
272.3309874476
 21
216.7772956888
 31
0.0
  0
SPLINE
  5
1BC
330
1F
100
AcDbEntity
  8
0
  6
SLD-Сплошная
 62
     7
370
    25
100
AcDbSpline
210
0.0
220
0.0
230
1.0
 70
     8
 71
     3
 72
    15
 73
    11
 74
     0
 42
0.00000001
 43
0.00000001
 40
0.0
 40
0.0
 40
0.0
 40
0.0
 40
0.1250000000000001
 40
0.2500000000000001
 40
0.3750000000000002
 40
0.5000000000000002
 40
0.6250000000000002
 40
0.7500000000000003
 40
0.8750000000000001
 40
1.0
 40
1.0
 40
1.0
 40
1.0
 10
274.2066317947068
 20
216.777295688817
 30
0.0
 10
274.5465731943983
 20
216.777295688817
 30
0.0
 10
275.2316953782543
 20
216.9097498580442
 30
0.0
 10
276.1169822158903
 20
217.4917583171039
 30
0.0
 10
276.715647038087
 20
218.3760358298649
 30
0.0
 10
276.9272880532372
 20
219.4272956888196
 30
0.0
 10
276.7156470380875
 20
220.4785555477749
 30
0.0
 10
276.1169822158865
 20
221.3628330605339
 30
0.0
 10
275.2316953782527
 20
221.9448415195982
 30
0.0
 10
274.5465731943967
 20
222.077295688817
 30
0.0
 10
274.2066317947018
 20
222.077295688817
 30
0.0
  0
LINE
  5
1BD
330
1F
100
AcDbEntity
  8
0
  6
SLD-Сплошная
 62
     7
370
    25
100
AcDbLine
 10
272.3309874477
 20
222.0772956888
 30
0.0
 11
274.2066317947
 21
222.0772956888
 31
0.0
  0
SPLINE
  5
1BE
330
1F
100
AcDbEntity
  8
0
  6
SLD-Сплошная
 62
     7
370
    25
100
AcDbSpline
210
0.0
220
0.0
230
1.0
 70
     8
 71
     3
 72
    15
 73
    11
 74
     0
 42
0.00000001
 43
0.00000001
 40
0.0
 40
0.0
 40
0.0
 40
0.0
 40
0.125
 40
0.25
 40
0.375
 40
0.5
 40
0.625
 40
0.75
 40
0.875
 40
1.0
 40
1.0
 40
1.0
 40
1.0
 10
272.330987447684
 20
222.077295688817
 30
0.0
 10
271.9910460482557
 20
222.077295688817
 30
0.0
 10
271.3059238646368
 20
221.9448415197485
 30
0.0
 10
270.4206370270061
 20
221.3628330610588
 30
0.0
 10
269.8219722045249
 20
220.4785555483549
 30
0.0
 10
269.6103311891312
 20
219.4272956893317
 30
0.0
 10
269.8219722041263
 20
218.3760358302258
 30
0.0
 10
270.4206370262771
 20
217.4917583172896
 30
0.0
 10
271.3059238639811
 20
216.9097498580764
 30
0.0
 10
271.9910460479314
 20
216.777295688817
 30
0.0
 10
272.3309874476161
 20
216.777295688817
 30
0.0
  0
SPLINE
  5
1BF
330
1F
100
AcDbEntity
  8
0
  6
SLD-Сплошная
 62
     7
370
    25
100
AcDbSpline
210
0.0
220
0.0
230
1.0
 70
     8
 71
     3
 72
    15
 73
    11
 74
     0
 42
0.00000001
 43
0.00000001
 40
0.0
 40
0.0
 40
0.0
 40
0.0
 40
0.125
 40
0.25
 40
0.375
 40
0.5
 40
0.625
 40
0.75
 40
0.875
 40
1.0
 40
1.0
 40
1.0
 40
1.0
 10
162.2066317947473
 20
216.777295688817
 30
0.0
 10
162.5465731944101
 20
216.777295688817
 30
0.0
 10
163.2316953782761
 20
216.9097498580512
 30
0.0
 10
164.1169822159127
 20
217.4917583171268
 30
0.0
 10
164.7156470380964
 20
218.3760358298898
 30
0.0
 10
164.9272880532367
 20
219.427295688841
 30
0.0
 10
164.7156470380803
 20
220.4785555477894
 30
0.0
 10
164.1169822158819
 20
221.3628330605449
 30
0.0
 10
163.2316953782472
 20
221.9448415195995
 30
0.0
 10
162.546573194395
 20
222.077295688817
 30
0.0
 10
162.2066317947018
 20
222.077295688817
 30
0.0
  0
LINE
  5
1C0
330
1F
100
AcDbEntity
  8
0
  6
SLD-Сплошная
 62
     7
370
    25
100
AcDbLine
 10
162.2066317947
 20
222.0772956888
 30
0.0
 11
160.3309874477
 21
222.0772956888
 31
0.0
  0
SPLINE
  5
1C1
330
1F
100
AcDbEntity
  8
0
  6
SLD-Сплошная
 62
     7
370
    25
100
AcDbSpline
210
0.0
220
0.0
230
1.0
 70
     8
 71
     3
 72
    15
 73
    11
 74
     0
 42
0.00000001
 43
0.00000001
 40
0.0
 40
0.0
 40
0.0
 40
0.0
 40
0.125
 40
0.25
 40
0.375
 40
0.5
 40
0.625
 40
0.75
 40
0.875
 40
1.0
 40
1.0
 40
1.0
 40
1.0
 10
160.3309874476838
 20
222.077295688817
 30
0.0
 10
159.9910460479512
 20
222.077295688817
 30
0.0
 10
159.3059238640202
 20
221.94484151956
 30
0.0
 10
158.4206370263193
 20
221.3628330603765
 30
0.0
 10
157.8219722041489
 20
220.4785555474469
 30
0.0
 10
157.6103311891354
 20
219.4272956883381
 30
0.0
 10
157.8219722045174
 20
218.3760358293053
 30
0.0
 10
158.4206370269944
 20
217.4917583165889
 30
0.0
 10
159.3059238646285
 20
216.909749857889
 30
0.0
 10
159.991046048253
 20
216.777295688817
 30
0.0
 10
160.3309874477752
 20
216.777295688817
 30
0.0
  0
LINE
  5
1C2
330
1F
100
AcDbEntity
  8
0
  6
SLD-Сплошная
 62
     7
370
    25
100
AcDbLine
 10
160.3309874478
 20
216.7772956888
 30
0.0
 11
162.2066317947
 21
216.7772956888
 31
0.0
  0
SPLINE
  5
1C3
330
1F
100
AcDbEntity
  8
0
  6
SLD-Сплошная
 62
     7
370
    25
100
AcDbSpline
210
0.0
220
0.0
230
1.0
 70
     8
 71
     3
 72
    28
 73
    24
 74
     0
 42
0.00000001
 43
0.00000001
 40
0.0
 40
0.0
 40
0.0
 40
0.0
 40
0.0207510104811322
 40
0.0413180931863008
 40
0.0617869995021313
 40
0.0822447154128321
 40
0.1027783691196473
 40
0.1234741297621452
 40
0.1858319500769852
 40
0.2481887377492503
 40
0.3110287356920071
 40
0.37386262855605
 40
0.4369474764796953
 40
0.5000321277272505
 40
0.5631121921486472
 40
0.6262016342674366
 40
0.6890318258523314
 40
0.751875552717715
 40
0.8142297173605102
 40
0.8765901761323165
 40
0.9177972864982259
 40
0.9587020923555095
 40
1.0
 40
1.0
 40
1.0
 40
1.0
 10
162.2066317947019
 20
298.077295688817
 30
0.0
 10
162.2641580207263
 20
298.076236702065
 30
0.0
 10
162.3787005857593
 20
298.0741281149512
 30
0.0
 10
162.5492920143904
 20
298.0571326501518
 30
0.0
 10
162.7176559432745
 20
298.0299676453604
 30
0.0
 10
162.8837784653597
 20
297.9916712464239
 30
0.0
 10
163.0476693955709
 20
297.9424879923653
 30
0.0
 10
163.3168882058248
 20
297.8423942280415
 30
0.0
 10
163.6765423146079
 20
297.6540222819369
 30
0.0
 10
164.0818439585807
 20
297.3233718899991
 30
0.0
 10
164.4180194743899
 20
296.9206314145524
 30
0.0
 10
164.6669522345018
 20
296.4565929056347
 30
0.0
 10
164.8229052636557
 20
295.9528633529516
 30
0.0
 10
164.8736575512853
 20
295.4273083343606
 30
0.0
 10
164.8229082526878
 20
294.9017411111938
 30
0.0
 10
164.6669615864584
 20
294.3980188525207
 30
0.0
 10
164.4180239534186
 20
293.933971367689
 30
0.0
 10
164.0818681495129
 20
293.5312183902456
 30
0.0
 10
163.6765045902116
 20
293.2006232728505
 30
0.0
 10
163.2663060378588
 20
292.9854650117007
 30
0.0
 10
162.8858681918084
 20
292.858156082453
 30
0.0
 10
162.5491896046289
 20
292.7897592354108
 30
0.0
 10
162.3211811845427
 20
292.781463428148
 30
0.0
 10
162.2066317947019
 20
292.777295688817
 30
0.0
  0
LINE
  5
1C4
330
1F
100
AcDbEntity
  8
0
  6
SLD-Сплошная
 62
     7
370
    25
100
AcDbLine
 10
160.3309874477
 20
298.0772956888
 30
0.0
 11
162.2066317947
 21
298.0772956888
 31
0.0
  0
SPLINE
  5
1C5
330
1F
100
AcDbEntity
  8
0
  6
SLD-Сплошная
 62
     7
370
    25
100
AcDbSpline
210
0.0
220
0.0
230
1.0
 70
     8
 71
     3
 72
    28
 73
    24
 74
     0
 42
0.00000001
 43
0.00000001
 40
0.0
 40
0.0
 40
0.0
 40
0.0
 40
0.0207510079021045
 40
0.0413180890598705
 40
0.0617869948538394
 40
0.0822447112491319
 40
0.1027783664150674
 40
0.1234741294474431
 40
0.1858319406690232
 40
0.2481887374445991
 40
0.31102872603451
 40
0.3738626282618484
 40
0.4369474666296731
 40
0.500032127446068
 40
0.5631121822348137
 40
0.6262016340021498
 40
0.6890318160688065
 40
0.7518755524731282
 40
0.8142297077743773
 40
0.8765901759060994
 40
0.9177972822717745
 40
0.9587020881342628
 40
1.0
 40
1.0
 40
1.0
 40
1.0
 10
160.330987447684
 20
292.777295688817
 30
0.0
 10
160.2734612288101
 20
292.7783546756027
 30
0.0
 10
160.1589186752185
 20
292.7804632628353
 30
0.0
 10
159.9883272595581
 20
292.797458727911
 30
0.0
 10
159.8199633352089
 20
292.8246237329286
 30
0.0
 10
159.6538408090916
 20
292.8629201318859
 30
0.0
 10
159.4899498667455
 20
292.9121033867336
 30
0.0
 10
159.2207310641989
 20
293.0121971305439
 30
0.0
 10
158.8610769514702
 20
293.2005690836807
 30
0.0
 10
158.4557753202218
 20
293.5312194505049
 30
0.0
 10
158.1195997838738
 20
293.933959940577
 30
0.0
 10
157.8706670281801
 20
294.3979984231264
 30
0.0
 10
157.7147139845052
 20
294.9017279971661
 30
0.0
 10
157.6639616910562
 20
295.4272829897183
 30
0.0
 10
157.7147109841436
 20
295.9528502387693
 30
0.0
 10
157.8706576353903
 20
296.456572475859
 30
0.0
 10
158.1195952730968
 20
296.920619987224
 30
0.0
 10
158.4557510558035
 20
297.3233729500376
 30
0.0
 10
158.861114628885
 20
297.6539680916603
 30
0.0
 10
159.2713131717356
 20
297.8691263471142
 30
0.0
 10
159.6517510249387
 20
297.9964353013851
 30
0.0
 10
159.9884296144499
 20
298.0648321436056
 30
0.0
 10
160.2164380461763
 20
298.0731279498073
 30
0.0
 10
160.330987447684
 20
298.077295688817
 30
0.0
  0
LINE
  5
1C6
330
1F
100
AcDbEntity
  8
0
  6
SLD-Сплошная
 62
     7
370
    25
100
AcDbLine
 10
162.2066317947
 20
292.7772956888
 30
0.0
 11
160.3309874477
 21
292.7772956888
 31
0.0
  0
SPLINE
  5
1C7
330
1F
100
AcDbEntity
  8
0
  6
SLD-Сплошная
 62
     7
370
    25
100
AcDbSpline
210
0.0
220
0.0
230
1.0
 70
     8
 71
     3
 72
    15
 73
    11
 74
     0
 42
0.00000001
 43
0.00000001
 40
0.0
 40
0.0
 40
0.0
 40
0.0
 40
0.125
 40
0.25
 40
0.375
 40
0.5
 40
0.625
 40
0.75
 40
0.875
 40
1.0
 40
1.0
 40
1.0
 40
1.0
 10
272.3309874476387
 20
298.0772956888169
 30
0.0
 10
271.9910460479712
 20
298.0772956888169
 30
0.0
 10
271.3059238640972
 20
297.9448415195801
 30
0.0
 10
270.4206370264544
 20
297.3628330604918
 30
0.0
 10
269.8219722042725
 20
296.4785555477115
 30
0.0
 10
269.6103311891465
 20
295.4272956887444
 30
0.0
 10
269.8219722043264
 20
294.3760358297877
 30
0.0
 10
270.4206370265539
 20
293.4917583170371
 30
0.0
 10
271.305923864188
 20
292.9097498580192
 30
0.0
 10
271.991046048017
 20
292.777295688817
 30
0.0
 10
272.3309874477759
 20
292.777295688817
 30
0.0
  0
LINE
  5
1C8
330
1F
100
AcDbEntity
  8
0
  6
SLD-Сплошная
 62
     7
370
    25
100
AcDbLine
 10
272.3309874478
 20
292.7772956888
 30
0.0
 11
274.2066317947
 21
292.7772956888
 31
0.0
  0
SPLINE
  5
1C9
330
1F
100
AcDbEntity
  8
0
  6
SLD-Сплошная
 62
     7
370
    25
100
AcDbSpline
210
0.0
220
0.0
230
1.0
 70
     8
 71
     3
 72
    15
 73
    11
 74
     0
 42
0.00000001
 43
0.00000001
 40
0.0
 40
0.0
 40
0.0
 40
0.0
 40
0.125
 40
0.25
 40
0.375
 40
0.5
 40
0.625
 40
0.75
 40
0.875
 40
1.0
 40
1.0
 40
1.0
 40
1.0
 10
274.2066317947018
 20
292.777295688817
 30
0.0
 10
274.5465731944346
 20
292.777295688817
 30
0.0
 10
275.2316953783657
 20
292.909749858074
 30
0.0
 10
276.1169822160665
 20
293.4917583172575
 30
0.0
 10
276.7156470382369
 20
294.3760358301869
 30
0.0
 10
276.9272880532505
 20
295.4272956892958
 30
0.0
 10
276.7156470378684
 20
296.4785555483286
 30
0.0
 10
276.1169822153917
 20
297.3628330610451
 30
0.0
 10
275.2316953777571
 20
297.9448415197448
 30
0.0
 10
274.546573194133
 20
298.0772956888169
 30
0.0
 10
274.2066317947018
 20
298.0772956888169
 30
0.0
  0
LINE
  5
1CA
330
1F
100
AcDbEntity
  8
0
  6
SLD-Сплошная
 62
     7
370
    25
100
AcDbLine
 10
274.2066317947
 20
298.0772956888
 30
0.0
 11
272.3309874476
 21
298.0772956888
 31
0.0
  0
LINE
  5
1CB
330
1F
100
AcDbEntity
  8
0
  6
SLD-Сплошная
 62
     7
370
    25
100
AcDbLine
 10
160.5426445301
 20
301.4272956888
 30
0.0
 11
274.2066317947
 21
301.4272956888
 31
0.0
  0
ARC
  5
1CC
330
1F
100
AcDbEntity
  8
0
  6
SLD-Сплошная
 62
     7
370
    25
100
AcDbCircle
 10
274.2066317947
 20
295.4272956888
 30
0.0
 40
6.0
100
AcDbArc
 50
0.0
 51
90.0
  0
LINE
  5
1CD
330
1F
100
AcDbEntity
  8
0
  6
SLD-Сплошная
 62
     7
370
    25
100
AcDbLine
 10
280.2066317947
 20
219.4272956888
 30
0.0
 11
280.2066317947
 21
295.4272956888
 31
0.0
  0
ARC
  5
1CE
330
1F
100
AcDbEntity
  8
0
  6
SLD-Сплошная
 62
     7
370
    25
100
AcDbCircle
 10
274.2066317947
 20
219.4272956888
 30
0.0
 40
6.0
100
AcDbArc
 50
270.0
 51
0.0
  0
LINE
  5
1CF
330
1F
100
AcDbEntity
  8
0
  6
SLD-Сплошная
 62
     7
370
    25
100
AcDbLine
 10
274.2066317947
 20
213.4272956888
 30
0.0
 11
160.5426445301
 21
213.4272956888
 31
0.0
  0
SPLINE
  5
1D0
330
1F
100
AcDbEntity
  8
0
  6
SLD-Сплошная
 62
     7
370
    25
100
AcDbSpline
210
0.0
220
0.0
230
1.0
 70
     8
 71
     3
 72
    22
 73
    18
 74
     0
 42
0.00000001
 43
0.00000001
 40
0.0
 40
0.0
 40
0.0
 40
0.0
 40
0.125
 40
0.125
 40
0.25
 40
0.25
 40
0.375
 40
0.375
 40
0.5
 40
0.5
 40
0.625
 40
0.625
 40
0.75
 40
0.75
 40
0.875
 40
0.875
 40
1.0
 40
1.0
 40
1.0
 40
1.0
 10
154.3309874476838
 20
219.427295688817
 30
0.0
 10
154.3309874476839
 20
219.0737422982237
 30
0.0
 10
154.3635262646073
 20
218.7069672610426
 30
0.0
 10
154.5058512837889
 20
217.9640674876456
 30
0.0
 10
154.615762226209
 20
217.5880182825974
 30
0.0
 10
154.918474663113
 20
216.8494365802941
 30
0.0
 10
155.1113475811508
 20
216.4870537891567
 30
0.0
 10
155.57568328864
 20
215.8010205478555
 30
0.0
 10
155.8471143118899
 20
215.4775482205111
 30
0.0
 10
156.4535650575723
 20
214.8917617828842
 30
0.0
 10
156.7884482530938
 20
214.6295795474711
 30
0.0
 10
157.4986821267825
 20
214.1810656955391
 30
0.0
 10
157.8738483986375
 20
213.9947647628146
 30
0.0
 10
158.6384844423188
 20
213.7023670020702
 30
0.0
 10
159.0277992269673
 20
213.5962011841949
 30
0.0
 10
159.7969056667974
 20
213.4587257724402
 30
0.0
 10
160.17661912636
 20
213.427295688817
 30
0.0
 10
160.5426445301444
 20
213.427295688817
 30
0.0
  0
LINE
  5
1D1
330
1F
100
AcDbEntity
  8
0
  6
SLD-Сплошная
 62
     7
370
    25
100
AcDbLine
 10
154.3309874477
 20
219.4272956888
 30
0.0
 11
154.3309874477
 21
295.4272956888
 31
0.0
  0
SPLINE
  5
1D2
330
1F
100
AcDbEntity
  8
0
  6
SLD-Сплошная
 62
     7
370
    25
100
AcDbSpline
210
0.0
220
0.0
230
1.0
 70
     8
 71
     3
 72
    22
 73
    18
 74
     0
 42
0.00000001
 43
0.00000001
 40
0.0
 40
0.0
 40
0.0
 40
0.0
 40
0.1249999999999991
 40
0.1249999999999991
 40
0.2499999999999982
 40
0.2499999999999982
 40
0.3749999999999973
 40
0.3749999999999973
 40
0.4999999999999964
 40
0.4999999999999964
 40
0.6249999999999956
 40
0.6249999999999956
 40
0.749999999999997
 40
0.749999999999997
 40
0.8749999999999984
 40
0.8749999999999984
 40
1.0
 40
1.0
 40
1.0
 40
1.0
 10
160.5426445301444
 20
301.427295688817
 30
0.0
 10
160.17661912636
 20
301.427295688817
 30
0.0
 10
159.7969056667975
 20
301.3958656051938
 30
0.0
 10
159.0277992269674
 20
301.2583901934391
 30
0.0
 10
158.6384844423189
 20
301.1522243755638
 30
0.0
 10
157.8738483986376
 20
300.8598266148194
 30
0.0
 10
157.4986821267826
 20
300.6735256820949
 30
0.0
 10
156.7884482530939
 20
300.2250118301629
 30
0.0
 10
156.4535650575724
 20
299.9628295947497
 30
0.0
 10
155.84711431189
 20
299.3770431571228
 30
0.0
 10
155.57568328864
 20
299.0535708297784
 30
0.0
 10
155.1113475811509
 20
298.3675375884772
 30
0.0
 10
154.918474663113
 20
298.0051547973399
 30
0.0
 10
154.6157622262091
 20
297.2665730950366
 30
0.0
 10
154.505851283789
 20
296.8905238899884
 30
0.0
 10
154.3635262646073
 20
296.1476241165914
 30
0.0
 10
154.3309874476838
 20
295.7808490794102
 30
0.0
 10
154.3309874476838
 20
295.427295688817
 30
0.0
  0
LINE
  5
1D3
330
1F
100
AcDbEntity
  8
0
  6
SLD-Сплошная
 62
     7
370
    25
100
AcDbLine
 10
162.3179607838
 20
292.8029552903
 30
0.0
 11
161.3225395691
 21
292.9291201672
 31
0.0
  0
SPLINE
  5
1D4
330
1F
100
AcDbEntity
  8
0
  6
SLD-Сплошная
 62
     7
370
    25
100
AcDbSpline
210
0.0
220
0.0
230
1.0
 70
     8
 71
     3
 72
    14
 73
    10
 74
     0
 42
0.00000001
 43
0.00000001
 40
0.0
 40
0.0
 40
0.0
 40
0.0
 40
0.1443023576537338
 40
0.286675344366154
 40
0.4281614352687717
 40
0.5694543666440988
 40
0.711339755614529
 40
0.8548162742769684
 40
1.0
 40
1.0
 40
1.0
 40
1.0
 10
161.3225395690954
 20
292.9291201672368
 30
0.0
 10
161.0116330565195
 20
293.0808944941949
 30
0.0
 10
160.3939769557631
 20
293.382413874433
 30
0.0
 10
159.7725630331905
 20
294.2306439258684
 30
0.0
 10
159.4986003372976
 20
295.2196607610785
 30
0.0
 10
159.6180408646307
 20
296.2459495409079
 30
0.0
 10
160.1104689351856
 20
297.1497595157718
 30
0.0
 10
160.9147937559102
 20
297.8391234088636
 30
0.0
 10
161.5924848829372
 20
297.982627901082
 30
0.0
 10
161.9333344617238
 20
298.0548045074678
 30
0.0
  0
SPLINE
  5
1D5
330
1F
100
AcDbEntity
  8
0
  6
SLD-Сплошная
 62
     7
370
    25
100
AcDbSpline
210
0.0
220
0.0
230
1.0
 70
     8
 71
     3
 72
     9
 73
     5
 74
     0
 42
0.00000001
 43
0.00000001
 40
0.0
 40
0.0
 40
0.0
 40
0.0
 40
0.5617052494494102
 40
1.0
 40
1.0
 40
1.0
 40
1.0
 10
161.3225395690954
 20
216.9291201672368
 30
0.0
 10
161.5046954853489
 20
216.8739816693847
 30
0.0
 10
161.8289864127208
 20
216.7758189801342
 30
0.0
 10
162.1669501064529
 20
216.7855430032316
 30
0.0
 10
162.3150778192924
 20
216.7898049915095
 30
0.0
  0
SPLINE
  5
1D6
330
1F
100
AcDbEntity
  8
0
  6
SLD-Сплошная
 62
     7
370
    25
100
AcDbSpline
210
0.0
220
0.0
230
1.0
 70
     8
 71
     3
 72
    15
 73
    11
 74
     0
 42
0.00000001
 43
0.00000001
 40
0.0
 40
0.0
 40
0.0
 40
0.0
 40
0.1445020582096068
 40
0.2870720754144503
 40
0.4287539694311758
 40
0.5702424366064447
 40
0.7123241812810241
 40
0.8559992576177382
 40
0.9319313040665602
 40
1.0
 40
1.0
 40
1.0
 40
1.0
 10
273.3225395690955
 20
221.9254712103972
 30
0.0
 10
273.0116308206694
 20
221.7736862596133
 30
0.0
 10
272.3939702781065
 20
221.4721457737677
 30
0.0
 10
271.7725892595404
 20
220.6240720684203
 30
0.0
 10
271.498502685012
 20
219.6344666137011
 30
0.0
 10
271.618405611527
 20
218.610374961555
 30
0.0
 10
272.1090947202948
 20
217.6983021669613
 30
0.0
 10
272.78938121937
 20
217.1462660966929
 30
0.0
 10
273.4192351830046
 20
216.8726439052381
 30
0.0
 10
273.7572250867783
 20
216.822276534205
 30
0.0
 10
273.9169918463653
 20
216.7984680370605
 30
0.0
  0
SPLINE
  5
1D7
330
1F
100
AcDbEntity
  8
0
  6
SLD-Сплошная
 62
     7
370
    25
100
AcDbSpline
210
0.0
220
0.0
230
1.0
 70
     8
 71
     3
 72
    15
 73
    11
 74
     0
 42
0.00000001
 43
0.00000001
 40
0.0
 40
0.0
 40
0.0
 40
0.0
 40
0.0679050821900308
 40
0.143994023837969
 40
0.2876702278478303
 40
0.4297530876898459
 40
0.5712426653760448
 40
0.7129256714218644
 40
0.855496807626486
 40
1.0
 40
1.0
 40
1.0
 40
1.0
 10
161.9169342040693
 20
222.0561229763371
 30
0.0
 10
161.7575524685219
 20
222.0323917167275
 30
0.0
 10
161.4195804539453
 20
221.9820691274349
 30
0.0
 10
160.7896721933913
 20
221.7085591246815
 30
0.0
 10
160.1090957119164
 20
221.1562907670159
 30
0.0
 10
159.6184053483284
 20
220.2442160029907
 30
0.0
 10
159.4985027554773
 20
219.2201248745269
 30
0.0
 10
159.7725892406157
 20
218.2305192795112
 30
0.0
 10
160.3939702829253
 20
217.382445611429
 30
0.0
 10
161.0116308222828
 20
217.0809051205529
 30
0.0
 10
161.3225395690954
 20
216.9291201672368
 30
0.0
  0
SPLINE
  5
1D8
330
1F
100
AcDbEntity
  8
0
  6
SLD-Сплошная
 62
     7
370
    25
100
AcDbSpline
210
0.0
220
0.0
230
1.0
 70
     8
 71
     3
 72
     9
 73
     5
 74
     0
 42
0.00000001
 43
0.00000001
 40
0.0
 40
0.0
 40
0.0
 40
0.0
 40
0.4382851994153012
 40
1.0
 40
1.0
 40
1.0
 40
1.0
 10
274.3150965646367
 20
222.0648328566116
 30
0.0
 10
274.1669571535743
 20
222.0691864949698
 30
0.0
 10
273.8289594040266
 20
222.0791198405719
 30
0.0
 10
273.5046877542084
 20
221.9807352762986
 30
0.0
 10
273.3225395690955
 20
221.9254712103972
 30
0.0
  0
SPLINE
  5
1D9
330
1F
100
AcDbEntity
  8
0
  6
SLD-Сплошная
 62
     7
370
    25
100
AcDbSpline
210
0.0
220
0.0
230
1.0
 70
     8
 71
     3
 72
    14
 73
    10
 74
     0
 42
0.00000001
 43
0.00000001
 40
0.0
 40
0.0
 40
0.0
 40
0.0
 40
0.1443023576522372
 40
0.2866753443632573
 40
0.4281614352644502
 40
0.5694543666383494
 40
0.7113397556073523
 40
0.8548162742683346
 40
1.0
 40
1.0
 40
1.0
 40
1.0
 10
273.3225395690955
 20
292.9291201672368
 30
0.0
 10
273.0116330565197
 20
293.0808944941948
 30
0.0
 10
272.3939769557632
 20
293.3824138744329
 30
0.0
 10
271.7725630331905
 20
294.2306439258682
 30
0.0
 10
271.4986003372978
 20
295.2196607610785
 30
0.0
 10
271.6180408646307
 20
296.2459495409077
 30
0.0
 10
272.1104689351853
 20
297.1497595157725
 30
0.0
 10
272.9147937559303
 20
297.8391234088768
 30
0.0
 10
273.5924848829818
 20
297.9826279010985
 30
0.0
 10
273.9333344617925
 20
298.0548045074884
 30
0.0
  0
ARC
  5
1DA
330
1F
100
AcDbEntity
  8
0
  6
SLD-Сплошная
 62
     7
370
    25
100
AcDbCircle
 10
233.8180956006
 20
257.2108031048
 30
0.0
 40
14.05592221042439
100
AcDbArc
 50
179.1174821786
 51
264.5461594397
  0
ARC
  5
1DB
330
1F
100
AcDbEntity
  8
0
  6
SLD-Сплошная
 62
     7
370
    25
100
AcDbCircle
 10
233.7924216842
 20
257.6609706304
 30
0.0
 40
14.03052699455801
100
AcDbArc
 50
93.8080091463
 51
180.9542910946
  0
LINE
  5
1DC
330
1F
100
AcDbEntity
  8
0
  6
SLD-Сплошная
 62
     7
370
    25
100
AcDbLine
 10
274.3179607834
 20
292.8029552903
 30
0.0
 11
273.3225395691
 21
292.9291201672
 31
0.0
  0
ARC
  5
1DD
330
1F
100
AcDbEntity
  8
0
  6
SLD-Сплошная
 62
     7
370
    25
100
AcDbCircle
 10
233.5282837483
 20
257.0849848765
 30
0.0
 40
12.27203305815309
100
AcDbArc
 50
178.4016088501
 51
1.5983911499
  0
ARC
  5
1DE
330
1F
100
AcDbEntity
  8
0
  6
SLD-Сплошная
 62
     7
370
    25
100
AcDbCircle
 10
233.5282837483
 20
257.7696065011
 30
0.0
 40
12.27203305815309
100
AcDbArc
 50
358.4016088501
 51
181.5983911499
  0
ARC
  5
1DF
330
1F
100
AcDbEntity
  8
0
  6
SLD-Сплошная
 62
     7
370
    25
100
AcDbCircle
 10
234.1425410618
 20
257.2168787564
 30
0.0
 40
12.49505857717177
100
AcDbArc
 50
179.0350927943
 51
268.0730813955
  0
ARC
  5
1E0
330
1F
100
AcDbEntity
  8
0
  6
SLD-Сплошная
 62
     7
370
    25
100
AcDbCircle
 10
234.1425410618
 20
257.6377126212
 30
0.0
 40
12.49505857717193
100
AcDbArc
 50
91.9269186045
 51
180.9649072057
  0
ARC
  5
1E1
330
1F
100
AcDbEntity
  8
0
  6
SLD-Сплошная
 62
     7
370
    25
100
AcDbCircle
 10
233.9165123159
 20
257.7315664597
 30
0.0
 40
11.16059172562954
100
AcDbArc
 50
358.4377538599
 51
181.5622461401
  0
ARC
  5
1E2
330
1F
100
AcDbEntity
  8
0
  6
SLD-Сплошная
 62
     7
370
    25
100
AcDbCircle
 10
233.9165123159
 20
257.1230249179
 30
0.0
 40
11.16059172562954
100
AcDbArc
 50
178.4377538599
 51
1.5622461401
  0
ARC
  5
1E3
330
1F
100
AcDbEntity
  8
0
  6
SLD-Сплошная
 62
     7
370
    25
100
AcDbCircle
 10
235.3422390586
 20
257.2324297454
 30
0.0
 40
11.36739089557762
100
AcDbArc
 50
179.0177567447
 51
265.8759328667
  0
ARC
  5
1E4
330
1F
100
AcDbEntity
  8
0
  6
SLD-Сплошная
 62
     7
370
    25
100
AcDbCircle
 10
235.3422390586
 20
257.6221616322
 30
0.0
 40
11.36739089557781
100
AcDbArc
 50
94.1240671333
 51
180.9822432553
  0
LWPOLYLINE
  5
1E5
330
1F
100
AcDbEntity
  8
0
  6
SLD-Сплошная
 62
     7
370
    25
100
AcDbPolyline
 90
        3
 70
   128
 43
0.0
 10
154.3309874477
 20
278.4963908961
 10
154.3194253099
 20
278.4728598627
 10
153.8026168181
 20
277.2904084744
  0
LINE
  5
1E6
330
1F
100
AcDbEntity
  8
0
  6
SLD-Сплошная
 62
     7
370
    25
100
AcDbLine
 10
153.8026168181
 20
277.2904084744
 30
0.0
 11
154.3309874477
 21
277.2904084744
 31
0.0
  0
LWPOLYLINE
  5
1E7
330
1F
100
AcDbEntity
  8
0
  6
SLD-Сплошная
 62
     7
370
    25
100
AcDbPolyline
 90
       30
 70
   128
 43
0.0
 10
154.3309874477
 20
280.790580391
 10
153.770165139
 20
280.2632284608
 10
153.2162065602
 20
279.5224524946
 10
152.6829811519
 20
278.5815793668
 10
152.175317886
 20
277.4491297702
 10
151.6978142396
 20
276.1353593437
 10
151.2547945598
 20
274.6521657957
 10
150.8502709013
 20
273.0129811567
 10
150.487906693
 20
271.2326501366
 10
150.1709835614
 20
269.3272956888
 10
149.9023716113
 20
267.3141729983
 10
149.6845034342
 20
265.2115132158
 10
149.519352078
 20
263.0383583539
 10
149.408413179
 20
260.8143888397
 10
149.3526914171
 20
258.5597452854
 10
149.3526914171
 20
256.2948460922
 10
149.408413179
 20
254.0402025379
 10
149.519352078
 20
251.8162330237
 10
149.6845034342
 20
249.6430781619
 10
149.9023716113
 20
247.5404183794
 10
150.1709835614
 20
245.5272956888
 10
150.487906693
 20
243.621941241
 10
150.8502709013
 20
241.8416102209
 10
151.2547945598
 20
240.2024255819
 10
151.6978142396
 20
238.7192320339
 10
152.175317886
 20
237.4054616074
 10
152.6829811519
 20
236.2730120108
 10
153.2162065602
 20
235.332138883
 10
153.770165139
 20
234.5913629168
 10
154.3309874477
 20
234.0640109867
  0
LINE
  5
1E8
330
1F
100
AcDbEntity
  8
0
  6
SLD-Сплошная
 62
     7
370
    25
100
AcDbLine
 10
149.1731433405
 20
254.4272956888
 30
0.0
 11
148.8151353049
 21
254.4272956888
 31
0.0
  0
LWPOLYLINE
  5
1E9
330
1F
100
AcDbEntity
  8
0
  6
SLD-Сплошная
 62
     7
370
    25
100
AcDbPolyline
 90
       12
 70
   128
 43
0.0
 10
148.8151353049
 20
254.4272956888
 10
148.5963820509
 20
254.548816768
 10
148.3953508845
 20
254.9035350903
 10
148.2283281554
 20
255.462713487
 10
148.1088450516
 20
256.1810506498
 10
148.0465813837
 20
257.000351174
 10
148.0465813837
 20
257.8542402036
 10
148.1088450516
 20
258.6735407278
 10
148.2283281554
 20
259.3918778907
 10
148.3953508845
 20
259.9510562873
 10
148.5963820509
 20
260.3057746097
 10
148.8151353049
 20
260.4272956888
  0
LINE
  5
1EA
330
1F
100
AcDbEntity
  8
0
  6
SLD-Сплошная
 62
     7
370
    25
100
AcDbLine
 10
148.8151353049
 20
260.4272956888
 30
0.0
 11
149.1731433405
 21
260.4272956888
 31
0.0
  0
LWPOLYLINE
  5
1EB
330
1F
100
AcDbEntity
  8
0
  6
SLD-Сплошная
 62
     7
370
    25
100
AcDbPolyline
 90
       15
 70
   128
 43
0.0
 10
154.3309874477
 20
281.6559062985
 10
154.0453387776
 20
281.4229165798
 10
153.4707827221
 20
280.7899173287
 10
152.9140716037
 20
279.9520333659
 10
152.3800876483
 20
278.9166127371
 10
151.87351377
 20
277.6927358385
 10
151.3987925027
 20
276.2911357833
 10
150.9600870407
 20
274.7241042753
 10
150.561244728
 20
273.0053838132
 10
150.2057633181
 20
271.1500471723
 10
149.8967602995
 20
269.1743652198
 10
149.6369455564
 20
267.0956642229
 10
149.4285976029
 20
264.9321739019
 10
149.2735436019
 20
262.7028675593
 10
149.1731433405
 20
260.4272956888
  0
LWPOLYLINE
  5
1EC
330
1F
100
AcDbEntity
  8
0
  6
SLD-Сплошная
 62
     7
370
    25
100
AcDbPolyline
 90
       15
 70
   128
 43
0.0
 10
149.1731433405
 20
254.4272956888
 10
149.2775360483
 20
252.0818038228
 10
149.4399843823
 20
249.786140523
 10
149.6589740631
 20
247.5617050572
 10
149.9324637553
 20
245.429232735
 10
150.2579040959
 20
243.4086016222
 10
150.6322614584
 20
241.5186472448
 10
151.0520462313
 20
239.776987012
 10
151.5133453464
 20
238.1998559932
 10
152.0118587554
 20
236.8019555817
 10
152.5429395129
 20
235.5963164535
 10
153.1016370937
 20
234.5941771011
 10
153.6827435394
 20
233.804879072
 10
154.2808420049
 20
233.235779891
 10
154.3309874477
 20
233.1986850792
  0
LINE
  5
1ED
330
1F
100
AcDbEntity
  8
0
  6
SLD-Сплошная
 62
     7
370
    25
100
AcDbLine
 10
148.8151353049
 20
260.4272956888
 30
0.0
 11
136.9342476415
 21
260.4272956888
 31
0.0
  0
LINE
  5
1EE
330
1F
100
AcDbEntity
  8
0
  6
SLD-Сплошная
 62
     7
370
    25
100
AcDbLine
 10
148.8151353049
 20
254.4272956888
 30
0.0
 11
136.9342476415
 21
254.4272956888
 31
0.0
  0
LWPOLYLINE
  5
1EF
330
1F
100
AcDbEntity
  8
0
  6
SLD-Сплошная
 62
     7
370
    25
100
AcDbPolyline
 90
       12
 70
   128
 43
0.0
 10
136.9342476415
 20
254.4272956888
 10
136.7154943875
 20
254.548816768
 10
136.5144632212
 20
254.9035350903
 10
136.347440492
 20
255.462713487
 10
136.2279573882
 20
256.1810506498
 10
136.1656937203
 20
257.000351174
 10
136.1656937203
 20
257.8542402036
 10
136.2279573882
 20
258.6735407278
 10
136.347440492
 20
259.3918778907
 10
136.5144632212
 20
259.9510562873
 10
136.7154943875
 20
260.3057746097
 10
136.9342476415
 20
260.4272956888
  0
LINE
  5
1F0
330
1F
100
AcDbEntity
  8
0
  6
SLD-Сплошная
 62
     7
370
    25
100
AcDbLine
 10
143.6247199574
 20
232.7772956888
 30
0.0
 11
154.3309874477
 21
232.7772956888
 31
0.0
  0
LINE
  5
1F1
330
1F
100
AcDbEntity
  8
0
  6
SLD-Сплошная
 62
     7
370
    25
100
AcDbLine
 10
143.6247199574
 20
282.0772956888
 30
0.0
 11
153.1873856377
 21
282.0772956888
 31
0.0
  0
LWPOLYLINE
  5
1F2
330
1F
100
AcDbEntity
  8
0
  6
SLD-Сплошная
 62
     7
370
    25
100
AcDbPolyline
 90
       16
 70
   128
 43
0.0
 10
143.6247199574
 20
282.0772956888
 10
143.0094695889
 20
281.9624069013
 10
142.3999543415
 20
281.6188114866
 10
141.801855876
 20
281.0497123057
 10
141.2207494304
 20
280.2604142766
 10
140.6620518496
 20
279.2582749241
 10
140.130971092
 20
278.052635796
 10
139.632457683
 20
276.6547353844
 10
139.1711585679
 20
275.0776043657
 10
138.7513737951
 20
273.3359441328
 10
138.3770164326
 20
271.4459897555
 10
138.0515760919
 20
269.4253586427
 10
137.7780863997
 20
267.2928863205
 10
137.559096719
 20
265.0684508546
 10
137.396648385
 20
262.7727875548
 10
137.2922556771
 20
260.4272956888
  0
LWPOLYLINE
  5
1F3
330
1F
100
AcDbEntity
  8
0
  6
SLD-Сплошная
 62
     7
370
    25
100
AcDbPolyline
 90
       16
 70
   128
 43
0.0
 10
137.2922556771
 20
254.4272956888
 10
137.396648385
 20
252.0818038228
 10
137.559096719
 20
249.786140523
 10
137.7780863997
 20
247.5617050572
 10
138.0515760919
 20
245.429232735
 10
138.3770164326
 20
243.4086016222
 10
138.7513737951
 20
241.5186472448
 10
139.1711585679
 20
239.776987012
 10
139.632457683
 20
238.1998559932
 10
140.130971092
 20
236.8019555817
 10
140.6620518496
 20
235.5963164535
 10
141.2207494304
 20
234.5941771011
 10
141.801855876
 20
233.804879072
 10
142.3999543415
 20
233.235779891
 10
143.0094695889
 20
232.8921844764
 10
143.6247199574
 20
232.7772956888
  0
LINE
  5
1F4
330
1F
100
AcDbEntity
  8
0
  6
SLD-Сплошная
 62
     7
370
    25
100
AcDbLine
 10
154.3309874477
 20
278.0434731437
 30
0.0
 11
153.9943877932
 21
277.2904084744
 31
0.0
  0
LINE
  5
1F5
330
1F
100
AcDbEntity
  8
0
  6
SLD-Сплошная
 62
     7
370
    25
100
AcDbLine
 10
284.4425076757
 20
243.4272956888
 30
0.0
 11
284.4425076757
 21
257.4272956888
 31
0.0
  0
LINE
  5
1F6
330
1F
100
AcDbEntity
  8
0
  6
SLD-Сплошная
 62
     7
370
    25
100
AcDbLine
 10
287.2191281842
 20
256.4272956888
 30
0.0
 11
287.2191281842
 21
257.4272956888
 31
0.0
  0
LINE
  5
1F7
330
1F
100
AcDbEntity
  8
0
  6
SLD-Сплошная
 62
     7
370
    25
100
AcDbLine
 10
284.4425076757
 20
257.4272956888
 30
0.0
 11
284.4425076757
 21
271.4272956888
 31
0.0
  0
LINE
  5
1F8
330
1F
100
AcDbEntity
  8
0
  6
SLD-Сплошная
 62
     7
370
    25
100
AcDbLine
 10
287.2191281842
 20
257.4272956888
 30
0.0
 11
287.2191281842
 21
258.4272956888
 31
0.0
  0
LINE
  5
1F9
330
1F
100
AcDbEntity
  8
0
  6
SLD-Сплошная
 62
     7
370
    25
100
AcDbLine
 10
153.197044896
 20
9.694047248
 30
0.0
 11
155.5056076208
 21
9.694047248
 31
0.0
  0
LINE
  5
1FA
330
1F
100
AcDbEntity
  8
0
  6
SLD-Сплошная
 62
     7
370
    25
100
AcDbLine
 10
173.3269391158
 20
10.544047248
 30
0.0
 11
175.0173093118
 21
10.544047248
 31
0.0
  0
LINE
  5
1FB
330
1F
100
AcDbEntity
  8
0
  6
SLD-Сплошная
 62
     7
370
    25
100
AcDbLine
 10
157.1665424191
 20
10.544047248
 30
0.0
 11
157.1959778168
 21
10.544047248
 31
0.0
  0
LINE
  5
1FC
330
1F
100
AcDbEntity
  8
0
  6
SLD-Сплошная
 62
     7
370
    25
100
AcDbLine
 10
175.0173093118
 20
9.694047248
 30
0.0
 11
177.3258720367
 21
9.694047248
 31
0.0
  0
SPLINE
  5
1FD
330
1F
100
AcDbEntity
  8
0
  6
SLD-Сплошная
 62
     7
370
    25
100
AcDbSpline
210
0.0
220
0.0
230
1.0
 70
     8
 71
     3
 72
    11
 73
     7
 74
     0
 42
0.00000001
 43
0.00000001
 40
0.0
 40
0.0
 40
0.0
 40
0.0
 40
0.2449830170838134
 40
0.4941384249614532
 40
0.7462879793377988
 40
1.0
 40
1.0
 40
1.0
 40
1.0
 10
147.7858611601951
 20
32.34315192844016
 30
0.0
 10
147.8743538653383
 20
32.26693983151448
 30
0.0
 10
148.0528464256005
 20
32.1132176429883
 30
0.0
 10
148.3675355789298
 20
31.95701583294157
 30
0.0
 10
148.7046610774568
 20
31.85756743257043
 30
0.0
 10
148.9378337919291
 20
31.85170890426505
 30
0.0
 10
149.0547802521293
 20
31.84877059242676
 30
0.0
  0
LINE
  5
1FE
330
1F
100
AcDbEntity
  8
0
  6
SLD-Сплошная
 62
     7
370
    25
100
AcDbLine
 10
149.0150244233
 20
31.844047248
 30
0.0
 11
149.2167239004
 21
31.844047248
 31
0.0
  0
SPLINE
  5
1FF
330
1F
100
AcDbEntity
  8
0
  6
SLD-Сплошная
 62
     7
370
    25
100
AcDbSpline
210
0.0
220
0.0
230
1.0
 70
     8
 71
     3
 72
    17
 73
    13
 74
     0
 42
0.00000001
 43
0.00000001
 40
0.0
 40
0.0
 40
0.0
 40
0.0
 40
0.1259927131295595
 40
0.2268084904568266
 40
0.302164513970878
 40
0.3533781126343084
 40
0.5224284672073816
 40
0.6189704882997202
 40
0.7120982226657109
 40
0.8322663383272961
 40
0.9188336573012723
 40
1.0
 40
1.0
 40
1.0
 40
1.0
 10
148.975268594392
 20
36.8393239035219
 30
0.0
 10
148.7384609811943
 20
36.80498763273494
 30
0.0
 10
148.3121666666746
 20
36.74317645690051
 30
0.0
 10
147.8320193191832
 20
36.40778933080377
 30
0.0
 10
147.5483506188179
 20
36.08140694183089
 30
0.0
 10
147.2683991283285
 20
35.59033874202612
 30
0.0
 10
147.147579153893
 20
35.06981749833554
 30
0.0
 10
147.1027580417436
 20
34.38391579136233
 30
0.0
 10
147.1270476543971
 20
33.79805967398448
 30
0.0
 10
147.2427755753558
 20
33.24640010831239
 30
0.0
 10
147.4443696452874
 20
32.75755476516765
 30
0.0
 10
147.6184616839852
 20
32.55236022194469
 30
0.0
 10
147.7027048462292
 20
32.45306655334499
 30
0.0
  0
LINE
  5
200
330
1F
100
AcDbEntity
  8
0
  6
SLD-Сплошная
 62
     7
370
    25
100
AcDbLine
 10
149.2167239004
 20
36.844047248
 30
0.0
 11
149.0150244233
 21
36.844047248
 31
0.0
  0
LINE
  5
201
330
1F
100
AcDbEntity
  8
0
  6
SLD-Сплошная
 62
     7
370
    25
100
AcDbLine
 10
170.5441780764
 20
10.944047248
 30
0.0
 11
173.3269391158
 21
10.944047248
 31
0.0
  0
LINE
  5
202
330
1F
100
AcDbEntity
  8
0
  6
SLD-Сплошная
 62
     7
370
    25
100
AcDbLine
 10
158.3205756063
 20
10.944047248
 30
0.0
 11
161.1033366458
 21
10.944047248
 31
0.0
  0
SPLINE
  5
203
330
1F
100
AcDbEntity
  8
0
  6
SLD-Сплошная
 62
     7
370
    25
100
AcDbSpline
210
0.0
220
0.0
230
1.0
 70
     8
 71
     3
 72
     9
 73
     5
 74
     0
 42
0.00000001
 43
0.00000001
 40
0.0
 40
0.0
 40
0.0
 40
0.0
 40
0.4964499066926763
 40
1.0
 40
1.0
 40
1.0
 40
1.0
 10
145.4213919094004
 20
42.79266813698914
 30
0.0
 10
145.5631907309073
 20
42.73093089560195
 30
0.0
 10
145.8488163692552
 20
42.60657345176946
 30
0.0
 10
146.1539394646698
 20
42.60940927012096
 30
0.0
 10
146.307584227836
 20
42.61083724671646
 30
0.0
  0
SPLINE
  5
204
330
1F
100
AcDbEntity
  8
0
  6
SLD-Сплошная
 62
     7
370
    25
100
AcDbSpline
210
0.0
220
0.0
230
1.0
 70
     8
 71
     3
 72
    11
 73
     7
 74
     0
 42
0.00000001
 43
0.00000001
 40
0.0
 40
0.0
 40
0.0
 40
0.0
 40
0.2419937159433561
 40
0.4904745856193644
 40
0.7439026142208252
 40
1.0
 40
1.0
 40
1.0
 40
1.0
 10
144.7002440745874
 20
21.97280624990328
 30
0.0
 10
144.7884826026104
 20
21.84899342204503
 30
0.0
 10
144.9673250791558
 20
21.59804870142942
 30
0.0
 10
145.3427929860752
 20
21.31977099510368
 30
0.0
 10
145.7704554802551
 20
21.13044902970507
 30
0.0
 10
146.0769184430283
 20
21.10622968421977
 30
0.0
 10
146.2309526901714
 20
21.09405657000601
 30
0.0
  0
LINE
  5
205
330
1F
100
AcDbEntity
  8
0
  6
SLD-Сплошная
 62
     7
370
    25
100
AcDbLine
 10
146.2327196884
 20
42.594047248
 30
0.0
 11
148.8333527659
 21
42.594047248
 31
0.0
  0
LINE
  5
206
330
1F
100
AcDbEntity
  8
0
  6
SLD-Сплошная
 62
     7
370
    25
100
AcDbLine
 10
146.2327196884
 20
21.094047248
 30
0.0
 11
148.0888795857
 21
21.094047248
 31
0.0
  0
SPLINE
  5
207
330
1F
100
AcDbEntity
  8
0
  6
SLD-Сплошная
 62
     7
370
    25
100
AcDbSpline
210
0.0
220
0.0
230
1.0
 70
     8
 71
     3
 72
    17
 73
    13
 74
     0
 42
0.00000001
 43
0.00000001
 40
0.0
 40
0.0
 40
0.0
 40
0.0
 40
0.0926517127291962
 40
0.175146164761705
 40
0.3078695527532126
 40
0.4131793329664776
 40
0.5190371323397122
 40
0.6227756861804835
 40
0.719877537894794
 40
0.8348718357168015
 40
0.9097876325402567
 40
0.9999999999999999
 40
0.9999999999999999
 40
0.9999999999999999
 40
0.9999999999999999
 10
146.2344866866455
 20
26.09403792594256
 30
0.0
 10
146.0683929015311
 20
26.08042710469
 30
0.0
 10
145.7544139302135
 20
26.05469759498723
 30
0.0
 10
145.2497329415708
 20
25.82768369959765
 30
0.0
 10
144.8131056141021
 20
25.43789181114414
 30
0.0
 10
144.5220576409911
 20
24.89902981926794
 30
0.0
 10
144.3888079073471
 20
24.40083808676077
 30
0.0
 10
144.3269549981609
 20
23.85650291593252
 30
0.0
 10
144.3268704785344
 20
23.27631269247266
 30
0.0
 10
144.3968492675655
 20
22.76503884894304
 30
0.0
 10
144.5260132778469
 20
22.3045457287952
 30
0.0
 10
144.6386879536258
 20
22.09001053222548
 30
0.0
 10
144.7002440745874
 20
21.97280624990328
 30
0.0
  0
LINE
  5
208
330
1F
100
AcDbEntity
  8
0
  6
SLD-Сплошная
 62
     7
370
    25
100
AcDbLine
 10
148.8333527659
 20
26.094047248
 30
0.0
 11
146.2327196884
 21
26.094047248
 31
0.0
  0
SPLINE
  5
209
330
1F
100
AcDbEntity
  8
0
  6
SLD-Сплошная
 62
     7
370
    25
100
AcDbSpline
210
0.0
220
0.0
230
1.0
 70
     8
 71
     3
 72
    18
 73
    14
 74
     0
 42
0.00000001
 43
0.00000001
 40
0.0
 40
0.0
 40
0.0
 40
0.0
 40
0.070957415027282
 40
0.1350519708888409
 40
0.2416414720709269
 40
0.320221753121059
 40
0.3726021769530828
 40
0.5493892289133783
 40
0.6494175506318987
 40
0.7448856406192788
 40
0.8832587303501968
 40
0.9845944459761907
 40
1.0
 40
1.0
 40
1.0
 40
1.0
 10
146.1578551489808
 20
47.5772572492321
 30
0.0
 10
146.024778145751
 20
47.56227444652134
 30
0.0
 10
145.7714950807005
 20
47.53375794779109
 30
0.0
 10
145.3462147039819
 20
47.36066790627771
 30
0.0
 10
144.9617064802805
 20
47.07401862395599
 30
0.0
 10
144.6883340378657
 20
46.71178993082767
 30
0.0
 10
144.4336987200439
 20
46.18263323059146
 30
0.0
 10
144.3395537729978
 20
45.63749160638474
 30
0.0
 10
144.323243121147
 20
44.91300074296066
 30
0.0
 10
144.375610246003
 20
44.2985640133917
 30
0.0
 10
144.5777454375765
 20
43.69737990861043
 30
0.0
 10
144.8124712046675
 20
43.27421461886887
 30
0.0
 10
144.9673168995534
 20
43.1552889182327
 30
0.0
 10
144.9877508362844
 20
43.13959509965881
 30
0.0
  0
LINE
  5
20A
330
1F
100
AcDbEntity
  8
0
  6
SLD-Сплошная
 62
     7
370
    25
100
AcDbLine
 10
148.0888795857
 20
47.594047248
 30
0.0
 11
146.2327196884
 21
47.594047248
 31
0.0
  0
LINE
  5
20B
330
1F
100
AcDbEntity
  8
0
  6
SLD-Сплошная
 62
     7
370
    25
100
AcDbLine
 10
161.1033366458
 20
10.544047248
 30
0.0
 11
163.3713981007
 21
10.544047248
 31
0.0
  0
LINE
  5
20C
330
1F
100
AcDbEntity
  8
0
  6
SLD-Сплошная
 62
     7
370
    25
100
AcDbLine
 10
167.1515188319
 20
10.544047248
 30
0.0
 11
169.4195802868
 21
10.544047248
 31
0.0
  0
LINE
  5
20D
330
1F
100
AcDbEntity
  8
0
  6
SLD-Сплошная
 62
     7
370
    25
100
AcDbLine
 10
164.1274277388
 20
10.544047248
 30
0.0
 11
166.3954891938
 21
10.544047248
 31
0.0
  0
SPLINE
  5
20E
330
1F
100
AcDbEntity
  8
0
  6
SLD-Сплошная
 62
     7
370
    25
100
AcDbSpline
210
0.0
220
0.0
230
1.0
 70
     8
 71
     3
 72
    11
 73
     7
 74
     0
 42
0.00000001
 43
0.00000001
 40
0.0
 40
0.0
 40
0.0
 40
0.0
 40
0.3366873010963778
 40
0.6576019325645838
 40
0.9878676268858856
 40
1.0
 40
1.0
 40
1.0
 40
1.0
 10
139.9769004066546
 20
31.52674495912955
 30
0.0
 10
140.0896531773926
 20
31.40006206395853
 30
0.0
 10
140.3098766301269
 20
31.15263094191722
 30
0.0
 10
140.7807344837428
 20
30.92104242597977
 30
0.0
 10
141.1402329840195
 20
30.81576489036608
 30
0.0
 10
141.3206889783292
 20
30.84619053751108
 30
0.0
 10
141.3270831717019
 20
30.84726862567369
 30
0.0
  0
LINE
  5
20F
330
1F
100
AcDbEntity
  8
0
  6
SLD-Сплошная
 62
     7
370
    25
100
AcDbLine
 10
141.3253781357
 20
30.844047248
 30
0.0
 11
149.180670309
 21
30.844047248
 31
0.0
  0
SPLINE
  5
210
330
1F
100
AcDbEntity
  8
0
  6
SLD-Сплошная
 62
     7
370
    25
100
AcDbSpline
210
0.0
220
0.0
230
1.0
 70
     8
 71
     3
 72
    20
 73
    16
 74
     0
 42
0.00000001
 43
0.00000001
 40
0.0
 40
0.0
 40
0.0
 40
0.0
 40
0.069045862522
 40
0.1307234184400472
 40
0.1885764412881427
 40
0.2480301207527897
 40
0.3163919295763272
 40
0.4070264392760532
 40
0.4962858238055423
 40
0.5886198669221682
 40
0.67832265746428
 40
0.7693648131059557
 40
0.8664926474899097
 40
0.9495703747567219
 40
0.9999999999999999
 40
0.9999999999999999
 40
0.9999999999999999
 40
0.9999999999999999
 10
141.323673099739
 20
37.84082587027495
 30
0.0
 10
141.1415032091486
 20
37.82423025212439
 30
0.0
 10
140.7966038920138
 20
37.79281003581414
 30
0.0
 10
140.3591429553371
 20
37.55408706343511
 30
0.0
 10
140.0285881755649
 20
37.25031960882701
 30
0.0
 10
139.7812312916482
 20
36.8874434397331
 30
0.0
 10
139.5847522478685
 20
36.44114948551193
 30
0.0
 10
139.4378058844618
 20
35.88950277898873
 30
0.0
 10
139.338002392346
 20
35.20388501014325
 30
0.0
 10
139.2982203879412
 20
34.46178047799381
 30
0.0
 10
139.3197032727818
 20
33.70706935058853
 30
0.0
 10
139.4021297973541
 20
32.98363685352615
 30
0.0
 10
139.5473424085356
 20
32.36108739893783
 30
0.0
 10
139.7308977587165
 20
31.88256299897932
 30
0.0
 10
139.9094543634723
 20
31.62429886386143
 30
0.0
 10
139.9769004066546
 20
31.52674495912955
 30
0.0
  0
LINE
  5
211
330
1F
100
AcDbEntity
  8
0
  6
SLD-Сплошная
 62
     7
370
    25
100
AcDbLine
 10
149.180670309
 20
37.844047248
 30
0.0
 11
141.3253781357
 21
37.844047248
 31
0.0
  0
SPLINE
  5
212
330
1F
100
AcDbEntity
  8
0
  6
SLD-Сплошная
 62
     7
370
    25
100
AcDbSpline
210
0.0
220
0.0
230
1.0
 70
     8
 71
     3
 72
     9
 73
     5
 74
     0
 42
0.00000001
 43
0.00000001
 40
0.0
 40
0.0
 40
0.0
 40
0.0
 40
0.7688481648428465
 40
1.0
 40
1.0
 40
1.0
 40
1.0
 10
176.2715120415146
 20
-3.105361896935145
 30
0.0
 10
176.5882016886805
 20
-3.106070704003691
 30
0.0
 10
177.0001031038717
 20
-3.106992611736539
 30
0.0
 10
177.4828879174992
 20
-3.105364522088705
 30
0.0
 10
177.5944845131552
 20
-3.104988186178804
 30
0.0
  0
SPLINE
  5
213
330
1F
100
AcDbEntity
  8
0
  6
SLD-Сплошная
 62
     7
370
    25
100
AcDbSpline
210
0.0
220
0.0
230
1.0
 70
     8
 71
     3
 72
    12
 73
     8
 74
     0
 42
0.00000001
 43
0.00000001
 40
0.0
 40
0.0
 40
0.0
 40
0.0
 40
0.1026381211723388
 40
0.2686969854413632
 40
0.5246363205293005
 40
0.7862351790086449
 40
1.0
 40
1.0
 40
1.0
 40
1.0
 10
183.7916998410741
 20
-3.067120544369959
 30
0.0
 10
184.2670785843184
 20
-3.062058701639073
 30
0.0
 10
185.5115755976472
 20
-3.048807271595039
 30
0.0
 10
188.0981926459661
 20
-3.006906900787198
 30
0.0
 10
191.6028137058134
 20
-2.929479083264255
 30
0.0
 10
195.6796906884208
 20
-2.806742643728169
 30
0.0
 10
198.5388982088979
 20
-2.674181829701888
 30
0.0
 10
199.824646384847
 20
-2.614570967735444
 30
0.0
  0
SPLINE
  5
214
330
1F
100
AcDbEntity
  8
0
  6
SLD-Сплошная
 62
     7
370
    25
100
AcDbSpline
210
0.0
220
0.0
230
1.0
 70
     8
 71
     3
 72
    14
 73
    10
 74
     0
 42
0.00000001
 43
0.00000001
 40
0.0
 40
0.0
 40
0.0
 40
0.0
 40
0.0503280171174277
 40
0.1440751791064012
 40
0.2706402617453611
 40
0.4311788201007059
 40
0.625386539427219
 40
0.8514760429778373
 40
1.0
 40
1.0
 40
1.0
 40
1.0
 10
199.7453177112886
 20
71.31024100076507
 30
0.0
 10
199.4421974214555
 20
71.32495679335699
 30
0.0
 10
198.5744479540643
 20
71.3670840333081
 30
0.0
 10
196.9803479854433
 20
71.43435624768992
 30
0.0
 10
194.7847361436779
 20
71.51767243187173
 30
0.0
 10
192.1112712427413
 20
71.6015343945419
 30
0.0
 10
189.0880870816555
 20
71.6750691595365
 30
0.0
 10
186.2358044186376
 20
71.7282176496914
 30
0.0
 10
184.5140955634552
 20
71.7461207950299
 30
0.0
 10
183.8314852492909
 20
71.75321890086079
 30
0.0
  0
SPLINE
  5
215
330
1F
100
AcDbEntity
  8
0
  6
SLD-Сплошная
 62
     7
370
    25
100
AcDbSpline
210
0.0
220
0.0
230
1.0
 70
     8
 71
     3
 72
     9
 73
     5
 74
     0
 42
0.00000001
 43
0.00000001
 40
0.0
 40
0.0
 40
0.0
 40
0.0
 40
0.641616796654888
 40
1.0
 40
1.0
 40
1.0
 40
1.0
 10
177.6720517120858
 20
71.79238924544086
 30
0.0
 10
177.3540202959804
 20
71.79339372320464
 30
0.0
 10
176.85834839686
 20
71.79495926476936
 30
0.0
 10
176.4326891792238
 20
71.79422702613661
 30
0.0
 10
176.2801400652739
 20
71.79396460410977
 30
0.0
  0
LINE
  5
216
330
1F
100
AcDbEntity
  8
0
  6
SLD-Сплошная
 62
     7
370
    25
100
AcDbLine
 10
163.494257053
 20
70.0851723704
 30
0.0
 11
162.6929830386
 21
69.7775679734
 31
0.0
  0
LINE
  5
217
330
1F
100
AcDbEntity
  8
0
  6
SLD-Сплошная
 62
     7
370
    25
100
AcDbLine
 10
162.6934321591
 20
69.7776451005
 30
0.0
 11
161.9169342041
 21
69.7152199605
 31
0.0
  0
LINE
  5
218
330
1F
100
AcDbEntity
  8
0
  6
SLD-Сплошная
 62
     7
370
    25
100
AcDbLine
 10
273.9169918464
 20
74.9728748997
 30
0.0
 11
274.6934321606
 21
74.9104493952
 31
0.0
  0
LINE
  5
219
330
1F
100
AcDbEntity
  8
0
  6
SLD-Сплошная
 62
     7
370
    25
100
AcDbLine
 10
274.6929830386
 20
74.9105265226
 30
0.0
 11
275.4942557204
 21
74.6029229158
 31
0.0
  0
LINE
  5
21A
330
1F
100
AcDbEntity
  8
0
  6
SLD-Сплошная
 62
     7
370
    25
100
AcDbLine
 10
163.494257053
 20
-5.9148276296
 30
0.0
 11
162.6929830386
 21
-6.2224320266
 31
0.0
  0
LINE
  5
21B
330
1F
100
AcDbEntity
  8
0
  6
SLD-Сплошная
 62
     7
370
    25
100
AcDbLine
 10
275.494257053
 20
-5.9148276295
 30
0.0
 11
274.6929830386
 21
-6.2224320266
 31
0.0
  0
SPLINE
  5
21C
330
1F
100
AcDbEntity
  8
0
  6
SLD-Сплошная
 62
     7
370
    25
100
AcDbSpline
210
0.0
220
0.0
230
1.0
 70
     8
 71
     3
 72
    10
 73
     6
 74
     0
 42
0.00000001
 43
0.00000001
 40
0.0
 40
0.0
 40
0.0
 40
0.0
 40
0.1131348392709872
 40
0.8780287776883063
 40
1.0
 40
1.0
 40
1.0
 40
1.0
 10
195.5036256915864
 20
70.05573782304577
 30
0.0
 10
195.1235778184829
 20
70.07562242097802
 30
0.0
 10
192.174062252506
 20
70.22994490315747
 30
0.0
 10
188.8091824871785
 20
70.31727590346199
 30
0.0
 10
185.8254822771871
 20
70.3169562320132
 30
0.0
 10
185.415131777766
 20
70.31691226736214
 30
0.0
  0
SPLINE
  5
21D
330
1F
100
AcDbEntity
  8
0
  6
SLD-Сплошная
 62
     7
370
    25
100
AcDbSpline
210
0.0
220
0.0
230
1.0
 70
     8
 71
     3
 72
    10
 73
     6
 74
     0
 42
0.00000001
 43
0.00000001
 40
0.0
 40
0.0
 40
0.0
 40
0.0
 40
0.0537010282886035
 40
0.8182629507917075
 40
1.0
 40
1.0
 40
1.0
 40
1.0
 10
185.434134700023
 20
-1.635278466098816
 30
0.0
 10
185.61446709612
 20
-1.635583375329465
 30
0.0
 10
188.362260262401
 20
-1.64022939300814
 30
0.0
 10
191.7209019900836
 20
-1.553337124333525
 30
0.0
 10
194.8941529953119
 20
-1.393191248994771
 30
0.0
 10
195.5035769631351
 20
-1.362435177502563
 30
0.0
  0
SPLINE
  5
21E
330
1F
100
AcDbEntity
  8
0
  6
SLD-Сплошная
 62
     7
370
    25
100
AcDbSpline
210
0.0
220
0.0
230
1.0
 70
     8
 71
     3
 72
     9
 73
     5
 74
     0
 42
0.00000001
 43
0.00000001
 40
0.0
 40
0.0
 40
0.0
 40
0.0
 40
0.3600430738621462
 40
1.0
 40
1.0
 40
1.0
 40
1.0
 10
280.2310387189212
 20
54.38923263322287
 30
0.0
 10
279.4699605009846
 20
54.65242150267185
 30
0.0
 10
277.3561072617803
 20
55.38341423258543
 30
0.0
 10
275.2125030139995
 20
56.03470367235241
 30
0.0
 10
273.8406886287337
 20
56.45150086025174
 30
0.0
  0
SPLINE
  5
21F
330
1F
100
AcDbEntity
  8
0
  6
SLD-Сплошная
 62
     7
370
    25
100
AcDbSpline
210
0.0
220
0.0
230
1.0
 70
     8
 71
     3
 72
     9
 73
     5
 74
     0
 42
0.00000001
 43
0.00000001
 40
0.0
 40
0.0
 40
0.0
 40
0.0
 40
0.3450694599890235
 40
0.9999999999999999
 40
0.9999999999999999
 40
0.9999999999999999
 40
0.9999999999999999
 10
273.7530086658434
 20
12.20484906298602
 30
0.0
 10
274.5035288837908
 20
12.4308428777975
 30
0.0
 10
276.6785119088645
 20
13.08576555573798
 30
0.0
 10
278.8248076954117
 20
13.81945177992922
 30
0.0
 10
280.2304823539184
 20
14.2999652949374
 30
0.0
  0
SPLINE
  5
220
330
1F
100
AcDbEntity
  8
0
  6
SLD-Сплошная
 62
     7
370
    25
100
AcDbSpline
210
0.0
220
0.0
230
1.0
 70
     8
 71
     3
 72
    33
 73
    29
 74
     0
 42
0.00000001
 43
0.00000001
 40
0.0
 40
0.0
 40
0.0
 40
0.0
 40
0.011612358555265
 40
0.0316793018704427
 40
0.0569113159252534
 40
0.0825626573590523
 40
0.1082401509707267
 40
0.1345880372240806
 40
0.1587437889638194
 40
0.1804716666655951
 40
0.201871175814322
 40
0.2241204850368182
 40
0.2474067457433613
 40
0.2715027487299234
 40
0.3055717632877488
 40
0.3419955349611491
 40
0.3841253744252769
 40
0.4327624745875619
 40
0.4879010267200076
 40
0.5495623814154244
 40
0.6178141191985501
 40
0.6927685138443483
 40
0.774598121864603
 40
0.8179373394066213
 40
0.8626997125217085
 40
0.9094614432060778
 40
0.9579124669596168
 40
1.0
 40
1.0
 40
1.0
 40
1.0
 10
277.8782456255419
 20
49.98091914256867
 30
0.0
 10
277.8273940325063
 20
50.23809314572339
 30
0.0
 10
277.6886674371554
 20
50.93968127189046
 30
0.0
 10
277.2303972190469
 20
52.19361458528184
 30
0.0
 10
276.4343022373873
 20
53.72662547661648
 30
0.0
 10
275.2586605611079
 20
55.22994829046579
 30
0.0
 10
273.8092131031586
 20
56.54356315075285
 30
0.0
 10
272.1863588058467
 20
57.63468201680898
 30
0.0
 10
270.4579252497351
 20
58.52495455992781
 30
0.0
 10
268.7365675780664
 20
59.24796141769291
 30
0.0
 10
266.9698511321629
 20
59.88243748523042
 30
0.0
 10
265.091229322445
 20
60.47984417201434
 30
0.0
 10
263.1133984582428
 20
61.0534669786591
 30
0.0
 10
260.8252858137614
 20
61.67257384859725
 30
0.0
 10
258.3304266036671
 20
62.28901209593944
 30
0.0
 10
255.3105753165138
 20
63.00931197187249
 30
0.0
 10
251.8837464904443
 20
63.78494395984172
 30
0.0
 10
247.9192810827762
 20
64.63213019196598
 30
0.0
 10
243.3865945131699
 20
65.53700571417149
 30
0.0
 10
238.2706543422061
 20
66.4824662997686
 30
0.0
 10
232.5546736569473
 20
67.44868785996334
 30
0.0
 10
226.2156624866442
 20
68.40989645893143
 30
0.0
 10
220.5276372812729
 20
69.16335233517955
 30
0.0
 10
215.6597903325079
 20
69.7372971546253
 30
0.0
 10
211.7146888231749
 20
70.21184480013567
 30
0.0
 10
207.607051275471
 20
70.67328975821174
 30
0.0
 10
203.5925156200241
 20
71.07991584501717
 30
0.0
 10
201.0303921179923
 20
71.22396793230212
 30
0.0
 10
199.8393696258761
 20
71.29093163481551
 30
0.0
  0
SPLINE
  5
221
330
1F
100
AcDbEntity
  8
0
  6
SLD-Сплошная
 62
     7
370
    25
100
AcDbSpline
210
0.0
220
0.0
230
1.0
 70
     8
 71
     3
 72
    36
 73
    32
 74
     0
 42
0.00000001
 43
0.00000001
 40
0.0
 40
0.0
 40
0.0
 40
0.0
 40
0.0328325177619882
 40
0.0774070659942948
 40
0.1203916142364011
 40
0.1665210332082699
 40
0.211219234196457
 40
0.2546611748437909
 40
0.2963717363333728
 40
0.3363885626446215
 40
0.374740766322493
 40
0.4316995045231768
 40
0.484673721456026
 40
0.5337159485992842
 40
0.6005852717852747
 40
0.6585135411270049
 40
0.7074713501092291
 40
0.7381213139136787
 40
0.7636789650997281
 40
0.7842989346378738
 40
0.8030413531247126
 40
0.8215732483924824
 40
0.8398900803561592
 40
0.8581743512928429
 40
0.8797394614961718
 40
0.905798287025626
 40
0.9366292328456123
 40
0.95574761693153
 40
0.9686053344917326
 40
0.9813685648645507
 40
1.0
 40
1.0
 40
1.0
 40
1.0
 10
199.8495800006569
 20
-2.600448948974467
 30
0.0
 10
200.7746011313019
 20
-2.552053467713207
 30
0.0
 10
202.9554625634049
 20
-2.43795462707682
 30
0.0
 10
206.4626331818269
 20
-2.103939370420492
 30
0.0
 10
210.3794984540481
 20
-1.678621633120783
 30
0.0
 10
214.3058894380057
 20
-1.212433589212907
 30
0.0
 10
218.1821405803508
 20
-0.7521258660983312
 30
0.0
 10
221.8795671939581
 20
-0.2963131300386806
 30
0.0
 10
225.4355338960421
 20
0.184253698841369
 30
0.0
 10
228.8282452050047
 20
0.6749160578729679
 30
0.0
 10
232.6336814259098
 20
1.261824499053009
 30
0.0
 10
236.777333003017
 20
1.948934188559723
 30
0.0
 10
241.1853566673235
 20
2.738792494984814
 30
0.0
 10
245.83319755094
 20
3.630177256088423
 30
0.0
 10
250.5703223156738
 20
4.609971438544327
 30
0.0
 10
255.2643432586849
 20
5.664185223193823
 30
0.0
 10
258.9148843393322
 20
6.537217803914953
 30
0.0
 10
261.7492411441632
 20
7.258956359096094
 30
0.0
 10
263.9348152793564
 20
7.867437279423122
 30
0.0
 10
265.7716626739697
 20
8.419475268859333
 30
0.0
 10
267.3788672413995
 20
8.948029776353605
 30
0.0
 10
268.8714670514749
 20
9.497283489752785
 30
0.0
 10
270.2858785202445
 20
10.09417225664669
 30
0.0
 10
271.682815756876
 20
10.78451012478143
 30
0.0
 10
273.1675812176496
 20
11.68049744121546
 30
0.0
 10
274.7427925131903
 20
12.92105564994614
 30
0.0
 10
275.9999403987289
 20
14.34595853624886
 30
0.0
 10
276.8102285212079
 20
15.66011797541286
 30
0.0
 10
277.2741101036245
 20
16.64844720985112
 30
0.0
 10
277.6416531412501
 20
17.61291993606396
 30
0.0
 10
277.7924798646814
 20
18.30072743013726
 30
0.0
 10
277.8819892851135
 20
18.7089127222573
 30
0.0
  0
LINE
  5
222
330
1F
100
AcDbEntity
  8
0
  6
SLD-Сплошная
 62
     7
370
    25
100
AcDbLine
 10
284.4425076757
 20
48.344047248
 30
0.0
 11
280.2066317947
 21
48.344047248
 31
0.0
  0
LINE
  5
223
330
1F
100
AcDbEntity
  8
0
  6
SLD-Сплошная
 62
     7
370
    25
100
AcDbLine
 10
287.2191281842
 20
35.344047248
 30
0.0
 11
284.4425076757
 21
48.344047248
 31
0.0
  0
LINE
  5
224
330
1F
100
AcDbEntity
  8
0
  6
SLD-Сплошная
 62
     7
370
    25
100
AcDbLine
 10
280.2066317947
 20
20.344047248
 30
0.0
 11
284.4425076757
 21
20.344047248
 31
0.0
  0
LINE
  5
225
330
1F
100
AcDbEntity
  8
0
  6
SLD-Сплошная
 62
     7
370
    25
100
AcDbLine
 10
284.4425076757
 20
20.344047248
 30
0.0
 11
287.2191281842
 21
33.344047248
 31
0.0
  0
LWPOLYLINE
  5
226
330
1F
100
AcDbEntity
  8
0
  6
SLD-Сплошная
 62
     7
370
    25
100
AcDbPolyline
 90
       34
 70
   128
 43
0.0
 10
178.881012617
 20
9.694047248
 10
179.4874596659
 20
9.8056643565
 10
180.0884146365
 20
10.1395048604
 10
180.6784351874
 20
10.6925454484
 10
181.2521780012
 20
11.4597776991
 10
181.8044471741
 20
12.4342534386
 10
182.3302412709
 20
13.6071476637
 10
182.8247986189
 20
14.9678384626
 10
183.2836404301
 20
16.5040032087
 10
183.7026113621
 20
18.2017301562
 10
184.0779171493
 20
20.045644427
 10
184.4061589642
 20
22.019047248
 10
184.6843641982
 20
24.1040671775
 10
184.9100133817
 20
26.2818219522
 10
185.0810630006
 20
28.5325894877
 10
185.1959640031
 20
30.8359864845
 10
185.2536758279
 20
33.1711530229
 10
185.2536758279
 20
35.516941473
 10
185.1959640031
 20
37.8521080114
 10
185.0810630006
 20
40.1555050083
 10
184.9100133817
 20
42.4062725437
 10
184.6843641982
 20
44.5840273185
 10
184.4061589642
 20
46.669047248
 10
184.0779171493
 20
48.6424500689
 10
183.7026113621
 20
50.4863643397
 10
183.2836404301
 20
52.1840912873
 10
182.8247986189
 20
53.7202560334
 10
182.3302412709
 20
55.0809468323
 10
181.8044471741
 20
56.2538410573
 10
181.2521780012
 20
57.2283167968
 10
180.6784351874
 20
57.9955490476
 10
180.0884146365
 20
58.5485896355
 10
179.4874596659
 20
58.8824301394
 10
178.881012617
 20
58.994047248
  0
LWPOLYLINE
  5
227
330
1F
100
AcDbEntity
  8
0
  6
SLD-Сплошная
 62
     7
370
    25
100
AcDbPolyline
 90
       13
 70
   128
 43
0.0
 10
178.881012617
 20
72.144047248
 10
178.1187631499
 20
72.0291418069
 10
177.3611478951
 20
71.6851240688
 10
176.6127728904
 20
71.1140855423
 10
175.878187996
 20
70.3194979433
 10
175.1618592333
 20
69.3061920887
 10
174.4681416325
 20
68.0803285265
 10
173.8012527558
 20
66.6493600817
 10
173.1652470563
 20
65.0219865458
 10
172.5639912278
 20
63.2081017853
 10
172.0011406971
 20
61.21873359
 10
171.4801174002
 20
59.065976628
 10
171.2803648888
 20
58.144047248
  0
LWPOLYLINE
  5
228
330
1F
100
AcDbEntity
  8
0
  6
SLD-Сплошная
 62
     7
370
    25
100
AcDbPolyline
 90
       42
 70
   128
 43
0.0
 10
178.881012617
 20
-3.455952752
 10
179.6299215079
 20
-3.3450400368
 10
180.3744355037
 20
-3.0129527709
 10
181.1101855002
 20
-2.4616397746
 10
181.8328538238
 20
-1.6943363717
 10
182.5381995694
 20
-0.7155454037
 10
183.2220834878
 20
0.4689891948
 10
183.8804922761
 20
1.8523161039
 10
184.5095621299
 20
3.426317411
 10
185.105601417
 20
5.1817562507
 10
185.665112342
 20
7.1083310099
 10
186.1848114722
 20
9.1947357817
 10
186.6616490064
 20
11.4287267134
 10
187.0928266725
 20
13.7971938579
 10
187.4758141485
 20
16.2862381082
 10
187.8083639115
 20
18.8812527629
 10
188.0885244273
 20
21.5670092441
 10
188.3146516025
 20
24.3277464649
 10
188.4854184331
 20
27.1472633215
 10
188.5998227914
 20
30.0090137679
 10
188.657193307
 20
32.8962039145
 10
188.657193307
 20
35.7918905815
 10
188.5998227914
 20
38.679080728
 10
188.4854184331
 20
41.5408311744
 10
188.3146516025
 20
44.360348031
 10
188.0885244273
 20
47.1210852518
 10
187.8083639115
 20
49.8068417331
 10
187.4758141485
 20
52.4018563877
 10
187.0928266725
 20
54.890900638
 10
186.6616490064
 20
57.2593677825
 10
186.1848114722
 20
59.4933587142
 10
185.665112342
 20
61.5797634861
 10
185.105601417
 20
63.5063382452
 10
184.5095621299
 20
65.261777085
 10
183.8804922761
 20
66.8357783921
 10
183.2220834878
 20
68.2191053011
 10
182.5381995694
 20
69.4036398996
 10
181.8328538237
 20
70.3824308677
 10
181.1101855002
 20
71.1497342706
 10
180.3744355037
 20
71.7010472669
 10
179.6299215079
 20
72.0331345327
 10
178.881012617
 20
72.144047248
  0
LWPOLYLINE
  5
229
330
1F
100
AcDbEntity
  8
0
  6
SLD-Сплошная
 62
     7
370
    25
100
AcDbPolyline
 90
       13
 70
   128
 43
0.0
 10
171.1976171386
 20
10.944047248
 10
171.4801174002
 20
9.6221178679
 10
172.0011406971
 20
7.469360906
 10
172.5639912278
 20
5.4799927106
 10
173.1652470563
 20
3.6661079501
 10
173.8012527558
 20
2.0387344143
 10
174.4681416325
 20
0.6077659695
 10
175.1618592333
 20
-0.6180975927
 10
175.878187996
 20
-1.6314034473
 10
176.6127728904
 20
-2.4259910463
 10
177.3611478951
 20
-2.9970295729
 10
178.1187631499
 20
-3.3410473109
 10
178.881012617
 20
-3.455952752
  0
LINE
  5
22A
330
1F
100
AcDbEntity
  8
0
  6
SLD-Сплошная
 62
     7
370
    25
100
AcDbLine
 10
182.4549381742
 20
-3.455952752
 30
0.0
 11
178.881012617
 21
-3.455952752
 31
0.0
  0
LINE
  5
22B
330
1F
100
AcDbEntity
  8
0
  6
SLD-Сплошная
 62
     7
370
    25
100
AcDbLine
 10
182.4549381742
 20
72.144047248
 30
0.0
 11
178.881012617
 21
72.144047248
 31
0.0
  0
LWPOLYLINE
  5
22C
330
1F
100
AcDbEntity
  8
0
  6
SLD-Сплошная
 62
     7
370
    25
100
AcDbPolyline
 90
       42
 70
   128
 43
0.0
 10
182.4549381742
 20
-3.455952752
 10
183.2038470652
 20
-3.3450400368
 10
183.948361061
 20
-3.0129527709
 10
184.6841110574
 20
-2.4616397746
 10
185.406779381
 20
-1.6943363717
 10
186.1121251267
 20
-0.7155454037
 10
186.796009045
 20
0.4689891948
 10
187.4544178334
 20
1.8523161039
 10
188.0834876872
 20
3.426317411
 10
188.6795269743
 20
5.1817562507
 10
189.2390378992
 20
7.1083310099
 10
189.7587370294
 20
9.1947357817
 10
190.2355745637
 20
11.4287267134
 10
190.6667522298
 20
13.7971938579
 10
191.0497397058
 20
16.2862381082
 10
191.3822894687
 20
18.8812527629
 10
191.6624499845
 20
21.5670092441
 10
191.8885771598
 20
24.3277464649
 10
192.0593439904
 20
27.1472633215
 10
192.1737483486
 20
30.0090137679
 10
192.2311188642
 20
32.8962039145
 10
192.2311188642
 20
35.7918905815
 10
192.1737483486
 20
38.679080728
 10
192.0593439904
 20
41.5408311744
 10
191.8885771598
 20
44.360348031
 10
191.6624499845
 20
47.1210852518
 10
191.3822894687
 20
49.8068417331
 10
191.0497397058
 20
52.4018563877
 10
190.6667522298
 20
54.890900638
 10
190.2355745637
 20
57.2593677825
 10
189.7587370294
 20
59.4933587142
 10
189.2390378992
 20
61.5797634861
 10
188.6795269743
 20
63.5063382452
 10
188.0834876872
 20
65.261777085
 10
187.4544178334
 20
66.8357783921
 10
186.796009045
 20
68.2191053011
 10
186.1121251267
 20
69.4036398996
 10
185.406779381
 20
70.3824308677
 10
184.6841110574
 20
71.1497342706
 10
183.948361061
 20
71.7010472669
 10
183.2038470652
 20
72.0331345327
 10
182.4549381742
 20
72.144047248
  0
LWPOLYLINE
  5
22D
330
1F
100
AcDbEntity
  8
0
  6
SLD-Сплошная
 62
     7
370
    25
100
AcDbPolyline
 90
       32
 70
   128
 43
0.0
 10
143.6247199574
 20
12.594047248
 10
143.0552116827
 20
12.7056394642
 10
142.4915473336
 20
13.0392710257
 10
141.939510869
 20
13.5915184213
 10
141.4047669302
 20
14.3567148452
 10
140.8928027134
 20
15.3270083468
 10
140.4088716645
 20
16.4924424017
 10
139.9579395708
 20
17.8410580794
 10
139.5446336058
 20
19.3590167581
 10
139.173194848
 20
21.0307421276
 10
138.8474347617
 20
22.8390800234
 10
138.5706960862
 20
24.7654744516
 10
138.3458185348
 20
26.7901579986
 10
138.1751096555
 20
28.8923546713
 10
138.0603211524
 20
31.0504930872
 10
138.0026309109
 20
33.2424278257
 10
138.0026309109
 20
35.4456666702
 10
138.0603211524
 20
37.6376014087
 10
138.1751096555
 20
39.7957398246
 10
138.3458185348
 20
41.8979364973
 10
138.5706960862
 20
43.9226200444
 10
138.8474347617
 20
45.8490144726
 10
139.173194848
 20
47.6573523684
 10
139.5446336058
 20
49.3290777379
 10
139.9579395708
 20
50.8470364165
 10
140.4088716645
 20
52.1956520942
 10
140.8928027134
 20
53.3610861491
 10
141.4047669302
 20
54.3313796507
 10
141.939510869
 20
55.0965760747
 10
142.4915473336
 20
55.6488234702
 10
143.0552116827
 20
55.9824550317
 10
143.6247199574
 20
56.094047248
  0
LWPOLYLINE
  5
22E
330
1F
100
AcDbEntity
  8
0
  6
SLD-Сплошная
 62
     7
370
    25
100
AcDbPolyline
 90
       32
 70
   128
 43
0.0
 10
143.6247199574
 20
56.094047248
 10
144.1942282321
 20
55.9824550317
 10
144.7578925812
 20
55.6488234702
 10
145.3099290458
 20
55.0965760747
 10
145.8446729847
 20
54.3313796507
 10
146.3566372014
 20
53.3610861491
 10
146.8405682504
 20
52.1956520942
 10
147.2915003441
 20
50.8470364165
 10
147.7048063091
 20
49.3290777379
 10
148.0762450669
 20
47.6573523684
 10
148.4020051532
 20
45.8490144726
 10
148.6787438287
 20
43.9226200444
 10
148.9036213801
 20
41.8979364973
 10
149.0743302593
 20
39.7957398246
 10
149.1891187624
 20
37.6376014087
 10
149.246809004
 20
35.4456666702
 10
149.246809004
 20
33.2424278257
 10
149.1891187624
 20
31.0504930872
 10
149.0743302593
 20
28.8923546713
 10
148.9036213801
 20
26.7901579986
 10
148.6787438287
 20
24.7654744516
 10
148.4020051532
 20
22.8390800234
 10
148.0762450669
 20
21.0307421276
 10
147.7048063091
 20
19.3590167581
 10
147.2915003441
 20
17.8410580794
 10
146.8405682504
 20
16.4924424017
 10
146.3566372014
 20
15.3270083468
 10
145.8446729847
 20
14.3567148452
 10
145.3099290458
 20
13.5915184213
 10
144.7578925812
 20
13.0392710257
 10
144.1942282321
 20
12.7056394642
 10
143.6247199574
 20
12.594047248
  0
LWPOLYLINE
  5
22F
330
1F
100
AcDbEntity
  8
0
  6
SLD-Сплошная
 62
     7
370
    25
100
AcDbPolyline
 90
       34
 70
   128
 43
0.0
 10
143.6247199574
 20
58.994047248
 10
144.2311670064
 20
58.8824301394
 10
144.832121977
 20
58.5485896355
 10
145.4221425279
 20
57.9955490476
 10
145.9958853416
 20
57.2283167968
 10
146.5481545145
 20
56.2538410573
 10
147.0739486113
 20
55.0809468323
 10
147.5685059593
 20
53.7202560334
 10
148.0273477706
 20
52.1840912873
 10
148.4463187026
 20
50.4863643397
 10
148.8216244897
 20
48.6424500689
 10
149.1498663047
 20
46.669047248
 10
149.4280715387
 20
44.5840273185
 10
149.6537207221
 20
42.4062725437
 10
149.824770341
 20
40.1555050083
 10
149.9396713435
 20
37.8521080114
 10
149.9973831684
 20
35.516941473
 10
149.9973831684
 20
33.1711530229
 10
149.9396713435
 20
30.8359864845
 10
149.824770341
 20
28.5325894877
 10
149.6537207221
 20
26.2818219522
 10
149.4280715387
 20
24.1040671775
 10
149.1498663047
 20
22.019047248
 10
148.8216244897
 20
20.045644427
 10
148.4463187026
 20
18.2017301562
 10
148.0273477706
 20
16.5040032087
 10
147.5685059593
 20
14.9678384626
 10
147.0739486113
 20
13.6071476637
 10
146.5481545145
 20
12.4342534386
 10
145.9958853416
 20
11.4597776991
 10
145.4221425279
 20
10.6925454484
 10
144.832121977
 20
10.1395048604
 10
144.2311670064
 20
9.8056643565
 10
143.6247199574
 20
9.694047248
  0
LWPOLYLINE
  5
230
330
1F
100
AcDbEntity
  8
0
  6
SLD-Сплошная
 62
     7
370
    25
100
AcDbPolyline
 90
       16
 70
   128
 43
0.0
 10
143.6247199574
 20
9.694047248
 10
143.0094695889
 20
9.8089360355
 10
142.3999543415
 20
10.1525314502
 10
141.801855876
 20
10.7216306311
 10
141.2207494304
 20
11.5109286602
 10
140.6620518496
 20
12.5130680127
 10
140.130971092
 20
13.7187071408
 10
139.632457683
 20
15.1166075524
 10
139.1711585679
 20
16.6937385711
 10
138.7513737951
 20
18.435398804
 10
138.3770164326
 20
20.3253531813
 10
138.0515760919
 20
22.3459842941
 10
137.7780863997
 20
24.4784566163
 10
137.559096719
 20
26.7028920822
 10
137.396648385
 20
28.9985553819
 10
137.2922556771
 20
31.344047248
  0
LINE
  5
231
330
1F
100
AcDbEntity
  8
0
  6
SLD-Сплошная
 62
     7
370
    25
100
AcDbLine
 10
136.9342476415
 20
31.344047248
 30
0.0
 11
137.2922556771
 21
31.344047248
 31
0.0
  0
LWPOLYLINE
  5
232
330
1F
100
AcDbEntity
  8
0
  6
SLD-Сплошная
 62
     7
370
    25
100
AcDbPolyline
 90
       12
 70
   128
 43
0.0
 10
136.9342476415
 20
37.344047248
 10
136.7154943875
 20
37.2225261688
 10
136.5144632212
 20
36.8678078465
 10
136.347440492
 20
36.3086294498
 10
136.2279573882
 20
35.590292287
 10
136.1656937203
 20
34.7709917628
 10
136.1656937203
 20
33.9171027332
 10
136.2279573882
 20
33.097802209
 10
136.347440492
 20
32.3794650461
 10
136.5144632212
 20
31.8202866495
 10
136.7154943875
 20
31.4655683271
 10
136.9342476415
 20
31.344047248
  0
LINE
  5
233
330
1F
100
AcDbEntity
  8
0
  6
SLD-Сплошная
 62
     7
370
    25
100
AcDbLine
 10
137.2922556771
 20
37.344047248
 30
0.0
 11
136.9342476415
 21
37.344047248
 31
0.0
  0
LWPOLYLINE
  5
234
330
1F
100
AcDbEntity
  8
0
  6
SLD-Сплошная
 62
     7
370
    25
100
AcDbPolyline
 90
       16
 70
   128
 43
0.0
 10
137.2922556771
 20
37.344047248
 10
137.396648385
 20
39.689539114
 10
137.559096719
 20
41.9852024138
 10
137.7780863997
 20
44.2096378796
 10
138.0515760919
 20
46.3421102018
 10
138.3770164326
 20
48.3627413146
 10
138.7513737951
 20
50.252695692
 10
139.1711585679
 20
51.9943559248
 10
139.632457683
 20
53.5714869436
 10
140.130971092
 20
54.9693873551
 10
140.6620518496
 20
56.1750264833
 10
141.2207494304
 20
57.1771658357
 10
141.801855876
 20
57.9664638648
 10
142.3999543415
 20
58.5355630458
 10
143.0094695889
 20
58.8791584604
 10
143.6247199574
 20
58.994047248
  0
LINE
  5
235
330
1F
100
AcDbEntity
  8
0
  6
SLD-Сплошная
 62
     7
370
    25
100
AcDbLine
 10
143.6247199574
 20
58.994047248
 30
0.0
 11
155.5056076208
 21
58.994047248
 31
0.0
  0
LWPOLYLINE
  5
236
330
1F
100
AcDbEntity
  8
0
  6
SLD-Сплошная
 62
     7
370
    25
100
AcDbPolyline
 90
       35
 70
   128
 43
0.0
 10
155.5056076208
 20
58.994047248
 10
156.1024099888
 20
58.885959889
 10
156.69397854
 20
58.5626457128
 10
157.275125357
 20
58.0269401089
 10
157.8407539185
 20
57.2835410898
 10
158.3859037948
 20
56.3389680905
 10
158.9057941492
 20
55.2015047946
 10
159.3958656653
 20
53.8811264884
 10
159.8518205309
 20
52.3894125801
 10
160.2696601287
 20
50.7394450505
 10
160.6457201035
 20
48.9456937281
 10
160.9767024976
 20
47.023889391
 10
161.2597046728
 20
44.9908858126
 10
161.4922447667
 20
42.8645119573
 10
161.672283457
 20
40.6634156251
 10
161.7982418467
 20
38.4068999146
 10
161.8690153103
 20
36.1147539391
 10
161.8839831811
 20
33.8070792814
 10
161.8430141944
 20
31.5041137067
 10
161.7464676385
 20
29.2260536831
 10
161.5951902042
 20
26.9928772625
 10
161.390508559
 20
24.8241688784
 10
161.134217713
 20
22.7389475946
 10
160.8285652768
 20
20.7555003125
 10
160.4762317505
 20
18.8912213997
 10
160.0803070164
 20
17.1624601449
 10
159.6442632418
 20
15.5843773788
 10
159.1719244281
 20
14.1708125171
 10
158.6674328761
 20
12.9341621921
 10
158.1352128582
 20
11.885271537
 10
157.5799318192
 20
11.0333390768
 10
157.0064594435
 20
10.3858360595
 10
156.4198249493
 20
9.9484409345
 10
155.8251729837
 20
9.7249895545
 10
155.5056076208
 20
9.694047248
  0
LINE
  5
237
330
1F
100
AcDbEntity
  8
0
  6
SLD-Сплошная
 62
     7
370
    25
100
AcDbLine
 10
143.6247199574
 20
9.694047248
 30
0.0
 11
153.1873856377
 21
9.694047248
 31
0.0
  0
LWPOLYLINE
  5
238
330
1F
100
AcDbEntity
  8
0
  6
SLD-Сплошная
 62
     7
370
    25
100
AcDbPolyline
 90
        8
 70
   128
 43
0.0
 10
160.6083346546
 20
14.5295745922
 10
160.0926619044
 20
13.3397441114
 10
159.5494491759
 20
12.3496102617
 10
158.983861018
 20
11.5685866567
 10
158.4012747122
 20
11.0040988121
 10
157.8072291484
 20
10.6615135482
 10
157.2073721643
 20
10.5440879654
 10
157.1959778168
 20
10.544047248
  0
LWPOLYLINE
  5
239
330
1F
100
AcDbEntity
  8
0
  6
SLD-Сплошная
 62
     7
370
    25
100
AcDbPolyline
 90
        9
 70
   128
 43
0.0
 10
176.7392959536
 20
14.5295745922
 10
176.2236232034
 20
13.3397441114
 10
175.6804104749
 20
12.3496102617
 10
175.1148223171
 20
11.5685866567
 10
174.5322360112
 20
11.0040988121
 10
173.9381904474
 20
10.6615135482
 10
173.3383334633
 20
10.5440879654
 10
172.7383681485
 20
10.6529384774
 10
172.2023413263
 20
10.944047248
  0
LINE
  5
23A
330
1F
100
AcDbEntity
  8
0
  6
SLD-Сплошная
 62
     7
370
    25
100
AcDbLine
 10
176.7392959536
 20
14.5295745922
 30
0.0
 11
160.6083346546
 21
14.5295745922
 31
0.0
  0
LINE
  5
23B
330
1F
100
AcDbEntity
  8
0
  6
SLD-Сплошная
 62
     7
370
    25
100
AcDbLine
 10
157.1665424191
 20
58.144047248
 30
0.0
 11
175.0173093118
 21
58.144047248
 31
0.0
  0
LWPOLYLINE
  5
23C
330
1F
100
AcDbEntity
  8
0
  6
SLD-Сплошная
 62
     7
370
    25
100
AcDbPolyline
 90
       34
 70
   128
 43
0.0
 10
175.0173093118
 20
58.144047248
 10
175.6028443936
 20
58.0362790052
 10
176.1830767789
 20
57.7139502428
 10
176.7527517936
 20
57.17998002
 10
177.3067103724
 20
56.4392040538
 10
177.8399357807
 20
55.498330926
 10
178.3475990466
 20
54.3658813294
 10
178.825102693
 20
53.0521109029
 10
179.2681223728
 20
51.5689173549
 10
179.6726460313
 20
49.9297327159
 10
180.0350102396
 20
48.1494016958
 10
180.3519333712
 20
46.244047248
 10
180.6205453213
 20
44.2309245574
 10
180.8384134984
 20
42.1282647749
 10
181.0035648546
 20
39.9551099131
 10
181.1145037536
 20
37.7311403989
 10
181.1702255155
 20
35.4764968446
 10
181.1702255155
 20
33.2115976514
 10
181.1145037536
 20
30.9569540971
 10
181.0035648546
 20
28.7329845828
 10
180.8384134984
 20
26.559829721
 10
180.6205453213
 20
24.4571699385
 10
180.3519333712
 20
22.444047248
 10
180.0350102396
 20
20.5386928002
 10
179.6726460313
 20
18.7583617801
 10
179.2681223728
 20
17.1191771411
 10
178.825102693
 20
15.6359835931
 10
178.3475990466
 20
14.3222131666
 10
177.8399357807
 20
13.18976357
 10
177.3067103724
 20
12.2488904422
 10
176.7527517936
 20
11.5081144759
 10
176.1830767789
 20
10.9741442531
 10
175.6028443936
 20
10.6518154907
 10
175.0173093118
 20
10.544047248
  0
LWPOLYLINE
  5
23D
330
1F
100
AcDbEntity
  8
0
  6
SLD-Сплошная
 62
     7
370
    25
100
AcDbPolyline
 90
       38
 70
   128
 43
0.0
 10
175.0173093118
 20
58.994047248
 10
175.6147316641
 20
58.8857347048
 10
176.2069038472
 20
58.5617489299
 10
176.7886218308
 20
58.0249371217
 10
177.3547734563
 20
57.2800168019
 10
177.9003833629
 20
56.333534357
 10
178.420656711
 20
55.1938075087
 10
178.9110213198
 20
53.8708522176
 10
179.3671678475
 20
52.3762946622
 10
179.785087662
 20
50.7232690682
 10
180.1611080688
 20
48.926302284
 10
180.4919245873
 20
47.0011861181
 10
180.7746299899
 20
44.9648385608
 10
181.0067398513
 20
42.8351551075
 10
181.1862143818
 20
40.630851493
 10
181.3114763528
 20
38.3712992168
 10
181.3814249574
 20
36.0763553055
 10
181.395445485
 20
33.7661878087
 10
181.3534147225
 20
31.4610985614
 10
181.2557020379
 20
29.1813447708
 10
181.1031661336
 20
26.9469609952
 10
180.8971475008
 20
24.7775830796
 10
180.6394566386
 20
22.6922755951
 10
180.3323581435
 20
20.7093642988
 10
179.9785508082
 20
18.8462750865
 10
179.5811439042
 20
17.1193808532
 10
179.1436298577
 20
15.5438576076
 10
178.6698535579
 20
14.1335511044
 10
178.1639785679
 20
12.9008551681
 10
177.6304505354
 20
11.8566027748
 10
177.0739581238
 20
11.0099708521
 10
176.4993918085
 20
10.3683996317
 10
175.911800899
 20
9.9375272647
 10
175.3163491652
 20
9.7211402729
 10
174.7182694584
 20
9.7211402729
 10
174.1228177247
 20
9.9375272647
 10
173.5352268151
 20
10.3683996317
 10
173.3563745135
 20
10.544047248
  0
ARC
  5
23E
330
1F
100
AcDbEntity
  8
0
  6
SLD-Сплошная
 62
     7
370
    25
100
AcDbCircle
 10
175.1880134092
 20
56.6127171565
 30
0.0
 40
2.387440657533278
100
AcDbArc
 50
94.1001970998
 51
140.1029041643
  0
LINE
  5
23F
330
1F
100
AcDbEntity
  8
0
  6
SLD-Сплошная
 62
     7
370
    25
100
AcDbLine
 10
175.0173093118
 20
58.994047248
 30
0.0
 11
178.881012617
 21
58.994047248
 31
0.0
  0
LINE
  5
240
330
1F
100
AcDbEntity
  8
0
  6
SLD-Сплошная
 62
     7
370
    25
100
AcDbLine
 10
177.3355312949
 20
9.694047248
 30
0.0
 11
178.881012617
 21
9.694047248
 31
0.0
  0
LINE
  5
241
330
1F
100
AcDbEntity
  8
0
  6
SLD-Сплошная
 62
     7
370
    25
100
AcDbLine
 10
149.0548625149
 20
31.8487901783
 30
0.0
 11
149.0150244233
 21
31.844047248
 31
0.0
  0
LINE
  5
242
330
1F
100
AcDbEntity
  8
0
  6
SLD-Сплошная
 62
     7
370
    25
100
AcDbLine
 10
147.7839378163
 20
32.3450068491
 30
0.0
 11
147.8162004149
 21
32.3147471318
 31
0.0
  0
LINE
  5
243
330
1F
100
AcDbEntity
  8
0
  6
SLD-Сплошная
 62
     7
370
    25
100
AcDbLine
 10
148.9747559147
 20
36.8392011772
 30
0.0
 11
149.0150244233
 21
36.844047248
 31
0.0
  0
LWPOLYLINE
  5
244
330
1F
100
AcDbEntity
  8
0
  6
SLD-Сплошная
 62
     7
370
    25
100
AcDbPolyline
 90
        8
 70
   128
 43
0.0
 10
176.5486558942
 20
14.5295745922
 10
176.1749394373
 20
13.6927576095
 10
175.6408563345
 20
12.7192646648
 10
175.0847738599
 20
11.9513675069
 10
174.5119789206
 20
11.396366853
 10
173.9279173158
 20
11.0595393246
 10
173.3381419617
 20
10.944087281
 10
173.3269391158
 20
10.944047248
  0
LINE
  5
245
330
1F
100
AcDbEntity
  8
0
  6
SLD-Сплошная
 62
     7
370
    25
100
AcDbLine
 10
161.3242805588
 20
10.9596237645
 30
0.0
 11
161.1033366458
 21
10.944047248
 31
0.0
  0
LINE
  5
246
330
1F
100
AcDbEntity
  8
0
  6
SLD-Сплошная
 62
     7
370
    25
100
AcDbLine
 10
161.5265685398
 20
10.9596237645
 30
0.0
 11
161.3242805588
 21
10.9596237645
 31
0.0
  0
SPLINE
  5
247
330
1F
100
AcDbEntity
  8
0
  6
SLD-Сплошная
 62
     7
370
    25
100
AcDbSpline
210
0.0
220
0.0
230
1.0
 70
     8
 71
     3
 72
     8
 73
     4
 74
     0
 42
0.00000001
 43
0.00000001
 40
0.0
 40
0.0
 40
0.0
 40
0.0
 40
1.0
 40
1.0
 40
1.0
 40
1.0
 10
172.1723108228406
 20
13.50079508365349
 30
0.0
 10
170.5093901887311
 20
12.95491482866262
 30
0.0
 10
168.8355735646627
 20
12.49156205969538
 30
0.0
 10
167.1542602173946
 20
12.11620999053963
 30
0.0
  0
SPLINE
  5
248
330
1F
100
AcDbEntity
  8
0
  6
SLD-Сплошная
 62
     7
370
    25
100
AcDbSpline
210
0.0
220
0.0
230
1.0
 70
     8
 71
     3
 72
     8
 73
     4
 74
     0
 42
0.00000001
 43
0.00000001
 40
0.0
 40
0.0
 40
0.0
 40
0.0
 40
1.0
 40
1.0
 40
1.0
 40
1.0
 10
167.1542602173946
 20
12.11620999053963
 30
0.0
 10
166.0634923510003
 20
12.49156205969538
 30
0.0
 10
164.9652277614064
 20
12.95491482866262
 30
0.0
 10
163.8560671818536
 20
13.50079508365349
 30
0.0
  0
ARC
  5
249
330
1F
100
AcDbEntity
  8
0
  6
SLD-Сплошная
 62
     7
370
    25
100
AcDbCircle
 10
155.9239545811
 20
17.4476203762
 30
0.0
 40
8.85978781913927
100
AcDbArc
 50
324.4086870121
 51
333.5461851452
  0
LINE
  5
24A
330
1F
100
AcDbEntity
  8
0
  6
SLD-Сплошная
 62
     7
370
    25
100
AcDbLine
 10
164.7229961222
 20
11.352003097
 30
0.0
 11
162.2293008064
 21
11.352003097
 31
0.0
  0
ARC
  5
24B
330
1F
100
AcDbEntity
  8
0
  6
SLD-Сплошная
 62
     7
370
    25
100
AcDbCircle
 10
160.9337090297
 20
13.0684044578
 30
0.0
 40
2.150486382999622
100
AcDbArc
 50
286.0027300756
 51
307.046611561
  0
LINE
  5
24C
330
1F
100
AcDbEntity
  8
0
  6
SLD-Сплошная
 62
     7
370
    25
100
AcDbLine
 10
170.5455444474
 20
11.352003097
 30
0.0
 11
168.9822787488
 21
11.352003097
 31
0.0
  0
SPLINE
  5
24D
330
1F
100
AcDbEntity
  8
0
  6
SLD-Сплошная
 62
     7
370
    25
100
AcDbSpline
210
0.0
220
0.0
230
1.0
 70
     8
 71
     3
 72
     8
 73
     4
 74
     0
 42
0.00000001
 43
0.00000001
 40
0.0
 40
0.0
 40
0.0
 40
0.0
 40
1.0
 40
1.0
 40
1.0
 40
1.0
 10
167.1543272270015
 20
11.69558235050841
 30
0.0
 10
166.0639390242627
 20
12.06384994621931
 30
0.0
 10
164.9660567989889
 20
12.51806625523792
 30
0.0
 10
163.8561385441706
 20
13.05284494091195
 30
0.0
  0
LINE
  5
24E
330
1F
100
AcDbEntity
  8
0
  6
SLD-Сплошная
 62
     7
370
    25
100
AcDbLine
 10
163.8560671819
 20
13.5007950837
 30
0.0
 11
163.8561385442
 21
13.0528449409
 31
0.0
  0
LINE
  5
24F
330
1F
100
AcDbEntity
  8
0
  6
SLD-Сплошная
 62
     7
370
    25
100
AcDbLine
 10
167.1542602174
 20
12.1162099905
 30
0.0
 11
167.154327227
 21
11.6955823505
 31
0.0
  0
ARC
  5
250
330
1F
100
AcDbEntity
  8
0
  6
SLD-Сплошная
 62
     7
370
    25
100
AcDbCircle
 10
160.939344264
 20
12.6859361663
 30
0.0
 40
2.166738025775326
100
AcDbArc
 50
285.72640523
 51
306.5393603195
  0
LINE
  5
251
330
1F
100
AcDbEntity
  8
0
  6
SLD-Сплошная
 62
     7
370
    25
100
AcDbLine
 10
166.2813134959
 20
10.9450747306
 30
0.0
 11
162.2293656336
 21
10.9450747306
 31
0.0
  0
ARC
  5
252
330
1F
100
AcDbEntity
  8
0
  6
SLD-Сплошная
 62
     7
370
    25
100
AcDbCircle
 10
164.6147163777
 20
13.2648981802
 30
0.0
 40
2.856418525319545
100
AcDbArc
 50
305.6940522169
 51
306.2738018658
  0
SPLINE
  5
253
330
1F
100
AcDbEntity
  8
0
  6
SLD-Сплошная
 62
     7
370
    25
100
AcDbSpline
210
0.0
220
0.0
230
1.0
 70
     8
 71
     3
 72
     8
 73
     4
 74
     0
 42
0.00000001
 43
0.00000001
 40
0.0
 40
0.0
 40
0.0
 40
0.0
 40
1.0
 40
1.0
 40
1.0
 40
1.0
 10
163.1287042095325
 20
11.86733013904419
 30
0.0
 10
164.1943655102401
 20
11.48315148056945
 30
0.0
 10
165.2516145035711
 20
11.18027048646625
 30
0.0
 10
166.3047010058166
 20
10.96205672919191
 30
0.0
  0
ARC
  5
254
330
1F
100
AcDbEntity
  8
0
  6
SLD-Сплошная
 62
     7
370
    25
100
AcDbCircle
 10
156.0971726105
 20
16.9978274799
 30
0.0
 40
8.704277086216264
100
AcDbArc
 50
323.8839575209
 51
333.04931363
  0
SPLINE
  5
255
330
1F
100
AcDbEntity
  8
0
  6
SLD-Сплошная
 62
     7
370
    25
100
AcDbSpline
210
0.0
220
0.0
230
1.0
 70
     8
 71
     3
 72
     8
 73
     4
 74
     0
 42
0.00000001
 43
0.00000001
 40
0.0
 40
0.0
 40
0.0
 40
0.0
 40
1.0
 40
1.0
 40
1.0
 40
1.0
 10
172.1723821851576
 20
13.05284494091195
 30
0.0
 10
170.50832046952
 20
12.5180660752775
 30
0.0
 10
168.8350586524461
 20
12.06385005084754
 30
0.0
 10
167.1543272270015
 20
11.6955823505084
 30
0.0
  0
ARC
  5
256
330
1F
100
AcDbEntity
  8
0
  6
SLD-Сплошная
 62
     7
370
    25
100
AcDbCircle
 10
164.4134162515
 20
16.9978274799
 30
0.0
 40
8.704277086206366
100
AcDbArc
 50
323.8839575209
 51
333.04931363
  0
SPLINE
  5
257
330
1F
100
AcDbEntity
  8
0
  6
SLD-Сплошная
 62
     7
370
    25
100
AcDbSpline
210
0.0
220
0.0
230
1.0
 70
     8
 71
     3
 72
     8
 73
     4
 74
     0
 42
0.00000001
 43
0.00000001
 40
0.0
 40
0.0
 40
0.0
 40
0.0
 40
1.0
 40
1.0
 40
1.0
 40
1.0
 10
166.5170489221287
 20
10.96205672919227
 30
0.0
 10
168.1648498185711
 20
11.18027045243506
 30
0.0
 10
169.8080914394366
 20
11.48315155482322
 30
0.0
 10
171.4449478505195
 20
11.86733013904418
 30
0.0
  0
ARC
  5
258
330
1F
100
AcDbEntity
  8
0
  6
SLD-Сплошная
 62
     7
370
    25
100
AcDbCircle
 10
164.8270642944
 20
13.2648981794
 30
0.0
 40
2.856418524414356
100
AcDbArc
 50
305.6940522198
 51
306.2738018689
  0
LINE
  5
259
330
1F
100
AcDbEntity
  8
0
  6
SLD-Сплошная
 62
     7
370
    25
100
AcDbLine
 10
170.5456092746
 20
10.9450747306
 30
0.0
 11
166.4936614122
 21
10.9450747306
 31
0.0
  0
ARC
  5
25A
330
1F
100
AcDbEntity
  8
0
  6
SLD-Сплошная
 62
     7
370
    25
100
AcDbCircle
 10
169.255587905
 20
12.6859361663
 30
0.0
 40
2.166738025774678
100
AcDbArc
 50
285.72640523
 51
306.5393603195
  0
LINE
  5
25B
330
1F
100
AcDbEntity
  8
0
  6
SLD-Сплошная
 62
     7
370
    25
100
AcDbLine
 10
161.5266257823
 20
10.6003057842
 30
0.0
 11
169.8428694233
 21
10.6003057842
 31
0.0
  0
LINE
  5
25C
330
1F
100
AcDbEntity
  8
0
  6
SLD-Сплошная
 62
     7
370
    25
100
AcDbLine
 10
163.1286366792
 20
12.2912266687
 30
0.0
 11
163.1287042095
 21
11.867330139
 31
0.0
  0
LINE
  5
25D
330
1F
100
AcDbEntity
  8
0
  6
SLD-Сплошная
 62
     7
370
    25
100
AcDbLine
 10
172.1723108228
 20
13.5007950837
 30
0.0
 11
172.1723821852
 21
13.0528449409
 31
0.0
  0
LINE
  5
25E
330
1F
100
AcDbEntity
  8
0
  6
SLD-Сплошная
 62
     7
370
    25
100
AcDbLine
 10
146.3072565947
 20
42.6106901192
 30
0.0
 11
146.2327196884
 21
42.594047248
 31
0.0
  0
LINE
  5
25F
330
1F
100
AcDbEntity
  8
0
  6
SLD-Сплошная
 62
     7
370
    25
100
AcDbLine
 10
146.1572124301
 20
47.5769667286
 30
0.0
 11
146.2327196884
 21
47.594047248
 31
0.0
  0
LINE
  5
260
330
1F
100
AcDbEntity
  8
0
  6
SLD-Сплошная
 62
     7
370
    25
100
AcDbLine
 10
162.2293008064
 20
11.352003097
 30
0.0
 11
162.2293656336
 21
10.9450747306
 31
0.0
  0
LINE
  5
261
330
1F
100
AcDbEntity
  8
0
  6
SLD-Сплошная
 62
     7
370
    25
100
AcDbLine
 10
161.526561908
 20
11.0012525166
 30
0.0
 11
161.5266257823
 21
10.6003057842
 31
0.0
  0
LINE
  5
262
330
1F
100
AcDbEntity
  8
0
  6
SLD-Сплошная
 62
     7
370
    25
100
AcDbLine
 10
170.5455444474
 20
11.352003097
 30
0.0
 11
170.5456092746
 21
10.9450747306
 31
0.0
  0
ARC
  5
263
330
1F
100
AcDbEntity
  8
0
  6
SLD-Сплошная
 62
     7
370
    25
100
AcDbCircle
 10
161.1369606398
 20
12.4497132649
 30
0.0
 40
1.899607289500247
100
AcDbArc
 50
232.4309978427
 51
275.6610555949
  0
LINE
  5
264
330
1F
100
AcDbEntity
  8
0
  6
SLD-Сплошная
 62
     7
370
    25
100
AcDbLine
 10
163.5924057775
 20
10.5593706479
 30
0.0
 11
161.3243443226
 21
10.5593706479
 31
0.0
  0
LINE
  5
265
330
1F
100
AcDbEntity
  8
0
  6
SLD-Сплошная
 62
     7
370
    25
100
AcDbLine
 10
163.5924057775
 20
10.5593706479
 30
0.0
 11
163.3713981007
 21
10.544047248
 31
0.0
  0
LINE
  5
266
330
1F
100
AcDbEntity
  8
0
  6
SLD-Сплошная
 62
     7
370
    25
100
AcDbLine
 10
161.3242805588
 20
10.9596237645
 30
0.0
 11
161.3243443226
 21
10.5593706479
 31
0.0
  0
LINE
  5
267
330
1F
100
AcDbEntity
  8
0
  6
SLD-Сплошная
 62
     7
370
    25
100
AcDbLine
 10
163.5923992562
 20
10.6003057842
 30
0.0
 11
163.5924057775
 21
10.5593706479
 31
0.0
  0
ARC
  5
268
330
1F
100
AcDbEntity
  8
0
  6
SLD-Сплошная
 62
     7
370
    25
100
AcDbCircle
 10
164.127368279
 20
12.1708025053
 30
0.0
 40
1.626524918398388
100
AcDbArc
 50
254.9177822835
 51
277.8114621936
  0
LINE
  5
269
330
1F
100
AcDbEntity
  8
0
  6
SLD-Сплошная
 62
     7
370
    25
100
AcDbLine
 10
164.3484288943
 20
10.6003057842
 30
0.0
 11
164.3484354156
 21
10.5593706479
 31
0.0
  0
LINE
  5
26A
330
1F
100
AcDbEntity
  8
0
  6
SLD-Сплошная
 62
     7
370
    25
100
AcDbLine
 10
166.6164968705
 20
10.5593706479
 30
0.0
 11
164.3484354156
 21
10.5593706479
 31
0.0
  0
LWPOLYLINE
  5
26B
330
1F
100
AcDbEntity
  8
0
  6
SLD-Сплошная
 62
     7
370
    25
100
AcDbPolyline
 90
        3
 70
   128
 43
0.0
 10
166.6164968705
 20
10.5593706479
 10
166.4371570134
 20
10.5445917595
 10
166.3954891938
 20
10.544047248
  0
ARC
  5
26C
330
1F
100
AcDbEntity
  8
0
  6
SLD-Сплошная
 62
     7
370
    25
100
AcDbCircle
 10
167.1512834284
 20
12.1680332484
 30
0.0
 40
1.623805364889152
100
AcDbArc
 50
254.8983512123
 51
277.8308932649
  0
LINE
  5
26D
330
1F
100
AcDbEntity
  8
0
  6
SLD-Сплошная
 62
     7
370
    25
100
AcDbLine
 10
169.6405879636
 20
10.5593706479
 30
0.0
 11
167.3725265086
 21
10.5593706479
 31
0.0
  0
LINE
  5
26E
330
1F
100
AcDbEntity
  8
0
  6
SLD-Сплошная
 62
     7
370
    25
100
AcDbLine
 10
169.6405879636
 20
10.5593706479
 30
0.0
 11
169.4195802868
 21
10.544047248
 31
0.0
  0
LINE
  5
26F
330
1F
100
AcDbEntity
  8
0
  6
SLD-Сплошная
 62
     7
370
    25
100
AcDbLine
 10
166.6164903492
 20
10.6003057842
 30
0.0
 11
166.6164968705
 21
10.5593706479
 31
0.0
  0
LINE
  5
270
330
1F
100
AcDbEntity
  8
0
  6
SLD-Сплошная
 62
     7
370
    25
100
AcDbLine
 10
167.3725199873
 20
10.6003057842
 30
0.0
 11
167.3725265086
 21
10.5593706479
 31
0.0
  0
LINE
  5
271
330
1F
100
AcDbEntity
  8
0
  6
SLD-Сплошная
 62
     7
370
    25
100
AcDbLine
 10
169.6405814423
 20
10.6003057842
 30
0.0
 11
169.6405879636
 21
10.5593706479
 31
0.0
  0
LINE
  5
272
330
1F
100
AcDbEntity
  8
0
  6
SLD-Сплошная
 62
     7
370
    25
100
AcDbLine
 10
170.6784920134
 20
70.344047248
 30
0.0
 11
173.8791662038
 21
70.344047248
 31
0.0
  0
LINE
  5
273
330
1F
100
AcDbEntity
  8
0
  6
SLD-Сплошная
 62
     7
370
    25
100
AcDbLine
 10
170.6784920134
 20
-1.655952752
 30
0.0
 11
173.8791662038
 21
-1.655952752
 31
0.0
  0
SPLINE
  5
274
330
1F
100
AcDbEntity
  8
0
  6
SLD-Сплошная
 62
     7
370
    25
100
AcDbSpline
210
0.0
220
0.0
230
1.0
 70
     8
 71
     3
 72
    12
 73
     8
 74
     0
 42
0.00000001
 43
0.00000001
 40
0.0
 40
0.0
 40
0.0
 40
0.0
 40
0.2836078340023773
 40
0.4213596240251252
 40
0.5665027231342475
 40
0.8408658507660888
 40
1.0
 40
1.0
 40
1.0
 40
1.0
 10
194.8722451749035
 20
70.09206456665056
 30
0.0
 10
195.2861396774685
 20
70.3538392287133
 30
0.0
 10
195.9010677967862
 20
70.74276104243557
 30
0.0
 10
196.8270119818148
 20
71.0339673449029
 30
0.0
 10
197.7529306178912
 20
71.23907589869764
 30
0.0
 10
198.7377834924465
 20
71.351682051811
 30
0.0
 10
199.474012964339
 20
71.30440677876032
 30
0.0
 10
199.7442782160555
 20
71.28705232059367
 30
0.0
  0
SPLINE
  5
275
330
1F
100
AcDbEntity
  8
0
  6
SLD-Сплошная
 62
     7
370
    25
100
AcDbSpline
210
0.0
220
0.0
230
1.0
 70
     8
 71
     3
 72
     9
 73
     5
 74
     0
 42
0.00000001
 43
0.00000001
 40
0.0
 40
0.0
 40
0.0
 40
0.0
 40
0.2740502944219264
 40
0.9999999999999999
 40
0.9999999999999999
 40
0.9999999999999999
 40
0.9999999999999999
 10
200.2143403122826
 20
71.2671578591505
 30
0.0
 10
200.2812291281361
 20
71.26542294804037
 30
0.0
 10
200.525304092531
 20
71.25909231769457
 30
0.0
 10
200.7652069374509
 20
71.20915761614405
 30
0.0
 10
200.9393643370879
 20
71.17290753425532
 30
0.0
  0
SPLINE
  5
276
330
1F
100
AcDbEntity
  8
0
  6
SLD-Сплошная
 62
     7
370
    25
100
AcDbSpline
210
0.0
220
0.0
230
1.0
 70
     8
 71
     3
 72
    14
 73
    10
 74
     0
 42
0.00000001
 43
0.00000001
 40
0.0
 40
0.0
 40
0.0
 40
0.0
 40
0.0913972528788951
 40
0.325044165474716
 40
0.5453830004142608
 40
0.6624490849542141
 40
0.7733543063934579
 40
0.8909404764352615
 40
1.0
 40
1.0
 40
1.0
 40
1.0
 10
200.9885796354257
 20
-2.446516344943743
 30
0.0
 10
200.7995088866332
 20
-2.491936701207724
 30
0.0
 10
200.1270997953185
 20
-2.653469147012789
 30
0.0
 10
198.959842502806
 20
-2.654732954109153
 30
0.0
 10
197.7521826938551
 20
-2.554219177354086
 30
0.0
 10
196.8208066726093
 20
-2.34591782279088
 30
0.0
 10
196.1224002474468
 20
-2.114987025801644
 30
0.0
 10
195.4624287737035
 20
-1.818462967638497
 30
0.0
 10
195.0639763092695
 20
-1.538625105979054
 30
0.0
 10
194.8722451749035
 20
-1.403970070702115
 30
0.0
  0
SPLINE
  5
277
330
1F
100
AcDbEntity
  8
0
  6
SLD-Сплошная
 62
     7
370
    25
100
AcDbSpline
210
0.0
220
0.0
230
1.0
 70
     8
 71
     3
 72
    14
 73
    10
 74
     0
 42
0.00000001
 43
0.00000001
 40
0.0
 40
0.0
 40
0.0
 40
0.0
 40
0.0326971063747409
 40
0.1341255811248693
 40
0.2414653645107694
 40
0.3550825254664557
 40
0.5721117519637029
 40
0.7871416400189993
 40
1.0
 40
1.0
 40
1.0
 40
1.0
 10
177.2300703912446
 20
-2.821445137451195
 30
0.0
 10
177.1937379538574
 20
-2.848599703395932
 30
0.0
 10
177.04470001691
 20
-2.959989436046556
 30
0.0
 10
176.7719082758789
 20
-3.050775249083842
 30
0.0
 10
176.4075955617212
 20
-3.118126650768612
 30
0.0
 10
175.9116464154607
 20
-3.092571666487846
 30
0.0
 10
175.2962601692374
 20
-2.897992404132868
 30
0.0
 10
174.5710588532195
 20
-2.509141598378894
 30
0.0
 10
174.1090154652844
 20
-1.939385198357006
 30
0.0
 10
173.8791662038305
 20
-1.655952752025715
 30
0.0
  0
SPLINE
  5
278
330
1F
100
AcDbEntity
  8
0
  6
SLD-Сплошная
 62
     7
370
    25
100
AcDbSpline
210
0.0
220
0.0
230
1.0
 70
     8
 71
     3
 72
    14
 73
    10
 74
     0
 42
0.00000001
 43
0.00000001
 40
0.0
 40
0.0
 40
0.0
 40
0.0
 40
0.163644207691355
 40
0.3260845558509769
 40
0.4879317374561388
 40
0.6498828324571382
 40
0.8198565486220081
 40
0.9758486141187058
 40
1.0
 40
1.0
 40
1.0
 40
1.0
 10
173.8791662038248
 20
70.34404724797427
 30
0.0
 10
174.0533251998037
 20
70.56923928380016
 30
0.0
 10
174.4003619794882
 20
71.0179667152162
 30
0.0
 10
174.9399271193215
 20
71.39568190616117
 30
0.0
 10
175.4807904592039
 20
71.65122936199566
 30
0.0
 10
176.0335915586574
 20
71.80438786802655
 30
0.0
 10
176.5800183481149
 20
71.78627660478001
 30
0.0
 10
176.9742525090927
 20
71.71112263300236
 30
0.0
 10
177.1717156189639
 20
71.5468021335408
 30
0.0
 10
177.1981890085173
 20
71.52477209159174
 30
0.0
  0
LINE
  5
279
330
1F
100
AcDbEntity
  8
0
  6
SLD-Сплошная
 62
     7
370
    25
100
AcDbLine
 10
170.6784920134
 20
-1.655952752
 30
0.0
 11
170.6784920134
 21
10.944047248
 31
0.0
  0
LINE
  5
27A
330
1F
100
AcDbEntity
  8
0
  6
SLD-Сплошная
 62
     7
370
    25
100
AcDbLine
 10
170.6784920134
 20
58.144047248
 30
0.0
 11
170.6784920134
 21
70.344047248
 31
0.0
  0
SPLINE
  5
27B
330
1F
100
AcDbEntity
  8
0
  6
SLD-Сплошная
 62
     7
370
    25
100
AcDbSpline
210
0.0
220
0.0
230
1.0
 70
     8
 71
     3
 72
    30
 73
    26
 74
     0
 42
0.00000001
 43
0.00000001
 40
0.0
 40
0.0
 40
0.0
 40
0.0
 40
0.0177406656146772
 40
0.0353823498507049
 40
0.0529801012769974
 40
0.0705893804838783
 40
0.0882655395535413
 40
0.1060633065784338
 40
0.1240362987899391
 40
0.1851862724428855
 40
0.2462354954060977
 40
0.306925577586092
 40
0.3676481637403499
 40
0.4280019886795848
 40
0.4889054022663826
 40
0.5499558775888609
 40
0.6106791160687659
 40
0.6721194781651921
 40
0.7338156170308683
 40
0.7985877215636336
 40
0.8636180284664009
 40
0.8979073384805484
 40
0.9318015674958525
 40
0.965699552636239
 40
1.0
 40
1.0
 40
1.0
 40
1.0
 10
275.0907240203084
 20
74.84222276955444
 30
0.0
 10
275.1368314718984
 20
74.82509309416982
 30
0.0
 10
275.2287891254788
 20
74.79092931585106
 30
0.0
 10
275.3626193881337
 20
74.73019481007665
 30
0.0
 10
275.4927235092007
 20
74.66274747636436
 30
0.0
 10
275.6188549740102
 20
74.58790069973051
 30
0.0
 10
275.7410757530337
 20
74.50584863526136
 30
0.0
 10
275.8593633829545
 20
74.41651510417738
 30
0.0
 10
276.0647409572437
 20
74.24325031426469
 30
0.0
 10
276.3314855002229
 20
73.95693912529717
 30
0.0
 10
276.5981328507318
 20
73.52216115565365
 30
0.0
 10
276.7789695982971
 20
73.04659939395974
 30
0.0
 10
276.8649212714236
 20
72.54707697608478
 30
0.0
 10
276.8563459100164
 20
72.03960018983965
 30
0.0
 10
276.7485318885703
 20
71.54281251706976
 30
0.0
 10
276.5518011091255
 20
71.072914667484
 30
0.0
 10
276.2654111480322
 20
70.64965924611971
 30
0.0
 10
275.9032632975689
 20
70.28659824293271
 30
0.0
 10
275.4680603347495
 20
69.99474012929208
 30
0.0
 10
274.9753952087289
 20
69.78743780753824
 30
0.0
 10
274.5250229300385
 20
69.7026013540227
 30
0.0
 10
274.1554458852777
 20
69.68886365024606
 30
0.0
 10
273.8727661539765
 20
69.7094714718321
 30
0.0
 10
273.5932996463897
 20
69.75891288930094
 30
0.0
 10
273.4131473083352
 20
69.81677163263335
 30
0.0
 10
273.3225395690955
 20
69.8458717263941
 30
0.0
  0
SPLINE
  5
27C
330
1F
100
AcDbEntity
  8
0
  6
SLD-Сплошная
 62
     7
370
    25
100
AcDbSpline
210
0.0
220
0.0
230
1.0
 70
     8
 71
     3
 72
    29
 73
    25
 74
     0
 42
0.00000001
 43
0.00000001
 40
0.0
 40
0.0
 40
0.0
 40
0.0
 40
0.0207107886516619
 40
0.0412895684499139
 40
0.0618234854904194
 40
0.0824002558807934
 40
0.1031070511422619
 40
0.1240294176416048
 40
0.1851784700302465
 40
0.2462300523077117
 40
0.306921284897518
 40
0.3676440685155885
 40
0.4279969244206254
 40
0.4889025757695218
 40
0.5499500623541562
 40
0.610677641242468
 40
0.6721170494302044
 40
0.7338155873240653
 40
0.7985888112041459
 40
0.8636194405075553
 40
0.8978711447495442
 40
0.9317532350933467
 40
0.9656638157579084
 40
1.0
 40
1.0
 40
1.0
 40
1.0
 10
273.3225395690955
 20
69.8458717263941
 30
0.0
 10
273.2687717692048
 20
69.86604017274091
 30
0.0
 10
273.1615788809318
 20
69.90624851342614
 30
0.0
 10
273.0064255056296
 20
69.97942483432315
 30
0.0
 10
272.8564173968941
 20
70.06169488991112
 30
0.0
 10
272.7118908971651
 20
70.15397350016895
 30
0.0
 10
272.5727667196191
 20
70.25604325128019
 30
0.0
 10
272.3541266139156
 20
70.43883225586286
 30
0.0
 10
272.0817804793197
 20
70.73114251432486
 30
0.0
 10
271.8151317570781
 20
71.16593244766223
 30
0.0
 10
271.6342940103535
 20
71.64149576650358
 30
0.0
 10
271.5483415965206
 20
72.14101461327797
 30
0.0
 10
271.5569228604239
 20
72.6484890442921
 30
0.0
 10
271.6647264250652
 20
73.14526823265952
 30
0.0
 10
271.8614576250121
 20
73.61517073536464
 30
0.0
 10
272.1478435991733
 20
74.03842328544832
 30
0.0
 10
272.509992948088
 20
74.40149730521128
 30
0.0
 10
272.9452006583376
 20
74.69335311014811
 30
0.0
 10
273.437869533846
 20
74.90065237304141
 30
0.0
 10
273.8881365547743
 20
74.98548860070566
 30
0.0
 10
274.2575736306262
 20
74.99919949657303
 30
0.0
 10
274.5401456556296
 20
74.97856964894322
 30
0.0
 10
274.8197052748584
 20
74.92912275747877
 30
0.0
 10
275.0000096310844
 20
74.87130961118615
 30
0.0
 10
275.0907240203084
 20
74.84222276955444
 30
0.0
  0
SPLINE
  5
27D
330
1F
100
AcDbEntity
  8
0
  6
SLD-Сплошная
 62
     7
370
    25
100
AcDbSpline
210
0.0
220
0.0
230
1.0
 70
     8
 71
     3
 72
    30
 73
    26
 74
     0
 42
0.00000001
 43
0.00000001
 40
0.0
 40
0.0
 40
0.0
 40
0.0
 40
0.0196520062754955
 40
0.039126460902601
 40
0.0584963354387602
 40
0.0778357852815647
 40
0.0972193150181828
 40
0.1167209240295119
 40
0.1364132805965527
 40
0.2013156955677908
 40
0.2662208556001147
 40
0.3277875690707439
 40
0.3893561320281363
 40
0.4499542829539572
 40
0.5111285919302219
 40
0.5719051784384181
 40
0.6323845130753547
 40
0.6929759985325702
 40
0.7537959179591874
 40
0.8147183154482837
 40
0.8759939015359682
 40
0.907287243514928
 40
0.9381887350788225
 40
0.9689936446558082
 40
1.0
 40
1.0
 40
1.0
 40
1.0
 10
163.0907240203083
 20
69.8458717263941
 30
0.0
 10
163.0390575998115
 20
69.82856169759563
 30
0.0
 10
162.9361915538106
 20
69.79409803238451
 30
0.0
 10
162.7788072518875
 20
69.75447631138316
 30
0.0
 10
162.6203255194202
 20
69.72414438080479
 30
0.0
 10
162.460461607642
 20
69.7039229928128
 30
0.0
 10
162.2993054883157
 20
69.69359013294624
 30
0.0
 10
162.1368222439124
 20
69.69322288711369
 30
0.0
 10
161.8486882502192
 20
69.70995142621726
 30
0.0
 10
161.4382122232739
 20
69.7873748542322
 30
0.0
 10
160.9458527003972
 20
69.99438125037479
 30
0.0
 10
160.5102815204017
 20
70.28636336542203
 30
0.0
 10
160.1482987087181
 20
70.6491182850096
 30
0.0
 10
159.8616321492914
 20
71.0725989539041
 30
0.0
 10
159.664939289583
 20
71.5421515930546
 30
0.0
 10
159.5569644407788
 20
72.03924025935012
 30
0.0
 10
159.5482878581281
 20
72.54636819348626
 30
0.0
 10
159.6341945743577
 20
73.04624241457938
 30
0.0
 10
159.8148213972147
 20
73.52150552674632
 30
0.0
 10
160.0815414580299
 20
73.95672223137566
 30
0.0
 10
160.3736410108296
 20
74.2700299776202
 30
0.0
 10
160.6396576527886
 20
74.48603875282011
 30
0.0
 10
160.8550865022116
 20
74.62824281680572
 30
0.0
 10
161.0822315231596
 20
74.74975902249882
 30
0.0
 10
161.2422630370852
 20
74.81133462795519
 30
0.0
 10
161.3225395690955
 20
74.84222276955444
 30
0.0
  0
SPLINE
  5
27E
330
1F
100
AcDbEntity
  8
0
  6
SLD-Сплошная
 62
     7
370
    25
100
AcDbSpline
210
0.0
220
0.0
230
1.0
 70
     8
 71
     3
 72
    30
 73
    26
 74
     0
 42
0.00000001
 43
0.00000001
 40
0.0
 40
0.0
 40
0.0
 40
0.0
 40
0.0196750912097253
 40
0.0391653304312114
 40
0.0585433023932052
 40
0.0778828559417887
 40
0.0972582792199201
 40
0.116743450109713
 40
0.1364110097867979
 40
0.2013156489945812
 40
0.2662193463264504
 40
0.3277896330429896
 40
0.3893552774368499
 40
0.4499567677325825
 40
0.5111283905954143
 40
0.5719082993335921
 40
0.6323849616002504
 40
0.6929797823669066
 40
0.753797017074041
 40
0.8147226556569993
 40
0.8759956562090855
 40
0.907252673678146
 40
0.9381422931918906
 40
0.9689591622201928
 40
1.0
 40
1.0
 40
1.0
 40
1.0
 10
161.3225395690955
 20
74.84222276955444
 30
0.0
 10
161.3742755271279
 20
74.85952539819284
 30
0.0
 10
161.4772613720175
 20
74.89396809331068
 30
0.0
 10
161.63478032056
 20
74.93358094248767
 30
0.0
 10
161.7933295081602
 20
74.96390802783337
 30
0.0
 10
161.9531921811052
 20
74.98413165377507
 30
0.0
 10
162.1142788587835
 20
74.99447220740232
 30
0.0
 10
162.2766244800913
 20
74.99485483550107
 30
0.0
 10
162.5646494736511
 20
74.97813774378534
 30
0.0
 10
162.9750575616972
 20
74.9007194861862
 30
0.0
 10
163.4674230978452
 20
74.69370672954193
 30
0.0
 10
163.902989104194
 20
74.40172495374088
 30
0.0
 10
164.264975904903
 20
74.03896287537127
 30
0.0
 10
164.55163555757
 20
73.61548789095454
 30
0.0
 10
164.7483293014622
 20
73.14592705556147
 30
0.0
 10
164.8563001019832
 20
72.64884568411186
 30
0.0
 10
164.8649745417127
 20
72.14170966747801
 30
0.0
 10
164.7790664488167
 20
71.64184402215018
 30
0.0
 10
164.5984358697514
 20
71.16657320546432
 30
0.0
 10
164.3317136576586
 20
70.73136958190706
 30
0.0
 10
164.0396959020862
 20
70.41812198551872
 30
0.0
 10
163.773774277986
 20
70.2022219860014
 30
0.0
 10
163.5584157841138
 20
70.06009590494693
 30
0.0
 10
163.3311953021106
 20
69.93852836858197
 30
0.0
 10
163.1710743646785
 20
69.87683173564001
 30
0.0
 10
163.0907240203083
 20
69.8458717263941
 30
0.0
  0
SPLINE
  5
27F
330
1F
100
AcDbEntity
  8
0
  6
SLD-Сплошная
 62
     7
370
    25
100
AcDbSpline
210
0.0
220
0.0
230
1.0
 70
     8
 71
     3
 72
    26
 73
    22
 74
     0
 42
0.00000001
 43
0.00000001
 40
0.0
 40
0.0
 40
0.0
 40
0.0
 40
0.125
 40
0.125
 40
0.25
 40
0.25
 40
0.375
 40
0.375
 40
0.5
 40
0.5
 40
0.625
 40
0.625
 40
0.75
 40
0.75
 40
0.8125
 40
0.8125
 40
0.875
 40
0.875
 40
0.9375
 40
0.9375
 40
1.0
 40
1.0
 40
1.0
 40
1.0
 10
163.0907240203082
 20
-6.154128273605862
 30
0.0
 10
163.4177344288603
 20
-6.038400872810469
 30
0.0
 10
163.7175832420738
 20
-5.858406204205906
 30
0.0
 10
164.2271482754563
 20
-5.404198965034245
 30
0.0
 10
164.435736285209
 20
-5.129422992167953
 30
0.0
 10
164.7329900125216
 20
-4.52297587866389
 30
0.0
 10
164.8233451479185
 20
-4.192148394343335
 30
0.0
 10
164.8751747657832
 20
-3.521323682302811
 30
0.0
 10
164.8350733470406
 20
-3.181326454582849
 30
0.0
 10
164.6326285730524
 20
-2.538200367481189
 30
0.0
 10
164.4702975512358
 20
-2.235261080577311
 30
0.0
 10
164.038224417735
 20
-1.711435178431926
 30
0.0
 10
163.7699891371273
 20
-1.489796086470062
 30
0.0
 10
163.3161951969882
 20
-1.243485712358369
 30
0.0
 10
163.1590527247571
 20
-1.17662024824719
 30
0.0
 10
162.8188965592939
 20
-1.071528826225979
 30
0.0
 10
162.6325561781543
 20
-1.033296947503752
 30
0.0
 10
162.2461113834252
 20
-0.9991608660276166
 30
0.0
 10
162.0471487468367
 20
-1.00390074176538
 30
0.0
 10
161.6666158172883
 20
-1.05442709960013
 30
0.0
 10
161.4860447733721
 20
-1.099913530047618
 30
0.0
 10
161.3225395690954
 20
-1.157777230445564
 30
0.0
  0
SPLINE
  5
280
330
1F
100
AcDbEntity
  8
0
  6
SLD-Сплошная
 62
     7
370
    25
100
AcDbSpline
210
0.0
220
0.0
230
1.0
 70
     8
 71
     3
 72
    26
 73
    22
 74
     0
 42
0.00000001
 43
0.00000001
 40
0.0
 40
0.0
 40
0.0
 40
0.0
 40
0.1250000000000011
 40
0.1250000000000011
 40
0.2500000000000022
 40
0.2500000000000022
 40
0.3750000000000033
 40
0.3750000000000033
 40
0.5000000000000044
 40
0.5000000000000044
 40
0.6250000000000056
 40
0.6250000000000056
 40
0.7500000000000067
 40
0.7500000000000067
 40
0.812500000000005
 40
0.812500000000005
 40
0.8750000000000033
 40
0.8750000000000033
 40
0.9375000000000017
 40
0.9375000000000017
 40
1.0
 40
1.0
 40
1.0
 40
1.0
 10
161.3225395690954
 20
-1.157777230445564
 30
0.0
 10
160.9955291605424
 20
-1.273504631241533
 30
0.0
 10
160.6956803473295
 20
-1.453499299845867
 30
0.0
 10
160.1861153139473
 20
-1.907706539017326
 30
0.0
 10
159.9775273041946
 20
-2.182482511883556
 30
0.0
 10
159.6802735768821
 20
-2.788929625387584
 30
0.0
 10
159.5899184414852
 20
-3.119757109708125
 30
0.0
 10
159.5380888236203
 20
-3.790581821748622
 30
0.0
 10
159.5781902423631
 20
-4.130579049468612
 30
0.0
 10
159.7806350163514
 20
-4.773705136570216
 30
0.0
 10
159.9429660381678
 20
-5.076644423474081
 30
0.0
 10
160.3750391716687
 20
-5.600470325619458
 30
0.0
 10
160.6432744522764
 20
-5.822109417581316
 30
0.0
 10
161.0970683924155
 20
-6.068419791693016
 30
0.0
 10
161.2542108646465
 20
-6.135285255804222
 30
0.0
 10
161.5943670301098
 20
-6.240376677825468
 30
0.0
 10
161.7807074112494
 20
-6.27860855654773
 30
0.0
 10
162.1671522059784
 20
-6.312744638023865
 30
0.0
 10
162.3661148425667
 20
-6.308004762286094
 30
0.0
 10
162.7466477721149
 20
-6.257478404451414
 30
0.0
 10
162.9272188160306
 20
-6.211991974004197
 30
0.0
 10
163.0907240203082
 20
-6.154128273605862
 30
0.0
  0
SPLINE
  5
281
330
1F
100
AcDbEntity
  8
0
  6
SLD-Сплошная
 62
     7
370
    25
100
AcDbSpline
210
0.0
220
0.0
230
1.0
 70
     8
 71
     3
 72
    26
 73
    22
 74
     0
 42
0.00000001
 43
0.00000001
 40
0.0
 40
0.0
 40
0.0
 40
0.0
 40
0.125
 40
0.125
 40
0.2499999999999997
 40
0.2499999999999997
 40
0.3749999999999994
 40
0.3749999999999994
 40
0.4999999999999992
 40
0.4999999999999992
 40
0.6249999999999989
 40
0.6249999999999989
 40
0.7499999999999987
 40
0.7499999999999987
 40
0.812499999999999
 40
0.812499999999999
 40
0.8749999999999993
 40
0.8749999999999993
 40
0.9374999999999997
 40
0.9374999999999997
 40
1.0
 40
1.0
 40
1.0
 40
1.0
 10
273.3225395690955
 20
-1.157777230445516
 30
0.0
 10
272.9955291605434
 20
-1.273504631240964
 30
0.0
 10
272.6956803473299
 20
-1.453499299845527
 30
0.0
 10
272.1861153139475
 20
-1.90770653901718
 30
0.0
 10
271.9775273041947
 20
-2.1824825118835
 30
0.0
 10
271.6802735768821
 20
-2.788929625387529
 30
0.0
 10
271.5899184414852
 20
-3.119757109708105
 30
0.0
 10
271.5380888236205
 20
-3.79058182174865
 30
0.0
 10
271.5781902423632
 20
-4.130579049468584
 30
0.0
 10
271.7806350163514
 20
-4.773705136570252
 30
0.0
 10
271.9429660381679
 20
-5.076644423474115
 30
0.0
 10
272.3750391716687
 20
-5.600470325619507
 30
0.0
 10
272.6432744522764
 20
-5.822109417581337
 30
0.0
 10
273.0970683924155
 20
-6.068419791693008
 30
0.0
 10
273.2542108646464
 20
-6.135285255804187
 30
0.0
 10
273.5943670301097
 20
-6.240376677825426
 30
0.0
 10
273.7807074112494
 20
-6.278608556547667
 30
0.0
 10
274.1671522059785
 20
-6.312744638023809
 30
0.0
 10
274.366114842567
 20
-6.308004762286004
 30
0.0
 10
274.7466477721155
 20
-6.257478404451282
 30
0.0
 10
274.9272188160317
 20
-6.211991974003822
 30
0.0
 10
275.0907240203082
 20
-6.154128273605862
 30
0.0
  0
SPLINE
  5
282
330
1F
100
AcDbEntity
  8
0
  6
SLD-Сплошная
 62
     7
370
    25
100
AcDbSpline
210
0.0
220
0.0
230
1.0
 70
     8
 71
     3
 72
    26
 73
    22
 74
     0
 42
0.00000001
 43
0.00000001
 40
0.0
 40
0.0
 40
0.0
 40
0.0
 40
0.125
 40
0.125
 40
0.25
 40
0.25
 40
0.375
 40
0.375
 40
0.5
 40
0.5
 40
0.625
 40
0.625
 40
0.75
 40
0.75
 40
0.8125
 40
0.8125
 40
0.875
 40
0.875
 40
0.9375
 40
0.9375
 40
1.0
 40
1.0
 40
1.0
 40
1.0
 10
275.0907240203082
 20
-6.154128273605862
 30
0.0
 10
275.4177344288613
 20
-6.038400872809907
 30
0.0
 10
275.7175832420742
 20
-5.858406204205544
 30
0.0
 10
276.2271482754563
 20
-5.404198965034094
 30
0.0
 10
276.435736285209
 20
-5.129422992167884
 30
0.0
 10
276.7329900125216
 20
-4.522975878663828
 30
0.0
 10
276.8233451479185
 20
-4.192148394343301
 30
0.0
 10
276.8751747657832
 20
-3.521323682302798
 30
0.0
 10
276.8350733470405
 20
-3.181326454582786
 30
0.0
 10
276.6326285730523
 20
-2.538200367481168
 30
0.0
 10
276.4702975512358
 20
-2.235261080577366
 30
0.0
 10
276.038224417735
 20
-1.711435178431926
 30
0.0
 10
275.7699891371273
 20
-1.489796086470062
 30
0.0
 10
275.3161951969882
 20
-1.243485712358376
 30
0.0
 10
275.1590527247573
 20
-1.176620248247204
 30
0.0
 10
274.818896559294
 20
-1.071528826225972
 30
0.0
 10
274.6325561781543
 20
-1.033296947503745
 30
0.0
 10
274.2461113834253
 20
-0.9991608660275542
 30
0.0
 10
274.0471487468369
 20
-1.00390074176536
 30
0.0
 10
273.6666158172889
 20
-1.054427099599978
 30
0.0
 10
273.4860447733731
 20
-1.099913530047243
 30
0.0
 10
273.3225395690955
 20
-1.157777230445516
 30
0.0
  0
ARC
  5
283
330
1F
100
AcDbEntity
  8
0
  6
SLD-Сплошная
 62
     7
370
    25
100
AcDbCircle
 10
274.2066317947
 20
72.344047248
 30
0.0
 40
6.0
100
AcDbArc
 50
0.0
 51
90.0
  0
ARC
  5
284
330
1F
100
AcDbEntity
  8
0
  6
SLD-Сплошная
 62
     7
370
    25
100
AcDbCircle
 10
274.2066317947
 20
-3.655952752
 30
0.0
 40
6.0
100
AcDbArc
 50
270.0
 51
0.0
  0
LINE
  5
285
330
1F
100
AcDbEntity
  8
0
  6
SLD-Сплошная
 62
     7
370
    25
100
AcDbLine
 10
162.4182888772
 20
-9.655952752
 30
0.0
 11
274.2066317947
 21
-9.655952752
 31
0.0
  0
SPLINE
  5
286
330
1F
100
AcDbEntity
  8
0
  6
SLD-Сплошная
 62
     7
370
    25
100
AcDbSpline
210
0.0
220
0.0
230
1.0
 70
     8
 71
     3
 72
    22
 73
    18
 74
     0
 42
0.00000001
 43
0.00000001
 40
0.0
 40
0.0
 40
0.0
 40
0.0
 40
0.125
 40
0.125
 40
0.25
 40
0.25
 40
0.375
 40
0.375
 40
0.5
 40
0.5
 40
0.625
 40
0.625
 40
0.75
 40
0.75
 40
0.875
 40
0.875
 40
1.0
 40
1.0
 40
1.0
 40
1.0
 10
156.2066317947018
 20
-3.655952752025716
 30
0.0
 10
156.2066317947018
 20
-4.009506142618982
 30
0.0
 10
156.2391706116252
 20
-4.376281179800046
 30
0.0
 10
156.3814956308069
 20
-5.119180953197098
 30
0.0
 10
156.491406573227
 20
-5.495230158245302
 30
0.0
 10
156.794119010131
 20
-6.23381186054859
 30
0.0
 10
156.9869919281687
 20
-6.596194651685976
 30
0.0
 10
157.4513276356579
 20
-7.282227892987193
 30
0.0
 10
157.7227586589079
 20
-7.60570022033153
 30
0.0
 10
158.3292094045903
 20
-8.191486657958443
 30
0.0
 10
158.6640926001117
 20
-8.453668893371631
 30
0.0
 10
159.3743264738005
 20
-8.902182745303612
 30
0.0
 10
159.7494927456555
 20
-9.088483678028066
 30
0.0
 10
160.5141287893369
 20
-9.38088143877252
 30
0.0
 10
160.9034435739853
 20
-9.487047256647827
 30
0.0
 10
161.6725500138154
 20
-9.624522668402461
 30
0.0
 10
162.052263473378
 20
-9.655952752025723
 30
0.0
 10
162.4182888771624
 20
-9.655952752025716
 30
0.0
  0
LINE
  5
287
330
1F
100
AcDbEntity
  8
0
  6
SLD-Сплошная
 62
     7
370
    25
100
AcDbLine
 10
156.2066317947
 20
72.344047248
 30
0.0
 11
156.2066317947
 21
58.8447872379
 31
0.0
  0
LINE
  5
288
330
1F
100
AcDbEntity
  8
0
  6
SLD-Сплошная
 62
     7
370
    25
100
AcDbLine
 10
156.2066317947
 20
9.8433072581
 30
0.0
 11
156.2066317947
 21
-3.655952752
 31
0.0
  0
SPLINE
  5
289
330
1F
100
AcDbEntity
  8
0
  6
SLD-Сплошная
 62
     7
370
    25
100
AcDbSpline
210
0.0
220
0.0
230
1.0
 70
     8
 71
     3
 72
    22
 73
    18
 74
     0
 42
0.00000001
 43
0.00000001
 40
0.0
 40
0.0
 40
0.0
 40
0.0
 40
0.125
 40
0.125
 40
0.25
 40
0.25
 40
0.375
 40
0.375
 40
0.5
 40
0.5
 40
0.625
 40
0.625
 40
0.75
 40
0.75
 40
0.875
 40
0.875
 40
1.0
 40
1.0
 40
1.0
 40
1.0
 10
162.4182888771624
 20
78.34404724797427
 30
0.0
 10
162.052263473378
 20
78.34404724797427
 30
0.0
 10
161.6725500138154
 20
78.31261716435107
 30
0.0
 10
160.9034435739853
 20
78.17514175259639
 30
0.0
 10
160.5141287893368
 20
78.0689759347211
 30
0.0
 10
159.7494927456555
 20
77.77657817397662
 30
0.0
 10
159.3743264738004
 20
77.59027724125217
 30
0.0
 10
158.6640926001118
 20
77.14176338932019
 30
0.0
 10
158.3292094045903
 20
76.87958115390703
 30
0.0
 10
157.7227586589079
 20
76.2937947162801
 30
0.0
 10
157.4513276356579
 20
75.97032238893576
 30
0.0
 10
156.9869919281688
 20
75.28428914763452
 30
0.0
 10
156.794119010131
 20
74.92190635649715
 30
0.0
 10
156.491406573227
 20
74.18332465419385
 30
0.0
 10
156.3814956308069
 20
73.80727544914569
 30
0.0
 10
156.2391706116253
 20
73.06437567574864
 30
0.0
 10
156.2066317947018
 20
72.69760063856756
 30
0.0
 10
156.2066317947018
 20
72.34404724797427
 30
0.0
  0
LINE
  5
28A
330
1F
100
AcDbEntity
  8
0
  6
SLD-Сплошная
 62
     7
370
    25
100
AcDbLine
 10
274.2066317947
 20
78.344047248
 30
0.0
 11
162.4182888772
 21
78.344047248
 31
0.0
  0
LINE
  5
28B
330
1F
100
AcDbEntity
  8
0
  6
SLD-Сплошная
 62
     7
370
    25
100
AcDbLine
 10
280.2066317947
 20
72.344047248
 30
0.0
 11
280.2066317947
 21
54.4251031539
 31
0.0
  0
LINE
  5
28C
330
1F
100
AcDbEntity
  8
0
  6
SLD-Сплошная
 62
     7
370
    25
100
AcDbLine
 10
280.2066317947
 20
14.2640650547
 30
0.0
 11
280.2066317947
 21
-3.655952752
 31
0.0
  0
LINE
  5
28D
330
1F
100
AcDbEntity
  8
0
  6
SLD-Сплошная
 62
     7
370
    25
100
AcDbLine
 10
160.5426445301
 20
78.344047248
 30
0.0
 11
162.4182888772
 21
78.344047248
 31
0.0
  0
SPLINE
  5
28E
330
1F
100
AcDbEntity
  8
0
  6
SLD-Сплошная
 62
     7
370
    25
100
AcDbSpline
210
0.0
220
0.0
230
1.0
 70
     8
 71
     3
 72
    22
 73
    18
 74
     0
 42
0.00000001
 43
0.00000001
 40
0.0
 40
0.0
 40
0.0
 40
0.0
 40
0.125
 40
0.125
 40
0.25
 40
0.25
 40
0.375
 40
0.375
 40
0.5
 40
0.5
 40
0.625
 40
0.625
 40
0.75
 40
0.75
 40
0.875
 40
0.875
 40
1.0
 40
1.0
 40
1.0
 40
1.0
 10
154.3309874476838
 20
72.34404724797427
 30
0.0
 10
154.3309874476839
 20
72.69760063856756
 30
0.0
 10
154.3635262646073
 20
73.06437567574864
 30
0.0
 10
154.5058512837889
 20
73.80727544914569
 30
0.0
 10
154.615762226209
 20
74.1833246541939
 30
0.0
 10
154.918474663113
 20
74.92190635649719
 30
0.0
 10
155.1113475811508
 20
75.28428914763455
 30
0.0
 10
155.57568328864
 20
75.97032238893576
 30
0.0
 10
155.8471143118899
 20
76.29379471628015
 30
0.0
 10
156.4535650575723
 20
76.87958115390703
 30
0.0
 10
156.7884482530938
 20
77.14176338932022
 30
0.0
 10
157.4986821267825
 20
77.59027724125217
 30
0.0
 10
157.8738483986375
 20
77.77657817397665
 30
0.0
 10
158.6384844423188
 20
78.0689759347211
 30
0.0
 10
159.0277992269673
 20
78.1751417525964
 30
0.0
 10
159.7969056667974
 20
78.31261716435105
 30
0.0
 10
160.17661912636
 20
78.34404724797427
 30
0.0
 10
160.5426445301444
 20
78.34404724797427
 30
0.0
  0
LINE
  5
28F
330
1F
100
AcDbEntity
  8
0
  6
SLD-Сплошная
 62
     7
370
    25
100
AcDbLine
 10
154.3309874477
 20
72.344047248
 30
0.0
 11
154.3309874477
 21
58.994047248
 31
0.0
  0
LINE
  5
290
330
1F
100
AcDbEntity
  8
0
  6
SLD-Сплошная
 62
     7
370
    25
100
AcDbLine
 10
154.3309874477
 20
9.694047248
 30
0.0
 11
154.3309874477
 21
-3.655952752
 31
0.0
  0
LINE
  5
291
330
1F
100
AcDbEntity
  8
0
  6
SLD-Сплошная
 62
     7
370
    25
100
AcDbLine
 10
162.4182888772
 20
-9.655952752
 30
0.0
 11
160.5426445301
 21
-9.655952752
 31
0.0
  0
SPLINE
  5
292
330
1F
100
AcDbEntity
  8
0
  6
SLD-Сплошная
 62
     7
370
    25
100
AcDbSpline
210
0.0
220
0.0
230
1.0
 70
     8
 71
     3
 72
    22
 73
    18
 74
     0
 42
0.00000001
 43
0.00000001
 40
0.0
 40
0.0
 40
0.0
 40
0.0
 40
0.1249999999999991
 40
0.1249999999999991
 40
0.2499999999999982
 40
0.2499999999999982
 40
0.3749999999999973
 40
0.3749999999999973
 40
0.4999999999999964
 40
0.4999999999999964
 40
0.6249999999999956
 40
0.6249999999999956
 40
0.749999999999997
 40
0.749999999999997
 40
0.8749999999999984
 40
0.8749999999999984
 40
1.0
 40
1.0
 40
1.0
 40
1.0
 10
160.5426445301444
 20
-9.655952752025716
 30
0.0
 10
160.17661912636
 20
-9.655952752025716
 30
0.0
 10
159.7969056667975
 20
-9.624522668402475
 30
0.0
 10
159.0277992269674
 20
-9.487047256647827
 30
0.0
 10
158.6384844423189
 20
-9.38088143877252
 30
0.0
 10
157.8738483986376
 20
-9.088483678028066
 30
0.0
 10
157.4986821267826
 20
-8.902182745303591
 30
0.0
 10
156.7884482530939
 20
-8.453668893371617
 30
0.0
 10
156.4535650575724
 20
-8.191486657958443
 30
0.0
 10
155.84711431189
 20
-7.605700220331538
 30
0.0
 10
155.57568328864
 20
-7.282227892987186
 30
0.0
 10
155.1113475811509
 20
-6.596194651685955
 30
0.0
 10
154.918474663113
 20
-6.233811860548576
 30
0.0
 10
154.6157622262091
 20
-5.495230158245282
 30
0.0
 10
154.505851283789
 20
-5.119180953197105
 30
0.0
 10
154.3635262646073
 20
-4.376281179800046
 30
0.0
 10
154.3309874476838
 20
-4.009506142618989
 30
0.0
 10
154.3309874476838
 20
-3.655952752025716
 30
0.0
  0
SPLINE
  5
293
330
1F
100
AcDbEntity
  8
0
  6
SLD-Сплошная
 62
     7
370
    25
100
AcDbSpline
210
0.0
220
0.0
230
1.0
 70
     8
 71
     3
 72
    75
 73
    71
 74
     0
 42
0.00000001
 43
0.00000001
 40
0.0
 40
0.0
 40
0.0
 40
0.0
 40
0.0176934995836339
 40
0.0380548326674312
 40
0.0585734581741902
 40
0.0791429706657358
 40
0.0995905247205309
 40
0.1201197721137229
 40
0.1614043112206887
 40
0.2026630620444206
 40
0.2432984627020414
 40
0.2612026575499901
 40
0.2785997612467764
 40
0.2954922861307325
 40
0.3052323914229981
 40
0.3154507682347005
 40
0.3255713475307787
 40
0.3357198562946708
 40
0.3436489144625689
 40
0.3515404953300369
 40
0.3594984406672381
 40
0.3674107882054823
 40
0.3751524220074666
 40
0.3832645802544173
 40
0.3909602037728417
 40
0.3991245111331098
 40
0.4096171244834035
 40
0.4202400889397094
 40
0.4306884719824761
 40
0.4466301371958795
 40
0.4621643947524882
 40
0.4778429581497396
 40
0.4936099212473714
 40
0.5044114823214264
 40
0.5144266118812704
 40
0.5247579244463416
 40
0.5407544089510241
 40
0.5565022776006993
 40
0.5723028278672037
 40
0.5880083570621794
 40
0.5961833019041598
 40
0.6037973852208868
 40
0.6119250797371035
 40
0.6196174680353149
 40
0.6275526825376264
 40
0.635402492799435
 40
0.6433312743719962
 40
0.6512205363889824
 40
0.6591384075548206
 40
0.6670630741661503
 40
0.6698708106183572
 40
0.6726889731946872
 40
0.6752339237614627
 40
0.675595772447614
 40
0.6767861648860709
 40
0.6790425327488965
 40
0.6830572327692768
 40
0.7036571327178093
 40
0.725064868090987
 40
0.747285080204023
 40
0.7787891406227418
 40
0.8115101833930533
 40
0.8433104095816839
 40
0.8757358035473918
 40
0.8970886140671405
 40
0.9182332026588066
 40
0.9395228495224741
 40
0.9607375742082687
 40
0.9817712103636907
 40
1.0
 40
1.0
 40
1.0
 40
1.0
 10
195.5034918758093
 20
70.05331569246803
 30
0.0
 10
196.6573691062985
 20
69.9930265780518
 30
0.0
 10
199.1391056738704
 20
69.86335793053905
 30
0.0
 10
203.1162234084314
 20
69.41629304097299
 30
0.0
 10
207.3754796269705
 20
68.86197091642826
 30
0.0
 10
211.6811194975374
 20
68.25666683349881
 30
0.0
 10
215.9795091235188
 20
67.66168342284426
 30
0.0
 10
221.6116691864402
 20
66.96068613738645
 30
0.0
 10
228.6066860044891
 20
65.9764227084937
 30
0.0
 10
236.8685085753775
 20
64.64404306216562
 30
0.0
 10
243.4719283144458
 20
63.44361812322816
 30
0.0
 10
248.4424545349977
 20
62.46512462303188
 30
0.0
 10
251.8350149148175
 20
61.76587509684077
 30
0.0
 10
254.6778916741711
 20
61.15267629560687
 30
0.0
 10
257.0408606381264
 20
60.6268559229949
 30
0.0
 10
258.9694219278371
 20
60.18135106905169
 30
0.0
 10
260.8830310973696
 20
59.74697311481552
 30
0.0
 10
262.7654085990968
 20
59.23409925629246
 30
0.0
 10
264.5176592307583
 20
58.6581730873171
 30
0.0
 10
266.0673000345539
 20
58.05895782259334
 30
0.0
 10
267.5054402828947
 20
57.38755218398175
 30
0.0
 10
268.7822400164169
 20
56.64600751961923
 30
0.0
 10
269.8782285451645
 20
55.8237059093431
 30
0.0
 10
270.7721585501346
 20
54.93357637463024
 30
0.0
 10
271.4916018977552
 20
53.953790778304
 30
0.0
 10
272.0869927630406
 20
52.79964702753956
 30
0.0
 10
272.5179295258039
 20
51.42367771135667
 30
0.0
 10
272.7725854536278
 20
49.83169438074226
 30
0.0
 10
273.0777729802827
 20
47.79019136100514
 30
0.0
 10
273.3599533512515
 20
45.27057592972213
 30
0.0
 10
273.6041292380312
 20
42.21504026186576
 30
0.0
 10
273.7665854292028
 20
39.01247278918095
 30
0.0
 10
273.8378184111706
 20
36.04656660937125
 30
0.0
 10
273.8406284217717
 20
33.46223650747555
 30
0.0
 10
273.8058926679045
 20
31.26990717572295
 30
0.0
 10
273.725953867548
 20
28.74359968797658
 30
0.0
 10
273.5648920225956
 20
25.8948471154456
 30
0.0
 10
273.307697413018
 20
22.85326231193417
 30
0.0
 10
272.9622391860466
 20
20.06102063667669
 30
0.0
 10
272.6555758936339
 20
17.97050656694496
 30
0.0
 10
272.2837850877802
 20
16.45929828499351
 30
0.0
 10
271.8416466965534
 20
15.36999286920544
 30
0.0
 10
271.2510608889422
 20
14.36855753435457
 30
0.0
 10
270.4712126621981
 20
13.42415440768523
 30
0.0
 10
269.5101535525471
 20
12.56318974717306
 30
0.0
 10
268.3489187259722
 20
11.76939370715714
 30
0.0
 10
267.0077305864526
 20
11.05350531209728
 30
0.0
 10
265.528137936331
 20
10.40817272037261
 30
0.0
 10
263.9545324071974
 20
9.83596577350453
 30
0.0
 10
262.6934453282508
 20
9.443564144955394
 30
0.0
 10
261.7922197618607
 20
9.190446572652247
 30
0.0
 10
261.2558533910683
 20
9.048592567392495
 30
0.0
 10
260.8859489492837
 20
8.956195408188657
 30
0.0
 10
260.6254059356987
 20
8.894017466974175
 30
0.0
 10
260.3833524331467
 20
8.836505341240871
 30
0.0
 10
259.9092958013593
 20
8.724702694280841
 30
0.0
 10
258.1990881428202
 20
8.324346313846702
 30
0.0
 10
255.2536415992253
 20
7.656855867327121
 30
0.0
 10
251.1053018334668
 20
6.766146254072662
 30
0.0
 10
246.2093980792573
 20
5.77264865201969
 30
0.0
 10
240.5184284910756
 20
4.697657942987075
 30
0.0
 10
234.1255425757927
 20
3.593348506463607
 30
0.0
 10
227.6062145781351
 20
2.574203647368698
 30
0.0
 10
221.7943515450168
 20
1.753249284034544
 30
0.0
 10
216.679575406306
 20
1.117867054478208
 30
0.0
 10
212.2321568205391
 20
0.5097597825309136
 30
0.0
 10
207.7760818068312
 20
-0.1191125773690599
 30
0.0
 10
203.36722472414
 20
-0.6984320128980079
 30
0.0
 10
199.2534404791742
 20
-1.166956055886466
 30
0.0
 10
196.6926359862063
 20
-1.302054590022681
 30
0.0
 10
195.5037036810643
 20
-1.36477824270799
 30
0.0
  0
ARC
  5
294
330
1F
100
AcDbEntity
  8
0
  6
SLD-Сплошная
 62
     7
370
    25
100
AcDbCircle
 10
105.6486821517
 20
34.344047248
 30
0.0
 40
127.2055482715234
100
AcDbArc
 50
357.747325325
 51
2.252674675
  0
SPLINE
  5
295
330
1F
100
AcDbEntity
  8
0
  6
SLD-Сплошная
 62
     7
370
    25
100
AcDbSpline
210
0.0
220
0.0
230
1.0
 70
    24
 71
     3
 72
    10
 73
     6
 74
     0
 42
0.00000001
 43
0.00000001
 40
0.0
 40
0.0
 40
0.0
 40
0.0
 40
0.5
 40
0.5
 40
1.0
 40
1.0
 40
1.0
 40
1.0
 10
232.7559262845521
 20
29.34404724797483
 30
0.0
 10
233.9988213268214
 20
29.34404724797483
 30
0.0
 10
235.2386591178726
 20
29.34404724797483
 30
0.0
 10
237.712205419054
 20
29.34404724797483
 30
0.0
 10
238.9478204025638
 20
29.34404724797482
 30
0.0
 10
240.177983088443
 20
29.34404724797483
 30
0.0
  0
ARC
  5
296
330
1F
100
AcDbEntity
  8
0
  6
SLD-Сплошная
 62
     7
370
    25
100
AcDbCircle
 10
118.0488198859
 20
34.3326578682
 30
0.0
 40
122.2310056429269
100
AcDbArc
 50
357.6609392822
 51
0.0053387714
  0
ARC
  5
297
330
1F
100
AcDbEntity
  8
0
  6
SLD-Сплошная
 62
     7
370
    25
100
AcDbCircle
 10
118.0488198857
 20
34.3554366278
 30
0.0
 40
122.2310056430943
100
AcDbArc
 50
359.9946612286
 51
2.3390607178
  0
SPLINE
  5
298
330
1F
100
AcDbEntity
  8
0
  6
SLD-Сплошная
 62
     7
370
    25
100
AcDbSpline
210
0.0
220
0.0
230
1.0
 70
    24
 71
     3
 72
    14
 73
    10
 74
     0
 42
0.00000001
 43
0.00000001
 40
0.0
 40
0.0
 40
0.0
 40
0.0
 40
0.250000000000002
 40
0.3750000000000018
 40
0.4375000000000017
 40
0.4375000000000017
 40
0.5000000000000016
 40
0.5000000000000016
 40
1.0
 40
1.0
 40
1.0
 40
1.0
 10
240.177983088443
 20
39.34404724797483
 30
0.0
 10
239.5667798988034
 20
39.34404724797483
 30
0.0
 10
238.6484594535625
 20
39.34404724797482
 30
0.0
 10
237.5744309860025
 20
39.34404724797483
 30
0.0
 10
237.1135639421266
 20
39.34404724797482
 30
0.0
 10
236.8061927403871
 20
39.34404724797483
 30
0.0
 10
236.6534858016699
 20
39.34404724797483
 30
0.0
 10
235.2532767369655
 20
39.34404724797483
 30
0.0
 10
234.0059458994773
 20
39.34404724797482
 30
0.0
 10
232.7559262845521
 20
39.34404724797483
 30
0.0
  0
SPLINE
  5
299
330
1F
100
AcDbEntity
  8
0
  6
SLD-Сплошная
 62
     7
370
    25
100
AcDbSpline
210
0.0
220
0.0
230
1.0
 70
     8
 71
     3
 72
    38
 73
    34
 74
     0
 42
0.00000001
 43
0.00000001
 40
0.0
 40
0.0
 40
0.0
 40
0.0
 40
0.0188257975899486
 40
0.0377817256770519
 40
0.05689118268642
 40
0.0761770082468057
 40
0.095661421779207
 40
0.115365970915397
 40
0.1353114898462777
 40
0.1555180674136463
 40
0.1760050245169403
 40
0.1967909002146414
 40
0.217893445759906
 40
0.2393296257195223
 40
0.2611156252796363
 40
0.283266862834372
 40
0.3057980069770939
 40
0.3287229970611524
 40
0.3520550665606283
 40
0.3758067685354859
 40
0.3999900025846399
 40
0.4246160427504723
 40
0.4496955659162197
 40
0.4752386803111441
 40
0.5012549538060492
 40
0.5594898646019918
 40
0.6204223986627831
 40
0.6841258950879929
 40
0.7506645310395681
 40
0.8088347244058943
 40
0.8697643343629712
 40
0.9334787057974182
 40
1.0
 40
1.0
 40
1.0
 40
1.0
 10
221.8589878577509
 20
57.34404724797483
 30
0.0
 10
221.9198411127523
 20
57.34479699923617
 30
0.0
 10
222.0419682617367
 20
57.3463016843018
 30
0.0
 10
222.2218034049825
 20
57.35839717554716
 30
0.0
 10
222.3994965898574
 20
57.37767701348934
 30
0.0
 10
222.5744928675791
 20
57.40484426707951
 30
0.0
 10
222.7465669747683
 20
57.43967492748389
 30
0.0
 10
222.9154052269305
 20
57.48218117539779
 30
0.0
 10
223.0807196328064
 20
57.53229554514768
 30
0.0
 10
223.2422174316152
 20
57.58995689103858
 30
0.0
 10
223.3996099605151
 20
57.65508705615116
 30
0.0
 10
223.5526108017394
 20
57.72759734162218
 30
0.0
 10
223.7009368515466
 20
57.807386864507
 30
0.0
 10
223.8443085881642
 20
57.89434315137765
 30
0.0
 10
223.9824505561851
 20
57.98834214039766
 30
0.0
 10
224.115091788977
 20
58.08924836585992
 30
0.0
 10
224.2419662447496
 20
58.1969151133284
 30
0.0
 10
224.3628132356455
 20
58.31118460532045
 30
0.0
 10
224.4773778517652
 20
58.43188819615364
 30
0.0
 10
224.585411389719
 20
58.55884660263779
 30
0.0
 10
224.6866717393401
 20
58.69187008499296
 30
0.0
 10
224.7809239035615
 20
58.83075890265089
 30
0.0
 10
224.8679399753937
 20
58.97530280128065
 30
0.0
 10
224.9475011606501
 20
59.12528430065828
 30
0.0
 10
225.0486209324712
 20
59.34356117363991
 30
0.0
 10
225.1554093214041
 20
59.6383956366999
 30
0.0
 10
225.2453373964877
 20
60.01649549284507
 30
0.0
 10
225.2943501439087
 20
60.41533580256426
 30
0.0
 10
225.2999231960276
 20
60.80867552321573
 30
0.0
 10
225.2685556172948
 20
61.19369279047759
 30
0.0
 10
225.204960017005
 20
61.56877806539826
 30
0.0
 10
225.1079605015611
 20
61.9558479442185
 30
0.0
 10
225.0149435420222
 20
62.21280147087266
 30
0.0
 10
224.9674326816059
 20
62.34404724797484
 30
0.0
  0
ARC
  5
29A
330
1F
100
AcDbEntity
  8
0
  6
SLD-Сплошная
 62
     7
370
    25
100
AcDbCircle
 10
209.5417362224
 20
56.7417239402
 30
0.0
 40
16.41152453904259
100
AcDbArc
 50
19.9600710886
 51
34.9167283401
  0
SPLINE
  5
29B
330
1F
100
AcDbEntity
  8
0
  6
SLD-Сплошная
 62
     7
370
    25
100
AcDbSpline
210
0.0
220
0.0
230
1.0
 70
     8
 71
     3
 72
    13
 73
     9
 74
     0
 42
0.00000001
 43
0.00000001
 40
0.0
 40
0.0
 40
0.0
 40
0.0
 40
0.5000000000000018
 40
0.5000000000000018
 40
0.6250000000000014
 40
0.6250000000000014
 40
0.7500000000000011
 40
1.0
 40
1.0
 40
1.0
 40
1.0
 10
213.3396785372689
 20
67.237303643653
 30
0.0
 10
214.9565293303787
 20
67.08051563752967
 30
0.0
 10
216.5740230515902
 20
66.90987140612398
 30
0.0
 10
218.5967036568893
 20
66.67903476482012
 30
0.0
 10
218.9966195444765
 20
66.63253041637634
 30
0.0
 10
219.7980496735218
 20
66.53763193267517
 30
0.0
 10
220.9996579216183
 20
66.39277371012007
 30
0.0
 10
222.1996551559363
 20
66.24038316728839
 30
0.0
 10
222.9989368001387
 20
66.13543940888964
 30
0.0
  0
ARC
  5
29C
330
1F
100
AcDbEntity
  8
0
  6
SLD-Сплошная
 62
     7
370
    25
100
AcDbCircle
 10
198.5228045621
 20
56.7983930389
 30
0.0
 40
18.12486162730994
100
AcDbArc
 50
17.8164987237
 51
35.165788422
  0
SPLINE
  5
29D
330
1F
100
AcDbEntity
  8
0
  6
SLD-Сплошная
 62
     7
370
    25
100
AcDbSpline
210
0.0
220
0.0
230
1.0
 70
     8
 71
     3
 72
    30
 73
    26
 74
     0
 42
0.00000001
 43
0.00000001
 40
0.0
 40
0.0
 40
0.0
 40
0.0
 40
0.0381218873876721
 40
0.0753397261076522
 40
0.1116610561045859
 40
0.1470939896498123
 40
0.1816472647471252
 40
0.215330304011358
 40
0.2481532795366472
 40
0.3150401521766339
 40
0.3788874091474511
 40
0.439827552766543
 40
0.4980129493650688
 40
0.5452258474624005
 40
0.5909349211178192
 40
0.6352714664297073
 40
0.6783793224872134
 40
0.7204149433977796
 40
0.7615470204719378
 40
0.8019555625270831
 40
0.8418303784508656
 40
0.8813689644914373
 40
0.9207738727424787
 40
0.9602497130674827
 40
1.0
 40
1.0
 40
1.0
 40
1.0
 10
215.7784218620914
 20
62.34404724797483
 30
0.0
 10
215.8049581795106
 20
62.2708313437543
 30
0.0
 10
215.8574015138592
 20
62.12613582764294
 30
0.0
 10
215.945956420853
 20
61.90708068196012
 30
0.0
 10
216.0404238850658
 20
61.69035184235119
 30
0.0
 10
216.1413420655268
 20
61.47600483500314
 30
0.0
 10
216.2483083249458
 20
61.26450668089999
 30
0.0
 10
216.3611487004483
 20
61.05619242499287
 30
0.0
 10
216.5215987455825
 20
60.77883590005702
 30
0.0
 10
216.7405345882289
 20
60.43489573127628
 30
0.0
 10
217.0342144397133
 20
60.02920554506998
 30
0.0
 10
217.3510983657714
 20
59.64306396204356
 30
0.0
 10
217.6729816500164
 20
59.2968128725576
 30
0.0
 10
217.9937838546997
 20
58.98989135171548
 30
0.0
 10
218.3084193188721
 20
58.72023602189362
 30
0.0
 10
218.6354257678637
 20
58.47052702086297
 30
0.0
 10
218.9733808439075
 20
58.24232127315592
 30
0.0
 10
219.3207339743763
 20
58.03707712243264
 30
0.0
 10
219.6758148324915
 20
57.85614301264176
 30
0.0
 10
220.0368466531482
 20
57.70072489106087
 30
0.0
 10
220.4019244991212
 20
57.5719582165435
 30
0.0
 10
220.7691371625293
 20
57.47058810444129
 30
0.0
 10
221.1361689168985
 20
57.39809680085644
 30
0.0
 10
221.5018449242467
 20
57.35245872970732
 30
0.0
 10
221.7396656023328
 20
57.3468575428948
 30
0.0
 10
221.8589878577509
 20
57.34404724797484
 30
0.0
  0
ARC
  5
29E
330
1F
100
AcDbEntity
  8
0
  6
SLD-Сплошная
 62
     7
370
    25
100
AcDbCircle
 10
198.5228045621
 20
11.8897014571
 30
0.0
 40
18.12486162731588
100
AcDbArc
 50
324.834211578
 51
342.1835012763
  0
SPLINE
  5
29F
330
1F
100
AcDbEntity
  8
0
  6
SLD-Сплошная
 62
     7
370
    25
100
AcDbSpline
210
0.0
220
0.0
230
1.0
 70
     8
 71
     3
 72
    13
 73
     9
 74
     0
 42
0.00000001
 43
0.00000001
 40
0.0
 40
0.0
 40
0.0
 40
0.0
 40
0.4999999999999987
 40
0.4999999999999987
 40
0.6249999999999989
 40
0.6249999999999989
 40
0.7499999999999991
 40
1.0
 40
1.0
 40
1.0
 40
1.0
 10
213.3396785372689
 20
1.45079085229663
 30
0.0
 10
214.9565293303819
 20
1.607578858420257
 30
0.0
 10
216.5740230515968
 20
1.778223089826309
 30
0.0
 10
218.5967036569002
 20
2.009059731130781
 30
0.0
 10
218.9966195444885
 20
2.055564079574836
 30
0.0
 10
219.7980496735356
 20
2.150462563276196
 30
0.0
 10
220.9996579216345
 20
2.295320785831459
 30
0.0
 10
222.199655155955
 20
2.447711328663623
 30
0.0
 10
222.9989368001596
 20
2.552655087060027
 30
0.0
  0
ARC
  5
2A0
330
1F
100
AcDbEntity
  8
0
  6
SLD-Сплошная
 62
     7
370
    25
100
AcDbCircle
 10
209.5417362224
 20
11.9463705557
 30
0.0
 40
16.41152453904583
100
AcDbArc
 50
325.0832716599
 51
340.0399289114
  0
SPLINE
  5
2A1
330
1F
100
AcDbEntity
  8
0
  6
SLD-Сплошная
 62
     7
370
    25
100
AcDbSpline
210
0.0
220
0.0
230
1.0
 70
     8
 71
     3
 72
    31
 73
    27
 74
     0
 42
0.00000001
 43
0.00000001
 40
0.0
 40
0.0
 40
0.0
 40
0.0
 40
0.0190231734916142
 40
0.0376104422892286
 40
0.0557634849391542
 40
0.0734841033914985
 40
0.0907742348067791
 40
0.1076359647260765
 40
0.1240715417837855
 40
0.1889580503376518
 40
0.2485839807623429
 40
0.3421949201024141
 40
0.4246003028476797
 40
0.4987103978571324
 40
0.5589239757930103
 40
0.6187587807446414
 40
0.6812595188361541
 40
0.7491129654543366
 40
0.778178979110452
 40
0.8086822052851209
 40
0.8407145087120707
 40
0.8743552298248052
 40
0.9036044639708714
 40
0.9342760700729374
 40
0.9663993996675124
 40
1.0
 40
1.0
 40
1.0
 40
1.0
 10
224.9674326816059
 20
6.34404724797483
 30
0.0
 10
224.994156714379
 20
6.41560720963371
 30
0.0
 10
225.0469924146262
 20
6.557087379037489
 30
0.0
 10
225.1135030499788
 20
6.770083049086398
 30
0.0
 10
225.1697550130907
 20
6.980075833210055
 30
0.0
 10
225.215227000516
 20
7.186963355645331
 30
0.0
 10
225.250425820411
 20
7.390355749263763
 30
0.0
 10
225.2756047527467
 20
7.589979509988163
 30
0.0
 10
225.3064332487113
 20
7.979324340633004
 30
0.0
 10
225.2847400324778
 20
8.544403521737738
 30
0.0
 10
225.0683942310659
 20
9.407601343586453
 30
0.0
 10
224.5494481112429
 20
10.29102925704473
 30
0.0
 10
223.5774818489951
 20
11.0314657869346
 30
0.0
 10
222.3945251437406
 20
11.37276846883786
 30
0.0
 10
221.1546682755587
 20
11.33787432651215
 30
0.0
 10
219.9583727907733
 20
10.99985412651674
 30
0.0
 10
218.8161561891856
 20
10.3879818253684
 30
0.0
 10
218.0174592973724
 20
9.738516486036644
 30
0.0
 10
217.4803383260953
 20
9.190450685514069
 30
0.0
 10
217.135155408634
 20
8.788240207517342
 30
0.0
 10
216.8157515850639
 20
8.363196000604603
 30
0.0
 10
216.5416436910688
 20
7.945530860809586
 30
0.0
 10
216.3068476989029
 20
7.539237215677268
 30
0.0
 10
216.1069299214795
 20
7.146669759518838
 30
0.0
 10
215.926447168342
 20
6.743960500938322
 30
0.0
 10
215.828497499413
 20
6.479334325048106
 30
0.0
 10
215.7784218620914
 20
6.344047247974826
 30
0.0
  0
SPLINE
  5
2A2
330
1F
100
AcDbEntity
  8
0
  6
SLD-Сплошная
 62
     7
370
    25
100
AcDbSpline
210
0.0
220
0.0
230
1.0
 70
    24
 71
     3
 72
    35
 73
    31
 74
     0
 42
0.00000001
 43
0.00000001
 40
0.0
 40
0.0
 40
0.0
 40
0.0
 40
0.0378701859207529
 40
0.1037703596292416
 40
0.1367062104689695
 40
0.169562029281691
 40
0.2026854484055849
 40
0.2357024257883327
 40
0.268632231818548
 40
0.3014497621706246
 40
0.3345437331889149
 40
0.3675375835662919
 40
0.40058286024864
 40
0.4335616787372186
 40
0.4664961780024015
 40
0.4994122138444889
 40
0.5324810483177241
 40
0.5655846772651919
 40
0.598533798197943
 40
0.6315656797761177
 40
0.6644929424885504
 40
0.6975364211505573
 40
0.7305635005086701
 40
0.7637213066980301
 40
0.7966093517124325
 40
0.8296200683257431
 40
0.862601398280747
 40
0.8956807286313098
 40
0.9617269672292545
 40
1.0
 40
1.0
 40
1.0
 40
1.0
 10
280.2066317947017
 20
54.31842631068271
 30
0.0
 10
280.2066317947017
 20
54.33215939070496
 30
0.0
 10
280.2066317947017
 20
54.36979022398651
 30
0.0
 10
280.2066317947017
 20
53.66769926996956
 30
0.0
 10
280.2066317947017
 20
52.68886022893975
 30
0.0
 10
280.2066317947017
 20
51.74562156843729
 30
0.0
 10
280.2066317947017
 20
50.61958507801748
 30
0.0
 10
280.2066317947017
 20
49.31276823142566
 30
0.0
 10
280.2066317947017
 20
47.84679123623442
 30
0.0
 10
280.2066317947018
 20
46.22794595845463
 30
0.0
 10
280.2066317947018
 20
44.47424441761338
 30
0.0
 10
280.2066317947018
 20
42.59847251922522
 30
0.0
 10
280.2066317947018
 20
40.62920258416719
 30
0.0
 10
280.2066317947018
 20
38.5863946242972
 30
0.0
 10
280.2066317947018
 20
36.49639420242588
 30
0.0
 10
280.2066317947018
 20
34.37865611025879
 30
0.0
 10
280.2066317947018
 20
32.25683103795438
 30
0.0
 10
280.2066317947018
 20
30.15952471014901
 30
0.0
 10
280.2066317947018
 20
28.11248966058136
 30
0.0
 10
280.2066317947018
 20
26.14309917702578
 30
0.0
 10
280.2066317947018
 20
24.26680540728197
 30
0.0
 10
280.2066317947018
 20
22.50769291500383
 30
0.0
 10
280.2066317947017
 20
20.87849797626255
 30
0.0
 10
280.2066317947017
 20
19.40458890288617
 30
0.0
 10
280.2066317947017
 20
18.09464244127038
 30
0.0
 10
280.2066317947017
 20
16.96572492947119
 30
0.0
 10
280.2066317947017
 20
16.0165911301052
 30
0.0
 10
280.2066317947017
 20
15.02970829046666
 30
0.0
 10
280.2066317947017
 20
14.31994763760978
 30
0.0
 10
280.2066317947017
 20
14.35710827021637
 30
0.0
 10
280.2066317947017
 20
14.37074189793323
 30
0.0
  0
SPLINE
  5
2A3
330
1F
100
AcDbEntity
  8
0
  6
SLD-Сплошная
 62
     7
370
    25
100
AcDbSpline
210
0.0
220
0.0
230
1.0
 70
     8
 71
     3
 72
    20
 73
    16
 74
     0
 42
0.00000001
 43
0.00000001
 40
0.0
 40
0.0
 40
0.0
 40
0.0
 40
0.0380569899792969
 40
0.1288637143561613
 40
0.2209833603432933
 40
0.3119189705900552
 40
0.4016328497428285
 40
0.4900900407590164
 40
0.5783840114373241
 40
0.6681259123491513
 40
0.7592804482181481
 40
0.8518091301355123
 40
0.9116669073807533
 40
0.9726487257329371
 40
1.0
 40
1.0
 40
1.0
 40
1.0
 10
277.8860622849352
 20
18.85969414010723
 30
0.0
 10
277.9588732987228
 20
19.16014085618747
 30
0.0
 10
278.2054166456302
 20
20.17747511781126
 30
0.0
 10
278.4247918500139
 20
22.21870485064519
 30
0.0
 10
278.7120956096073
 20
24.9532255071488
 30
0.0
 10
278.9056391524712
 20
27.89228806612597
 30
0.0
 10
279.0279646523649
 20
30.92213738303888
 30
0.0
 10
279.0726514800304
 20
33.99273227588128
 30
0.0
 10
279.0440530566281
 20
37.07040972571191
 30
0.0
 10
278.9403404103301
 20
40.12379602494573
 30
0.0
 10
278.7575402566832
 20
43.10197568609545
 30
0.0
 10
278.5345287524293
 20
45.59022191707279
 30
0.0
 10
278.2836274488165
 20
47.60061087005252
 30
0.0
 10
278.1197067267863
 20
48.91300720643536
 30
0.0
 10
277.9608263523658
 20
49.61753085413223
 30
0.0
 10
277.911630965138
 20
49.83567808462546
 30
0.0
  0
SPLINE
  5
2A4
330
1F
100
AcDbEntity
  8
0
  6
SLD-Сплошная
 62
     7
370
    25
100
AcDbSpline
210
0.0
220
0.0
230
1.0
 70
     8
 71
     3
 72
    14
 73
    10
 74
     0
 42
0.00000001
 43
0.00000001
 40
0.0
 40
0.0
 40
0.0
 40
0.0
 40
0.1415723916799152
 40
0.2835194171398485
 40
0.4258735348106453
 40
0.5686669255144713
 40
0.7119314740584719
 40
0.8556987517689911
 40
1.0
 40
1.0
 40
1.0
 40
1.0
 10
236.2758265588187
 20
34.34404724797482
 30
0.0
 10
236.2768328152775
 20
34.58043877434743
 30
0.0
 10
236.2788479909859
 20
35.05384737456018
 30
0.0
 10
236.2950950716733
 20
35.76478874197947
 30
0.0
 10
236.3210304673127
 20
36.47744044913863
 30
0.0
 10
236.3575461956044
 20
37.19180941054746
 30
0.0
 10
236.4046280333718
 20
37.90786910424048
 30
0.0
 10
236.4614321652231
 20
38.62571864757058
 30
0.0
 10
236.5079652505528
 20
39.10430867263906
 30
0.0
 10
236.5312749206224
 20
39.34404724797483
 30
0.0
  0
SPLINE
  5
2A5
330
1F
100
AcDbEntity
  8
0
  6
SLD-Сплошная
 62
     7
370
    25
100
AcDbSpline
210
0.0
220
0.0
230
1.0
 70
     8
 71
     3
 72
    14
 73
    10
 74
     0
 42
0.00000001
 43
0.00000001
 40
0.0
 40
0.0
 40
0.0
 40
0.0
 40
0.1443012482310133
 40
0.2880685259415357
 40
0.4313330744855385
 40
0.5741264651893645
 40
0.7164805828601594
 40
0.8584276083200897
 40
1.0
 40
1.0
 40
1.0
 40
1.0
 10
236.5312749206224
 20
29.34404724797483
 30
0.0
 10
236.5079652505528
 20
29.58378582331059
 30
0.0
 10
236.4614321652231
 20
30.06237584837909
 30
0.0
 10
236.4046280333718
 20
30.78022539170921
 30
0.0
 10
236.3575461956044
 20
31.49628508540223
 30
0.0
 10
236.3210304673127
 20
32.21065404681106
 30
0.0
 10
236.2950950716733
 20
32.92330575397023
 30
0.0
 10
236.2788479909859
 20
33.63424712138949
 30
0.0
 10
236.2768328152775
 20
34.10765572160223
 30
0.0
 10
236.2758265588187
 20
34.34404724797482
 30
0.0
  0
ARC
  5
2A6
330
1F
100
AcDbEntity
  8
0
  6
SLD-Сплошная
 62
     7
370
    25
100
AcDbCircle
 10
218.0043831965
 20
6.3916793434
 30
0.0
 40
4.994780727602845
100
AcDbArc
 50
359.4535977552
 51
66.9166897461
  0
ARC
  5
2A7
330
1F
100
AcDbEntity
  8
0
  6
SLD-Сплошная
 62
     7
370
    25
100
AcDbCircle
 10
218.0227657096
 20
62.2839105866
 30
0.0
 40
4.97653445084566
100
AcDbArc
 50
293.6243853596
 51
0.6923815729
  0
LINE
  5
2A8
330
1F
100
AcDbEntity
  8
0
  6
SLD-Сплошная
 62
     7
370
    25
100
AcDbLine
 10
222.9989368001
 20
66.1354394089
 30
0.0
 11
222.9989368002
 21
62.344047248
 31
0.0
  0
LINE
  5
2A9
330
1F
100
AcDbEntity
  8
0
  6
SLD-Сплошная
 62
     7
370
    25
100
AcDbLine
 10
222.9989368002
 20
6.344047248
 30
0.0
 11
222.9989368002
 21
2.5526550871
 31
0.0
  0
ARC
  5
2AA
330
1F
100
AcDbEntity
  8
0
  6
SLD-Сплошная
 62
     7
370
    25
100
AcDbCircle
 10
218.0716421722
 20
62.344047248
 30
0.0
 40
3.501362384731378
100
AcDbArc
 50
271.5983911499
 51
88.4016088501
  0
ARC
  5
2AB
330
1F
100
AcDbEntity
  8
0
  6
SLD-Сплошная
 62
     7
370
    25
100
AcDbCircle
 10
218.2043152638
 20
62.4594489404
 30
0.0
 40
3.384779348148477
100
AcDbArc
 50
90.5926008776
 51
154.0061751969
  0
ARC
  5
2AC
330
1F
100
AcDbEntity
  8
0
  6
SLD-Сплошная
 62
     7
370
    25
100
AcDbCircle
 10
218.0716421722
 20
6.344047248
 30
0.0
 40
3.50136238473138
100
AcDbArc
 50
271.5983911499
 51
88.4016088501
  0
ARC
  5
2AD
330
1F
100
AcDbEntity
  8
0
  6
SLD-Сплошная
 62
     7
370
    25
100
AcDbCircle
 10
218.1991803028
 20
6.2205226584
 30
0.0
 40
3.37660755369747
100
AcDbArc
 50
205.9081226866
 51
269.493101239
  0
LINE
  5
2AE
330
1F
100
AcDbEntity
  8
0
  6
SLD-Сплошная
 62
     7
370
    25
100
AcDbLine
 10
217.5345208462
 20
65.7817957659
 30
0.0
 11
217.5345208462
 21
62.894047248
 31
0.0
  0
LINE
  5
2AF
330
1F
100
AcDbEntity
  8
0
  6
SLD-Сплошная
 62
     7
370
    25
100
AcDbLine
 10
217.5345208462
 20
62.894047248
 30
0.0
 11
216.0856321068
 21
62.894047248
 31
0.0
  0
LINE
  5
2B0
330
1F
100
AcDbEntity
  8
0
  6
SLD-Сплошная
 62
     7
370
    25
100
AcDbLine
 10
216.0856321068
 20
62.894047248
 30
0.0
 11
216.0856321068
 21
61.794047248
 31
0.0
  0
LINE
  5
2B1
330
1F
100
AcDbEntity
  8
0
  6
SLD-Сплошная
 62
     7
370
    25
100
AcDbLine
 10
216.0856321068
 20
61.794047248
 30
0.0
 11
217.5345208462
 21
61.794047248
 31
0.0
  0
LINE
  5
2B2
330
1F
100
AcDbEntity
  8
0
  6
SLD-Сплошная
 62
     7
370
    25
100
AcDbLine
 10
217.5345208462
 20
61.794047248
 30
0.0
 11
217.5345208462
 21
59.4897093176
 31
0.0
  0
LINE
  5
2B3
330
1F
100
AcDbEntity
  8
0
  6
SLD-Сплошная
 62
     7
370
    25
100
AcDbLine
 10
217.5345208462
 20
9.2303840445
 30
0.0
 11
217.5345208462
 21
6.894047248
 31
0.0
  0
LINE
  5
2B4
330
1F
100
AcDbEntity
  8
0
  6
SLD-Сплошная
 62
     7
370
    25
100
AcDbLine
 10
217.5345208462
 20
6.894047248
 30
0.0
 11
216.0856321068
 21
6.894047248
 31
0.0
  0
LINE
  5
2B5
330
1F
100
AcDbEntity
  8
0
  6
SLD-Сплошная
 62
     7
370
    25
100
AcDbLine
 10
216.0856321068
 20
6.894047248
 30
0.0
 11
216.0856321068
 21
5.794047248
 31
0.0
  0
LINE
  5
2B6
330
1F
100
AcDbEntity
  8
0
  6
SLD-Сплошная
 62
     7
370
    25
100
AcDbLine
 10
216.0856321068
 20
5.794047248
 30
0.0
 11
217.5345208462
 21
5.794047248
 31
0.0
  0
LINE
  5
2B7
330
1F
100
AcDbEntity
  8
0
  6
SLD-Сплошная
 62
     7
370
    25
100
AcDbLine
 10
217.5345208462
 20
5.794047248
 30
0.0
 11
217.5345208462
 21
2.9062987301
 31
0.0
  0
LINE
  5
2B8
330
1F
100
AcDbEntity
  8
0
  6
SLD-Сплошная
 62
     7
370
    25
100
AcDbLine
 10
218.2088106875
 20
58.8875316614
 30
0.0
 11
218.5970392551
 21
58.8875316614
 31
0.0
  0
ARC
  5
2B9
330
1F
100
AcDbEntity
  8
0
  6
SLD-Сплошная
 62
     7
370
    25
100
AcDbCircle
 10
217.9490215627
 20
62.344047248
 30
0.0
 40
3.516735265804102
100
AcDbArc
 50
280.618390548
 51
79.381609452
  0
LINE
  5
2BA
330
1F
100
AcDbEntity
  8
0
  6
SLD-Сплошная
 62
     7
370
    25
100
AcDbLine
 10
218.2088106875
 20
65.8005628345
 30
0.0
 11
218.5970392551
 21
65.8005628345
 31
0.0
  0
LINE
  5
2BB
330
1F
100
AcDbEntity
  8
0
  6
SLD-Сплошная
 62
     7
370
    25
100
AcDbLine
 10
218.2088106875
 20
2.8875316614
 30
0.0
 11
218.5970392551
 21
2.8875316614
 31
0.0
  0
ARC
  5
2BC
330
1F
100
AcDbEntity
  8
0
  6
SLD-Сплошная
 62
     7
370
    25
100
AcDbCircle
 10
217.9490215627
 20
6.344047248
 30
0.0
 40
3.516735265804108
100
AcDbArc
 50
280.618390548
 51
79.381609452
  0
LINE
  5
2BD
330
1F
100
AcDbEntity
  8
0
  6
SLD-Сплошная
 62
     7
370
    25
100
AcDbLine
 10
218.2088106875
 20
9.8005628345
 30
0.0
 11
218.5970392551
 21
9.8005628345
 31
0.0
  0
LINE
  5
2BE
330
1F
100
AcDbEntity
  8
0
  6
SLD-Сплошная
 62
     7
370
    25
100
AcDbLine
 10
218.2088106875
 20
62.894047248
 30
0.0
 11
218.5970392551
 21
62.894047248
 31
0.0
  0
LINE
  5
2BF
330
1F
100
AcDbEntity
  8
0
  6
SLD-Сплошная
 62
     7
370
    25
100
AcDbLine
 10
218.2088106875
 20
62.894047248
 30
0.0
 11
218.2088106875
 21
65.8005628345
 31
0.0
  0
LINE
  5
2C0
330
1F
100
AcDbEntity
  8
0
  6
SLD-Сплошная
 62
     7
370
    25
100
AcDbLine
 10
218.5970392551
 20
62.894047248
 30
0.0
 11
218.5970392551
 21
65.8005628345
 31
0.0
  0
LINE
  5
2C1
330
1F
100
AcDbEntity
  8
0
  6
SLD-Сплошная
 62
     7
370
    25
100
AcDbLine
 10
218.2088106875
 20
58.8875316614
 30
0.0
 11
218.2088106875
 21
61.794047248
 31
0.0
  0
LINE
  5
2C2
330
1F
100
AcDbEntity
  8
0
  6
SLD-Сплошная
 62
     7
370
    25
100
AcDbLine
 10
218.2088106875
 20
61.794047248
 30
0.0
 11
218.5970392551
 21
61.794047248
 31
0.0
  0
LINE
  5
2C3
330
1F
100
AcDbEntity
  8
0
  6
SLD-Сплошная
 62
     7
370
    25
100
AcDbLine
 10
218.5970392551
 20
58.8875316614
 30
0.0
 11
218.5970392551
 21
61.794047248
 31
0.0
  0
LINE
  5
2C4
330
1F
100
AcDbEntity
  8
0
  6
SLD-Сплошная
 62
     7
370
    25
100
AcDbLine
 10
218.2088106875
 20
6.894047248
 30
0.0
 11
218.5970392551
 21
6.894047248
 31
0.0
  0
LINE
  5
2C5
330
1F
100
AcDbEntity
  8
0
  6
SLD-Сплошная
 62
     7
370
    25
100
AcDbLine
 10
218.2088106875
 20
6.894047248
 30
0.0
 11
218.2088106875
 21
9.8005628345
 31
0.0
  0
LINE
  5
2C6
330
1F
100
AcDbEntity
  8
0
  6
SLD-Сплошная
 62
     7
370
    25
100
AcDbLine
 10
218.5970392551
 20
6.894047248
 30
0.0
 11
218.5970392551
 21
9.8005628345
 31
0.0
  0
LINE
  5
2C7
330
1F
100
AcDbEntity
  8
0
  6
SLD-Сплошная
 62
     7
370
    25
100
AcDbLine
 10
218.2088106875
 20
2.8875316614
 30
0.0
 11
218.2088106875
 21
5.794047248
 31
0.0
  0
LINE
  5
2C8
330
1F
100
AcDbEntity
  8
0
  6
SLD-Сплошная
 62
     7
370
    25
100
AcDbLine
 10
218.2088106875
 20
5.794047248
 30
0.0
 11
218.5970392551
 21
5.794047248
 31
0.0
  0
LINE
  5
2C9
330
1F
100
AcDbEntity
  8
0
  6
SLD-Сплошная
 62
     7
370
    25
100
AcDbLine
 10
218.5970392551
 20
2.8875316614
 30
0.0
 11
218.5970392551
 21
5.794047248
 31
0.0
  0
LINE
  5
2CA
330
1F
100
AcDbEntity
  8
0
  6
SLD-Сплошная
 62
     7
370
    25
100
AcDbLine
 10
218.5970392551
 20
61.794047248
 30
0.0
 11
220.0459279946
 21
61.794047248
 31
0.0
  0
LINE
  5
2CB
330
1F
100
AcDbEntity
  8
0
  6
SLD-Сплошная
 62
     7
370
    25
100
AcDbLine
 10
220.0459279946
 20
61.794047248
 30
0.0
 11
220.0459279946
 21
62.894047248
 31
0.0
  0
LINE
  5
2CC
330
1F
100
AcDbEntity
  8
0
  6
SLD-Сплошная
 62
     7
370
    25
100
AcDbLine
 10
220.0459279946
 20
62.894047248
 30
0.0
 11
218.5970392551
 21
62.894047248
 31
0.0
  0
LINE
  5
2CD
330
1F
100
AcDbEntity
  8
0
  6
SLD-Сплошная
 62
     7
370
    25
100
AcDbLine
 10
218.5970392551
 20
5.794047248
 30
0.0
 11
220.0459279946
 21
5.794047248
 31
0.0
  0
LINE
  5
2CE
330
1F
100
AcDbEntity
  8
0
  6
SLD-Сплошная
 62
     7
370
    25
100
AcDbLine
 10
220.0459279946
 20
5.794047248
 30
0.0
 11
220.0459279946
 21
6.894047248
 31
0.0
  0
LINE
  5
2CF
330
1F
100
AcDbEntity
  8
0
  6
SLD-Сплошная
 62
     7
370
    25
100
AcDbLine
 10
220.0459279946
 20
6.894047248
 30
0.0
 11
218.5970392551
 21
6.894047248
 31
0.0
  0
LINE
  5
2D0
330
1F
100
AcDbEntity
  8
0
  6
SLD-Сплошная
 62
     7
370
    25
100
AcDbLine
 10
219.6576994269
 20
61.794047248
 30
0.0
 11
219.6576994269
 21
62.894047248
 31
0.0
  0
LINE
  5
2D1
330
1F
100
AcDbEntity
  8
0
  6
SLD-Сплошная
 62
     7
370
    25
100
AcDbLine
 10
219.6576994269
 20
5.794047248
 30
0.0
 11
219.6576994269
 21
6.894047248
 31
0.0
  0
SPLINE
  5
2D2
330
1F
100
AcDbEntity
  8
0
  6
SLD-Сплошная
 62
     7
370
    25
100
AcDbSpline
210
0.0
220
0.0
230
1.0
 70
     8
 71
     3
 72
    10
 73
     6
 74
     0
 42
0.00000001
 43
0.00000001
 40
0.0
 40
0.0
 40
0.0
 40
0.0
 40
0.442471208489908
 40
0.7392205899902525
 40
1.0
 40
1.0
 40
1.0
 40
1.0
 10
199.8488814741019
 20
-2.550849755814571
 30
0.0
 10
199.0823207488151
 20
-2.573908803132713
 30
0.0
 10
197.8016555648728
 20
-2.612432716635027
 30
0.0
 10
196.0991741275924
 20
-2.165551422322228
 30
0.0
 10
195.2729133495743
 20
-1.646278902170464
 30
0.0
 10
194.8864368097311
 20
-1.403393541806068
 30
0.0
  0
SPLINE
  5
2D3
330
1F
100
AcDbEntity
  8
0
  6
SLD-Сплошная
 62
     7
370
    25
100
AcDbSpline
210
0.0
220
0.0
230
1.0
 70
     8
 71
     3
 72
    10
 73
     6
 74
     0
 42
0.00000001
 43
0.00000001
 40
0.0
 40
0.0
 40
0.0
 40
0.0
 40
0.2614272045896716
 40
0.5589906677000155
 40
1.0
 40
1.0
 40
1.0
 40
1.0
 10
194.8873980936092
 20
70.09144896217224
 30
0.0
 10
195.2739917856989
 20
70.33438551347356
 30
0.0
 10
196.1006167974648
 20
70.85383896987193
 30
0.0
 10
197.7993899469712
 20
71.29983255246815
 30
0.0
 10
199.0761047226436
 20
71.2618919182637
 30
0.0
 10
199.8384441078142
 20
71.2392371794735
 30
0.0
  0
LINE
  5
2D4
330
1F
100
AcDbEntity
  8
0
  6
SLD-Сплошная
 62
     7
370
    25
100
AcDbLine
 10
284.4425076757
 20
34.344047248
 30
0.0
 11
284.4425076757
 21
48.344047248
 31
0.0
  0
LINE
  5
2D5
330
1F
100
AcDbEntity
  8
0
  6
SLD-Сплошная
 62
     7
370
    25
100
AcDbLine
 10
287.2191281842
 20
34.344047248
 30
0.0
 11
287.2191281842
 21
35.344047248
 31
0.0
  0
LINE
  5
2D6
330
1F
100
AcDbEntity
  8
0
  6
SLD-Сплошная
 62
     7
370
    25
100
AcDbLine
 10
284.4425076757
 20
20.344047248
 30
0.0
 11
284.4425076757
 21
34.344047248
 31
0.0
  0
LINE
  5
2D7
330
1F
100
AcDbEntity
  8
0
  6
SLD-Сплошная
 62
     7
370
    25
100
AcDbLine
 10
287.2191281842
 20
33.344047248
 30
0.0
 11
287.2191281842
 21
34.344047248
 31
0.0
  0
ENDSEC
  0
SECTION
  2
OBJECTS
  0
DICTIONARY
  5
C
330
0
100
AcDbDictionary
281
     1
  3
ACAD_GROUP
350
D
  3
ACAD_LAYOUT
350
1A
  3
ACAD_MLINESTYLE
350
17
  3
ACAD_PLOTSETTINGS
350
19
  3
ACAD_PLOTSTYLENAME
350
E
  3
ACAD_SCALELIST
350
47
  3
DWGPROPS
350
2D8
  0
DICTIONARY
  5
D
102
{ACAD_REACTORS
330
C
102
}
330
C
100
AcDbDictionary
281
     1
  0
DICTIONARY
  5
1A
102
{ACAD_REACTORS
330
C
102
}
330
C
100
AcDbDictionary
281
     1
  3
Layout1
350
1E
  3
Layout2
350
26
  3
Model
350
22
  0
DICTIONARY
  5
17
102
{ACAD_REACTORS
330
C
102
}
330
C
100
AcDbDictionary
281
     1
  3
Standard
350
18
  0
DICTIONARY
  5
19
102
{ACAD_REACTORS
330
C
102
}
330
C
100
AcDbDictionary
281
     1
  0
ACDBDICTIONARYWDFLT
  5
E
102
{ACAD_REACTORS
330
C
102
}
330
C
100
AcDbDictionary
281
     1
  3
Normal
350
F
100
AcDbDictionaryWithDefault
340
F
  0
DICTIONARY
  5
47
102
{ACAD_REACTORS
330
C
102
}
330
C
100
AcDbDictionary
281
     1
  3
A0
350
48
  3
A1
350
49
  3
A2
350
4A
  3
A3
350
4B
  3
A4
350
4C
  3
A5
350
4D
  3
A6
350
4E
  3
A7
350
4F
  3
A8
350
50
  3
A9
350
51
  3
B0
350
52
  3
B1
350
53
  3
B2
350
54
  3
B3
350
55
  3
B4
350
56
  3
B5
350
57
  3
B6
350
58
  0
XRECORD
  5
2D8
102
{ACAD_REACTORS
330
C
102
}
330
C
100
AcDbXrecord
280
     1
  1
DWGPROPS COOKIE
  2

  3

  4

  6

  7

  8
inyankin
  9

300
=
301
=
302
=
303
=
304
=
305
=
306
=
307
=
308
=
309
=
 40
0.0
 41
2460934.46798316
 42
2460934.467984109
  1

 90
        0
  0
LAYOUT
  5
1E
102
{ACAD_REACTORS
330
1A
102
}
330
1A
100
AcDbPlotSettings
  1

  2
none_device
  4

  6

 40
0.0
 41
0.0
 42
0.0
 43
0.0
 44
0.0
 45
0.0
 46
0.0
 47
0.0
 48
0.0
 49
0.0
140
0.0
141
0.0
142
1.0
143
1.0
 70
   688
 72
     1
 73
     0
 74
     5
  7

 75
    16
147
1.0
148
0.0
149
0.0
100
AcDbLayout
  1
Layout1
 70
     1
 71
     1
 10
0.0
 20
0.0
 11
420.0
 21
297.0
 12
0.0
 22
0.0
 32
0.0
 14
1.0000000000E+20
 24
1.0000000000E+20
 34
1.0000000000E+20
 15
-1.0000000000E+20
 25
-1.0000000000E+20
 35
-1.0000000000E+20
146
0.0
 13
0.0
 23
0.0
 33
0.0
 16
1.0
 26
0.0
 36
0.0
 17
0.0
 27
1.0
 37
0.0
 76
     0
330
1B
  0
LAYOUT
  5
26
102
{ACAD_REACTORS
330
1A
102
}
330
1A
100
AcDbPlotSettings
  1

  2
none_device
  4

  6

 40
0.0
 41
0.0
 42
0.0
 43
0.0
 44
0.0
 45
0.0
 46
0.0
 47
0.0
 48
0.0
 49
0.0
140
0.0
141
0.0
142
1.0
143
1.0
 70
   688
 72
     1
 73
     0
 74
     5
  7

 75
    16
147
1.0
148
0.0
149
0.0
100
AcDbLayout
  1
Layout2
 70
     1
 71
     2
 10
0.0
 20
0.0
 11
0.0
 21
0.0
 12
0.0
 22
0.0
 32
0.0
 14
0.0
 24
0.0
 34
0.0
 15
0.0
 25
0.0
 35
0.0
146
0.0
 13
0.0
 23
0.0
 33
0.0
 16
1.0
 26
0.0
 36
0.0
 17
0.0
 27
1.0
 37
0.0
 76
     0
330
23
  0
LAYOUT
  5
22
102
{ACAD_REACTORS
330
1A
102
}
330
1A
100
AcDbPlotSettings
  1

  2
none_device
  4
Letter_(8.50_x_11.00_Inches)
  6

 40
6.35
 41
6.35
 42
6.35000508
 43
6.35000508
 44
215.9
 45
279.4
 46
0.0
 47
0.0
 48
0.0
 49
0.0
140
0.0
141
0.0
142
1.0
143
1.0
 70
  1712
 72
     1
 73
     0
 74
     0
  7

 75
     0
147
1.0
148
0.0
149
0.0
100
AcDbLayout
  1
Model
 70
     1
 71
     0
 10
0.0
 20
0.0
 11
431.8
 21
279.4
 12
0.0
 22
0.0
 32
0.0
 14
0.0
 24
0.0
 34
0.0
 15
431.8
 25
279.4
 35
0.0
146
0.0
 13
0.0
 23
0.0
 33
0.0
 16
1.0
 26
0.0
 36
0.0
 17
0.0
 27
1.0
 37
0.0
 76
     0
330
1F
331
29
  0
MLINESTYLE
  5
18
102
{ACAD_REACTORS
330
17
102
}
330
17
100
AcDbMlineStyle
  2
Standard
 70
     0
  3

 62
   256
 51
90.0
 52
90.0
 71
     2
 49
0.5
 62
   256
  6
BYLAYER
 49
-0.5
 62
   256
  6
BYLAYER
  0
ACDBPLACEHOLDER
  5
F
102
{ACAD_REACTORS
330
E
102
}
330
E
  0
SCALE
  5
48
102
{ACAD_REACTORS
330
47
102
}
330
47
100
AcDbScale
 70
     0
300
1:1
140
1.0
141
1.0
290
     1
  0
SCALE
  5
49
102
{ACAD_REACTORS
330
47
102
}
330
47
100
AcDbScale
 70
     0
300
1:2
140
1.0
141
2.0
290
     0
  0
SCALE
  5
4A
102
{ACAD_REACTORS
330
47
102
}
330
47
100
AcDbScale
 70
     0
300
1:4
140
1.0
141
4.0
290
     0
  0
SCALE
  5
4B
102
{ACAD_REACTORS
330
47
102
}
330
47
100
AcDbScale
 70
     0
300
1:5
140
1.0
141
5.0
290
     0
  0
SCALE
  5
4C
102
{ACAD_REACTORS
330
47
102
}
330
47
100
AcDbScale
 70
     0
300
1:8
140
1.0
141
8.0
290
     0
  0
SCALE
  5
4D
102
{ACAD_REACTORS
330
47
102
}
330
47
100
AcDbScale
 70
     0
300
1:10
140
1.0
141
10.0
290
     0
  0
SCALE
  5
4E
102
{ACAD_REACTORS
330
47
102
}
330
47
100
AcDbScale
 70
     0
300
1:16
140
1.0
141
16.0
290
     0
  0
SCALE
  5
4F
102
{ACAD_REACTORS
330
47
102
}
330
47
100
AcDbScale
 70
     0
300
1:20
140
1.0
141
20.0
290
     0
  0
SCALE
  5
50
102
{ACAD_REACTORS
330
47
102
}
330
47
100
AcDbScale
 70
     0
300
1:30
140
1.0
141
30.0
290
     0
  0
SCALE
  5
51
102
{ACAD_REACTORS
330
47
102
}
330
47
100
AcDbScale
 70
     0
300
1:40
140
1.0
141
40.0
290
     0
  0
SCALE
  5
52
102
{ACAD_REACTORS
330
47
102
}
330
47
100
AcDbScale
 70
     0
300
1:50
140
1.0
141
50.0
290
     0
  0
SCALE
  5
53
102
{ACAD_REACTORS
330
47
102
}
330
47
100
AcDbScale
 70
     0
300
1:100
140
1.0
141
100.0
290
     0
  0
SCALE
  5
54
102
{ACAD_REACTORS
330
47
102
}
330
47
100
AcDbScale
 70
     0
300
2:1
140
2.0
141
1.0
290
     0
  0
SCALE
  5
55
102
{ACAD_REACTORS
330
47
102
}
330
47
100
AcDbScale
 70
     0
300
4:1
140
4.0
141
1.0
290
     0
  0
SCALE
  5
56
102
{ACAD_REACTORS
330
47
102
}
330
47
100
AcDbScale
 70
     0
300
8:1
140
8.0
141
1.0
290
     0
  0
SCALE
  5
57
102
{ACAD_REACTORS
330
47
102
}
330
47
100
AcDbScale
 70
     0
300
10:1
140
10.0
141
1.0
290
     0
  0
SCALE
  5
58
102
{ACAD_REACTORS
330
47
102
}
330
47
100
AcDbScale
 70
     0
300
100:1
140
100.0
141
1.0
290
     0
  0
ENDSEC
  0
EOF
