  0
SECTION
  2
HEADER
  9
$ACADVER
  1
AC1015
  9
$ACADMAINTVER
 70
     6
  9
$DWGCODEPAGE
  3
ANSI_1251
  9
$INSBASE
 10
0.0
 20
0.0
 30
0.0
  9
$EXTMIN
 10
0.0
 20
0.0
 30
0.0
  9
$EXTMAX
 10
4000.0
 20
3300.0
 30
0.0
  9
$LIMMIN
 10
0.0
 20
0.0
  9
$LIMMAX
 10
4000.0
 20
3300.0
  9
$ORTHOMODE
 70
     0
  9
$REGENMODE
 70
     1
  9
$FILLMODE
 70
     1
  9
$QTEXTMODE
 70
     0
  9
$MIRRTEXT
 70
     1
  9
$LTSCALE
 40
1.0
  9
$ATTMODE
 70
     1
  9
$TEXTSIZE
 40
3.5
  9
$TRACEWID
 40
1.0
  9
$TEXTSTYLE
  7
Standard
  9
$CLAYER
  8
0
  9
$CELTYPE
  6
ByLayer
  9
$CECOLOR
 62
   256
  9
$CELTSCALE
 40
1.0
  9
$DISPSILH
 70
     0
  9
$DIMSCALE
 40
1.0
  9
$DIMASZ
 40
3.302
  9
$DIMEXO
 40
0.0
  9
$DIMDLI
 40
3.75
  9
$DIMRND
 40
0.0
  9
$DIMDLE
 40
0.0
  9
$DIMEXE
 40
1.0
  9
$DIMTP
 40
0.0
  9
$DIMTM
 40
0.0
  9
$DIMTXT
 40
3.5
  9
$DIMCEN
 40
2.5
  9
$DIMTSZ
 40
0.0
  9
$DIMTOL
 70
     0
  9
$DIMLIM
 70
     0
  9
$DIMTIH
 70
     1
  9
$DIMTOH
 70
     1
  9
$DIMSE1
 70
     0
  9
$DIMSE2
 70
     0
  9
$DIMTAD
 70
     1
  9
$DIMZIN
 70
     0
  9
$DIMBLK
  1

  9
$DIMASO
 70
     1
  9
$DIMSHO
 70
     1
  9
$DIMPOST
  1

  9
$DIMAPOST
  1

  9
$DIMALT
 70
     0
  9
$DIMALTD
 70
     3
  9
$DIMALTF
 40
0.0393700787
  9
$DIMLFAC
 40
1.0
  9
$DIMTOFL
 70
     1
  9
$DIMTVP
 40
0.0
  9
$DIMTIX
 70
     0
  9
$DIMSOXD
 70
     0
  9
$DIMSAH
 70
     0
  9
$DIMBLK1
  1

  9
$DIMBLK2
  1

  9
$DIMSTYLE
  2
ISO-25
  9
$DIMCLRD
 70
     0
  9
$DIMCLRE
 70
     0
  9
$DIMCLRT
 70
     0
  9
$DIMTFAC
 40
1.0
  9
$DIMGAP
 40
1.524
  9
$DIMJUST
 70
     0
  9
$DIMSD1
 70
     0
  9
$DIMSD2
 70
     0
  9
$DIMTOLJ
 70
     0
  9
$DIMTZIN
 70
     0
  9
$DIMALTZ
 70
     0
  9
$DIMALTTZ
 70
     0
  9
$DIMUPT
 70
     0
  9
$DIMDEC
 70
     2
  9
$DIMTDEC
 70
     2
  9
$DIMALTU
 70
     2
  9
$DIMALTTD
 70
     3
  9
$DIMTXSTY
  7
Standard
  9
$DIMAUNIT
 70
     0
  9
$DIMADEC
 70
     2
  9
$DIMALTRND
 40
0.0
  9
$DIMAZIN
 70
     0
  9
$DIMDSEP
 70
    44
  9
$DIMATFIT
 70
     3
  9
$DIMFRAC
 70
     0
  9
$DIMLDRBLK
  1

  9
$DIMLUNIT
 70
     2
  9
$DIMLWD
 70
    -2
  9
$DIMLWE
 70
    -2
  9
$DIMTMOVE
 70
     0
  9
$LUNITS
 70
     2
  9
$LUPREC
 70
     1
  9
$SKETCHINC
 40
1.0
  9
$FILLETRAD
 40
10.0
  9
$AUNITS
 70
     1
  9
$AUPREC
 70
     2
  9
$MENU
  1
.
  9
$ELEVATION
 40
0.0
  9
$PELEVATION
 40
0.0
  9
$THICKNESS
 40
0.0
  9
$LIMCHECK
 70
     0
  9
$CHAMFERA
 40
0.0
  9
$CHAMFERB
 40
0.0
  9
$CHAMFERC
 40
0.0
  9
$CHAMFERD
 40
0.0
  9
$SKPOLY
 70
     0
  9
$TDCREATE
 40
2459492.755838183
  9
$TDUCREATE
 40
2459492.630838183
  9
$TDUPDATE
 40
2459492.755842037
  9
$TDUUPDATE
 40
2459492.630842037
  9
$TDINDWG
 40
0.0000000116
  9
$TDUSRTIMER
 40
0.0000000116
  9
$USRTIMER
 70
     1
  9
$ANGBASE
 50
0.0
  9
$ANGDIR
 70
     0
  9
$PDMODE
 70
     0
  9
$PDSIZE
 40
-1.0
  9
$PLINEWID
 40
0.0
  9
$SPLFRAME
 70
     0
  9
$SPLINETYPE
 70
     6
  9
$SPLINESEGS
 70
     8
  9
$HANDSEED
  5
1E5
  9
$SURFTAB1
 70
     6
  9
$SURFTAB2
 70
     6
  9
$SURFTYPE
 70
     6
  9
$SURFU
 70
     6
  9
$SURFV
 70
     6
  9
$UCSBASE
  2

  9
$UCSNAME
  2

  9
$UCSORG
 10
0.0
 20
0.0
 30
0.0
  9
$UCSXDIR
 10
1.0
 20
0.0
 30
0.0
  9
$UCSYDIR
 10
0.0
 20
1.0
 30
0.0
  9
$UCSORTHOREF
  2

  9
$UCSORTHOVIEW
 70
     0
  9
$UCSORGTOP
 10
0.0
 20
0.0
 30
0.0
  9
$UCSORGBOTTOM
 10
0.0
 20
0.0
 30
0.0
  9
$UCSORGLEFT
 10
0.0
 20
0.0
 30
0.0
  9
$UCSORGRIGHT
 10
0.0
 20
0.0
 30
0.0
  9
$UCSORGFRONT
 10
0.0
 20
0.0
 30
0.0
  9
$UCSORGBACK
 10
0.0
 20
0.0
 30
0.0
  9
$PUCSBASE
  2

  9
$PUCSNAME
  2

  9
$PUCSORG
 10
0.0
 20
0.0
 30
0.0
  9
$PUCSXDIR
 10
1.0
 20
0.0
 30
0.0
  9
$PUCSYDIR
 10
0.0
 20
1.0
 30
0.0
  9
$PUCSORTHOREF
  2

  9
$PUCSORTHOVIEW
 70
     0
  9
$PUCSORGTOP
 10
0.0
 20
0.0
 30
0.0
  9
$PUCSORGBOTTOM
 10
0.0
 20
0.0
 30
0.0
  9
$PUCSORGLEFT
 10
0.0
 20
0.0
 30
0.0
  9
$PUCSORGRIGHT
 10
0.0
 20
0.0
 30
0.0
  9
$PUCSORGFRONT
 10
0.0
 20
0.0
 30
0.0
  9
$PUCSORGBACK
 10
0.0
 20
0.0
 30
0.0
  9
$USERI1
 70
     0
  9
$USERI2
 70
     0
  9
$USERI3
 70
     0
  9
$USERI4
 70
     0
  9
$USERI5
 70
     0
  9
$USERR1
 40
0.0
  9
$USERR2
 40
0.0
  9
$USERR3
 40
0.0
  9
$USERR4
 40
0.0
  9
$USERR5
 40
0.0
  9
$WORLDVIEW
 70
     1
  9
$SHADEDGE
 70
     3
  9
$SHADEDIF
 70
    70
  9
$TILEMODE
 70
     1
  9
$MAXACTVP
 70
    64
  9
$PINSBASE
 10
0.0
 20
0.0
 30
0.0
  9
$PLIMCHECK
 70
     0
  9
$PEXTMIN
 10
1.0000000000E+20
 20
1.0000000000E+20
 30
1.0000000000E+20
  9
$PEXTMAX
 10
-1.0000000000E+20
 20
-1.0000000000E+20
 30
-1.0000000000E+20
  9
$PLIMMIN
 10
0.0
 20
0.0
  9
$PLIMMAX
 10
420.0
 20
297.0
  9
$UNITMODE
 70
     0
  9
$VISRETAIN
 70
     1
  9
$PLINEGEN
 70
     0
  9
$PSLTSCALE
 70
     1
  9
$TREEDEPTH
 70
  3020
  9
$CMLSTYLE
  2
Standard
  9
$CMLJUST
 70
     0
  9
$CMLSCALE
 40
20.0
  9
$PROXYGRAPHICS
 70
     1
  9
$MEASUREMENT
 70
     1
  9
$CELWEIGHT
370
    -1
  9
$ENDCAPS
280
     0
  9
$JOINSTYLE
280
     0
  9
$LWDISPLAY
290
     1
  9
$INSUNITS
 70
     4
  9
$HYPERLINKBASE
  1

  9
$STYLESHEET
  1

  9
$XEDIT
290
     1
  9
$CEPSNTYPE
380
     0
  9
$PSTYLEMODE
290
     1
  9
$FINGERPRINTGUID
  2
{7BAD800F-A291-407D-A150-B3303A9D7A09}
  9
$VERSIONGUID
  2
{FAEB1C32-E019-11D5-929B-00C0DF256EC4}
  9
$EXTNAMES
290
     1
  9
$PSVPSCALE
 40
0.0
  9
$OLESTARTUP
290
     0
  0
ENDSEC
  0
SECTION
  2
CLASSES
  0
CLASS
  1
ACDBDICTIONARYWDFLT
  2
AcDbDictionaryWithDefault
  3
ObjectDBX Classes
 90
        0
280
     0
281
     0
  0
CLASS
  1
VISUALSTYLE
  2
AcDbVisualStyle
  3
ObjectDBX Classes
 90
     4095
280
     0
281
     0
  0
CLASS
  1
MATERIAL
  2
AcDbMaterial
  3
ObjectDBX Classes
 90
     1153
280
     0
281
     0
  0
CLASS
  1
SCALE
  2
AcDbScale
  3
ObjectDBX Classes
 90
     1153
280
     0
281
     0
  0
CLASS
  1
TABLESTYLE
  2
AcDbTableStyle
  3
ObjectDBX Classes
 90
     4095
280
     0
281
     0
  0
CLASS
  1
MLEADERSTYLE
  2
AcDbMLeaderStyle
  3
ACDB_MLEADERSTYLE_CLASS
 90
     4095
280
     0
281
     0
  0
CLASS
  1
SUN
  2
AcDbSun
  3
SCENEOE
 90
     1153
280
     0
281
     0
  0
CLASS
  1
ACDBPLACEHOLDER
  2
AcDbPlaceHolder
  3
ObjectDBX Classes
 90
        0
280
     0
281
     0
  0
CLASS
  1
LAYOUT
  2
AcDbLayout
  3
ObjectDBX Classes
 90
        0
280
     0
281
     0
  0
ENDSEC
  0
SECTION
  2
TABLES
  0
TABLE
  2
VPORT
  5
8
330
0
100
AcDbSymbolTable
 70
     1
  0
VPORT
  5
29
330
8
100
AcDbSymbolTableRecord
100
AcDbViewportTableRecord
  2
*Active
 70
     0
 10
0.0
 20
0.0
 11
1.0
 21
1.0
 12
2000.0
 22
1650.0
 13
0.0
 23
0.0
 14
10.0
 24
10.0
 15
10.0
 25
10.0
 16
0.0
 26
0.0
 36
1.0
 17
0.0
 27
0.0
 37
0.0
 40
3300.0
 41
1.2121212121
 42
50.0
 43
0.0
 44
0.0
 50
0.0
 51
0.0
 71
     0
 72
  2000
 73
     1
 74
     3
 75
     0
 76
     0
 77
     0
 78
     0
281
     0
 65
     1
110
0.0
120
0.0
130
0.0
111
1.0
121
0.0
131
0.0
112
0.0
122
1.0
132
0.0
 79
     0
146
0.0
  0
ENDTAB
  0
TABLE
  2
LTYPE
  5
5
330
0
100
AcDbSymbolTable
 70
     6
  0
LTYPE
  5
14
330
5
100
AcDbSymbolTableRecord
100
AcDbLinetypeTableRecord
  2
ByBlock
 70
     0
  3

 72
    65
 73
     0
 40
0.0
  0
LTYPE
  5
15
330
5
100
AcDbSymbolTableRecord
100
AcDbLinetypeTableRecord
  2
ByLayer
 70
     0
  3

 72
    65
 73
     0
 40
0.0
  0
LTYPE
  5
16
330
5
100
AcDbSymbolTableRecord
100
AcDbLinetypeTableRecord
  2
Continuous
 70
     0
  3
Solid line
 72
    65
 73
     0
 40
0.0
  0
LTYPE
  5
6E
330
5
100
AcDbSymbolTableRecord
100
AcDbLinetypeTableRecord
  2
HIDDEN
 70
     0
  3
Hidden __ __ __ __ __ __ __ __ __ __ __ __ __ __
 72
    65
 73
     2
 40
1.905
 49
1.27
 74
     0
 49
-0.635
 74
     0
  0
LTYPE
  5
6F
330
5
100
AcDbSymbolTableRecord
100
AcDbLinetypeTableRecord
  2
PHANTOM
 70
     0
  3
Phantom ______  __  __  ______  __  __  ______
 72
    65
 73
     6
 40
12.7
 49
6.35
 74
     0
 49
-1.27
 74
     0
 49
1.27
 74
     0
 49
-1.27
 74
     0
 49
1.27
 74
     0
 49
-1.27
 74
     0
  0
LTYPE
  5
70
330
5
100
AcDbSymbolTableRecord
100
AcDbLinetypeTableRecord
  2
CENTER
 70
     0
  3
Center ____ _ ____ _ ____ _ ____ _ ____ _ ____
 72
    65
 73
     4
 40
10.16
 49
6.35
 74
     0
 49
-1.27
 74
     0
 49
1.27
 74
     0
 49
-1.27
 74
     0
  0
LTYPE
  5
71
330
5
100
AcDbSymbolTableRecord
100
AcDbLinetypeTableRecord
  2
CENTERX2
 70
     0
  3
Center (2x) ________  __  ________  __  _____
 72
    65
 73
     4
 40
20.32
 49
12.7
 74
     0
 49
-2.54
 74
     0
 49
2.54
 74
     0
 49
-2.54
 74
     0
  0
LTYPE
  5
72
330
5
100
AcDbSymbolTableRecord
100
AcDbLinetypeTableRecord
  2
DOT2
 70
     0
  3
Dot (.5x) ........................................
 72
    65
 73
     2
 40
0.635
 49
0.0
 74
     0
 49
-0.635
 74
     0
  0
ENDTAB
  0
TABLE
  2
LAYER
  5
2
330
0
100
AcDbSymbolTable
 70
    11
  0
LAYER
  5
10
330
2
100
AcDbSymbolTableRecord
100
AcDbLayerTableRecord
  2
0
 70
     0
 62
     7
  6
Continuous
370
    -3
390
F
  0
LAYER
  5
73
330
2
100
AcDbSymbolTableRecord
100
AcDbLayerTableRecord
  2
SLD-0
 70
     0
 62
     7
  6
Continuous
370
    25
390
F
  0
LAYER
  5
74
330
2
100
AcDbSymbolTableRecord
100
AcDbLayerTableRecord
  2
OSNOVA
 70
     0
 62
     5
  6
Continuous
370
    -3
390
F
  0
LAYER
  5
75
330
2
100
AcDbSymbolTableRecord
100
AcDbLayerTableRecord
  2
HIDE
 70
     0
 62
    -1
  6
Continuous
290
     0
370
    -3
390
F
  0
LAYER
  5
76
330
2
100
AcDbSymbolTableRecord
100
AcDbLayerTableRecord
  2
THIN_LINE
 70
     0
 62
     7
  6
Continuous
370
    25
390
F
  0
LAYER
  5
77
330
2
100
AcDbSymbolTableRecord
100
AcDbLayerTableRecord
  2
THICK_LINE
 70
     0
 62
     7
  6
Continuous
370
    25
390
F
  0
LAYER
  5
78
330
2
100
AcDbSymbolTableRecord
100
AcDbLayerTableRecord
  2
ПОДЧЕРКТИПОРАЗМЕР
 70
     0
 62
    -7
  6
Continuous
290
     0
370
    -3
390
F
  0
LAYER
  5
79
330
2
100
AcDbSymbolTableRecord
100
AcDbLayerTableRecord
  2
THIN_LIONE
 70
     0
 62
     7
  6
Continuous
370
    -3
390
F
  0
LAYER
  5
7A
330
2
100
AcDbSymbolTableRecord
100
AcDbLayerTableRecord
  2
THICK_LIONE
 70
     0
 62
     7
  6
Continuous
370
    25
390
F
  0
LAYER
  5
7B
330
2
100
AcDbSymbolTableRecord
100
AcDbLayerTableRecord
  2
ПОДЧЕРКТИПАРАЗМЕР
 70
     0
 62
    -7
  6
Continuous
290
     0
370
    -3
390
F
  0
LAYER
  5
7C
330
2
100
AcDbSymbolTableRecord
100
AcDbLayerTableRecord
  2
ИЗМЕН_РАЗМЕР
 70
     0
 62
     1
  6
Continuous
370
    -3
390
F
  0
ENDTAB
  0
TABLE
  2
STYLE
  5
3
330
0
100
AcDbSymbolTable
 70
     1
  0
STYLE
  5
11
330
3
100
AcDbSymbolTableRecord
100
AcDbTextStyleTableRecord
  2
Standard
 70
     0
 40
0.0
 41
1.0
 50
0.0
 71
     0
 42
3.5
  3
txt
  4

  0
ENDTAB
  0
TABLE
  2
VIEW
  5
6
330
0
100
AcDbSymbolTable
 70
     0
  0
ENDTAB
  0
TABLE
  2
UCS
  5
7
330
0
100
AcDbSymbolTable
 70
     0
  0
ENDTAB
  0
TABLE
  2
APPID
  5
9
330
0
100
AcDbSymbolTable
 70
     1
  0
APPID
  5
12
330
9
100
AcDbSymbolTableRecord
100
AcDbRegAppTableRecord
  2
ACAD
 70
     0
  0
ENDTAB
  0
TABLE
  2
DIMSTYLE
  5
A
330
0
100
AcDbSymbolTable
 70
     1
100
AcDbDimStyleTable
  0
DIMSTYLE
105
27
330
A
100
AcDbSymbolTableRecord
100
AcDbDimStyleTableRecord
  2
ISO-25
 70
     0
 41
2.5
 42
0.625
 43
3.75
 44
1.25
 73
     0
 74
     0
 77
     1
 78
     8
140
2.5
141
2.5
143
0.0393700787
147
0.625
171
     3
172
     1
178
     0
271
     2
272
     2
274
     3
278
    44
283
     0
284
     8
340
11
  0
ENDTAB
  0
TABLE
  2
BLOCK_RECORD
  5
1
330
0
100
AcDbSymbolTable
 70
     1
  0
BLOCK_RECORD
  5
1F
330
1
100
AcDbSymbolTableRecord
100
AcDbBlockTableRecord
  2
*Model_Space
340
22
  0
BLOCK_RECORD
  5
1B
330
1
100
AcDbSymbolTableRecord
100
AcDbBlockTableRecord
  2
*Paper_Space
340
1E
  0
BLOCK_RECORD
  5
23
330
1
100
AcDbSymbolTableRecord
100
AcDbBlockTableRecord
  2
*Paper_Space0
340
26
  0
ENDTAB
  0
ENDSEC
  0
SECTION
  2
BLOCKS
  0
BLOCK
  5
20
330
1F
100
AcDbEntity
  8
0
100
AcDbBlockBegin
  2
*Model_Space
 70
     0
 10
0.0
 20
0.0
 30
0.0
  3
*Model_Space
  1

  0
ENDBLK
  5
21
330
1F
100
AcDbEntity
  8
0
100
AcDbBlockEnd
  0
BLOCK
  5
1C
330
1B
100
AcDbEntity
 67
     1
  8
0
100
AcDbBlockBegin
  2
*Paper_Space
 70
     0
 10
0.0
 20
0.0
 30
0.0
  3
*Paper_Space
  1

  0
ENDBLK
  5
1D
330
1B
100
AcDbEntity
 67
     1
  8
0
100
AcDbBlockEnd
  0
BLOCK
  5
24
330
23
100
AcDbEntity
  8
0
100
AcDbBlockBegin
  2
*Paper_Space0
 70
     0
 10
0.0
 20
0.0
 30
0.0
  3
*Paper_Space0
  1

  0
ENDBLK
  5
25
330
23
100
AcDbEntity
  8
0
100
AcDbBlockEnd
  0
ENDSEC
  0
SECTION
  2
ENTITIES
  0
LINE
  5
7D
330
1F
100
AcDbEntity
  8
0
  6
Continuous
 62
     7
370
    25
100
AcDbLine
 10
109.3759275917
 20
2078.378709553
 30
0.0
 11
109.3759275917
 21
2079.7776325275
 31
0.0
  0
LINE
  5
7E
330
1F
100
AcDbEntity
  8
0
  6
Continuous
 62
     7
370
    25
100
AcDbLine
 10
3109.3759275917
 20
2079.7776325275
 30
0.0
 11
109.3759275917
 21
2079.7776325275
 31
0.0
  0
LINE
  5
7F
330
1F
100
AcDbEntity
  8
0
  6
Continuous
 62
     7
370
    25
100
AcDbLine
 10
3109.3759275917
 20
2078.378709553
 30
0.0
 11
3109.3759275917
 21
2079.7776325275
 31
0.0
  0
LINE
  5
80
330
1F
100
AcDbEntity
  8
0
  6
Continuous
 62
     7
370
    25
100
AcDbLine
 10
3109.3759275917
 20
1993.378709553
 30
0.0
 11
109.3759275917
 21
1993.378709553
 31
0.0
  0
LINE
  5
81
330
1F
100
AcDbEntity
  8
0
  6
Continuous
 62
     7
370
    25
100
AcDbLine
 10
109.3759275917
 20
2078.378709553
 30
0.0
 11
109.3759275917
 21
1996.378709553
 31
0.0
  0
LINE
  5
82
330
1F
100
AcDbEntity
  8
0
  6
Continuous
 62
     7
370
    25
100
AcDbLine
 10
175.3759275917
 20
2007.878709553
 30
0.0
 11
193.3759275917
 21
2007.878709553
 31
0.0
  0
ARC
  5
83
330
1F
100
AcDbEntity
  8
0
  6
Continuous
 62
     7
370
    25
100
AcDbCircle
 10
3075.3759275917
 20
2011.378709553
 30
0.0
 40
3.5
100
AcDbArc
 50
90.0
 51
270.0
  0
LINE
  5
84
330
1F
100
AcDbEntity
  8
0
  6
Continuous
 62
     7
370
    25
100
AcDbLine
 10
3093.3759275917
 20
2014.878709553
 30
0.0
 11
3075.3759275917
 21
2014.878709553
 31
0.0
  0
ARC
  5
85
330
1F
100
AcDbEntity
  8
0
  6
Continuous
 62
     7
370
    25
100
AcDbCircle
 10
3025.3759275917
 20
2011.378709553
 30
0.0
 40
3.5
100
AcDbArc
 50
90.0
 51
270.0
  0
LINE
  5
86
330
1F
100
AcDbEntity
  8
0
  6
Continuous
 62
     7
370
    25
100
AcDbLine
 10
3025.3759275917
 20
2007.878709553
 30
0.0
 11
3043.3759275917
 21
2007.878709553
 31
0.0
  0
ARC
  5
87
330
1F
100
AcDbEntity
  8
0
  6
Continuous
 62
     7
370
    25
100
AcDbCircle
 10
3043.3759275917
 20
2011.378709553
 30
0.0
 40
3.5
100
AcDbArc
 50
270.0
 51
90.0
  0
LINE
  5
88
330
1F
100
AcDbEntity
  8
0
  6
Continuous
 62
     7
370
    25
100
AcDbLine
 10
3043.3759275917
 20
2014.878709553
 30
0.0
 11
3025.3759275917
 21
2014.878709553
 31
0.0
  0
ARC
  5
89
330
1F
100
AcDbEntity
  8
0
  6
Continuous
 62
     7
370
    25
100
AcDbCircle
 10
143.3759275917
 20
2011.378709553
 30
0.0
 40
3.5
100
AcDbArc
 50
270.0
 51
90.0
  0
LINE
  5
8A
330
1F
100
AcDbEntity
  8
0
  6
Continuous
 62
     7
370
    25
100
AcDbLine
 10
143.3759275917
 20
2014.878709553
 30
0.0
 11
125.3759275917
 21
2014.878709553
 31
0.0
  0
ARC
  5
8B
330
1F
100
AcDbEntity
  8
0
  6
Continuous
 62
     7
370
    25
100
AcDbCircle
 10
125.3759275917
 20
2011.378709553
 30
0.0
 40
3.5
100
AcDbArc
 50
90.0
 51
270.0
  0
LINE
  5
8C
330
1F
100
AcDbEntity
  8
0
  6
Continuous
 62
     7
370
    25
100
AcDbLine
 10
125.3759275917
 20
2007.878709553
 30
0.0
 11
143.3759275917
 21
2007.878709553
 31
0.0
  0
LINE
  5
8D
330
1F
100
AcDbEntity
  8
0
  6
Continuous
 62
     7
370
    25
100
AcDbLine
 10
193.3759275917
 20
2049.878709553
 30
0.0
 11
175.3759275917
 21
2049.878709553
 31
0.0
  0
ARC
  5
8E
330
1F
100
AcDbEntity
  8
0
  6
Continuous
 62
     7
370
    25
100
AcDbCircle
 10
175.3759275917
 20
2046.378709553
 30
0.0
 40
3.499999999999773
100
AcDbArc
 50
90.0
 51
270.0
  0
LINE
  5
8F
330
1F
100
AcDbEntity
  8
0
  6
Continuous
 62
     7
370
    25
100
AcDbLine
 10
175.3759275917
 20
2042.878709553
 30
0.0
 11
193.3759275917
 21
2042.878709553
 31
0.0
  0
ARC
  5
90
330
1F
100
AcDbEntity
  8
0
  6
Continuous
 62
     7
370
    25
100
AcDbCircle
 10
3075.3759275917
 20
2046.378709553
 30
0.0
 40
3.500000000000227
100
AcDbArc
 50
90.0
 51
270.0
  0
LINE
  5
91
330
1F
100
AcDbEntity
  8
0
  6
Continuous
 62
     7
370
    25
100
AcDbLine
 10
3075.3759275917
 20
2042.878709553
 30
0.0
 11
3093.3759275917
 21
2042.878709553
 31
0.0
  0
ARC
  5
92
330
1F
100
AcDbEntity
  8
0
  6
Continuous
 62
     7
370
    25
100
AcDbCircle
 10
3093.3759275917
 20
2046.378709553
 30
0.0
 40
3.500000000000227
100
AcDbArc
 50
270.0
 51
90.0
  0
LINE
  5
93
330
1F
100
AcDbEntity
  8
0
  6
Continuous
 62
     7
370
    25
100
AcDbLine
 10
3093.3759275917
 20
2049.878709553
 30
0.0
 11
3075.3759275917
 21
2049.878709553
 31
0.0
  0
ARC
  5
94
330
1F
100
AcDbEntity
  8
0
  6
Continuous
 62
     7
370
    25
100
AcDbCircle
 10
3043.3759275917
 20
2046.378709553
 30
0.0
 40
3.499999999999773
100
AcDbArc
 50
270.0
 51
90.0
  0
LINE
  5
95
330
1F
100
AcDbEntity
  8
0
  6
Continuous
 62
     7
370
    25
100
AcDbLine
 10
3043.3759275917
 20
2049.878709553
 30
0.0
 11
3025.3759275917
 21
2049.878709553
 31
0.0
  0
ARC
  5
96
330
1F
100
AcDbEntity
  8
0
  6
Continuous
 62
     7
370
    25
100
AcDbCircle
 10
143.3759275917
 20
2046.378709553
 30
0.0
 40
3.500000000000227
100
AcDbArc
 50
270.0
 51
90.0
  0
LINE
  5
97
330
1F
100
AcDbEntity
  8
0
  6
Continuous
 62
     7
370
    25
100
AcDbLine
 10
143.3759275917
 20
2049.878709553
 30
0.0
 11
125.3759275917
 21
2049.878709553
 31
0.0
  0
ARC
  5
98
330
1F
100
AcDbEntity
  8
0
  6
Continuous
 62
     7
370
    25
100
AcDbCircle
 10
125.3759275917
 20
2046.378709553
 30
0.0
 40
3.500000000000227
100
AcDbArc
 50
90.0
 51
270.0
  0
LINE
  5
99
330
1F
100
AcDbEntity
  8
0
  6
Continuous
 62
     7
370
    25
100
AcDbLine
 10
125.3759275917
 20
2042.878709553
 30
0.0
 11
143.3759275917
 21
2042.878709553
 31
0.0
  0
LINE
  5
9A
330
1F
100
AcDbEntity
  8
0
  6
Continuous
 62
     7
370
    25
100
AcDbLine
 10
3075.3759275917
 20
2007.878709553
 30
0.0
 11
3093.3759275917
 21
2007.878709553
 31
0.0
  0
ARC
  5
9B
330
1F
100
AcDbEntity
  8
0
  6
Continuous
 62
     7
370
    25
100
AcDbCircle
 10
3093.3759275917
 20
2011.378709553
 30
0.0
 40
3.5
100
AcDbArc
 50
270.0
 51
90.0
  0
ARC
  5
9C
330
1F
100
AcDbEntity
  8
0
  6
Continuous
 62
     7
370
    25
100
AcDbCircle
 10
3025.3759275917
 20
2046.378709553
 30
0.0
 40
3.499999999999773
100
AcDbArc
 50
90.0
 51
270.0
  0
LINE
  5
9D
330
1F
100
AcDbEntity
  8
0
  6
Continuous
 62
     7
370
    25
100
AcDbLine
 10
3025.3759275917
 20
2042.878709553
 30
0.0
 11
3043.3759275917
 21
2042.878709553
 31
0.0
  0
LINE
  5
9E
330
1F
100
AcDbEntity
  8
0
  6
Continuous
 62
     7
370
    25
100
AcDbLine
 10
109.3759275917
 20
1993.378709553
 30
0.0
 11
109.3759275917
 21
1996.378709553
 31
0.0
  0
LINE
  5
9F
330
1F
100
AcDbEntity
  8
0
  6
Continuous
 62
     7
370
    25
100
AcDbLine
 10
3109.3759275917
 20
2078.378709553
 30
0.0
 11
3109.3759275917
 21
1996.378709553
 31
0.0
  0
LINE
  5
A0
330
1F
100
AcDbEntity
  8
0
  6
Continuous
 62
     7
370
    25
100
AcDbLine
 10
3109.3759275917
 20
1993.378709553
 30
0.0
 11
3109.3759275917
 21
1996.378709553
 31
0.0
  0
ARC
  5
A1
330
1F
100
AcDbEntity
  8
0
  6
Continuous
 62
     7
370
    25
100
AcDbCircle
 10
193.3759275917
 20
2011.378709553
 30
0.0
 40
3.5
100
AcDbArc
 50
270.0
 51
90.0
  0
LINE
  5
A2
330
1F
100
AcDbEntity
  8
0
  6
Continuous
 62
     7
370
    25
100
AcDbLine
 10
193.3759275917
 20
2014.878709553
 30
0.0
 11
175.3759275917
 21
2014.878709553
 31
0.0
  0
ARC
  5
A3
330
1F
100
AcDbEntity
  8
0
  6
Continuous
 62
     7
370
    25
100
AcDbCircle
 10
175.3759275917
 20
2011.378709553
 30
0.0
 40
3.5
100
AcDbArc
 50
90.0
 51
270.0
  0
ARC
  5
A4
330
1F
100
AcDbEntity
  8
0
  6
Continuous
 62
     7
370
    25
100
AcDbCircle
 10
193.3759275917
 20
2046.378709553
 30
0.0
 40
3.499999999999773
100
AcDbArc
 50
270.0
 51
90.0
  0
LINE
  5
A5
330
1F
100
AcDbEntity
  8
0
  6
Continuous
 62
     7
370
    25
100
AcDbLine
 10
3109.3759275917
 20
2080.6768428824
 30
0.0
 11
3109.3759275917
 21
2084.1741392099
 31
0.0
  0
LINE
  5
A6
330
1F
100
AcDbEntity
  8
0
  6
Continuous
 62
     7
370
    25
100
AcDbLine
 10
3109.3759275917
 20
2079.7776325275
 30
0.0
 11
3109.3759275917
 21
2080.6768428824
 31
0.0
  0
LINE
  5
A7
330
1F
100
AcDbEntity
  8
0
  6
Continuous
 62
     7
370
    25
100
AcDbLine
 10
109.3759275917
 20
2084.1741392099
 30
0.0
 11
109.3759275917
 21
2080.6768428824
 31
0.0
  0
LINE
  5
A8
330
1F
100
AcDbEntity
  8
0
  6
Continuous
 62
     7
370
    25
100
AcDbLine
 10
109.3759275917
 20
2084.1741392099
 30
0.0
 11
3109.3759275917
 21
2084.1741392099
 31
0.0
  0
LINE
  5
A9
330
1F
100
AcDbEntity
  8
0
  6
Continuous
 62
     7
370
    25
100
AcDbLine
 10
109.3759275917
 20
2079.7776325275
 30
0.0
 11
109.3759275917
 21
2080.6768428824
 31
0.0
  0
LINE
  5
AA
330
1F
100
AcDbEntity
  8
0
  6
Continuous
 62
     7
370
    25
100
AcDbLine
 10
109.3759275917
 20
2093.3450172112
 30
0.0
 11
109.3759275917
 21
2089.2266412921
 31
0.0
  0
LINE
  5
AB
330
1F
100
AcDbEntity
  8
0
  6
Continuous
 62
     7
370
    25
100
AcDbLine
 10
3109.3759275917
 20
2093.3450172112
 30
0.0
 11
109.3759275917
 21
2093.3450172112
 31
0.0
  0
LINE
  5
AC
330
1F
100
AcDbEntity
  8
0
  6
Continuous
 62
     7
370
    25
100
AcDbLine
 10
3109.3759275917
 20
2089.2266412921
 30
0.0
 11
3109.3759275917
 21
2093.3450172112
 31
0.0
  0
LINE
  5
AD
330
1F
100
AcDbEntity
  8
0
  6
Continuous
 62
     7
370
    25
100
AcDbLine
 10
109.3759275917
 20
2089.2266412921
 30
0.0
 11
3109.3759275917
 21
2089.2266412921
 31
0.0
  0
LINE
  5
AE
330
1F
100
AcDbEntity
  8
0
  6
Continuous
 62
     7
370
    25
100
AcDbLine
 10
109.3759275917
 20
2089.2266412921
 30
0.0
 11
109.3759275917
 21
2084.1741392099
 31
0.0
  0
LINE
  5
AF
330
1F
100
AcDbEntity
  8
0
  6
Continuous
 62
     7
370
    25
100
AcDbLine
 10
3109.3759275917
 20
2089.2266412921
 30
0.0
 11
3109.3759275917
 21
2084.1741392099
 31
0.0
  0
LINE
  5
B0
330
1F
100
AcDbEntity
  8
0
  6
Continuous
 62
     7
370
    25
100
AcDbLine
 10
109.3759275917
 20
2728.4033568925
 30
0.0
 11
109.3759275917
 21
2731.4033568925
 31
0.0
  0
LINE
  5
B1
330
1F
100
AcDbEntity
  8
0
  6
Continuous
 62
     7
370
    25
100
AcDbLine
 10
3109.3759275917
 20
2731.4033568925
 30
0.0
 11
109.3759275917
 21
2731.4033568925
 31
0.0
  0
LINE
  5
B2
330
1F
100
AcDbEntity
  8
0
  6
Continuous
 62
     7
370
    25
100
AcDbLine
 10
3109.3759275917
 20
2728.4033568925
 30
0.0
 11
3109.3759275917
 21
2731.4033568925
 31
0.0
  0
LINE
  5
B3
330
1F
100
AcDbEntity
  8
0
  6
Continuous
 62
     7
370
    25
100
AcDbLine
 10
3109.3759275917
 20
2728.4033568925
 30
0.0
 11
3109.3759275917
 21
2634.4033568925
 31
0.0
  0
LINE
  5
B4
330
1F
100
AcDbEntity
  8
0
  6
Continuous
 62
     7
370
    25
100
AcDbLine
 10
3109.3759275917
 20
2631.4033568925
 30
0.0
 11
109.3759275917
 21
2631.4033568925
 31
0.0
  0
LINE
  5
B5
330
1F
100
AcDbEntity
  8
0
  6
Continuous
 62
     7
370
    25
100
AcDbLine
 10
109.3759275917
 20
2631.4033568925
 30
0.0
 11
109.3759275917
 21
2634.4033568925
 31
0.0
  0
LINE
  5
B6
330
1F
100
AcDbEntity
  8
0
  6
Continuous
 62
     7
370
    25
100
AcDbLine
 10
109.3759275917
 20
2728.4033568925
 30
0.0
 11
109.3759275917
 21
2634.4033568925
 31
0.0
  0
ARC
  5
B7
330
1F
100
AcDbEntity
  8
0
  6
Continuous
 62
     7
370
    25
100
AcDbCircle
 10
3088.3759275917
 20
2685.4033568925
 30
0.0
 40
1.000000000000455
100
AcDbArc
 50
90.0
 51
180.0
  0
LINE
  5
B8
330
1F
100
AcDbEntity
  8
0
  6
Continuous
 62
     7
370
    25
100
AcDbLine
 10
3087.3759275917
 20
2677.4033568925
 30
0.0
 11
3087.3759275917
 21
2685.4033568925
 31
0.0
  0
ARC
  5
B9
330
1F
100
AcDbEntity
  8
0
  6
Continuous
 62
     7
370
    25
100
AcDbCircle
 10
3088.3759275917
 20
2677.4033568925
 30
0.0
 40
1.000000000000455
100
AcDbArc
 50
180.0
 51
270.0
  0
LINE
  5
BA
330
1F
100
AcDbEntity
  8
0
  6
Continuous
 62
     7
370
    25
100
AcDbLine
 10
3093.3759275917
 20
2676.4033568925
 30
0.0
 11
3088.3759275917
 21
2676.4033568925
 31
0.0
  0
ARC
  5
BB
330
1F
100
AcDbEntity
  8
0
  6
Continuous
 62
     7
370
    25
100
AcDbCircle
 10
3093.3759275917
 20
2677.4033568925
 30
0.0
 40
1.0
100
AcDbArc
 50
270.0
 51
0.0
  0
LINE
  5
BC
330
1F
100
AcDbEntity
  8
0
  6
Continuous
 62
     7
370
    25
100
AcDbLine
 10
3094.3759275917
 20
2685.4033568925
 30
0.0
 11
3094.3759275917
 21
2677.4033568925
 31
0.0
  0
ARC
  5
BD
330
1F
100
AcDbEntity
  8
0
  6
Continuous
 62
     7
370
    25
100
AcDbCircle
 10
3093.3759275917
 20
2685.4033568925
 30
0.0
 40
1.0
100
AcDbArc
 50
0.0
 51
90.0
  0
LINE
  5
BE
330
1F
100
AcDbEntity
  8
0
  6
Continuous
 62
     7
370
    25
100
AcDbLine
 10
3088.3759275917
 20
2686.4033568925
 30
0.0
 11
3093.3759275917
 21
2686.4033568925
 31
0.0
  0
ARC
  5
BF
330
1F
100
AcDbEntity
  8
0
  6
Continuous
 62
     7
370
    25
100
AcDbCircle
 10
125.3759275917
 20
2685.4033568925
 30
0.0
 40
1.0
100
AcDbArc
 50
90.0
 51
180.0
  0
LINE
  5
C0
330
1F
100
AcDbEntity
  8
0
  6
Continuous
 62
     7
370
    25
100
AcDbLine
 10
124.3759275917
 20
2677.4033568925
 30
0.0
 11
124.3759275917
 21
2685.4033568925
 31
0.0
  0
ARC
  5
C1
330
1F
100
AcDbEntity
  8
0
  6
Continuous
 62
     7
370
    25
100
AcDbCircle
 10
125.3759275917
 20
2677.4033568925
 30
0.0
 40
1.0
100
AcDbArc
 50
180.0
 51
270.0
  0
LINE
  5
C2
330
1F
100
AcDbEntity
  8
0
  6
Continuous
 62
     7
370
    25
100
AcDbLine
 10
130.3759275917
 20
2676.4033568925
 30
0.0
 11
125.3759275917
 21
2676.4033568925
 31
0.0
  0
ARC
  5
C3
330
1F
100
AcDbEntity
  8
0
  6
Continuous
 62
     7
370
    25
100
AcDbCircle
 10
130.3759275917
 20
2677.4033568925
 30
0.0
 40
1.0
100
AcDbArc
 50
270.0
 51
0.0
  0
LINE
  5
C4
330
1F
100
AcDbEntity
  8
0
  6
Continuous
 62
     7
370
    25
100
AcDbLine
 10
131.3759275917
 20
2685.4033568925
 30
0.0
 11
131.3759275917
 21
2677.4033568925
 31
0.0
  0
ARC
  5
C5
330
1F
100
AcDbEntity
  8
0
  6
Continuous
 62
     7
370
    25
100
AcDbCircle
 10
130.3759275917
 20
2685.4033568925
 30
0.0
 40
1.0
100
AcDbArc
 50
0.0
 51
90.0
  0
LINE
  5
C6
330
1F
100
AcDbEntity
  8
0
  6
Continuous
 62
     7
370
    25
100
AcDbLine
 10
125.3759275917
 20
2686.4033568925
 30
0.0
 11
130.3759275917
 21
2686.4033568925
 31
0.0
  0
ARC
  5
C7
330
1F
100
AcDbEntity
  8
0
  6
Continuous
 62
     7
370
    25
100
AcDbCircle
 10
143.3759275917
 20
2643.9033568925
 30
0.0
 40
3.500000000000455
100
AcDbArc
 50
270.0
 51
90.0
  0
LINE
  5
C8
330
1F
100
AcDbEntity
  8
0
  6
Continuous
 62
     7
370
    25
100
AcDbLine
 10
125.3759275917
 20
2647.4033568925
 30
0.0
 11
143.3759275917
 21
2647.4033568925
 31
0.0
  0
ARC
  5
C9
330
1F
100
AcDbEntity
  8
0
  6
Continuous
 62
     7
370
    25
100
AcDbCircle
 10
125.3759275917
 20
2643.9033568925
 30
0.0
 40
3.500000000000455
100
AcDbArc
 50
90.0
 51
270.0
  0
LINE
  5
CA
330
1F
100
AcDbEntity
  8
0
  6
Continuous
 62
     7
370
    25
100
AcDbLine
 10
143.3759275917
 20
2640.4033568925
 30
0.0
 11
125.3759275917
 21
2640.4033568925
 31
0.0
  0
ARC
  5
CB
330
1F
100
AcDbEntity
  8
0
  6
Continuous
 62
     7
370
    25
100
AcDbCircle
 10
3075.3759275917
 20
2718.9033568925
 30
0.0
 40
3.5
100
AcDbArc
 50
90.0
 51
270.0
  0
LINE
  5
CC
330
1F
100
AcDbEntity
  8
0
  6
Continuous
 62
     7
370
    25
100
AcDbLine
 10
3093.3759275917
 20
2715.4033568925
 30
0.0
 11
3075.3759275917
 21
2715.4033568925
 31
0.0
  0
ARC
  5
CD
330
1F
100
AcDbEntity
  8
0
  6
Continuous
 62
     7
370
    25
100
AcDbCircle
 10
3093.3759275917
 20
2718.9033568925
 30
0.0
 40
3.5
100
AcDbArc
 50
270.0
 51
90.0
  0
LINE
  5
CE
330
1F
100
AcDbEntity
  8
0
  6
Continuous
 62
     7
370
    25
100
AcDbLine
 10
3075.3759275917
 20
2722.4033568925
 30
0.0
 11
3093.3759275917
 21
2722.4033568925
 31
0.0
  0
ARC
  5
CF
330
1F
100
AcDbEntity
  8
0
  6
Continuous
 62
     7
370
    25
100
AcDbCircle
 10
3025.3759275917
 20
2718.9033568925
 30
0.0
 40
3.500000000000455
100
AcDbArc
 50
90.0
 51
270.0
  0
LINE
  5
D0
330
1F
100
AcDbEntity
  8
0
  6
Continuous
 62
     7
370
    25
100
AcDbLine
 10
3043.3759275917
 20
2715.4033568925
 30
0.0
 11
3025.3759275917
 21
2715.4033568925
 31
0.0
  0
ARC
  5
D1
330
1F
100
AcDbEntity
  8
0
  6
Continuous
 62
     7
370
    25
100
AcDbCircle
 10
3043.3759275917
 20
2718.9033568925
 30
0.0
 40
3.500000000000455
100
AcDbArc
 50
270.0
 51
90.0
  0
LINE
  5
D2
330
1F
100
AcDbEntity
  8
0
  6
Continuous
 62
     7
370
    25
100
AcDbLine
 10
3025.3759275917
 20
2722.4033568925
 30
0.0
 11
3043.3759275917
 21
2722.4033568925
 31
0.0
  0
ARC
  5
D3
330
1F
100
AcDbEntity
  8
0
  6
Continuous
 62
     7
370
    25
100
AcDbCircle
 10
3025.3759275917
 20
2643.9033568925
 30
0.0
 40
3.500000000000909
100
AcDbArc
 50
90.0
 51
270.0
  0
LINE
  5
D4
330
1F
100
AcDbEntity
  8
0
  6
Continuous
 62
     7
370
    25
100
AcDbLine
 10
3043.3759275917
 20
2640.4033568925
 30
0.0
 11
3025.3759275917
 21
2640.4033568925
 31
0.0
  0
ARC
  5
D5
330
1F
100
AcDbEntity
  8
0
  6
Continuous
 62
     7
370
    25
100
AcDbCircle
 10
3043.3759275917
 20
2643.9033568925
 30
0.0
 40
3.500000000000909
100
AcDbArc
 50
270.0
 51
90.0
  0
LINE
  5
D6
330
1F
100
AcDbEntity
  8
0
  6
Continuous
 62
     7
370
    25
100
AcDbLine
 10
3025.3759275917
 20
2647.4033568925
 30
0.0
 11
3043.3759275917
 21
2647.4033568925
 31
0.0
  0
ARC
  5
D7
330
1F
100
AcDbEntity
  8
0
  6
Continuous
 62
     7
370
    25
100
AcDbCircle
 10
193.3759275917
 20
2643.9033568925
 30
0.0
 40
3.500000000000909
100
AcDbArc
 50
270.0
 51
90.0
  0
LINE
  5
D8
330
1F
100
AcDbEntity
  8
0
  6
Continuous
 62
     7
370
    25
100
AcDbLine
 10
175.3759275917
 20
2647.4033568925
 30
0.0
 11
193.3759275917
 21
2647.4033568925
 31
0.0
  0
ARC
  5
D9
330
1F
100
AcDbEntity
  8
0
  6
Continuous
 62
     7
370
    25
100
AcDbCircle
 10
175.3759275917
 20
2643.9033568925
 30
0.0
 40
3.500000000000909
100
AcDbArc
 50
90.0
 51
270.0
  0
LINE
  5
DA
330
1F
100
AcDbEntity
  8
0
  6
Continuous
 62
     7
370
    25
100
AcDbLine
 10
193.3759275917
 20
2640.4033568925
 30
0.0
 11
175.3759275917
 21
2640.4033568925
 31
0.0
  0
ARC
  5
DB
330
1F
100
AcDbEntity
  8
0
  6
Continuous
 62
     7
370
    25
100
AcDbCircle
 10
143.3759275917
 20
2718.9033568925
 30
0.0
 40
3.5
100
AcDbArc
 50
270.0
 51
90.0
  0
LINE
  5
DC
330
1F
100
AcDbEntity
  8
0
  6
Continuous
 62
     7
370
    25
100
AcDbLine
 10
125.3759275917
 20
2722.4033568925
 30
0.0
 11
143.3759275917
 21
2722.4033568925
 31
0.0
  0
ARC
  5
DD
330
1F
100
AcDbEntity
  8
0
  6
Continuous
 62
     7
370
    25
100
AcDbCircle
 10
125.3759275917
 20
2718.9033568925
 30
0.0
 40
3.5
100
AcDbArc
 50
90.0
 51
270.0
  0
LINE
  5
DE
330
1F
100
AcDbEntity
  8
0
  6
Continuous
 62
     7
370
    25
100
AcDbLine
 10
143.3759275917
 20
2715.4033568925
 30
0.0
 11
125.3759275917
 21
2715.4033568925
 31
0.0
  0
ARC
  5
DF
330
1F
100
AcDbEntity
  8
0
  6
Continuous
 62
     7
370
    25
100
AcDbCircle
 10
193.3759275917
 20
2718.9033568925
 30
0.0
 40
3.500000000000455
100
AcDbArc
 50
270.0
 51
90.0
  0
LINE
  5
E0
330
1F
100
AcDbEntity
  8
0
  6
Continuous
 62
     7
370
    25
100
AcDbLine
 10
175.3759275917
 20
2722.4033568925
 30
0.0
 11
193.3759275917
 21
2722.4033568925
 31
0.0
  0
ARC
  5
E1
330
1F
100
AcDbEntity
  8
0
  6
Continuous
 62
     7
370
    25
100
AcDbCircle
 10
175.3759275917
 20
2718.9033568925
 30
0.0
 40
3.500000000000455
100
AcDbArc
 50
90.0
 51
270.0
  0
LINE
  5
E2
330
1F
100
AcDbEntity
  8
0
  6
Continuous
 62
     7
370
    25
100
AcDbLine
 10
193.3759275917
 20
2715.4033568925
 30
0.0
 11
175.3759275917
 21
2715.4033568925
 31
0.0
  0
ARC
  5
E3
330
1F
100
AcDbEntity
  8
0
  6
Continuous
 62
     7
370
    25
100
AcDbCircle
 10
3075.3759275917
 20
2643.9033568925
 30
0.0
 40
3.500000000000455
100
AcDbArc
 50
90.0
 51
270.0
  0
LINE
  5
E4
330
1F
100
AcDbEntity
  8
0
  6
Continuous
 62
     7
370
    25
100
AcDbLine
 10
3093.3759275917
 20
2640.4033568925
 30
0.0
 11
3075.3759275917
 21
2640.4033568925
 31
0.0
  0
ARC
  5
E5
330
1F
100
AcDbEntity
  8
0
  6
Continuous
 62
     7
370
    25
100
AcDbCircle
 10
3093.3759275917
 20
2643.9033568925
 30
0.0
 40
3.500000000000455
100
AcDbArc
 50
270.0
 51
90.0
  0
LINE
  5
E6
330
1F
100
AcDbEntity
  8
0
  6
Continuous
 62
     7
370
    25
100
AcDbLine
 10
3075.3759275917
 20
2647.4033568925
 30
0.0
 11
3093.3759275917
 21
2647.4033568925
 31
0.0
  0
LINE
  5
E7
330
1F
100
AcDbEntity
  8
0
  6
Continuous
 62
     7
370
    25
100
AcDbLine
 10
3109.3759275917
 20
2631.4033568925
 30
0.0
 11
3109.3759275917
 21
2634.4033568925
 31
0.0
  0
LINE
  5
E8
330
1F
100
AcDbEntity
  8
0
  6
Continuous
 62
     7
370
    25
100
AcDbLine
 10
3095.8254173344
 20
2641.4033568925
 30
0.0
 11
3072.9264378489
 21
2641.4033568925
 31
0.0
  0
LINE
  5
E9
330
1F
100
AcDbEntity
  8
0
  6
Continuous
 62
     7
370
    25
100
AcDbLine
 10
3045.8254173344
 20
2641.4033568925
 30
0.0
 11
3022.9264378489
 21
2641.4033568925
 31
0.0
  0
LINE
  5
EA
330
1F
100
AcDbEntity
  8
0
  6
Continuous
 62
     7
370
    25
100
AcDbLine
 10
195.8254173344
 20
2641.4033568925
 30
0.0
 11
172.9264378489
 21
2641.4033568925
 31
0.0
  0
LINE
  5
EB
330
1F
100
AcDbEntity
  8
0
  6
Continuous
 62
     7
370
    25
100
AcDbLine
 10
145.8254173344
 20
2641.4033568925
 30
0.0
 11
122.9264378489
 21
2641.4033568925
 31
0.0
  0
LINE
  5
EC
330
1F
100
AcDbEntity
  8
0
  6
Continuous
 62
     7
370
    25
100
AcDbLine
 10
3095.8254173344
 20
2721.4033568925
 30
0.0
 11
3072.9264378489
 21
2721.4033568925
 31
0.0
  0
LINE
  5
ED
330
1F
100
AcDbEntity
  8
0
  6
Continuous
 62
     7
370
    25
100
AcDbLine
 10
3045.8254173344
 20
2721.4033568925
 30
0.0
 11
3022.9264378489
 21
2721.4033568925
 31
0.0
  0
LINE
  5
EE
330
1F
100
AcDbEntity
  8
0
  6
Continuous
 62
     7
370
    25
100
AcDbLine
 10
195.8254173344
 20
2721.4033568925
 30
0.0
 11
172.9264378489
 21
2721.4033568925
 31
0.0
  0
LINE
  5
EF
330
1F
100
AcDbEntity
  8
0
  6
Continuous
 62
     7
370
    25
100
AcDbLine
 10
145.8254173344
 20
2721.4033568925
 30
0.0
 11
122.9264378489
 21
2721.4033568925
 31
0.0
  0
LINE
  5
F0
330
1F
100
AcDbEntity
  8
0
  6
Continuous
 62
     7
370
    25
100
AcDbLine
 10
3537.8401275686
 20
1993.378709553
 30
0.0
 11
3540.8401275686
 21
1993.378709553
 31
0.0
  0
LINE
  5
F1
330
1F
100
AcDbEntity
  8
0
  6
Continuous
 62
     7
370
    25
100
AcDbLine
 10
3537.8401275686
 20
1996.378709553
 30
0.0
 11
3537.8401275686
 21
1993.378709553
 31
0.0
  0
LINE
  5
F2
330
1F
100
AcDbEntity
  8
0
  6
Continuous
 62
     7
370
    25
100
AcDbLine
 10
3539.8401275686
 20
1996.378709553
 30
0.0
 11
3539.8401275686
 21
1995.378709553
 31
0.0
  0
LINE
  5
F3
330
1F
100
AcDbEntity
  8
0
  6
Continuous
 62
     7
370
    25
100
AcDbLine
 10
3539.8401275686
 20
1995.378709553
 30
0.0
 11
3540.8401275686
 21
1995.378709553
 31
0.0
  0
LINE
  5
F4
330
1F
100
AcDbEntity
  8
0
  6
Continuous
 62
     7
370
    25
100
AcDbLine
 10
3539.8401275686
 20
1996.378709553
 30
0.0
 11
3539.8401275686
 21
2078.378709553
 31
0.0
  0
LINE
  5
F5
330
1F
100
AcDbEntity
  8
0
  6
Continuous
 62
     7
370
    25
100
AcDbLine
 10
3537.8401275686
 20
1996.378709553
 30
0.0
 11
3537.8401275686
 21
2078.378709553
 31
0.0
  0
LINE
  5
F6
330
1F
100
AcDbEntity
  8
0
  6
Continuous
 62
     7
370
    25
100
AcDbLine
 10
3537.8401275686
 20
2079.7776325275
 30
0.0
 11
3537.8401275686
 21
2078.378709553
 31
0.0
  0
LINE
  5
F7
330
1F
100
AcDbEntity
  8
0
  6
Continuous
 62
     7
370
    25
100
AcDbLine
 10
3540.197339959
 20
2079.1447539961
 30
0.0
 11
3539.8401275686
 21
2078.8450172112
 31
0.0
  0
LINE
  5
F8
330
1F
100
AcDbEntity
  8
0
  6
Continuous
 62
     7
370
    25
100
AcDbLine
 10
3539.8401275686
 20
2078.8450172112
 30
0.0
 11
3539.8401275686
 21
2078.378709553
 31
0.0
  0
LINE
  5
F9
330
1F
100
AcDbEntity
  8
0
  6
Continuous
 62
     7
370
    25
100
AcDbLine
 10
3538.9117647396
 20
2080.6768428824
 30
0.0
 11
3537.8401275686
 21
2079.7776325275
 31
0.0
  0
LINE
  5
FA
330
1F
100
AcDbEntity
  8
0
  6
Continuous
 62
     7
370
    25
100
AcDbLine
 10
3637.8401275686
 20
1993.378709553
 30
0.0
 11
3637.8401275686
 21
1996.378709553
 31
0.0
  0
LINE
  5
FB
330
1F
100
AcDbEntity
  8
0
  6
Continuous
 62
     7
370
    25
100
AcDbLine
 10
3634.8401275686
 20
1993.378709553
 30
0.0
 11
3637.8401275686
 21
1993.378709553
 31
0.0
  0
LINE
  5
FC
330
1F
100
AcDbEntity
  8
0
  6
Continuous
 62
     7
370
    25
100
AcDbLine
 10
3634.8401275686
 20
1995.378709553
 30
0.0
 11
3635.8401275686
 21
1995.378709553
 31
0.0
  0
LINE
  5
FD
330
1F
100
AcDbEntity
  8
0
  6
Continuous
 62
     7
370
    25
100
AcDbLine
 10
3635.8401275686
 20
1995.378709553
 30
0.0
 11
3635.8401275686
 21
1996.378709553
 31
0.0
  0
LINE
  5
FE
330
1F
100
AcDbEntity
  8
0
  6
Continuous
 62
     7
370
    25
100
AcDbLine
 10
3634.8401275686
 20
1995.378709553
 30
0.0
 11
3540.8401275686
 21
1995.378709553
 31
0.0
  0
LINE
  5
FF
330
1F
100
AcDbEntity
  8
0
  6
Continuous
 62
     7
370
    25
100
AcDbLine
 10
3634.8401275686
 20
1993.378709553
 30
0.0
 11
3540.8401275686
 21
1993.378709553
 31
0.0
  0
LINE
  5
100
330
1F
100
AcDbEntity
  8
0
  6
Continuous
 62
     7
370
    25
100
AcDbLine
 10
3637.8401275686
 20
2079.7776325275
 30
0.0
 11
3636.7684903977
 21
2080.6768428824
 31
0.0
  0
LINE
  5
101
330
1F
100
AcDbEntity
  8
0
  6
Continuous
 62
     7
370
    25
100
AcDbLine
 10
3635.8401275686
 20
2078.8450172112
 30
0.0
 11
3635.4829151783
 21
2079.1447539961
 31
0.0
  0
LINE
  5
102
330
1F
100
AcDbEntity
  8
0
  6
Continuous
 62
     7
370
    25
100
AcDbLine
 10
3637.8401275686
 20
2078.378709553
 30
0.0
 11
3637.8401275686
 21
2079.7776325275
 31
0.0
  0
LINE
  5
103
330
1F
100
AcDbEntity
  8
0
  6
Continuous
 62
     7
370
    25
100
AcDbLine
 10
3635.8401275686
 20
2078.378709553
 30
0.0
 11
3635.8401275686
 21
2078.8450172112
 31
0.0
  0
LINE
  5
104
330
1F
100
AcDbEntity
  8
0
  6
Continuous
 62
     7
370
    25
100
AcDbLine
 10
3637.8401275686
 20
2078.378709553
 30
0.0
 11
3637.8401275686
 21
1996.378709553
 31
0.0
  0
LINE
  5
105
330
1F
100
AcDbEntity
  8
0
  6
Continuous
 62
     7
370
    25
100
AcDbLine
 10
3635.8401275686
 20
2078.378709553
 30
0.0
 11
3635.8401275686
 21
1996.378709553
 31
0.0
  0
LINE
  5
106
330
1F
100
AcDbEntity
  8
0
  6
Continuous
 62
     7
370
    25
100
AcDbLine
 10
3538.8401275686
 20
2089.2266412921
 30
0.0
 11
3543.0796802023
 21
2084.1741392099
 31
0.0
  0
LINE
  5
107
330
1F
100
AcDbEntity
  8
0
  6
Continuous
 62
     7
370
    25
100
AcDbLine
 10
3547.8401275686
 20
2085.5578142606
 30
0.0
 11
3547.8401275686
 21
2093.3450172112
 31
0.0
  0
LINE
  5
108
330
1F
100
AcDbEntity
  8
0
  6
Continuous
 62
     7
370
    25
100
AcDbLine
 10
3547.8401275686
 20
2085.5578142606
 30
0.0
 11
3540.197339959
 21
2079.1447539961
 31
0.0
  0
LINE
  5
109
330
1F
100
AcDbEntity
  8
0
  6
Continuous
 62
     7
370
    25
100
AcDbLine
 10
3543.7482168658
 20
2093.3450172112
 30
0.0
 11
3538.8401275686
 21
2089.2266412921
 31
0.0
  0
LINE
  5
10A
330
1F
100
AcDbEntity
  8
0
  6
Continuous
 62
     7
370
    25
100
AcDbLine
 10
3543.0796802023
 20
2084.1741392099
 30
0.0
 11
3538.9117647396
 21
2080.6768428824
 31
0.0
  0
LINE
  5
10B
330
1F
100
AcDbEntity
  8
0
  6
Continuous
 62
     7
370
    25
100
AcDbLine
 10
3547.8401275686
 20
2093.3450172112
 30
0.0
 11
3543.7482168658
 21
2093.3450172112
 31
0.0
  0
LINE
  5
10C
330
1F
100
AcDbEntity
  8
0
  6
Continuous
 62
     7
370
    25
100
AcDbLine
 10
3627.8401275686
 20
2085.5578142606
 30
0.0
 11
3635.4829151783
 21
2079.1447539961
 31
0.0
  0
LINE
  5
10D
330
1F
100
AcDbEntity
  8
0
  6
Continuous
 62
     7
370
    25
100
AcDbLine
 10
3627.8401275686
 20
2085.5578142606
 30
0.0
 11
3627.8401275686
 21
2093.3450172112
 31
0.0
  0
LINE
  5
10E
330
1F
100
AcDbEntity
  8
0
  6
Continuous
 62
     7
370
    25
100
AcDbLine
 10
3631.9320382714
 20
2093.3450172112
 30
0.0
 11
3627.8401275686
 21
2093.3450172112
 31
0.0
  0
LINE
  5
10F
330
1F
100
AcDbEntity
  8
0
  6
Continuous
 62
     7
370
    25
100
AcDbLine
 10
3636.8401275686
 20
2089.2266412921
 30
0.0
 11
3632.600574935
 21
2084.1741392099
 31
0.0
  0
LINE
  5
110
330
1F
100
AcDbEntity
  8
0
  6
Continuous
 62
     7
370
    25
100
AcDbLine
 10
3632.600574935
 20
2084.1741392099
 30
0.0
 11
3636.7684903977
 21
2080.6768428824
 31
0.0
  0
LINE
  5
111
330
1F
100
AcDbEntity
  8
0
  6
Continuous
 62
     7
370
    25
100
AcDbLine
 10
3631.9320382714
 20
2093.3450172112
 30
0.0
 11
3636.8401275686
 21
2089.2266412921
 31
0.0
  0
LINE
  5
112
330
1F
100
AcDbEntity
  8
0
  6
Continuous
 62
     7
370
    25
100
AcDbLine
 10
1484.4755781698
 20
361.8276097743
 30
0.0
 11
1487.9461213945
 21
356.4612857998
 31
0.0
  0
LINE
  5
113
330
1F
100
AcDbEntity
  8
0
  6
Continuous
 62
     7
370
    25
100
AcDbLine
 10
3605.7959217295
 20
1586.4397775084
 30
0.0
 11
1484.4755781698
 21
361.8276097743
 31
0.0
  0
LINE
  5
114
330
1F
100
AcDbEntity
  8
0
  6
Continuous
 62
     7
370
    25
100
AcDbLine
 10
3609.2664649542
 20
1581.0734535339
 30
0.0
 11
3605.7959217295
 21
1586.4397775084
 31
0.0
  0
LINE
  5
115
330
1F
100
AcDbEntity
  8
0
  6
Continuous
 62
     7
370
    25
100
AcDbLine
 10
1487.9461213945
 20
356.4612857998
 30
0.0
 11
3609.2664649542
 21
1581.0734535339
 31
0.0
  0
LINE
  5
116
330
1F
100
AcDbEntity
  8
0
  6
Continuous
 62
     7
370
    25
100
AcDbLine
 10
1481.5821603639
 20
357.1393753001
 30
0.0
 11
1486.9864273098
 21
348.7830329643
 31
0.0
  0
LINE
  5
117
330
1F
100
AcDbEntity
  8
0
  6
Continuous
 62
     7
370
    25
100
AcDbLine
 10
1481.5821603639
 20
357.1393753001
 30
0.0
 11
1481.5821603639
 21
363.4979443197
 31
0.0
  0
LINE
  5
118
330
1F
100
AcDbEntity
  8
0
  6
Continuous
 62
     7
370
    25
100
AcDbLine
 10
1484.4755781698
 20
361.8276097743
 30
0.0
 11
1481.5821603639
 21
363.4979443197
 31
0.0
  0
LINE
  5
119
330
1F
100
AcDbEntity
  8
0
  6
Continuous
 62
     7
370
    25
100
AcDbLine
 10
1487.9461213945
 20
356.4612857998
 30
0.0
 11
1484.9483049781
 21
354.0663142279
 31
0.0
  0
LINE
  5
11A
330
1F
100
AcDbEntity
  8
0
  6
Continuous
 62
     7
370
    25
100
AcDbLine
 10
1484.9483049781
 20
354.0663142279
 30
0.0
 11
1487.8954662652
 21
349.5092690486
 31
0.0
  0
LINE
  5
11B
330
1F
100
AcDbEntity
  8
0
  6
Continuous
 62
     7
370
    25
100
AcDbLine
 10
3609.2664649542
 20
1581.0734535339
 30
0.0
 11
3606.2686485377
 21
1578.678481962
 31
0.0
  0
LINE
  5
11C
330
1F
100
AcDbEntity
  8
0
  6
Continuous
 62
     7
370
    25
100
AcDbLine
 10
1484.9483049781
 20
354.0663142279
 30
0.0
 11
3606.2686485377
 21
1578.678481962
 31
0.0
  0
LINE
  5
11D
330
1F
100
AcDbEntity
  8
0
  6
Continuous
 62
     7
370
    25
100
AcDbLine
 10
3605.7959217295
 20
1586.4397775084
 30
0.0
 11
3602.9025039235
 21
1588.1101120537
 31
0.0
  0
LINE
  5
11E
330
1F
100
AcDbEntity
  8
0
  6
Continuous
 62
     7
370
    25
100
AcDbLine
 10
3602.9025039235
 20
1588.1101120537
 30
0.0
 11
1481.5821603639
 21
363.4979443197
 31
0.0
  0
LINE
  5
11F
330
1F
100
AcDbEntity
  8
0
  6
Continuous
 62
     7
370
    25
100
AcDbLine
 10
3609.2158098248
 20
1574.1214367827
 30
0.0
 11
3606.2686485377
 21
1578.678481962
 31
0.0
  0
LINE
  5
120
330
1F
100
AcDbEntity
  8
0
  6
Continuous
 62
     7
370
    25
100
AcDbLine
 10
3609.9735717354
 20
1572.9497481898
 30
0.0
 11
3609.2158098248
 21
1574.1214367827
 31
0.0
  0
LINE
  5
121
330
1F
100
AcDbEntity
  8
0
  6
Continuous
 62
     7
370
    25
100
AcDbLine
 10
3609.9735717354
 20
1572.9497481898
 30
0.0
 11
1488.6532281757
 21
348.3375804558
 31
0.0
  0
LINE
  5
122
330
1F
100
AcDbEntity
  8
0
  6
Continuous
 62
     7
370
    25
100
AcDbLine
 10
1488.6532281757
 20
348.3375804558
 30
0.0
 11
1487.8954662652
 21
349.5092690486
 31
0.0
  0
LINE
  5
123
330
1F
100
AcDbEntity
  8
0
  6
Continuous
 62
     7
370
    25
100
AcDbLine
 10
1488.6532281757
 20
347.1953027544
 30
0.0
 11
1488.6532281757
 21
348.3375804558
 31
0.0
  0
LINE
  5
124
330
1F
100
AcDbEntity
  8
0
  6
Continuous
 62
     7
370
    25
100
AcDbLine
 10
1487.2390146134
 20
348.0117108662
 30
0.0
 11
1487.2390146134
 21
348.3924701
 31
0.0
  0
LINE
  5
125
330
1F
100
AcDbEntity
  8
0
  6
Continuous
 62
     7
370
    25
100
AcDbLine
 10
1487.2390146134
 20
348.3924701
 30
0.0
 11
1486.9864273098
 21
348.7830329643
 31
0.0
  0
LINE
  5
126
330
1F
100
AcDbEntity
  8
0
  6
Continuous
 62
     7
370
    25
100
AcDbLine
 10
3609.9735717354
 20
1571.8074704885
 30
0.0
 11
3609.9735717354
 21
1572.9497481898
 31
0.0
  0
LINE
  5
127
330
1F
100
AcDbEntity
  8
0
  6
Continuous
 62
     7
370
    25
100
AcDbLine
 10
3609.9735717354
 20
1571.8074704885
 30
0.0
 11
3609.9735717354
 21
1504.8511239138
 31
0.0
  0
LINE
  5
128
330
1F
100
AcDbEntity
  8
0
  6
Continuous
 62
     7
370
    25
100
AcDbLine
 10
3609.9735717354
 20
1502.4015014782
 30
0.0
 11
3609.9735717354
 21
1504.8511239138
 31
0.0
  0
LINE
  5
129
330
1F
100
AcDbEntity
  8
0
  6
Continuous
 62
     7
370
    25
100
AcDbLine
 10
3609.9735717354
 20
1502.4015014782
 30
0.0
 11
1488.6532281757
 21
277.7893337441
 31
0.0
  0
LINE
  5
12A
330
1F
100
AcDbEntity
  8
0
  6
Continuous
 62
     7
370
    25
100
AcDbLine
 10
1488.6532281757
 20
277.7893337441
 30
0.0
 11
1488.6532281757
 21
280.2389561798
 31
0.0
  0
LINE
  5
12B
330
1F
100
AcDbEntity
  8
0
  6
Continuous
 62
     7
370
    25
100
AcDbLine
 10
1488.6532281757
 20
347.1953027544
 30
0.0
 11
1488.6532281757
 21
280.2389561798
 31
0.0
  0
LWPOLYLINE
  5
12C
330
1F
100
AcDbEntity
  8
0
  6
Continuous
 62
     7
370
    25
100
AcDbPolyline
 90
       10
 70
   128
 43
0.0
 10
1548.0501977954
 20
323.918316213
 10
1548.8966544647
 20
324.5793172744
 10
1549.6410159672
 20
325.5052959071
 10
1550.1935013203
 20
326.584565422
 10
1550.4874726365
 20
327.6869499875
 10
1550.4874726365
 20
328.6794857553
 10
1550.1935013203
 20
329.4424582636
 10
1549.6410159672
 20
329.8838417677
 10
1548.8966544647
 20
329.9503989029
 10
1548.0501977954
 20
329.6341018962
  0
LINE
  5
12D
330
1F
100
AcDbEntity
  8
0
  6
Continuous
 62
     7
370
    25
100
AcDbLine
 10
1548.0501977954
 20
329.6341018962
 30
0.0
 11
1535.322275734
 21
322.2864288898
 31
0.0
  0
LWPOLYLINE
  5
12E
330
1F
100
AcDbEntity
  8
0
  6
Continuous
 62
     7
370
    25
100
AcDbPolyline
 90
       10
 70
   128
 43
0.0
 10
1535.322275734
 20
322.2864288898
 10
1534.4758190648
 20
321.6254278285
 10
1533.7314575622
 20
320.6994491958
 10
1533.1789722091
 20
319.6201796808
 10
1532.8850008929
 20
318.5177951154
 10
1532.8850008929
 20
317.5252593476
 10
1533.1789722091
 20
316.7622868392
 10
1533.7314575622
 20
316.3209033351
 10
1534.4758190648
 20
316.2543462
 10
1535.322275734
 20
316.5706432066
  0
LINE
  5
12F
330
1F
100
AcDbEntity
  8
0
  6
Continuous
 62
     7
370
    25
100
AcDbLine
 10
1535.322275734
 20
316.5706432066
 30
0.0
 11
1548.0501977954
 21
323.918316213
 31
0.0
  0
LWPOLYLINE
  5
130
330
1F
100
AcDbEntity
  8
0
  6
Continuous
 62
     7
370
    25
100
AcDbPolyline
 90
       10
 70
   128
 43
0.0
 10
3585.931941175
 20
1506.0781910327
 10
3585.0854845058
 20
1505.4171899714
 10
3584.3411230032
 20
1504.4912113387
 10
3583.7886376501
 20
1503.4119418237
 10
3583.4946663339
 20
1502.3095572583
 10
3583.4946663339
 20
1501.3170214905
 10
3583.7886376501
 20
1500.5540489821
 10
3584.3411230032
 20
1500.112665478
 10
3585.0854845058
 20
1500.0461083429
 10
3585.931941175
 20
1500.3624053495
  0
LINE
  5
131
330
1F
100
AcDbEntity
  8
0
  6
Continuous
 62
     7
370
    25
100
AcDbLine
 10
3585.931941175
 20
1500.3624053495
 30
0.0
 11
3598.6598632364
 21
1507.710078356
 31
0.0
  0
LWPOLYLINE
  5
132
330
1F
100
AcDbEntity
  8
0
  6
Continuous
 62
     7
370
    25
100
AcDbPolyline
 90
       10
 70
   128
 43
0.0
 10
3598.6598632364
 20
1507.710078356
 10
3599.5063199057
 20
1508.3710794173
 10
3600.2506814082
 20
1509.29705805
 10
3600.8031667613
 20
1510.376327565
 10
3601.0971380775
 20
1511.4787121304
 10
3601.0971380775
 20
1512.4712478982
 10
3600.8031667613
 20
1513.2342204066
 10
3600.2506814082
 20
1513.6756039107
 10
3599.5063199057
 20
1513.7421610458
 10
3598.6598632364
 20
1513.4258640392
  0
LINE
  5
133
330
1F
100
AcDbEntity
  8
0
  6
Continuous
 62
     7
370
    25
100
AcDbLine
 10
3598.6598632364
 20
1513.4258640392
 30
0.0
 11
3585.931941175
 21
1506.0781910327
 31
0.0
  0
LWPOLYLINE
  5
134
330
1F
100
AcDbEntity
  8
0
  6
Continuous
 62
     7
370
    25
100
AcDbPolyline
 90
       10
 70
   128
 43
0.0
 10
3550.5766021157
 20
1485.6679882372
 10
3549.7301454464
 20
1485.0069871758
 10
3548.9857839439
 20
1484.0810085431
 10
3548.4332985908
 20
1483.0017390282
 10
3548.1393272746
 20
1481.8993544627
 10
3548.1393272746
 20
1480.9068186949
 10
3548.4332985908
 20
1480.1438461866
 10
3548.9857839439
 20
1479.7024626825
 10
3549.7301454464
 20
1479.6359055474
 10
3550.5766021157
 20
1479.952202554
  0
LINE
  5
135
330
1F
100
AcDbEntity
  8
0
  6
Continuous
 62
     7
370
    25
100
AcDbLine
 10
3550.5766021157
 20
1479.952202554
 30
0.0
 11
3563.3045241771
 21
1487.2998755604
 31
0.0
  0
LWPOLYLINE
  5
136
330
1F
100
AcDbEntity
  8
0
  6
Continuous
 62
     7
370
    25
100
AcDbPolyline
 90
       10
 70
   128
 43
0.0
 10
3563.3045241771
 20
1487.2998755604
 10
3564.1509808463
 20
1487.9608766217
 10
3564.8953423489
 20
1488.8868552544
 10
3565.447827702
 20
1489.9661247694
 10
3565.7417990182
 20
1491.0685093348
 10
3565.7417990182
 20
1492.0610451027
 10
3565.447827702
 20
1492.824017611
 10
3564.8953423489
 20
1493.2654011151
 10
3564.1509808463
 20
1493.3319582502
 10
3563.3045241771
 20
1493.0156612436
  0
LINE
  5
137
330
1F
100
AcDbEntity
  8
0
  6
Continuous
 62
     7
370
    25
100
AcDbLine
 10
3563.3045241771
 20
1493.0156612436
 30
0.0
 11
3550.5766021157
 21
1485.6679882372
 31
0.0
  0
LWPOLYLINE
  5
138
330
1F
100
AcDbEntity
  8
0
  6
Continuous
 62
     7
370
    25
100
AcDbPolyline
 90
       10
 70
   128
 43
0.0
 10
1512.6948587361
 20
303.5081134175
 10
1513.5413154053
 20
304.1691144788
 10
1514.2856769079
 20
305.0950931115
 10
1514.838162261
 20
306.1743626265
 10
1515.1321335772
 20
307.2767471919
 10
1515.1321335772
 20
308.2692829597
 10
1514.838162261
 20
309.0322554681
 10
1514.2856769079
 20
309.4736389722
 10
1513.5413154053
 20
309.5401961073
 10
1512.6948587361
 20
309.2238991007
  0
LINE
  5
139
330
1F
100
AcDbEntity
  8
0
  6
Continuous
 62
     7
370
    25
100
AcDbLine
 10
1512.6948587361
 20
309.2238991007
 30
0.0
 11
1499.9669366747
 21
301.8762260943
 31
0.0
  0
LWPOLYLINE
  5
13A
330
1F
100
AcDbEntity
  8
0
  6
Continuous
 62
     7
370
    25
100
AcDbPolyline
 90
       10
 70
   128
 43
0.0
 10
1499.9669366747
 20
301.8762260943
 10
1499.1204800054
 20
301.2152250329
 10
1498.3761185029
 20
300.2892464002
 10
1497.8236331498
 20
299.2099768852
 10
1497.5296618336
 20
298.1075923198
 10
1497.5296618336
 20
297.115056552
 10
1497.8236331498
 20
296.3520840436
 10
1498.3761185029
 20
295.9107005395
 10
1499.1204800054
 20
295.8441434044
 10
1499.9669366747
 20
296.1604404111
  0
LINE
  5
13B
330
1F
100
AcDbEntity
  8
0
  6
Continuous
 62
     7
370
    25
100
AcDbLine
 10
1499.9669366747
 20
296.1604404111
 30
0.0
 11
1512.6948587361
 21
303.5081134175
 31
0.0
  0
LWPOLYLINE
  5
13C
330
1F
100
AcDbEntity
  8
0
  6
Continuous
 62
     7
370
    25
100
AcDbPolyline
 90
       10
 70
   128
 43
0.0
 10
1548.0501977954
 20
352.497244629
 10
1548.8966544647
 20
353.1582456904
 10
1549.6410159672
 20
354.0842243231
 10
1550.1935013203
 20
355.163493838
 10
1550.4874726365
 20
356.2658784035
 10
1550.4874726365
 20
357.2584141713
 10
1550.1935013203
 20
358.0213866796
 10
1549.6410159672
 20
358.4627701837
 10
1548.8966544647
 20
358.5293273189
 10
1548.0501977954
 20
358.2130303122
  0
LINE
  5
13D
330
1F
100
AcDbEntity
  8
0
  6
Continuous
 62
     7
370
    25
100
AcDbLine
 10
1548.0501977954
 20
358.2130303122
 30
0.0
 11
1535.322275734
 21
350.8653573058
 31
0.0
  0
LWPOLYLINE
  5
13E
330
1F
100
AcDbEntity
  8
0
  6
Continuous
 62
     7
370
    25
100
AcDbPolyline
 90
       10
 70
   128
 43
0.0
 10
1535.322275734
 20
350.8653573058
 10
1534.4758190648
 20
350.2043562445
 10
1533.7314575622
 20
349.2783776118
 10
1533.1789722091
 20
348.1991080968
 10
1532.8850008929
 20
347.0967235314
 10
1532.8850008929
 20
346.1041877636
 10
1533.1789722091
 20
345.3412152552
 10
1533.7314575622
 20
344.8998317511
 10
1534.4758190648
 20
344.833274616
 10
1535.322275734
 20
345.1495716226
  0
LINE
  5
13F
330
1F
100
AcDbEntity
  8
0
  6
Continuous
 62
     7
370
    25
100
AcDbLine
 10
1535.322275734
 20
345.1495716226
 30
0.0
 11
1548.0501977954
 21
352.497244629
 31
0.0
  0
LWPOLYLINE
  5
140
330
1F
100
AcDbEntity
  8
0
  6
Continuous
 62
     7
370
    25
100
AcDbPolyline
 90
       10
 70
   128
 43
0.0
 10
3585.931941175
 20
1534.6571194488
 10
3585.0854845058
 20
1533.9961183874
 10
3584.3411230032
 20
1533.0701397547
 10
3583.7886376501
 20
1531.9908702397
 10
3583.4946663339
 20
1530.8884856743
 10
3583.4946663339
 20
1529.8959499065
 10
3583.7886376501
 20
1529.1329773981
 10
3584.3411230032
 20
1528.691593894
 10
3585.0854845058
 20
1528.6250367589
 10
3585.931941175
 20
1528.9413337656
  0
LINE
  5
141
330
1F
100
AcDbEntity
  8
0
  6
Continuous
 62
     7
370
    25
100
AcDbLine
 10
3585.931941175
 20
1528.9413337656
 30
0.0
 11
3598.6598632364
 21
1536.289006772
 31
0.0
  0
LWPOLYLINE
  5
142
330
1F
100
AcDbEntity
  8
0
  6
Continuous
 62
     7
370
    25
100
AcDbPolyline
 90
       10
 70
   128
 43
0.0
 10
3598.6598632364
 20
1536.289006772
 10
3599.5063199057
 20
1536.9500078333
 10
3600.2506814082
 20
1537.875986466
 10
3600.8031667613
 20
1538.955255981
 10
3601.0971380775
 20
1540.0576405464
 10
3601.0971380775
 20
1541.0501763142
 10
3600.8031667613
 20
1541.8131488226
 10
3600.2506814082
 20
1542.2545323267
 10
3599.5063199057
 20
1542.3210894618
 10
3598.6598632364
 20
1542.0047924552
  0
LINE
  5
143
330
1F
100
AcDbEntity
  8
0
  6
Continuous
 62
     7
370
    25
100
AcDbLine
 10
3598.6598632364
 20
1542.0047924552
 30
0.0
 11
3585.931941175
 21
1534.6571194488
 31
0.0
  0
LWPOLYLINE
  5
144
330
1F
100
AcDbEntity
  8
0
  6
Continuous
 62
     7
370
    25
100
AcDbPolyline
 90
       10
 70
   128
 43
0.0
 10
3550.5766021157
 20
1514.2469166532
 10
3549.7301454464
 20
1513.5859155919
 10
3548.9857839439
 20
1512.6599369591
 10
3548.4332985908
 20
1511.5806674442
 10
3548.1393272746
 20
1510.4782828787
 10
3548.1393272746
 20
1509.4857471109
 10
3548.4332985908
 20
1508.7227746026
 10
3548.9857839439
 20
1508.2813910985
 10
3549.7301454464
 20
1508.2148339634
 10
3550.5766021157
 20
1508.53113097
  0
LINE
  5
145
330
1F
100
AcDbEntity
  8
0
  6
Continuous
 62
     7
370
    25
100
AcDbLine
 10
3550.5766021157
 20
1508.53113097
 30
0.0
 11
3563.3045241771
 21
1515.8788039764
 31
0.0
  0
LWPOLYLINE
  5
146
330
1F
100
AcDbEntity
  8
0
  6
Continuous
 62
     7
370
    25
100
AcDbPolyline
 90
       10
 70
   128
 43
0.0
 10
3563.3045241771
 20
1515.8788039764
 10
3564.1509808463
 20
1516.5398050377
 10
3564.8953423489
 20
1517.4657836704
 10
3565.447827702
 20
1518.5450531854
 10
3565.7417990182
 20
1519.6474377508
 10
3565.7417990182
 20
1520.6399735187
 10
3565.447827702
 20
1521.402946027
 10
3564.8953423489
 20
1521.8443295311
 10
3564.1509808463
 20
1521.9108866662
 10
3563.3045241771
 20
1521.5945896596
  0
LINE
  5
147
330
1F
100
AcDbEntity
  8
0
  6
Continuous
 62
     7
370
    25
100
AcDbLine
 10
3563.3045241771
 20
1521.5945896596
 30
0.0
 11
3550.5766021157
 21
1514.2469166532
 31
0.0
  0
LWPOLYLINE
  5
148
330
1F
100
AcDbEntity
  8
0
  6
Continuous
 62
     7
370
    25
100
AcDbPolyline
 90
       10
 70
   128
 43
0.0
 10
1512.6948587361
 20
332.0870418335
 10
1513.5413154053
 20
332.7480428948
 10
1514.2856769079
 20
333.6740215275
 10
1514.838162261
 20
334.7532910425
 10
1515.1321335772
 20
335.8556756079
 10
1515.1321335772
 20
336.8482113757
 10
1514.838162261
 20
337.6111838841
 10
1514.2856769079
 20
338.0525673882
 10
1513.5413154053
 20
338.1191245233
 10
1512.6948587361
 20
337.8028275167
  0
LINE
  5
149
330
1F
100
AcDbEntity
  8
0
  6
Continuous
 62
     7
370
    25
100
AcDbLine
 10
1512.6948587361
 20
337.8028275167
 30
0.0
 11
1499.9669366747
 21
330.4551545103
 31
0.0
  0
LWPOLYLINE
  5
14A
330
1F
100
AcDbEntity
  8
0
  6
Continuous
 62
     7
370
    25
100
AcDbPolyline
 90
       10
 70
   128
 43
0.0
 10
1499.9669366747
 20
330.4551545103
 10
1499.1204800054
 20
329.7941534489
 10
1498.3761185029
 20
328.8681748162
 10
1497.8236331498
 20
327.7889053012
 10
1497.5296618336
 20
326.6865207358
 10
1497.5296618336
 20
325.693984968
 10
1497.8236331498
 20
324.9310124596
 10
1498.3761185029
 20
324.4896289555
 10
1499.1204800054
 20
324.4230718204
 10
1499.9669366747
 20
324.7393688271
  0
LINE
  5
14B
330
1F
100
AcDbEntity
  8
0
  6
Continuous
 62
     7
370
    25
100
AcDbLine
 10
1499.9669366747
 20
324.7393688271
 30
0.0
 11
1512.6948587361
 21
332.0870418335
 31
0.0
  0
LINE
  5
14C
330
1F
100
AcDbEntity
  8
0
  6
Continuous
 62
     7
370
    25
100
AcDbLine
 10
1487.2390146134
 20
348.0117108662
 30
0.0
 11
1487.2390146134
 21
281.0553642916
 31
0.0
  0
LWPOLYLINE
  5
14D
330
1F
100
AcDbEntity
  8
0
  6
Continuous
 62
     7
370
    25
100
AcDbPolyline
 90
        3
 70
   128
 43
0.0
 10
1498.5527231123
 20
325.5557769389
 10
1497.7062664431
 20
325.2394799322
 10
1497.6591535492
 20
325.2327125361
  0
LINE
  5
14E
330
1F
100
AcDbEntity
  8
0
  6
Continuous
 62
     7
370
    25
100
AcDbLine
 10
1511.2806451737
 20
332.9034499453
 30
0.0
 11
1498.5527231123
 21
325.5557769389
 31
0.0
  0
ARC
  5
14F
330
1F
100
AcDbEntity
  8
0
  6
Continuous
 62
     7
370
    25
100
AcDbCircle
 10
1508.9779867444
 20
337.0421111191
 30
0.0
 40
4.736111501360508
100
AcDbArc
 50
299.0905834164
 51
13.2284026266
  0
LINE
  5
150
330
1F
100
AcDbEntity
  8
0
  6
Continuous
 62
     7
370
    25
100
AcDbLine
 10
3546.3339614286
 20
1614.407867507
 30
0.0
 11
1425.0136178689
 21
389.795699773
 31
0.0
  0
LINE
  5
151
330
1F
100
AcDbEntity
  8
0
  6
Continuous
 62
     7
370
    25
100
AcDbLine
 10
1425.0136178689
 20
389.795699773
 30
0.0
 11
1425.0136178689
 21
396.1542687926
 31
0.0
  0
LINE
  5
152
330
1F
100
AcDbEntity
  8
0
  6
Continuous
 62
     7
370
    25
100
AcDbLine
 10
3546.3339614286
 20
1620.7664365266
 30
0.0
 11
1425.0136178689
 21
396.1542687926
 31
0.0
  0
LINE
  5
153
330
1F
100
AcDbEntity
  8
0
  6
Continuous
 62
     7
370
    25
100
AcDbLine
 10
3546.3339614286
 20
1620.7664365266
 30
0.0
 11
3546.3339614286
 21
1614.407867507
 31
0.0
  0
LINE
  5
154
330
1F
100
AcDbEntity
  8
0
  6
Continuous
 62
     7
370
    25
100
AcDbLine
 10
1425.0136178689
 20
396.1542687926
 30
0.0
 11
1422.120200063
 21
397.8246033379
 31
0.0
  0
LINE
  5
155
330
1F
100
AcDbEntity
  8
0
  6
Continuous
 62
     7
370
    25
100
AcDbLine
 10
3543.4405436226
 20
1622.4367710719
 30
0.0
 11
1422.120200063
 21
397.8246033379
 31
0.0
  0
LINE
  5
156
330
1F
100
AcDbEntity
  8
0
  6
Continuous
 62
     7
370
    25
100
AcDbLine
 10
3546.3339614286
 20
1620.7664365266
 30
0.0
 11
3543.4405436226
 21
1622.4367710719
 31
0.0
  0
LINE
  5
157
330
1F
100
AcDbEntity
  8
0
  6
Continuous
 62
     7
370
    25
100
AcDbLine
 10
1421.6474732547
 20
390.6091065466
 30
0.0
 11
1418.7003119676
 21
389.4547813605
 31
0.0
  0
LINE
  5
158
330
1F
100
AcDbEntity
  8
0
  6
Continuous
 62
     7
370
    25
100
AcDbLine
 10
1418.6496568383
 20
396.4652832792
 30
0.0
 11
1421.6474732547
 21
390.6091065466
 31
0.0
  0
LINE
  5
159
330
1F
100
AcDbEntity
  8
0
  6
Continuous
 62
     7
370
    25
100
AcDbLine
 10
1422.120200063
 20
397.8246033379
 30
0.0
 11
1418.6496568383
 21
396.4652832792
 31
0.0
  0
LINE
  5
15A
330
1F
100
AcDbEntity
  8
0
  6
Continuous
 62
     7
370
    25
100
AcDbLine
 10
1425.0136178689
 20
389.795699773
 30
0.0
 11
1419.609350923
 21
387.6789912387
 31
0.0
  0
LWPOLYLINE
  5
15B
330
1F
100
AcDbEntity
  8
0
  6
Continuous
 62
     7
370
    25
100
AcDbPolyline
 90
        3
 70
   128
 43
0.0
 10
1498.5527231123
 20
296.9768485229
 10
1497.7062664431
 20
296.6605515162
 10
1497.6591535493
 20
296.6537841201
  0
LINE
  5
15C
330
1F
100
AcDbEntity
  8
0
  6
Continuous
 62
     7
370
    25
100
AcDbLine
 10
3539.9700003979
 20
1621.0774510132
 30
0.0
 11
3543.4405436226
 21
1622.4367710719
 31
0.0
  0
LINE
  5
15D
330
1F
100
AcDbEntity
  8
0
  6
Continuous
 62
     7
370
    25
100
AcDbLine
 10
1418.6496568383
 20
396.4652832792
 30
0.0
 11
3539.9700003979
 21
1621.0774510132
 31
0.0
  0
LINE
  5
15E
330
1F
100
AcDbEntity
  8
0
  6
Continuous
 62
     7
370
    25
100
AcDbLine
 10
1486.5319078322
 20
279.0139459119
 30
0.0
 11
1488.6532281757
 21
277.7893337441
 31
0.0
  0
LINE
  5
15F
330
1F
100
AcDbEntity
  8
0
  6
Continuous
 62
     7
370
    25
100
AcDbLine
 10
1486.5319078322
 20
280.6470275356
 30
0.0
 11
1487.2390146134
 21
280.2388234797
 31
0.0
  0
LINE
  5
160
330
1F
100
AcDbEntity
  8
0
  6
Continuous
 62
     7
370
    25
100
AcDbLine
 10
1487.2390146134
 20
280.2388234797
 30
0.0
 11
1487.2390146134
 21
281.0553642916
 31
0.0
  0
LINE
  5
161
330
1F
100
AcDbEntity
  8
0
  6
Continuous
 62
     7
370
    25
100
AcDbLine
 10
1419.3567636194
 20
319.4264128472
 30
0.0
 11
1420.0638704006
 21
319.0182087913
 31
0.0
  0
LINE
  5
162
330
1F
100
AcDbEntity
  8
0
  6
Continuous
 62
     7
370
    25
100
AcDbLine
 10
1482.4255672738
 20
355.8352582128
 30
0.0
 11
1419.3567636194
 21
319.4264128472
 31
0.0
  0
LINE
  5
163
330
1F
100
AcDbEntity
  8
0
  6
Continuous
 62
     7
370
    25
100
AcDbLine
 10
3598.9948723156
 20
1510.3724513717
 30
0.0
 11
3596.1827482877
 21
1511.9958560178
 31
0.0
  0
LINE
  5
164
330
1F
100
AcDbEntity
  8
0
  6
Continuous
 62
     7
370
    25
100
AcDbLine
 10
1486.5319078322
 20
280.6470275356
 30
0.0
 11
1420.0638704006
 21
319.0182087913
 31
0.0
  0
ARC
  5
165
330
1F
100
AcDbEntity
  8
0
  6
Continuous
 62
     7
370
    25
100
AcDbCircle
 10
3556.5078369505
 20
1517.6297235756
 30
0.0
 40
0.5991317440997374
100
AcDbArc
 50
206.5812180067
 51
242.7442138968
  0
LINE
  5
166
330
1F
100
AcDbEntity
  8
0
  6
Continuous
 62
     7
370
    25
100
AcDbLine
 10
3556.2334563652
 20
1517.0971128911
 30
0.0
 11
3559.4099775118
 21
1515.263346266
 31
0.0
  0
LINE
  5
167
330
1F
100
AcDbEntity
  8
0
  6
Continuous
 62
     7
370
    25
100
AcDbLine
 10
3563.6375200243
 20
1518.537694704
 30
0.0
 11
3561.1832038335
 21
1519.9545412825
 31
0.0
  0
ARC
  5
168
330
1F
100
AcDbEntity
  8
0
  6
Continuous
 62
     7
370
    25
100
AcDbCircle
 10
3560.5479154703
 20
1518.7967522504
 30
0.0
 40
1.320631192775669
100
AcDbArc
 50
61.2460613058
 51
82.2942672114
  0
ARC
  5
169
330
1F
100
AcDbEntity
  8
0
  6
Continuous
 62
     7
370
    25
100
AcDbCircle
 10
1461.2309907362
 20
307.9966992817
 30
0.0
 40
0.4366153168341503
100
AcDbArc
 50
110.7834207994
 51
249.2165792006
  0
LINE
  5
16A
330
1F
100
AcDbEntity
  8
0
  6
Continuous
 62
     7
370
    25
100
AcDbLine
 10
1461.0760637094
 20
307.5884952258
 30
0.0
 11
1466.7329179589
 21
304.3228627785
 31
0.0
  0
ARC
  5
16B
330
1F
100
AcDbEntity
  8
0
  6
Continuous
 62
     7
370
    25
100
AcDbCircle
 10
1467.4400247401
 20
305.6875738634
 30
0.0
 40
1.537021907911063
100
AcDbArc
 50
242.6096722366
 51
297.3903277634
  0
LINE
  5
16C
330
1F
100
AcDbEntity
  8
0
  6
Continuous
 62
     7
370
    25
100
AcDbLine
 10
1468.1471315213
 20
304.3228627785
 30
0.0
 11
1471.6826654272
 21
306.3638830581
 31
0.0
  0
ARC
  5
16D
330
1F
100
AcDbEntity
  8
0
  6
Continuous
 62
     7
370
    25
100
AcDbCircle
 10
1471.5277384005
 20
306.772087114
 30
0.0
 40
0.4366153168342585
100
AcDbArc
 50
290.7834207994
 51
69.2165792005
  0
LINE
  5
16E
330
1F
100
AcDbEntity
  8
0
  6
Continuous
 62
     7
370
    25
100
AcDbLine
 10
1471.6826654272
 20
307.1802911699
 30
0.0
 11
1466.0258111778
 21
310.4459236172
 31
0.0
  0
ARC
  5
16F
330
1F
100
AcDbEntity
  8
0
  6
Continuous
 62
     7
370
    25
100
AcDbCircle
 10
1465.3187043966
 20
309.0812125322
 30
0.0
 40
1.537021907910861
100
AcDbArc
 50
62.6096722366
 51
117.3903277634
  0
LINE
  5
170
330
1F
100
AcDbEntity
  8
0
  6
Continuous
 62
     7
370
    25
100
AcDbLine
 10
1464.6115976154
 20
310.4459236172
 30
0.0
 11
1461.0760637094
 21
308.4049033376
 31
0.0
  0
LINE
  5
171
330
1F
100
AcDbEntity
  8
0
  6
Continuous
 62
     7
370
    25
100
AcDbLine
 10
1440.569967055
 20
320.242820959
 30
0.0
 11
1453.2978891164
 21
327.5904939654
 31
0.0
  0
LWPOLYLINE
  5
172
330
1F
100
AcDbEntity
  8
0
  6
Continuous
 62
     7
370
    25
100
AcDbPolyline
 90
       10
 70
   128
 43
0.0
 10
1453.2978891164
 20
327.5904939654
 10
1453.9950926369
 20
328.1653050082
 10
1454.3096968256
 20
328.8431093735
 10
1454.2037557743
 20
329.5421538515
 10
1453.6900475373
 20
330.1781233614
 10
1452.8305329095
 20
330.6743105944
 10
1451.7288820401
 20
330.9708680472
 10
1450.5179702826
 20
331.0320265143
 10
1449.3438514662
 20
330.850409382
 10
1448.3481416481
 20
330.4479223568
  0
LINE
  5
173
330
1F
100
AcDbEntity
  8
0
  6
Continuous
 62
     7
370
    25
100
AcDbLine
 10
1448.3481416481
 20
330.4479223568
 30
0.0
 11
1435.6202195867
 21
323.1002493504
 31
0.0
  0
LWPOLYLINE
  5
174
330
1F
100
AcDbEntity
  8
0
  6
Continuous
 62
     7
370
    25
100
AcDbPolyline
 90
       10
 70
   128
 43
0.0
 10
1435.6202195867
 20
323.1002493504
 10
1434.9230160663
 20
322.5254383076
 10
1434.6084118776
 20
321.8476339424
 10
1434.7143529289
 20
321.1485894644
 10
1435.2280611659
 20
320.5126199545
 10
1436.0875757937
 20
320.0164327215
 10
1437.189226663
 20
319.7198752687
 10
1438.4001384205
 20
319.6587168015
 10
1439.574257237
 20
319.8403339338
 10
1440.569967055
 20
320.242820959
  0
LINE
  5
175
330
1F
100
AcDbEntity
  8
0
  6
Continuous
 62
     7
370
    25
100
AcDbLine
 10
3587.3461547374
 20
1504.034583102
 30
0.0
 11
3583.4570681239
 21
1501.7894611887
 31
0.0
  0
ARC
  5
176
330
1F
100
AcDbEntity
  8
0
  6
Continuous
 62
     7
370
    25
100
AcDbCircle
 10
3589.8016199529
 20
1499.2938932493
 30
0.0
 40
5.338862210586426
100
AcDbArc
 50
83.1824446664
 51
117.3821352113
  0
LINE
  5
177
330
1F
100
AcDbEntity
  8
0
  6
Continuous
 62
     7
370
    25
100
AcDbLine
 10
3551.9908156781
 20
1483.6243803064
 30
0.0
 11
3548.1017290645
 21
1481.3792583932
 31
0.0
  0
ARC
  5
178
330
1F
100
AcDbEntity
  8
0
  6
Continuous
 62
     7
370
    25
100
AcDbCircle
 10
3554.4462808936
 20
1478.8836904537
 30
0.0
 40
5.33886221058714
100
AcDbArc
 50
83.1824446664
 51
117.3821352113
  0
LINE
  5
179
330
1F
100
AcDbEntity
  8
0
  6
Continuous
 62
     7
370
    25
100
AcDbLine
 10
1475.9253061144
 20
340.6530237546
 30
0.0
 11
1487.2390146134
 21
347.1842886492
 31
0.0
  0
LWPOLYLINE
  5
17A
330
1F
100
AcDbEntity
  8
0
  6
Continuous
 62
     7
370
    25
100
AcDbPolyline
 90
        3
 70
   128
 43
0.0
 10
1485.3031917915
 20
351.3857341935
 10
1484.6991905255
 20
351.2606121776
 10
1483.7034807074
 20
350.8581251524
  0
LINE
  5
17B
330
1F
100
AcDbEntity
  8
0
  6
Continuous
 62
     7
370
    25
100
AcDbLine
 10
1483.7034807074
 20
350.8581251524
 30
0.0
 11
1470.9755586461
 21
343.510452146
 31
0.0
  0
LWPOLYLINE
  5
17C
330
1F
100
AcDbEntity
  8
0
  6
Continuous
 62
     7
370
    25
100
AcDbPolyline
 90
       10
 70
   128
 43
0.0
 10
1470.9755586461
 20
343.510452146
 10
1470.2783551256
 20
342.9356411032
 10
1469.9637509369
 20
342.2578367379
 10
1470.0696919882
 20
341.5587922599
 10
1470.5834002252
 20
340.92282275
 10
1471.442914853
 20
340.4266355171
 10
1472.5445657224
 20
340.1300780642
 10
1473.7554774798
 20
340.0689195971
 10
1474.9295962963
 20
340.2505367294
 10
1475.9253061144
 20
340.6530237546
  0
ARC
  5
17D
330
1F
100
AcDbEntity
  8
0
  6
Continuous
 62
     7
370
    25
100
AcDbCircle
 10
1503.8366154526
 20
295.0919283108
 30
0.0
 40
5.338862210589284
100
AcDbArc
 50
83.1824446664
 51
117.3821352113
  0
LINE
  5
17E
330
1F
100
AcDbEntity
  8
0
  6
Continuous
 62
     7
370
    25
100
AcDbLine
 10
1501.3811502371
 20
299.8326181635
 30
0.0
 11
1497.4920636235
 21
297.5874962502
 31
0.0
  0
ARC
  5
17F
330
1F
100
AcDbEntity
  8
0
  6
Continuous
 62
     7
370
    25
100
AcDbCircle
 10
1539.1919545119
 20
315.5021311064
 30
0.0
 40
5.338862210590029
100
AcDbArc
 50
83.1824446664
 51
117.3821352113
  0
LINE
  5
180
330
1F
100
AcDbEntity
  8
0
  6
Continuous
 62
     7
370
    25
100
AcDbLine
 10
1536.7364892964
 20
320.242820959
 30
0.0
 11
1532.8474026829
 21
317.9976990458
 31
0.0
  0
LINE
  5
181
330
1F
100
AcDbEntity
  8
0
  6
Continuous
 62
     7
370
    25
100
AcDbLine
 10
1486.5319078322
 20
279.0139459119
 30
0.0
 11
1420.0638704006
 21
317.3851271675
 31
0.0
  0
LINE
  5
182
330
1F
100
AcDbEntity
  8
0
  6
Continuous
 62
     7
370
    25
100
AcDbLine
 10
1511.2806451737
 20
304.3245215293
 30
0.0
 11
1498.5527231123
 21
296.9768485229
 31
0.0
  0
LINE
  5
183
330
1F
100
AcDbEntity
  8
0
  6
Continuous
 62
     7
370
    25
100
AcDbLine
 10
1418.7003119676
 20
389.4547813605
 30
0.0
 11
1417.9425500571
 21
389.1579860469
 31
0.0
  0
LINE
  5
184
330
1F
100
AcDbEntity
  8
0
  6
Continuous
 62
     7
370
    25
100
AcDbLine
 10
1421.3757430904
 20
391.1399261982
 30
0.0
 11
1417.9425500571
 21
389.1579860469
 31
0.0
  0
LWPOLYLINE
  5
185
330
1F
100
AcDbEntity
  8
0
  6
Continuous
 62
     7
370
    25
100
AcDbPolyline
 90
        3
 70
   128
 43
0.0
 10
1533.9080621717
 20
345.9659797344
 10
1533.0616055024
 20
345.6496827278
 10
1533.0144926085
 20
345.6429153317
  0
LINE
  5
186
330
1F
100
AcDbEntity
  8
0
  6
Continuous
 62
     7
370
    25
100
AcDbLine
 10
1417.9425500571
 20
389.1579860469
 30
0.0
 11
1417.9425500571
 21
388.0157083456
 31
0.0
  0
LINE
  5
187
330
1F
100
AcDbEntity
  8
0
  6
Continuous
 62
     7
370
    25
100
AcDbLine
 10
1419.3567636194
 20
387.5800594675
 30
0.0
 11
1419.3567636194
 21
387.1993002337
 31
0.0
  0
LINE
  5
188
330
1F
100
AcDbEntity
  8
0
  6
Continuous
 62
     7
370
    25
100
AcDbLine
 10
1419.609350923
 20
387.6789912387
 30
0.0
 11
1419.3567636194
 21
387.5800594675
 31
0.0
  0
ARC
  5
189
330
1F
100
AcDbEntity
  8
0
  6
Continuous
 62
     7
370
    25
100
AcDbCircle
 10
1508.9779867445
 20
308.463182703
 30
0.0
 40
4.736111501324925
100
AcDbArc
 50
299.0905834162
 51
13.2284026277
  0
LINE
  5
18A
330
1F
100
AcDbEntity
  8
0
  6
Continuous
 62
     7
370
    25
100
AcDbLine
 10
3540.6771071791
 20
1552.1881551335
 30
0.0
 11
3540.6771071791
 21
1611.1422350597
 31
0.0
  0
LINE
  5
18B
330
1F
100
AcDbEntity
  8
0
  6
Continuous
 62
     7
370
    25
100
AcDbLine
 10
1419.3567636194
 20
320.2429536591
 30
0.0
 11
1419.3567636194
 21
319.4264128472
 31
0.0
  0
LINE
  5
18C
330
1F
100
AcDbEntity
  8
0
  6
Continuous
 62
     7
370
    25
100
AcDbLine
 10
1419.3567636194
 20
320.2429536591
 30
0.0
 11
1419.3567636194
 21
387.1993002337
 31
0.0
  0
LINE
  5
18D
330
1F
100
AcDbEntity
  8
0
  6
Continuous
 62
     7
370
    25
100
AcDbLine
 10
1466.0258111778
 20
356.5746406859
 30
0.0
 11
1478.7537332391
 21
363.9223136923
 31
0.0
  0
LWPOLYLINE
  5
18E
330
1F
100
AcDbEntity
  8
0
  6
Continuous
 62
     7
370
    25
100
AcDbPolyline
 90
       10
 70
   128
 43
0.0
 10
1478.7537332391
 20
363.9223136923
 10
1479.6001899084
 20
364.5833147537
 10
1480.344551411
 20
365.5092933864
 10
1480.897036764
 20
366.5885629014
 10
1481.1910080802
 20
367.6909474668
 10
1481.1910080802
 20
368.6834832346
 10
1480.897036764
 20
369.446455743
 10
1480.344551411
 20
369.8878392471
 10
1479.6001899084
 20
369.9543963822
 10
1478.7537332391
 20
369.6380993755
  0
LINE
  5
18F
330
1F
100
AcDbEntity
  8
0
  6
Continuous
 62
     7
370
    25
100
AcDbLine
 10
1478.7537332391
 20
369.6380993755
 30
0.0
 11
1466.0258111778
 21
362.2904263691
 31
0.0
  0
LWPOLYLINE
  5
190
330
1F
100
AcDbEntity
  8
0
  6
Continuous
 62
     7
370
    25
100
AcDbPolyline
 90
       10
 70
   128
 43
0.0
 10
1466.0258111778
 20
362.2904263691
 10
1465.1793545085
 20
361.6294253078
 10
1464.4349930059
 20
360.7034466751
 10
1463.8825076528
 20
359.6241771601
 10
1463.5885363366
 20
358.5217925947
 10
1463.5885363366
 20
357.5292568269
 10
1463.8825076528
 20
356.7662843185
 10
1464.4349930059
 20
356.3249008144
 10
1465.1793545085
 20
356.2583436793
 10
1466.0258111778
 20
356.5746406859
  0
LINE
  5
191
330
1F
100
AcDbEntity
  8
0
  6
Continuous
 62
     7
370
    25
100
AcDbLine
 10
3529.3633986801
 20
1553.4298615185
 30
0.0
 11
3516.6354766187
 21
1546.0821885121
 31
0.0
  0
LWPOLYLINE
  5
192
330
1F
100
AcDbEntity
  8
0
  6
Continuous
 62
     7
370
    25
100
AcDbPolyline
 90
       10
 70
   128
 43
0.0
 10
3516.6354766187
 20
1546.0821885121
 10
3515.7890199495
 20
1545.4211874507
 10
3515.0446584469
 20
1544.495208818
 10
3514.4921730938
 20
1543.415939303
 10
3514.1982017776
 20
1542.3135547376
 10
3514.1982017776
 20
1541.3210189698
 10
3514.4921730938
 20
1540.5580464614
 10
3515.0446584469
 20
1540.1166629574
 10
3515.7890199495
 20
1540.0501058222
 10
3516.6354766187
 20
1540.3664028289
  0
LINE
  5
193
330
1F
100
AcDbEntity
  8
0
  6
Continuous
 62
     7
370
    25
100
AcDbLine
 10
3516.6354766187
 20
1540.3664028289
 30
0.0
 11
3529.3633986801
 21
1547.7140758353
 31
0.0
  0
LWPOLYLINE
  5
194
330
1F
100
AcDbEntity
  8
0
  6
Continuous
 62
     7
370
    25
100
AcDbPolyline
 90
       10
 70
   128
 43
0.0
 10
3529.3633986801
 20
1547.7140758353
 10
3530.2098553494
 20
1548.3750768966
 10
3530.954216852
 20
1549.3010555293
 10
3531.506702205
 20
1550.3803250443
 10
3531.8006735212
 20
1551.4827096097
 10
3531.8006735212
 20
1552.4752453775
 10
3531.506702205
 20
1553.2382178859
 10
3530.954216852
 20
1553.67960139
 10
3530.2098553494
 20
1553.7461585251
 10
3529.3633986801
 20
1553.4298615185
  0
LINE
  5
195
330
1F
100
AcDbEntity
  8
0
  6
Continuous
 62
     7
370
    25
100
AcDbLine
 10
3494.0080596208
 20
1533.0196587229
 30
0.0
 11
3481.2801375594
 21
1525.6719857165
 31
0.0
  0
LWPOLYLINE
  5
196
330
1F
100
AcDbEntity
  8
0
  6
Continuous
 62
     7
370
    25
100
AcDbPolyline
 90
       10
 70
   128
 43
0.0
 10
3481.2801375594
 20
1525.6719857165
 10
3480.4336808902
 20
1525.0109846552
 10
3479.6893193876
 20
1524.0850060225
 10
3479.1368340345
 20
1523.0057365075
 10
3478.8428627183
 20
1521.9033519421
 10
3478.8428627183
 20
1520.9108161742
 10
3479.1368340345
 20
1520.1478436659
 10
3479.6893193876
 20
1519.7064601618
 10
3480.4336808902
 20
1519.6399030267
 10
3481.2801375594
 20
1519.9562000333
  0
LINE
  5
197
330
1F
100
AcDbEntity
  8
0
  6
Continuous
 62
     7
370
    25
100
AcDbLine
 10
3481.2801375594
 20
1519.9562000333
 30
0.0
 11
3494.0080596208
 21
1527.3038730397
 31
0.0
  0
LWPOLYLINE
  5
198
330
1F
100
AcDbEntity
  8
0
  6
Continuous
 62
     7
370
    25
100
AcDbPolyline
 90
       10
 70
   128
 43
0.0
 10
3494.0080596208
 20
1527.3038730397
 10
3494.85451629
 20
1527.964874101
 10
3495.5988777926
 20
1528.8908527337
 10
3496.1513631457
 20
1529.9701222487
 10
3496.4453344619
 20
1531.0725068141
 10
3496.4453344619
 20
1532.065042582
 10
3496.1513631457
 20
1532.8280150903
 10
3495.5988777926
 20
1533.2693985944
 10
3494.85451629
 20
1533.3359557295
 10
3494.0080596208
 20
1533.0196587229
  0
LINE
  5
199
330
1F
100
AcDbEntity
  8
0
  6
Continuous
 62
     7
370
    25
100
AcDbLine
 10
1430.6704721184
 20
336.1644378904
 30
0.0
 11
1443.3983941798
 21
343.5121108968
 31
0.0
  0
LWPOLYLINE
  5
19A
330
1F
100
AcDbEntity
  8
0
  6
Continuous
 62
     7
370
    25
100
AcDbPolyline
 90
       10
 70
   128
 43
0.0
 10
1443.3983941798
 20
343.5121108968
 10
1444.2448508491
 20
344.1731119581
 10
1444.9892123516
 20
345.0990905908
 10
1445.5416977047
 20
346.1783601058
 10
1445.8356690209
 20
347.2807446712
 10
1445.8356690209
 20
348.273280439
 10
1445.5416977047
 20
349.0362529474
 10
1444.9892123516
 20
349.4776364515
 10
1444.2448508491
 20
349.5441935866
 10
1443.3983941798
 20
349.22789658
  0
LINE
  5
19B
330
1F
100
AcDbEntity
  8
0
  6
Continuous
 62
     7
370
    25
100
AcDbLine
 10
1443.3983941798
 20
349.22789658
 30
0.0
 11
1430.6704721184
 21
341.8802235736
 31
0.0
  0
LWPOLYLINE
  5
19C
330
1F
100
AcDbEntity
  8
0
  6
Continuous
 62
     7
370
    25
100
AcDbPolyline
 90
       10
 70
   128
 43
0.0
 10
1430.6704721184
 20
341.8802235736
 10
1429.8240154492
 20
341.2192225122
 10
1429.0796539466
 20
340.2932438795
 10
1428.5271685935
 20
339.2139743646
 10
1428.2331972773
 20
338.1115897991
 10
1428.2331972773
 20
337.1190540313
 10
1428.5271685935
 20
336.356081523
 10
1429.0796539466
 20
335.9146980189
 10
1429.8240154492
 20
335.8481408837
 10
1430.6704721184
 20
336.1644378904
  0
LINE
  5
19D
330
1F
100
AcDbEntity
  8
0
  6
Continuous
 62
     7
370
    25
100
AcDbLine
 10
1466.0258111778
 20
385.1535691019
 30
0.0
 11
1478.7537332391
 21
392.5012421083
 31
0.0
  0
LWPOLYLINE
  5
19E
330
1F
100
AcDbEntity
  8
0
  6
Continuous
 62
     7
370
    25
100
AcDbPolyline
 90
       10
 70
   128
 43
0.0
 10
1478.7537332391
 20
392.5012421083
 10
1479.6001899084
 20
393.1622431697
 10
1480.344551411
 20
394.0882218024
 10
1480.897036764
 20
395.1674913174
 10
1481.1910080802
 20
396.2698758828
 10
1481.1910080802
 20
397.2624116506
 10
1480.897036764
 20
398.025384159
 10
1480.344551411
 20
398.4667676631
 10
1479.6001899084
 20
398.5333247982
 10
1478.7537332391
 20
398.2170277915
  0
LINE
  5
19F
330
1F
100
AcDbEntity
  8
0
  6
Continuous
 62
     7
370
    25
100
AcDbLine
 10
1478.7537332391
 20
398.2170277915
 30
0.0
 11
1466.0258111778
 21
390.8693547851
 31
0.0
  0
LWPOLYLINE
  5
1A0
330
1F
100
AcDbEntity
  8
0
  6
Continuous
 62
     7
370
    25
100
AcDbPolyline
 90
       10
 70
   128
 43
0.0
 10
1466.0258111778
 20
390.8693547851
 10
1465.1793545085
 20
390.2083537238
 10
1464.4349930059
 20
389.2823750911
 10
1463.8825076528
 20
388.2031055761
 10
1463.5885363366
 20
387.1007210107
 10
1463.5885363366
 20
386.1081852429
 10
1463.8825076528
 20
385.3452127345
 10
1464.4349930059
 20
384.9038292304
 10
1465.1793545085
 20
384.8372720953
 10
1466.0258111778
 20
385.1535691019
  0
LINE
  5
1A1
330
1F
100
AcDbEntity
  8
0
  6
Continuous
 62
     7
370
    25
100
AcDbLine
 10
3529.3633986801
 20
1582.0087899345
 30
0.0
 11
3516.6354766187
 21
1574.6611169281
 31
0.0
  0
LWPOLYLINE
  5
1A2
330
1F
100
AcDbEntity
  8
0
  6
Continuous
 62
     7
370
    25
100
AcDbPolyline
 90
       10
 70
   128
 43
0.0
 10
3516.6354766187
 20
1574.6611169281
 10
3515.7890199495
 20
1574.0001158667
 10
3515.0446584469
 20
1573.074137234
 10
3514.4921730938
 20
1571.994867719
 10
3514.1982017776
 20
1570.8924831536
 10
3514.1982017776
 20
1569.8999473858
 10
3514.4921730938
 20
1569.1369748774
 10
3515.0446584469
 20
1568.6955913734
 10
3515.7890199495
 20
1568.6290342382
 10
3516.6354766187
 20
1568.9453312449
  0
LINE
  5
1A3
330
1F
100
AcDbEntity
  8
0
  6
Continuous
 62
     7
370
    25
100
AcDbLine
 10
3516.6354766187
 20
1568.9453312449
 30
0.0
 11
3529.3633986801
 21
1576.2930042513
 31
0.0
  0
LWPOLYLINE
  5
1A4
330
1F
100
AcDbEntity
  8
0
  6
Continuous
 62
     7
370
    25
100
AcDbPolyline
 90
       10
 70
   128
 43
0.0
 10
3529.3633986801
 20
1576.2930042513
 10
3530.2098553494
 20
1576.9540053126
 10
3530.954216852
 20
1577.8799839453
 10
3531.506702205
 20
1578.9592534603
 10
3531.8006735212
 20
1580.0616380257
 10
3531.8006735212
 20
1581.0541737935
 10
3531.506702205
 20
1581.8171463019
 10
3530.954216852
 20
1582.258529806
 10
3530.2098553494
 20
1582.3250869411
 10
3529.3633986801
 20
1582.0087899345
  0
LINE
  5
1A5
330
1F
100
AcDbEntity
  8
0
  6
Continuous
 62
     7
370
    25
100
AcDbLine
 10
3494.0080596208
 20
1561.5985871389
 30
0.0
 11
3481.2801375594
 21
1554.2509141325
 31
0.0
  0
LWPOLYLINE
  5
1A6
330
1F
100
AcDbEntity
  8
0
  6
Continuous
 62
     7
370
    25
100
AcDbPolyline
 90
       10
 70
   128
 43
0.0
 10
3481.2801375594
 20
1554.2509141325
 10
3480.4336808902
 20
1553.5899130712
 10
3479.6893193876
 20
1552.6639344385
 10
3479.1368340345
 20
1551.5846649235
 10
3478.8428627183
 20
1550.4822803581
 10
3478.8428627183
 20
1549.4897445902
 10
3479.1368340345
 20
1548.7267720819
 10
3479.6893193876
 20
1548.2853885778
 10
3480.4336808902
 20
1548.2188314427
 10
3481.2801375594
 20
1548.5351284493
  0
LINE
  5
1A7
330
1F
100
AcDbEntity
  8
0
  6
Continuous
 62
     7
370
    25
100
AcDbLine
 10
3481.2801375594
 20
1548.5351284493
 30
0.0
 11
3494.0080596208
 21
1555.8828014557
 31
0.0
  0
LWPOLYLINE
  5
1A8
330
1F
100
AcDbEntity
  8
0
  6
Continuous
 62
     7
370
    25
100
AcDbPolyline
 90
       10
 70
   128
 43
0.0
 10
3494.0080596208
 20
1555.8828014557
 10
3494.85451629
 20
1556.543802517
 10
3495.5988777926
 20
1557.4697811497
 10
3496.1513631457
 20
1558.5490506647
 10
3496.4453344619
 20
1559.6514352301
 10
3496.4453344619
 20
1560.643970998
 10
3496.1513631457
 20
1561.4069435063
 10
3495.5988777926
 20
1561.8483270104
 10
3494.85451629
 20
1561.9148841455
 10
3494.0080596208
 20
1561.5985871389
  0
LINE
  5
1A9
330
1F
100
AcDbEntity
  8
0
  6
Continuous
 62
     7
370
    25
100
AcDbLine
 10
1430.6704721184
 20
364.7433663064
 30
0.0
 11
1443.3983941798
 21
372.0910393128
 31
0.0
  0
LWPOLYLINE
  5
1AA
330
1F
100
AcDbEntity
  8
0
  6
Continuous
 62
     7
370
    25
100
AcDbPolyline
 90
       10
 70
   128
 43
0.0
 10
1443.3983941798
 20
372.0910393128
 10
1444.2448508491
 20
372.7520403741
 10
1444.9892123516
 20
373.6780190068
 10
1445.5416977047
 20
374.7572885218
 10
1445.8356690209
 20
375.8596730872
 10
1445.8356690209
 20
376.852208855
 10
1445.5416977047
 20
377.6151813634
 10
1444.9892123516
 20
378.0565648675
 10
1444.2448508491
 20
378.1231220026
 10
1443.3983941798
 20
377.806824996
  0
LINE
  5
1AB
330
1F
100
AcDbEntity
  8
0
  6
Continuous
 62
     7
370
    25
100
AcDbLine
 10
1443.3983941798
 20
377.806824996
 30
0.0
 11
1430.6704721184
 21
370.4591519896
 31
0.0
  0
LWPOLYLINE
  5
1AC
330
1F
100
AcDbEntity
  8
0
  6
Continuous
 62
     7
370
    25
100
AcDbPolyline
 90
       10
 70
   128
 43
0.0
 10
1430.6704721184
 20
370.4591519896
 10
1429.8240154492
 20
369.7981509282
 10
1429.0796539466
 20
368.8721722955
 10
1428.5271685935
 20
367.7929027806
 10
1428.2331972773
 20
366.6905182151
 10
1428.2331972773
 20
365.6979824473
 10
1428.5271685935
 20
364.935009939
 10
1429.0796539466
 20
364.4936264349
 10
1429.8240154492
 20
364.4270692997
 10
1430.6704721184
 20
364.7433663064
  0
LINE
  5
1AD
330
1F
100
AcDbEntity
  8
0
  6
Continuous
 62
     7
370
    25
100
AcDbLine
 10
1417.9425500571
 20
321.0593617709
 30
0.0
 11
1417.9425500571
 21
388.0157083456
 31
0.0
  0
LINE
  5
1AE
330
1F
100
AcDbEntity
  8
0
  6
Continuous
 62
     7
370
    25
100
AcDbLine
 10
1546.635984233
 20
353.3136527409
 30
0.0
 11
1533.9080621717
 21
345.9659797344
 31
0.0
  0
ARC
  5
1AF
330
1F
100
AcDbEntity
  8
0
  6
Continuous
 62
     7
370
    25
100
AcDbCircle
 10
1544.3333258038
 20
357.4523139146
 30
0.0
 40
4.736111501310257
100
AcDbArc
 50
299.0905834161
 51
13.2284026281
  0
LWPOLYLINE
  5
1B0
330
1F
100
AcDbEntity
  8
0
  6
Continuous
 62
     7
370
    25
100
AcDbPolyline
 90
        3
 70
   128
 43
0.0
 10
1533.9080621717
 20
317.3870513184
 10
1533.0616055024
 20
317.0707543118
 10
1533.0144926086
 20
317.0639869157
  0
LINE
  5
1B1
330
1F
100
AcDbEntity
  8
0
  6
Continuous
 62
     7
370
    25
100
AcDbLine
 10
1546.635984233
 20
324.7347243249
 30
0.0
 11
1533.9080621717
 21
317.3870513184
 31
0.0
  0
LWPOLYLINE
  5
1B2
330
1F
100
AcDbEntity
  8
0
  6
Continuous
 62
     7
370
    25
100
AcDbPolyline
 90
        3
 70
   128
 43
0.0
 10
1428.3626889929
 20
365.2367100154
 10
1428.4098018868
 20
365.2434774116
 10
1429.2562585561
 20
365.5597744182
  0
ARC
  5
1B3
330
1F
100
AcDbEntity
  8
0
  6
Continuous
 62
     7
370
    25
100
AcDbCircle
 10
1544.3333258037
 20
328.8733854986
 30
0.0
 40
4.736111501367803
100
AcDbArc
 50
299.0905834164
 51
13.2284026263
  0
LINE
  5
1B4
330
1F
100
AcDbEntity
  8
0
  6
Continuous
 62
     7
370
    25
100
AcDbLine
 10
1429.2562585561
 20
365.5597744182
 30
0.0
 11
1441.9841806174
 21
372.9074474246
 31
0.0
  0
LINE
  5
1B5
330
1F
100
AcDbEntity
  8
0
  6
Continuous
 62
     7
370
    25
100
AcDbLine
 10
1470.9753287779
 20
305.9555463021
 30
0.0
 11
1466.0258111778
 21
308.8128419934
 31
0.0
  0
LINE
  5
1B6
330
1F
100
AcDbEntity
  8
0
  6
Continuous
 62
     7
370
    25
100
AcDbLine
 10
1464.6115976154
 20
308.8128419934
 30
0.0
 11
1461.7834003588
 21
307.1801584698
 31
0.0
  0
ARC
  5
1B7
330
1F
100
AcDbEntity
  8
0
  6
Continuous
 62
     7
370
    25
100
AcDbCircle
 10
1465.3187043966
 20
307.4481309084
 30
0.0
 40
1.537021907911265
100
AcDbArc
 50
62.6096722366
 51
117.3903277634
  0
ARC
  5
1B8
330
1F
100
AcDbEntity
  8
0
  6
Continuous
 62
     7
370
    25
100
AcDbCircle
 10
1439.6815221881
 20
377.0461085984
 30
0.0
 40
4.736111501380234
100
AcDbArc
 50
299.0905834165
 51
13.228402626
  0
LWPOLYLINE
  5
1B9
330
1F
100
AcDbEntity
  8
0
  6
Continuous
 62
     7
370
    25
100
AcDbPolyline
 90
        3
 70
   128
 43
0.0
 10
1428.3626889928
 20
336.6577815994
 10
1428.4098018868
 20
336.6645489956
 10
1429.2562585561
 20
336.9808460022
  0
LINE
  5
1BA
330
1F
100
AcDbEntity
  8
0
  6
Continuous
 62
     7
370
    25
100
AcDbLine
 10
1417.9425500571
 20
321.0593617709
 30
0.0
 11
1417.9425500571
 21
318.6097393353
 31
0.0
  0
LINE
  5
1BB
330
1F
100
AcDbEntity
  8
0
  6
Continuous
 62
     7
370
    25
100
AcDbLine
 10
1417.9425500571
 20
318.6097393353
 30
0.0
 11
1420.0638704006
 21
317.3851271675
 31
0.0
  0
LWPOLYLINE
  5
1BC
330
1F
100
AcDbEntity
  8
0
  6
Continuous
 62
     7
370
    25
100
AcDbPolyline
 90
        3
 70
   128
 43
0.0
 10
1435.6202195867
 20
321.4671677266
 10
1434.9230160663
 20
320.8923566839
 10
1434.8936327508
 20
320.8549943428
  0
LINE
  5
1BD
330
1F
100
AcDbEntity
  8
0
  6
Continuous
 62
     7
370
    25
100
AcDbLine
 10
1429.2562585561
 20
336.9808460022
 30
0.0
 11
1441.9841806174
 21
344.3285190086
 31
0.0
  0
LWPOLYLINE
  5
1BE
330
1F
100
AcDbEntity
  8
0
  6
Continuous
 62
     7
370
    25
100
AcDbPolyline
 90
        3
 70
   128
 43
0.0
 10
1463.7180280523
 20
385.646912811
 10
1463.7651409461
 20
385.6536802071
 10
1464.6115976154
 20
385.9699772138
  0
LINE
  5
1BF
330
1F
100
AcDbEntity
  8
0
  6
Continuous
 62
     7
370
    25
100
AcDbLine
 10
1448.3481416481
 20
328.8148407331
 30
0.0
 11
1435.6202195867
 21
321.4671677266
 31
0.0
  0
ARC
  5
1C0
330
1F
100
AcDbEntity
  8
0
  6
Continuous
 62
     7
370
    25
100
AcDbCircle
 10
1439.6815221882
 20
348.4671801824
 30
0.0
 40
4.73611150133878
100
AcDbArc
 50
299.0905834163
 51
13.2284026273
  0
LINE
  5
1C1
330
1F
100
AcDbEntity
  8
0
  6
Continuous
 62
     7
370
    25
100
AcDbLine
 10
1464.6115976154
 20
385.9699772138
 30
0.0
 11
1477.3395196767
 21
393.3176502202
 31
0.0
  0
ARC
  5
1C2
330
1F
100
AcDbEntity
  8
0
  6
Continuous
 62
     7
370
    25
100
AcDbCircle
 10
1450.7810058464
 20
324.7506111336
 30
0.0
 40
4.73674893196662
100
AcDbArc
 50
46.7843615564
 51
120.9049089465
  0
ARC
  5
1C3
330
1F
100
AcDbEntity
  8
0
  6
Continuous
 62
     7
370
    25
100
AcDbCircle
 10
1475.0368612475
 20
397.4563113939
 30
0.0
 40
4.736111501346181
100
AcDbArc
 50
299.0905834163
 51
13.2284026271
  0
LWPOLYLINE
  5
1C4
330
1F
100
AcDbEntity
  8
0
  6
Continuous
 62
     7
370
    25
100
AcDbPolyline
 90
        3
 70
   128
 43
0.0
 10
1463.7180280523
 20
357.067984395
 10
1463.7651409461
 20
357.0747517911
 10
1464.6115976154
 20
357.3910487978
  0
LWPOLYLINE
  5
1C5
330
1F
100
AcDbEntity
  8
0
  6
Continuous
 62
     7
370
    25
100
AcDbPolyline
 90
        3
 70
   128
 43
0.0
 10
1470.9755586461
 20
341.8773705222
 10
1470.2783551256
 20
341.3025594794
 10
1470.2489718102
 20
341.2651971384
  0
LINE
  5
1C6
330
1F
100
AcDbEntity
  8
0
  6
Continuous
 62
     7
370
    25
100
AcDbLine
 10
1464.6115976154
 20
357.3910487978
 30
0.0
 11
1477.3395196767
 21
364.7387218042
 31
0.0
  0
LINE
  5
1C7
330
1F
100
AcDbEntity
  8
0
  6
Continuous
 62
     7
370
    25
100
AcDbLine
 10
1483.7034807074
 20
349.2250435286
 30
0.0
 11
1470.9755586461
 21
341.8773705222
 31
0.0
  0
ARC
  5
1C8
330
1F
100
AcDbEntity
  8
0
  6
Continuous
 62
     7
370
    25
100
AcDbCircle
 10
1475.0368612475
 20
368.877382978
 30
0.0
 40
4.736111501364721
100
AcDbArc
 50
299.0905834164
 51
13.2284026265
  0
ARC
  5
1C9
330
1F
100
AcDbEntity
  8
0
  6
Continuous
 62
     7
370
    25
100
AcDbCircle
 10
1486.1261806504
 20
344.5788341846
 30
0.0
 40
5.23991758357155
100
AcDbArc
 50
87.8923121388
 51
117.5391495298
  0
LWPOLYLINE
  5
1CA
330
1F
100
AcDbEntity
  8
0
  6
Continuous
 62
     7
370
    25
100
AcDbPolyline
 90
        3
 70
   128
 43
0.0
 10
3549.1623885533
 20
1509.3475390818
 10
3548.3159318841
 20
1509.0312420752
 10
3548.2688189903
 20
1509.0244746791
  0
LINE
  5
1CB
330
1F
100
AcDbEntity
  8
0
  6
Continuous
 62
     7
370
    25
100
AcDbLine
 10
3561.8903106147
 20
1516.6952120882
 30
0.0
 11
3549.1623885533
 21
1509.3475390818
 31
0.0
  0
ARC
  5
1CC
330
1F
100
AcDbEntity
  8
0
  6
Continuous
 62
     7
370
    25
100
AcDbCircle
 10
3559.5876521854
 20
1520.833873262
 30
0.0
 40
4.736111501389337
100
AcDbArc
 50
299.0905834165
 51
13.2284026257
  0
LWPOLYLINE
  5
1CD
330
1F
100
AcDbEntity
  8
0
  6
Continuous
 62
     7
370
    25
100
AcDbPolyline
 90
        3
 70
   128
 43
0.0
 10
3549.1623885533
 20
1480.7686106658
 10
3548.3159318841
 20
1480.4523136592
 10
3548.2688189902
 20
1480.445546263
  0
LINE
  5
1CE
330
1F
100
AcDbEntity
  8
0
  6
Continuous
 62
     7
370
    25
100
AcDbLine
 10
3561.8903106147
 20
1488.1162836722
 30
0.0
 11
3549.1623885533
 21
1480.7686106658
 31
0.0
  0
LWPOLYLINE
  5
1CF
330
1F
100
AcDbEntity
  8
0
  6
Continuous
 62
     7
370
    25
100
AcDbPolyline
 90
        3
 70
   128
 43
0.0
 10
3584.5177276127
 20
1529.7577418774
 10
3583.6712709434
 20
1529.4414448707
 10
3583.6241580496
 20
1529.4346774746
  0
ARC
  5
1D0
330
1F
100
AcDbEntity
  8
0
  6
Continuous
 62
     7
370
    25
100
AcDbCircle
 10
3559.5876521854
 20
1492.254944846
 30
0.0
 40
4.736111501372585
100
AcDbArc
 50
299.0905834165
 51
13.2284026262
  0
LINE
  5
1D1
330
1F
100
AcDbEntity
  8
0
  6
Continuous
 62
     7
370
    25
100
AcDbLine
 10
3597.245649674
 20
1537.1054148838
 30
0.0
 11
3584.5177276127
 21
1529.7577418774
 31
0.0
  0
ARC
  5
1D2
330
1F
100
AcDbEntity
  8
0
  6
Continuous
 62
     7
370
    25
100
AcDbCircle
 10
3594.9429912447
 20
1541.2440760576
 30
0.0
 40
4.736111501447225
100
AcDbArc
 50
299.0905834169
 51
13.2284026239
  0
LWPOLYLINE
  5
1D3
330
1F
100
AcDbEntity
  8
0
  6
Continuous
 62
     7
370
    25
100
AcDbPolyline
 90
        3
 70
   128
 43
0.0
 10
3584.5177276127
 20
1501.1788134614
 10
3583.6712709434
 20
1500.8625164547
 10
3583.6241580496
 20
1500.8557490586
  0
LINE
  5
1D4
330
1F
100
AcDbEntity
  8
0
  6
Continuous
 62
     7
370
    25
100
AcDbLine
 10
3597.245649674
 20
1508.5264864678
 30
0.0
 11
3584.5177276127
 21
1501.1788134614
 31
0.0
  0
LWPOLYLINE
  5
1D5
330
1F
100
AcDbEntity
  8
0
  6
Continuous
 62
     7
370
    25
100
AcDbPolyline
 90
        3
 70
   128
 43
0.0
 10
3478.972354434
 20
1549.0284721584
 10
3479.0194673278
 20
1549.0352395545
 10
3479.865923997
 20
1549.3515365611
  0
ARC
  5
1D6
330
1F
100
AcDbEntity
  8
0
  6
Continuous
 62
     7
370
    25
100
AcDbCircle
 10
3594.9429912447
 20
1512.6651476416
 30
0.0
 40
4.736111501384045
100
AcDbArc
 50
299.0905834165
 51
13.2284026258
  0
LINE
  5
1D7
330
1F
100
AcDbEntity
  8
0
  6
Continuous
 62
     7
370
    25
100
AcDbLine
 10
3479.865923997
 20
1549.3515365611
 30
0.0
 11
3492.5938460584
 21
1556.6992095675
 31
0.0
  0
ARC
  5
1D8
330
1F
100
AcDbEntity
  8
0
  6
Continuous
 62
     7
370
    25
100
AcDbCircle
 10
3490.2911876291
 20
1560.8378707413
 30
0.0
 40
4.736111501363987
100
AcDbArc
 50
299.0905834164
 51
13.2284026265
  0
LWPOLYLINE
  5
1D9
330
1F
100
AcDbEntity
  8
0
  6
Continuous
 62
     7
370
    25
100
AcDbPolyline
 90
        3
 70
   128
 43
0.0
 10
3478.9723544341
 20
1520.4495437424
 10
3479.0194673278
 20
1520.4563111385
 10
3479.865923997
 20
1520.7726081451
  0
LINE
  5
1DA
330
1F
100
AcDbEntity
  8
0
  6
Continuous
 62
     7
370
    25
100
AcDbLine
 10
3479.865923997
 20
1520.7726081451
 30
0.0
 11
3492.5938460584
 21
1528.1202811515
 31
0.0
  0
LWPOLYLINE
  5
1DB
330
1F
100
AcDbEntity
  8
0
  6
Continuous
 62
     7
370
    25
100
AcDbPolyline
 90
        3
 70
   128
 43
0.0
 10
3514.3276934933
 20
1569.4386749539
 10
3514.3748063871
 20
1569.4454423501
 10
3515.2212630564
 20
1569.7617393567
  0
ARC
  5
1DC
330
1F
100
AcDbEntity
  8
0
  6
Continuous
 62
     7
370
    25
100
AcDbCircle
 10
3490.2911876291
 20
1532.2589423253
 30
0.0
 40
4.73611150140755
100
AcDbArc
 50
299.0905834166
 51
13.2284026251
  0
LINE
  5
1DD
330
1F
100
AcDbEntity
  8
0
  6
Continuous
 62
     7
370
    25
100
AcDbLine
 10
3515.2212630564
 20
1569.7617393567
 30
0.0
 11
3527.9491851177
 21
1577.1094123631
 31
0.0
  0
ARC
  5
1DE
330
1F
100
AcDbEntity
  8
0
  6
Continuous
 62
     7
370
    25
100
AcDbCircle
 10
3525.6465266884
 20
1581.2480735369
 30
0.0
 40
4.736111501412315
100
AcDbArc
 50
299.0905834167
 51
13.228402625
  0
LINE
  5
1DF
330
1F
100
AcDbEntity
  8
0
  6
Continuous
 62
     7
370
    25
100
AcDbLine
 10
3562.7798613014
 20
1517.3997289221
 30
0.0
 11
3561.1832038335
 21
1518.3214596587
 31
0.0
  0
LINE
  5
1E0
330
1F
100
AcDbEntity
  8
0
  6
Continuous
 62
     7
370
    25
100
AcDbLine
 10
3559.7689902711
 20
1518.3214596587
 30
0.0
 11
3556.9407930145
 21
1516.6887761352
 31
0.0
  0
ARC
  5
1E1
330
1F
100
AcDbEntity
  8
0
  6
Continuous
 62
     7
370
    25
100
AcDbCircle
 10
3560.4760970523
 20
1516.9567485738
 30
0.0
 40
1.537021907911622
100
AcDbArc
 50
62.6096722366
 51
117.3903277634
  0
LWPOLYLINE
  5
1E2
330
1F
100
AcDbEntity
  8
0
  6
Continuous
 62
     7
370
    25
100
AcDbPolyline
 90
        3
 70
   128
 43
0.0
 10
3514.3276934933
 20
1540.8597465379
 10
3514.3748063871
 20
1540.8665139341
 10
3515.2212630564
 20
1541.1828109407
  0
LINE
  5
1E3
330
1F
100
AcDbEntity
  8
0
  6
Continuous
 62
     7
370
    25
100
AcDbLine
 10
3515.2212630564
 20
1541.1828109407
 30
0.0
 11
3527.9491851177
 21
1548.5304839471
 31
0.0
  0
ARC
  5
1E4
330
1F
100
AcDbEntity
  8
0
  6
Continuous
 62
     7
370
    25
100
AcDbCircle
 10
3525.6465266885
 20
1552.6691451209
 30
0.0
 40
4.736111501352654
100
AcDbArc
 50
299.0905834164
 51
13.2284026269
  0
ENDSEC
  0
SECTION
  2
OBJECTS
  0
DICTIONARY
  5
C
330
0
100
AcDbDictionary
281
     1
  3
ACAD_GROUP
350
D
  3
ACAD_LAYOUT
350
1A
  3
ACAD_MLINESTYLE
350
17
  3
ACAD_PLOTSETTINGS
350
19
  3
ACAD_PLOTSTYLENAME
350
E
  3
ACAD_SCALELIST
350
47
  0
DICTIONARY
  5
D
102
{ACAD_REACTORS
330
C
102
}
330
C
100
AcDbDictionary
281
     1
  0
DICTIONARY
  5
1A
102
{ACAD_REACTORS
330
C
102
}
330
C
100
AcDbDictionary
281
     1
  3
Layout1
350
1E
  3
Layout2
350
26
  3
Model
350
22
  0
DICTIONARY
  5
17
102
{ACAD_REACTORS
330
C
102
}
330
C
100
AcDbDictionary
281
     1
  3
Standard
350
18
  0
DICTIONARY
  5
19
102
{ACAD_REACTORS
330
C
102
}
330
C
100
AcDbDictionary
281
     1
  0
ACDBDICTIONARYWDFLT
  5
E
102
{ACAD_REACTORS
330
C
102
}
330
C
100
AcDbDictionary
281
     1
  3
Normal
350
F
100
AcDbDictionaryWithDefault
340
F
  0
DICTIONARY
  5
47
102
{ACAD_REACTORS
330
C
102
}
330
C
100
AcDbDictionary
281
     1
  3
A0
350
48
  3
A1
350
49
  3
A2
350
4A
  3
A3
350
4B
  3
A4
350
4C
  3
A5
350
4D
  3
A6
350
4E
  3
A7
350
4F
  3
A8
350
50
  3
A9
350
51
  3
B0
350
52
  3
B1
350
53
  3
B2
350
54
  3
B3
350
55
  3
B4
350
56
  3
B5
350
57
  3
B6
350
58
  3
B7
350
59
  3
B8
350
5A
  3
B9
350
5B
  3
C0
350
5C
  3
C1
350
5D
  3
C2
350
5E
  3
C3
350
5F
  3
C4
350
60
  3
C5
350
61
  3
C6
350
62
  3
C7
350
63
  3
C8
350
64
  3
C9
350
65
  3
D0
350
66
  3
D1
350
67
  3
D2
350
68
  0
LAYOUT
  5
1E
102
{ACAD_REACTORS
330
1A
102
}
330
1A
100
AcDbPlotSettings
  1

  2
none_device
  4

  6

 40
0.0
 41
0.0
 42
0.0
 43
0.0
 44
0.0
 45
0.0
 46
0.0
 47
0.0
 48
0.0
 49
0.0
140
0.0
141
0.0
142
1.0
143
1.0
 70
   688
 72
     1
 73
     0
 74
     5
  7

 75
    16
147
1.0
148
0.0
149
0.0
100
AcDbLayout
  1
Layout1
 70
     1
 71
     1
 10
0.0
 20
0.0
 11
420.0
 21
297.0
 12
0.0
 22
0.0
 32
0.0
 14
1.0000000000E+20
 24
1.0000000000E+20
 34
1.0000000000E+20
 15
-1.0000000000E+20
 25
-1.0000000000E+20
 35
-1.0000000000E+20
146
0.0
 13
0.0
 23
0.0
 33
0.0
 16
1.0
 26
0.0
 36
0.0
 17
0.0
 27
1.0
 37
0.0
 76
     0
330
1B
  0
LAYOUT
  5
26
102
{ACAD_REACTORS
330
1A
102
}
330
1A
100
AcDbPlotSettings
  1

  2
none_device
  4

  6

 40
0.0
 41
0.0
 42
0.0
 43
0.0
 44
0.0
 45
0.0
 46
0.0
 47
0.0
 48
0.0
 49
0.0
140
0.0
141
0.0
142
1.0
143
1.0
 70
   688
 72
     1
 73
     0
 74
     5
  7

 75
    16
147
1.0
148
0.0
149
0.0
100
AcDbLayout
  1
Layout2
 70
     1
 71
     2
 10
0.0
 20
0.0
 11
0.0
 21
0.0
 12
0.0
 22
0.0
 32
0.0
 14
0.0
 24
0.0
 34
0.0
 15
0.0
 25
0.0
 35
0.0
146
0.0
 13
0.0
 23
0.0
 33
0.0
 16
1.0
 26
0.0
 36
0.0
 17
0.0
 27
1.0
 37
0.0
 76
     0
330
23
  0
LAYOUT
  5
22
102
{ACAD_REACTORS
330
1A
102
}
330
1A
100
AcDbPlotSettings
  1

  2
none_device
  4
Letter_(8.50_x_11.00_Inches)
  6

 40
6.35
 41
6.35
 42
6.35000508
 43
6.35000508
 44
215.9
 45
279.4
 46
0.0
 47
0.0
 48
0.0
 49
0.0
140
0.0
141
0.0
142
1.0
143
1.0
 70
  1712
 72
     1
 73
     0
 74
     0
  7

 75
     0
147
1.0
148
0.0
149
0.0
100
AcDbLayout
  1
Model
 70
     1
 71
     0
 10
0.0
 20
0.0
 11
4000.0
 21
3300.0
 12
0.0
 22
0.0
 32
0.0
 14
0.0
 24
0.0
 34
0.0
 15
4000.0
 25
3300.0
 35
0.0
146
0.0
 13
0.0
 23
0.0
 33
0.0
 16
1.0
 26
0.0
 36
0.0
 17
0.0
 27
1.0
 37
0.0
 76
     0
330
1F
331
29
  0
MLINESTYLE
  5
18
102
{ACAD_REACTORS
330
17
102
}
330
17
100
AcDbMlineStyle
  2
Standard
 70
     0
  3

 62
   256
 51
90.0
 52
90.0
 71
     2
 49
0.5
 62
   256
  6
BYLAYER
 49
-0.5
 62
   256
  6
BYLAYER
  0
ACDBPLACEHOLDER
  5
F
102
{ACAD_REACTORS
330
E
102
}
330
E
  0
SCALE
  5
48
102
{ACAD_REACTORS
330
47
102
}
330
47
100
AcDbScale
 70
     0
300
1:1
140
1.0
141
1.0
290
     1
  0
SCALE
  5
49
102
{ACAD_REACTORS
330
47
102
}
330
47
100
AcDbScale
 70
     0
300
1:2
140
1.0
141
2.0
290
     0
  0
SCALE
  5
4A
102
{ACAD_REACTORS
330
47
102
}
330
47
100
AcDbScale
 70
     0
300
1:4
140
1.0
141
4.0
290
     0
  0
SCALE
  5
4B
102
{ACAD_REACTORS
330
47
102
}
330
47
100
AcDbScale
 70
     0
300
1:5
140
1.0
141
5.0
290
     0
  0
SCALE
  5
4C
102
{ACAD_REACTORS
330
47
102
}
330
47
100
AcDbScale
 70
     0
300
1:8
140
1.0
141
8.0
290
     0
  0
SCALE
  5
4D
102
{ACAD_REACTORS
330
47
102
}
330
47
100
AcDbScale
 70
     0
300
1:10
140
1.0
141
10.0
290
     0
  0
SCALE
  5
4E
102
{ACAD_REACTORS
330
47
102
}
330
47
100
AcDbScale
 70
     0
300
1:16
140
1.0
141
16.0
290
     0
  0
SCALE
  5
4F
102
{ACAD_REACTORS
330
47
102
}
330
47
100
AcDbScale
 70
     0
300
1:20
140
1.0
141
20.0
290
     0
  0
SCALE
  5
50
102
{ACAD_REACTORS
330
47
102
}
330
47
100
AcDbScale
 70
     0
300
1:30
140
1.0
141
30.0
290
     0
  0
SCALE
  5
51
102
{ACAD_REACTORS
330
47
102
}
330
47
100
AcDbScale
 70
     0
300
1:40
140
1.0
141
40.0
290
     0
  0
SCALE
  5
52
102
{ACAD_REACTORS
330
47
102
}
330
47
100
AcDbScale
 70
     0
300
1:50
140
1.0
141
50.0
290
     0
  0
SCALE
  5
53
102
{ACAD_REACTORS
330
47
102
}
330
47
100
AcDbScale
 70
     0
300
1:100
140
1.0
141
100.0
290
     0
  0
SCALE
  5
54
102
{ACAD_REACTORS
330
47
102
}
330
47
100
AcDbScale
 70
     0
300
2:1
140
2.0
141
1.0
290
     0
  0
SCALE
  5
55
102
{ACAD_REACTORS
330
47
102
}
330
47
100
AcDbScale
 70
     0
300
4:1
140
4.0
141
1.0
290
     0
  0
SCALE
  5
56
102
{ACAD_REACTORS
330
47
102
}
330
47
100
AcDbScale
 70
     0
300
8:1
140
8.0
141
1.0
290
     0
  0
SCALE
  5
57
102
{ACAD_REACTORS
330
47
102
}
330
47
100
AcDbScale
 70
     0
300
10:1
140
10.0
141
1.0
290
     0
  0
SCALE
  5
58
102
{ACAD_REACTORS
330
47
102
}
330
47
100
AcDbScale
 70
     0
300
100:1
140
100.0
141
1.0
290
     0
  0
SCALE
  5
59
102
{ACAD_REACTORS
330
47
102
}
330
47
100
AcDbScale
 70
     0
300
1/128" = 1'-0"
140
0.0078125
141
12.0
290
     0
  0
SCALE
  5
5A
102
{ACAD_REACTORS
330
47
102
}
330
47
100
AcDbScale
 70
     0
300
1/64" = 1'-0"
140
0.015625
141
12.0
290
     0
  0
SCALE
  5
5B
102
{ACAD_REACTORS
330
47
102
}
330
47
100
AcDbScale
 70
     0
300
1/32" = 1'-0"
140
0.03125
141
12.0
290
     0
  0
SCALE
  5
5C
102
{ACAD_REACTORS
330
47
102
}
330
47
100
AcDbScale
 70
     0
300
1/16" = 1'-0"
140
0.0625
141
12.0
290
     0
  0
SCALE
  5
5D
102
{ACAD_REACTORS
330
47
102
}
330
47
100
AcDbScale
 70
     0
300
3/32" = 1'-0"
140
0.09375
141
12.0
290
     0
  0
SCALE
  5
5E
102
{ACAD_REACTORS
330
47
102
}
330
47
100
AcDbScale
 70
     0
300
1/8" = 1'-0"
140
0.125
141
12.0
290
     0
  0
SCALE
  5
5F
102
{ACAD_REACTORS
330
47
102
}
330
47
100
AcDbScale
 70
     0
300
3/16" = 1'-0"
140
0.1875
141
12.0
290
     0
  0
SCALE
  5
60
102
{ACAD_REACTORS
330
47
102
}
330
47
100
AcDbScale
 70
     0
300
1/4" = 1'-0"
140
0.25
141
12.0
290
     0
  0
SCALE
  5
61
102
{ACAD_REACTORS
330
47
102
}
330
47
100
AcDbScale
 70
     0
300
3/8" = 1'-0"
140
0.375
141
12.0
290
     0
  0
SCALE
  5
62
102
{ACAD_REACTORS
330
47
102
}
330
47
100
AcDbScale
 70
     0
300
1/2" = 1'-0"
140
0.5
141
12.0
290
     0
  0
SCALE
  5
63
102
{ACAD_REACTORS
330
47
102
}
330
47
100
AcDbScale
 70
     0
300
3/4" = 1'-0"
140
0.75
141
12.0
290
     0
  0
SCALE
  5
64
102
{ACAD_REACTORS
330
47
102
}
330
47
100
AcDbScale
 70
     0
300
1" = 1'-0"
140
1.0
141
12.0
290
     0
  0
SCALE
  5
65
102
{ACAD_REACTORS
330
47
102
}
330
47
100
AcDbScale
 70
     0
300
1-1/2" = 1'-0"
140
1.5
141
12.0
290
     0
  0
SCALE
  5
66
102
{ACAD_REACTORS
330
47
102
}
330
47
100
AcDbScale
 70
     0
300
3" = 1'-0"
140
3.0
141
12.0
290
     0
  0
SCALE
  5
67
102
{ACAD_REACTORS
330
47
102
}
330
47
100
AcDbScale
 70
     0
300
6" = 1'-0"
140
6.0
141
12.0
290
     0
  0
SCALE
  5
68
102
{ACAD_REACTORS
330
47
102
}
330
47
100
AcDbScale
 70
     0
300
1'-0" = 1'-0"
140
12.0
141
12.0
290
     0
  0
ENDSEC
  0
EOF
