  0
SECTION
  2
HEADER
  9
$ACADVER
  1
AC1015
  9
$ACADMAINTVER
 70
     6
  9
$DWGCODEPAGE
  3
ANSI_1251
  9
$INSBASE
 10
0.0
 20
0.0
 30
0.0
  9
$EXTMIN
 10
0.0
 20
0.0
 30
0.0
  9
$EXTMAX
 10
841.0
 20
594.0
 30
0.0
  9
$LIMMIN
 10
0.0
 20
0.0
  9
$LIMMAX
 10
841.0
 20
594.0
  9
$ORTHOMODE
 70
     0
  9
$REGENMODE
 70
     1
  9
$FILLMODE
 70
     1
  9
$QTEXTMODE
 70
     0
  9
$MIRRTEXT
 70
     1
  9
$LTSCALE
 40
1.0
  9
$ATTMODE
 70
     1
  9
$TEXTSIZE
 40
3.5
  9
$TRACEWID
 40
1.0
  9
$TEXTSTYLE
  7
Standard
  9
$CLAYER
  8
0
  9
$CELTYPE
  6
ByLayer
  9
$CECOLOR
 62
   256
  9
$CELTSCALE
 40
1.0
  9
$DISPSILH
 70
     0
  9
$DIMSCALE
 40
1.0
  9
$DIMASZ
 40
3.5
  9
$DIMEXO
 40
0.01
  9
$DIMDLI
 40
3.75
  9
$DIMRND
 40
0.0
  9
$DIMDLE
 40
0.0
  9
$DIMEXE
 40
1.0
  9
$DIMTP
 40
0.0
  9
$DIMTM
 40
0.0
  9
$DIMTXT
 40
3.5
  9
$DIMCEN
 40
2.5
  9
$DIMTSZ
 40
0.0
  9
$DIMTOL
 70
     0
  9
$DIMLIM
 70
     0
  9
$DIMTIH
 70
     1
  9
$DIMTOH
 70
     1
  9
$DIMSE1
 70
     0
  9
$DIMSE2
 70
     0
  9
$DIMTAD
 70
     1
  9
$DIMZIN
 70
     0
  9
$DIMBLK
  1

  9
$DIMASO
 70
     1
  9
$DIMSHO
 70
     1
  9
$DIMPOST
  1

  9
$DIMAPOST
  1

  9
$DIMALT
 70
     0
  9
$DIMALTD
 70
     3
  9
$DIMALTF
 40
0.0393700787
  9
$DIMLFAC
 40
1.0
  9
$DIMTOFL
 70
     1
  9
$DIMTVP
 40
0.0
  9
$DIMTIX
 70
     0
  9
$DIMSOXD
 70
     0
  9
$DIMSAH
 70
     0
  9
$DIMBLK1
  1

  9
$DIMBLK2
  1

  9
$DIMSTYLE
  2
ISO-25
  9
$DIMCLRD
 70
     0
  9
$DIMCLRE
 70
     0
  9
$DIMCLRT
 70
     0
  9
$DIMTFAC
 40
1.0
  9
$DIMGAP
 40
3.0
  9
$DIMJUST
 70
     0
  9
$DIMSD1
 70
     0
  9
$DIMSD2
 70
     0
  9
$DIMTOLJ
 70
     0
  9
$DIMTZIN
 70
     0
  9
$DIMALTZ
 70
     0
  9
$DIMALTTZ
 70
     0
  9
$DIMUPT
 70
     0
  9
$DIMDEC
 70
     2
  9
$DIMTDEC
 70
     3
  9
$DIMALTU
 70
     2
  9
$DIMALTTD
 70
     3
  9
$DIMTXSTY
  7
Standard
  9
$DIMAUNIT
 70
     0
  9
$DIMADEC
 70
     2
  9
$DIMALTRND
 40
0.0
  9
$DIMAZIN
 70
     0
  9
$DIMDSEP
 70
    44
  9
$DIMATFIT
 70
     3
  9
$DIMFRAC
 70
     0
  9
$DIMLDRBLK
  1

  9
$DIMLUNIT
 70
     2
  9
$DIMLWD
 70
    -2
  9
$DIMLWE
 70
    -2
  9
$DIMTMOVE
 70
     0
  9
$LUNITS
 70
     2
  9
$LUPREC
 70
     2
  9
$SKETCHINC
 40
1.0
  9
$FILLETRAD
 40
10.0
  9
$AUNITS
 70
     0
  9
$AUPREC
 70
     2
  9
$MENU
  1
.
  9
$ELEVATION
 40
0.0
  9
$PELEVATION
 40
0.0
  9
$THICKNESS
 40
0.0
  9
$LIMCHECK
 70
     0
  9
$CHAMFERA
 40
0.0
  9
$CHAMFERB
 40
0.0
  9
$CHAMFERC
 40
0.0
  9
$CHAMFERD
 40
0.0
  9
$SKPOLY
 70
     0
  9
$TDCREATE
 40
2459732.493507084
  9
$TDUCREATE
 40
2459732.368507084
  9
$TDUPDATE
 40
2459732.493508854
  9
$TDUUPDATE
 40
2459732.368508854
  9
$TDINDWG
 40
0.0000000116
  9
$TDUSRTIMER
 40
0.0000000116
  9
$USRTIMER
 70
     1
  9
$ANGBASE
 50
0.0
  9
$ANGDIR
 70
     0
  9
$PDMODE
 70
     0
  9
$PDSIZE
 40
-1.0
  9
$PLINEWID
 40
0.0
  9
$SPLFRAME
 70
     0
  9
$SPLINETYPE
 70
     6
  9
$SPLINESEGS
 70
     8
  9
$HANDSEED
  5
1D3
  9
$SURFTAB1
 70
     6
  9
$SURFTAB2
 70
     6
  9
$SURFTYPE
 70
     6
  9
$SURFU
 70
     6
  9
$SURFV
 70
     6
  9
$UCSBASE
  2

  9
$UCSNAME
  2

  9
$UCSORG
 10
0.0
 20
0.0
 30
0.0
  9
$UCSXDIR
 10
1.0
 20
0.0
 30
0.0
  9
$UCSYDIR
 10
0.0
 20
1.0
 30
0.0
  9
$UCSORTHOREF
  2

  9
$UCSORTHOVIEW
 70
     0
  9
$UCSORGTOP
 10
0.0
 20
0.0
 30
0.0
  9
$UCSORGBOTTOM
 10
0.0
 20
0.0
 30
0.0
  9
$UCSORGLEFT
 10
0.0
 20
0.0
 30
0.0
  9
$UCSORGRIGHT
 10
0.0
 20
0.0
 30
0.0
  9
$UCSORGFRONT
 10
0.0
 20
0.0
 30
0.0
  9
$UCSORGBACK
 10
0.0
 20
0.0
 30
0.0
  9
$PUCSBASE
  2

  9
$PUCSNAME
  2

  9
$PUCSORG
 10
0.0
 20
0.0
 30
0.0
  9
$PUCSXDIR
 10
1.0
 20
0.0
 30
0.0
  9
$PUCSYDIR
 10
0.0
 20
1.0
 30
0.0
  9
$PUCSORTHOREF
  2

  9
$PUCSORTHOVIEW
 70
     0
  9
$PUCSORGTOP
 10
0.0
 20
0.0
 30
0.0
  9
$PUCSORGBOTTOM
 10
0.0
 20
0.0
 30
0.0
  9
$PUCSORGLEFT
 10
0.0
 20
0.0
 30
0.0
  9
$PUCSORGRIGHT
 10
0.0
 20
0.0
 30
0.0
  9
$PUCSORGFRONT
 10
0.0
 20
0.0
 30
0.0
  9
$PUCSORGBACK
 10
0.0
 20
0.0
 30
0.0
  9
$USERI1
 70
     0
  9
$USERI2
 70
     0
  9
$USERI3
 70
     0
  9
$USERI4
 70
     0
  9
$USERI5
 70
     0
  9
$USERR1
 40
0.0
  9
$USERR2
 40
0.0
  9
$USERR3
 40
0.0
  9
$USERR4
 40
0.0
  9
$USERR5
 40
0.0
  9
$WORLDVIEW
 70
     1
  9
$SHADEDGE
 70
     3
  9
$SHADEDIF
 70
    70
  9
$TILEMODE
 70
     1
  9
$MAXACTVP
 70
    64
  9
$PINSBASE
 10
0.0
 20
0.0
 30
0.0
  9
$PLIMCHECK
 70
     0
  9
$PEXTMIN
 10
1.0000000000E+20
 20
1.0000000000E+20
 30
1.0000000000E+20
  9
$PEXTMAX
 10
-1.0000000000E+20
 20
-1.0000000000E+20
 30
-1.0000000000E+20
  9
$PLIMMIN
 10
0.0
 20
0.0
  9
$PLIMMAX
 10
420.0
 20
297.0
  9
$UNITMODE
 70
     0
  9
$VISRETAIN
 70
     1
  9
$PLINEGEN
 70
     0
  9
$PSLTSCALE
 70
     1
  9
$TREEDEPTH
 70
  3020
  9
$CMLSTYLE
  2
Standard
  9
$CMLJUST
 70
     0
  9
$CMLSCALE
 40
20.0
  9
$PROXYGRAPHICS
 70
     1
  9
$MEASUREMENT
 70
     1
  9
$CELWEIGHT
370
    -1
  9
$ENDCAPS
280
     0
  9
$JOINSTYLE
280
     0
  9
$LWDISPLAY
290
     1
  9
$INSUNITS
 70
     4
  9
$HYPERLINKBASE
  1

  9
$STYLESHEET
  1

  9
$XEDIT
290
     1
  9
$CEPSNTYPE
380
     0
  9
$PSTYLEMODE
290
     1
  9
$FINGERPRINTGUID
  2
{FC06CA0B-4705-46BD-9BA4-C028043D59E2}
  9
$VERSIONGUID
  2
{FAEB1C32-E019-11D5-929B-00C0DF256EC4}
  9
$EXTNAMES
290
     1
  9
$PSVPSCALE
 40
0.0
  9
$OLESTARTUP
290
     0
  0
ENDSEC
  0
SECTION
  2
CLASSES
  0
CLASS
  1
ACDBDICTIONARYWDFLT
  2
AcDbDictionaryWithDefault
  3
ObjectDBX Classes
 90
        0
280
     0
281
     0
  0
CLASS
  1
VISUALSTYLE
  2
AcDbVisualStyle
  3
ObjectDBX Classes
 90
     4095
280
     0
281
     0
  0
CLASS
  1
MATERIAL
  2
AcDbMaterial
  3
ObjectDBX Classes
 90
     1153
280
     0
281
     0
  0
CLASS
  1
SCALE
  2
AcDbScale
  3
ObjectDBX Classes
 90
     1153
280
     0
281
     0
  0
CLASS
  1
TABLESTYLE
  2
AcDbTableStyle
  3
ObjectDBX Classes
 90
     4095
280
     0
281
     0
  0
CLASS
  1
MLEADERSTYLE
  2
AcDbMLeaderStyle
  3
ACDB_MLEADERSTYLE_CLASS
 90
     4095
280
     0
281
     0
  0
CLASS
  1
SUN
  2
AcDbSun
  3
SCENEOE
 90
     1153
280
     0
281
     0
  0
CLASS
  1
ACDBPLACEHOLDER
  2
AcDbPlaceHolder
  3
ObjectDBX Classes
 90
        0
280
     0
281
     0
  0
CLASS
  1
LAYOUT
  2
AcDbLayout
  3
ObjectDBX Classes
 90
        0
280
     0
281
     0
  0
ENDSEC
  0
SECTION
  2
TABLES
  0
TABLE
  2
VPORT
  5
8
330
0
100
AcDbSymbolTable
 70
     1
  0
VPORT
  5
29
330
8
100
AcDbSymbolTableRecord
100
AcDbViewportTableRecord
  2
*Active
 70
     0
 10
0.0
 20
0.0
 11
1.0
 21
1.0
 12
420.5
 22
297.0
 13
0.0
 23
0.0
 14
10.0
 24
10.0
 15
10.0
 25
10.0
 16
0.0
 26
0.0
 36
1.0
 17
0.0
 27
0.0
 37
0.0
 40
594.0
 41
1.4158249158
 42
50.0
 43
0.0
 44
0.0
 50
0.0
 51
0.0
 71
     0
 72
  2000
 73
     1
 74
     3
 75
     0
 76
     0
 77
     0
 78
     0
281
     0
 65
     1
110
0.0
120
0.0
130
0.0
111
1.0
121
0.0
131
0.0
112
0.0
122
1.0
132
0.0
 79
     0
146
0.0
  0
ENDTAB
  0
TABLE
  2
LTYPE
  5
5
330
0
100
AcDbSymbolTable
 70
     6
  0
LTYPE
  5
14
330
5
100
AcDbSymbolTableRecord
100
AcDbLinetypeTableRecord
  2
ByBlock
 70
     0
  3

 72
    65
 73
     0
 40
0.0
  0
LTYPE
  5
15
330
5
100
AcDbSymbolTableRecord
100
AcDbLinetypeTableRecord
  2
ByLayer
 70
     0
  3

 72
    65
 73
     0
 40
0.0
  0
LTYPE
  5
16
330
5
100
AcDbSymbolTableRecord
100
AcDbLinetypeTableRecord
  2
Continuous
 70
     0
  3
Solid line
 72
    65
 73
     0
 40
0.0
  0
LTYPE
  5
6E
330
5
100
AcDbSymbolTableRecord
100
AcDbLinetypeTableRecord
  2
HIDDEN
 70
     0
  3
Hidden __ __ __ __ __ __ __ __ __ __ __ __ __ __
 72
    65
 73
     2
 40
1.905
 49
1.27
 74
     0
 49
-0.635
 74
     0
  0
LTYPE
  5
6F
330
5
100
AcDbSymbolTableRecord
100
AcDbLinetypeTableRecord
  2
PHANTOM
 70
     0
  3
Phantom ______  __  __  ______  __  __  ______
 72
    65
 73
     6
 40
12.7
 49
6.35
 74
     0
 49
-1.27
 74
     0
 49
1.27
 74
     0
 49
-1.27
 74
     0
 49
1.27
 74
     0
 49
-1.27
 74
     0
  0
LTYPE
  5
70
330
5
100
AcDbSymbolTableRecord
100
AcDbLinetypeTableRecord
  2
CENTER
 70
     0
  3
Center ____ _ ____ _ ____ _ ____ _ ____ _ ____
 72
    65
 73
     4
 40
10.16
 49
6.35
 74
     0
 49
-1.27
 74
     0
 49
1.27
 74
     0
 49
-1.27
 74
     0
  0
LTYPE
  5
71
330
5
100
AcDbSymbolTableRecord
100
AcDbLinetypeTableRecord
  2
CENTERX2
 70
     0
  3
Center (2x) ________  __  ________  __  _____
 72
    65
 73
     4
 40
20.32
 49
12.7
 74
     0
 49
-2.54
 74
     0
 49
2.54
 74
     0
 49
-2.54
 74
     0
  0
LTYPE
  5
72
330
5
100
AcDbSymbolTableRecord
100
AcDbLinetypeTableRecord
  2
DOT2
 70
     0
  3
Dot (.5x) ........................................
 72
    65
 73
     2
 40
0.635
 49
0.0
 74
     0
 49
-0.635
 74
     0
  0
ENDTAB
  0
TABLE
  2
LAYER
  5
2
330
0
100
AcDbSymbolTable
 70
     1
  0
LAYER
  5
10
330
2
100
AcDbSymbolTableRecord
100
AcDbLayerTableRecord
  2
0
 70
     0
 62
     7
  6
Continuous
370
    -3
390
F
  0
ENDTAB
  0
TABLE
  2
STYLE
  5
3
330
0
100
AcDbSymbolTable
 70
     1
  0
STYLE
  5
11
330
3
100
AcDbSymbolTableRecord
100
AcDbTextStyleTableRecord
  2
Standard
 70
     0
 40
0.0
 41
1.0
 50
0.0
 71
     0
 42
3.5
  3
txt
  4

  0
ENDTAB
  0
TABLE
  2
VIEW
  5
6
330
0
100
AcDbSymbolTable
 70
     0
  0
ENDTAB
  0
TABLE
  2
UCS
  5
7
330
0
100
AcDbSymbolTable
 70
     0
  0
ENDTAB
  0
TABLE
  2
APPID
  5
9
330
0
100
AcDbSymbolTable
 70
     1
  0
APPID
  5
12
330
9
100
AcDbSymbolTableRecord
100
AcDbRegAppTableRecord
  2
ACAD
 70
     0
  0
ENDTAB
  0
TABLE
  2
DIMSTYLE
  5
A
330
0
100
AcDbSymbolTable
 70
     1
100
AcDbDimStyleTable
  0
DIMSTYLE
105
27
330
A
100
AcDbSymbolTableRecord
100
AcDbDimStyleTableRecord
  2
ISO-25
 70
     0
 41
2.5
 42
0.625
 43
3.75
 44
1.25
 73
     0
 74
     0
 77
     1
 78
     8
140
2.5
141
2.5
143
0.0393700787
147
0.625
171
     3
172
     1
178
     0
271
     2
272
     2
274
     3
278
    44
283
     0
284
     8
340
11
  0
ENDTAB
  0
TABLE
  2
BLOCK_RECORD
  5
1
330
0
100
AcDbSymbolTable
 70
     1
  0
BLOCK_RECORD
  5
1F
330
1
100
AcDbSymbolTableRecord
100
AcDbBlockTableRecord
  2
*Model_Space
340
22
  0
BLOCK_RECORD
  5
1B
330
1
100
AcDbSymbolTableRecord
100
AcDbBlockTableRecord
  2
*Paper_Space
340
1E
  0
BLOCK_RECORD
  5
23
330
1
100
AcDbSymbolTableRecord
100
AcDbBlockTableRecord
  2
*Paper_Space0
340
26
  0
ENDTAB
  0
ENDSEC
  0
SECTION
  2
BLOCKS
  0
BLOCK
  5
20
330
1F
100
AcDbEntity
  8
0
100
AcDbBlockBegin
  2
*Model_Space
 70
     0
 10
0.0
 20
0.0
 30
0.0
  3
*Model_Space
  1

  0
ENDBLK
  5
21
330
1F
100
AcDbEntity
  8
0
100
AcDbBlockEnd
  0
BLOCK
  5
1C
330
1B
100
AcDbEntity
 67
     1
  8
0
100
AcDbBlockBegin
  2
*Paper_Space
 70
     0
 10
0.0
 20
0.0
 30
0.0
  3
*Paper_Space
  1

  0
ENDBLK
  5
1D
330
1B
100
AcDbEntity
 67
     1
  8
0
100
AcDbBlockEnd
  0
BLOCK
  5
24
330
23
100
AcDbEntity
  8
0
100
AcDbBlockBegin
  2
*Paper_Space0
 70
     0
 10
0.0
 20
0.0
 30
0.0
  3
*Paper_Space0
  1

  0
ENDBLK
  5
25
330
23
100
AcDbEntity
  8
0
100
AcDbBlockEnd
  0
ENDSEC
  0
SECTION
  2
ENTITIES
  0
LINE
  5
73
330
1F
100
AcDbEntity
  8
0
  6
Continuous
 62
     7
370
    25
100
AcDbLine
 10
409.1832604688
 20
-588.0391017449
 30
0.0
 11
409.1832604688
 21
-683.5391017449
 31
0.0
  0
LINE
  5
74
330
1F
100
AcDbEntity
  8
0
  6
Continuous
 62
     7
370
    25
100
AcDbLine
 10
409.1832604688
 20
-2.0391017449
 30
0.0
 11
409.1832604688
 21
-535.0391017449
 31
0.0
  0
LINE
  5
75
330
1F
100
AcDbEntity
  8
0
  6
Continuous
 62
     7
370
    25
100
AcDbLine
 10
409.1832604688
 20
443.9608982551
 30
0.0
 11
409.1832604688
 21
50.9608982551
 31
0.0
  0
LINE
  5
76
330
1F
100
AcDbEntity
  8
0
  6
Continuous
 62
     7
370
    25
100
AcDbLine
 10
409.1832604688
 20
1029.9608982551
 30
0.0
 11
409.1832604688
 21
496.9608982551
 31
0.0
  0
LINE
  5
77
330
1F
100
AcDbEntity
  8
0
  6
Continuous
 62
     7
370
    25
100
AcDbLine
 10
409.1832604688
 20
1178.4608982551
 30
0.0
 11
409.1832604688
 21
1082.9608982551
 31
0.0
  0
LINE
  5
78
330
1F
100
AcDbEntity
  8
0
  6
Continuous
 62
     7
370
    25
100
AcDbLine
 10
419.7920916442
 20
1178.4608982551
 30
0.0
 11
412.7832604688
 21
1178.4608982551
 31
0.0
  0
ARC
  5
79
330
1F
100
AcDbEntity
  8
0
  6
Continuous
 62
     7
370
    25
100
AcDbCircle
 10
419.7920916442
 20
1177.4608982551
 30
0.0
 40
1.0
100
AcDbArc
 50
0.0
 51
90.0
  0
LINE
  5
7A
330
1F
100
AcDbEntity
  8
0
  6
Continuous
 62
     7
370
    25
100
AcDbLine
 10
420.7920916442
 20
1177.4608982551
 30
0.0
 11
420.7920916442
 21
-682.5391017449
 31
0.0
  0
ARC
  5
7B
330
1F
100
AcDbEntity
  8
0
  6
Continuous
 62
     7
370
    25
100
AcDbCircle
 10
419.7920916442
 20
-682.5391017449
 30
0.0
 40
1.0
100
AcDbArc
 50
270.0
 51
360.0
  0
LINE
  5
7C
330
1F
100
AcDbEntity
  8
0
  6
Continuous
 62
     7
370
    25
100
AcDbLine
 10
419.7920916442
 20
-683.5391017449
 30
0.0
 11
412.7832604688
 21
-683.5391017449
 31
0.0
  0
CIRCLE
  5
7D
330
1F
100
AcDbEntity
  8
0
  6
Continuous
 62
     7
370
    25
100
AcDbCircle
 10
416.7754465988
 20
1009.9608982551
 30
0.0
 40
2.100000000000193
  0
CIRCLE
  5
7E
330
1F
100
AcDbEntity
  8
0
  6
Continuous
 62
     7
370
    25
100
AcDbCircle
 10
416.7754465988
 20
-665.0391017449
 30
0.0
 40
2.100000000000193
  0
CIRCLE
  5
7F
330
1F
100
AcDbEntity
  8
0
  6
Continuous
 62
     7
370
    25
100
AcDbCircle
 10
416.7754465988
 20
-640.0391017449
 30
0.0
 40
2.100000000000193
  0
CIRCLE
  5
80
330
1F
100
AcDbEntity
  8
0
  6
Continuous
 62
     7
370
    25
100
AcDbCircle
 10
416.7754465988
 20
-615.0391017449
 30
0.0
 40
2.100000000000193
  0
CIRCLE
  5
81
330
1F
100
AcDbEntity
  8
0
  6
Continuous
 62
     7
370
    25
100
AcDbCircle
 10
416.7754465988
 20
-590.0391017449
 30
0.0
 40
2.100000000000193
  0
CIRCLE
  5
82
330
1F
100
AcDbEntity
  8
0
  6
Continuous
 62
     7
370
    25
100
AcDbCircle
 10
416.7754465988
 20
-565.0391017449
 30
0.0
 40
2.100000000000193
  0
CIRCLE
  5
83
330
1F
100
AcDbEntity
  8
0
  6
Continuous
 62
     7
370
    25
100
AcDbCircle
 10
416.7754465988
 20
-540.0391017449
 30
0.0
 40
2.100000000000193
  0
CIRCLE
  5
84
330
1F
100
AcDbEntity
  8
0
  6
Continuous
 62
     7
370
    25
100
AcDbCircle
 10
416.7754465988
 20
-515.0391017449
 30
0.0
 40
2.100000000000193
  0
CIRCLE
  5
85
330
1F
100
AcDbEntity
  8
0
  6
Continuous
 62
     7
370
    25
100
AcDbCircle
 10
416.7754465988
 20
-490.0391017449
 30
0.0
 40
2.100000000000193
  0
CIRCLE
  5
86
330
1F
100
AcDbEntity
  8
0
  6
Continuous
 62
     7
370
    25
100
AcDbCircle
 10
416.7754465988
 20
-465.0391017449
 30
0.0
 40
2.100000000000193
  0
CIRCLE
  5
87
330
1F
100
AcDbEntity
  8
0
  6
Continuous
 62
     7
370
    25
100
AcDbCircle
 10
416.7754465988
 20
-440.0391017449
 30
0.0
 40
2.100000000000193
  0
CIRCLE
  5
88
330
1F
100
AcDbEntity
  8
0
  6
Continuous
 62
     7
370
    25
100
AcDbCircle
 10
416.7754465988
 20
-415.0391017449
 30
0.0
 40
2.100000000000193
  0
CIRCLE
  5
89
330
1F
100
AcDbEntity
  8
0
  6
Continuous
 62
     7
370
    25
100
AcDbCircle
 10
416.7754465988
 20
-390.0391017449
 30
0.0
 40
2.100000000000193
  0
CIRCLE
  5
8A
330
1F
100
AcDbEntity
  8
0
  6
Continuous
 62
     7
370
    25
100
AcDbCircle
 10
416.7754465988
 20
-365.0391017449
 30
0.0
 40
2.100000000000193
  0
CIRCLE
  5
8B
330
1F
100
AcDbEntity
  8
0
  6
Continuous
 62
     7
370
    25
100
AcDbCircle
 10
416.7754465988
 20
-340.0391017449
 30
0.0
 40
2.100000000000193
  0
CIRCLE
  5
8C
330
1F
100
AcDbEntity
  8
0
  6
Continuous
 62
     7
370
    25
100
AcDbCircle
 10
416.7754465988
 20
-315.0391017449
 30
0.0
 40
2.100000000000193
  0
CIRCLE
  5
8D
330
1F
100
AcDbEntity
  8
0
  6
Continuous
 62
     7
370
    25
100
AcDbCircle
 10
416.7754465988
 20
209.9608982551
 30
0.0
 40
2.100000000000193
  0
CIRCLE
  5
8E
330
1F
100
AcDbEntity
  8
0
  6
Continuous
 62
     7
370
    25
100
AcDbCircle
 10
416.7754465988
 20
234.9608982551
 30
0.0
 40
2.100000000000193
  0
CIRCLE
  5
8F
330
1F
100
AcDbEntity
  8
0
  6
Continuous
 62
     7
370
    25
100
AcDbCircle
 10
416.7754465988
 20
259.9608982551
 30
0.0
 40
2.100000000000193
  0
CIRCLE
  5
90
330
1F
100
AcDbEntity
  8
0
  6
Continuous
 62
     7
370
    25
100
AcDbCircle
 10
416.7754465988
 20
284.9608982551
 30
0.0
 40
2.100000000000193
  0
CIRCLE
  5
91
330
1F
100
AcDbEntity
  8
0
  6
Continuous
 62
     7
370
    25
100
AcDbCircle
 10
416.7754465988
 20
309.9608982551
 30
0.0
 40
2.100000000000193
  0
CIRCLE
  5
92
330
1F
100
AcDbEntity
  8
0
  6
Continuous
 62
     7
370
    25
100
AcDbCircle
 10
416.7754465988
 20
334.9608982551
 30
0.0
 40
2.100000000000193
  0
CIRCLE
  5
93
330
1F
100
AcDbEntity
  8
0
  6
Continuous
 62
     7
370
    25
100
AcDbCircle
 10
416.7754465988
 20
359.9608982551
 30
0.0
 40
2.100000000000193
  0
CIRCLE
  5
94
330
1F
100
AcDbEntity
  8
0
  6
Continuous
 62
     7
370
    25
100
AcDbCircle
 10
416.7754465988
 20
384.9608982551
 30
0.0
 40
2.100000000000193
  0
CIRCLE
  5
95
330
1F
100
AcDbEntity
  8
0
  6
Continuous
 62
     7
370
    25
100
AcDbCircle
 10
416.7754465988
 20
409.9608982551
 30
0.0
 40
2.100000000000193
  0
CIRCLE
  5
96
330
1F
100
AcDbEntity
  8
0
  6
Continuous
 62
     7
370
    25
100
AcDbCircle
 10
416.7754465988
 20
434.9608982551
 30
0.0
 40
2.100000000000193
  0
CIRCLE
  5
97
330
1F
100
AcDbEntity
  8
0
  6
Continuous
 62
     7
370
    25
100
AcDbCircle
 10
416.7754465988
 20
459.9608982551
 30
0.0
 40
2.100000000000193
  0
CIRCLE
  5
98
330
1F
100
AcDbEntity
  8
0
  6
Continuous
 62
     7
370
    25
100
AcDbCircle
 10
416.7754465988
 20
484.9608982551
 30
0.0
 40
2.100000000000193
  0
CIRCLE
  5
99
330
1F
100
AcDbEntity
  8
0
  6
Continuous
 62
     7
370
    25
100
AcDbCircle
 10
416.7754465988
 20
509.9608982551
 30
0.0
 40
2.100000000000193
  0
CIRCLE
  5
9A
330
1F
100
AcDbEntity
  8
0
  6
Continuous
 62
     7
370
    25
100
AcDbCircle
 10
416.7754465988
 20
534.9608982551
 30
0.0
 40
2.100000000000193
  0
CIRCLE
  5
9B
330
1F
100
AcDbEntity
  8
0
  6
Continuous
 62
     7
370
    25
100
AcDbCircle
 10
416.7754465988
 20
559.9608982551
 30
0.0
 40
2.100000000000193
  0
CIRCLE
  5
9C
330
1F
100
AcDbEntity
  8
0
  6
Continuous
 62
     7
370
    25
100
AcDbCircle
 10
416.7754465988
 20
584.9608982551
 30
0.0
 40
2.100000000000193
  0
CIRCLE
  5
9D
330
1F
100
AcDbEntity
  8
0
  6
Continuous
 62
     7
370
    25
100
AcDbCircle
 10
416.7754465988
 20
609.9608982551
 30
0.0
 40
2.100000000000193
  0
CIRCLE
  5
9E
330
1F
100
AcDbEntity
  8
0
  6
Continuous
 62
     7
370
    25
100
AcDbCircle
 10
416.7754465988
 20
634.9608982551
 30
0.0
 40
2.100000000000193
  0
CIRCLE
  5
9F
330
1F
100
AcDbEntity
  8
0
  6
Continuous
 62
     7
370
    25
100
AcDbCircle
 10
416.7754465988
 20
659.9608982551
 30
0.0
 40
2.100000000000193
  0
CIRCLE
  5
A0
330
1F
100
AcDbEntity
  8
0
  6
Continuous
 62
     7
370
    25
100
AcDbCircle
 10
416.7754465988
 20
684.9608982551
 30
0.0
 40
2.100000000000193
  0
CIRCLE
  5
A1
330
1F
100
AcDbEntity
  8
0
  6
Continuous
 62
     7
370
    25
100
AcDbCircle
 10
416.7754465988
 20
709.9608982551
 30
0.0
 40
2.100000000000193
  0
CIRCLE
  5
A2
330
1F
100
AcDbEntity
  8
0
  6
Continuous
 62
     7
370
    25
100
AcDbCircle
 10
416.7754465988
 20
734.9608982551
 30
0.0
 40
2.100000000000193
  0
CIRCLE
  5
A3
330
1F
100
AcDbEntity
  8
0
  6
Continuous
 62
     7
370
    25
100
AcDbCircle
 10
416.7754465988
 20
759.9608982551
 30
0.0
 40
2.100000000000193
  0
CIRCLE
  5
A4
330
1F
100
AcDbEntity
  8
0
  6
Continuous
 62
     7
370
    25
100
AcDbCircle
 10
416.7754465988
 20
784.9608982551
 30
0.0
 40
2.100000000000193
  0
CIRCLE
  5
A5
330
1F
100
AcDbEntity
  8
0
  6
Continuous
 62
     7
370
    25
100
AcDbCircle
 10
416.7754465988
 20
809.9608982551
 30
0.0
 40
2.100000000000193
  0
CIRCLE
  5
A6
330
1F
100
AcDbEntity
  8
0
  6
Continuous
 62
     7
370
    25
100
AcDbCircle
 10
416.7754465988
 20
834.9608982551
 30
0.0
 40
2.100000000000193
  0
CIRCLE
  5
A7
330
1F
100
AcDbEntity
  8
0
  6
Continuous
 62
     7
370
    25
100
AcDbCircle
 10
416.7754465988
 20
859.9608982551
 30
0.0
 40
2.100000000000193
  0
CIRCLE
  5
A8
330
1F
100
AcDbEntity
  8
0
  6
Continuous
 62
     7
370
    25
100
AcDbCircle
 10
416.7754465988
 20
884.9608982551
 30
0.0
 40
2.100000000000193
  0
CIRCLE
  5
A9
330
1F
100
AcDbEntity
  8
0
  6
Continuous
 62
     7
370
    25
100
AcDbCircle
 10
416.7754465988
 20
909.9608982551
 30
0.0
 40
2.100000000000193
  0
CIRCLE
  5
AA
330
1F
100
AcDbEntity
  8
0
  6
Continuous
 62
     7
370
    25
100
AcDbCircle
 10
416.7754465988
 20
934.9608982551
 30
0.0
 40
2.100000000000193
  0
CIRCLE
  5
AB
330
1F
100
AcDbEntity
  8
0
  6
Continuous
 62
     7
370
    25
100
AcDbCircle
 10
416.7754465988
 20
959.9608982551
 30
0.0
 40
2.100000000000193
  0
CIRCLE
  5
AC
330
1F
100
AcDbEntity
  8
0
  6
Continuous
 62
     7
370
    25
100
AcDbCircle
 10
416.7754465988
 20
984.9608982551
 30
0.0
 40
2.100000000000193
  0
CIRCLE
  5
AD
330
1F
100
AcDbEntity
  8
0
  6
Continuous
 62
     7
370
    25
100
AcDbCircle
 10
416.7754465988
 20
1159.9608982551
 30
0.0
 40
2.100000000000193
  0
CIRCLE
  5
AE
330
1F
100
AcDbEntity
  8
0
  6
Continuous
 62
     7
370
    25
100
AcDbCircle
 10
416.7754465988
 20
1134.9608982551
 30
0.0
 40
2.100000000000193
  0
CIRCLE
  5
AF
330
1F
100
AcDbEntity
  8
0
  6
Continuous
 62
     7
370
    25
100
AcDbCircle
 10
416.7754465988
 20
1109.9608982551
 30
0.0
 40
2.100000000000193
  0
CIRCLE
  5
B0
330
1F
100
AcDbEntity
  8
0
  6
Continuous
 62
     7
370
    25
100
AcDbCircle
 10
416.7754465988
 20
1084.9608982551
 30
0.0
 40
2.100000000000193
  0
CIRCLE
  5
B1
330
1F
100
AcDbEntity
  8
0
  6
Continuous
 62
     7
370
    25
100
AcDbCircle
 10
416.7754465988
 20
1059.9608982551
 30
0.0
 40
2.100000000000193
  0
CIRCLE
  5
B2
330
1F
100
AcDbEntity
  8
0
  6
Continuous
 62
     7
370
    25
100
AcDbCircle
 10
416.7754465988
 20
1034.9608982551
 30
0.0
 40
2.100000000000193
  0
CIRCLE
  5
B3
330
1F
100
AcDbEntity
  8
0
  6
Continuous
 62
     7
370
    25
100
AcDbCircle
 10
416.7754465988
 20
184.9608982551
 30
0.0
 40
2.100000000000193
  0
CIRCLE
  5
B4
330
1F
100
AcDbEntity
  8
0
  6
Continuous
 62
     7
370
    25
100
AcDbCircle
 10
416.7754465988
 20
159.9608982551
 30
0.0
 40
2.100000000000193
  0
CIRCLE
  5
B5
330
1F
100
AcDbEntity
  8
0
  6
Continuous
 62
     7
370
    25
100
AcDbCircle
 10
416.7754465988
 20
134.9608982551
 30
0.0
 40
2.100000000000193
  0
CIRCLE
  5
B6
330
1F
100
AcDbEntity
  8
0
  6
Continuous
 62
     7
370
    25
100
AcDbCircle
 10
416.7754465988
 20
109.9608982551
 30
0.0
 40
2.100000000000193
  0
CIRCLE
  5
B7
330
1F
100
AcDbEntity
  8
0
  6
Continuous
 62
     7
370
    25
100
AcDbCircle
 10
416.7754465988
 20
84.9608982551
 30
0.0
 40
2.100000000000193
  0
CIRCLE
  5
B8
330
1F
100
AcDbEntity
  8
0
  6
Continuous
 62
     7
370
    25
100
AcDbCircle
 10
416.7754465988
 20
59.9608982551
 30
0.0
 40
2.100000000000193
  0
CIRCLE
  5
B9
330
1F
100
AcDbEntity
  8
0
  6
Continuous
 62
     7
370
    25
100
AcDbCircle
 10
416.7754465988
 20
34.9608982551
 30
0.0
 40
2.100000000000193
  0
CIRCLE
  5
BA
330
1F
100
AcDbEntity
  8
0
  6
Continuous
 62
     7
370
    25
100
AcDbCircle
 10
416.7754465988
 20
9.9608982551
 30
0.0
 40
2.100000000000193
  0
CIRCLE
  5
BB
330
1F
100
AcDbEntity
  8
0
  6
Continuous
 62
     7
370
    25
100
AcDbCircle
 10
416.7754465988
 20
-15.0391017449
 30
0.0
 40
2.100000000000193
  0
CIRCLE
  5
BC
330
1F
100
AcDbEntity
  8
0
  6
Continuous
 62
     7
370
    25
100
AcDbCircle
 10
416.7754465988
 20
-40.0391017449
 30
0.0
 40
2.100000000000193
  0
CIRCLE
  5
BD
330
1F
100
AcDbEntity
  8
0
  6
Continuous
 62
     7
370
    25
100
AcDbCircle
 10
416.7754465988
 20
-65.0391017449
 30
0.0
 40
2.100000000000193
  0
CIRCLE
  5
BE
330
1F
100
AcDbEntity
  8
0
  6
Continuous
 62
     7
370
    25
100
AcDbCircle
 10
416.7754465988
 20
-90.0391017449
 30
0.0
 40
2.100000000000193
  0
CIRCLE
  5
BF
330
1F
100
AcDbEntity
  8
0
  6
Continuous
 62
     7
370
    25
100
AcDbCircle
 10
416.7754465988
 20
-115.0391017449
 30
0.0
 40
2.100000000000193
  0
CIRCLE
  5
C0
330
1F
100
AcDbEntity
  8
0
  6
Continuous
 62
     7
370
    25
100
AcDbCircle
 10
416.7754465988
 20
-140.0391017449
 30
0.0
 40
2.100000000000193
  0
CIRCLE
  5
C1
330
1F
100
AcDbEntity
  8
0
  6
Continuous
 62
     7
370
    25
100
AcDbCircle
 10
416.7754465988
 20
-165.0391017449
 30
0.0
 40
2.100000000000193
  0
CIRCLE
  5
C2
330
1F
100
AcDbEntity
  8
0
  6
Continuous
 62
     7
370
    25
100
AcDbCircle
 10
416.7754465988
 20
-190.0391017449
 30
0.0
 40
2.100000000000193
  0
CIRCLE
  5
C3
330
1F
100
AcDbEntity
  8
0
  6
Continuous
 62
     7
370
    25
100
AcDbCircle
 10
416.7754465988
 20
-215.0391017449
 30
0.0
 40
2.100000000000193
  0
CIRCLE
  5
C4
330
1F
100
AcDbEntity
  8
0
  6
Continuous
 62
     7
370
    25
100
AcDbCircle
 10
416.7754465988
 20
-240.0391017449
 30
0.0
 40
2.100000000000193
  0
CIRCLE
  5
C5
330
1F
100
AcDbEntity
  8
0
  6
Continuous
 62
     7
370
    25
100
AcDbCircle
 10
416.7754465988
 20
-265.0391017449
 30
0.0
 40
2.100000000000193
  0
CIRCLE
  5
C6
330
1F
100
AcDbEntity
  8
0
  6
Continuous
 62
     7
370
    25
100
AcDbCircle
 10
416.7754465988
 20
-290.0391017449
 30
0.0
 40
2.100000000000193
  0
LINE
  5
C7
330
1F
100
AcDbEntity
  8
0
  6
Continuous
 62
     7
370
    25
100
AcDbLine
 10
412.7832604688
 20
1178.4608982551
 30
0.0
 11
409.1832604688
 21
1178.4608982551
 31
0.0
  0
LINE
  5
C8
330
1F
100
AcDbEntity
  8
0
  6
Continuous
 62
     7
370
    25
100
AcDbLine
 10
412.7832604688
 20
-683.5391017449
 30
0.0
 11
409.1832604688
 21
-683.5391017449
 31
0.0
  0
LINE
  5
C9
330
1F
100
AcDbEntity
  8
0
  6
Continuous
 62
     7
370
    25
100
AcDbLine
 10
409.1832604688
 20
-588.0391017449
 30
0.0
 11
409.5816030807
 21
-588.0391017449
 31
0.0
  0
LINE
  5
CA
330
1F
100
AcDbEntity
  8
0
  6
Continuous
 62
     7
370
    25
100
AcDbLine
 10
409.5816030807
 20
-535.0391017449
 30
0.0
 11
409.5816030807
 21
-588.0391017449
 31
0.0
  0
LINE
  5
CB
330
1F
100
AcDbEntity
  8
0
  6
Continuous
 62
     7
370
    25
100
AcDbLine
 10
409.5816030807
 20
-535.0391017449
 30
0.0
 11
409.1832604688
 21
-535.0391017449
 31
0.0
  0
LINE
  5
CC
330
1F
100
AcDbEntity
  8
0
  6
Continuous
 62
     7
370
    25
100
AcDbLine
 10
409.1832604688
 20
-2.0391017449
 30
0.0
 11
409.5816030807
 21
-2.0391017449
 31
0.0
  0
LINE
  5
CD
330
1F
100
AcDbEntity
  8
0
  6
Continuous
 62
     7
370
    25
100
AcDbLine
 10
409.5816030807
 20
50.9608982551
 30
0.0
 11
409.5816030807
 21
-2.0391017449
 31
0.0
  0
LINE
  5
CE
330
1F
100
AcDbEntity
  8
0
  6
Continuous
 62
     7
370
    25
100
AcDbLine
 10
409.5816030807
 20
50.9608982551
 30
0.0
 11
409.1832604688
 21
50.9608982551
 31
0.0
  0
LINE
  5
CF
330
1F
100
AcDbEntity
  8
0
  6
Continuous
 62
     7
370
    25
100
AcDbLine
 10
409.1832604688
 20
443.9608982551
 30
0.0
 11
409.5816030807
 21
443.9608982551
 31
0.0
  0
LINE
  5
D0
330
1F
100
AcDbEntity
  8
0
  6
Continuous
 62
     7
370
    25
100
AcDbLine
 10
409.5816030807
 20
496.9608982551
 30
0.0
 11
409.5816030807
 21
443.9608982551
 31
0.0
  0
LINE
  5
D1
330
1F
100
AcDbEntity
  8
0
  6
Continuous
 62
     7
370
    25
100
AcDbLine
 10
409.5816030807
 20
496.9608982551
 30
0.0
 11
409.1832604688
 21
496.9608982551
 31
0.0
  0
LINE
  5
D2
330
1F
100
AcDbEntity
  8
0
  6
Continuous
 62
     7
370
    25
100
AcDbLine
 10
409.1832604688
 20
1029.9608982551
 30
0.0
 11
409.5816030807
 21
1029.9608982551
 31
0.0
  0
LINE
  5
D3
330
1F
100
AcDbEntity
  8
0
  6
Continuous
 62
     7
370
    25
100
AcDbLine
 10
409.5816030807
 20
1082.9608982551
 30
0.0
 11
409.5816030807
 21
1029.9608982551
 31
0.0
  0
LINE
  5
D4
330
1F
100
AcDbEntity
  8
0
  6
Continuous
 62
     7
370
    25
100
AcDbLine
 10
409.5816030807
 20
1082.9608982551
 30
0.0
 11
409.1832604688
 21
1082.9608982551
 31
0.0
  0
LINE
  5
D5
330
1F
100
AcDbEntity
  8
0
  6
Continuous
 62
     7
370
    25
100
AcDbLine
 10
419.7920916442
 20
1178.4608982551
 30
0.0
 11
421.6283398176
 21
1178.4608982551
 31
0.0
  0
ARC
  5
D6
330
1F
100
AcDbEntity
  8
0
  6
Continuous
 62
     7
370
    25
100
AcDbCircle
 10
421.4515631223
 20
1177.5858982551
 30
0.0
 40
0.8926785535675605
100
AcDbArc
 50
351.9505330245
 51
78.5782463411
  0
LINE
  5
D7
330
1F
100
AcDbEntity
  8
0
  6
Continuous
 62
     7
370
    25
100
AcDbLine
 10
422.3354465988
 20
1177.4608982551
 30
0.0
 11
422.3354465988
 21
1083.9608982551
 31
0.0
  0
ARC
  5
D8
330
1F
100
AcDbEntity
  8
0
  6
Continuous
 62
     7
370
    25
100
AcDbCircle
 10
421.4515631223
 20
1083.8358982551
 30
0.0
 40
0.8926785535676101
100
AcDbArc
 50
281.421753659
 51
8.0494669755
  0
ARC
  5
D9
330
1F
100
AcDbEntity
  8
0
  6
Continuous
 62
     7
370
    25
100
AcDbCircle
 10
418.1767899154
 20
1110.9597743241
 30
0.0
 40
3.332772972022872
100
AcDbArc
 50
182.8377709066
 51
248.1246936591
  0
LINE
  5
DA
330
1F
100
AcDbEntity
  8
0
  6
Continuous
 62
     7
370
    25
100
AcDbLine
 10
416.1351341751
 20
1082.9608982551
 30
0.0
 11
417.4157590226
 21
1082.9608982551
 31
0.0
  0
LINE
  5
DB
330
1F
100
AcDbEntity
  8
0
  6
Continuous
 62
     7
370
    25
100
AcDbLine
 10
420.7920916442
 20
1082.9608982551
 30
0.0
 11
421.6283398176
 21
1082.9608982551
 31
0.0
  0
ARC
  5
DC
330
1F
100
AcDbEntity
  8
0
  6
Continuous
 62
     7
370
    25
100
AcDbCircle
 10
421.4515631223
 20
-588.9141017449
 30
0.0
 40
0.8926785535679074
100
AcDbArc
 50
351.9505330245
 51
78.578246341
  0
LINE
  5
DD
330
1F
100
AcDbEntity
  8
0
  6
Continuous
 62
     7
370
    25
100
AcDbLine
 10
422.3354465988
 20
-589.0391017449
 30
0.0
 11
422.3354465988
 21
-682.5391017449
 31
0.0
  0
ARC
  5
DE
330
1F
100
AcDbEntity
  8
0
  6
Continuous
 62
     7
370
    25
100
AcDbCircle
 10
421.4515631223
 20
-682.6641017449
 30
0.0
 40
0.8926785535676259
100
AcDbArc
 50
281.421753659
 51
8.0494669755
  0
ARC
  5
DF
330
1F
100
AcDbEntity
  8
0
  6
Continuous
 62
     7
370
    25
100
AcDbCircle
 10
418.0820086381
 20
-615.9704178174
 30
0.0
 40
3.23537239785608
100
AcDbArc
 50
110.7633712517
 51
178.2741641769
  0
LINE
  5
E0
330
1F
100
AcDbEntity
  8
0
  6
Continuous
 62
     7
370
    25
100
AcDbLine
 10
419.7920916442
 20
-683.5391017449
 30
0.0
 11
421.6283398176
 21
-683.5391017449
 31
0.0
  0
LINE
  5
E1
330
1F
100
AcDbEntity
  8
0
  6
Continuous
 62
     7
370
    25
100
AcDbLine
 10
421.6283398176
 20
-588.0391017449
 30
0.0
 11
420.7920916442
 21
-588.0391017449
 31
0.0
  0
LINE
  5
E2
330
1F
100
AcDbEntity
  8
0
  6
Continuous
 62
     7
370
    25
100
AcDbLine
 10
417.4157590226
 20
-588.0391017449
 30
0.0
 11
416.1351341751
 21
-588.0391017449
 31
0.0
  0
ARC
  5
E3
330
1F
100
AcDbEntity
  8
0
  6
Continuous
 62
     7
370
    25
100
AcDbCircle
 10
421.4515631223
 20
-2.9141017449
 30
0.0
 40
0.8926785535677931
100
AcDbArc
 50
351.9505330245
 51
78.578246341
  0
LINE
  5
E4
330
1F
100
AcDbEntity
  8
0
  6
Continuous
 62
     7
370
    25
100
AcDbLine
 10
422.3354465988
 20
-3.0391017449
 30
0.0
 11
422.3354465988
 21
-534.0391017449
 31
0.0
  0
ARC
  5
E5
330
1F
100
AcDbEntity
  8
0
  6
Continuous
 62
     7
370
    25
100
AcDbCircle
 10
421.4515631223
 20
-534.1641017449
 30
0.0
 40
0.8926785535680444
100
AcDbArc
 50
281.421753659
 51
8.0494669755
  0
ARC
  5
E6
330
1F
100
AcDbEntity
  8
0
  6
Continuous
 62
     7
370
    25
100
AcDbCircle
 10
417.3794006259
 20
-62.0734930222
 30
0.0
 40
2.084842820284535
100
AcDbArc
 50
214.6098353437
 51
302.3681213655
  0
ARC
  5
E7
330
1F
100
AcDbEntity
  8
0
  6
Continuous
 62
     7
370
    25
100
AcDbCircle
 10
418.1767899152
 20
-289.0402256759
 30
0.0
 40
3.332772971891663
100
AcDbArc
 50
182.8377709015
 51
248.1246936699
  0
LINE
  5
E8
330
1F
100
AcDbEntity
  8
0
  6
Continuous
 62
     7
370
    25
100
AcDbLine
 10
421.6283398176
 20
-2.0391017449
 30
0.0
 11
420.7920916442
 21
-2.0391017449
 31
0.0
  0
LINE
  5
E9
330
1F
100
AcDbEntity
  8
0
  6
Continuous
 62
     7
370
    25
100
AcDbLine
 10
420.7920916442
 20
-535.0391017449
 30
0.0
 11
421.6283398176
 21
-535.0391017449
 31
0.0
  0
ARC
  5
EA
330
1F
100
AcDbEntity
  8
0
  6
Continuous
 62
     7
370
    25
100
AcDbCircle
 10
421.4515631223
 20
443.0858982551
 30
0.0
 40
0.8926785535676387
100
AcDbArc
 50
351.9505330245
 51
78.5782463411
  0
LINE
  5
EB
330
1F
100
AcDbEntity
  8
0
  6
Continuous
 62
     7
370
    25
100
AcDbLine
 10
422.3354465988
 20
442.9608982551
 30
0.0
 11
422.3354465988
 21
51.9608982551
 31
0.0
  0
ARC
  5
EC
330
1F
100
AcDbEntity
  8
0
  6
Continuous
 62
     7
370
    25
100
AcDbCircle
 10
421.4515631223
 20
51.8358982551
 30
0.0
 40
0.8926785535678765
100
AcDbArc
 50
281.421753659
 51
8.0494669755
  0
LINE
  5
ED
330
1F
100
AcDbEntity
  8
0
  6
Continuous
 62
     7
370
    25
100
AcDbLine
 10
421.6283398176
 20
443.9608982551
 30
0.0
 11
420.7920916442
 21
443.9608982551
 31
0.0
  0
LINE
  5
EE
330
1F
100
AcDbEntity
  8
0
  6
Continuous
 62
     7
370
    25
100
AcDbLine
 10
420.7920916442
 20
50.9608982551
 30
0.0
 11
421.6283398176
 21
50.9608982551
 31
0.0
  0
ARC
  5
EF
330
1F
100
AcDbEntity
  8
0
  6
Continuous
 62
     7
370
    25
100
AcDbCircle
 10
421.4515631223
 20
1029.0858982551
 30
0.0
 40
0.8926785535680921
100
AcDbArc
 50
351.9505330245
 51
78.578246341
  0
LINE
  5
F0
330
1F
100
AcDbEntity
  8
0
  6
Continuous
 62
     7
370
    25
100
AcDbLine
 10
422.3354465988
 20
1028.9608982551
 30
0.0
 11
422.3354465988
 21
497.9608982551
 31
0.0
  0
ARC
  5
F1
330
1F
100
AcDbEntity
  8
0
  6
Continuous
 62
     7
370
    25
100
AcDbCircle
 10
421.4515631223
 20
497.8358982551
 30
0.0
 40
0.8926785535679179
100
AcDbArc
 50
281.421753659
 51
8.0494669755
  0
ARC
  5
F2
330
1F
100
AcDbEntity
  8
0
  6
Continuous
 62
     7
370
    25
100
AcDbCircle
 10
417.3737299414
 20
557.0231344189
 30
0.0
 40
2.064454110258899
100
AcDbArc
 50
57.0852223078
 51
145.9368209831
  0
ARC
  5
F3
330
1F
100
AcDbEntity
  8
0
  6
Continuous
 62
     7
370
    25
100
AcDbCircle
 10
418.0820086382
 20
784.0295821826
 30
0.0
 40
3.235372397900358
100
AcDbArc
 50
110.7633712558
 51
178.2741641749
  0
LINE
  5
F4
330
1F
100
AcDbEntity
  8
0
  6
Continuous
 62
     7
370
    25
100
AcDbLine
 10
420.7920916442
 20
496.9608982551
 30
0.0
 11
421.6283398176
 21
496.9608982551
 31
0.0
  0
LINE
  5
F5
330
1F
100
AcDbEntity
  8
0
  6
Continuous
 62
     7
370
    25
100
AcDbLine
 10
421.6283398176
 20
1029.9608982551
 30
0.0
 11
420.7920916442
 21
1029.9608982551
 31
0.0
  0
ARC
  5
F6
330
1F
100
AcDbEntity
  8
0
  6
Continuous
 62
     7
370
    25
100
AcDbCircle
 10
415.0197591648
 20
-616.1337057393
 30
0.0
 40
3.520286396819549
100
AcDbArc
 50
359.278435351
 51
61.8864107931
  0
ARC
  5
F7
330
1F
100
AcDbEntity
  8
0
  6
Continuous
 62
     7
370
    25
100
AcDbCircle
 10
415.1226134263
 20
-289.00528301
 30
0.0
 40
3.41876939248048
100
AcDbArc
 50
297.0731937427
 51
1.7619601113
  0
ARC
  5
F8
330
1F
100
AcDbEntity
  8
0
  6
Continuous
 62
     7
370
    25
100
AcDbCircle
 10
415.6961915187
 20
-61.7367307754
 30
0.0
 40
2.512718058429722
100
AcDbArc
 50
293.0149546091
 51
324.932455403
  0
ARC
  5
F9
330
1F
100
AcDbEntity
  8
0
  6
Continuous
 62
     7
370
    25
100
AcDbCircle
 10
415.6961915187
 20
556.6585272855
 30
0.0
 40
2.512718058417116
100
AcDbArc
 50
35.0675445972
 51
66.9850453915
  0
ARC
  5
FA
330
1F
100
AcDbEntity
  8
0
  6
Continuous
 62
     7
370
    25
100
AcDbCircle
 10
415.0197591649
 20
783.8662942607
 30
0.0
 40
3.520286396742828
100
AcDbArc
 50
359.2784353479
 51
61.886410799
  0
ARC
  5
FB
330
1F
100
AcDbEntity
  8
0
  6
Continuous
 62
     7
370
    25
100
AcDbCircle
 10
415.1226134264
 20
1110.99471699
 30
0.0
 40
3.418769392405783
100
AcDbArc
 50
297.0731937416
 51
1.7619601086
  0
LINE
  5
FC
330
1F
100
AcDbEntity
  8
0
  6
Continuous
 62
     7
370
    25
100
AcDbLine
 10
641.9526146036
 20
1178.4608982551
 30
0.0
 11
635.8070301914
 21
1178.4608982551
 31
0.0
  0
LINE
  5
FD
330
1F
100
AcDbEntity
  8
0
  6
Continuous
 62
     7
370
    25
100
AcDbLine
 10
641.9526146036
 20
1178.4608982551
 30
0.0
 11
641.9526146036
 21
-683.5391017449
 31
0.0
  0
LINE
  5
FE
330
1F
100
AcDbEntity
  8
0
  6
Continuous
 62
     7
370
    25
100
AcDbLine
 10
639.998637073
 20
-535.0391017449
 30
0.0
 11
639.998637073
 21
-588.0391017449
 31
0.0
  0
LINE
  5
FF
330
1F
100
AcDbEntity
  8
0
  6
Continuous
 62
     7
370
    25
100
AcDbLine
 10
639.998637073
 20
50.9608982551
 30
0.0
 11
639.998637073
 21
-2.0391017449
 31
0.0
  0
LINE
  5
100
330
1F
100
AcDbEntity
  8
0
  6
Continuous
 62
     7
370
    25
100
AcDbLine
 10
639.998637073
 20
496.9608982551
 30
0.0
 11
639.998637073
 21
443.9608982551
 31
0.0
  0
LINE
  5
101
330
1F
100
AcDbEntity
  8
0
  6
Continuous
 62
     7
370
    25
100
AcDbLine
 10
639.998637073
 20
1082.9608982551
 30
0.0
 11
639.998637073
 21
1029.9608982551
 31
0.0
  0
LINE
  5
102
330
1F
100
AcDbEntity
  8
0
  6
Continuous
 62
     7
370
    25
100
AcDbLine
 10
641.9526146036
 20
-683.5391017449
 30
0.0
 11
635.8070301914
 21
-683.5391017449
 31
0.0
  0
LINE
  5
103
330
1F
100
AcDbEntity
  8
0
  6
Continuous
 62
     7
370
    25
100
AcDbLine
 10
639.998637073
 20
-535.0391017449
 30
0.0
 11
635.8070301914
 21
-535.0391017449
 31
0.0
  0
LINE
  5
104
330
1F
100
AcDbEntity
  8
0
  6
Continuous
 62
     7
370
    25
100
AcDbLine
 10
635.8070301914
 20
-588.0391017449
 30
0.0
 11
639.998637073
 21
-588.0391017449
 31
0.0
  0
LINE
  5
105
330
1F
100
AcDbEntity
  8
0
  6
Continuous
 62
     7
370
    25
100
AcDbLine
 10
635.8070301914
 20
443.9608982551
 30
0.0
 11
639.998637073
 21
443.9608982551
 31
0.0
  0
LINE
  5
106
330
1F
100
AcDbEntity
  8
0
  6
Continuous
 62
     7
370
    25
100
AcDbLine
 10
639.998637073
 20
496.9608982551
 30
0.0
 11
635.8070301914
 21
496.9608982551
 31
0.0
  0
LINE
  5
107
330
1F
100
AcDbEntity
  8
0
  6
Continuous
 62
     7
370
    25
100
AcDbLine
 10
639.998637073
 20
50.9608982551
 30
0.0
 11
635.8070301914
 21
50.9608982551
 31
0.0
  0
LINE
  5
108
330
1F
100
AcDbEntity
  8
0
  6
Continuous
 62
     7
370
    25
100
AcDbLine
 10
635.8070301914
 20
1029.9608982551
 30
0.0
 11
639.998637073
 21
1029.9608982551
 31
0.0
  0
LINE
  5
109
330
1F
100
AcDbEntity
  8
0
  6
Continuous
 62
     7
370
    25
100
AcDbLine
 10
639.998637073
 20
1082.9608982551
 30
0.0
 11
635.8070301914
 21
1082.9608982551
 31
0.0
  0
LINE
  5
10A
330
1F
100
AcDbEntity
  8
0
  6
Continuous
 62
     7
370
    25
100
AcDbLine
 10
635.8070301914
 20
-2.0391017449
 30
0.0
 11
639.998637073
 21
-2.0391017449
 31
0.0
  0
LINE
  5
10B
330
1F
100
AcDbEntity
  8
0
  6
Continuous
 62
     7
370
    25
100
AcDbLine
 10
638.3963809806
 20
50.9608982551
 30
0.0
 11
638.3963809806
 21
-2.0391017449
 31
0.0
  0
LINE
  5
10C
330
1F
100
AcDbEntity
  8
0
  6
Continuous
 62
     7
370
    25
100
AcDbLine
 10
638.3963809806
 20
1082.9608982551
 30
0.0
 11
638.3963809806
 21
1029.9608982551
 31
0.0
  0
LINE
  5
10D
330
1F
100
AcDbEntity
  8
0
  6
Continuous
 62
     7
370
    25
100
AcDbLine
 10
638.3963809806
 20
496.9608982551
 30
0.0
 11
638.3963809806
 21
443.9608982551
 31
0.0
  0
LINE
  5
10E
330
1F
100
AcDbEntity
  8
0
  6
Continuous
 62
     7
370
    25
100
AcDbLine
 10
638.3963809806
 20
-535.0391017449
 30
0.0
 11
638.3963809806
 21
-588.0391017449
 31
0.0
  0
ARC
  5
10F
330
1F
100
AcDbEntity
  8
0
  6
Continuous
 62
     7
370
    25
100
AcDbCircle
 10
626.0073566879
 20
1029.0858982551
 30
0.0
 40
0.892678553568085
100
AcDbArc
 50
101.421753659
 51
188.0494669755
  0
ARC
  5
110
330
1F
100
AcDbEntity
  8
0
  6
Continuous
 62
     7
370
    25
100
AcDbCircle
 10
626.0073566879
 20
497.8358982551
 30
0.0
 40
0.8926785535677789
100
AcDbArc
 50
171.9505330245
 51
258.5782463411
  0
LINE
  5
111
330
1F
100
AcDbEntity
  8
0
  6
Continuous
 62
     7
370
    25
100
AcDbLine
 10
625.1234732114
 20
1028.9608982551
 30
0.0
 11
625.1234732114
 21
497.9608982551
 31
0.0
  0
LWPOLYLINE
  5
112
330
1F
100
AcDbEntity
  8
0
  6
Continuous
 62
     7
370
    25
100
AcDbPolyline
 90
       21
 70
   128
 43
0.0
 10
632.654160431
 20
1003.4608982551
 10
632.5278402484
 20
1004.5888102845
 10
632.1612448
 20
1005.6063144259
 10
631.5902590026
 20
1006.4138102845
 10
630.8707749243
 20
1006.9322545395
 10
630.0732206797
 20
1007.1108982551
 10
629.2756664351
 20
1006.9322545395
 10
628.5561823568
 20
1006.4138102845
 10
627.9851965594
 20
1005.6063144259
 10
627.618601111
 20
1004.5888102845
 10
627.4922809284
 20
1003.4608982551
 10
627.618601111
 20
1002.3329862256
 10
627.9851965594
 20
1001.3154820842
 10
628.5561823568
 20
1000.5079862256
 10
629.2756664351
 20
999.9895419706
 10
630.0732206797
 20
999.8108982551
 10
630.8707749243
 20
999.9895419706
 10
631.5902590026
 20
1000.5079862256
 10
632.1612448
 20
1001.3154820842
 10
632.5278402484
 20
1002.3329862256
 10
632.654160431
 20
1003.4608982551
  0
LWPOLYLINE
  5
113
330
1F
100
AcDbEntity
  8
0
  6
Continuous
 62
     7
370
    25
100
AcDbPolyline
 90
       21
 70
   128
 43
0.0
 10
632.654160431
 20
555.4608982551
 10
632.5278402484
 20
556.5888102845
 10
632.1612448
 20
557.6063144259
 10
631.5902590026
 20
558.4138102845
 10
630.8707749243
 20
558.9322545395
 10
630.0732206797
 20
559.1108982551
 10
629.2756664351
 20
558.9322545395
 10
628.5561823568
 20
558.4138102845
 10
627.9851965594
 20
557.6063144259
 10
627.618601111
 20
556.5888102845
 10
627.4922809284
 20
555.4608982551
 10
627.618601111
 20
554.3329862256
 10
627.9851965594
 20
553.3154820842
 10
628.5561823568
 20
552.5079862256
 10
629.2756664351
 20
551.9895419706
 10
630.0732206797
 20
551.8108982551
 10
630.8707749243
 20
551.9895419706
 10
631.5902590026
 20
552.5079862256
 10
632.1612448
 20
553.3154820842
 10
632.5278402484
 20
554.3329862256
 10
632.654160431
 20
555.4608982551
  0
LWPOLYLINE
  5
114
330
1F
100
AcDbEntity
  8
0
  6
Continuous
 62
     7
370
    25
100
AcDbPolyline
 90
       21
 70
   128
 43
0.0
 10
632.654160431
 20
783.4608982551
 10
632.5278402484
 20
784.5888102845
 10
632.1612448
 20
785.6063144259
 10
631.5902590026
 20
786.4138102845
 10
630.8707749243
 20
786.9322545395
 10
630.0732206797
 20
787.1108982551
 10
629.2756664351
 20
786.9322545395
 10
628.5561823568
 20
786.4138102845
 10
627.9851965594
 20
785.6063144259
 10
627.618601111
 20
784.5888102845
 10
627.4922809284
 20
783.4608982551
 10
627.618601111
 20
782.3329862256
 10
627.9851965594
 20
781.3154820842
 10
628.5561823568
 20
780.5079862256
 10
629.2756664351
 20
779.9895419706
 10
630.0732206797
 20
779.8108982551
 10
630.8707749243
 20
779.9895419706
 10
631.5902590026
 20
780.5079862256
 10
632.1612448
 20
781.3154820842
 10
632.5278402484
 20
782.3329862256
 10
632.654160431
 20
783.4608982551
  0
LWPOLYLINE
  5
115
330
1F
100
AcDbEntity
  8
0
  6
Continuous
 62
     7
370
    25
100
AcDbPolyline
 90
       21
 70
   128
 43
0.0
 10
632.654160431
 20
525.4608982551
 10
632.5278402484
 20
526.5888102845
 10
632.1612448
 20
527.6063144259
 10
631.5902590026
 20
528.4138102845
 10
630.8707749243
 20
528.9322545395
 10
630.0732206797
 20
529.1108982551
 10
629.2756664351
 20
528.9322545395
 10
628.5561823568
 20
528.4138102845
 10
627.9851965594
 20
527.6063144259
 10
627.618601111
 20
526.5888102845
 10
627.4922809284
 20
525.4608982551
 10
627.618601111
 20
524.3329862256
 10
627.9851965594
 20
523.3154820842
 10
628.5561823568
 20
522.5079862256
 10
629.2756664351
 20
521.9895419706
 10
630.0732206797
 20
521.8108982551
 10
630.8707749243
 20
521.9895419706
 10
631.5902590026
 20
522.5079862256
 10
632.1612448
 20
523.3154820842
 10
632.5278402484
 20
524.3329862256
 10
632.654160431
 20
525.4608982551
  0
LINE
  5
116
330
1F
100
AcDbEntity
  8
0
  6
Continuous
 62
     7
370
    25
100
AcDbLine
 10
635.8070301914
 20
496.9608982551
 30
0.0
 11
625.8305799926
 21
496.9608982551
 31
0.0
  0
LINE
  5
117
330
1F
100
AcDbEntity
  8
0
  6
Continuous
 62
     7
370
    25
100
AcDbLine
 10
625.8305799926
 20
1029.9608982551
 30
0.0
 11
635.8070301914
 21
1029.9608982551
 31
0.0
  0
ARC
  5
118
330
1F
100
AcDbEntity
  8
0
  6
Continuous
 62
     7
370
    25
100
AcDbCircle
 10
626.0073566879
 20
-2.9141017449
 30
0.0
 40
0.8926785535680056
100
AcDbArc
 50
101.421753659
 51
188.0494669755
  0
ARC
  5
119
330
1F
100
AcDbEntity
  8
0
  6
Continuous
 62
     7
370
    25
100
AcDbCircle
 10
626.0073566879
 20
-534.1641017449
 30
0.0
 40
0.8926785535678915
100
AcDbArc
 50
171.9505330245
 51
258.578246341
  0
LINE
  5
11A
330
1F
100
AcDbEntity
  8
0
  6
Continuous
 62
     7
370
    25
100
AcDbLine
 10
625.1234732114
 20
-3.0391017449
 30
0.0
 11
625.1234732114
 21
-534.0391017449
 31
0.0
  0
LWPOLYLINE
  5
11B
330
1F
100
AcDbEntity
  8
0
  6
Continuous
 62
     7
370
    25
100
AcDbPolyline
 90
       21
 70
   128
 43
0.0
 10
632.654160431
 20
-60.5391017449
 10
632.5278402484
 20
-59.4111897155
 10
632.1612448
 20
-58.3936855741
 10
631.5902590026
 20
-57.5861897155
 10
630.8707749243
 20
-57.0677454605
 10
630.0732206797
 20
-56.8891017449
 10
629.2756664351
 20
-57.0677454605
 10
628.5561823568
 20
-57.5861897155
 10
627.9851965594
 20
-58.3936855741
 10
627.618601111
 20
-59.4111897155
 10
627.4922809284
 20
-60.5391017449
 10
627.618601111
 20
-61.6670137744
 10
627.9851965594
 20
-62.6845179158
 10
628.5561823568
 20
-63.4920137744
 10
629.2756664351
 20
-64.0104580294
 10
630.0732206797
 20
-64.1891017449
 10
630.8707749243
 20
-64.0104580294
 10
631.5902590026
 20
-63.4920137744
 10
632.1612448
 20
-62.6845179158
 10
632.5278402484
 20
-61.6670137744
 10
632.654160431
 20
-60.5391017449
  0
LWPOLYLINE
  5
11C
330
1F
100
AcDbEntity
  8
0
  6
Continuous
 62
     7
370
    25
100
AcDbPolyline
 90
       21
 70
   128
 43
0.0
 10
632.654160431
 20
-30.5391017449
 10
632.5278402484
 20
-29.4111897155
 10
632.1612448
 20
-28.3936855741
 10
631.5902590026
 20
-27.5861897155
 10
630.8707749243
 20
-27.0677454605
 10
630.0732206797
 20
-26.8891017449
 10
629.2756664351
 20
-27.0677454605
 10
628.5561823568
 20
-27.5861897155
 10
627.9851965594
 20
-28.3936855741
 10
627.618601111
 20
-29.4111897155
 10
627.4922809284
 20
-30.5391017449
 10
627.618601111
 20
-31.6670137744
 10
627.9851965594
 20
-32.6845179158
 10
628.5561823568
 20
-33.4920137744
 10
629.2756664351
 20
-34.0104580294
 10
630.0732206797
 20
-34.1891017449
 10
630.8707749243
 20
-34.0104580294
 10
631.5902590026
 20
-33.4920137744
 10
632.1612448
 20
-32.6845179158
 10
632.5278402484
 20
-31.6670137744
 10
632.654160431
 20
-30.5391017449
  0
LWPOLYLINE
  5
11D
330
1F
100
AcDbEntity
  8
0
  6
Continuous
 62
     7
370
    25
100
AcDbPolyline
 90
       21
 70
   128
 43
0.0
 10
632.654160431
 20
-288.5391017449
 10
632.5278402484
 20
-287.4111897155
 10
632.1612448
 20
-286.3936855741
 10
631.5902590026
 20
-285.5861897155
 10
630.8707749243
 20
-285.0677454605
 10
630.0732206797
 20
-284.8891017449
 10
629.2756664351
 20
-285.0677454605
 10
628.5561823568
 20
-285.5861897155
 10
627.9851965594
 20
-286.3936855741
 10
627.618601111
 20
-287.4111897155
 10
627.4922809284
 20
-288.5391017449
 10
627.618601111
 20
-289.6670137744
 10
627.9851965594
 20
-290.6845179158
 10
628.5561823568
 20
-291.4920137744
 10
629.2756664351
 20
-292.0104580294
 10
630.0732206797
 20
-292.1891017449
 10
630.8707749243
 20
-292.0104580294
 10
631.5902590026
 20
-291.4920137744
 10
632.1612448
 20
-290.6845179158
 10
632.5278402484
 20
-289.6670137744
 10
632.654160431
 20
-288.5391017449
  0
LWPOLYLINE
  5
11E
330
1F
100
AcDbEntity
  8
0
  6
Continuous
 62
     7
370
    25
100
AcDbPolyline
 90
       21
 70
   128
 43
0.0
 10
632.654160431
 20
-508.5391017449
 10
632.5278402484
 20
-507.4111897155
 10
632.1612448
 20
-506.3936855741
 10
631.5902590026
 20
-505.5861897155
 10
630.8707749243
 20
-505.0677454605
 10
630.0732206797
 20
-504.8891017449
 10
629.2756664351
 20
-505.0677454605
 10
628.5561823568
 20
-505.5861897155
 10
627.9851965594
 20
-506.3936855741
 10
627.618601111
 20
-507.4111897155
 10
627.4922809284
 20
-508.5391017449
 10
627.618601111
 20
-509.6670137744
 10
627.9851965594
 20
-510.6845179158
 10
628.5561823568
 20
-511.4920137744
 10
629.2756664351
 20
-512.0104580294
 10
630.0732206797
 20
-512.1891017449
 10
630.8707749243
 20
-512.0104580294
 10
631.5902590026
 20
-511.4920137744
 10
632.1612448
 20
-510.6845179158
 10
632.5278402484
 20
-509.6670137744
 10
632.654160431
 20
-508.5391017449
  0
LINE
  5
11F
330
1F
100
AcDbEntity
  8
0
  6
Continuous
 62
     7
370
    25
100
AcDbLine
 10
635.8070301914
 20
-535.0391017449
 30
0.0
 11
625.8305799926
 21
-535.0391017449
 31
0.0
  0
LINE
  5
120
330
1F
100
AcDbEntity
  8
0
  6
Continuous
 62
     7
370
    25
100
AcDbLine
 10
625.8305799926
 20
-2.0391017449
 30
0.0
 11
635.8070301914
 21
-2.0391017449
 31
0.0
  0
ARC
  5
121
330
1F
100
AcDbEntity
  8
0
  6
Continuous
 62
     7
370
    25
100
AcDbCircle
 10
626.0073566879
 20
-588.9141017449
 30
0.0
 40
0.892678553568004
100
AcDbArc
 50
101.421753659
 51
188.0494669755
  0
LINE
  5
122
330
1F
100
AcDbEntity
  8
0
  6
Continuous
 62
     7
370
    25
100
AcDbLine
 10
635.8070301914
 20
-683.5391017449
 30
0.0
 11
625.8305799926
 21
-683.5391017449
 31
0.0
  0
ARC
  5
123
330
1F
100
AcDbEntity
  8
0
  6
Continuous
 62
     7
370
    25
100
AcDbCircle
 10
626.0073566879
 20
-682.6641017449
 30
0.0
 40
0.8926785535678755
100
AcDbArc
 50
171.9505330245
 51
258.578246341
  0
LINE
  5
124
330
1F
100
AcDbEntity
  8
0
  6
Continuous
 62
     7
370
    25
100
AcDbLine
 10
625.1234732114
 20
-589.0391017449
 30
0.0
 11
625.1234732114
 21
-682.5391017449
 31
0.0
  0
LWPOLYLINE
  5
125
330
1F
100
AcDbEntity
  8
0
  6
Continuous
 62
     7
370
    25
100
AcDbPolyline
 90
       21
 70
   128
 43
0.0
 10
632.654160431
 20
-646.5391017449
 10
632.5278402484
 20
-645.4111897155
 10
632.1612448
 20
-644.3936855741
 10
631.5902590026
 20
-643.5861897155
 10
630.8707749243
 20
-643.0677454605
 10
630.0732206797
 20
-642.8891017449
 10
629.2756664351
 20
-643.0677454605
 10
628.5561823568
 20
-643.5861897155
 10
627.9851965594
 20
-644.3936855741
 10
627.618601111
 20
-645.4111897155
 10
627.4922809284
 20
-646.5391017449
 10
627.618601111
 20
-647.6670137744
 10
627.9851965594
 20
-648.6845179158
 10
628.5561823568
 20
-649.4920137744
 10
629.2756664351
 20
-650.0104580294
 10
630.0732206797
 20
-650.1891017449
 10
630.8707749243
 20
-650.0104580294
 10
631.5902590026
 20
-649.4920137744
 10
632.1612448
 20
-648.6845179158
 10
632.5278402484
 20
-647.6670137744
 10
632.654160431
 20
-646.5391017449
  0
LWPOLYLINE
  5
126
330
1F
100
AcDbEntity
  8
0
  6
Continuous
 62
     7
370
    25
100
AcDbPolyline
 90
       21
 70
   128
 43
0.0
 10
632.654160431
 20
-616.5391017449
 10
632.5278402484
 20
-615.4111897155
 10
632.1612448
 20
-614.3936855741
 10
631.5902590026
 20
-613.5861897155
 10
630.8707749243
 20
-613.0677454605
 10
630.0732206797
 20
-612.8891017449
 10
629.2756664351
 20
-613.0677454605
 10
628.5561823568
 20
-613.5861897155
 10
627.9851965594
 20
-614.3936855741
 10
627.618601111
 20
-615.4111897155
 10
627.4922809284
 20
-616.5391017449
 10
627.618601111
 20
-617.6670137744
 10
627.9851965594
 20
-618.6845179158
 10
628.5561823568
 20
-619.4920137744
 10
629.2756664351
 20
-620.0104580294
 10
630.0732206797
 20
-620.1891017449
 10
630.8707749243
 20
-620.0104580294
 10
631.5902590026
 20
-619.4920137744
 10
632.1612448
 20
-618.6845179158
 10
632.5278402484
 20
-617.6670137744
 10
632.654160431
 20
-616.5391017449
  0
LINE
  5
127
330
1F
100
AcDbEntity
  8
0
  6
Continuous
 62
     7
370
    25
100
AcDbLine
 10
625.8305799926
 20
-588.0391017449
 30
0.0
 11
635.8070301914
 21
-588.0391017449
 31
0.0
  0
ARC
  5
128
330
1F
100
AcDbEntity
  8
0
  6
Continuous
 62
     7
370
    25
100
AcDbCircle
 10
626.0073566879
 20
1177.5858982551
 30
0.0
 40
0.8926785535677721
100
AcDbArc
 50
101.4217536589
 51
188.0494669755
  0
LINE
  5
129
330
1F
100
AcDbEntity
  8
0
  6
Continuous
 62
     7
370
    25
100
AcDbLine
 10
635.8070301914
 20
1178.4608982551
 30
0.0
 11
625.8305799926
 21
1178.4608982551
 31
0.0
  0
ARC
  5
12A
330
1F
100
AcDbEntity
  8
0
  6
Continuous
 62
     7
370
    25
100
AcDbCircle
 10
626.0073566879
 20
1083.8358982551
 30
0.0
 40
0.8926785535675538
100
AcDbArc
 50
171.9505330245
 51
258.5782463411
  0
LINE
  5
12B
330
1F
100
AcDbEntity
  8
0
  6
Continuous
 62
     7
370
    25
100
AcDbLine
 10
625.1234732114
 20
1177.4608982551
 30
0.0
 11
625.1234732114
 21
1083.9608982551
 31
0.0
  0
LWPOLYLINE
  5
12C
330
1F
100
AcDbEntity
  8
0
  6
Continuous
 62
     7
370
    25
100
AcDbPolyline
 90
       21
 70
   128
 43
0.0
 10
632.654160431
 20
1111.4608982551
 10
632.5278402484
 20
1112.5888102845
 10
632.1612448
 20
1113.6063144259
 10
631.5902590026
 20
1114.4138102845
 10
630.8707749243
 20
1114.9322545395
 10
630.0732206797
 20
1115.1108982551
 10
629.2756664351
 20
1114.9322545395
 10
628.5561823568
 20
1114.4138102845
 10
627.9851965594
 20
1113.6063144259
 10
627.618601111
 20
1112.5888102845
 10
627.4922809284
 20
1111.4608982551
 10
627.618601111
 20
1110.3329862256
 10
627.9851965594
 20
1109.3154820842
 10
628.5561823568
 20
1108.5079862256
 10
629.2756664351
 20
1107.9895419706
 10
630.0732206797
 20
1107.8108982551
 10
630.8707749243
 20
1107.9895419706
 10
631.5902590026
 20
1108.5079862256
 10
632.1612448
 20
1109.3154820842
 10
632.5278402484
 20
1110.3329862256
 10
632.654160431
 20
1111.4608982551
  0
LWPOLYLINE
  5
12D
330
1F
100
AcDbEntity
  8
0
  6
Continuous
 62
     7
370
    25
100
AcDbPolyline
 90
       21
 70
   128
 43
0.0
 10
632.654160431
 20
1141.4608982551
 10
632.5278402484
 20
1142.5888102845
 10
632.1612448
 20
1143.6063144259
 10
631.5902590026
 20
1144.4138102845
 10
630.8707749243
 20
1144.9322545395
 10
630.0732206797
 20
1145.1108982551
 10
629.2756664351
 20
1144.9322545395
 10
628.5561823568
 20
1144.4138102845
 10
627.9851965594
 20
1143.6063144259
 10
627.618601111
 20
1142.5888102845
 10
627.4922809284
 20
1141.4608982551
 10
627.618601111
 20
1140.3329862256
 10
627.9851965594
 20
1139.3154820842
 10
628.5561823568
 20
1138.5079862256
 10
629.2756664351
 20
1137.9895419706
 10
630.0732206797
 20
1137.8108982551
 10
630.8707749243
 20
1137.9895419706
 10
631.5902590026
 20
1138.5079862256
 10
632.1612448
 20
1139.3154820842
 10
632.5278402484
 20
1140.3329862256
 10
632.654160431
 20
1141.4608982551
  0
LINE
  5
12E
330
1F
100
AcDbEntity
  8
0
  6
Continuous
 62
     7
370
    25
100
AcDbLine
 10
635.8070301914
 20
1082.9608982551
 30
0.0
 11
625.8305799926
 21
1082.9608982551
 31
0.0
  0
ARC
  5
12F
330
1F
100
AcDbEntity
  8
0
  6
Continuous
 62
     7
370
    25
100
AcDbCircle
 10
626.0073566879
 20
443.0858982551
 30
0.0
 40
0.8926785535678954
100
AcDbArc
 50
101.421753659
 51
188.0494669755
  0
ARC
  5
130
330
1F
100
AcDbEntity
  8
0
  6
Continuous
 62
     7
370
    25
100
AcDbCircle
 10
626.0073566879
 20
51.8358982551
 30
0.0
 40
0.8926785535678884
100
AcDbArc
 50
171.9505330245
 51
258.578246341
  0
LINE
  5
131
330
1F
100
AcDbEntity
  8
0
  6
Continuous
 62
     7
370
    25
100
AcDbLine
 10
625.1234732114
 20
442.9608982551
 30
0.0
 11
625.1234732114
 21
51.9608982551
 31
0.0
  0
LWPOLYLINE
  5
132
330
1F
100
AcDbEntity
  8
0
  6
Continuous
 62
     7
370
    25
100
AcDbPolyline
 90
       21
 70
   128
 43
0.0
 10
632.654160431
 20
427.4608982551
 10
632.5278402484
 20
428.5888102845
 10
632.1612448
 20
429.6063144259
 10
631.5902590026
 20
430.4138102845
 10
630.8707749243
 20
430.9322545395
 10
630.0732206797
 20
431.1108982551
 10
629.2756664351
 20
430.9322545395
 10
628.5561823568
 20
430.4138102845
 10
627.9851965594
 20
429.6063144259
 10
627.618601111
 20
428.5888102845
 10
627.4922809284
 20
427.4608982551
 10
627.618601111
 20
426.3329862256
 10
627.9851965594
 20
425.3154820842
 10
628.5561823568
 20
424.5079862256
 10
629.2756664351
 20
423.9895419706
 10
630.0732206797
 20
423.8108982551
 10
630.8707749243
 20
423.9895419706
 10
631.5902590026
 20
424.5079862256
 10
632.1612448
 20
425.3154820842
 10
632.5278402484
 20
426.3329862256
 10
632.654160431
 20
427.4608982551
  0
LWPOLYLINE
  5
133
330
1F
100
AcDbEntity
  8
0
  6
Continuous
 62
     7
370
    25
100
AcDbPolyline
 90
       21
 70
   128
 43
0.0
 10
632.654160431
 20
67.4608982551
 10
632.5278402484
 20
68.5888102845
 10
632.1612448
 20
69.6063144259
 10
631.5902590026
 20
70.4138102845
 10
630.8707749243
 20
70.9322545395
 10
630.0732206797
 20
71.1108982551
 10
629.2756664351
 20
70.9322545395
 10
628.5561823568
 20
70.4138102845
 10
627.9851965594
 20
69.6063144259
 10
627.618601111
 20
68.5888102845
 10
627.4922809284
 20
67.4608982551
 10
627.618601111
 20
66.3329862256
 10
627.9851965594
 20
65.3154820842
 10
628.5561823568
 20
64.5079862256
 10
629.2756664351
 20
63.9895419706
 10
630.0732206797
 20
63.8108982551
 10
630.8707749243
 20
63.9895419706
 10
631.5902590026
 20
64.5079862256
 10
632.1612448
 20
65.3154820842
 10
632.5278402484
 20
66.3329862256
 10
632.654160431
 20
67.4608982551
  0
LWPOLYLINE
  5
134
330
1F
100
AcDbEntity
  8
0
  6
Continuous
 62
     7
370
    25
100
AcDbPolyline
 90
       21
 70
   128
 43
0.0
 10
632.654160431
 20
247.4608982551
 10
632.5278402484
 20
248.5888102845
 10
632.1612448
 20
249.6063144259
 10
631.5902590026
 20
250.4138102845
 10
630.8707749243
 20
250.9322545395
 10
630.0732206797
 20
251.1108982551
 10
629.2756664351
 20
250.9322545395
 10
628.5561823568
 20
250.4138102845
 10
627.9851965594
 20
249.6063144259
 10
627.618601111
 20
248.5888102845
 10
627.4922809284
 20
247.4608982551
 10
627.618601111
 20
246.3329862256
 10
627.9851965594
 20
245.3154820842
 10
628.5561823568
 20
244.5079862256
 10
629.2756664351
 20
243.9895419706
 10
630.0732206797
 20
243.8108982551
 10
630.8707749243
 20
243.9895419706
 10
631.5902590026
 20
244.5079862256
 10
632.1612448
 20
245.3154820842
 10
632.5278402484
 20
246.3329862256
 10
632.654160431
 20
247.4608982551
  0
LINE
  5
135
330
1F
100
AcDbEntity
  8
0
  6
Continuous
 62
     7
370
    25
100
AcDbLine
 10
625.8305799926
 20
443.9608982551
 30
0.0
 11
635.8070301914
 21
443.9608982551
 31
0.0
  0
LINE
  5
136
330
1F
100
AcDbEntity
  8
0
  6
Continuous
 62
     7
370
    25
100
AcDbLine
 10
635.8070301914
 20
50.9608982551
 30
0.0
 11
625.8305799926
 21
50.9608982551
 31
0.0
  0
LWPOLYLINE
  5
137
330
1F
100
AcDbEntity
  8
0
  6
Continuous
 62
     7
370
    25
100
AcDbPolyline
 90
       11
 70
   128
 43
0.0
 10
630.780327461
 20
-613.0287598812
 10
630.6898799974
 20
-613.0677454605
 10
629.9703959192
 20
-613.5861897155
 10
629.3994101218
 20
-614.3936855741
 10
629.0328146734
 20
-615.4111897155
 10
628.9064944907
 20
-616.5391017449
 10
629.0328146734
 20
-617.6670137744
 10
629.3994101218
 20
-618.6845179158
 10
629.9703959192
 20
-619.4920137744
 10
630.6898799974
 20
-620.0104580294
 10
630.780327461
 20
-620.0494436087
  0
LWPOLYLINE
  5
138
330
1F
100
AcDbEntity
  8
0
  6
Continuous
 62
     7
370
    25
100
AcDbPolyline
 90
       11
 70
   128
 43
0.0
 10
630.7803274612
 20
-643.0287598811
 10
630.6898799974
 20
-643.0677454605
 10
629.9703959192
 20
-643.5861897155
 10
629.3994101218
 20
-644.3936855741
 10
629.0328146734
 20
-645.4111897155
 10
628.9064944907
 20
-646.5391017449
 10
629.0328146734
 20
-647.6670137744
 10
629.3994101218
 20
-648.6845179158
 10
629.9703959192
 20
-649.4920137744
 10
630.6898799974
 20
-650.0104580294
 10
630.7803274612
 20
-650.0494436088
  0
LWPOLYLINE
  5
139
330
1F
100
AcDbEntity
  8
0
  6
Continuous
 62
     7
370
    25
100
AcDbPolyline
 90
       11
 70
   128
 43
0.0
 10
630.7803274608
 20
-505.0287598813
 10
630.6898799974
 20
-505.0677454605
 10
629.9703959192
 20
-505.5861897155
 10
629.3994101218
 20
-506.3936855741
 10
629.0328146734
 20
-507.4111897155
 10
628.9064944907
 20
-508.5391017449
 10
629.0328146734
 20
-509.6670137744
 10
629.3994101218
 20
-510.6845179158
 10
629.9703959192
 20
-511.4920137744
 10
630.6898799974
 20
-512.0104580294
 10
630.7803274608
 20
-512.0494436086
  0
LWPOLYLINE
  5
13A
330
1F
100
AcDbEntity
  8
0
  6
Continuous
 62
     7
370
    25
100
AcDbPolyline
 90
       11
 70
   128
 43
0.0
 10
630.7803274609
 20
-285.0287598812
 10
630.6898799974
 20
-285.0677454605
 10
629.9703959192
 20
-285.5861897155
 10
629.3994101218
 20
-286.3936855741
 10
629.0328146734
 20
-287.4111897155
 10
628.9064944907
 20
-288.5391017449
 10
629.0328146734
 20
-289.6670137744
 10
629.3994101218
 20
-290.6845179158
 10
629.9703959192
 20
-291.4920137744
 10
630.6898799974
 20
-292.0104580294
 10
630.7803274609
 20
-292.0494436086
  0
LWPOLYLINE
  5
13B
330
1F
100
AcDbEntity
  8
0
  6
Continuous
 62
     7
370
    25
100
AcDbPolyline
 90
       11
 70
   128
 43
0.0
 10
630.7803274609
 20
-27.0287598812
 10
630.6898799974
 20
-27.0677454605
 10
629.9703959192
 20
-27.5861897155
 10
629.3994101218
 20
-28.3936855741
 10
629.0328146734
 20
-29.4111897155
 10
628.9064944907
 20
-30.5391017449
 10
629.0328146734
 20
-31.6670137744
 10
629.3994101218
 20
-32.6845179158
 10
629.9703959192
 20
-33.4920137744
 10
630.6898799974
 20
-34.0104580294
 10
630.7803274609
 20
-34.0494436086
  0
LWPOLYLINE
  5
13C
330
1F
100
AcDbEntity
  8
0
  6
Continuous
 62
     7
370
    25
100
AcDbPolyline
 90
       11
 70
   128
 43
0.0
 10
630.7803274608
 20
-57.0287598813
 10
630.6898799974
 20
-57.0677454605
 10
629.9703959192
 20
-57.5861897155
 10
629.3994101218
 20
-58.3936855741
 10
629.0328146734
 20
-59.4111897155
 10
628.9064944907
 20
-60.5391017449
 10
629.0328146734
 20
-61.6670137744
 10
629.3994101218
 20
-62.6845179158
 10
629.9703959192
 20
-63.4920137744
 10
630.6898799974
 20
-64.0104580294
 10
630.7803274608
 20
-64.0494436086
  0
LWPOLYLINE
  5
13D
330
1F
100
AcDbEntity
  8
0
  6
Continuous
 62
     7
370
    25
100
AcDbPolyline
 90
       11
 70
   128
 43
0.0
 10
630.7803274609
 20
70.9712401188
 10
630.6898799974
 20
70.9322545395
 10
629.9703959192
 20
70.4138102845
 10
629.3994101218
 20
69.6063144259
 10
629.0328146734
 20
68.5888102845
 10
628.9064944907
 20
67.4608982551
 10
629.0328146734
 20
66.3329862256
 10
629.3994101218
 20
65.3154820842
 10
629.9703959192
 20
64.5079862256
 10
630.6898799974
 20
63.9895419706
 10
630.7803274609
 20
63.9505563914
  0
LWPOLYLINE
  5
13E
330
1F
100
AcDbEntity
  8
0
  6
Continuous
 62
     7
370
    25
100
AcDbPolyline
 90
       11
 70
   128
 43
0.0
 10
630.7803274609
 20
430.9712401188
 10
630.6898799974
 20
430.9322545395
 10
629.9703959192
 20
430.4138102845
 10
629.3994101218
 20
429.6063144259
 10
629.0328146734
 20
428.5888102845
 10
628.9064944907
 20
427.4608982551
 10
629.0328146734
 20
426.3329862256
 10
629.3994101218
 20
425.3154820842
 10
629.9703959192
 20
424.5079862256
 10
630.6898799974
 20
423.9895419706
 10
630.7803274609
 20
423.9505563914
  0
LWPOLYLINE
  5
13F
330
1F
100
AcDbEntity
  8
0
  6
Continuous
 62
     7
370
    25
100
AcDbPolyline
 90
       11
 70
   128
 43
0.0
 10
630.7803274609
 20
558.9712401188
 10
630.6898799974
 20
558.9322545395
 10
629.9703959192
 20
558.4138102845
 10
629.3994101218
 20
557.6063144259
 10
629.0328146734
 20
556.5888102845
 10
628.9064944907
 20
555.4608982551
 10
629.0328146734
 20
554.3329862256
 10
629.3994101218
 20
553.3154820842
 10
629.9703959192
 20
552.5079862256
 10
630.6898799974
 20
551.9895419706
 10
630.7803274609
 20
551.9505563914
  0
LWPOLYLINE
  5
140
330
1F
100
AcDbEntity
  8
0
  6
Continuous
 62
     7
370
    25
100
AcDbPolyline
 90
       11
 70
   128
 43
0.0
 10
630.7803274609
 20
528.9712401188
 10
630.6898799974
 20
528.9322545395
 10
629.9703959192
 20
528.4138102845
 10
629.3994101218
 20
527.6063144259
 10
629.0328146734
 20
526.5888102845
 10
628.9064944907
 20
525.4608982551
 10
629.0328146734
 20
524.3329862256
 10
629.3994101218
 20
523.3154820842
 10
629.9703959192
 20
522.5079862256
 10
630.6898799974
 20
521.9895419706
 10
630.7803274609
 20
521.9505563914
  0
LWPOLYLINE
  5
141
330
1F
100
AcDbEntity
  8
0
  6
Continuous
 62
     7
370
    25
100
AcDbPolyline
 90
       11
 70
   128
 43
0.0
 10
630.7803274607
 20
786.9712401187
 10
630.6898799974
 20
786.9322545395
 10
629.9703959192
 20
786.4138102845
 10
629.3994101218
 20
785.6063144259
 10
629.0328146734
 20
784.5888102845
 10
628.9064944907
 20
783.4608982551
 10
629.0328146734
 20
782.3329862256
 10
629.3994101218
 20
781.3154820842
 10
629.9703959192
 20
780.5079862256
 10
630.6898799974
 20
779.9895419706
 10
630.7803274607
 20
779.9505563914
  0
LWPOLYLINE
  5
142
330
1F
100
AcDbEntity
  8
0
  6
Continuous
 62
     7
370
    25
100
AcDbPolyline
 90
       11
 70
   128
 43
0.0
 10
630.7803274609
 20
250.9712401188
 10
630.6898799974
 20
250.9322545395
 10
629.9703959192
 20
250.4138102845
 10
629.3994101218
 20
249.6063144259
 10
629.0328146734
 20
248.5888102845
 10
628.9064944907
 20
247.4608982551
 10
629.0328146734
 20
246.3329862256
 10
629.3994101218
 20
245.3154820842
 10
629.9703959192
 20
244.5079862256
 10
630.6898799974
 20
243.9895419706
 10
630.7803274609
 20
243.9505563914
  0
LWPOLYLINE
  5
143
330
1F
100
AcDbEntity
  8
0
  6
Continuous
 62
     7
370
    25
100
AcDbPolyline
 90
       11
 70
   128
 43
0.0
 10
630.7803274606
 20
1006.9712401187
 10
630.6898799974
 20
1006.9322545395
 10
629.9703959192
 20
1006.4138102845
 10
629.3994101218
 20
1005.6063144259
 10
629.0328146734
 20
1004.5888102845
 10
628.9064944907
 20
1003.4608982551
 10
629.0328146734
 20
1002.3329862256
 10
629.3994101218
 20
1001.3154820842
 10
629.9703959192
 20
1000.5079862256
 10
630.6898799974
 20
999.9895419706
 10
630.7803274606
 20
999.9505563915
  0
LWPOLYLINE
  5
144
330
1F
100
AcDbEntity
  8
0
  6
Continuous
 62
     7
370
    25
100
AcDbPolyline
 90
       11
 70
   128
 43
0.0
 10
630.7803274611
 20
1114.9712401189
 10
630.6898799974
 20
1114.9322545395
 10
629.9703959192
 20
1114.4138102845
 10
629.3994101218
 20
1113.6063144259
 10
629.0328146734
 20
1112.5888102845
 10
628.9064944907
 20
1111.4608982551
 10
629.0328146734
 20
1110.3329862256
 10
629.3994101218
 20
1109.3154820842
 10
629.9703959192
 20
1108.5079862256
 10
630.6898799974
 20
1107.9895419706
 10
630.7803274611
 20
1107.9505563913
  0
LWPOLYLINE
  5
145
330
1F
100
AcDbEntity
  8
0
  6
Continuous
 62
     7
370
    25
100
AcDbPolyline
 90
       11
 70
   128
 43
0.0
 10
630.7803274602
 20
1144.9712401185
 10
630.6898799974
 20
1144.9322545395
 10
629.9703959192
 20
1144.4138102845
 10
629.3994101218
 20
1143.6063144259
 10
629.0328146734
 20
1142.5888102845
 10
628.9064944907
 20
1141.4608982551
 10
629.0328146734
 20
1140.3329862256
 10
629.3994101218
 20
1139.3154820842
 10
629.9703959192
 20
1138.5079862256
 10
630.6898799974
 20
1137.9895419706
 10
630.7803274602
 20
1137.9505563916
  0
LINE
  5
146
330
1F
100
AcDbEntity
  8
0
  6
Continuous
 62
     7
370
    25
100
AcDbLine
 10
411.6518896189
 20
1234.9646939403
 30
0.0
 11
421.6283398176
 21
1224.9882437415
 31
0.0
  0
LINE
  5
147
330
1F
100
AcDbEntity
  8
0
  6
Continuous
 62
     7
370
    25
100
AcDbLine
 10
410.2376760565
 20
1233.5504803779
 30
0.0
 11
420.2141262553
 21
1223.5740301791
 31
0.0
  0
LINE
  5
148
330
1F
100
AcDbEntity
  8
0
  6
Continuous
 62
     7
370
    25
100
AcDbLine
 10
419.7920916442
 20
1239.6960647902
 30
0.0
 11
420.7920916442
 21
1239.6960647902
 31
0.0
  0
LINE
  5
149
330
1F
100
AcDbEntity
  8
0
  6
Continuous
 62
     7
370
    25
100
AcDbLine
 10
420.7920916442
 20
1239.6960647902
 30
0.0
 11
420.7920916442
 21
1237.6960647902
 31
0.0
  0
LINE
  5
14A
330
1F
100
AcDbEntity
  8
0
  6
Continuous
 62
     7
370
    25
100
AcDbLine
 10
420.7920916442
 20
1237.6960647902
 30
0.0
 11
419.7920916442
 21
1237.6960647902
 31
0.0
  0
LINE
  5
14B
330
1F
100
AcDbEntity
  8
0
  6
Continuous
 62
     7
370
    25
100
AcDbLine
 10
419.7920916442
 20
1239.6960647902
 30
0.0
 11
412.7832604688
 21
1239.6960647902
 31
0.0
  0
LINE
  5
14C
330
1F
100
AcDbEntity
  8
0
  6
Continuous
 62
     7
370
    25
100
AcDbLine
 10
419.7920916442
 20
1237.6960647902
 30
0.0
 11
412.7832604688
 21
1237.6960647902
 31
0.0
  0
ARC
  5
14D
330
1F
100
AcDbEntity
  8
0
  6
Continuous
 62
     7
370
    25
100
AcDbCircle
 10
412.7832604688
 20
1236.0960647902
 30
0.0
 40
1.599999999999997
100
AcDbArc
 50
90.0
 51
225.0
  0
ARC
  5
14E
330
1F
100
AcDbEntity
  8
0
  6
Continuous
 62
     7
370
    25
100
AcDbCircle
 10
412.7832604688
 20
1236.0960647902
 30
0.0
 40
3.600000000000013
100
AcDbArc
 50
90.0
 51
225.0
  0
LINE
  5
14F
330
1F
100
AcDbEntity
  8
0
  6
Continuous
 62
     7
370
    25
100
AcDbLine
 10
422.3354465988
 20
1224.2811369603
 30
0.0
 11
420.9212330365
 21
1222.8669233979
 31
0.0
  0
LINE
  5
150
330
1F
100
AcDbEntity
  8
0
  6
Continuous
 62
     7
370
    25
100
AcDbLine
 10
421.6283398176
 20
1224.9882437415
 30
0.0
 11
422.3354465988
 21
1224.2811369603
 31
0.0
  0
LINE
  5
151
330
1F
100
AcDbEntity
  8
0
  6
Continuous
 62
     7
370
    25
100
AcDbLine
 10
420.9212330365
 20
1222.8669233979
 30
0.0
 11
420.2141262553
 21
1223.5740301791
 31
0.0
  0
LINE
  5
152
330
1F
100
AcDbEntity
  8
0
  6
Continuous
 62
     7
370
    25
100
AcDbLine
 10
420.7920916442
 20
-741.9992004248
 30
0.0
 11
420.7920916442
 21
-743.9992004248
 31
0.0
  0
LINE
  5
153
330
1F
100
AcDbEntity
  8
0
  6
Continuous
 62
     7
370
    25
100
AcDbLine
 10
420.7920916442
 20
-743.9992004248
 30
0.0
 11
419.7920916442
 21
-743.9992004248
 31
0.0
  0
LINE
  5
154
330
1F
100
AcDbEntity
  8
0
  6
Continuous
 62
     7
370
    25
100
AcDbLine
 10
419.7920916442
 20
-741.9992004248
 30
0.0
 11
420.7920916442
 21
-741.9992004248
 31
0.0
  0
LINE
  5
155
330
1F
100
AcDbEntity
  8
0
  6
Continuous
 62
     7
370
    25
100
AcDbLine
 10
419.7920916442
 20
-741.9992004248
 30
0.0
 11
412.7832604688
 21
-741.9992004248
 31
0.0
  0
LINE
  5
156
330
1F
100
AcDbEntity
  8
0
  6
Continuous
 62
     7
370
    25
100
AcDbLine
 10
419.7920916442
 20
-743.9992004248
 30
0.0
 11
412.7832604688
 21
-743.9992004248
 31
0.0
  0
ARC
  5
157
330
1F
100
AcDbEntity
  8
0
  6
Continuous
 62
     7
370
    25
100
AcDbCircle
 10
412.7832604688
 20
-740.3992004248
 30
0.0
 40
1.599999999999997
100
AcDbArc
 50
135.0
 51
270.0
  0
ARC
  5
158
330
1F
100
AcDbEntity
  8
0
  6
Continuous
 62
     7
370
    25
100
AcDbCircle
 10
412.7832604688
 20
-740.3992004248
 30
0.0
 40
3.600000000000013
100
AcDbArc
 50
135.0
 51
270.0
  0
LINE
  5
159
330
1F
100
AcDbEntity
  8
0
  6
Continuous
 62
     7
370
    25
100
AcDbLine
 10
420.9212330365
 20
-727.1700590326
 30
0.0
 11
422.3354465988
 21
-728.5842725949
 31
0.0
  0
LINE
  5
15A
330
1F
100
AcDbEntity
  8
0
  6
Continuous
 62
     7
370
    25
100
AcDbLine
 10
420.2141262553
 20
-727.8771658138
 30
0.0
 11
420.9212330365
 21
-727.1700590326
 31
0.0
  0
LINE
  5
15B
330
1F
100
AcDbEntity
  8
0
  6
Continuous
 62
     7
370
    25
100
AcDbLine
 10
422.3354465988
 20
-728.5842725949
 30
0.0
 11
421.6283398176
 21
-729.2913793761
 31
0.0
  0
LINE
  5
15C
330
1F
100
AcDbEntity
  8
0
  6
Continuous
 62
     7
370
    25
100
AcDbLine
 10
410.2376760565
 20
-737.8536160125
 30
0.0
 11
420.2141262553
 21
-727.8771658138
 31
0.0
  0
LINE
  5
15D
330
1F
100
AcDbEntity
  8
0
  6
Continuous
 62
     7
370
    25
100
AcDbLine
 10
411.6518896189
 20
-739.2678295749
 30
0.0
 11
421.6283398176
 21
-729.2913793761
 31
0.0
  0
LINE
  5
15E
330
1F
100
AcDbEntity
  8
0
  6
Continuous
 62
     7
370
    25
100
AcDbLine
 10
251.7648392744
 20
-683.5391017449
 30
0.0
 11
250.350625712
 21
-683.5391017449
 31
0.0
  0
ARC
  5
15F
330
1F
100
AcDbEntity
  8
0
  6
Continuous
 62
     7
370
    25
100
AcDbCircle
 10
250.1738490167
 20
-682.6641017449
 30
0.0
 40
0.8926785535677789
100
AcDbArc
 50
281.421753659
 51
8.0494669755
  0
ARC
  5
160
330
1F
100
AcDbEntity
  8
0
  6
Continuous
 62
     7
370
    25
100
AcDbCircle
 10
251.5880625791
 20
-682.6641017449
 30
0.0
 40
0.8926785535676822
100
AcDbArc
 50
281.421753659
 51
8.0494669755
  0
LINE
  5
161
330
1F
100
AcDbEntity
  8
0
  6
Continuous
 62
     7
370
    25
100
AcDbLine
 10
250.350625712
 20
1029.9608982551
 30
0.0
 11
251.7648392744
 21
1029.9608982551
 31
0.0
  0
ARC
  5
162
330
1F
100
AcDbEntity
  8
0
  6
Continuous
 62
     7
370
    25
100
AcDbCircle
 10
251.5880625791
 20
1029.0858982551
 30
0.0
 40
0.8926785535681244
100
AcDbArc
 50
351.9505330245
 51
78.578246341
  0
ARC
  5
163
330
1F
100
AcDbEntity
  8
0
  6
Continuous
 62
     7
370
    25
100
AcDbCircle
 10
250.1738490167
 20
1029.0858982551
 30
0.0
 40
0.8926785535681244
100
AcDbArc
 50
351.9505330245
 51
78.578246341
  0
ARC
  5
164
330
1F
100
AcDbEntity
  8
0
  6
Continuous
 62
     7
370
    25
100
AcDbCircle
 10
251.5880625791
 20
-534.1641017449
 30
0.0
 40
0.892678553567968
100
AcDbArc
 50
281.421753659
 51
8.0494669755
  0
LINE
  5
165
330
1F
100
AcDbEntity
  8
0
  6
Continuous
 62
     7
370
    25
100
AcDbLine
 10
251.7648392744
 20
-535.0391017449
 30
0.0
 11
250.350625712
 21
-535.0391017449
 31
0.0
  0
ARC
  5
166
330
1F
100
AcDbEntity
  8
0
  6
Continuous
 62
     7
370
    25
100
AcDbCircle
 10
250.1738490167
 20
-534.1641017449
 30
0.0
 40
0.8926785535681244
100
AcDbArc
 50
281.421753659
 51
8.0494669755
  0
ARC
  5
167
330
1F
100
AcDbEntity
  8
0
  6
Continuous
 62
     7
370
    25
100
AcDbCircle
 10
251.5880625791
 20
51.8358982551
 30
0.0
 40
0.8926785535678984
100
AcDbArc
 50
281.421753659
 51
8.0494669755
  0
LINE
  5
168
330
1F
100
AcDbEntity
  8
0
  6
Continuous
 62
     7
370
    25
100
AcDbLine
 10
251.7648392744
 20
50.9608982551
 30
0.0
 11
250.350625712
 21
50.9608982551
 31
0.0
  0
ARC
  5
169
330
1F
100
AcDbEntity
  8
0
  6
Continuous
 62
     7
370
    25
100
AcDbCircle
 10
250.1738490167
 20
51.8358982551
 30
0.0
 40
0.8926785535679835
100
AcDbArc
 50
281.421753659
 51
8.0494669755
  0
ARC
  5
16A
330
1F
100
AcDbEntity
  8
0
  6
Continuous
 62
     7
370
    25
100
AcDbCircle
 10
251.5880625791
 20
497.8358982551
 30
0.0
 40
0.8926785535677789
100
AcDbArc
 50
281.421753659
 51
8.0494669755
  0
LINE
  5
16B
330
1F
100
AcDbEntity
  8
0
  6
Continuous
 62
     7
370
    25
100
AcDbLine
 10
251.7648392744
 20
496.9608982551
 30
0.0
 11
250.350625712
 21
496.9608982551
 31
0.0
  0
ARC
  5
16C
330
1F
100
AcDbEntity
  8
0
  6
Continuous
 62
     7
370
    25
100
AcDbCircle
 10
250.1738490167
 20
497.8358982551
 30
0.0
 40
0.8926785535680848
100
AcDbArc
 50
281.421753659
 51
8.0494669755
  0
ARC
  5
16D
330
1F
100
AcDbEntity
  8
0
  6
Continuous
 62
     7
370
    25
100
AcDbCircle
 10
250.1738490167
 20
1177.5858982551
 30
0.0
 40
0.8926785535675661
100
AcDbArc
 50
351.9505330245
 51
78.5782463411
  0
LINE
  5
16E
330
1F
100
AcDbEntity
  8
0
  6
Continuous
 62
     7
370
    25
100
AcDbLine
 10
250.350625712
 20
1178.4608982551
 30
0.0
 11
251.7648392744
 21
1178.4608982551
 31
0.0
  0
ARC
  5
16F
330
1F
100
AcDbEntity
  8
0
  6
Continuous
 62
     7
370
    25
100
AcDbCircle
 10
251.5880625791
 20
1177.5858982551
 30
0.0
 40
0.8926785535675819
100
AcDbArc
 50
351.9505330245
 51
78.5782463411
  0
ARC
  5
170
330
1F
100
AcDbEntity
  8
0
  6
Continuous
 62
     7
370
    25
100
AcDbCircle
 10
251.5880625791
 20
1083.8358982551
 30
0.0
 40
0.8926785535676663
100
AcDbArc
 50
281.421753659
 51
8.0494669755
  0
LINE
  5
171
330
1F
100
AcDbEntity
  8
0
  6
Continuous
 62
     7
370
    25
100
AcDbLine
 10
251.7648392744
 20
1082.9608982551
 30
0.0
 11
250.350625712
 21
1082.9608982551
 31
0.0
  0
ARC
  5
172
330
1F
100
AcDbEntity
  8
0
  6
Continuous
 62
     7
370
    25
100
AcDbCircle
 10
250.1738490167
 20
1083.8358982551
 30
0.0
 40
0.8926785535676663
100
AcDbArc
 50
281.421753659
 51
8.0494669755
  0
LINE
  5
173
330
1F
100
AcDbEntity
  8
0
  6
Continuous
 62
     7
370
    25
100
AcDbLine
 10
250.350625712
 20
-588.0391017449
 30
0.0
 11
251.7648392744
 21
-588.0391017449
 31
0.0
  0
ARC
  5
174
330
1F
100
AcDbEntity
  8
0
  6
Continuous
 62
     7
370
    25
100
AcDbCircle
 10
251.5880625791
 20
-588.9141017449
 30
0.0
 40
0.892678553568004
100
AcDbArc
 50
351.9505330245
 51
78.578246341
  0
ARC
  5
175
330
1F
100
AcDbEntity
  8
0
  6
Continuous
 62
     7
370
    25
100
AcDbCircle
 10
250.1738490167
 20
-588.9141017449
 30
0.0
 40
0.892678553568004
100
AcDbArc
 50
351.9505330245
 51
78.578246341
  0
LINE
  5
176
330
1F
100
AcDbEntity
  8
0
  6
Continuous
 62
     7
370
    25
100
AcDbLine
 10
252.4719460556
 20
442.9608982551
 30
0.0
 11
252.4719460556
 21
51.9608982551
 31
0.0
  0
LINE
  5
177
330
1F
100
AcDbEntity
  8
0
  6
Continuous
 62
     7
370
    25
100
AcDbLine
 10
251.0577324932
 20
442.9608982551
 30
0.0
 11
251.0577324932
 21
51.9608982551
 31
0.0
  0
LINE
  5
178
330
1F
100
AcDbEntity
  8
0
  6
Continuous
 62
     7
370
    25
100
AcDbLine
 10
250.350625712
 20
-2.0391017449
 30
0.0
 11
251.7648392744
 21
-2.0391017449
 31
0.0
  0
ARC
  5
179
330
1F
100
AcDbEntity
  8
0
  6
Continuous
 62
     7
370
    25
100
AcDbCircle
 10
251.5880625791
 20
-2.9141017449
 30
0.0
 40
0.8926785535679161
100
AcDbArc
 50
351.9505330245
 51
78.578246341
  0
ARC
  5
17A
330
1F
100
AcDbEntity
  8
0
  6
Continuous
 62
     7
370
    25
100
AcDbCircle
 10
250.1738490167
 20
-2.9141017449
 30
0.0
 40
0.8926785535679533
100
AcDbArc
 50
351.9505330245
 51
78.578246341
  0
LINE
  5
17B
330
1F
100
AcDbEntity
  8
0
  6
Continuous
 62
     7
370
    25
100
AcDbLine
 10
252.4719460556
 20
-589.0391017449
 30
0.0
 11
252.4719460556
 21
-682.5391017449
 31
0.0
  0
LINE
  5
17C
330
1F
100
AcDbEntity
  8
0
  6
Continuous
 62
     7
370
    25
100
AcDbLine
 10
251.0577324932
 20
-589.0391017449
 30
0.0
 11
251.0577324932
 21
-682.5391017449
 31
0.0
  0
LINE
  5
17D
330
1F
100
AcDbEntity
  8
0
  6
Continuous
 62
     7
370
    25
100
AcDbLine
 10
252.4719460556
 20
-3.0391017449
 30
0.0
 11
252.4719460556
 21
-534.0391017449
 31
0.0
  0
LINE
  5
17E
330
1F
100
AcDbEntity
  8
0
  6
Continuous
 62
     7
370
    25
100
AcDbLine
 10
251.0577324932
 20
-3.0391017449
 30
0.0
 11
251.0577324932
 21
-534.0391017449
 31
0.0
  0
LINE
  5
17F
330
1F
100
AcDbEntity
  8
0
  6
Continuous
 62
     7
370
    25
100
AcDbLine
 10
252.4719460556
 20
1028.9608982551
 30
0.0
 11
252.4719460556
 21
497.9608982551
 31
0.0
  0
LINE
  5
180
330
1F
100
AcDbEntity
  8
0
  6
Continuous
 62
     7
370
    25
100
AcDbLine
 10
251.0577324932
 20
1028.9608982551
 30
0.0
 11
251.0577324932
 21
497.9608982551
 31
0.0
  0
LINE
  5
181
330
1F
100
AcDbEntity
  8
0
  6
Continuous
 62
     7
370
    25
100
AcDbLine
 10
250.350625712
 20
443.9608982551
 30
0.0
 11
251.7648392744
 21
443.9608982551
 31
0.0
  0
ARC
  5
182
330
1F
100
AcDbEntity
  8
0
  6
Continuous
 62
     7
370
    25
100
AcDbCircle
 10
251.5880625791
 20
443.0858982551
 30
0.0
 40
0.892678553567834
100
AcDbArc
 50
351.9505330245
 51
78.578246341
  0
ARC
  5
183
330
1F
100
AcDbEntity
  8
0
  6
Continuous
 62
     7
370
    25
100
AcDbCircle
 10
250.1738490167
 20
443.0858982551
 30
0.0
 40
0.8926785535676743
100
AcDbArc
 50
351.9505330245
 51
78.578246341
  0
LINE
  5
184
330
1F
100
AcDbEntity
  8
0
  6
Continuous
 62
     7
370
    25
100
AcDbLine
 10
252.4719460556
 20
1177.4608982551
 30
0.0
 11
252.4719460556
 21
1083.9608982551
 31
0.0
  0
LINE
  5
185
330
1F
100
AcDbEntity
  8
0
  6
Continuous
 62
     7
370
    25
100
AcDbLine
 10
251.0577324932
 20
1177.4608982551
 30
0.0
 11
251.0577324932
 21
1083.9608982551
 31
0.0
  0
LINE
  5
186
330
1F
100
AcDbEntity
  8
0
  6
Continuous
 62
     7
370
    25
100
AcDbLine
 10
250.350625712
 20
-588.0391017449
 30
0.0
 11
240.3741755132
 21
-588.0391017449
 31
0.0
  0
LINE
  5
187
330
1F
100
AcDbEntity
  8
0
  6
Continuous
 62
     7
370
    25
100
AcDbLine
 10
240.3741755132
 20
-683.5391017449
 30
0.0
 11
250.350625712
 21
-683.5391017449
 31
0.0
  0
LWPOLYLINE
  5
188
330
1F
100
AcDbEntity
  8
0
  6
Continuous
 62
     7
370
    25
100
AcDbPolyline
 90
       21
 70
   128
 43
0.0
 10
243.5270452736
 20
-646.5391017449
 10
243.6533654562
 20
-645.4111897155
 10
244.0199609046
 20
-644.3936855741
 10
244.590946702
 20
-643.5861897155
 10
245.3104307803
 20
-643.0677454605
 10
246.1079850249
 20
-642.8891017449
 10
246.9055392695
 20
-643.0677454605
 10
247.6250233478
 20
-643.5861897155
 10
248.1960091452
 20
-644.3936855741
 10
248.5626045936
 20
-645.4111897155
 10
248.6889247762
 20
-646.5391017449
 10
248.5626045936
 20
-647.6670137744
 10
248.1960091452
 20
-648.6845179158
 10
247.6250233478
 20
-649.4920137744
 10
246.9055392695
 20
-650.0104580294
 10
246.1079850249
 20
-650.1891017449
 10
245.3104307803
 20
-650.0104580294
 10
244.590946702
 20
-649.4920137744
 10
244.0199609046
 20
-648.6845179158
 10
243.6533654562
 20
-647.6670137744
 10
243.5270452736
 20
-646.5391017449
  0
LWPOLYLINE
  5
189
330
1F
100
AcDbEntity
  8
0
  6
Continuous
 62
     7
370
    25
100
AcDbPolyline
 90
       21
 70
   128
 43
0.0
 10
243.5270452736
 20
-616.5391017449
 10
243.6533654562
 20
-615.4111897155
 10
244.0199609046
 20
-614.3936855741
 10
244.590946702
 20
-613.5861897155
 10
245.3104307803
 20
-613.0677454605
 10
246.1079850249
 20
-612.8891017449
 10
246.9055392695
 20
-613.0677454605
 10
247.6250233478
 20
-613.5861897155
 10
248.1960091452
 20
-614.3936855741
 10
248.5626045936
 20
-615.4111897155
 10
248.6889247762
 20
-616.5391017449
 10
248.5626045936
 20
-617.6670137744
 10
248.1960091452
 20
-618.6845179158
 10
247.6250233478
 20
-619.4920137744
 10
246.9055392695
 20
-620.0104580294
 10
246.1079850249
 20
-620.1891017449
 10
245.3104307803
 20
-620.0104580294
 10
244.590946702
 20
-619.4920137744
 10
244.0199609046
 20
-618.6845179158
 10
243.6533654562
 20
-617.6670137744
 10
243.5270452736
 20
-616.5391017449
  0
LINE
  5
18A
330
1F
100
AcDbEntity
  8
0
  6
Continuous
 62
     7
370
    25
100
AcDbLine
 10
250.350625712
 20
1029.9608982551
 30
0.0
 11
240.3741755132
 21
1029.9608982551
 31
0.0
  0
LINE
  5
18B
330
1F
100
AcDbEntity
  8
0
  6
Continuous
 62
     7
370
    25
100
AcDbLine
 10
240.3741755132
 20
496.9608982551
 30
0.0
 11
250.350625712
 21
496.9608982551
 31
0.0
  0
LWPOLYLINE
  5
18C
330
1F
100
AcDbEntity
  8
0
  6
Continuous
 62
     7
370
    25
100
AcDbPolyline
 90
       21
 70
   128
 43
0.0
 10
243.5270452736
 20
1003.4608982551
 10
243.6533654562
 20
1004.5888102845
 10
244.0199609046
 20
1005.6063144259
 10
244.590946702
 20
1006.4138102845
 10
245.3104307803
 20
1006.9322545395
 10
246.1079850249
 20
1007.1108982551
 10
246.9055392695
 20
1006.9322545395
 10
247.6250233478
 20
1006.4138102845
 10
248.1960091452
 20
1005.6063144259
 10
248.5626045936
 20
1004.5888102845
 10
248.6889247762
 20
1003.4608982551
 10
248.5626045936
 20
1002.3329862256
 10
248.1960091452
 20
1001.3154820842
 10
247.6250233478
 20
1000.5079862256
 10
246.9055392695
 20
999.9895419706
 10
246.1079850249
 20
999.8108982551
 10
245.3104307803
 20
999.9895419706
 10
244.590946702
 20
1000.5079862256
 10
244.0199609046
 20
1001.3154820842
 10
243.6533654562
 20
1002.3329862256
 10
243.5270452736
 20
1003.4608982551
  0
LWPOLYLINE
  5
18D
330
1F
100
AcDbEntity
  8
0
  6
Continuous
 62
     7
370
    25
100
AcDbPolyline
 90
       21
 70
   128
 43
0.0
 10
243.5270452736
 20
555.4608982551
 10
243.6533654562
 20
556.5888102845
 10
244.0199609046
 20
557.6063144259
 10
244.590946702
 20
558.4138102845
 10
245.3104307803
 20
558.9322545395
 10
246.1079850249
 20
559.1108982551
 10
246.9055392695
 20
558.9322545395
 10
247.6250233478
 20
558.4138102845
 10
248.1960091452
 20
557.6063144259
 10
248.5626045936
 20
556.5888102845
 10
248.6889247762
 20
555.4608982551
 10
248.5626045936
 20
554.3329862256
 10
248.1960091452
 20
553.3154820842
 10
247.6250233478
 20
552.5079862256
 10
246.9055392695
 20
551.9895419706
 10
246.1079850249
 20
551.8108982551
 10
245.3104307803
 20
551.9895419706
 10
244.590946702
 20
552.5079862256
 10
244.0199609046
 20
553.3154820842
 10
243.6533654562
 20
554.3329862256
 10
243.5270452736
 20
555.4608982551
  0
LWPOLYLINE
  5
18E
330
1F
100
AcDbEntity
  8
0
  6
Continuous
 62
     7
370
    25
100
AcDbPolyline
 90
       21
 70
   128
 43
0.0
 10
243.5270452736
 20
783.4608982551
 10
243.6533654562
 20
784.5888102845
 10
244.0199609046
 20
785.6063144259
 10
244.590946702
 20
786.4138102845
 10
245.3104307803
 20
786.9322545395
 10
246.1079850249
 20
787.1108982551
 10
246.9055392695
 20
786.9322545395
 10
247.6250233478
 20
786.4138102845
 10
248.1960091452
 20
785.6063144259
 10
248.5626045936
 20
784.5888102845
 10
248.6889247762
 20
783.4608982551
 10
248.5626045936
 20
782.3329862256
 10
248.1960091452
 20
781.3154820842
 10
247.6250233478
 20
780.5079862256
 10
246.9055392695
 20
779.9895419706
 10
246.1079850249
 20
779.8108982551
 10
245.3104307803
 20
779.9895419706
 10
244.590946702
 20
780.5079862256
 10
244.0199609046
 20
781.3154820842
 10
243.6533654562
 20
782.3329862256
 10
243.5270452736
 20
783.4608982551
  0
LWPOLYLINE
  5
18F
330
1F
100
AcDbEntity
  8
0
  6
Continuous
 62
     7
370
    25
100
AcDbPolyline
 90
       21
 70
   128
 43
0.0
 10
243.5270452736
 20
525.4608982551
 10
243.6533654562
 20
526.5888102845
 10
244.0199609046
 20
527.6063144259
 10
244.590946702
 20
528.4138102845
 10
245.3104307803
 20
528.9322545395
 10
246.1079850249
 20
529.1108982551
 10
246.9055392695
 20
528.9322545395
 10
247.6250233478
 20
528.4138102845
 10
248.1960091452
 20
527.6063144259
 10
248.5626045936
 20
526.5888102845
 10
248.6889247762
 20
525.4608982551
 10
248.5626045936
 20
524.3329862256
 10
248.1960091452
 20
523.3154820842
 10
247.6250233478
 20
522.5079862256
 10
246.9055392695
 20
521.9895419706
 10
246.1079850249
 20
521.8108982551
 10
245.3104307803
 20
521.9895419706
 10
244.590946702
 20
522.5079862256
 10
244.0199609046
 20
523.3154820842
 10
243.6533654562
 20
524.3329862256
 10
243.5270452736
 20
525.4608982551
  0
LINE
  5
190
330
1F
100
AcDbEntity
  8
0
  6
Continuous
 62
     7
370
    25
100
AcDbLine
 10
250.350625712
 20
-2.0391017449
 30
0.0
 11
240.3741755132
 21
-2.0391017449
 31
0.0
  0
LINE
  5
191
330
1F
100
AcDbEntity
  8
0
  6
Continuous
 62
     7
370
    25
100
AcDbLine
 10
240.3741755132
 20
-535.0391017449
 30
0.0
 11
250.350625712
 21
-535.0391017449
 31
0.0
  0
LWPOLYLINE
  5
192
330
1F
100
AcDbEntity
  8
0
  6
Continuous
 62
     7
370
    25
100
AcDbPolyline
 90
       21
 70
   128
 43
0.0
 10
243.5270452736
 20
-60.5391017449
 10
243.6533654562
 20
-59.4111897155
 10
244.0199609046
 20
-58.3936855741
 10
244.590946702
 20
-57.5861897155
 10
245.3104307803
 20
-57.0677454605
 10
246.1079850249
 20
-56.8891017449
 10
246.9055392695
 20
-57.0677454605
 10
247.6250233478
 20
-57.5861897155
 10
248.1960091452
 20
-58.3936855741
 10
248.5626045936
 20
-59.4111897155
 10
248.6889247762
 20
-60.5391017449
 10
248.5626045936
 20
-61.6670137744
 10
248.1960091452
 20
-62.6845179158
 10
247.6250233478
 20
-63.4920137744
 10
246.9055392695
 20
-64.0104580294
 10
246.1079850249
 20
-64.1891017449
 10
245.3104307803
 20
-64.0104580294
 10
244.590946702
 20
-63.4920137744
 10
244.0199609046
 20
-62.6845179158
 10
243.6533654562
 20
-61.6670137744
 10
243.5270452736
 20
-60.5391017449
  0
LWPOLYLINE
  5
193
330
1F
100
AcDbEntity
  8
0
  6
Continuous
 62
     7
370
    25
100
AcDbPolyline
 90
       21
 70
   128
 43
0.0
 10
243.5270452736
 20
-30.5391017449
 10
243.6533654562
 20
-29.4111897155
 10
244.0199609046
 20
-28.3936855741
 10
244.590946702
 20
-27.5861897155
 10
245.3104307803
 20
-27.0677454605
 10
246.1079850249
 20
-26.8891017449
 10
246.9055392695
 20
-27.0677454605
 10
247.6250233478
 20
-27.5861897155
 10
248.1960091452
 20
-28.3936855741
 10
248.5626045936
 20
-29.4111897155
 10
248.6889247762
 20
-30.5391017449
 10
248.5626045936
 20
-31.6670137744
 10
248.1960091452
 20
-32.6845179158
 10
247.6250233478
 20
-33.4920137744
 10
246.9055392695
 20
-34.0104580294
 10
246.1079850249
 20
-34.1891017449
 10
245.3104307803
 20
-34.0104580294
 10
244.590946702
 20
-33.4920137744
 10
244.0199609046
 20
-32.6845179158
 10
243.6533654562
 20
-31.6670137744
 10
243.5270452736
 20
-30.5391017449
  0
LWPOLYLINE
  5
194
330
1F
100
AcDbEntity
  8
0
  6
Continuous
 62
     7
370
    25
100
AcDbPolyline
 90
       21
 70
   128
 43
0.0
 10
243.5270452736
 20
-288.5391017449
 10
243.6533654562
 20
-287.4111897155
 10
244.0199609046
 20
-286.3936855741
 10
244.590946702
 20
-285.5861897155
 10
245.3104307803
 20
-285.0677454605
 10
246.1079850249
 20
-284.8891017449
 10
246.9055392695
 20
-285.0677454605
 10
247.6250233478
 20
-285.5861897155
 10
248.1960091452
 20
-286.3936855741
 10
248.5626045936
 20
-287.4111897155
 10
248.6889247762
 20
-288.5391017449
 10
248.5626045936
 20
-289.6670137744
 10
248.1960091452
 20
-290.6845179158
 10
247.6250233478
 20
-291.4920137744
 10
246.9055392695
 20
-292.0104580294
 10
246.1079850249
 20
-292.1891017449
 10
245.3104307803
 20
-292.0104580294
 10
244.590946702
 20
-291.4920137744
 10
244.0199609046
 20
-290.6845179158
 10
243.6533654562
 20
-289.6670137744
 10
243.5270452736
 20
-288.5391017449
  0
LWPOLYLINE
  5
195
330
1F
100
AcDbEntity
  8
0
  6
Continuous
 62
     7
370
    25
100
AcDbPolyline
 90
       21
 70
   128
 43
0.0
 10
243.5270452736
 20
-508.5391017449
 10
243.6533654562
 20
-507.4111897155
 10
244.0199609046
 20
-506.3936855741
 10
244.590946702
 20
-505.5861897155
 10
245.3104307803
 20
-505.0677454605
 10
246.1079850249
 20
-504.8891017449
 10
246.9055392695
 20
-505.0677454605
 10
247.6250233478
 20
-505.5861897155
 10
248.1960091452
 20
-506.3936855741
 10
248.5626045936
 20
-507.4111897155
 10
248.6889247762
 20
-508.5391017449
 10
248.5626045936
 20
-509.6670137744
 10
248.1960091452
 20
-510.6845179158
 10
247.6250233478
 20
-511.4920137744
 10
246.9055392695
 20
-512.0104580294
 10
246.1079850249
 20
-512.1891017449
 10
245.3104307803
 20
-512.0104580294
 10
244.590946702
 20
-511.4920137744
 10
244.0199609046
 20
-510.6845179158
 10
243.6533654562
 20
-509.6670137744
 10
243.5270452736
 20
-508.5391017449
  0
LINE
  5
196
330
1F
100
AcDbEntity
  8
0
  6
Continuous
 62
     7
370
    25
100
AcDbLine
 10
240.3741755132
 20
1178.4608982551
 30
0.0
 11
250.350625712
 21
1178.4608982551
 31
0.0
  0
LINE
  5
197
330
1F
100
AcDbEntity
  8
0
  6
Continuous
 62
     7
370
    25
100
AcDbLine
 10
240.3741755132
 20
1082.9608982551
 30
0.0
 11
250.350625712
 21
1082.9608982551
 31
0.0
  0
LWPOLYLINE
  5
198
330
1F
100
AcDbEntity
  8
0
  6
Continuous
 62
     7
370
    25
100
AcDbPolyline
 90
       21
 70
   128
 43
0.0
 10
243.5270452736
 20
1111.4608982551
 10
243.6533654562
 20
1112.5888102845
 10
244.0199609046
 20
1113.6063144259
 10
244.590946702
 20
1114.4138102845
 10
245.3104307803
 20
1114.9322545395
 10
246.1079850249
 20
1115.1108982551
 10
246.9055392695
 20
1114.9322545395
 10
247.6250233478
 20
1114.4138102845
 10
248.1960091452
 20
1113.6063144259
 10
248.5626045936
 20
1112.5888102845
 10
248.6889247762
 20
1111.4608982551
 10
248.5626045936
 20
1110.3329862256
 10
248.1960091452
 20
1109.3154820842
 10
247.6250233478
 20
1108.5079862256
 10
246.9055392695
 20
1107.9895419706
 10
246.1079850249
 20
1107.8108982551
 10
245.3104307803
 20
1107.9895419706
 10
244.590946702
 20
1108.5079862256
 10
244.0199609046
 20
1109.3154820842
 10
243.6533654562
 20
1110.3329862256
 10
243.5270452736
 20
1111.4608982551
  0
LWPOLYLINE
  5
199
330
1F
100
AcDbEntity
  8
0
  6
Continuous
 62
     7
370
    25
100
AcDbPolyline
 90
       21
 70
   128
 43
0.0
 10
243.5270452736
 20
1141.4608982551
 10
243.6533654562
 20
1142.5888102845
 10
244.0199609046
 20
1143.6063144259
 10
244.590946702
 20
1144.4138102845
 10
245.3104307803
 20
1144.9322545395
 10
246.1079850249
 20
1145.1108982551
 10
246.9055392695
 20
1144.9322545395
 10
247.6250233478
 20
1144.4138102845
 10
248.1960091452
 20
1143.6063144259
 10
248.5626045936
 20
1142.5888102845
 10
248.6889247762
 20
1141.4608982551
 10
248.5626045936
 20
1140.3329862256
 10
248.1960091452
 20
1139.3154820842
 10
247.6250233478
 20
1138.5079862256
 10
246.9055392695
 20
1137.9895419706
 10
246.1079850249
 20
1137.8108982551
 10
245.3104307803
 20
1137.9895419706
 10
244.590946702
 20
1138.5079862256
 10
244.0199609046
 20
1139.3154820842
 10
243.6533654562
 20
1140.3329862256
 10
243.5270452736
 20
1141.4608982551
  0
LINE
  5
19A
330
1F
100
AcDbEntity
  8
0
  6
Continuous
 62
     7
370
    25
100
AcDbLine
 10
250.350625712
 20
443.9608982551
 30
0.0
 11
240.3741755132
 21
443.9608982551
 31
0.0
  0
LINE
  5
19B
330
1F
100
AcDbEntity
  8
0
  6
Continuous
 62
     7
370
    25
100
AcDbLine
 10
240.3741755132
 20
50.9608982551
 30
0.0
 11
250.350625712
 21
50.9608982551
 31
0.0
  0
LWPOLYLINE
  5
19C
330
1F
100
AcDbEntity
  8
0
  6
Continuous
 62
     7
370
    25
100
AcDbPolyline
 90
       21
 70
   128
 43
0.0
 10
243.5270452736
 20
427.4608982551
 10
243.6533654562
 20
428.5888102845
 10
244.0199609046
 20
429.6063144259
 10
244.590946702
 20
430.4138102845
 10
245.3104307803
 20
430.9322545395
 10
246.1079850249
 20
431.1108982551
 10
246.9055392695
 20
430.9322545395
 10
247.6250233478
 20
430.4138102845
 10
248.1960091452
 20
429.6063144259
 10
248.5626045936
 20
428.5888102845
 10
248.6889247762
 20
427.4608982551
 10
248.5626045936
 20
426.3329862256
 10
248.1960091452
 20
425.3154820842
 10
247.6250233478
 20
424.5079862256
 10
246.9055392695
 20
423.9895419706
 10
246.1079850249
 20
423.8108982551
 10
245.3104307803
 20
423.9895419706
 10
244.590946702
 20
424.5079862256
 10
244.0199609046
 20
425.3154820842
 10
243.6533654562
 20
426.3329862256
 10
243.5270452736
 20
427.4608982551
  0
LWPOLYLINE
  5
19D
330
1F
100
AcDbEntity
  8
0
  6
Continuous
 62
     7
370
    25
100
AcDbPolyline
 90
       21
 70
   128
 43
0.0
 10
243.5270452736
 20
67.4608982551
 10
243.6533654562
 20
68.5888102845
 10
244.0199609046
 20
69.6063144259
 10
244.590946702
 20
70.4138102845
 10
245.3104307803
 20
70.9322545395
 10
246.1079850249
 20
71.1108982551
 10
246.9055392695
 20
70.9322545395
 10
247.6250233478
 20
70.4138102845
 10
248.1960091452
 20
69.6063144259
 10
248.5626045936
 20
68.5888102845
 10
248.6889247762
 20
67.4608982551
 10
248.5626045936
 20
66.3329862256
 10
248.1960091452
 20
65.3154820842
 10
247.6250233478
 20
64.5079862256
 10
246.9055392695
 20
63.9895419706
 10
246.1079850249
 20
63.8108982551
 10
245.3104307803
 20
63.9895419706
 10
244.590946702
 20
64.5079862256
 10
244.0199609046
 20
65.3154820842
 10
243.6533654562
 20
66.3329862256
 10
243.5270452736
 20
67.4608982551
  0
LWPOLYLINE
  5
19E
330
1F
100
AcDbEntity
  8
0
  6
Continuous
 62
     7
370
    25
100
AcDbPolyline
 90
       21
 70
   128
 43
0.0
 10
243.5270452736
 20
247.4608982551
 10
243.6533654562
 20
248.5888102845
 10
244.0199609046
 20
249.6063144259
 10
244.590946702
 20
250.4138102845
 10
245.3104307803
 20
250.9322545395
 10
246.1079850249
 20
251.1108982551
 10
246.9055392695
 20
250.9322545395
 10
247.6250233478
 20
250.4138102845
 10
248.1960091452
 20
249.6063144259
 10
248.5626045936
 20
248.5888102845
 10
248.6889247762
 20
247.4608982551
 10
248.5626045936
 20
246.3329862256
 10
248.1960091452
 20
245.3154820842
 10
247.6250233478
 20
244.5079862256
 10
246.9055392695
 20
243.9895419706
 10
246.1079850249
 20
243.8108982551
 10
245.3104307803
 20
243.9895419706
 10
244.590946702
 20
244.5079862256
 10
244.0199609046
 20
245.3154820842
 10
243.6533654562
 20
246.3329862256
 10
243.5270452736
 20
247.4608982551
  0
LINE
  5
19F
330
1F
100
AcDbEntity
  8
0
  6
Continuous
 62
     7
370
    25
100
AcDbLine
 10
237.6428046633
 20
1177.4608982551
 30
0.0
 11
237.6428046633
 21
-682.5391017449
 31
0.0
  0
LINE
  5
1A0
330
1F
100
AcDbEntity
  8
0
  6
Continuous
 62
     7
370
    25
100
AcDbLine
 10
235.6428046633
 20
1177.4608982551
 30
0.0
 11
235.6428046633
 21
-682.5391017449
 31
0.0
  0
LINE
  5
1A1
330
1F
100
AcDbEntity
  8
0
  6
Continuous
 62
     7
370
    25
100
AcDbLine
 10
237.6428046633
 20
-683.5391017449
 30
0.0
 11
235.6428046633
 21
-683.5391017449
 31
0.0
  0
LINE
  5
1A2
330
1F
100
AcDbEntity
  8
0
  6
Continuous
 62
     7
370
    25
100
AcDbLine
 10
235.6428046633
 20
-683.5391017449
 30
0.0
 11
235.6428046633
 21
-682.5391017449
 31
0.0
  0
LINE
  5
1A3
330
1F
100
AcDbEntity
  8
0
  6
Continuous
 62
     7
370
    25
100
AcDbLine
 10
237.6428046633
 20
-682.5391017449
 30
0.0
 11
237.6428046633
 21
-683.5391017449
 31
0.0
  0
LINE
  5
1A4
330
1F
100
AcDbEntity
  8
0
  6
Continuous
 62
     7
370
    25
100
AcDbLine
 10
235.6428046633
 20
1177.4608982551
 30
0.0
 11
235.6428046633
 21
1178.4608982551
 31
0.0
  0
LINE
  5
1A5
330
1F
100
AcDbEntity
  8
0
  6
Continuous
 62
     7
370
    25
100
AcDbLine
 10
235.6428046633
 20
1178.4608982551
 30
0.0
 11
237.6428046633
 21
1178.4608982551
 31
0.0
  0
LINE
  5
1A6
330
1F
100
AcDbEntity
  8
0
  6
Continuous
 62
     7
370
    25
100
AcDbLine
 10
237.6428046633
 20
1178.4608982551
 30
0.0
 11
237.6428046633
 21
1177.4608982551
 31
0.0
  0
ARC
  5
1A7
330
1F
100
AcDbEntity
  8
0
  6
Continuous
 62
     7
370
    25
100
AcDbCircle
 10
248.4225416372
 20
1141.8578773991
 30
0.0
 40
3.503843943926379
100
AcDbArc
 50
117.3076070039
 51
186.5054764332
  0
ARC
  5
1A8
330
1F
100
AcDbEntity
  8
0
  6
Continuous
 62
     7
370
    25
100
AcDbCircle
 10
248.5289215301
 20
1141.1207050761
 30
0.0
 40
3.603755680646612
100
AcDbArc
 50
174.5832345271
 51
241.6036820357
  0
ARC
  5
1A9
330
1F
100
AcDbEntity
  8
0
  6
Continuous
 62
     7
370
    25
100
AcDbCircle
 10
248.4225416373
 20
1111.8578773991
 30
0.0
 40
3.503843943967539
100
AcDbArc
 50
117.3076070063
 51
186.5054764329
  0
ARC
  5
1AA
330
1F
100
AcDbEntity
  8
0
  6
Continuous
 62
     7
370
    25
100
AcDbCircle
 10
248.5289215301
 20
1111.1207050761
 30
0.0
 40
3.60375568069521
100
AcDbArc
 50
174.5832345274
 51
241.6036820333
  0
ARC
  5
1AB
330
1F
100
AcDbEntity
  8
0
  6
Continuous
 62
     7
370
    25
100
AcDbCircle
 10
248.4225416373
 20
1003.8578773991
 30
0.0
 40
3.503843944021987
100
AcDbArc
 50
117.307607009
 51
186.5054764325
  0
ARC
  5
1AC
330
1F
100
AcDbEntity
  8
0
  6
Continuous
 62
     7
370
    25
100
AcDbCircle
 10
248.5289215302
 20
1003.1207050762
 30
0.0
 40
3.603755680748958
100
AcDbArc
 50
174.5832345277
 51
241.6036820307
  0
ARC
  5
1AD
330
1F
100
AcDbEntity
  8
0
  6
Continuous
 62
     7
370
    25
100
AcDbCircle
 10
248.4225416374
 20
783.8578773991
 30
0.0
 40
3.503843944136927
100
AcDbArc
 50
117.3076070151
 51
186.5054764317
  0
ARC
  5
1AE
330
1F
100
AcDbEntity
  8
0
  6
Continuous
 62
     7
370
    25
100
AcDbCircle
 10
248.5289215303
 20
783.1207050762
 30
0.0
 40
3.603755680865154
100
AcDbArc
 50
174.5832345284
 51
241.6036820248
  0
ARC
  5
1AF
330
1F
100
AcDbEntity
  8
0
  6
Continuous
 62
     7
370
    25
100
AcDbCircle
 10
248.4225416374
 20
247.8578773991
 30
0.0
 40
3.503843944129871
100
AcDbArc
 50
117.3076070147
 51
186.5054764317
  0
ARC
  5
1B0
330
1F
100
AcDbEntity
  8
0
  6
Continuous
 62
     7
370
    25
100
AcDbCircle
 10
248.5289215303
 20
247.1207050762
 30
0.0
 40
3.603755680857112
100
AcDbArc
 50
174.5832345283
 51
241.6036820252
  0
ARC
  5
1B1
330
1F
100
AcDbEntity
  8
0
  6
Continuous
 62
     7
370
    25
100
AcDbCircle
 10
248.4225416375
 20
555.857877399
 30
0.0
 40
3.503843944155853
100
AcDbArc
 50
117.307607016
 51
186.5054764316
  0
ARC
  5
1B2
330
1F
100
AcDbEntity
  8
0
  6
Continuous
 62
     7
370
    25
100
AcDbCircle
 10
248.5289215303
 20
555.1207050762
 30
0.0
 40
3.603755680882329
100
AcDbArc
 50
174.5832345285
 51
241.603682024
  0
ARC
  5
1B3
330
1F
100
AcDbEntity
  8
0
  6
Continuous
 62
     7
370
    25
100
AcDbCircle
 10
248.4225416374
 20
525.8578773991
 30
0.0
 40
3.50384394414046
100
AcDbArc
 50
117.3076070152
 51
186.5054764317
  0
ARC
  5
1B4
330
1F
100
AcDbEntity
  8
0
  6
Continuous
 62
     7
370
    25
100
AcDbCircle
 10
248.5289215303
 20
525.1207050762
 30
0.0
 40
3.603755680865424
100
AcDbArc
 50
174.5832345284
 51
241.6036820248
  0
ARC
  5
1B5
330
1F
100
AcDbEntity
  8
0
  6
Continuous
 62
     7
370
    25
100
AcDbCircle
 10
248.4225416374
 20
427.8578773991
 30
0.0
 40
3.503843944139609
100
AcDbArc
 50
117.3076070151
 51
186.5054764317
  0
ARC
  5
1B6
330
1F
100
AcDbEntity
  8
0
  6
Continuous
 62
     7
370
    25
100
AcDbCircle
 10
248.5289215303
 20
427.1207050762
 30
0.0
 40
3.603755680864539
100
AcDbArc
 50
174.5832345284
 51
241.6036820249
  0
ARC
  5
1B7
330
1F
100
AcDbEntity
  8
0
  6
Continuous
 62
     7
370
    25
100
AcDbCircle
 10
248.4225416374
 20
-60.1421226009
 30
0.0
 40
3.503843944135946
100
AcDbArc
 50
117.307607015
 51
186.5054764317
  0
ARC
  5
1B8
330
1F
100
AcDbEntity
  8
0
  6
Continuous
 62
     7
370
    25
100
AcDbCircle
 10
248.5289215303
 20
-60.8792949238
 30
0.0
 40
3.603755680863494
100
AcDbArc
 50
174.5832345284
 51
241.6036820249
  0
ARC
  5
1B9
330
1F
100
AcDbEntity
  8
0
  6
Continuous
 62
     7
370
    25
100
AcDbCircle
 10
248.4225416374
 20
-30.1421226009
 30
0.0
 40
3.503843944113184
100
AcDbArc
 50
117.3076070138
 51
186.5054764319
  0
ARC
  5
1BA
330
1F
100
AcDbEntity
  8
0
  6
Continuous
 62
     7
370
    25
100
AcDbCircle
 10
248.5289215303
 20
-30.8792949238
 30
0.0
 40
3.603755680838554
100
AcDbArc
 50
174.5832345282
 51
241.6036820262
  0
ARC
  5
1BB
330
1F
100
AcDbEntity
  8
0
  6
Continuous
 62
     7
370
    25
100
AcDbCircle
 10
248.4225416374
 20
67.8578773991
 30
0.0
 40
3.503843944126416
100
AcDbArc
 50
117.3076070145
 51
186.5054764318
  0
ARC
  5
1BC
330
1F
100
AcDbEntity
  8
0
  6
Continuous
 62
     7
370
    25
100
AcDbCircle
 10
248.5289215303
 20
67.1207050762
 30
0.0
 40
3.603755680852837
100
AcDbArc
 50
174.5832345283
 51
241.6036820255
  0
ARC
  5
1BD
330
1F
100
AcDbEntity
  8
0
  6
Continuous
 62
     7
370
    25
100
AcDbCircle
 10
248.4225416375
 20
-288.142122601
 30
0.0
 40
3.503843944177782
100
AcDbArc
 50
117.3076070172
 51
186.5054764314
  0
ARC
  5
1BE
330
1F
100
AcDbEntity
  8
0
  6
Continuous
 62
     7
370
    25
100
AcDbCircle
 10
248.5289215303
 20
-288.8792949238
 30
0.0
 40
3.60375568090893
100
AcDbArc
 50
174.5832345286
 51
241.6036820227
  0
ARC
  5
1BF
330
1F
100
AcDbEntity
  8
0
  6
Continuous
 62
     7
370
    25
100
AcDbCircle
 10
248.4225416375
 20
-508.142122601
 30
0.0
 40
3.503843944217121
100
AcDbArc
 50
117.3076070193
 51
186.5054764311
  0
ARC
  5
1C0
330
1F
100
AcDbEntity
  8
0
  6
Continuous
 62
     7
370
    25
100
AcDbCircle
 10
248.5289215304
 20
-508.8792949238
 30
0.0
 40
3.603755680949603
100
AcDbArc
 50
174.5832345289
 51
241.6036820206
  0
ARC
  5
1C1
330
1F
100
AcDbEntity
  8
0
  6
Continuous
 62
     7
370
    25
100
AcDbCircle
 10
248.4225416376
 20
-646.142122601
 30
0.0
 40
3.503843944245329
100
AcDbArc
 50
117.3076070208
 51
186.5054764309
  0
ARC
  5
1C2
330
1F
100
AcDbEntity
  8
0
  6
Continuous
 62
     7
370
    25
100
AcDbCircle
 10
248.5289215304
 20
-646.8792949238
 30
0.0
 40
3.603755680979474
100
AcDbArc
 50
174.583234529
 51
241.6036820191
  0
ARC
  5
1C3
330
1F
100
AcDbEntity
  8
0
  6
Continuous
 62
     7
370
    25
100
AcDbCircle
 10
248.4225416376
 20
-616.142122601
 30
0.0
 40
3.503843944260041
100
AcDbArc
 50
117.3076070216
 51
186.5054764308
  0
ARC
  5
1C4
330
1F
100
AcDbEntity
  8
0
  6
Continuous
 62
     7
370
    25
100
AcDbCircle
 10
248.5289215304
 20
-616.8792949238
 30
0.0
 40
3.603755680997368
100
AcDbArc
 50
174.5832345292
 51
241.6036820183
  0
LINE
  5
1C5
330
1F
100
AcDbEntity
  8
0
  6
Continuous
 62
     7
370
    25
100
AcDbLine
 10
239.1990382864
 20
496.9608982551
 30
0.0
 11
239.1990382864
 21
443.9608982551
 31
0.0
  0
LINE
  5
1C6
330
1F
100
AcDbEntity
  8
0
  6
Continuous
 62
     7
370
    25
100
AcDbLine
 10
239.1990382864
 20
50.9608982551
 30
0.0
 11
239.1990382864
 21
-2.0391017449
 31
0.0
  0
LINE
  5
1C7
330
1F
100
AcDbEntity
  8
0
  6
Continuous
 62
     7
370
    25
100
AcDbLine
 10
239.1990382864
 20
-535.0391017449
 30
0.0
 11
239.1990382864
 21
-588.0391017449
 31
0.0
  0
LINE
  5
1C8
330
1F
100
AcDbEntity
  8
0
  6
Continuous
 62
     7
370
    25
100
AcDbLine
 10
239.1990382864
 20
1082.9608982551
 30
0.0
 11
239.1990382864
 21
1029.9608982551
 31
0.0
  0
LINE
  5
1C9
330
1F
100
AcDbEntity
  8
0
  6
Continuous
 62
     7
370
    25
100
AcDbLine
 10
237.6428046633
 20
1178.4608982551
 30
0.0
 11
240.3741755132
 21
1178.4608982551
 31
0.0
  0
LINE
  5
1CA
330
1F
100
AcDbEntity
  8
0
  6
Continuous
 62
     7
370
    25
100
AcDbLine
 10
237.6428046633
 20
-683.5391017449
 30
0.0
 11
240.3741755132
 21
-683.5391017449
 31
0.0
  0
LINE
  5
1CB
330
1F
100
AcDbEntity
  8
0
  6
Continuous
 62
     7
370
    25
100
AcDbLine
 10
239.1990382864
 20
496.9608982551
 30
0.0
 11
240.3741755132
 21
496.9608982551
 31
0.0
  0
LINE
  5
1CC
330
1F
100
AcDbEntity
  8
0
  6
Continuous
 62
     7
370
    25
100
AcDbLine
 10
239.1990382864
 20
-535.0391017449
 30
0.0
 11
240.3741755132
 21
-535.0391017449
 31
0.0
  0
LINE
  5
1CD
330
1F
100
AcDbEntity
  8
0
  6
Continuous
 62
     7
370
    25
100
AcDbLine
 10
239.1990382864
 20
1082.9608982551
 30
0.0
 11
240.3741755132
 21
1082.9608982551
 31
0.0
  0
LINE
  5
1CE
330
1F
100
AcDbEntity
  8
0
  6
Continuous
 62
     7
370
    25
100
AcDbLine
 10
239.1990382864
 20
50.9608982551
 30
0.0
 11
240.3741755132
 21
50.9608982551
 31
0.0
  0
LINE
  5
1CF
330
1F
100
AcDbEntity
  8
0
  6
Continuous
 62
     7
370
    25
100
AcDbLine
 10
240.3741755132
 20
-588.0391017449
 30
0.0
 11
239.1990382864
 21
-588.0391017449
 31
0.0
  0
LINE
  5
1D0
330
1F
100
AcDbEntity
  8
0
  6
Continuous
 62
     7
370
    25
100
AcDbLine
 10
240.3741755132
 20
-2.0391017449
 30
0.0
 11
239.1990382864
 21
-2.0391017449
 31
0.0
  0
LINE
  5
1D1
330
1F
100
AcDbEntity
  8
0
  6
Continuous
 62
     7
370
    25
100
AcDbLine
 10
240.3741755132
 20
1029.9608982551
 30
0.0
 11
239.1990382864
 21
1029.9608982551
 31
0.0
  0
LINE
  5
1D2
330
1F
100
AcDbEntity
  8
0
  6
Continuous
 62
     7
370
    25
100
AcDbLine
 10
240.3741755132
 20
443.9608982551
 30
0.0
 11
239.1990382864
 21
443.9608982551
 31
0.0
  0
ENDSEC
  0
SECTION
  2
OBJECTS
  0
DICTIONARY
  5
C
330
0
100
AcDbDictionary
281
     1
  3
ACAD_GROUP
350
D
  3
ACAD_LAYOUT
350
1A
  3
ACAD_MLINESTYLE
350
17
  3
ACAD_PLOTSETTINGS
350
19
  3
ACAD_PLOTSTYLENAME
350
E
  3
ACAD_SCALELIST
350
47
  0
DICTIONARY
  5
D
102
{ACAD_REACTORS
330
C
102
}
330
C
100
AcDbDictionary
281
     1
  0
DICTIONARY
  5
1A
102
{ACAD_REACTORS
330
C
102
}
330
C
100
AcDbDictionary
281
     1
  3
Layout1
350
1E
  3
Layout2
350
26
  3
Model
350
22
  0
DICTIONARY
  5
17
102
{ACAD_REACTORS
330
C
102
}
330
C
100
AcDbDictionary
281
     1
  3
Standard
350
18
  0
DICTIONARY
  5
19
102
{ACAD_REACTORS
330
C
102
}
330
C
100
AcDbDictionary
281
     1
  0
ACDBDICTIONARYWDFLT
  5
E
102
{ACAD_REACTORS
330
C
102
}
330
C
100
AcDbDictionary
281
     1
  3
Normal
350
F
100
AcDbDictionaryWithDefault
340
F
  0
DICTIONARY
  5
47
102
{ACAD_REACTORS
330
C
102
}
330
C
100
AcDbDictionary
281
     1
  3
A0
350
48
  3
A1
350
49
  3
A2
350
4A
  3
A3
350
4B
  3
A4
350
4C
  3
A5
350
4D
  3
A6
350
4E
  3
A7
350
4F
  3
A8
350
50
  3
A9
350
51
  3
B0
350
52
  3
B1
350
53
  3
B2
350
54
  3
B3
350
55
  3
B4
350
56
  3
B5
350
57
  3
B6
350
58
  3
B7
350
59
  3
B8
350
5A
  3
B9
350
5B
  3
C0
350
5C
  3
C1
350
5D
  3
C2
350
5E
  3
C3
350
5F
  3
C4
350
60
  3
C5
350
61
  3
C6
350
62
  3
C7
350
63
  3
C8
350
64
  3
C9
350
65
  3
D0
350
66
  3
D1
350
67
  3
D2
350
68
  0
LAYOUT
  5
1E
102
{ACAD_REACTORS
330
1A
102
}
330
1A
100
AcDbPlotSettings
  1

  2
none_device
  4

  6

 40
0.0
 41
0.0
 42
0.0
 43
0.0
 44
0.0
 45
0.0
 46
0.0
 47
0.0
 48
0.0
 49
0.0
140
0.0
141
0.0
142
1.0
143
1.0
 70
   688
 72
     1
 73
     0
 74
     5
  7

 75
    16
147
1.0
148
0.0
149
0.0
100
AcDbLayout
  1
Layout1
 70
     1
 71
     1
 10
0.0
 20
0.0
 11
420.0
 21
297.0
 12
0.0
 22
0.0
 32
0.0
 14
1.0000000000E+20
 24
1.0000000000E+20
 34
1.0000000000E+20
 15
-1.0000000000E+20
 25
-1.0000000000E+20
 35
-1.0000000000E+20
146
0.0
 13
0.0
 23
0.0
 33
0.0
 16
1.0
 26
0.0
 36
0.0
 17
0.0
 27
1.0
 37
0.0
 76
     0
330
1B
  0
LAYOUT
  5
26
102
{ACAD_REACTORS
330
1A
102
}
330
1A
100
AcDbPlotSettings
  1

  2
none_device
  4

  6

 40
0.0
 41
0.0
 42
0.0
 43
0.0
 44
0.0
 45
0.0
 46
0.0
 47
0.0
 48
0.0
 49
0.0
140
0.0
141
0.0
142
1.0
143
1.0
 70
   688
 72
     1
 73
     0
 74
     5
  7

 75
    16
147
1.0
148
0.0
149
0.0
100
AcDbLayout
  1
Layout2
 70
     1
 71
     2
 10
0.0
 20
0.0
 11
0.0
 21
0.0
 12
0.0
 22
0.0
 32
0.0
 14
0.0
 24
0.0
 34
0.0
 15
0.0
 25
0.0
 35
0.0
146
0.0
 13
0.0
 23
0.0
 33
0.0
 16
1.0
 26
0.0
 36
0.0
 17
0.0
 27
1.0
 37
0.0
 76
     0
330
23
  0
LAYOUT
  5
22
102
{ACAD_REACTORS
330
1A
102
}
330
1A
100
AcDbPlotSettings
  1

  2
none_device
  4
Letter_(8.50_x_11.00_Inches)
  6

 40
6.35
 41
6.35
 42
6.35000508
 43
6.35000508
 44
215.9
 45
279.4
 46
0.0
 47
0.0
 48
0.0
 49
0.0
140
0.0
141
0.0
142
1.0
143
1.0
 70
  1712
 72
     1
 73
     0
 74
     0
  7

 75
     0
147
1.0
148
0.0
149
0.0
100
AcDbLayout
  1
Model
 70
     1
 71
     0
 10
0.0
 20
0.0
 11
841.0
 21
594.0
 12
0.0
 22
0.0
 32
0.0
 14
0.0
 24
0.0
 34
0.0
 15
841.0
 25
594.0
 35
0.0
146
0.0
 13
0.0
 23
0.0
 33
0.0
 16
1.0
 26
0.0
 36
0.0
 17
0.0
 27
1.0
 37
0.0
 76
     0
330
1F
331
29
  0
MLINESTYLE
  5
18
102
{ACAD_REACTORS
330
17
102
}
330
17
100
AcDbMlineStyle
  2
Standard
 70
     0
  3

 62
   256
 51
90.0
 52
90.0
 71
     2
 49
0.5
 62
   256
  6
BYLAYER
 49
-0.5
 62
   256
  6
BYLAYER
  0
ACDBPLACEHOLDER
  5
F
102
{ACAD_REACTORS
330
E
102
}
330
E
  0
SCALE
  5
48
102
{ACAD_REACTORS
330
47
102
}
330
47
100
AcDbScale
 70
     0
300
1:1
140
1.0
141
1.0
290
     1
  0
SCALE
  5
49
102
{ACAD_REACTORS
330
47
102
}
330
47
100
AcDbScale
 70
     0
300
1:2
140
1.0
141
2.0
290
     0
  0
SCALE
  5
4A
102
{ACAD_REACTORS
330
47
102
}
330
47
100
AcDbScale
 70
     0
300
1:4
140
1.0
141
4.0
290
     0
  0
SCALE
  5
4B
102
{ACAD_REACTORS
330
47
102
}
330
47
100
AcDbScale
 70
     0
300
1:5
140
1.0
141
5.0
290
     0
  0
SCALE
  5
4C
102
{ACAD_REACTORS
330
47
102
}
330
47
100
AcDbScale
 70
     0
300
1:8
140
1.0
141
8.0
290
     0
  0
SCALE
  5
4D
102
{ACAD_REACTORS
330
47
102
}
330
47
100
AcDbScale
 70
     0
300
1:10
140
1.0
141
10.0
290
     0
  0
SCALE
  5
4E
102
{ACAD_REACTORS
330
47
102
}
330
47
100
AcDbScale
 70
     0
300
1:16
140
1.0
141
16.0
290
     0
  0
SCALE
  5
4F
102
{ACAD_REACTORS
330
47
102
}
330
47
100
AcDbScale
 70
     0
300
1:20
140
1.0
141
20.0
290
     0
  0
SCALE
  5
50
102
{ACAD_REACTORS
330
47
102
}
330
47
100
AcDbScale
 70
     0
300
1:30
140
1.0
141
30.0
290
     0
  0
SCALE
  5
51
102
{ACAD_REACTORS
330
47
102
}
330
47
100
AcDbScale
 70
     0
300
1:40
140
1.0
141
40.0
290
     0
  0
SCALE
  5
52
102
{ACAD_REACTORS
330
47
102
}
330
47
100
AcDbScale
 70
     0
300
1:50
140
1.0
141
50.0
290
     0
  0
SCALE
  5
53
102
{ACAD_REACTORS
330
47
102
}
330
47
100
AcDbScale
 70
     0
300
1:100
140
1.0
141
100.0
290
     0
  0
SCALE
  5
54
102
{ACAD_REACTORS
330
47
102
}
330
47
100
AcDbScale
 70
     0
300
2:1
140
2.0
141
1.0
290
     0
  0
SCALE
  5
55
102
{ACAD_REACTORS
330
47
102
}
330
47
100
AcDbScale
 70
     0
300
4:1
140
4.0
141
1.0
290
     0
  0
SCALE
  5
56
102
{ACAD_REACTORS
330
47
102
}
330
47
100
AcDbScale
 70
     0
300
8:1
140
8.0
141
1.0
290
     0
  0
SCALE
  5
57
102
{ACAD_REACTORS
330
47
102
}
330
47
100
AcDbScale
 70
     0
300
10:1
140
10.0
141
1.0
290
     0
  0
SCALE
  5
58
102
{ACAD_REACTORS
330
47
102
}
330
47
100
AcDbScale
 70
     0
300
100:1
140
100.0
141
1.0
290
     0
  0
SCALE
  5
59
102
{ACAD_REACTORS
330
47
102
}
330
47
100
AcDbScale
 70
     0
300
1/128" = 1'-0"
140
0.0078125
141
12.0
290
     0
  0
SCALE
  5
5A
102
{ACAD_REACTORS
330
47
102
}
330
47
100
AcDbScale
 70
     0
300
1/64" = 1'-0"
140
0.015625
141
12.0
290
     0
  0
SCALE
  5
5B
102
{ACAD_REACTORS
330
47
102
}
330
47
100
AcDbScale
 70
     0
300
1/32" = 1'-0"
140
0.03125
141
12.0
290
     0
  0
SCALE
  5
5C
102
{ACAD_REACTORS
330
47
102
}
330
47
100
AcDbScale
 70
     0
300
1/16" = 1'-0"
140
0.0625
141
12.0
290
     0
  0
SCALE
  5
5D
102
{ACAD_REACTORS
330
47
102
}
330
47
100
AcDbScale
 70
     0
300
3/32" = 1'-0"
140
0.09375
141
12.0
290
     0
  0
SCALE
  5
5E
102
{ACAD_REACTORS
330
47
102
}
330
47
100
AcDbScale
 70
     0
300
1/8" = 1'-0"
140
0.125
141
12.0
290
     0
  0
SCALE
  5
5F
102
{ACAD_REACTORS
330
47
102
}
330
47
100
AcDbScale
 70
     0
300
3/16" = 1'-0"
140
0.1875
141
12.0
290
     0
  0
SCALE
  5
60
102
{ACAD_REACTORS
330
47
102
}
330
47
100
AcDbScale
 70
     0
300
1/4" = 1'-0"
140
0.25
141
12.0
290
     0
  0
SCALE
  5
61
102
{ACAD_REACTORS
330
47
102
}
330
47
100
AcDbScale
 70
     0
300
3/8" = 1'-0"
140
0.375
141
12.0
290
     0
  0
SCALE
  5
62
102
{ACAD_REACTORS
330
47
102
}
330
47
100
AcDbScale
 70
     0
300
1/2" = 1'-0"
140
0.5
141
12.0
290
     0
  0
SCALE
  5
63
102
{ACAD_REACTORS
330
47
102
}
330
47
100
AcDbScale
 70
     0
300
3/4" = 1'-0"
140
0.75
141
12.0
290
     0
  0
SCALE
  5
64
102
{ACAD_REACTORS
330
47
102
}
330
47
100
AcDbScale
 70
     0
300
1" = 1'-0"
140
1.0
141
12.0
290
     0
  0
SCALE
  5
65
102
{ACAD_REACTORS
330
47
102
}
330
47
100
AcDbScale
 70
     0
300
1-1/2" = 1'-0"
140
1.5
141
12.0
290
     0
  0
SCALE
  5
66
102
{ACAD_REACTORS
330
47
102
}
330
47
100
AcDbScale
 70
     0
300
3" = 1'-0"
140
3.0
141
12.0
290
     0
  0
SCALE
  5
67
102
{ACAD_REACTORS
330
47
102
}
330
47
100
AcDbScale
 70
     0
300
6" = 1'-0"
140
6.0
141
12.0
290
     0
  0
SCALE
  5
68
102
{ACAD_REACTORS
330
47
102
}
330
47
100
AcDbScale
 70
     0
300
1'-0" = 1'-0"
140
12.0
141
12.0
290
     0
  0
ENDSEC
  0
EOF
