ISO-10303-21;
HEADER;
FILE_DESCRIPTION (( 'STEP AP203' ),
    '1' );
FILE_NAME ('CTR10-040-K41-016I-D2 Òðóáà ãëàäêàÿ æåñòêàÿ ÏÂÕ d40 ÈÝÊ ñåðàÿ (16ì),2ì.STEP',
    '2016-04-27T08:21:05',
    ( '' ),
    ( '' ),
    'SwSTEP 2.0',
    'SolidWorks 2014',
    '' );
FILE_SCHEMA (( 'CONFIG_CONTROL_DESIGN' ));
ENDSEC;

DATA;
#1 = AXIS2_PLACEMENT_3D ( 'NONE', #85, #148, #159 ) ;
#2 = LOCAL_TIME ( 11, 21, 5.000000000000000000, #41 ) ;
#3 = ORIENTED_EDGE ( 'NONE', *, *, #23, .F. ) ;
#4 = ORIENTED_EDGE ( 'NONE', *, *, #24, .T. ) ;
#5 = CARTESIAN_POINT ( 'NONE',  ( 2000.000000000000000, 0.0000000000000000000, 0.0000000000000000000 ) ) ;
#6 = APPROVAL ( #84, 'UNSPECIFIED' ) ;
#7 = AXIS2_PLACEMENT_3D ( 'NONE', #96, #76, #119 ) ;
#8 = CARTESIAN_POINT ( 'NONE',  ( 0.0000000000000000000, 0.0000000000000000000, -18.75000000000000400 ) ) ;
#9 = CALENDAR_DATE ( 2016, 27, 4 ) ;
#10 = AXIS2_PLACEMENT_3D ( 'NONE', #5, #118, #58 ) ;
#11 = PERSON_AND_ORGANIZATION ( #107, #52 ) ;
#12 = CC_DESIGN_APPROVAL ( #6, ( #163 ) ) ;
#13 = DATE_TIME_ROLE ( 'creation_date' ) ;
#14 = AXIS2_PLACEMENT_3D ( 'NONE', #49, #132, #59 ) ;
#15 = DIRECTION ( 'NONE',  ( 1.000000000000000000, 0.0000000000000000000, 0.0000000000000000000 ) ) ;
#16 = VERTEX_POINT ( 'NONE', #8 ) ;
#17 = DIRECTION ( 'NONE',  ( 0.0000000000000000000, 0.0000000000000000000, 1.000000000000000000 ) ) ;
#18 = AXIS2_PLACEMENT_3D ( 'NONE', #94, #15, #111 ) ;
#19 = AXIS2_PLACEMENT_3D ( 'NONE', #146, #74, #158 ) ;
#20 = COORDINATED_UNIVERSAL_TIME_OFFSET ( 3, 0, .AHEAD. ) ;
#21 = CC_DESIGN_PERSON_AND_ORGANIZATION_ASSIGNMENT ( #78, #92, ( #163 ) ) ;
#22 = AXIS2_PLACEMENT_3D ( 'NONE', #114, #164, #48 ) ;
#23 = EDGE_CURVE ( 'NONE', #61, #61, #131, .T. ) ;
#24 = EDGE_CURVE ( 'NONE', #55, #55, #67, .T. ) ;
#25 = LOCAL_TIME ( 11, 21, 5.000000000000000000, #63 ) ;
#26 = DATE_AND_TIME ( #64, #152 ) ;
#27 = EDGE_CURVE ( 'NONE', #16, #16, #35, .T. ) ;
#28 = CYLINDRICAL_SURFACE ( 'NONE', #10, 18.75000000000000400 ) ;
#29 = APPLICATION_PROTOCOL_DEFINITION ( 'international standard', 'config_control_design', 1994, #44 ) ;
#30 = EDGE_CURVE ( 'NONE', #151, #151, #165, .T. ) ;
#31 = APPROVAL_ROLE ( '' ) ;
#32 = APPROVAL_DATE_TIME ( #66, #53 ) ;
#33 = MANIFOLD_SOLID_BREP ( 'Áîáûøêà-Âûòÿíóòü1', #109 ) ;
#34 = CC_DESIGN_DATE_AND_TIME_ASSIGNMENT ( #102, #13, ( #163 ) ) ;
#35 = CIRCLE ( 'NONE', #18, 18.75000000000000400 ) ;
#36 = PLANE ( 'NONE',  #7 ) ;
#37 = ADVANCED_FACE ( 'NONE', ( #83, #100 ), #28, .F. ) ;
#38 = APPROVAL_PERSON_ORGANIZATION ( #72, #53, #31 ) ;
#39 = EDGE_LOOP ( 'NONE', ( #141 ) ) ;
#40 = DESIGN_CONTEXT ( 'detailed design', #69, 'design' ) ;
#41 = COORDINATED_UNIVERSAL_TIME_OFFSET ( 3, 0, .AHEAD. ) ;
#42 = ORIENTED_EDGE ( 'NONE', *, *, #23, .T. ) ;
#43 = PRODUCT_DEFINITION_FORMATION_WITH_SPECIFIED_SOURCE ( 'ANY', '', #46, .NOT_KNOWN. ) ;
#44 = APPLICATION_CONTEXT ( 'configuration controlled 3d designs of mechanical parts and assemblies' ) ;
#45 = PERSON_AND_ORGANIZATION_ROLE ( 'design_supplier' ) ;
#46 = PRODUCT ( 'CTR10-040-K41-016I-D2 Òðóáà ãëàäêàÿ æåñòêàÿ ÏÂÕ d40 ÈÝÊ ñåðàÿ (16ì),2ì', 'CTR10-040-K41-016I-D2 Òðóáà ãëàäêàÿ æåñòêàÿ ÏÂÕ d40 ÈÝÊ ñåðàÿ (16ì),2ì', '', ( #54 ) ) ;
#47 = LOCAL_TIME ( 11, 21, 5.000000000000000000, #82 ) ;
#48 = DIRECTION ( 'NONE',  ( 0.0000000000000000000, 0.0000000000000000000, -1.000000000000000000 ) ) ;
#49 = CARTESIAN_POINT ( 'NONE',  ( 2000.000000000000000, 0.0000000000000000000, 0.0000000000000000000 ) ) ;
#50 = CARTESIAN_POINT ( 'NONE',  ( 0.0000000000000000000, 0.0000000000000000000, 0.0000000000000000000 ) ) ;
#51 =( NAMED_UNIT ( * ) PLANE_ANGLE_UNIT ( ) SI_UNIT ( $, .RADIAN. ) );
#52 = ORGANIZATION ( 'UNSPECIFIED', 'UNSPECIFIED', '' ) ;
#53 = APPROVAL ( #106, 'UNSPECIFIED' ) ;
#54 = MECHANICAL_CONTEXT ( 'NONE', #44, 'mechanical' ) ;
#55 = VERTEX_POINT ( 'NONE', #161 ) ;
#56 = PERSON_AND_ORGANIZATION_ROLE ( 'classification_officer' ) ;
#57 = APPROVAL_PERSON_ORGANIZATION ( #89, #112, #73 ) ;
#58 = DIRECTION ( 'NONE',  ( 0.0000000000000000000, 0.0000000000000000000, 1.000000000000000000 ) ) ;
#59 = DIRECTION ( 'NONE',  ( 0.0000000000000000000, 0.0000000000000000000, -1.000000000000000000 ) ) ;
#60 = CC_DESIGN_APPROVAL ( #53, ( #43 ) ) ;
#61 = VERTEX_POINT ( 'NONE', #87 ) ;
#62 = PLANE ( 'NONE',  #115 ) ;
#63 = COORDINATED_UNIVERSAL_TIME_OFFSET ( 3, 0, .AHEAD. ) ;
#64 = CALENDAR_DATE ( 2016, 27, 4 ) ;
#65 = FACE_OUTER_BOUND ( 'NONE', #138, .T. ) ;
#66 = DATE_AND_TIME ( #99, #129 ) ;
#67 = CIRCLE ( 'NONE', #19, 20.00000000000000000 ) ;
#68 = CC_DESIGN_PERSON_AND_ORGANIZATION_ASSIGNMENT ( #162, #117, ( #43 ) ) ;
#69 = APPLICATION_CONTEXT ( 'configuration controlled 3d designs of mechanical parts and assemblies' ) ;
#70 = APPROVAL_STATUS ( 'not_yet_approved' ) ;
#71 = ORIENTED_EDGE ( 'NONE', *, *, #30, .T. ) ;
#72 = PERSON_AND_ORGANIZATION ( #107, #52 ) ;
#73 = APPROVAL_ROLE ( '' ) ;
#74 = DIRECTION ( 'NONE',  ( 1.000000000000000000, 0.0000000000000000000, 0.0000000000000000000 ) ) ;
#75 = EDGE_LOOP ( 'NONE', ( #4 ) ) ;
#76 = DIRECTION ( 'NONE',  ( 1.000000000000000000, 0.0000000000000000000, 0.0000000000000000000 ) ) ;
#77 = DIRECTION ( 'NONE',  ( 0.0000000000000000000, 0.0000000000000000000, -1.000000000000000000 ) ) ;
#78 = PERSON_AND_ORGANIZATION ( #107, #52 ) ;
#79 = EDGE_LOOP ( 'NONE', ( #105 ) ) ;
#80 = ORIENTED_EDGE ( 'NONE', *, *, #24, .F. ) ;
#81 = CC_DESIGN_PERSON_AND_ORGANIZATION_ASSIGNMENT ( #125, #45, ( #43 ) ) ;
#82 = COORDINATED_UNIVERSAL_TIME_OFFSET ( 3, 0, .AHEAD. ) ;
#83 = FACE_OUTER_BOUND ( 'NONE', #145, .T. ) ;
#84 = APPROVAL_STATUS ( 'not_yet_approved' ) ;
#85 = CARTESIAN_POINT ( 'NONE',  ( 2000.000000000000000, 0.0000000000000000000, 0.0000000000000000000 ) ) ;
#86 = SECURITY_CLASSIFICATION ( '', '', #128 ) ;
#87 = CARTESIAN_POINT ( 'NONE',  ( 0.0000000000000000000, 0.0000000000000000000, -20.00000000000000000 ) ) ;
#88 = ADVANCED_FACE ( 'NONE', ( #126, #65 ), #91, .T. ) ;
#89 = PERSON_AND_ORGANIZATION ( #107, #52 ) ;
#90 = CC_DESIGN_PERSON_AND_ORGANIZATION_ASSIGNMENT ( #93, #56, ( #86 ) ) ;
#91 = CYLINDRICAL_SURFACE ( 'NONE', #1, 20.00000000000000000 ) ;
#92 = PERSON_AND_ORGANIZATION_ROLE ( 'creator' ) ;
#93 = PERSON_AND_ORGANIZATION ( #107, #52 ) ;
#94 = CARTESIAN_POINT ( 'NONE',  ( 0.0000000000000000000, 0.0000000000000000000, 0.0000000000000000000 ) ) ;
#95 = FACE_BOUND ( 'NONE', #39, .T. ) ;
#96 = CARTESIAN_POINT ( 'NONE',  ( 2000.000000000000000, 0.0000000000000000000, 0.0000000000000000000 ) ) ;
#97 = CARTESIAN_POINT ( 'NONE',  ( 0.0000000000000000000, 0.0000000000000000000, 0.0000000000000000000 ) ) ;
#98 = EDGE_LOOP ( 'NONE', ( #110 ) ) ;
#99 = CALENDAR_DATE ( 2016, 27, 4 ) ;
#100 = FACE_OUTER_BOUND ( 'NONE', #79, .T. ) ;
#101 = CC_DESIGN_DATE_AND_TIME_ASSIGNMENT ( #122, #143, ( #86 ) ) ;
#102 = DATE_AND_TIME ( #136, #2 ) ;
#103 =( GEOMETRIC_REPRESENTATION_CONTEXT ( 3 ) GLOBAL_UNCERTAINTY_ASSIGNED_CONTEXT ( ( #167 ) ) GLOBAL_UNIT_ASSIGNED_CONTEXT ( ( #120, #51, #135 ) ) REPRESENTATION_CONTEXT ( 'NONE', 'WORKASPACE' ) );
#104 = EDGE_LOOP ( 'NONE', ( #3 ) ) ;
#105 = ORIENTED_EDGE ( 'NONE', *, *, #27, .F. ) ;
#106 = APPROVAL_STATUS ( 'not_yet_approved' ) ;
#107 = PERSON ( 'UNSPECIFIED', 'UNSPECIFIED', 'UNSPECIFIED', ('UNSPECIFIED'), ('UNSPECIFIED'), ('UNSPECIFIED') ) ;
#108 = APPROVAL_DATE_TIME ( #140, #6 ) ;
#109 = CLOSED_SHELL ( 'NONE', ( #134, #150, #88, #37 ) ) ;
#110 = ORIENTED_EDGE ( 'NONE', *, *, #27, .T. ) ;
#111 = DIRECTION ( 'NONE',  ( 0.0000000000000000000, 0.0000000000000000000, -1.000000000000000000 ) ) ;
#112 = APPROVAL ( #70, 'UNSPECIFIED' ) ;
#113 = APPROVAL_PERSON_ORGANIZATION ( #144, #6, #169 ) ;
#114 = CARTESIAN_POINT ( 'NONE',  ( 0.0000000000000000000, 0.0000000000000000000, 0.0000000000000000000 ) ) ;
#115 = AXIS2_PLACEMENT_3D ( 'NONE', #50, #130, #77 ) ;
#116 = CC_DESIGN_APPROVAL ( #112, ( #86 ) ) ;
#117 = PERSON_AND_ORGANIZATION_ROLE ( 'creator' ) ;
#118 = DIRECTION ( 'NONE',  ( -1.000000000000000000, -0.0000000000000000000, -0.0000000000000000000 ) ) ;
#119 = DIRECTION ( 'NONE',  ( 0.0000000000000000000, 0.0000000000000000000, -1.000000000000000000 ) ) ;
#120 =( LENGTH_UNIT ( ) NAMED_UNIT ( * ) SI_UNIT ( .MILLI., .METRE. ) );
#121 = PRODUCT_DEFINITION_SHAPE ( 'NONE', 'NONE',  #163 ) ;
#122 = DATE_AND_TIME ( #156, #25 ) ;
#123 = FACE_OUTER_BOUND ( 'NONE', #104, .T. ) ;
#124 = CC_DESIGN_SECURITY_CLASSIFICATION ( #86, ( #43 ) ) ;
#125 = PERSON_AND_ORGANIZATION ( #107, #52 ) ;
#126 = FACE_OUTER_BOUND ( 'NONE', #139, .T. ) ;
#127 = DIRECTION ( 'NONE',  ( 1.000000000000000000, 0.0000000000000000000, 0.0000000000000000000 ) ) ;
#128 = SECURITY_CLASSIFICATION_LEVEL ( 'unclassified' ) ;
#129 = LOCAL_TIME ( 11, 21, 5.000000000000000000, #166 ) ;
#130 = DIRECTION ( 'NONE',  ( 1.000000000000000000, 0.0000000000000000000, 0.0000000000000000000 ) ) ;
#131 = CIRCLE ( 'NONE', #22, 20.00000000000000000 ) ;
#132 = DIRECTION ( 'NONE',  ( 1.000000000000000000, 0.0000000000000000000, 0.0000000000000000000 ) ) ;
#133 = PRODUCT_RELATED_PRODUCT_CATEGORY ( 'detail', '', ( #46 ) ) ;
#134 = ADVANCED_FACE ( 'NONE', ( #160, #95 ), #36, .T. ) ;
#135 =( NAMED_UNIT ( * ) SI_UNIT ( $, .STERADIAN. ) SOLID_ANGLE_UNIT ( ) );
#136 = CALENDAR_DATE ( 2016, 27, 4 ) ;
#137 = ADVANCED_BREP_SHAPE_REPRESENTATION ( 'CTR10-040-K41-016I-D2 T¨ºñð óûðôúð  öõ¸ªúð  ¦T- d40 L¦¦ ¸õ¨ð  (16ü),2ü', ( #33, #147 ), #103 ) ;
#138 = EDGE_LOOP ( 'NONE', ( #42 ) ) ;
#139 = EDGE_LOOP ( 'NONE', ( #80 ) ) ;
#140 = DATE_AND_TIME ( #9, #47 ) ;
#141 = ORIENTED_EDGE ( 'NONE', *, *, #30, .F. ) ;
#142 = PERSON_AND_ORGANIZATION_ROLE ( 'design_owner' ) ;
#143 = DATE_TIME_ROLE ( 'classification_date' ) ;
#144 = PERSON_AND_ORGANIZATION ( #107, #52 ) ;
#145 = EDGE_LOOP ( 'NONE', ( #71 ) ) ;
#146 = CARTESIAN_POINT ( 'NONE',  ( 2000.000000000000000, 0.0000000000000000000, 0.0000000000000000000 ) ) ;
#147 = AXIS2_PLACEMENT_3D ( 'NONE', #97, #17, #127 ) ;
#148 = DIRECTION ( 'NONE',  ( -1.000000000000000000, -0.0000000000000000000, -0.0000000000000000000 ) ) ;
#149 = CARTESIAN_POINT ( 'NONE',  ( 2000.000000000000000, 0.0000000000000000000, -18.75000000000000400 ) ) ;
#150 = ADVANCED_FACE ( 'NONE', ( #123, #168 ), #62, .F. ) ;
#151 = VERTEX_POINT ( 'NONE', #149 ) ;
#152 = LOCAL_TIME ( 11, 21, 5.000000000000000000, #20 ) ;
#153 = CC_DESIGN_PERSON_AND_ORGANIZATION_ASSIGNMENT ( #11, #142, ( #46 ) ) ;
#154 = SHAPE_DEFINITION_REPRESENTATION ( #121, #137 ) ;
#155 = APPLICATION_PROTOCOL_DEFINITION ( 'international standard', 'config_control_design', 1994, #69 ) ;
#156 = CALENDAR_DATE ( 2016, 27, 4 ) ;
#157 = APPROVAL_DATE_TIME ( #26, #112 ) ;
#158 = DIRECTION ( 'NONE',  ( 0.0000000000000000000, 0.0000000000000000000, -1.000000000000000000 ) ) ;
#159 = DIRECTION ( 'NONE',  ( 0.0000000000000000000, 0.0000000000000000000, 1.000000000000000000 ) ) ;
#160 = FACE_OUTER_BOUND ( 'NONE', #75, .T. ) ;
#161 = CARTESIAN_POINT ( 'NONE',  ( 2000.000000000000000, 0.0000000000000000000, -20.00000000000000000 ) ) ;
#162 = PERSON_AND_ORGANIZATION ( #107, #52 ) ;
#163 = PRODUCT_DEFINITION ( 'UNKNOWN', '', #43, #40 ) ;
#164 = DIRECTION ( 'NONE',  ( 1.000000000000000000, 0.0000000000000000000, 0.0000000000000000000 ) ) ;
#165 = CIRCLE ( 'NONE', #14, 18.75000000000000400 ) ;
#166 = COORDINATED_UNIVERSAL_TIME_OFFSET ( 3, 0, .AHEAD. ) ;
#167 = UNCERTAINTY_MEASURE_WITH_UNIT (LENGTH_MEASURE( 1.000000000000000100E-005 ), #120, 'distance_accuracy_value', 'NONE');
#168 = FACE_BOUND ( 'NONE', #98, .T. ) ;
#169 = APPROVAL_ROLE ( '' ) ;
ENDSEC;
END-ISO-10303-21;
