  0
SECTION
  2
HEADER
  9
$ACADVER
  1
AC1015
  9
$ACADMAINTVER
 70
     6
  9
$DWGCODEPAGE
  3
ANSI_1251
  9
$INSBASE
 10
0.0
 20
0.0
 30
0.0
  9
$EXTMIN
 10
0.0
 20
0.0
 30
0.0
  9
$EXTMAX
 10
2000.0
 20
2000.0
 30
0.0
  9
$LIMMIN
 10
0.0
 20
0.0
  9
$LIMMAX
 10
2000.0
 20
2000.0
  9
$ORTHOMODE
 70
     0
  9
$REGENMODE
 70
     1
  9
$FILLMODE
 70
     1
  9
$QTEXTMODE
 70
     0
  9
$MIRRTEXT
 70
     1
  9
$LTSCALE
 40
1.0
  9
$ATTMODE
 70
     1
  9
$TEXTSIZE
 40
5.0
  9
$TRACEWID
 40
1.0
  9
$TEXTSTYLE
  7
Standard
  9
$CLAYER
  8
0
  9
$CELTYPE
  6
ByLayer
  9
$CECOLOR
 62
   256
  9
$CELTSCALE
 40
1.0
  9
$DISPSILH
 70
     0
  9
$DIMSCALE
 40
1.0
  9
$DIMASZ
 40
5.0
  9
$DIMEXO
 40
0.0
  9
$DIMDLI
 40
3.75
  9
$DIMRND
 40
0.0
  9
$DIMDLE
 40
0.0
  9
$DIMEXE
 40
1.0
  9
$DIMTP
 40
0.0
  9
$DIMTM
 40
0.0
  9
$DIMTXT
 40
3.5
  9
$DIMCEN
 40
2.5
  9
$DIMTSZ
 40
0.0
  9
$DIMTOL
 70
     0
  9
$DIMLIM
 70
     0
  9
$DIMTIH
 70
     1
  9
$DIMTOH
 70
     1
  9
$DIMSE1
 70
     0
  9
$DIMSE2
 70
     0
  9
$DIMTAD
 70
     1
  9
$DIMZIN
 70
     0
  9
$DIMBLK
  1

  9
$DIMASO
 70
     1
  9
$DIMSHO
 70
     1
  9
$DIMPOST
  1

  9
$DIMAPOST
  1

  9
$DIMALT
 70
     0
  9
$DIMALTD
 70
     3
  9
$DIMALTF
 40
0.0393700787
  9
$DIMLFAC
 40
1.0
  9
$DIMTOFL
 70
     1
  9
$DIMTVP
 40
0.0
  9
$DIMTIX
 70
     0
  9
$DIMSOXD
 70
     0
  9
$DIMSAH
 70
     0
  9
$DIMBLK1
  1

  9
$DIMBLK2
  1

  9
$DIMSTYLE
  2
ISO-25
  9
$DIMCLRD
 70
     0
  9
$DIMCLRE
 70
     0
  9
$DIMCLRT
 70
     0
  9
$DIMTFAC
 40
1.0
  9
$DIMGAP
 40
1.5
  9
$DIMJUST
 70
     0
  9
$DIMSD1
 70
     0
  9
$DIMSD2
 70
     0
  9
$DIMTOLJ
 70
     0
  9
$DIMTZIN
 70
     0
  9
$DIMALTZ
 70
     0
  9
$DIMALTTZ
 70
     0
  9
$DIMUPT
 70
     0
  9
$DIMDEC
 70
     1
  9
$DIMTDEC
 70
     1
  9
$DIMALTU
 70
     2
  9
$DIMALTTD
 70
     3
  9
$DIMTXSTY
  7
Standard
  9
$DIMAUNIT
 70
     0
  9
$DIMADEC
 70
     2
  9
$DIMALTRND
 40
0.0
  9
$DIMAZIN
 70
     0
  9
$DIMDSEP
 70
    44
  9
$DIMATFIT
 70
     3
  9
$DIMFRAC
 70
     0
  9
$DIMLDRBLK
  1

  9
$DIMLUNIT
 70
     2
  9
$DIMLWD
 70
    -2
  9
$DIMLWE
 70
    -2
  9
$DIMTMOVE
 70
     0
  9
$LUNITS
 70
     2
  9
$LUPREC
 70
     1
  9
$SKETCHINC
 40
1.0
  9
$FILLETRAD
 40
0.0
  9
$AUNITS
 70
     0
  9
$AUPREC
 70
     2
  9
$MENU
  1
.
  9
$ELEVATION
 40
0.0
  9
$PELEVATION
 40
0.0
  9
$THICKNESS
 40
0.0
  9
$LIMCHECK
 70
     0
  9
$CHAMFERA
 40
0.0
  9
$CHAMFERB
 40
0.0
  9
$CHAMFERC
 40
0.0
  9
$CHAMFERD
 40
0.0
  9
$SKPOLY
 70
     0
  9
$TDCREATE
 40
2460213.624611748
  9
$TDUCREATE
 40
2460213.499611748
  9
$TDUPDATE
 40
2460213.624612164
  9
$TDUUPDATE
 40
2460213.499612164
  9
$TDINDWG
 40
0.0000000116
  9
$TDUSRTIMER
 40
0.0000000116
  9
$USRTIMER
 70
     1
  9
$ANGBASE
 50
0.0
  9
$ANGDIR
 70
     0
  9
$PDMODE
 70
     0
  9
$PDSIZE
 40
-1.0
  9
$PLINEWID
 40
0.0
  9
$SPLFRAME
 70
     0
  9
$SPLINETYPE
 70
     6
  9
$SPLINESEGS
 70
     8
  9
$HANDSEED
  5
28D
  9
$SURFTAB1
 70
     6
  9
$SURFTAB2
 70
     6
  9
$SURFTYPE
 70
     6
  9
$SURFU
 70
     6
  9
$SURFV
 70
     6
  9
$UCSBASE
  2

  9
$UCSNAME
  2

  9
$UCSORG
 10
0.0
 20
0.0
 30
0.0
  9
$UCSXDIR
 10
1.0
 20
0.0
 30
0.0
  9
$UCSYDIR
 10
0.0
 20
1.0
 30
0.0
  9
$UCSORTHOREF
  2

  9
$UCSORTHOVIEW
 70
     0
  9
$UCSORGTOP
 10
0.0
 20
0.0
 30
0.0
  9
$UCSORGBOTTOM
 10
0.0
 20
0.0
 30
0.0
  9
$UCSORGLEFT
 10
0.0
 20
0.0
 30
0.0
  9
$UCSORGRIGHT
 10
0.0
 20
0.0
 30
0.0
  9
$UCSORGFRONT
 10
0.0
 20
0.0
 30
0.0
  9
$UCSORGBACK
 10
0.0
 20
0.0
 30
0.0
  9
$PUCSBASE
  2

  9
$PUCSNAME
  2

  9
$PUCSORG
 10
0.0
 20
0.0
 30
0.0
  9
$PUCSXDIR
 10
1.0
 20
0.0
 30
0.0
  9
$PUCSYDIR
 10
0.0
 20
1.0
 30
0.0
  9
$PUCSORTHOREF
  2

  9
$PUCSORTHOVIEW
 70
     0
  9
$PUCSORGTOP
 10
0.0
 20
0.0
 30
0.0
  9
$PUCSORGBOTTOM
 10
0.0
 20
0.0
 30
0.0
  9
$PUCSORGLEFT
 10
0.0
 20
0.0
 30
0.0
  9
$PUCSORGRIGHT
 10
0.0
 20
0.0
 30
0.0
  9
$PUCSORGFRONT
 10
0.0
 20
0.0
 30
0.0
  9
$PUCSORGBACK
 10
0.0
 20
0.0
 30
0.0
  9
$USERI1
 70
     0
  9
$USERI2
 70
     0
  9
$USERI3
 70
     0
  9
$USERI4
 70
     0
  9
$USERI5
 70
     0
  9
$USERR1
 40
0.0
  9
$USERR2
 40
0.0
  9
$USERR3
 40
0.0
  9
$USERR4
 40
0.0
  9
$USERR5
 40
0.0
  9
$WORLDVIEW
 70
     1
  9
$SHADEDGE
 70
     3
  9
$SHADEDIF
 70
    70
  9
$TILEMODE
 70
     1
  9
$MAXACTVP
 70
    64
  9
$PINSBASE
 10
0.0
 20
0.0
 30
0.0
  9
$PLIMCHECK
 70
     0
  9
$PEXTMIN
 10
1.0000000000E+20
 20
1.0000000000E+20
 30
1.0000000000E+20
  9
$PEXTMAX
 10
-1.0000000000E+20
 20
-1.0000000000E+20
 30
-1.0000000000E+20
  9
$PLIMMIN
 10
0.0
 20
0.0
  9
$PLIMMAX
 10
420.0
 20
297.0
  9
$UNITMODE
 70
     0
  9
$VISRETAIN
 70
     1
  9
$PLINEGEN
 70
     0
  9
$PSLTSCALE
 70
     1
  9
$TREEDEPTH
 70
  3020
  9
$CMLSTYLE
  2
Standard
  9
$CMLJUST
 70
     0
  9
$CMLSCALE
 40
20.0
  9
$PROXYGRAPHICS
 70
     1
  9
$MEASUREMENT
 70
     1
  9
$CELWEIGHT
370
    -1
  9
$ENDCAPS
280
     0
  9
$JOINSTYLE
280
     0
  9
$LWDISPLAY
290
     1
  9
$INSUNITS
 70
     4
  9
$HYPERLINKBASE
  1

  9
$STYLESHEET
  1

  9
$XEDIT
290
     1
  9
$CEPSNTYPE
380
     0
  9
$PSTYLEMODE
290
     1
  9
$FINGERPRINTGUID
  2
{87152a47-ae7b-4dcf-bddf-225e21b63dbd}
  9
$VERSIONGUID
  2
{FAEB1C32-E019-11D5-929B-00C0DF256EC4}
  9
$EXTNAMES
290
     1
  9
$PSVPSCALE
 40
0.0
  9
$OLESTARTUP
290
     0
  0
ENDSEC
  0
SECTION
  2
CLASSES
  0
CLASS
  1
ACDBDICTIONARYWDFLT
  2
AcDbDictionaryWithDefault
  3
ObjectDBX Classes
 90
        0
280
     0
281
     0
  0
CLASS
  1
VISUALSTYLE
  2
AcDbVisualStyle
  3
ObjectDBX Classes
 90
     4095
280
     0
281
     0
  0
CLASS
  1
MATERIAL
  2
AcDbMaterial
  3
ObjectDBX Classes
 90
     1153
280
     0
281
     0
  0
CLASS
  1
SCALE
  2
AcDbScale
  3
ObjectDBX Classes
 90
     1153
280
     0
281
     0
  0
CLASS
  1
TABLESTYLE
  2
AcDbTableStyle
  3
ObjectDBX Classes
 90
     4095
280
     0
281
     0
  0
CLASS
  1
MLEADERSTYLE
  2
AcDbMLeaderStyle
  3
ACDB_MLEADERSTYLE_CLASS
 90
     4095
280
     0
281
     0
  0
CLASS
  1
SUN
  2
AcDbSun
  3
SCENEOE
 90
     1153
280
     0
281
     0
  0
CLASS
  1
ACDBPLACEHOLDER
  2
AcDbPlaceHolder
  3
ObjectDBX Classes
 90
        0
280
     0
281
     0
  0
CLASS
  1
LAYOUT
  2
AcDbLayout
  3
ObjectDBX Classes
 90
        0
280
     0
281
     0
  0
ENDSEC
  0
SECTION
  2
TABLES
  0
TABLE
  2
VPORT
  5
8
330
0
100
AcDbSymbolTable
 70
     1
  0
VPORT
  5
29
330
8
100
AcDbSymbolTableRecord
100
AcDbViewportTableRecord
  2
*Active
 70
     0
 10
0.0
 20
0.0
 11
1.0
 21
1.0
 12
1000.0
 22
1000.0
 13
0.0
 23
0.0
 14
10.0
 24
10.0
 15
10.0
 25
10.0
 16
0.0
 26
0.0
 36
1.0
 17
0.0
 27
0.0
 37
0.0
 40
2000.0
 41
1.0
 42
50.0
 43
0.0
 44
0.0
 50
0.0
 51
0.0
 71
     0
 72
  2000
 73
     1
 74
     3
 75
     0
 76
     0
 77
     0
 78
     0
281
     0
 65
     1
110
0.0
120
0.0
130
0.0
111
1.0
121
0.0
131
0.0
112
0.0
122
1.0
132
0.0
 79
     0
146
0.0
  0
ENDTAB
  0
TABLE
  2
LTYPE
  5
5
330
0
100
AcDbSymbolTable
 70
     8
  0
LTYPE
  5
14
330
5
100
AcDbSymbolTableRecord
100
AcDbLinetypeTableRecord
  2
ByBlock
 70
     0
  3

 72
    65
 73
     0
 40
0.0
  0
LTYPE
  5
15
330
5
100
AcDbSymbolTableRecord
100
AcDbLinetypeTableRecord
  2
ByLayer
 70
     0
  3

 72
    65
 73
     0
 40
0.0
  0
LTYPE
  5
16
330
5
100
AcDbSymbolTableRecord
100
AcDbLinetypeTableRecord
  2
Continuous
 70
     0
  3
Solid line
 72
    65
 73
     0
 40
0.0
  0
LTYPE
  5
5E
330
5
100
AcDbSymbolTableRecord
100
AcDbLinetypeTableRecord
  2
SLD-Сплошная
 70
     0
  3
SolidWorks Line Style
 72
    65
 73
     0
 40
0.0
  0
LTYPE
  5
5F
330
5
100
AcDbSymbolTableRecord
100
AcDbLinetypeTableRecord
  2
SLD-Штриховая
 70
     0
  3
SolidWorks Line Style
 72
    65
 73
     2
 40
1.905
 49
1.27
 74
     0
 49
-0.635
 74
     0
  0
LTYPE
  5
60
330
5
100
AcDbSymbolTableRecord
100
AcDbLinetypeTableRecord
  2
SLD-Штрихпункт.-с-двумя-точками
 70
     0
  3
SolidWorks Line Style
 72
    65
 73
     6
 40
12.7
 49
6.35
 74
     0
 49
-1.27
 74
     0
 49
1.27
 74
     0
 49
-1.27
 74
     0
 49
1.27
 74
     0
 49
-1.27
 74
     0
  0
LTYPE
  5
61
330
5
100
AcDbSymbolTableRecord
100
AcDbLinetypeTableRecord
  2
SLD-Штрихпункт.-утолщ.
 70
     0
  3
SolidWorks Line Style
 72
    65
 73
     4
 40
10.16
 49
6.35
 74
     0
 49
-1.27
 74
     0
 49
1.27
 74
     0
 49
-1.27
 74
     0
  0
LTYPE
  5
62
330
5
100
AcDbSymbolTableRecord
100
AcDbLinetypeTableRecord
  2
SLD-Осевая
 70
     0
  3
SolidWorks Line Style
 72
    65
 73
     4
 40
19.05
 49
15.24
 74
     0
 49
-1.27
 74
     0
 49
1.27
 74
     0
 49
-1.27
 74
     0
  0
LTYPE
  5
63
330
5
100
AcDbSymbolTableRecord
100
AcDbLinetypeTableRecord
  2
SLD-Сшитая
 70
     0
  3
SolidWorks Line Style
 72
    65
 73
     2
 40
0.635
 49
0.0
 74
     0
 49
-0.635
 74
     0
  0
LTYPE
  5
64
330
5
100
AcDbSymbolTableRecord
100
AcDbLinetypeTableRecord
  2
SLD-Тонкая-Толстая
 70
     0
  3
SolidWorks Line Style
 72
    65
 73
     2
 40
5.080508
 49
0.000508
 74
     0
 49
-5.08
 74
     0
  0
ENDTAB
  0
TABLE
  2
LAYER
  5
2
330
0
100
AcDbSymbolTable
 70
     3
  0
LAYER
  5
10
330
2
100
AcDbSymbolTableRecord
100
AcDbLayerTableRecord
  2
0
 70
     0
 62
     7
  6
Continuous
370
    -3
390
F
  0
LAYER
  5
65
330
2
100
AcDbSymbolTableRecord
100
AcDbLayerTableRecord
  2
1
 70
     0
 62
     7
  6
SLD-Сплошная
370
    -1
390
F
  0
LAYER
  5
66
330
2
100
AcDbSymbolTableRecord
100
AcDbLayerTableRecord
  2
2
 70
     0
 62
     7
  6
SLD-Сплошная
370
    -3
390
F
  0
ENDTAB
  0
TABLE
  2
STYLE
  5
3
330
0
100
AcDbSymbolTable
 70
     1
  0
STYLE
  5
11
330
3
100
AcDbSymbolTableRecord
100
AcDbTextStyleTableRecord
  2
Standard
 70
     0
 40
0.0
 41
1.0
 50
0.0
 71
     0
 42
5.0
  3
txt
  4

  0
ENDTAB
  0
TABLE
  2
VIEW
  5
6
330
0
100
AcDbSymbolTable
 70
     0
  0
ENDTAB
  0
TABLE
  2
UCS
  5
7
330
0
100
AcDbSymbolTable
 70
     0
  0
ENDTAB
  0
TABLE
  2
APPID
  5
9
330
0
100
AcDbSymbolTable
 70
     1
  0
APPID
  5
12
330
9
100
AcDbSymbolTableRecord
100
AcDbRegAppTableRecord
  2
ACAD
 70
     0
  0
ENDTAB
  0
TABLE
  2
DIMSTYLE
  5
A
330
0
100
AcDbSymbolTable
 70
     1
100
AcDbDimStyleTable
  0
DIMSTYLE
105
27
330
A
100
AcDbSymbolTableRecord
100
AcDbDimStyleTableRecord
  2
ISO-25
 70
     0
 41
2.5
 42
0.625
 43
3.75
 44
1.25
 73
     0
 74
     0
 77
     1
 78
     8
140
2.5
141
2.5
143
0.0393700787
147
0.625
171
     3
172
     1
178
     0
271
     2
272
     2
274
     3
278
    44
283
     0
284
     8
340
11
  0
ENDTAB
  0
TABLE
  2
BLOCK_RECORD
  5
1
330
0
100
AcDbSymbolTable
 70
     1
  0
BLOCK_RECORD
  5
1F
330
1
100
AcDbSymbolTableRecord
100
AcDbBlockTableRecord
  2
*Model_Space
340
22
  0
BLOCK_RECORD
  5
1B
330
1
100
AcDbSymbolTableRecord
100
AcDbBlockTableRecord
  2
*Paper_Space
340
1E
  0
BLOCK_RECORD
  5
23
330
1
100
AcDbSymbolTableRecord
100
AcDbBlockTableRecord
  2
*Paper_Space0
340
26
  0
ENDTAB
  0
ENDSEC
  0
SECTION
  2
BLOCKS
  0
BLOCK
  5
20
330
1F
100
AcDbEntity
  8
0
100
AcDbBlockBegin
  2
*Model_Space
 70
     0
 10
0.0
 20
0.0
 30
0.0
  3
*Model_Space
  1

  0
ENDBLK
  5
21
330
1F
100
AcDbEntity
  8
0
100
AcDbBlockEnd
  0
BLOCK
  5
1C
330
1B
100
AcDbEntity
 67
     1
  8
0
100
AcDbBlockBegin
  2
*Paper_Space
 70
     0
 10
0.0
 20
0.0
 30
0.0
  3
*Paper_Space
  1

  0
ENDBLK
  5
1D
330
1B
100
AcDbEntity
 67
     1
  8
0
100
AcDbBlockEnd
  0
BLOCK
  5
24
330
23
100
AcDbEntity
  8
0
100
AcDbBlockBegin
  2
*Paper_Space0
 70
     0
 10
0.0
 20
0.0
 30
0.0
  3
*Paper_Space0
  1

  0
ENDBLK
  5
25
330
23
100
AcDbEntity
  8
0
100
AcDbBlockEnd
  0
ENDSEC
  0
SECTION
  2
ENTITIES
  0
LINE
  5
67
330
1F
100
AcDbEntity
  8
1
  6
SLD-Сплошная
100
AcDbLine
 10
968.6054271659
 20
518.2292289255
 30
0.0
 11
968.6054271659
 21
517.0234668679
 31
0.0
  0
LINE
  5
68
330
1F
100
AcDbEntity
  8
1
  6
SLD-Сплошная
100
AcDbLine
 10
985.2054271659
 20
517.0234668679
 30
0.0
 11
985.2054271659
 21
518.2292289255
 31
0.0
  0
ARC
  5
69
330
1F
100
AcDbEntity
  8
1
  6
SLD-Сплошная
100
AcDbCircle
 10
969.6054271659
 20
517.0234668679
 30
0.0
 40
1.0
100
AcDbArc
 50
180.0
 51
257.5813184942
  0
ARC
  5
6A
330
1F
100
AcDbEntity
  8
1
  6
SLD-Сплошная
100
AcDbCircle
 10
984.2054271659
 20
517.0234668679
 30
0.0
 40
1.0
100
AcDbArc
 50
282.4186815058
 51
0.0
  0
ARC
  5
6B
330
1F
100
AcDbEntity
  8
1
  6
SLD-Сплошная
100
AcDbCircle
 10
976.9054271659
 20
550.1742289255
 30
0.0
 40
34.94500000000001
100
AcDbArc
 50
270.0104111827
 51
282.4186815058
  0
ARC
  5
6C
330
1F
100
AcDbEntity
  8
1
  6
SLD-Сплошная
100
AcDbCircle
 10
976.9054271659
 20
550.1742289255
 30
0.0
 40
34.94500000000001
100
AcDbArc
 50
257.5813184942
 51
270.0104111827
  0
LINE
  5
6D
330
1F
100
AcDbEntity
  8
1
  6
SLD-Сплошная
100
AcDbLine
 10
596.8054271659
 20
814.0292289255
 30
0.0
 11
595.3882698785
 21
816.7292289255
 31
0.0
  0
LINE
  5
6E
330
1F
100
AcDbEntity
  8
1
  6
SLD-Сплошная
100
AcDbLine
 10
595.3882698785
 20
816.7292289255
 30
0.0
 11
987.8225844534
 21
816.7292289255
 31
0.0
  0
LINE
  5
6F
330
1F
100
AcDbEntity
  8
1
  6
SLD-Сплошная
100
AcDbLine
 10
986.4054271659
 20
814.0292289255
 30
0.0
 11
987.8225844534
 21
816.7292289255
 31
0.0
  0
LINE
  5
70
330
1F
100
AcDbEntity
  8
1
  6
SLD-Сплошная
100
AcDbLine
 10
594.1054271659
 20
815.446386213
 30
0.0
 11
596.8054271659
 21
814.0292289255
 31
0.0
  0
LINE
  5
71
330
1F
100
AcDbEntity
  8
1
  6
SLD-Сплошная
100
AcDbLine
 10
594.1054271659
 20
815.446386213
 30
0.0
 11
595.1054271659
 21
815.446386213
 31
0.0
  0
LINE
  5
72
330
1F
100
AcDbEntity
  8
1
  6
SLD-Сплошная
100
AcDbLine
 10
595.1054271659
 20
815.446386213
 30
0.0
 11
596.8054271659
 21
814.0292289255
 31
0.0
  0
LINE
  5
73
330
1F
100
AcDbEntity
  8
1
  6
SLD-Сплошная
100
AcDbLine
 10
594.1054271659
 20
521.012071638
 30
0.0
 11
596.8054271659
 21
522.4292289255
 31
0.0
  0
LINE
  5
74
330
1F
100
AcDbEntity
  8
1
  6
SLD-Сплошная
100
AcDbLine
 10
594.1054271659
 20
815.446386213
 30
0.0
 11
594.1054271659
 21
521.012071638
 31
0.0
  0
CIRCLE
  5
75
330
1F
100
AcDbEntity
  8
1
  6
SLD-Сплошная
100
AcDbCircle
 10
929.105427166
 20
559.7292289255
 30
0.0
 40
0.5
  0
CIRCLE
  5
76
330
1F
100
AcDbEntity
  8
1
  6
SLD-Сплошная
100
AcDbCircle
 10
929.1054271659
 20
776.7292289255
 30
0.0
 40
0.5000000000001137
  0
CIRCLE
  5
77
330
1F
100
AcDbEntity
  8
1
  6
SLD-Сплошная
100
AcDbCircle
 10
649.1054271659
 20
756.7292289255
 30
0.0
 40
0.5
  0
CIRCLE
  5
78
330
1F
100
AcDbEntity
  8
1
  6
SLD-Сплошная
100
AcDbCircle
 10
649.1054271659
 20
579.7292289255
 30
0.0
 40
0.5
  0
LINE
  5
79
330
1F
100
AcDbEntity
  8
1
  6
SLD-Сплошная
100
AcDbLine
 10
596.8054271659
 20
814.0292289255
 30
0.0
 11
595.3882698785
 21
815.7292289255
 31
0.0
  0
LINE
  5
7A
330
1F
100
AcDbEntity
  8
1
  6
SLD-Сплошная
100
AcDbLine
 10
595.3882698785
 20
816.7292289255
 30
0.0
 11
595.3882698785
 21
815.7292289255
 31
0.0
  0
LINE
  5
7B
330
1F
100
AcDbEntity
  8
1
  6
SLD-Сплошная
100
AcDbLine
 10
595.1054271659
 20
521.012071638
 30
0.0
 11
596.8054271659
 21
522.4292289255
 31
0.0
  0
LINE
  5
7C
330
1F
100
AcDbEntity
  8
1
  6
SLD-Сплошная
100
AcDbLine
 10
594.1054271659
 20
521.012071638
 30
0.0
 11
595.1054271659
 21
521.012071638
 31
0.0
  0
LINE
  5
7D
330
1F
100
AcDbEntity
  8
1
  6
SLD-Сплошная
100
AcDbLine
 10
596.8054271659
 20
522.4292289255
 30
0.0
 11
595.3882698785
 21
520.7292289255
 31
0.0
  0
LINE
  5
7E
330
1F
100
AcDbEntity
  8
1
  6
SLD-Сплошная
100
AcDbLine
 10
596.8054271659
 20
522.4292289255
 30
0.0
 11
595.3882698785
 21
519.7292289255
 31
0.0
  0
LINE
  5
7F
330
1F
100
AcDbEntity
  8
1
  6
SLD-Сплошная
100
AcDbLine
 10
595.3882698785
 20
519.7292289255
 30
0.0
 11
595.3882698785
 21
520.7292289255
 31
0.0
  0
LINE
  5
80
330
1F
100
AcDbEntity
  8
1
  6
SLD-Сплошная
100
AcDbLine
 10
595.3882698785
 20
519.7292289255
 30
0.0
 11
987.8225844534
 21
519.7292289255
 31
0.0
  0
LINE
  5
81
330
1F
100
AcDbEntity
  8
1
  6
SLD-Сплошная
100
AcDbLine
 10
986.4054271659
 20
522.4292289256
 30
0.0
 11
987.8225844534
 21
519.7292289255
 31
0.0
  0
LINE
  5
82
330
1F
100
AcDbEntity
  8
1
  6
SLD-Сплошная
100
AcDbLine
 10
986.4054271659
 20
814.0292289255
 30
0.0
 11
987.8225844534
 21
815.7292289255
 31
0.0
  0
LINE
  5
83
330
1F
100
AcDbEntity
  8
1
  6
SLD-Сплошная
100
AcDbLine
 10
987.8225844534
 20
816.7292289255
 30
0.0
 11
987.8225844534
 21
815.7292289255
 31
0.0
  0
LINE
  5
84
330
1F
100
AcDbEntity
  8
1
  6
SLD-Сплошная
100
AcDbLine
 10
988.1054271659
 20
815.446386213
 30
0.0
 11
986.4054271659
 21
814.0292289255
 31
0.0
  0
LINE
  5
85
330
1F
100
AcDbEntity
  8
1
  6
SLD-Сплошная
100
AcDbLine
 10
989.1054271659
 20
815.446386213
 30
0.0
 11
988.1054271659
 21
815.446386213
 31
0.0
  0
LINE
  5
86
330
1F
100
AcDbEntity
  8
1
  6
SLD-Сплошная
100
AcDbLine
 10
989.1054271659
 20
815.446386213
 30
0.0
 11
986.4054271659
 21
814.0292289255
 31
0.0
  0
LINE
  5
87
330
1F
100
AcDbEntity
  8
1
  6
SLD-Сплошная
100
AcDbLine
 10
989.1054271659
 20
815.446386213
 30
0.0
 11
989.105427166
 21
521.012071638
 31
0.0
  0
LINE
  5
88
330
1F
100
AcDbEntity
  8
1
  6
SLD-Сплошная
100
AcDbLine
 10
989.105427166
 20
521.012071638
 30
0.0
 11
986.405427166
 21
522.4292289256
 31
0.0
  0
LINE
  5
89
330
1F
100
AcDbEntity
  8
1
  6
SLD-Сплошная
100
AcDbLine
 10
989.105427166
 20
521.012071638
 30
0.0
 11
988.105427166
 21
521.012071638
 31
0.0
  0
LINE
  5
8A
330
1F
100
AcDbEntity
  8
1
  6
SLD-Сплошная
100
AcDbLine
 10
988.105427166
 20
521.012071638
 30
0.0
 11
986.405427166
 21
522.4292289256
 31
0.0
  0
LINE
  5
8B
330
1F
100
AcDbEntity
  8
1
  6
SLD-Сплошная
100
AcDbLine
 10
986.4054271659
 20
522.4292289255
 30
0.0
 11
987.8225844534
 21
520.7292289255
 31
0.0
  0
LINE
  5
8C
330
1F
100
AcDbEntity
  8
1
  6
SLD-Сплошная
100
AcDbLine
 10
987.8225844534
 20
519.7292289255
 30
0.0
 11
987.8225844534
 21
520.7292289255
 31
0.0
  0
LINE
  5
8D
330
1F
100
AcDbEntity
  8
1
  6
SLD-Сплошная
100
AcDbLine
 10
594.6175592003
 20
521.012071638
 30
0.0
 11
593.9054271659
 21
520.2999396037
 31
0.0
  0
LINE
  5
8E
330
1F
100
AcDbEntity
  8
1
  6
SLD-Сплошная
100
AcDbLine
 10
594.6175592003
 20
815.446386213
 30
0.0
 11
593.9054271659
 21
816.1585182474
 31
0.0
  0
LINE
  5
8F
330
1F
100
AcDbEntity
  8
1
  6
SLD-Сплошная
100
AcDbLine
 10
989.9054271659
 20
520.2999396036
 30
0.0
 11
989.105427166
 21
521.0999396036
 31
0.0
  0
LINE
  5
90
330
1F
100
AcDbEntity
  8
1
  6
SLD-Сплошная
100
AcDbLine
 10
989.9054271659
 20
816.1585182474
 30
0.0
 11
989.1054271659
 21
815.3585182474
 31
0.0
  0
LINE
  5
91
330
1F
100
AcDbEntity
  8
1
  6
SLD-Сплошная
100
AcDbLine
 10
989.0518737754
 20
815.446386213
 30
0.0
 11
989.8347164879
 21
816.2292289255
 31
0.0
  0
LINE
  5
92
330
1F
100
AcDbEntity
  8
1
  6
SLD-Сплошная
100
AcDbLine
 10
593.9761378441
 20
816.2292289255
 30
0.0
 11
594.7589805566
 21
815.446386213
 31
0.0
  0
LINE
  5
93
330
1F
100
AcDbEntity
  8
1
  6
SLD-Сплошная
100
AcDbLine
 10
593.9761378441
 20
520.2292289255
 30
0.0
 11
594.7589805566
 21
521.012071638
 31
0.0
  0
LINE
  5
94
330
1F
100
AcDbEntity
  8
1
  6
SLD-Сплошная
100
AcDbLine
 10
989.0518737754
 20
521.012071638
 30
0.0
 11
989.8347164879
 21
520.2292289255
 31
0.0
  0
LINE
  5
95
330
1F
100
AcDbEntity
  8
1
  6
SLD-Сплошная
100
AcDbLine
 10
593.9054271659
 20
818.2292289255
 30
0.0
 11
989.9054271659
 21
818.2292289255
 31
0.0
  0
ELLIPSE
  5
96
330
1F
100
AcDbEntity
  8
1
  6
SLD-Сплошная
100
AcDbEllipse
 10
989.9054271659
 20
816.2292289255
 30
0.0
 11
0.0
 21
2.0
 31
0.0
210
0.0
220
0.0
230
1.0
 40
0.035355339
 41
0.0
 42
1.570796326794897
  0
ELLIPSE
  5
97
330
1F
100
AcDbEntity
  8
1
  6
SLD-Сплошная
100
AcDbEllipse
 10
593.9054271659
 20
816.2292289255
 30
0.0
 11
0.0
 21
2.0
 31
0.0
210
0.0
220
0.0
230
1.0
 40
0.0353553391
 41
4.71238898038469
 42
6.283185307179586
  0
ELLIPSE
  5
98
330
1F
100
AcDbEntity
  8
1
  6
SLD-Сплошная
100
AcDbEllipse
 10
989.9054271659
 20
520.2292289255
 30
0.0
 11
2.0
 21
0.0
 31
0.0
210
0.0
220
0.0
230
1.0
 40
0.0353553391
 41
0.0
 42
1.57079632679484
  0
LINE
  5
99
330
1F
100
AcDbEntity
  8
1
  6
SLD-Сплошная
100
AcDbLine
 10
991.9054271659
 20
520.2292289255
 30
0.0
 11
990.9054271659
 21
520.2292289255
 31
0.0
  0
ELLIPSE
  5
9A
330
1F
100
AcDbEntity
  8
1
  6
SLD-Сплошная
100
AcDbEllipse
 10
989.9054271659
 20
520.2292289255
 30
0.0
 11
1.0
 21
0.0
 31
0.0
210
0.0
220
0.0
230
1.0
 40
0.0707106781
 41
0.0
 42
1.570796326794783
  0
ELLIPSE
  5
9B
330
1F
100
AcDbEntity
  8
1
  6
SLD-Сплошная
100
AcDbEllipse
 10
989.9054271659
 20
816.2292289255
 30
0.0
 11
0.0
 21
1.0
 31
0.0
210
0.0
220
0.0
230
1.0
 40
0.0707106781
 41
0.0
 42
1.570796326794897
  0
LINE
  5
9C
330
1F
100
AcDbEntity
  8
1
  6
SLD-Сплошная
100
AcDbLine
 10
989.9054271659
 20
817.2292289255
 30
0.0
 11
989.9054271659
 21
818.2292289255
 31
0.0
  0
ELLIPSE
  5
9D
330
1F
100
AcDbEntity
  8
1
  6
SLD-Сплошная
100
AcDbEllipse
 10
593.9054271659
 20
816.2292289255
 30
0.0
 11
2.0
 21
0.0
 31
0.0
210
0.0
220
0.0
230
1.0
 40
0.0353553391
 41
3.141592653588182
 42
4.71238898038469
  0
ELLIPSE
  5
9E
330
1F
100
AcDbEntity
  8
1
  6
SLD-Сплошная
100
AcDbEllipse
 10
593.9054271659
 20
520.2292289255
 30
0.0
 11
2.0
 21
1.136868377216160E-13
 31
0.0
210
0.0
220
0.0
230
1.0
 40
0.0353553391
 41
1.570796326794895
 42
3.141592653588182
  0
LINE
  5
9F
330
1F
100
AcDbEntity
  8
1
  6
SLD-Сплошная
100
AcDbLine
 10
591.9054271659
 20
520.2292289255
 30
0.0
 11
591.9054271659
 21
816.2292289255
 31
0.0
  0
ELLIPSE
  5
A0
330
1F
100
AcDbEntity
  8
1
  6
SLD-Сплошная
100
AcDbEllipse
 10
593.9054271659
 20
520.2292289255
 30
0.0
 11
1.0
 21
0.0
 31
0.0
210
0.0
220
0.0
230
1.0
 40
0.0707106782
 41
1.570796326794897
 42
3.141592653589791
  0
LINE
  5
A1
330
1F
100
AcDbEntity
  8
1
  6
SLD-Сплошная
100
AcDbLine
 10
592.9054271659
 20
520.2292289255
 30
0.0
 11
591.9054271659
 21
520.2292289255
 31
0.0
  0
ELLIPSE
  5
A2
330
1F
100
AcDbEntity
  8
1
  6
SLD-Сплошная
100
AcDbEllipse
 10
989.9054271659
 20
816.2292289255
 30
0.0
 11
1.0
 21
0.0
 31
0.0
210
0.0
220
0.0
230
1.0
 40
0.0707106781
 41
4.712388980384804
 42
6.283185307179586
  0
LINE
  5
A3
330
1F
100
AcDbEntity
  8
1
  6
SLD-Сплошная
100
AcDbLine
 10
991.9054271659
 20
816.2292289255
 30
0.0
 11
990.9054271659
 21
816.2292289255
 31
0.0
  0
ELLIPSE
  5
A4
330
1F
100
AcDbEntity
  8
1
  6
SLD-Сплошная
100
AcDbEllipse
 10
989.9054271659
 20
816.2292289255
 30
0.0
 11
2.0
 21
0.0
 31
0.0
210
0.0
220
0.0
230
1.0
 40
0.0353553391
 41
4.712388980384747
 42
6.283185307179586
  0
ELLIPSE
  5
A5
330
1F
100
AcDbEntity
  8
1
  6
SLD-Сплошная
100
AcDbEllipse
 10
989.9054271659
 20
520.2292289255
 30
0.0
 11
0.0
 21
2.0
 31
0.0
210
0.0
220
0.0
230
1.0
 40
0.035355339
 41
1.570796326794953
 42
3.14159265358979
  0
LINE
  5
A6
330
1F
100
AcDbEntity
  8
1
  6
SLD-Сплошная
100
AcDbLine
 10
595.0054271659
 20
518.2292289255
 30
0.0
 11
989.9054271659
 21
518.2292289255
 31
0.0
  0
LINE
  5
A7
330
1F
100
AcDbEntity
  8
1
  6
SLD-Сплошная
100
AcDbLine
 10
593.9054271659
 20
518.2292289255
 30
0.0
 11
595.0054271659
 21
518.2292289255
 31
0.0
  0
ELLIPSE
  5
A8
330
1F
100
AcDbEntity
  8
1
  6
SLD-Сплошная
100
AcDbEllipse
 10
593.9054271659
 20
520.2292289255
 30
0.0
 11
0.0
 21
2.0
 31
0.0
210
0.0
220
0.0
230
1.0
 40
0.0353553391
 41
3.141592653591799
 42
4.712388980384633
  0
ELLIPSE
  5
A9
330
1F
100
AcDbEntity
  8
1
  6
SLD-Сплошная
100
AcDbEllipse
 10
593.9054271659
 20
816.2292289255
 30
0.0
 11
1.0
 21
0.0
 31
0.0
210
0.0
220
0.0
230
1.0
 40
0.0707106782
 41
3.141592653589791
 42
4.712388980384691
  0
LINE
  5
AA
330
1F
100
AcDbEntity
  8
1
  6
SLD-Сплошная
100
AcDbLine
 10
592.9054271659
 20
816.2292289255
 30
0.0
 11
591.9054271659
 21
816.2292289255
 31
0.0
  0
ELLIPSE
  5
AB
330
1F
100
AcDbEntity
  8
1
  6
SLD-Сплошная
100
AcDbEllipse
 10
989.9054271659
 20
520.2292289255
 30
0.0
 11
0.0
 21
1.0
 31
0.0
210
0.0
220
0.0
230
1.0
 40
0.0707106781
 41
1.57079632679501
 42
3.141592653589791
  0
LINE
  5
AC
330
1F
100
AcDbEntity
  8
1
  6
SLD-Сплошная
100
AcDbLine
 10
989.9054271659
 20
519.2292289255
 30
0.0
 11
989.9054271659
 21
518.2292289255
 31
0.0
  0
ELLIPSE
  5
AD
330
1F
100
AcDbEntity
  8
1
  6
SLD-Сплошная
100
AcDbEllipse
 10
593.9054271659
 20
816.2292289255
 30
0.0
 11
0.0
 21
1.0
 31
0.0
210
0.0
220
0.0
230
1.0
 40
0.0707106781
 41
4.712388980384691
 42
6.283185307179586
  0
LINE
  5
AE
330
1F
100
AcDbEntity
  8
1
  6
SLD-Сплошная
100
AcDbLine
 10
593.9054271659
 20
818.2292289255
 30
0.0
 11
593.9054271659
 21
817.2292289255
 31
0.0
  0
LINE
  5
AF
330
1F
100
AcDbEntity
  8
1
  6
SLD-Сплошная
100
AcDbLine
 10
593.9054271659
 20
518.2292289255
 30
0.0
 11
593.9054271659
 21
518.5588996167
 31
0.0
  0
LINE
  5
B0
330
1F
100
AcDbEntity
  8
1
  6
SLD-Сплошная
100
AcDbLine
 10
593.9054271659
 20
518.5588996167
 30
0.0
 11
593.9054271659
 21
519.2292289255
 31
0.0
  0
ELLIPSE
  5
B1
330
1F
100
AcDbEntity
  8
1
  6
SLD-Сплошная
100
AcDbEllipse
 10
593.9054271659
 20
520.2292289255
 30
0.0
 11
0.0
 21
1.0
 31
0.0
210
0.0
220
0.0
230
1.0
 40
0.0707106781
 41
3.1415926535916
 42
4.712388980384577
  0
LINE
  5
B2
330
1F
100
AcDbEntity
  8
1
  6
SLD-Сплошная
100
AcDbLine
 10
991.9054271659
 20
816.2292289255
 30
0.0
 11
991.9054271659
 21
520.2292289255
 31
0.0
  0
LINE
  5
B3
330
1F
100
AcDbEntity
  8
1
  6
SLD-Сплошная
100
AcDbLine
 10
593.0054271659
 20
520.2292289255
 30
0.0
 11
593.0054271659
 21
520.2600509955
 31
0.0
  0
LINE
  5
B4
330
1F
100
AcDbEntity
  8
1
  6
SLD-Сплошная
100
AcDbLine
 10
594.0054271659
 20
520.2585182474
 30
0.0
 11
594.0054271659
 21
520.3999396037
 31
0.0
  0
ARC
  5
B5
330
1F
100
AcDbEntity
  8
1
  6
SLD-Сплошная
100
AcDbCircle
 10
595.0054271659
 20
520.2292289255
 30
0.0
 40
2.0
100
AcDbArc
 50
180.0
 51
236.6329870308
  0
ARC
  5
B6
330
1F
100
AcDbEntity
  8
1
  6
SLD-Сплошная
100
AcDbCircle
 10
593.9054271659
 20
816.2292289255
 30
0.0
 40
1.000000000005457
100
AcDbArc
 50
90.0
 51
180.0
  0
ARC
  5
B7
330
1F
100
AcDbEntity
  8
1
  6
SLD-Сплошная
100
AcDbCircle
 10
593.9054271659
 20
816.2292289255
 30
0.0
 40
2.000000000005457
100
AcDbArc
 50
90.0
 51
180.0
  0
ARC
  5
B8
330
1F
100
AcDbEntity
  8
1
  6
SLD-Сплошная
100
AcDbCircle
 10
989.9054271659
 20
520.2292289255
 30
0.0
 40
1.0
100
AcDbArc
 50
270.0
 51
0.0
  0
ARC
  5
B9
330
1F
100
AcDbEntity
  8
1
  6
SLD-Сплошная
100
AcDbCircle
 10
989.9054271659
 20
520.2292289255
 30
0.0
 40
2.0
100
AcDbArc
 50
270.0
 51
0.0
  0
ARC
  5
BA
330
1F
100
AcDbEntity
  8
1
  6
SLD-Сплошная
100
AcDbCircle
 10
989.9054271659
 20
816.2292289255
 30
0.0
 40
2.0
100
AcDbArc
 50
0.0
 51
90.0
  0
ARC
  5
BB
330
1F
100
AcDbEntity
  8
1
  6
SLD-Сплошная
100
AcDbCircle
 10
989.9054271659
 20
816.2292289255
 30
0.0
 40
1.0
100
AcDbArc
 50
0.0
 51
90.0
  0
LINE
  5
BC
330
1F
100
AcDbEntity
  8
1
  6
SLD-Сплошная
100
AcDbLine
 10
990.9054271659
 20
520.2292289255
 30
0.0
 11
989.9761378441
 21
520.2292289255
 31
0.0
  0
LINE
  5
BD
330
1F
100
AcDbEntity
  8
1
  6
SLD-Сплошная
100
AcDbLine
 10
990.9054271659
 20
816.2292289255
 30
0.0
 11
989.9761378441
 21
816.2292289255
 31
0.0
  0
LINE
  5
BE
330
1F
100
AcDbEntity
  8
1
  6
SLD-Сплошная
100
AcDbLine
 10
593.9054271659
 20
817.2292289255
 30
0.0
 11
593.9054271659
 21
816.2999396036
 31
0.0
  0
LINE
  5
BF
330
1F
100
AcDbEntity
  8
1
  6
SLD-Сплошная
100
AcDbLine
 10
989.9054271659
 20
816.2999396036
 30
0.0
 11
989.9054271659
 21
817.2292289255
 31
0.0
  0
LINE
  5
C0
330
1F
100
AcDbEntity
  8
1
  6
SLD-Сплошная
100
AcDbLine
 10
989.9054271659
 20
520.1585182474
 30
0.0
 11
989.9054271659
 21
519.2292289255
 31
0.0
  0
LINE
  5
C1
330
1F
100
AcDbEntity
  8
1
  6
SLD-Сплошная
100
AcDbLine
 10
593.0054271659
 20
520.2292289255
 30
0.0
 11
592.9054271659
 21
520.2292289255
 31
0.0
  0
LINE
  5
C2
330
1F
100
AcDbEntity
  8
1
  6
SLD-Сплошная
100
AcDbLine
 10
593.8347164878
 20
816.2292289255
 30
0.0
 11
592.9054271659
 21
816.2292289255
 31
0.0
  0
CIRCLE
  5
C3
330
1F
100
AcDbEntity
  8
1
  6
SLD-Сплошная
100
AcDbCircle
 10
649.1054271659
 20
668.2292289255
 30
0.0
 40
14.0
  0
CIRCLE
  5
C4
330
1F
100
AcDbEntity
  8
1
  6
SLD-Сплошная
100
AcDbCircle
 10
649.1054271659
 20
668.2292289255
 30
0.0
 40
11.0
  0
CIRCLE
  5
C5
330
1F
100
AcDbEntity
  8
1
  6
SLD-Сплошная
100
AcDbCircle
 10
649.1054271659
 20
668.2292289255
 30
0.0
 40
8.0
  0
ARC
  5
C6
330
1F
100
AcDbEntity
  8
1
  6
SLD-Сплошная
100
AcDbCircle
 10
650.9921785119
 20
664.9612797331
 30
0.0
 40
1.0
100
AcDbArc
 50
240.0
 51
0.0
  0
LINE
  5
C7
330
1F
100
AcDbEntity
  8
1
  6
SLD-Сплошная
100
AcDbLine
 10
644.831924474
 20
667.3632035217
 30
0.0
 11
650.4921785119
 21
664.0952543293
 31
0.0
  0
ARC
  5
C8
330
1F
100
AcDbEntity
  8
1
  6
SLD-Сплошная
100
AcDbCircle
 10
645.331924474
 20
668.2292289255
 30
0.0
 40
0.9999999999999836
100
AcDbArc
 50
120.0
 51
240.0
  0
LINE
  5
C9
330
1F
100
AcDbEntity
  8
1
  6
SLD-Сплошная
100
AcDbLine
 10
650.4921785119
 20
672.3632035217
 30
0.0
 11
644.831924474
 21
669.0952543293
 31
0.0
  0
ARC
  5
CA
330
1F
100
AcDbEntity
  8
1
  6
SLD-Сплошная
100
AcDbCircle
 10
650.9921785119
 20
671.4971781179
 30
0.0
 40
1.0
100
AcDbArc
 50
0.0
 51
120.0
  0
LINE
  5
CB
330
1F
100
AcDbEntity
  8
1
  6
SLD-Сплошная
100
AcDbLine
 10
651.9921785119
 20
664.9612797331
 30
0.0
 11
651.9921785119
 21
671.4971781179
 31
0.0
  0
LINE
  5
CC
330
1F
100
AcDbEntity
  8
1
  6
SLD-Сплошная
100
AcDbLine
 10
1453.5363749706
 20
815.448911213
 30
0.0
 11
1453.5363749706
 21
521.009546638
 31
0.0
  0
ARC
  5
CD
330
1F
100
AcDbEntity
  8
1
  6
SLD-Сплошная
100
AcDbCircle
 10
1447.6017510093
 20
593.3792289255
 30
0.0
 40
0.2000000000001203
100
AcDbArc
 50
270.0
 51
338.1849373759
  0
ARC
  5
CE
330
1F
100
AcDbEntity
  8
1
  6
SLD-Сплошная
100
AcDbCircle
 10
1447.6017510093
 20
603.0792289255
 30
0.0
 40
0.2000000000001625
100
AcDbArc
 50
21.8150626241
 51
90.0
  0
LINE
  5
CF
330
1F
100
AcDbEntity
  8
1
  6
SLD-Сплошная
100
AcDbLine
 10
1446.4363749706
 20
593.1792289255
 30
0.0
 11
1447.6017510093
 21
593.1792289255
 31
0.0
  0
LINE
  5
D0
330
1F
100
AcDbEntity
  8
1
  6
SLD-Сплошная
100
AcDbLine
 10
1447.6017510093
 20
603.2792289255
 30
0.0
 11
1446.4363749706
 21
603.2792289255
 31
0.0
  0
ARC
  5
D1
330
1F
100
AcDbEntity
  8
1
  6
SLD-Сплошная
100
AcDbCircle
 10
1435.4851249706
 20
598.2292289255
 30
0.0
 40
13.25125000000011
100
AcDbArc
 50
338.1849373759
 51
0.0
  0
ARC
  5
D2
330
1F
100
AcDbEntity
  8
1
  6
SLD-Сплошная
100
AcDbCircle
 10
1435.4851249706
 20
598.2292289255
 30
0.0
 40
13.25125000000015
100
AcDbArc
 50
0.0
 51
21.8150626241
  0
ARC
  5
D3
330
1F
100
AcDbEntity
  8
1
  6
SLD-Сплошная
100
AcDbCircle
 10
1447.6017510093
 20
733.3792289255
 30
0.0
 40
0.2000000000001203
100
AcDbArc
 50
270.0
 51
338.1849373759
  0
ARC
  5
D4
330
1F
100
AcDbEntity
  8
1
  6
SLD-Сплошная
100
AcDbCircle
 10
1447.6017510093
 20
743.0792289255
 30
0.0
 40
0.2000000000002048
100
AcDbArc
 50
21.8150626241
 51
90.0
  0
LINE
  5
D5
330
1F
100
AcDbEntity
  8
1
  6
SLD-Сплошная
100
AcDbLine
 10
1446.4363749706
 20
733.1792289255
 30
0.0
 11
1447.6017510093
 21
733.1792289255
 31
0.0
  0
LINE
  5
D6
330
1F
100
AcDbEntity
  8
1
  6
SLD-Сплошная
100
AcDbLine
 10
1447.6017510093
 20
743.2792289255
 30
0.0
 11
1446.4363749706
 21
743.2792289255
 31
0.0
  0
ARC
  5
D7
330
1F
100
AcDbEntity
  8
1
  6
SLD-Сплошная
100
AcDbCircle
 10
1435.4851249706
 20
738.2292289255
 30
0.0
 40
13.25125000000011
100
AcDbArc
 50
338.1849373759
 51
0.0
  0
ARC
  5
D8
330
1F
100
AcDbEntity
  8
1
  6
SLD-Сплошная
100
AcDbCircle
 10
1435.4851249706
 20
738.2292289255
 30
0.0
 40
13.2512500000002
100
AcDbArc
 50
0.0
 51
21.8150626241
  0
LINE
  5
D9
330
1F
100
AcDbEntity
  8
1
  6
SLD-Сплошная
100
AcDbLine
 10
1423.1363749706
 20
518.2292289255
 30
0.0
 11
1423.1363749706
 21
517.0234668679
 31
0.0
  0
LINE
  5
DA
330
1F
100
AcDbEntity
  8
1
  6
SLD-Сплошная
100
AcDbLine
 10
1439.7363749706
 20
517.0234668679
 30
0.0
 11
1439.7363749706
 21
518.2292289255
 31
0.0
  0
ARC
  5
DB
330
1F
100
AcDbEntity
  8
1
  6
SLD-Сплошная
100
AcDbCircle
 10
1424.1363749706
 20
517.0234668679
 30
0.0
 40
1.0
100
AcDbArc
 50
180.0
 51
257.5813184942
  0
ARC
  5
DC
330
1F
100
AcDbEntity
  8
1
  6
SLD-Сплошная
100
AcDbCircle
 10
1438.7363749706
 20
517.0234668679
 30
0.0
 40
1.0
100
AcDbArc
 50
282.4186815058
 51
0.0
  0
ARC
  5
DD
330
1F
100
AcDbEntity
  8
1
  6
SLD-Сплошная
100
AcDbCircle
 10
1431.4363749706
 20
550.1742289255
 30
0.0
 40
34.94500000000001
100
AcDbArc
 50
270.0104111827
 51
282.4186815058
  0
ARC
  5
DE
330
1F
100
AcDbEntity
  8
1
  6
SLD-Сплошная
100
AcDbCircle
 10
1431.4363749706
 20
550.1742289255
 30
0.0
 40
34.94500000000001
100
AcDbArc
 50
257.5813184942
 51
270.0104111827
  0
LINE
  5
DF
330
1F
100
AcDbEntity
  8
1
  6
SLD-Сплошная
100
AcDbLine
 10
1473.5363749706
 20
654.2292289255
 30
0.0
 11
1476.5363749706
 21
657.2292289255
 31
0.0
  0
LINE
  5
E0
330
1F
100
AcDbEntity
  8
1
  6
SLD-Сплошная
100
AcDbLine
 10
1476.5363749706
 20
679.2292289255
 30
0.0
 11
1473.5363749706
 21
682.2292289255
 31
0.0
  0
LINE
  5
E1
330
1F
100
AcDbEntity
  8
1
  6
SLD-Сплошная
100
AcDbLine
 10
1472.5363749706
 20
654.2292289255
 30
0.0
 11
1473.5363749706
 21
654.2292289255
 31
0.0
  0
LINE
  5
E2
330
1F
100
AcDbEntity
  8
1
  6
SLD-Сплошная
100
AcDbLine
 10
1473.5363749706
 20
682.2292289255
 30
0.0
 11
1472.5363749706
 21
682.2292289255
 31
0.0
  0
LINE
  5
E3
330
1F
100
AcDbEntity
  8
1
  6
SLD-Сплошная
100
AcDbLine
 10
1454.5863749706
 20
521.012071638
 30
0.0
 11
1469.8363749706
 21
521.012071638
 31
0.0
  0
LINE
  5
E4
330
1F
100
AcDbEntity
  8
1
  6
SLD-Сплошная
100
AcDbLine
 10
1454.5863749706
 20
815.446386213
 30
0.0
 11
1469.8363749706
 21
815.446386213
 31
0.0
  0
SPLINE
  5
E5
330
1F
100
AcDbEntity
  8
1
  6
SLD-Сплошная
100
AcDbSpline
210
0.0
220
0.0
230
1.0
 70
     8
 71
     3
 72
    11
 73
     7
 74
     0
 42
0.00000001
 43
0.00000001
 40
0.0
 40
0.0
 40
0.0
 40
0.0
 40
0.2499999999999993
 40
0.4999999999999961
 40
0.7500000000000033
 40
1.0
 40
1.0
 40
1.0
 40
1.0
 10
1454.586374970597
 20
815.4463862130319
 30
0.0
 10
1454.448786074601
 20
815.4422195463652
 30
0.0
 10
1454.173608282608
 20
815.4338862130318
 30
0.0
 10
1453.826536098656
 20
815.421386213032
 30
0.0
 10
1453.583724424878
 20
815.408886213032
 30
0.0
 10
1453.552158122024
 20
815.4005528796987
 30
0.0
 10
1453.536374970597
 20
815.396386213032
 30
0.0
  0
SPLINE
  5
E6
330
1F
100
AcDbEntity
  8
1
  6
SLD-Сплошная
100
AcDbSpline
210
0.0
220
0.0
230
1.0
 70
     8
 71
     3
 72
    11
 73
     7
 74
     0
 42
0.00000001
 43
0.00000001
 40
0.0
 40
0.0
 40
0.0
 40
0.0
 40
0.2499999999999922
 40
0.4999999999999971
 40
0.7499999999999966
 40
1.0
 40
1.0
 40
1.0
 40
1.0
 10
1453.536374970597
 20
521.0620716379846
 30
0.0
 10
1453.552158122024
 20
521.057904971318
 30
0.0
 10
1453.583724424876
 20
521.0495716379847
 30
0.0
 10
1453.826536098655
 20
521.0370716379846
 30
0.0
 10
1454.173608282607
 20
521.0245716379846
 30
0.0
 10
1454.448786074601
 20
521.0162383046513
 30
0.0
 10
1454.586374970597
 20
521.0120716379847
 30
0.0
  0
ELLIPSE
  5
E7
330
1F
100
AcDbEntity
  8
1
  6
SLD-Сплошная
100
AcDbEllipse
 10
1469.8363749706
 20
814.0292289255
 30
0.0
 11
2.700000000000045
 21
0.0
 31
0.0
210
0.0
220
0.0
230
1.0
 40
0.5248730695
 41
0.0
 42
1.570796326794897
  0
LINE
  5
E8
330
1F
100
AcDbEntity
  8
1
  6
SLD-Сплошная
100
AcDbLine
 10
1472.5363749706
 20
814.0292289255
 30
0.0
 11
1472.5363749706
 21
522.4292289255
 31
0.0
  0
ELLIPSE
  5
E9
330
1F
100
AcDbEntity
  8
1
  6
SLD-Сплошная
100
AcDbEllipse
 10
1469.8363749706
 20
522.4292289255
 30
0.0
 11
2.699999999999818
 21
0.0
 31
0.0
210
0.0
220
0.0
230
1.0
 40
0.5248730695
 41
4.712388980384697
 42
6.283185307179586
  0
LINE
  5
EA
330
1F
100
AcDbEntity
  8
1
  6
SLD-Сплошная
100
AcDbLine
 10
1469.8363749706
 20
816.7292289255
 30
0.0
 11
1454.5863749706
 21
816.7292289255
 31
0.0
  0
LINE
  5
EB
330
1F
100
AcDbEntity
  8
1
  6
SLD-Сплошная
100
AcDbLine
 10
1469.8363749706
 20
815.7292289255
 30
0.0
 11
1454.5863749706
 21
815.7292289255
 31
0.0
  0
LINE
  5
EC
330
1F
100
AcDbEntity
  8
1
  6
SLD-Сплошная
100
AcDbLine
 10
1454.5863749706
 20
816.7292289255
 30
0.0
 11
1454.5863749706
 21
815.7292289255
 31
0.0
  0
LINE
  5
ED
330
1F
100
AcDbEntity
  8
1
  6
SLD-Сплошная
100
AcDbLine
 10
1454.5363749706
 20
815.6792289255
 30
0.0
 11
1453.5363749706
 21
815.6792289255
 31
0.0
  0
SPLINE
  5
EE
330
1F
100
AcDbEntity
  8
1
  6
SLD-Сплошная
100
AcDbSpline
210
0.0
220
0.0
230
1.0
 70
     8
 71
     3
 72
    11
 73
     7
 74
     0
 42
0.00000001
 43
0.00000001
 40
0.0
 40
0.0
 40
0.0
 40
0.0
 40
0.2499999999999976
 40
0.5000000000000034
 40
0.7500000000000003
 40
0.9999999999999999
 40
0.9999999999999999
 40
0.9999999999999999
 40
0.9999999999999999
 10
1453.536374970597
 20
815.6792289255081
 30
0.0
 10
1453.552158122024
 20
815.8168178215047
 30
0.0
 10
1453.583724424878
 20
816.0919956134978
 30
0.0
 10
1453.826536098656
 20
816.4390677974495
 30
0.0
 10
1454.173608282608
 20
816.6818794712281
 30
0.0
 10
1454.448786074601
 20
816.7134457740815
 30
0.0
 10
1454.586374970597
 20
816.7292289255081
 30
0.0
  0
SPLINE
  5
EF
330
1F
100
AcDbEntity
  8
1
  6
SLD-Сплошная
100
AcDbSpline
210
0.0
220
0.0
230
1.0
 70
     8
 71
     3
 72
    11
 73
     7
 74
     0
 42
0.00000001
 43
0.00000001
 40
0.0
 40
0.0
 40
0.0
 40
0.0
 40
0.2499999999997305
 40
0.4999999999997136
 40
0.7499999999995306
 40
1.0
 40
1.0
 40
1.0
 40
1.0
 10
1454.536374970597
 20
815.6792289255081
 30
0.0
 10
1454.537126549237
 20
815.6857807776984
 30
0.0
 10
1454.538629706515
 20
815.698884482079
 30
0.0
 10
1454.550192167171
 20
815.715411728934
 30
0.0
 10
1454.566719414027
 20
815.72697418959
 30
0.0
 10
1454.579823118407
 20
815.7284773468687
 30
0.0
 10
1454.586374970597
 20
815.7292289255081
 30
0.0
  0
LINE
  5
F0
330
1F
100
AcDbEntity
  8
1
  6
SLD-Сплошная
100
AcDbLine
 10
1469.8363749706
 20
520.7292289255
 30
0.0
 11
1454.5863749706
 21
520.7292289255
 31
0.0
  0
LINE
  5
F1
330
1F
100
AcDbEntity
  8
1
  6
SLD-Сплошная
100
AcDbLine
 10
1469.8363749706
 20
519.7292289255
 30
0.0
 11
1454.5863749706
 21
519.7292289255
 31
0.0
  0
LINE
  5
F2
330
1F
100
AcDbEntity
  8
1
  6
SLD-Сплошная
100
AcDbLine
 10
1454.5863749706
 20
519.7292289255
 30
0.0
 11
1454.5863749706
 21
520.7292289255
 31
0.0
  0
SPLINE
  5
F3
330
1F
100
AcDbEntity
  8
1
  6
SLD-Сплошная
100
AcDbSpline
210
0.0
220
0.0
230
1.0
 70
     8
 71
     3
 72
    11
 73
     7
 74
     0
 42
0.00000001
 43
0.00000001
 40
0.0
 40
0.0
 40
0.0
 40
0.0
 40
0.2500000000000013
 40
0.4999999999999926
 40
0.7499999999999992
 40
1.0
 40
1.0
 40
1.0
 40
1.0
 10
1454.586374970597
 20
519.7292289255083
 30
0.0
 10
1454.448786074601
 20
519.745012076935
 30
0.0
 10
1454.173608282608
 20
519.7765783797884
 30
0.0
 10
1453.826536098656
 20
520.0193900535669
 30
0.0
 10
1453.583724424878
 20
520.3664622375186
 30
0.0
 10
1453.552158122024
 20
520.6416400295119
 30
0.0
 10
1453.536374970597
 20
520.7792289255083
 30
0.0
  0
LINE
  5
F4
330
1F
100
AcDbEntity
  8
1
  6
SLD-Сплошная
100
AcDbLine
 10
1454.5363749706
 20
520.7792289255
 30
0.0
 11
1453.5363749706
 21
520.7792289255
 31
0.0
  0
SPLINE
  5
F5
330
1F
100
AcDbEntity
  8
1
  6
SLD-Сплошная
100
AcDbSpline
210
0.0
220
0.0
230
1.0
 70
     8
 71
     3
 72
    11
 73
     7
 74
     0
 42
0.00000001
 43
0.00000001
 40
0.0
 40
0.0
 40
0.0
 40
0.0
 40
0.2500000000000145
 40
0.4999999999999657
 40
0.7500000000001091
 40
1.0
 40
1.0
 40
1.0
 40
1.0
 10
1454.586374970597
 20
520.7292289255083
 30
0.0
 10
1454.579823118407
 20
520.7299805041476
 30
0.0
 10
1454.566719414026
 20
520.7314836614264
 30
0.0
 10
1454.550192167171
 20
520.7430461220825
 30
0.0
 10
1454.538629706515
 20
520.7595733689374
 30
0.0
 10
1454.537126549237
 20
520.7726770733179
 30
0.0
 10
1454.536374970597
 20
520.7792289255083
 30
0.0
  0
ARC
  5
F6
330
1F
100
AcDbEntity
  8
1
  6
SLD-Сплошная
100
AcDbCircle
 10
1469.8363749706
 20
814.0292289255
 30
0.0
 40
2.700000000000045
100
AcDbArc
 50
359.9999999996
 51
90.0
  0
ARC
  5
F7
330
1F
100
AcDbEntity
  8
1
  6
SLD-Сплошная
100
AcDbCircle
 10
1469.8363749706
 20
814.0292289255
 30
0.0
 40
1.699999999999932
100
AcDbArc
 50
49.5408896289
 51
90.0
  0
ARC
  5
F8
330
1F
100
AcDbEntity
  8
1
  6
SLD-Сплошная
100
AcDbCircle
 10
1469.8363749706
 20
522.4292289255
 30
0.0
 40
1.700000000000045
100
AcDbArc
 50
270.0
 51
310.4591103715
  0
ARC
  5
F9
330
1F
100
AcDbEntity
  8
1
  6
SLD-Сплошная
100
AcDbCircle
 10
1469.8363749706
 20
522.4292289255
 30
0.0
 40
2.700000000000159
100
AcDbArc
 50
270.0
 51
0.0000000004
  0
LINE
  5
FA
330
1F
100
AcDbEntity
  8
1
  6
SLD-Сплошная
100
AcDbLine
 10
1454.5863749706
 20
815.446386213
 30
0.0
 11
1454.5863749706
 21
815.6292289255
 31
0.0
  0
LINE
  5
FB
330
1F
100
AcDbEntity
  8
1
  6
SLD-Сплошная
100
AcDbLine
 10
1453.6045515213
 20
815.35506107
 30
0.0
 11
1453.5363749706
 21
815.6792289255
 31
0.0
  0
SPLINE
  5
FC
330
1F
100
AcDbEntity
  8
1
  6
SLD-Сплошная
100
AcDbSpline
210
0.0
220
0.0
230
1.0
 70
     8
 71
     3
 72
    10
 73
     6
 74
     0
 42
0.00000001
 43
0.00000001
 40
0.0
 40
0.0
 40
0.0
 40
0.0
 40
0.358548661096823
 40
0.5969690046283305
 40
1.0
 40
1.0
 40
1.0
 40
1.0
 10
1454.586374970597
 20
815.6292289255082
 30
0.0
 10
1454.570948778066
 20
815.6351459685002
 30
0.0
 10
1454.545264792042
 20
815.6449976055262
 30
0.0
 10
1454.539373218154
 20
815.6618976277355
 30
0.0
 10
1454.537531894614
 20
815.6725413541023
 30
0.0
 10
1454.536374970597
 20
815.6792289255081
 30
0.0
  0
LINE
  5
FD
330
1F
100
AcDbEntity
  8
1
  6
SLD-Сплошная
100
AcDbLine
 10
1454.5863749706
 20
521.012071638
 30
0.0
 11
1454.5863749706
 21
520.8292289255
 31
0.0
  0
SPLINE
  5
FE
330
1F
100
AcDbEntity
  8
1
  6
SLD-Сплошная
100
AcDbSpline
210
0.0
220
0.0
230
1.0
 70
     8
 71
     3
 72
    10
 73
     6
 74
     0
 42
0.00000001
 43
0.00000001
 40
0.0
 40
0.0
 40
0.0
 40
0.0
 40
0.4215647020348028
 40
0.6406677011981803
 40
1.0
 40
1.0
 40
1.0
 40
1.0
 10
1454.536374970597
 20
520.7792289255083
 30
0.0
 10
1454.537715010524
 20
520.7864836745182
 30
0.0
 10
1454.5397515195
 20
520.797508988897
 30
0.0
 10
1454.545873524533
 20
520.8135988065212
 30
0.0
 10
1454.5708556908
 20
520.8232398013315
 30
0.0
 10
1454.586374970597
 20
520.8292289255085
 30
0.0
  0
LINE
  5
FF
330
1F
100
AcDbEntity
  8
1
  6
SLD-Сплошная
100
AcDbLine
 10
1453.5363749706
 20
520.7792289255
 30
0.0
 11
1453.5932405838
 21
521.0314702876
 31
0.0
  0
LINE
  5
100
330
1F
100
AcDbEntity
  8
1
  6
SLD-Сплошная
100
AcDbLine
 10
1469.4263749706
 20
815.4463862131
 30
0.0
 11
1469.4263749706
 21
815.6292289255
 31
0.0
  0
LINE
  5
101
330
1F
100
AcDbEntity
  8
1
  6
SLD-Сплошная
100
AcDbLine
 10
1469.4263749706
 20
815.6292289255
 30
0.0
 11
1454.5863749706
 21
815.6292289255
 31
0.0
  0
LINE
  5
102
330
1F
100
AcDbEntity
  8
1
  6
SLD-Сплошная
100
AcDbLine
 10
1469.4263749706
 20
520.8292289255
 30
0.0
 11
1454.5863749706
 21
520.8292289255
 31
0.0
  0
LINE
  5
103
330
1F
100
AcDbEntity
  8
1
  6
SLD-Сплошная
100
AcDbLine
 10
1469.4263749706
 20
521.012071638
 30
0.0
 11
1469.4263749706
 21
520.8292289255
 31
0.0
  0
ARC
  5
104
330
1F
100
AcDbEntity
  8
1
  6
SLD-Сплошная
100
AcDbCircle
 10
1469.4263749706
 20
813.6192289255
 30
0.0
 40
2.009999999999995
100
AcDbArc
 50
63.9069487137
 51
90.0
  0
ARC
  5
105
330
1F
100
AcDbEntity
  8
1
  6
SLD-Сплошная
100
AcDbCircle
 10
1469.4263749706
 20
522.8392289255
 30
0.0
 40
2.010000000000101
100
AcDbArc
 50
270.0
 51
296.0930512856
  0
LINE
  5
106
330
1F
100
AcDbEntity
  8
1
  6
SLD-Сплошная
100
AcDbLine
 10
1324.9363749706
 20
520.2292289255
 30
0.0
 11
1444.4363749706
 21
520.2292289255
 31
0.0
  0
CIRCLE
  5
107
330
1F
100
AcDbEntity
  8
1
  6
SLD-Сплошная
100
AcDbCircle
 10
1406.4363749706
 20
568.2292289255
 30
0.0
 40
0.5
  0
CIRCLE
  5
108
330
1F
100
AcDbEntity
  8
1
  6
SLD-Сплошная
100
AcDbCircle
 10
1406.4363749706
 20
768.2292289255
 30
0.0
 40
0.4999999999998863
  0
CIRCLE
  5
109
330
1F
100
AcDbEntity
  8
1
  6
SLD-Сплошная
100
AcDbCircle
 10
1356.4363749706
 20
778.2292289255
 30
0.0
 40
0.4999999999998863
  0
LINE
  5
10A
330
1F
100
AcDbEntity
  8
1
  6
SLD-Сплошная
100
AcDbLine
 10
1324.9363749706
 20
816.2292289255
 30
0.0
 11
1324.9363749706
 21
818.2292289255
 31
0.0
  0
LINE
  5
10B
330
1F
100
AcDbEntity
  8
1
  6
SLD-Сплошная
100
AcDbLine
 10
1324.9363749706
 20
818.2292289255
 30
0.0
 11
1444.4363749706
 21
818.2292289255
 31
0.0
  0
LINE
  5
10C
330
1F
100
AcDbEntity
  8
1
  6
SLD-Сплошная
100
AcDbLine
 10
1444.4363749706
 20
816.2292289255
 30
0.0
 11
1444.4363749706
 21
818.2292289255
 31
0.0
  0
ELLIPSE
  5
10D
330
1F
100
AcDbEntity
  8
1
  6
SLD-Сплошная
100
AcDbEllipse
 10
1324.9363749706
 20
815.6585182474
 30
0.0
 11
2.5
 21
0.0
 31
0.0
210
0.0
220
0.0
230
1.0
 40
0.6
 41
2.751284095273572
 42
3.141592653589793
  0
LINE
  5
10E
330
1F
100
AcDbEntity
  8
1
  6
SLD-Сплошная
100
AcDbLine
 10
1322.6243957068
 20
520.2292289255
 30
0.0
 11
1324.9363749706
 21
520.2292289255
 31
0.0
  0
ELLIPSE
  5
10F
330
1F
100
AcDbEntity
  8
1
  6
SLD-Сплошная
100
AcDbEllipse
 10
1324.9363749706
 20
520.7999396036
 30
0.0
 11
2.5
 21
0.0
 31
0.0
210
0.0
220
0.0
230
1.0
 40
0.6
 41
3.141592653589793
 42
3.531901211906035
  0
LINE
  5
110
330
1F
100
AcDbEntity
  8
1
  6
SLD-Сплошная
100
AcDbLine
 10
1322.4363749706
 20
520.7999396036
 30
0.0
 11
1322.4363749706
 21
815.6585182474
 31
0.0
  0
LINE
  5
111
330
1F
100
AcDbEntity
  8
1
  6
SLD-Сплошная
100
AcDbLine
 10
1322.6243957068
 20
816.2292289255
 30
0.0
 11
1324.9363749706
 21
816.2292289255
 31
0.0
  0
LINE
  5
112
330
1F
100
AcDbEntity
  8
1
  6
SLD-Сплошная
100
AcDbLine
 10
1446.4363749706
 20
816.1585182474
 30
0.0
 11
1444.4363749706
 21
816.2292289255
 31
0.0
  0
LINE
  5
113
330
1F
100
AcDbEntity
  8
1
  6
SLD-Сплошная
100
AcDbLine
 10
1446.4363749706
 20
816.1585182474
 30
0.0
 11
1446.4363749706
 21
520.2999396037
 31
0.0
  0
LINE
  5
114
330
1F
100
AcDbEntity
  8
1
  6
SLD-Сплошная
100
AcDbLine
 10
1446.4363749706
 20
520.2999396037
 30
0.0
 11
1444.4363749706
 21
520.2292289255
 31
0.0
  0
LINE
  5
115
330
1F
100
AcDbEntity
  8
1
  6
SLD-Сплошная
100
AcDbLine
 10
1324.9363749706
 20
518.5588996167
 30
0.0
 11
1324.9363749706
 21
520.2292289255
 31
0.0
  0
LINE
  5
116
330
1F
100
AcDbEntity
  8
1
  6
SLD-Сплошная
100
AcDbLine
 10
1444.4363749706
 20
520.2292289255
 30
0.0
 11
1444.4363749706
 21
518.5588996167
 31
0.0
  0
LINE
  5
117
330
1F
100
AcDbEntity
  8
1
  6
SLD-Сплошная
100
AcDbLine
 10
1444.4363749706
 20
518.2292289255
 30
0.0
 11
1324.9363749706
 21
518.2292289255
 31
0.0
  0
LINE
  5
118
330
1F
100
AcDbEntity
  8
1
  6
SLD-Сплошная
100
AcDbLine
 10
1324.9363749706
 20
518.5588996167
 30
0.0
 11
1324.9363749706
 21
518.2292289255
 31
0.0
  0
ARC
  5
119
330
1F
100
AcDbEntity
  8
1
  6
SLD-Сплошная
100
AcDbCircle
 10
1324.9363749706
 20
520.7292289255
 30
0.0
 40
2.500000000000127
100
AcDbArc
 50
202.3630330978
 51
270.0
  0
LINE
  5
11A
330
1F
100
AcDbEntity
  8
1
  6
SLD-Сплошная
100
AcDbLine
 10
1322.6243957067
 20
519.7780444621
 30
0.0
 11
1323.5491874123
 21
520.1585182475
 31
0.0
  0
ARC
  5
11B
330
1F
100
AcDbEntity
  8
1
  6
SLD-Сплошная
100
AcDbCircle
 10
1324.9363749706
 20
520.7292289255
 30
0.0
 40
1.499999999999886
100
AcDbArc
 50
202.3630330978
 51
270.0
  0
ARC
  5
11C
330
1F
100
AcDbEntity
  8
1
  6
SLD-Сплошная
100
AcDbCircle
 10
1324.9363749706
 20
815.7292289255
 30
0.0
 40
1.5
100
AcDbArc
 50
90.0
 51
157.6369669022
  0
LINE
  5
11D
330
1F
100
AcDbEntity
  8
1
  6
SLD-Сплошная
100
AcDbLine
 10
1322.6243957067
 20
816.680413389
 30
0.0
 11
1323.5491874123
 21
816.2999396036
 31
0.0
  0
ARC
  5
11E
330
1F
100
AcDbEntity
  8
1
  6
SLD-Сплошная
100
AcDbCircle
 10
1324.9363749706
 20
815.7292289255
 30
0.0
 40
2.500000000000127
100
AcDbArc
 50
90.0
 51
157.6369669022
  0
LINE
  5
11F
330
1F
100
AcDbEntity
  8
1
  6
SLD-Сплошная
100
AcDbLine
 10
1322.4363749706
 20
520.7292289255
 30
0.0
 11
1322.4391542933
 21
520.7292289255
 31
0.0
  0
ARC
  5
120
330
1F
100
AcDbEntity
  8
1
  6
SLD-Сплошная
100
AcDbCircle
 10
1324.9363749706
 20
520.7292289255
 30
0.0
 40
2.500000000000127
100
AcDbArc
 50
180.0
 51
202.3630330978
  0
LINE
  5
121
330
1F
100
AcDbEntity
  8
1
  6
SLD-Сплошная
100
AcDbLine
 10
1322.4363749706
 20
815.7292289255
 30
0.0
 11
1322.4391542933
 21
815.7292289255
 31
0.0
  0
ARC
  5
122
330
1F
100
AcDbEntity
  8
1
  6
SLD-Сплошная
100
AcDbCircle
 10
1324.9363749706
 20
815.7292289255
 30
0.0
 40
2.500000000000127
100
AcDbArc
 50
157.6369669022
 51
180.0
  0
ARC
  5
123
330
1F
100
AcDbEntity
  8
1
  6
SLD-Сплошная
100
AcDbCircle
 10
1444.4363749706
 20
520.2292289255
 30
0.0
 40
2.0
100
AcDbArc
 50
270.0
 51
360.0
  0
LINE
  5
124
330
1F
100
AcDbEntity
  8
1
  6
SLD-Сплошная
100
AcDbLine
 10
1444.4363749706
 20
518.2292289255
 30
0.0
 11
1444.4363749706
 21
518.5588996167
 31
0.0
  0
ARC
  5
125
330
1F
100
AcDbEntity
  8
1
  6
SLD-Сплошная
100
AcDbCircle
 10
1444.4363749706
 20
520.2292289255
 30
0.0
 40
1.0
100
AcDbArc
 50
270.0
 51
360.0
  0
LINE
  5
126
330
1F
100
AcDbEntity
  8
1
  6
SLD-Сплошная
100
AcDbLine
 10
1445.4363749706
 20
520.2292289255
 30
0.0
 11
1446.4363749706
 21
520.2292289255
 31
0.0
  0
ARC
  5
127
330
1F
100
AcDbEntity
  8
1
  6
SLD-Сплошная
100
AcDbCircle
 10
1444.4363749706
 20
816.2292289255
 30
0.0
 40
2.0
100
AcDbArc
 50
0.0
 51
90.0
  0
LINE
  5
128
330
1F
100
AcDbEntity
  8
1
  6
SLD-Сплошная
100
AcDbLine
 10
1445.4363749706
 20
816.2292289255
 30
0.0
 11
1446.4363749706
 21
816.2292289255
 31
0.0
  0
ARC
  5
129
330
1F
100
AcDbEntity
  8
1
  6
SLD-Сплошная
100
AcDbCircle
 10
1444.4363749706
 20
816.2292289255
 30
0.0
 40
1.0
100
AcDbArc
 50
0.0
 51
90.0
  0
LINE
  5
12A
330
1F
100
AcDbEntity
  8
1
  6
SLD-Сплошная
100
AcDbLine
 10
1446.4363749706
 20
816.2292289255
 30
0.0
 11
1446.4363749706
 21
816.1585182474
 31
0.0
  0
LINE
  5
12B
330
1F
100
AcDbEntity
  8
1
  6
SLD-Сплошная
100
AcDbLine
 10
1445.4363749706
 20
816.2292289255
 30
0.0
 11
1445.4363749706
 21
816.1938735865
 31
0.0
  0
LINE
  5
12C
330
1F
100
AcDbEntity
  8
1
  6
SLD-Сплошная
100
AcDbLine
 10
1446.4363749706
 20
520.2292289255
 30
0.0
 11
1446.4363749706
 21
520.2999396036
 31
0.0
  0
LINE
  5
12D
330
1F
100
AcDbEntity
  8
1
  6
SLD-Сплошная
100
AcDbLine
 10
1445.4363749706
 20
520.2292289255
 30
0.0
 11
1445.4363749706
 21
520.2645842646
 31
0.0
  0
LINE
  5
12E
330
1F
100
AcDbEntity
  8
1
  6
SLD-Сплошная
100
AcDbLine
 10
1322.4363749706
 20
520.7292289255
 30
0.0
 11
1322.4363749706
 21
520.7999396036
 31
0.0
  0
LINE
  5
12F
330
1F
100
AcDbEntity
  8
1
  6
SLD-Сплошная
100
AcDbLine
 10
1322.4363749706
 20
815.7292289255
 30
0.0
 11
1322.4363749706
 21
815.6585182474
 31
0.0
  0
ELLIPSE
  5
130
330
1F
100
AcDbEntity
  8
1
  6
SLD-Сплошная
100
AcDbEllipse
 10
1447.4363749706
 20
537.2999396037
 30
0.0
 11
0.0
 21
1.999999999999886
 31
0.0
210
0.0
220
0.0
230
1.0
 40
0.5
 41
0.0
 42
1.570796326794897
  0
ELLIPSE
  5
131
330
1F
100
AcDbEntity
  8
1
  6
SLD-Сплошная
100
AcDbEllipse
 10
1447.4363749706
 20
799.1585182474
 30
0.0
 11
0.0
 21
2.0
 31
0.0
210
0.0
220
0.0
230
1.0
 40
0.5
 41
1.570796326794897
 42
3.141592653589793
  0
ARC
  5
132
330
1F
100
AcDbEntity
  8
1
  6
SLD-Сплошная
100
AcDbCircle
 10
1447.4363749706
 20
537.2292289255
 30
0.0
 40
2.0
100
AcDbArc
 50
90.0
 51
98.7004774948
  0
ARC
  5
133
330
1F
100
AcDbEntity
  8
1
  6
SLD-Сплошная
100
AcDbCircle
 10
1447.4363749706
 20
537.2292289255
 30
0.0
 40
1.0
100
AcDbArc
 50
90.0
 51
180.0
  0
ARC
  5
134
330
1F
100
AcDbEntity
  8
1
  6
SLD-Сплошная
100
AcDbCircle
 10
1447.4363749706
 20
799.2292289255
 30
0.0
 40
2.000000000000114
100
AcDbArc
 50
261.2995225052
 51
270.0
  0
ARC
  5
135
330
1F
100
AcDbEntity
  8
1
  6
SLD-Сплошная
100
AcDbCircle
 10
1447.4363749706
 20
799.2292289255
 30
0.0
 40
1.000000000000114
100
AcDbArc
 50
180.0
 51
270.0
  0
LINE
  5
136
330
1F
100
AcDbEntity
  8
1
  6
SLD-Сплошная
100
AcDbLine
 10
1447.4363749706
 20
797.1585182474
 30
0.0
 11
1453.5363749706
 21
797.1585182474
 31
0.0
  0
LINE
  5
137
330
1F
100
AcDbEntity
  8
1
  6
SLD-Сплошная
100
AcDbLine
 10
1447.4363749706
 20
539.2999396036
 30
0.0
 11
1453.5363749706
 21
539.2999396037
 31
0.0
  0
LINE
  5
138
330
1F
100
AcDbEntity
  8
1
  6
SLD-Сплошная
100
AcDbLine
 10
1453.5363749706
 20
797.2292289255
 30
0.0
 11
1447.4363749706
 21
797.2292289255
 31
0.0
  0
LINE
  5
139
330
1F
100
AcDbEntity
  8
1
  6
SLD-Сплошная
100
AcDbLine
 10
1453.5363749706
 20
798.2292289255
 30
0.0
 11
1447.4363749706
 21
798.2292289255
 31
0.0
  0
LINE
  5
13A
330
1F
100
AcDbEntity
  8
1
  6
SLD-Сплошная
100
AcDbLine
 10
1453.5363749706
 20
538.2292289255
 30
0.0
 11
1447.4363749706
 21
538.2292289255
 31
0.0
  0
LINE
  5
13B
330
1F
100
AcDbEntity
  8
1
  6
SLD-Сплошная
100
AcDbLine
 10
1453.5363749706
 20
539.2292289255
 30
0.0
 11
1447.4363749706
 21
539.2292289255
 31
0.0
  0
LINE
  5
13C
330
1F
100
AcDbEntity
  8
1
  6
SLD-Сплошная
100
AcDbLine
 10
1446.4363749706
 20
672.0053185888
 30
0.0
 11
1446.5639470873
 21
671.7128838287
 31
0.0
  0
ELLIPSE
  5
13D
330
1F
100
AcDbEntity
  8
1
  6
SLD-Сплошная
100
AcDbEllipse
 10
1442.8788914975
 20
669.7034170773
 30
0.0
 11
-4.547473508864641E-13
 21
4.58393935390643
 31
-6.347988801280735E-11
210
-3.466062126810890E-15
220
1.384832632192436E-11
230
1.0
 40
0.894427191
 41
4.718019941382445
 42
5.166174585903224
  0
LINE
  5
13E
330
1F
100
AcDbEntity
  8
1
  6
SLD-Сплошная
100
AcDbLine
 10
1446.9788914975
 20
666.7292289255
 30
0.0
 11
1446.9788914975
 21
669.7292289255
 31
0.0
  0
ELLIPSE
  5
13F
330
1F
100
AcDbEntity
  8
1
  6
SLD-Сплошная
100
AcDbEllipse
 10
1442.8788914975
 20
666.7550407737
 30
0.0
 11
-4.547473508864641E-13
 21
4.58393935390643
 31
6.399147878255462E-11
210
-3.466062124497646E-15
220
-1.395993136951542E-11
230
1.0
 40
0.894427191
 41
4.258603374866131
 42
4.70675801938688
  0
LINE
  5
140
330
1F
100
AcDbEntity
  8
1
  6
SLD-Сплошная
100
AcDbLine
 10
1446.5639470873
 20
664.7455740224
 30
0.0
 11
1446.4363749706
 21
664.4531392623
 31
0.0
  0
LINE
  5
141
330
1F
100
AcDbEntity
  8
1
  6
SLD-Сплошная
100
AcDbLine
 10
1446.5639470873
 20
676.7292289244
 30
0.0
 11
1446.4363749706
 21
676.7292289244
 31
0.0
  0
LINE
  5
142
330
1F
100
AcDbEntity
  8
1
  6
SLD-Сплошная
100
AcDbLine
 10
1446.4363749706
 20
659.7292289266
 30
0.0
 11
1446.5639470873
 21
659.7292289266
 31
0.0
  0
LINE
  5
143
330
1F
100
AcDbEntity
  8
1
  6
SLD-Сплошная
100
AcDbLine
 10
1446.9788914975
 20
666.7292289255
 30
0.0
 11
1446.9788914975
 21
660.7580795195
 31
0.0
  0
LINE
  5
144
330
1F
100
AcDbEntity
  8
1
  6
SLD-Сплошная
100
AcDbLine
 10
1446.8672707622
 20
659.7292289266
 30
0.0
 11
1446.5639470873
 21
659.7292289266
 31
0.0
  0
LINE
  5
145
330
1F
100
AcDbEntity
  8
1
  6
SLD-Сплошная
100
AcDbLine
 10
1446.9788914975
 20
675.7003783315
 30
0.0
 11
1446.9788914975
 21
669.7292289255
 31
0.0
  0
LINE
  5
146
330
1F
100
AcDbEntity
  8
1
  6
SLD-Сплошная
100
AcDbLine
 10
1446.5639470873
 20
676.7292289244
 30
0.0
 11
1446.8672707622
 21
676.7292289244
 31
0.0
  0
LINE
  5
147
330
1F
100
AcDbEntity
  8
1
  6
SLD-Сплошная
100
AcDbLine
 10
1473.5363749706
 20
654.2292289255
 30
0.0
 11
1473.5363749706
 21
682.2292289255
 31
0.0
  0
LINE
  5
148
330
1F
100
AcDbEntity
  8
1
  6
SLD-Сплошная
100
AcDbLine
 10
1476.5363749706
 20
657.2292289255
 30
0.0
 11
1476.5363749706
 21
679.2292289255
 31
0.0
  0
LINE
  5
149
330
1F
100
AcDbEntity
  8
1
  6
SLD-Сплошная
100
AcDbLine
 10
1493.1109962963
 20
913.341379466
 30
0.0
 11
1493.1109962963
 21
1153.7631372672
 31
0.0
  0
LINE
  5
14A
330
1F
100
AcDbEntity
  8
1
  6
SLD-Сплошная
100
AcDbLine
 10
1492.4230944146
 20
1154.9545690091
 30
0.0
 11
1214.9265585191
 21
1315.1499093278
 31
0.0
  0
LINE
  5
14B
330
1F
100
AcDbEntity
  8
1
  6
SLD-Сплошная
100
AcDbLine
 10
1202.5635632315
 20
1066.0560880719
 30
0.0
 11
1479.4696376286
 21
906.2016139207
 31
0.0
  0
LINE
  5
14C
330
1F
100
AcDbEntity
  8
1
  6
SLD-Сплошная
100
AcDbLine
 10
1201.9220897439
 20
1306.9068742266
 30
0.0
 11
1201.922089744
 21
1067.1670925518
 31
0.0
  0
LINE
  5
14D
330
1F
100
AcDbEntity
  8
1
  6
SLD-Сплошная
100
AcDbLine
 10
1587.1919846318
 20
965.0767985809
 30
0.0
 11
1587.1919846317
 21
1206.7728788991
 31
0.0
  0
LINE
  5
14E
330
1F
100
AcDbEntity
  8
1
  6
SLD-Сплошная
100
AcDbLine
 10
1586.2954364381
 20
1208.3256286211
 30
0.0
 11
1306.2811510883
 21
1369.974434762
 31
0.0
  0
LINE
  5
14F
330
1F
100
AcDbEntity
  8
1
  6
SLD-Сплошная
100
AcDbLine
 10
1501.5461964032
 20
914.3602141468
 30
0.0
 11
1586.045456755
 21
963.1405988282
 31
0.0
  0
LINE
  5
150
330
1F
100
AcDbEntity
  8
1
  6
SLD-Сплошная
100
AcDbLine
 10
1493.1109962963
 20
918.0752699226
 30
0.0
 11
1499.5110064721
 21
914.3806226909
 31
0.0
  0
LINE
  5
151
330
1F
100
AcDbEntity
  8
1
  6
SLD-Сплошная
100
AcDbLine
 10
1218.5319923207
 20
1319.39637129
 30
0.0
 11
1218.5319923207
 21
1313.0685366974
 31
0.0
  0
LINE
  5
152
330
1F
100
AcDbEntity
  8
1
  6
SLD-Сплошная
100
AcDbLine
 10
1304.0313339398
 20
1369.9496807368
 30
0.0
 11
1219.532073588
 21
1321.1692960554
 31
0.0
  0
LINE
  5
153
330
1F
100
AcDbEntity
  8
1
  6
SLD-Сплошная
100
AcDbLine
 10
1229.087984373
 20
1169.892413041
 30
0.0
 11
1229.087984373
 21
1167.4431887055
 31
0.0
  0
LINE
  5
154
330
1F
100
AcDbEntity
  8
1
  6
SLD-Сплошная
100
AcDbLine
 10
1236.8648947939
 20
1153.9717250694
 30
0.0
 11
1238.9858703633
 21
1152.7469138677
 31
0.0
  0
LINE
  5
155
330
1F
100
AcDbEntity
  8
1
  6
SLD-Сплошная
100
AcDbLine
 10
1232.6951549624
 20
1176.7104443874
 30
0.0
 11
1231.9880481812
 21
1176.3022403315
 31
0.0
  0
LINE
  5
156
330
1F
100
AcDbEntity
  8
1
  6
SLD-Сплошная
100
AcDbLine
 10
1245.9869104381
 20
1152.0528721849
 30
0.0
 11
1246.6940172193
 21
1152.4610762408
 31
0.0
  0
LINE
  5
157
330
1F
100
AcDbEntity
  8
1
  6
SLD-Сплошная
100
AcDbLine
 10
1240.8215733471
 20
1159.8729139571
 30
0.0
 11
1242.445419774
 21
1160.8103405457
 31
0.0
  0
LINE
  5
158
330
1F
100
AcDbEntity
  8
1
  6
SLD-Сплошная
100
AcDbLine
 10
1237.5163068759
 20
1167.5636539586
 30
0.0
 11
1235.819250601
 21
1166.5839642244
 31
0.0
  0
LINE
  5
159
330
1F
100
AcDbEntity
  8
1
  6
SLD-Сплошная
100
AcDbLine
 10
1495.8893421537
 20
955.187254741
 30
0.0
 11
1497.3035557161
 21
956.0036628529
 31
0.0
  0
LINE
  5
15A
330
1F
100
AcDbEntity
  8
1
  6
SLD-Сплошная
100
AcDbLine
 10
1493.3001492096
 20
977.6355886833
 30
0.0
 11
1493.5829919221
 21
977.7988703056
 31
0.0
  0
LINE
  5
15B
330
1F
100
AcDbEntity
  8
1
  6
SLD-Сплошная
100
AcDbLine
 10
1494.5358700305
 20
979.9049564154
 30
0.0
 11
1494.5358700305
 21
981.2283031903
 31
0.0
  0
LINE
  5
15C
330
1F
100
AcDbEntity
  8
1
  6
SLD-Сплошная
100
AcDbLine
 10
1494.5358700305
 20
980.773760577
 30
0.0
 11
1494.5908700031
 21
980.8055113854
 31
0.0
  0
LINE
  5
15D
330
1F
100
AcDbEntity
  8
1
  6
SLD-Сплошная
100
AcDbLine
 10
1493.6537026002
 20
1092.1554043752
 30
0.0
 11
1493.9365453127
 21
1092.3186859976
 31
0.0
  0
LINE
  5
15E
330
1F
100
AcDbEntity
  8
1
  6
SLD-Сплошная
100
AcDbLine
 10
1494.8894234211
 20
1094.4247721074
 30
0.0
 11
1494.8894234211
 21
1094.5064129186
 31
0.0
  0
LINE
  5
15F
330
1F
100
AcDbEntity
  8
1
  6
SLD-Сплошная
100
AcDbLine
 10
1496.2428955443
 20
1069.707070433
 30
0.0
 11
1497.3035557161
 21
1070.3193765169
 31
0.0
  0
ELLIPSE
  5
160
330
1F
100
AcDbEntity
  8
1
  6
SLD-Сплошная
100
AcDbEllipse
 10
1480.1108916942
 20
1147.0523335791
 30
0.0
 11
1.698791117367591
 21
0.8238102185068783
 31
0.0
210
0.0
220
0.0
230
0.9999999999999999
 40
0.0778085159
 41
3.889276317650629
 42
5.460072644561095
  0
ELLIPSE
  5
161
330
1F
100
AcDbEntity
  8
1
  6
SLD-Сплошная
100
AcDbEllipse
 10
1480.1108916942
 20
1147.0523335791
 30
0.0
 11
2.691140751009016
 21
0.8754882017692579
 31
0.0
210
0.0
220
0.0
230
0.9999999999999998
 40
0.2496252376
 41
3.84595996750109
 42
5.416756294296063
  0
LINE
  5
162
330
1F
100
AcDbEntity
  8
1
  6
SLD-Сплошная
100
AcDbLine
 10
1478.201703385
 20
1145.9501826282
 30
0.0
 11
1478.9088101662
 21
1146.3583866841
 31
0.0
  0
ELLIPSE
  5
163
330
1F
100
AcDbEntity
  8
1
  6
SLD-Сплошная
100
AcDbEllipse
 10
1480.1108916943
 20
908.9490328332
 30
0.0
 11
2.346496907398887
 21
-1.886933551543394
 31
0.0
210
0.0
220
0.0
230
1.0
 40
0.7078398481
 41
4.44446198745037
 42
6.015258314245139
  0
ELLIPSE
  5
164
330
1F
100
AcDbEntity
  8
1
  6
SLD-Сплошная
100
AcDbEllipse
 10
1480.1108916942
 20
1147.0523335791
 30
0.0
 11
1.562801634041307
 21
1.059350639196509
 31
0.0
210
0.0
220
0.0
230
1.0
 40
0.0779476132
 41
0.8230997739019383
 42
2.393896100666174
  0
ELLIPSE
  5
165
330
1F
100
AcDbEntity
  8
1
  6
SLD-Сплошная
100
AcDbEllipse
 10
1480.1108916942
 20
1147.0523335791
 30
0.0
 11
2.103726216606901
 21
1.892910169516881
 31
0.0
210
0.0
220
0.0
230
0.9999999999999999
 40
0.2497537726
 41
0.8663954412416963
 42
2.437191768047445
  0
ELLIPSE
  5
166
330
1F
100
AcDbEntity
  8
1
  6
SLD-Сплошная
100
AcDbEllipse
 10
1204.622089744
 20
1306.0886337622
 30
0.0
 11
-0.4612130826906196
 21
2.975579473086782
 31
0.0
210
0.0
220
0.0
230
1.0
 40
0.7078581484
 41
0.2677802285167504
 42
1.838576555317532
  0
LINE
  5
167
330
1F
100
AcDbEntity
  8
1
  6
SLD-Сплошная
100
AcDbLine
 10
1492.8034584166
 20
912.9148269728
 30
0.0
 11
1482.0200800035
 21
906.6897151201
 31
0.0
  0
LINE
  5
168
330
1F
100
AcDbEntity
  8
1
  6
SLD-Сплошная
100
AcDbLine
 10
1492.8034584165
 20
1153.3324612429
 30
0.0
 11
1482.0200800035
 21
1147.1073493903
 31
0.0
  0
LINE
  5
169
330
1F
100
AcDbEntity
  8
1
  6
SLD-Сплошная
100
AcDbLine
 10
1492.0963516354
 20
1153.7406652989
 30
0.0
 11
1481.3129732223
 21
1147.5155534462
 31
0.0
  0
LINE
  5
16A
330
1F
100
AcDbEntity
  8
1
  6
SLD-Сплошная
100
AcDbLine
 10
1492.8034584165
 20
1153.3324612429
 30
0.0
 11
1492.0963516354
 21
1153.7406652989
 31
0.0
  0
LINE
  5
16B
330
1F
100
AcDbEntity
  8
1
  6
SLD-Сплошная
100
AcDbLine
 10
1481.1129732222
 20
1147.8619636067
 30
0.0
 11
1491.8963516353
 21
1154.0870754594
 31
0.0
  0
LINE
  5
16C
330
1F
100
AcDbEntity
  8
1
  6
SLD-Сплошная
100
AcDbLine
 10
1481.1129732222
 20
1148.6785044186
 30
0.0
 11
1491.8963516353
 21
1154.9036162713
 31
0.0
  0
LINE
  5
16D
330
1F
100
AcDbEntity
  8
1
  6
SLD-Сплошная
100
AcDbLine
 10
1491.8963516353
 20
1154.9036162713
 30
0.0
 11
1491.8963516353
 21
1154.0870754594
 31
0.0
  0
LINE
  5
16E
330
1F
100
AcDbEntity
  8
1
  6
SLD-Сплошная
100
AcDbLine
 10
1203.620008216
 20
1308.8717833069
 30
0.0
 11
1214.4033866291
 21
1315.0968951595
 31
0.0
  0
LWPOLYLINE
  5
16F
330
1F
100
AcDbEntity
  8
1
  6
SLD-Сплошная
100
AcDbPolyline
 90
       17
 70
   128
 43
0.0
 10
1437.3309314325
 20
961.8980485973
 10
1437.3578440819
 20
962.0387505758
 10
1437.4344848231
 20
962.12695927
 10
1437.549185798
 20
962.1492457057
 10
1437.6844848231
 20
962.1022169753
 10
1437.8197838481
 20
961.9930327765
 10
1437.9344848231
 20
961.8383154139
 10
1438.0111255643
 20
961.6616192034
 10
1438.0380382137
 20
961.4898445414
 10
1438.0111255643
 20
961.3491425629
 10
1437.9344848231
 20
961.2609338687
 10
1437.8197838481
 20
961.2386474329
 10
1437.6844848231
 20
961.2856761634
 10
1437.549185798
 20
961.3948603622
 10
1437.4344848231
 20
961.5495777248
 10
1437.3578440819
 20
961.7262739352
 10
1437.3309314325
 20
961.8980485973
  0
LWPOLYLINE
  5
170
330
1F
100
AcDbEntity
  8
1
  6
SLD-Сплошная
100
AcDbPolyline
 90
       17
 70
   128
 43
0.0
 10
1438.0380382137
 20
1138.6792007206
 10
1438.0111255643
 20
1138.5384987421
 10
1437.9344848231
 20
1138.4502900479
 10
1437.8197838481
 20
1138.4280036122
 10
1437.6844848231
 20
1138.4750323426
 10
1437.549185798
 20
1138.5842165414
 10
1437.4344848231
 20
1138.738933904
 10
1437.3578440818
 20
1138.9156301144
 10
1437.3309314325
 20
1139.0874047765
 10
1437.3578440818
 20
1139.228106755
 10
1437.4344848231
 20
1139.3163154492
 10
1437.549185798
 20
1139.3386018849
 10
1437.6844848231
 20
1139.2915731545
 10
1437.8197838481
 20
1139.1823889557
 10
1437.9344848231
 20
1139.0276715931
 10
1438.0111255643
 20
1138.8509753827
 10
1438.0380382137
 20
1138.6792007206
  0
LWPOLYLINE
  5
171
330
1F
100
AcDbEntity
  8
1
  6
SLD-Сплошная
100
AcDbPolyline
 90
       17
 70
   128
 43
0.0
 10
1239.3410327002
 20
1237.053724194
 10
1239.3679453496
 20
1237.1944261725
 10
1239.4445860908
 20
1237.2826348666
 10
1239.5592870658
 20
1237.3049213024
 10
1239.6945860908
 20
1237.2578925719
 10
1239.8298851158
 20
1237.1487083732
 10
1239.9445860908
 20
1236.9939910106
 10
1240.021226832
 20
1236.8172948001
 10
1240.0481394814
 20
1236.645520138
 10
1240.021226832
 20
1236.5048181595
 10
1239.9445860908
 20
1236.4166094654
 10
1239.8298851158
 20
1236.3943230296
 10
1239.6945860908
 20
1236.4413517601
 10
1239.5592870658
 20
1236.5505359588
 10
1239.4445860908
 20
1236.7052533214
 10
1239.3679453496
 20
1236.8819495319
 10
1239.3410327002
 20
1237.053724194
  0
LWPOLYLINE
  5
172
330
1F
100
AcDbEntity
  8
1
  6
SLD-Сплошная
100
AcDbPolyline
 90
       17
 70
   128
 43
0.0
 10
1240.0481394814
 20
1092.1177964343
 10
1240.021226832
 20
1091.9770944558
 10
1239.9445860908
 20
1091.8888857616
 10
1239.8298851159
 20
1091.8665993258
 10
1239.6945860908
 20
1091.9136280563
 10
1239.5592870658
 20
1092.022812255
 10
1239.4445860908
 20
1092.1775296176
 10
1239.3679453496
 20
1092.3542258281
 10
1239.3410327002
 20
1092.5260004902
 10
1239.3679453496
 20
1092.6667024687
 10
1239.4445860908
 20
1092.7549111628
 10
1239.5592870658
 20
1092.7771975986
 10
1239.6945860908
 20
1092.7301688682
 10
1239.8298851159
 20
1092.6209846694
 10
1239.9445860908
 20
1092.4662673068
 10
1240.021226832
 20
1092.2895710963
 10
1240.0481394814
 20
1092.1177964343
  0
LINE
  5
173
330
1F
100
AcDbEntity
  8
1
  6
SLD-Сплошная
100
AcDbLine
 10
1481.0696260071
 20
1147.836793822
 30
0.0
 11
1481.1130364257
 21
1147.8618541232
 31
0.0
  0
SPLINE
  5
174
330
1F
100
AcDbEntity
  8
1
  6
SLD-Сплошная
100
AcDbSpline
210
0.0
220
0.0
230
1.0
 70
     8
 71
     3
 72
     9
 73
     5
 74
     0
 42
0.00000001
 43
0.00000001
 40
0.0
 40
0.0
 40
0.0
 40
0.0
 40
0.4999999999999925
 40
1.0
 40
1.0
 40
1.0
 40
1.0
 10
1492.803458416566
 20
912.9148269727949
 30
0.0
 10
1492.891635954365
 20
912.9808363179994
 30
0.0
 10
1493.067991029965
 20
913.1128550084087
 30
0.0
 10
1493.096661207535
 20
913.2801881706696
 30
0.0
 10
1493.11099629632
 20
913.3638547518001
 30
0.0
  0
SPLINE
  5
175
330
1F
100
AcDbEntity
  8
1
  6
SLD-Сплошная
100
AcDbSpline
210
0.0
220
0.0
230
1.0
 70
     8
 71
     3
 72
    11
 73
     7
 74
     0
 42
0.00000001
 43
0.00000001
 40
0.0
 40
0.0
 40
0.0
 40
0.0
 40
0.2500000000000037
 40
0.5000000000000024
 40
0.7500000000000034
 40
1.0
 40
1.0
 40
1.0
 40
1.0
 10
1492.803458416546
 20
1154.148862719759
 30
0.0
 10
1492.889588084519
 20
1154.089657881321
 30
0.0
 10
1493.061847420464
 20
1153.971248204443
 30
0.0
 10
1493.135570734218
 20
1153.74066198135
 30
0.0
 10
1493.061847420464
 20
1153.510075758256
 30
0.0
 10
1492.889588084519
 20
1153.391666081379
 30
0.0
 10
1492.803458416546
 20
1153.33246124294
 30
0.0
  0
SPLINE
  5
176
330
1F
100
AcDbEntity
  8
1
  6
SLD-Сплошная
100
AcDbSpline
210
0.0
220
0.0
230
1.0
 70
     8
 71
     3
 72
    12
 73
     8
 74
     0
 42
0.00000001
 43
0.00000001
 40
0.0
 40
0.0
 40
0.0
 40
0.0
 40
0.0768349934710307
 40
0.1653464171640409
 40
0.3824629150519022
 40
0.659555463824012
 40
1.0
 40
1.0
 40
1.0
 40
1.0
 10
1491.318534176054
 20
1153.291494867279
 30
0.0
 10
1491.355589181851
 20
1153.316692114436
 30
0.0
 10
1491.435330354064
 20
1153.370915774146
 30
0.0
 10
1491.639400453233
 20
1153.513342553139
 30
0.0
 10
1491.967098668321
 20
1153.723375460308
 30
0.0
 10
1492.425905088802
 20
1153.968158193826
 30
0.0
 10
1492.669284686371
 20
1154.084644506007
 30
0.0
 10
1492.803458416546
 20
1154.14886271976
 30
0.0
  0
SPLINE
  5
177
330
1F
100
AcDbEntity
  8
1
  6
SLD-Сплошная
100
AcDbSpline
210
0.0
220
0.0
230
1.0
 70
     8
 71
     3
 72
    11
 73
     7
 74
     0
 42
0.00000001
 43
0.00000001
 40
0.0
 40
0.0
 40
0.0
 40
0.0
 40
0.2499999999999705
 40
0.5000000000000774
 40
0.7500000000001841
 40
1.0
 40
1.0
 40
1.0
 40
1.0
 10
1492.096351635359
 20
1153.740658663848
 30
0.0
 10
1492.10045304812
 20
1153.741079627144
 30
0.0
 10
1492.108655873641
 20
1153.741921553736
 30
0.0
 10
1492.11216650763
 20
1153.74066198135
 30
0.0
 10
1492.108655873641
 20
1153.739402408963
 30
0.0
 10
1492.10045304812
 20
1153.740244335555
 30
0.0
 10
1492.096351635359
 20
1153.740665298851
 30
0.0
  0
LINE
  5
178
330
1F
100
AcDbEntity
  8
1
  6
SLD-Сплошная
100
AcDbLine
 10
1492.0963516354
 20
1153.7406586638
 30
0.0
 11
1492.8034584165
 21
1154.1488627198
 31
0.0
  0
SPLINE
  5
179
330
1F
100
AcDbEntity
  8
1
  6
SLD-Сплошная
100
AcDbSpline
210
0.0
220
0.0
230
1.0
 70
     8
 71
     3
 72
    11
 73
     7
 74
     0
 42
0.00000001
 43
0.00000001
 40
0.0
 40
0.0
 40
0.0
 40
0.0
 40
0.2500000000000013
 40
0.4999999999999968
 40
0.7499999999999947
 40
1.0
 40
1.0
 40
1.0
 40
1.0
 10
1491.896351635296
 20
1154.903616271272
 30
0.0
 10
1491.990695398416
 20
1154.948593879619
 30
0.0
 10
1492.179382924656
 20
1155.038549096313
 30
0.0
 10
1492.415961184725
 20
1154.987062278953
 30
0.0
 10
1492.57881613104
 20
1154.807882936844
 30
0.0
 10
1492.595244321335
 20
1154.599476232478
 30
0.0
 10
1492.603458416482
 20
1154.495272880295
 30
0.0
  0
LINE
  5
17A
330
1F
100
AcDbEntity
  8
1
  6
SLD-Сплошная
100
AcDbLine
 10
1491.8963516353
 20
1154.0870688244
 30
0.0
 11
1492.6034584165
 21
1154.4952728803
 31
0.0
  0
SPLINE
  5
17B
330
1F
100
AcDbEntity
  8
1
  6
SLD-Сплошная
100
AcDbSpline
210
0.0
220
0.0
230
1.0
 70
     8
 71
     3
 72
    11
 73
     7
 74
     0
 42
0.00000001
 43
0.00000001
 40
0.0
 40
0.0
 40
0.0
 40
0.0
 40
0.2499999999999847
 40
0.4999999999999633
 40
0.750000000000108
 40
1.0
 40
1.0
 40
1.0
 40
1.0
 10
1491.896351635296
 20
1154.087075459386
 30
0.0
 10
1491.898038216154
 20
1154.090837107625
 30
0.0
 10
1491.90141137787
 20
1154.098360404102
 30
0.0
 10
1491.904259071431
 20
1154.100768222988
 30
0.0
 10
1491.903596131003
 20
1154.097095445458
 30
0.0
 10
1491.898766467198
 20
1154.090411031408
 30
0.0
 10
1491.896351635296
 20
1154.087068824383
 30
0.0
  0
SPLINE
  5
17C
330
1F
100
AcDbEntity
  8
1
  6
SLD-Сплошная
100
AcDbSpline
210
0.0
220
0.0
230
1.0
 70
     8
 71
     3
 72
    13
 73
     9
 74
     0
 42
0.00000001
 43
0.00000001
 40
0.0
 40
0.0
 40
0.0
 40
0.0
 40
0.3220863390932465
 40
0.4996033953881373
 40
0.610090027738696
 40
0.7293891021407446
 40
0.858977392604721
 40
1.0
 40
1.0
 40
1.0
 40
1.0
 10
1492.603458416482
 20
1154.495272880295
 30
0.0
 10
1492.48485114822
 20
1154.42190161537
 30
0.0
 10
1492.300873789514
 20
1154.308091966742
 30
0.0
 10
1491.989299957361
 20
1154.145035938772
 30
0.0
 10
1491.773460384365
 20
1154.003852247906
 30
0.0
 10
1491.574622475003
 20
1153.872461412755
 30
0.0
 10
1491.351761638428
 20
1153.73703657095
 30
0.0
 10
1491.198436187001
 20
1153.671866764431
 30
0.0
 10
1491.118534175991
 20
1153.637905027814
 30
0.0
  0
SPLINE
  5
17D
330
1F
100
AcDbEntity
  8
1
  6
SLD-Сплошная
100
AcDbSpline
210
0.0
220
0.0
230
1.0
 70
     8
 71
     3
 72
     9
 73
     5
 74
     0
 42
0.00000001
 43
0.00000001
 40
0.0
 40
0.0
 40
0.0
 40
0.0
 40
0.4999489266172689
 40
1.0
 40
1.0
 40
1.0
 40
1.0
 10
1214.946013289512
 20
1315.138659479521
 30
0.0
 10
1214.866396886119
 20
1315.168083738026
 30
0.0
 10
1214.707147812556
 20
1315.226938266834
 30
0.0
 10
1214.504647251838
 20
1315.140245813737
 30
0.0
 10
1214.40338662909
 20
1315.096895159512
 30
0.0
  0
ELLIPSE
  5
17E
330
1F
100
AcDbEntity
  8
1
  6
SLD-Сплошная
100
AcDbEllipse
 10
1204.622089744
 20
1067.9853330163
 30
0.0
 11
2.103726216606901
 21
1.892910169516881
 31
0.0
210
0.0
220
0.0
230
0.9999999999999999
 40
0.2497537726
 41
2.437191768024461
 42
3.222671195488997
  0
ELLIPSE
  5
17F
330
1F
100
AcDbEntity
  8
1
  6
SLD-Сплошная
100
AcDbEllipse
 10
1480.1108916943
 20
908.9490328332
 30
0.0
 11
-0.4612130826908469
 21
2.975579473086896
 31
0.0
210
0.0
220
0.0
230
1.0
 40
0.7078581484
 41
1.838576555310465
 42
3.409372882106362
  0
LINE
  5
180
330
1F
100
AcDbEntity
  8
1
  6
SLD-Сплошная
100
AcDbLine
 10
1481.1129732222
 20
906.1658832885
 30
0.0
 11
1482.0201537126
 21
906.6895874383
 31
0.0
  0
ELLIPSE
  5
181
330
1F
100
AcDbEntity
  8
1
  6
SLD-Сплошная
100
AcDbEllipse
 10
1204.6220897439
 20
1306.0886337622
 30
0.0
 11
2.34649690739866
 21
-1.886933551543507
 31
0.0
210
0.0
220
0.0
230
1.0
 40
0.7078398481
 41
2.873665660655492
 42
4.444461987450369
  0
ELLIPSE
  5
182
330
1F
100
AcDbEntity
  8
1
  6
SLD-Сплошная
100
AcDbEllipse
 10
1204.622089744
 20
1067.9853330163
 30
0.0
 11
2.691140751009016
 21
0.8754882017692579
 31
0.0
210
0.0
220
0.0
230
0.9999999999999998
 40
0.2496252376
 41
3.06056180410313
 42
3.845959967500788
  0
LINE
  5
183
330
1F
100
AcDbEntity
  8
1
  6
SLD-Сплошная
100
AcDbLine
 10
1203.60084553
 20
1308.8605506905
 30
0.0
 11
1202.7129014347
 21
1308.3479514753
 31
0.0
  0
ELLIPSE
  5
184
330
1F
100
AcDbEntity
  8
1
  6
SLD-Сплошная
100
AcDbEllipse
 10
1500.5462776705
 20
916.0923118715
 30
0.0
 11
1.999729017871914
 21
-0.05915489563562914
 31
0.0
210
0.0
220
0.0
230
0.9999999999999999
 40
0.5565381198
 41
3.94345253766004
 42
5.514248864458945
  0
ELLIPSE
  5
185
330
1F
100
AcDbEntity
  8
1
  6
SLD-Сплошная
100
AcDbEllipse
 10
1500.5462776705
 20
1157.7883921897
 30
0.0
 11
1.999640479968547
 21
0.06348472510489954
 31
0.0
210
0.0
220
0.0
230
0.9999999999999996
 40
0.5973141192
 41
3.908029519486346
 42
5.478825846277433
  0
ELLIPSE
  5
186
330
1F
100
AcDbEntity
  8
1
  6
SLD-Сплошная
100
AcDbEllipse
 10
1500.5462776705
 20
1157.7883921897
 30
0.0
 11
0.9991743340478934
 21
0.06590621742361691
 31
0.0
210
0.0
220
0.0
230
1.0
 40
0.616454653
 41
3.886351437125501
 42
5.457147763916097
  0
LINE
  5
187
330
1F
100
AcDbEntity
  8
1
  6
SLD-Сплошная
100
AcDbLine
 10
1501.9604912329
 20
1156.9719840779
 30
0.0
 11
1501.2533844517
 21
1157.3801881338
 31
0.0
  0
LINE
  5
188
330
1F
100
AcDbEntity
  8
1
  6
SLD-Сплошная
100
AcDbLine
 10
1499.8391708894
 20
1157.3224499793
 30
0.0
 11
1499.1320641082
 21
1156.9142459234
 31
0.0
  0
ARC
  5
189
330
1F
100
AcDbEntity
  8
1
  6
SLD-Сплошная
100
AcDbCircle
 10
1583.389319382
 20
1205.6126470548
 30
0.0
 40
3.07360961513152
100
AcDbArc
 50
2.6054784854
 51
57.3945216601
  0
ARC
  5
18A
330
1F
100
AcDbEntity
  8
1
  6
SLD-Сплошная
100
AcDbCircle
 10
1498.8900590302
 20
1156.8322623734
 30
0.0
 40
3.073609615143514
100
AcDbArc
 50
2.6054784856
 51
57.39452166
  0
ELLIPSE
  5
18B
330
1F
100
AcDbEntity
  8
1
  6
SLD-Сплошная
100
AcDbEllipse
 10
1500.5462776705
 20
1157.7883921897
 30
0.0
 11
1.054720450885043
 21
1.700046099215797
 31
0.0
210
0.0
220
0.0
230
1.0
 40
0.5974079498
 41
0.8042814001572196
 42
2.375077726952116
  0
ELLIPSE
  5
18C
330
1F
100
AcDbEntity
  8
1
  6
SLD-Сплошная
100
AcDbEllipse
 10
1220.5319923207
 20
1319.4371983306
 30
0.0
 11
0.9485527510316842
 21
1.761437681479947
 31
0.0
210
0.0
220
0.0
230
1.0
 40
0.5566319546
 41
0.7688525864737504
 42
2.339648913269027
  0
ELLIPSE
  5
18D
330
1F
100
AcDbEntity
  8
1
  6
SLD-Сплошная
100
AcDbEllipse
 10
1500.5462776705
 20
1157.7883921897
 30
0.0
 11
0.5566258153232867
 21
0.832382309830564
 31
0.0
210
0.0
220
0.0
230
1.0
 40
0.6165484624
 41
0.8259634570310717
 42
2.396759783826194
  0
LINE
  5
18E
330
1F
100
AcDbEntity
  8
1
  6
SLD-Сплошная
100
AcDbLine
 10
1499.7891708894
 20
1157.4090525194
 30
0.0
 11
1499.0820641082
 21
1157.0008484635
 31
0.0
  0
LINE
  5
18F
330
1F
100
AcDbEntity
  8
1
  6
SLD-Сплошная
100
AcDbLine
 10
1500.5462776705
 20
1158.6049330016
 30
0.0
 11
1500.5462776705
 21
1159.4214738135
 31
0.0
  0
ARC
  5
190
330
1F
100
AcDbEntity
  8
1
  6
SLD-Сплошная
100
AcDbCircle
 10
1499.7181683504
 20
1157.3103272815
 30
0.0
 40
1.536804807573005
100
AcDbArc
 50
2.6054784857
 51
57.39452166
  0
LWPOLYLINE
  5
191
330
1F
100
AcDbEntity
  8
1
  6
SLD-Сплошная
100
AcDbPolyline
 90
       17
 70
   128
 43
0.0
 10
1564.1858879773
 20
981.8181411256
 10
1564.0505889523
 20
981.7711123952
 10
1563.9358879773
 20
981.7933988309
 10
1563.8592472361
 20
981.8816075251
 10
1563.8323345867
 20
982.0223095036
 10
1563.8592472361
 20
982.1940841657
 10
1563.9358879773
 20
982.3707803761
 10
1564.0505889523
 20
982.5254977387
 10
1564.1858879773
 20
982.6346819375
 10
1564.3211870024
 20
982.6817106679
 10
1564.4358879773
 20
982.6594242322
 10
1564.5125287186
 20
982.571215538
 10
1564.5394413679
 20
982.4305135595
 10
1564.5125287186
 20
982.2587388975
 10
1564.4358879773
 20
982.082042687
 10
1564.3211870024
 20
981.9273253244
 10
1564.1858879773
 20
981.8181411256
  0
LWPOLYLINE
  5
192
330
1F
100
AcDbEntity
  8
1
  6
SLD-Сплошная
100
AcDbPolyline
 90
       17
 70
   128
 43
0.0
 10
1528.830548918
 20
969.5733464489
 10
1528.695249893
 20
969.5263177185
 10
1528.580548918
 20
969.5486041542
 10
1528.5039081768
 20
969.6368128484
 10
1528.4769955274
 20
969.7775148269
 10
1528.5039081768
 20
969.949289489
 10
1528.580548918
 20
970.1259856994
 10
1528.695249893
 20
970.280703062
 10
1528.830548918
 20
970.3898872608
 10
1528.965847943
 20
970.4369159912
 10
1529.080548918
 20
970.4146295555
 10
1529.1571896592
 20
970.3264208613
 10
1529.1841023086
 20
970.1857188828
 10
1529.1571896592
 20
970.0139442207
 10
1529.080548918
 20
969.8372480103
 10
1528.965847943
 20
969.6825306477
 10
1528.830548918
 20
969.5733464489
  0
LWPOLYLINE
  5
193
330
1F
100
AcDbEntity
  8
1
  6
SLD-Сплошная
100
AcDbPolyline
 90
       17
 70
   128
 43
0.0
 10
1528.830548918
 20
1133.6980496379
 10
1528.965847943
 20
1133.7450783684
 10
1529.080548918
 20
1133.7227919326
 10
1529.1571896592
 20
1133.6345832385
 10
1529.1841023086
 20
1133.49388126
 10
1529.1571896592
 20
1133.3221065979
 10
1529.080548918
 20
1133.1454103874
 10
1528.965847943
 20
1132.9906930248
 10
1528.830548918
 20
1132.8815088261
 10
1528.695249893
 20
1132.8344800956
 10
1528.580548918
 20
1132.8567665314
 10
1528.5039081768
 20
1132.9449752256
 10
1528.4769955274
 20
1133.085677204
 10
1528.5039081768
 20
1133.2574518661
 10
1528.580548918
 20
1133.4341480766
 10
1528.695249893
 20
1133.5888654392
 10
1528.830548918
 20
1133.6980496379
  0
LINE
  5
194
330
1F
100
AcDbEntity
  8
1
  6
SLD-Сплошная
100
AcDbLine
 10
1494.5358700305
 20
980.6839484306
 30
0.0
 11
1494.6147841291
 21
980.8704756769
 31
0.0
  0
LINE
  5
195
330
1F
100
AcDbEntity
  8
1
  6
SLD-Сплошная
100
AcDbLine
 10
1499.1320641082
 20
915.3336419142
 30
0.0
 11
1493.1109962963
 21
925.7624372496
 31
0.0
  0
LINE
  5
196
330
1F
100
AcDbEntity
  8
1
  6
SLD-Сплошная
100
AcDbLine
 10
1499.1320641082
 20
1156.9142459234
 30
0.0
 11
1493.1109962963
 21
1153.4372275109
 31
0.0
  0
LINE
  5
197
330
1F
100
AcDbEntity
  8
1
  6
SLD-Сплошная
100
AcDbLine
 10
1493.1109962963
 20
1153.5527038199
 30
0.0
 11
1499.0820641082
 21
1157.0008484635
 31
0.0
  0
LINE
  5
198
330
1F
100
AcDbEntity
  8
1
  6
SLD-Сплошная
100
AcDbLine
 10
1219.1677787583
 20
1318.5919258332
 30
0.0
 11
1224.268756511
 21
1309.7567732232
 31
0.0
  0
LINE
  5
199
330
1F
100
AcDbEntity
  8
1
  6
SLD-Сплошная
100
AcDbLine
 10
1493.1109962963
 20
1153.5525711198
 30
0.0
 11
1499.7891708894
 21
1157.4090525194
 31
0.0
  0
LINE
  5
19A
330
1F
100
AcDbEntity
  8
1
  6
SLD-Сплошная
100
AcDbLine
 10
1493.4346832933
 20
1153.7393464207
 30
0.0
 11
1493.4345568863
 21
1153.7394193939
 31
0.0
  0
LINE
  5
19B
330
1F
100
AcDbEntity
  8
1
  6
SLD-Сплошная
100
AcDbLine
 10
1492.7275765121
 20
1153.3311423648
 30
0.0
 11
1493.4346832933
 21
1153.7393464207
 31
0.0
  0
LINE
  5
19C
330
1F
100
AcDbEntity
  8
1
  6
SLD-Сплошная
100
AcDbLine
 10
1493.1109962963
 20
1153.5524251497
 30
0.0
 11
1493.4346832933
 21
1153.7393464207
 31
0.0
  0
LINE
  5
19D
330
1F
100
AcDbEntity
  8
1
  6
SLD-Сплошная
100
AcDbLine
 10
1484.9399284845
 20
1149.6507868559
 30
0.0
 11
1480.4097648628
 21
1147.0355790634
 31
0.0
  0
ELLIPSE
  5
19E
330
1F
100
AcDbEntity
  8
1
  6
SLD-Сплошная
100
AcDbEllipse
 10
1486.3541420468
 20
1149.650919556
 30
0.0
 11
1.580529840018926
 21
0.1927335649925226
 31
0.0
210
0.0
220
0.0
230
0.9999999999999999
 40
0.2276700627
 41
2.329626123019648
 42
2.650189545573029
  0
LWPOLYLINE
  5
19F
330
1F
100
AcDbEntity
  8
1
  6
SLD-Сплошная
100
AcDbPolyline
 90
        3
 70
   128
 43
0.0
 10
1586.1768258726
 20
1206.8956750511
 10
1586.1462659636
 20
1206.98503964
 10
1586.0764277516
 20
1207.1061680731
  0
LINE
  5
1A0
330
1F
100
AcDbEntity
  8
1
  6
SLD-Сплошная
100
AcDbLine
 10
1586.9993898315
 20
1207.3283608558
 30
0.0
 11
1586.0764277516
 21
1207.1061680731
 31
0.0
  0
LWPOLYLINE
  5
1A1
330
1F
100
AcDbEntity
  8
1
  6
SLD-Сплошная
100
AcDbPolyline
 90
        9
 70
   128
 43
0.0
 10
1586.4597515847
 20
1205.7523687593
 10
1586.7004483811
 20
1205.9135006042
 10
1586.8974917019
 20
1206.0933108293
 10
1587.0465988579
 20
1206.2878913026
 10
1587.1445290411
 20
1206.4930128645
 10
1587.1891537624
 20
1206.7042172472
 10
1587.1795031144
 20
1206.9169139744
 10
1587.1157868516
 20
1207.1264801339
 10
1586.9993898315
 20
1207.3283608558
  0
ELLIPSE
  5
1A2
330
1F
100
AcDbEntity
  8
1
  6
SLD-Сплошная
100
AcDbEllipse
 10
1584.6919846317
 20
1206.3068703386
 30
0.0
 11
2.4930803407251
 21
0.9065865826364642
 31
0.0
210
0.0
220
0.0
230
1.0
 40
0.2050299685
 41
0.3206699638821761
 42
0.7109785221995482
  0
ARC
  5
1A3
330
1F
100
AcDbEntity
  8
1
  6
SLD-Сплошная
100
AcDbCircle
 10
1585.9578822968
 20
965.1893378084
 30
0.0
 40
1.239223002915212
100
AcDbArc
 50
293.8903166265
 51
354.7895424157
  0
LINE
  5
1A4
330
1F
100
AcDbEntity
  8
1
  6
SLD-Сплошная
100
AcDbLine
 10
1586.6803542378
 20
1207.8809467119
 30
0.0
 11
1586.0264277516
 21
1207.1927706132
 31
0.0
  0
LWPOLYLINE
  5
1A5
330
1F
100
AcDbEntity
  8
1
  6
SLD-Сплошная
100
AcDbPolyline
 90
        3
 70
   128
 43
0.0
 10
1586.0264277516
 20
1207.1927706132
 10
1585.95643519
 20
1207.3138361838
 10
1585.8943976405
 20
1207.38491877
  0
LWPOLYLINE
  5
1A6
330
1F
100
AcDbEntity
  8
1
  6
SLD-Сплошная
100
AcDbPolyline
 90
        9
 70
   128
 43
0.0
 10
1586.6803542378
 20
1207.8809467119
 10
1586.5636999685
 20
1208.0827226629
 10
1586.4140488151
 20
1208.2427197079
 10
1586.2346534093
 20
1208.3574603498
 10
1586.0294128672
 20
1208.4244507284
 10
1585.8027880423
 20
1208.4422348239
 10
1585.5597045708
 20
1208.4104261034
 10
1585.3054458132
 20
1208.3297159216
 10
1585.0455380223
 20
1208.2018584949
  0
ELLIPSE
  5
1A7
330
1F
100
AcDbEntity
  8
1
  6
SLD-Сплошная
100
AcDbEllipse
 10
1584.6419846318
 20
1206.3934728787
 30
0.0
 11
2.031629674499754
 21
1.705837126210326
 31
0.0
210
0.0
220
0.0
230
0.9999999999999998
 40
0.2051618287
 41
5.572177975264855
 42
5.962486533586557
  0
ARC
  5
1A8
330
1F
100
AcDbEntity
  8
1
  6
SLD-Сплошная
100
AcDbCircle
 10
1305.7614871132
 20
1368.8493218451
 30
0.0
 40
1.239326318111556
100
AcDbArc
 50
65.2088626952
 51
126.1015957339
  0
ELLIPSE
  5
1A9
330
1F
100
AcDbEntity
  8
1
  6
SLD-Сплошная
100
AcDbEllipse
 10
1584.6419846318
 20
1206.3934728787
 30
0.0
 11
1.499999998857447
 21
0.8660723228592816
 31
0.0
210
0.0
220
0.0
230
1.0
 40
0.0000703729
 41
5.497746511361271
 42
5.888055070158255
  0
LINE
  5
1AA
330
1F
100
AcDbEntity
  8
1
  6
SLD-Сплошная
100
AcDbLine
 10
1586.4597515847
 20
1207.3273804784
 30
0.0
 11
1586.0766527808
 21
1207.1062222464
 31
0.0
  0
LINE
  5
1AB
330
1F
100
AcDbEntity
  8
1
  6
SLD-Сплошная
100
AcDbLine
 10
1586.4097515847
 20
1207.4139830185
 30
0.0
 11
1586.0203402698
 21
1207.1891806515
 31
0.0
  0
LINE
  5
1AC
330
1F
100
AcDbEntity
  8
1
  6
SLD-Сплошная
100
AcDbLine
 10
1586.0203726997
 20
1207.1891262996
 30
0.0
 11
1586.4097515847
 21
1207.4139830185
 31
0.0
  0
LINE
  5
1AD
330
1F
100
AcDbEntity
  8
1
  6
SLD-Сплошная
100
AcDbLine
 10
1493.1109962963
 20
925.6469609406
 30
0.0
 11
1499.0820641082
 21
915.3047681453
 31
0.0
  0
LINE
  5
1AE
330
1F
100
AcDbEntity
  8
1
  6
SLD-Сплошная
100
AcDbLine
 10
1499.1320722353
 20
915.3336372226
 30
0.0
 11
1499.0820641082
 21
915.3047681453
 31
0.0
  0
ARC
  5
1AF
330
1F
100
AcDbEntity
  8
1
  6
SLD-Сплошная
100
AcDbCircle
 10
1501.0983424981
 20
915.1360493659
 30
0.0
 40
0.8734183948568265
100
AcDbArc
 50
230.7967147643
 51
9.2140369905
  0
LINE
  5
1B0
330
1F
100
AcDbEntity
  8
1
  6
SLD-Сплошная
100
AcDbLine
 10
1500.5462776705
 20
914.9785634879
 30
0.0
 11
1500.5462776705
 21
914.4592302478
 31
0.0
  0
ARC
  5
1B1
330
1F
100
AcDbEntity
  8
1
  6
SLD-Сплошная
100
AcDbCircle
 10
1585.4797478062
 20
963.9481149546
 30
0.0
 40
0.9859558352834669
100
AcDbArc
 50
305.0133320239
 51
6.2988483695
  0
ELLIPSE
  5
1B2
330
1F
100
AcDbEntity
  8
1
  6
SLD-Сплошная
100
AcDbEllipse
 10
1500.5462776705
 20
916.0923118715
 30
0.0
 11
1.054720450885043
 21
1.700046099215683
 31
0.0
210
0.0
220
0.0
230
1.0
 40
0.5974079498
 41
2.375077726952383
 42
3.945874053747348
  0
LINE
  5
1B3
330
1F
100
AcDbEntity
  8
1
  6
SLD-Сплошная
100
AcDbLine
 10
1224.168756511
 20
1309.8145019944
 30
0.0
 11
1219.1177787583
 21
1318.5630520642
 31
0.0
  0
LINE
  5
1B4
330
1F
100
AcDbEntity
  8
1
  6
SLD-Сплошная
100
AcDbLine
 10
1219.1677828215
 20
1318.5919187955
 30
0.0
 11
1219.1177787583
 21
1318.5630520642
 31
0.0
  0
ELLIPSE
  5
1B5
330
1F
100
AcDbEntity
  8
1
  6
SLD-Сплошная
100
AcDbEllipse
 10
1220.5319923207
 20
1319.4371983306
 30
0.0
 11
1.999640479968093
 21
0.06348472514468995
 31
0.0
210
0.0
220
0.0
230
1.0
 40
0.5973141192
 41
2.337233192677719
 42
3.908029519472269
  0
LINE
  5
1B6
330
1F
100
AcDbEntity
  8
1
  6
SLD-Сплошная
100
AcDbLine
 10
1219.567269272
 20
1319.9941210922
 30
0.0
 11
1219.1177787583
 21
1320.2536064424
 31
0.0
  0
ARC
  5
1B7
330
1F
100
AcDbEntity
  8
1
  6
SLD-Сплошная
100
AcDbCircle
 10
1219.9799274932
 20
1320.3934608362
 30
0.0
 40
0.8734183948600379
100
AcDbArc
 50
50.7967147647
 51
189.2140369903
  0
ARC
  5
1B8
330
1F
100
AcDbEntity
  8
1
  6
SLD-Сплошная
100
AcDbCircle
 10
1304.4454125628
 20
1369.0329019775
 30
0.0
 40
1.005954471803646
100
AcDbArc
 50
54.3824225248
 51
114.3071190461
  0
LWPOLYLINE
  5
1B9
330
1F
100
AcDbEntity
  8
1
  6
SLD-Сплошная
100
AcDbPolyline
 90
       21
 70
   128
 43
0.0
 10
1238.9874793096
 20
1175.6091276246
 10
1240.5754699723
 20
1174.5443642813
 10
1242.1223325108
 20
1173.2111060557
 10
1243.5880039982
 20
1171.6438836354
 10
1244.9345243127
 20
1169.8832872579
 10
1246.1270192854
 20
1167.9749154446
 10
1247.134603923
 20
1165.9681940231
 10
1247.9311823125
 20
1163.915096024
 10
1248.4961234922
 20
1161.8687956071
 10
1248.8147957823
 20
1159.8822908784
 10
1248.8789457377
 20
1158.0070312667
 10
1248.6869119085
 20
1156.2915850112
 10
1248.2436678697
 20
1154.7803812686
 10
1247.5606934094
 20
1153.5125594221
 10
1246.6556772071
 20
1152.5209553917
 10
1245.5520587072
 20
1151.8312512007
 10
1244.2784210492
 20
1151.4613098255
 10
1242.8677507793
 20
1151.4207125534
 10
1241.3565835165
 20
1151.7105108324
 10
1239.7840576992
 20
1152.3231990393
 10
1238.9858703633
 20
1152.7469138677
  0
LWPOLYLINE
  5
1BA
330
1F
100
AcDbEntity
  8
1
  6
SLD-Сплошная
100
AcDbPolyline
 90
       11
 70
   128
 43
0.0
 10
1229.087984373
 20
1169.892413041
 10
1229.160162837
 20
1171.2286689633
 10
1229.478835127
 20
1172.8472424976
 10
1230.0437763067
 20
1174.2412757122
 10
1230.8403546963
 20
1175.3746638793
 10
1231.8479393339
 20
1176.2180528405
 10
1233.0404343066
 20
1176.7495992649
 10
1234.3869546211
 20
1176.9555363791
 10
1235.8526261084
 20
1176.8305305202
 10
1237.399488647
 20
1176.3778192742
 10
1238.9874793096
 20
1175.6091276246
  0
LWPOLYLINE
  5
1BB
330
1F
100
AcDbEntity
  8
1
  6
SLD-Сплошная
100
AcDbPolyline
 90
       36
 70
   128
 43
0.0
 10
1236.8661589661
 20
1171.9348930212
 10
1238.2550056686
 20
1170.9887852714
 10
1239.5992136954
 20
1169.784398974
 10
1240.8555790944
 20
1168.3604440958
 10
1241.983721248
 20
1166.7626877181
 10
1242.947380739
 20
1165.0424830456
 10
1243.7155847587
 20
1163.2551188717
 10
1244.2636425977
 20
1161.4580425518
 10
1244.573939226
 20
1159.7090135973
 10
1244.6365014549
 20
1158.064247238
 10
1244.4493184827
 20
1156.5766076179
 10
1244.0184065241
 20
1155.2939086986
 10
1243.3576154442
 20
1154.2573774786
 10
1242.4881836119
 20
1153.5003289243
 10
1241.4380552816
 20
1153.047095199
 10
1240.240982442
 20
1152.9122436077
 10
1238.9354399991
 20
1153.1001083914
 10
1237.5633891611
 20
1153.6046514214
 10
1236.168928771
 20
1154.4096562696
 10
1234.7968779331
 20
1155.4892494178
 10
1233.4913354901
 20
1156.8087318539
 10
1232.2942626505
 20
1158.3256943268
 10
1231.2441343203
 20
1159.9913804144
 10
1230.3747024879
 20
1161.7522535953
 10
1229.713911408
 20
1163.5517179567
 10
1229.2829994495
 20
1165.3319372334
 10
1229.0958164773
 20
1167.035693713
 10
1229.1583787061
 20
1168.6082272604
 10
1229.4686753345
 20
1169.9989953536
 10
1230.0167331734
 20
1171.1632975616
 10
1230.7849371931
 20
1172.0637122536
 10
1231.7485966842
 20
1172.6712993605
 10
1232.8767388378
 20
1172.9665305327
 10
1234.1331042368
 20
1172.9399167974
 10
1235.4773122635
 20
1172.5923135421
 10
1236.8661589661
 20
1171.9348930212
  0
LWPOLYLINE
  5
1BC
330
1F
100
AcDbEntity
  8
1
  6
SLD-Сплошная
100
AcDbPolyline
 90
       16
 70
   128
 43
0.0
 10
1239.6945860908
 20
1176.0173316805
 10
1241.2825767534
 20
1174.9525683372
 10
1242.829439292
 20
1173.6193101116
 10
1244.2951107794
 20
1172.0520876913
 10
1245.6416310938
 20
1170.2914913138
 10
1246.8341260666
 20
1168.3831195006
 10
1247.8417107041
 20
1166.376398079
 10
1248.6382890937
 20
1164.3233000799
 10
1249.2032302734
 20
1162.276999663
 10
1249.5219025635
 20
1160.2904949343
 10
1249.5860525189
 20
1158.4152353227
 10
1249.3940186896
 20
1156.6997890671
 10
1248.9507746509
 20
1155.1885853245
 10
1248.2678001906
 20
1153.9207634781
 10
1247.3627839883
 20
1152.9291594476
 10
1246.6940172193
 20
1152.4610762408
  0
ARC
  5
1BD
330
1F
100
AcDbEntity
  8
1
  6
SLD-Сплошная
100
AcDbCircle
 10
1235.5846921756
 20
1170.2019733831
 30
0.0
 40
7.121068748507329
100
AcDbArc
 50
54.7499671021
 51
113.9395744688
  0
LWPOLYLINE
  5
1BE
330
1F
100
AcDbEntity
  8
1
  6
SLD-Сплошная
100
AcDbPolyline
 90
       30
 70
   128
 43
0.0
 10
1236.8661589661
 20
1169.4852705856
 10
1238.0822154143
 20
1168.6305339774
 10
1239.2414104145
 20
1167.5103195764
 10
1240.289541297
 20
1166.1770073627
 10
1241.1775986264
 20
1164.6929415338
 10
1241.8640578292
 20
1163.1275153583
 10
1242.3168208358
 20
1161.5539264243
 10
1242.5147169515
 20
1160.0457540015
 10
1242.4484927736
 20
1158.6735185561
 10
1242.1212448712
 20
1157.5013842925
 10
1241.5482749925
 20
1156.5841589061
 10
1240.7563745723
 20
1155.9647308364
 10
1239.7825719939
 20
1155.6720638518
 10
1238.6724011837
 20
1155.7198427349
 10
1237.4777724949
 20
1156.1058333984
 10
1236.2545454372
 20
1156.8119873479
 10
1235.0599167484
 20
1157.8052856095
 10
1233.9497459383
 20
1159.0392826604
 10
1232.9759433599
 20
1160.4562781701
 10
1232.1840429396
 20
1161.9900150033
 10
1231.6110730609
 20
1163.5687773305
 10
1231.2838251585
 20
1165.1187439798
 10
1231.2176009807
 20
1166.5674402334
 10
1231.4154970963
 20
1167.8471266646
 10
1231.868260103
 20
1168.8979665581
 10
1232.5547193057
 20
1169.6708238084
 10
1233.4427766352
 20
1170.1295604695
 10
1234.4909075176
 20
1170.252726525
 10
1235.6501025178
 20
1170.0345628669
 10
1236.8661589661
 20
1169.4852705856
  0
LWPOLYLINE
  5
1BF
330
1F
100
AcDbEntity
  8
1
  6
SLD-Сплошная
100
AcDbPolyline
 90
       12
 70
   128
 43
0.0
 10
1242.290113866
 20
1157.9666810372
 10
1241.2961491133
 20
1158.3101353004
 10
1240.0729220556
 20
1159.0162892498
 10
1238.8782933669
 20
1160.0095875114
 10
1237.7681225567
 20
1161.2435845623
 10
1236.7943199783
 20
1162.660580072
 10
1236.002419558
 20
1164.1943169053
 10
1235.4294496793
 20
1165.7730792324
 10
1235.1022017769
 20
1167.3230458817
 10
1235.0359775991
 20
1168.7717421353
 10
1235.2338737147
 20
1170.0514285665
 10
1235.2605806845
 20
1170.1435090457
  0
LINE
  5
1C0
330
1F
100
AcDbEntity
  8
1
  6
SLD-Сплошная
100
AcDbLine
 10
1237.6627128516
 20
1167.6088522105
 30
0.0
 11
1239.0371666163
 21
1167.7317490887
 31
0.0
  0
LINE
  5
1C1
330
1F
100
AcDbEntity
  8
1
  6
SLD-Сплошная
100
AcDbLine
 10
1237.6627128516
 20
1167.6088522105
 30
0.0
 11
1237.5163068759
 21
1167.5636539586
 31
0.0
  0
LWPOLYLINE
  5
1C2
330
1F
100
AcDbEntity
  8
1
  6
SLD-Сплошная
100
AcDbPolyline
 90
        9
 70
   128
 43
0.0
 10
1239.9680605902
 20
1160.2359197611
 10
1240.1386012789
 20
1160.055895945
 10
1240.3216139808
 20
1159.9224220076
 10
1240.5046266826
 20
1159.8445939771
 10
1240.6751673713
 20
1159.8277157052
 10
1240.8216139808
 20
1159.8729374183
 10
1240.9339864165
 20
1159.9771773312
 10
1241.0046266826
 20
1160.1333316663
 10
1241.0287207619
 20
1160.3307587636
  0
LINE
  5
1C3
330
1F
100
AcDbEntity
  8
1
  6
SLD-Сплошная
100
AcDbLine
 10
1235.9656565768
 20
1165.2148723037
 30
0.0
 11
1239.9680605902
 21
1160.2359197611
 31
0.0
  0
LWPOLYLINE
  5
1C4
330
1F
100
AcDbEntity
  8
1
  6
SLD-Сплошная
100
AcDbPolyline
 90
        9
 70
   128
 43
0.0
 10
1235.9656565768
 20
1166.6291624763
 10
1235.8192099674
 20
1166.5839407633
 10
1235.7068375317
 20
1166.4797008503
 10
1235.6361972655
 20
1166.3235465152
 10
1235.6121031862
 20
1166.1261194179
 10
1235.6361972655
 20
1165.9008738888
 10
1235.7068375317
 20
1165.6631600384
 10
1235.8192099674
 20
1165.4291776729
 10
1235.9656565768
 20
1165.2148723037
  0
LINE
  5
1C5
330
1F
100
AcDbEntity
  8
1
  6
SLD-Сплошная
100
AcDbLine
 10
1239.7055988751
 20
1166.963569675
 30
0.0
 11
1235.9656565768
 21
1166.6291624763
 31
0.0
  0
LINE
  5
1C6
330
1F
100
AcDbEntity
  8
1
  6
SLD-Сплошная
100
AcDbLine
 10
1241.0287207619
 20
1160.3307587636
 30
0.0
 11
1241.0287207619
 21
1164.9733209449
 31
0.0
  0
ARC
  5
1C7
330
1F
100
AcDbEntity
  8
1
  6
SLD-Сплошная
100
AcDbCircle
 10
1493.5444943332
 20
1002.0497240593
 30
0.0
 40
2.603316187498946
100
AcDbArc
 50
37.9787348637
 51
58.8941006488
  0
ARC
  5
1C8
330
1F
100
AcDbEntity
  8
1
  6
SLD-Сплошная
100
AcDbCircle
 10
1494.6474183431
 20
1002.5059162269
 30
0.0
 40
3.073609615146202
100
AcDbArc
 50
2.6054784857
 51
57.39452166
  0
SPLINE
  5
1C9
330
1F
100
AcDbEntity
  8
1
  6
SLD-Сплошная
100
AcDbSpline
210
0.0
220
0.0
230
1.0
 70
     8
 71
     3
 72
    12
 73
     8
 74
     0
 42
0.00000001
 43
0.00000001
 40
0.0
 40
0.0
 40
0.0
 40
0.0
 40
0.0038128522419034
 40
0.1589839410707388
 40
0.5234324970000709
 40
0.782176888911795
 40
1.0
 40
1.0
 40
1.0
 40
1.0
 10
1497.010743764613
 20
1002.237433875489
 30
0.0
 10
1497.009524526499
 20
1002.238720156407
 30
0.0
 10
1496.958686133542
 20
1002.292354023331
 30
0.0
 10
1496.773027405472
 20
1002.479352948941
 30
0.0
 10
1496.41930377141
 20
1002.810996850061
 30
0.0
 10
1495.958299931131
 20
1003.240997614635
 30
0.0
 10
1495.710013602283
 20
1003.522883439205
 30
0.0
 10
1495.596530202241
 20
1003.651724048129
 30
0.0
  0
SPLINE
  5
1CA
330
1F
100
AcDbEntity
  8
1
  6
SLD-Сплошная
100
AcDbSpline
210
0.0
220
0.0
230
1.0
 70
     8
 71
     3
 72
    12
 73
     8
 74
     0
 42
0.00000001
 43
0.00000001
 40
0.0
 40
0.0
 40
0.0
 40
0.0
 40
0.2178231110881961
 40
0.4765675029999286
 40
0.8410160589292622
 40
0.9961871477580964
 40
1.0
 40
1.0
 40
1.0
 40
1.0
 10
1495.596530202237
 20
955.0968582372492
 30
0.0
 10
1495.71001360228
 20
955.1262739096127
 30
0.0
 10
1495.958299931127
 20
955.1906314218037
 30
0.0
 10
1496.419303771407
 20
955.5686577082412
 30
0.0
 10
1496.77302740547
 20
956.0372460926496
 30
0.0
 10
1496.958686133538
 20
956.3963301991733
 30
0.0
 10
1497.009524526496
 20
956.508459260654
 30
0.0
 10
1497.01074376461
 20
956.5111484098887
 30
0.0
  0
LWPOLYLINE
  5
1CB
330
1F
100
AcDbEntity
  8
1
  6
SLD-Сплошная
100
AcDbPolyline
 90
        9
 70
   128
 43
0.0
 10
1493.1109962963
 20
984.1146524354
 10
1493.4735606987
 20
983.608505004
 10
1494.0978930341
 20
982.4761303022
 10
1494.5187151816
 20
981.2953541444
 10
1494.7048166875
 20
980.1537492966
 10
1494.6423952544
 20
979.1359833678
 10
1494.3360803946
 20
978.317539401
 10
1493.8085900799
 20
977.7591176411
 10
1493.1109962963
 20
977.5036662137
  0
ARC
  5
1CC
330
1F
100
AcDbEntity
  8
1
  6
SLD-Сплошная
100
AcDbCircle
 10
1495.5460463213
 20
956.3229702647
 30
0.0
 40
1.227150897868505
100
AcDbArc
 50
237.6507184097
 51
272.3577620584
  0
LINE
  5
1CD
330
1F
100
AcDbEntity
  8
1
  6
SLD-Сплошная
100
AcDbLine
 10
1493.1109962963
 20
956.312934968
 30
0.0
 11
1494.8894234211
 21
955.286270842
 31
0.0
  0
LINE
  5
1CE
330
1F
100
AcDbEntity
  8
1
  6
SLD-Сплошная
100
AcDbLine
 10
1493.1109962963
 20
1005.3053836811
 30
0.0
 11
1494.8894234211
 21
1004.2787195552
 31
0.0
  0
LINE
  5
1CF
330
1F
100
AcDbEntity
  8
1
  6
SLD-Сплошная
100
AcDbLine
 10
1493.1109962963
 20
1006.9381999048
 30
0.0
 11
1496.3036369834
 21
1005.095127667
 31
0.0
  0
LINE
  5
1D0
330
1F
100
AcDbEntity
  8
1
  6
SLD-Сплошная
100
AcDbLine
 10
1497.7178505458
 20
956.9193524658
 30
0.0
 11
1497.7178505458
 21
1002.6456379314
 31
0.0
  0
ARC
  5
1D1
330
1F
100
AcDbEntity
  8
1
  6
SLD-Сплошная
100
AcDbCircle
 10
1496.7664794332
 20
956.7982244089
 30
0.0
 40
0.9590510935070182
100
AcDbArc
 50
304.0563508565
 51
7.2558295369
  0
LWPOLYLINE
  5
1D2
330
1F
100
AcDbEntity
  8
1
  6
SLD-Сплошная
100
AcDbPolyline
 90
        8
 70
   128
 43
0.0
 10
1493.1109962963
 20
977.5430359154
 10
1493.3003361245
 20
977.6356966045
 10
1493.8551548446
 20
978.171260442
 10
1494.1786931302
 20
978.9861731293
 10
1494.2447398336
 20
980.0144152869
 10
1494.0479442437
 20
981.1726848504
 10
1493.6042495689
 20
982.3671457083
 10
1493.1516860869
 20
983.1946362805
  0
LWPOLYLINE
  5
1D3
330
1F
100
AcDbEntity
  8
1
  6
SLD-Сплошная
100
AcDbPolyline
 90
        8
 70
   128
 43
0.0
 10
1493.583178837
 20
977.7989782268
 10
1494.137997557
 20
978.3345420644
 10
1494.4615358427
 20
979.1494547517
 10
1494.5275825461
 20
980.1776969093
 10
1494.3307869562
 20
981.3359664728
 10
1493.8870922814
 20
982.5304273307
 10
1493.2324440253
 20
983.6643113679
 10
1493.1109962963
 20
983.8344715036
  0
LWPOLYLINE
  5
1D4
330
1F
100
AcDbEntity
  8
1
  6
SLD-Сплошная
100
AcDbPolyline
 90
        9
 70
   128
 43
0.0
 10
1493.0704012803
 20
1091.9578191208
 10
1493.6538895151
 20
1092.1555122965
 10
1494.2087082352
 20
1092.691076134
 10
1494.5322465208
 20
1093.5059888213
 10
1494.5982932242
 20
1094.5342309789
 10
1494.4014976343
 20
1095.6925005424
 10
1493.9578029595
 20
1096.8869614003
 10
1493.3031547034
 20
1098.0208454375
 10
1493.1109962963
 20
1098.2857563149
  0
LWPOLYLINE
  5
1D5
330
1F
100
AcDbEntity
  8
1
  6
SLD-Сплошная
100
AcDbPolyline
 90
        8
 70
   128
 43
0.0
 10
1493.9367322276
 20
1092.3187939188
 10
1494.4915509476
 20
1092.8543577564
 10
1494.8150892333
 20
1093.6692704437
 10
1494.8811359367
 20
1094.6975126013
 10
1494.6843403468
 20
1095.8557821648
 10
1494.2406456719
 20
1097.0502430226
 10
1493.5859974159
 20
1098.1841270599
 10
1493.1109962963
 20
1098.7995613351
  0
ARC
  5
1D6
330
1F
100
AcDbEntity
  8
1
  6
SLD-Сплошная
100
AcDbCircle
 10
1493.8980477238
 20
1116.5695397513
 30
0.0
 40
2.603316187511082
100
AcDbArc
 50
37.9787348638
 51
58.8941006488
  0
ARC
  5
1D7
330
1F
100
AcDbEntity
  8
1
  6
SLD-Сплошная
100
AcDbCircle
 10
1494.6474183431
 20
1116.8216298909
 30
0.0
 40
3.073609615144088
100
AcDbArc
 50
2.6054784857
 51
57.39452166
  0
SPLINE
  5
1D8
330
1F
100
AcDbEntity
  8
1
  6
SLD-Сплошная
100
AcDbSpline
210
0.0
220
0.0
230
1.0
 70
     8
 71
     3
 72
    12
 73
     8
 74
     0
 42
0.00000001
 43
0.00000001
 40
0.0
 40
0.0
 40
0.0
 40
0.0
 40
0.0038128522419034
 40
0.1589839410707365
 40
0.5234324970000722
 40
0.7821768889117985
 40
1.0
 40
1.0
 40
1.0
 40
1.0
 10
1497.364297155204
 20
1116.757249567487
 30
0.0
 10
1497.363077917089
 20
1116.758535848405
 30
0.0
 10
1497.312239524132
 20
1116.812169715329
 30
0.0
 10
1497.126580796062
 20
1116.999168640939
 30
0.0
 10
1496.772857162
 20
1117.330812542059
 30
0.0
 10
1496.31185332172
 20
1117.760813306632
 30
0.0
 10
1496.063566992873
 20
1118.042699131203
 30
0.0
 10
1495.95008359283
 20
1118.171539740126
 30
0.0
  0
SPLINE
  5
1D9
330
1F
100
AcDbEntity
  8
1
  6
SLD-Сплошная
100
AcDbSpline
210
0.0
220
0.0
230
1.0
 70
     8
 71
     3
 72
    12
 73
     8
 74
     0
 42
0.00000001
 43
0.00000001
 40
0.0
 40
0.0
 40
0.0
 40
0.0
 40
0.2178231110881986
 40
0.4765675029999257
 40
0.8410160589292641
 40
0.9961871477580989
 40
1.0
 40
1.0
 40
1.0
 40
1.0
 10
1495.950083592834
 20
1069.616673929243
 30
0.0
 10
1496.063566992876
 20
1069.646089601607
 30
0.0
 10
1496.311853321724
 20
1069.710447113798
 30
0.0
 10
1496.772857162003
 20
1070.088473400235
 30
0.0
 10
1497.126580796066
 20
1070.557061784644
 30
0.0
 10
1497.312239524134
 20
1070.916145891168
 30
0.0
 10
1497.363077917092
 20
1071.028274952648
 30
0.0
 10
1497.364297155207
 20
1071.030964101883
 30
0.0
  0
ARC
  5
1DA
330
1F
100
AcDbEntity
  8
1
  6
SLD-Сплошная
100
AcDbCircle
 10
1495.8995997119
 20
1070.8427859567
 30
0.0
 40
1.227150897870417
100
AcDbArc
 50
237.6507184098
 51
272.3577620583
  0
LINE
  5
1DB
330
1F
100
AcDbEntity
  8
1
  6
SLD-Сплошная
100
AcDbLine
 10
1493.1109962963
 20
1071.0368526879
 30
0.0
 11
1495.2429768116
 21
1069.806086534
 31
0.0
  0
LINE
  5
1DC
330
1F
100
AcDbEntity
  8
1
  6
SLD-Сплошная
100
AcDbLine
 10
1493.1109962963
 20
1120.0293014011
 30
0.0
 11
1495.2429768116
 21
1118.7985352472
 31
0.0
  0
LINE
  5
1DD
330
1F
100
AcDbEntity
  8
1
  6
SLD-Сплошная
100
AcDbLine
 10
1493.1109962963
 20
1121.2539135688
 30
0.0
 11
1496.3036369834
 21
1119.410841331
 31
0.0
  0
LINE
  5
1DE
330
1F
100
AcDbEntity
  8
1
  6
SLD-Сплошная
100
AcDbLine
 10
1497.7178505458
 20
1071.2350661298
 30
0.0
 11
1497.7178505458
 21
1116.9613515954
 31
0.0
  0
ARC
  5
1DF
330
1F
100
AcDbEntity
  8
1
  6
SLD-Сплошная
100
AcDbCircle
 10
1496.7664794333
 20
1071.1139380729
 30
0.0
 40
0.9590510934396754
100
AcDbArc
 50
304.056350854
 51
7.2558295394
  0
ARC
  5
1E0
330
1F
100
AcDbEntity
  8
1
  6
SLD-Сплошная
100
AcDbCircle
 10
1563.4426945285
 20
982.6554478674
 30
0.0
 40
0.7434834124462704
100
AcDbArc
 50
301.6059020664
 51
358.3997357608
  0
LINE
  5
1E1
330
1F
100
AcDbEntity
  8
1
  6
SLD-Сплошная
100
AcDbLine
 10
1437.9545954007
 20
961.5494822751
 30
0.0
 11
1438.0380383287
 21
961.4897781249
 31
0.0
  0
ARC
  5
1E2
330
1F
100
AcDbEntity
  8
1
  6
SLD-Сплошная
100
AcDbCircle
 10
1438.45490366
 20
962.136339281
 30
0.0
 40
0.7711741046430602
100
AcDbArc
 50
182.5359965892
 51
229.5516921659
  0
LINE
  5
1E3
330
1F
100
AcDbEntity
  8
0
  6
SLD-Сплошная
 62
     8
370
    18
100
AcDbLine
 10
1482.0200800035
 20
1147.1073493903
 30
0.0
 11
1481.3129732223
 21
1147.5155534462
 31
0.0
  0
LINE
  5
1E4
330
1F
100
AcDbEntity
  8
0
  6
SLD-Сплошная
 62
     8
370
    18
100
AcDbLine
 10
1482.0200800035
 20
1147.1073493903
 30
0.0
 11
1482.0200800035
 21
906.6897151202
 31
0.0
  0
LINE
  5
1E5
330
1F
100
AcDbEntity
  8
0
  6
SLD-Сплошная
 62
     8
370
    18
100
AcDbLine
 10
1478.201703385
 20
1145.9501826282
 30
0.0
 11
1478.2017033851
 21
907.8468818823
 31
0.0
  0
LINE
  5
1E6
330
1F
100
AcDbEntity
  8
0
  6
SLD-Сплошная
 62
     8
370
    18
100
AcDbLine
 10
1481.1129732222
 20
1148.6785044186
 30
0.0
 11
1481.1129732222
 21
1147.8619636067
 31
0.0
  0
LINE
  5
1E7
330
1F
100
AcDbEntity
  8
0
  6
SLD-Сплошная
 62
     8
370
    18
100
AcDbLine
 10
1202.7129014347
 20
1304.9864828112
 30
0.0
 11
1478.201703385
 21
1145.9501826282
 31
0.0
  0
LINE
  5
1E8
330
1F
100
AcDbEntity
  8
0
  6
SLD-Сплошная
 62
     8
370
    18
100
AcDbLine
 10
1203.620008216
 20
1308.8717833069
 30
0.0
 11
1481.1129732222
 21
1148.6785044186
 31
0.0
  0
LINE
  5
1E9
330
1F
100
AcDbEntity
  8
0
  6
SLD-Сплошная
 62
     8
370
    18
100
AcDbLine
 10
1492.8034584165
 20
1153.3324612429
 30
0.0
 11
1492.8034584166
 21
912.9148269728
 31
0.0
  0
LINE
  5
1EA
330
1F
100
AcDbEntity
  8
0
  6
SLD-Сплошная
 62
     8
370
    18
100
AcDbLine
 10
1214.4033866291
 20
1315.0968951595
 30
0.0
 11
1491.8963516353
 21
1154.9036162713
 31
0.0
  0
LINE
  5
1EB
330
1F
100
AcDbEntity
  8
0
  6
SLD-Сплошная
 62
     8
370
    18
100
AcDbLine
 10
1202.7129014348
 20
1066.8831820653
 30
0.0
 11
1478.2017033851
 21
907.8468818823
 31
0.0
  0
LINE
  5
1EC
330
1F
100
AcDbEntity
  8
0
  6
SLD-Сплошная
 62
     8
370
    18
100
AcDbLine
 10
1202.7129014347
 20
1304.9864828112
 30
0.0
 11
1202.7129014348
 21
1066.8831820653
 31
0.0
  0
LINE
  5
1ED
330
1F
100
AcDbEntity
  8
0
  6
SLD-Сплошная
 62
     8
370
    18
100
AcDbLine
 10
1481.1129732222
 20
906.1658832885
 30
0.0
 11
1481.1129732222
 21
906.4382007007
 31
0.0
  0
LINE
  5
1EE
330
1F
100
AcDbEntity
  8
0
  6
SLD-Сплошная
 62
     8
370
    18
100
AcDbLine
 10
1202.7129014347
 20
1308.3479514752
 30
0.0
 11
1202.9485338308
 21
1308.2119237884
 31
0.0
  0
LINE
  5
1EF
330
1F
100
AcDbEntity
  8
0
  6
SLD-Сплошная
 62
     8
370
    18
100
AcDbLine
 10
1501.9604912329
 20
1156.9719840779
 30
0.0
 11
1501.9604912329
 21
915.2759037597
 31
0.0
  0
LINE
  5
1F0
330
1F
100
AcDbEntity
  8
0
  6
SLD-Сплошная
 62
     8
370
    18
100
AcDbLine
 10
1499.1320641082
 20
915.3336419142
 30
0.0
 11
1499.1320641082
 21
1156.9142459234
 31
0.0
  0
LINE
  5
1F1
330
1F
100
AcDbEntity
  8
0
  6
SLD-Сплошная
 62
     8
370
    18
100
AcDbLine
 10
1585.0455380223
 20
1208.2018584949
 30
0.0
 11
1500.5462776705
 21
1159.4214738135
 31
0.0
  0
LINE
  5
1F2
330
1F
100
AcDbEntity
  8
0
  6
SLD-Сплошная
 62
     8
370
    18
100
AcDbLine
 10
1586.4597515847
 20
1205.7523687593
 30
0.0
 11
1501.9604912329
 21
1156.9719840779
 31
0.0
  0
LINE
  5
1F3
330
1F
100
AcDbEntity
  8
0
  6
SLD-Сплошная
 62
     8
370
    18
100
AcDbLine
 10
1220.5319923207
 20
1321.0702799544
 30
0.0
 11
1500.5462776705
 21
1159.4214738135
 31
0.0
  0
LINE
  5
1F4
330
1F
100
AcDbEntity
  8
0
  6
SLD-Сплошная
 62
     8
370
    18
100
AcDbLine
 10
1499.0820641082
 20
1157.0008484635
 30
0.0
 11
1219.1677787583
 21
1318.5919258332
 31
0.0
  0
LINE
  5
1F5
330
1F
100
AcDbEntity
  8
0
  6
SLD-Сплошная
 62
     8
370
    18
100
AcDbLine
 10
1586.4597515847
 20
1205.7523687593
 30
0.0
 11
1586.4597515847
 21
964.0562884411
 31
0.0
  0
LINE
  5
1F6
330
1F
100
AcDbEntity
  8
0
  6
SLD-Сплошная
 62
     8
370
    18
100
AcDbLine
 10
1586.4597515847
 20
964.0562884411
 30
0.0
 11
1501.9604912329
 21
915.2759037597
 31
0.0
  0
LINE
  5
1F7
330
1F
100
AcDbEntity
  8
0
  6
SLD-Сплошная
 62
     8
370
    18
100
AcDbLine
 10
1305.0312526725
 20
1369.8506646358
 30
0.0
 11
1220.5319923207
 21
1321.0702799544
 31
0.0
  0
LINE
  5
1F8
330
1F
100
AcDbEntity
  8
0
  6
SLD-Сплошная
 62
     8
370
    18
100
AcDbLine
 10
1305.0312526725
 20
1369.8506646358
 30
0.0
 11
1585.0455380223
 21
1208.2018584949
 31
0.0
  0
LINE
  5
1F9
330
1F
100
AcDbEntity
  8
0
  6
SLD-Сплошная
 62
     8
370
    18
100
AcDbLine
 10
1486.3901461084
 20
1150.4465429655
 30
0.0
 11
1485.9902400276
 21
1150.6774038319
 31
0.0
  0
LINE
  5
1FA
330
1F
100
AcDbEntity
  8
0
  6
SLD-Сплошная
 62
     8
370
    18
100
AcDbLine
 10
1484.9399284845
 20
1149.6507868559
 30
0.0
 11
1484.5759115311
 21
1149.8609293701
 31
0.0
  0
LINE
  5
1FB
330
1F
100
AcDbEntity
  8
0
  6
SLD-Сплошная
 62
     8
370
    18
100
AcDbLine
 10
1484.9399284845
 20
1149.6093501514
 30
0.0
 11
1484.9399284845
 21
1149.6507868559
 31
0.0
  0
LINE
  5
1FC
330
1F
100
AcDbEntity
  8
0
  6
SLD-Сплошная
 62
     8
370
    18
100
AcDbLine
 10
1499.0820641082
 20
915.3047681453
 30
0.0
 11
1493.1109962963
 21
918.7517922211
 31
0.0
  0
LINE
  5
1FD
330
1F
100
AcDbEntity
  8
0
  6
SLD-Сплошная
 62
     8
370
    18
100
AcDbLine
 10
1219.1177787583
 20
1318.5630520642
 30
0.0
 11
1219.1177787583
 21
1312.730369385
 31
0.0
  0
LINE
  5
1FE
330
1F
100
AcDbEntity
  8
0
  6
SLD-Сплошная
 62
     8
370
    18
100
AcDbLine
 10
1241.0287207619
 20
1160.3307587636
 30
0.0
 11
1242.398604938
 21
1161.1215760654
 31
0.0
  0
LINE
  5
1FF
330
1F
100
AcDbEntity
  8
0
  6
SLD-Сплошная
 62
     8
370
    18
100
AcDbLine
 10
1237.6627128516
 20
1167.6088522105
 30
0.0
 11
1235.9656565768
 21
1166.6291624763
 31
0.0
  0
LINE
  5
200
330
1F
100
AcDbEntity
  8
0
  6
SLD-Сплошная
 62
     8
370
    18
100
AcDbLine
 10
1494.8894234211
 20
1004.2787195552
 30
0.0
 11
1496.3036369834
 21
1005.095127667
 31
0.0
  0
LINE
  5
201
330
1F
100
AcDbEntity
  8
0
  6
SLD-Сплошная
 62
     8
370
    18
100
AcDbLine
 10
1497.7178505458
 20
1002.6456379314
 30
0.0
 11
1497.0107437646
 21
1002.2374338755
 31
0.0
  0
LINE
  5
202
330
1F
100
AcDbEntity
  8
0
  6
SLD-Сплошная
 62
     8
370
    18
100
AcDbLine
 10
1495.5965302022
 20
1003.6517240481
 30
0.0
 11
1495.5965302022
 21
955.0968582372
 31
0.0
  0
LINE
  5
203
330
1F
100
AcDbEntity
  8
0
  6
SLD-Сплошная
 62
     8
370
    18
100
AcDbLine
 10
1497.0107437646
 20
1002.2374338755
 30
0.0
 11
1497.0107437646
 21
956.5111484099
 31
0.0
  0
LINE
  5
204
330
1F
100
AcDbEntity
  8
0
  6
SLD-Сплошная
 62
     8
370
    18
100
AcDbLine
 10
1497.0107437646
 20
956.5111484099
 30
0.0
 11
1497.7178505458
 21
956.9193524658
 31
0.0
  0
LINE
  5
205
330
1F
100
AcDbEntity
  8
0
  6
SLD-Сплошная
 62
     8
370
    18
100
AcDbLine
 10
1495.2429768116
 20
1118.7985352472
 30
0.0
 11
1496.3036369834
 21
1119.410841331
 31
0.0
  0
LINE
  5
206
330
1F
100
AcDbEntity
  8
0
  6
SLD-Сплошная
 62
     8
370
    18
100
AcDbLine
 10
1497.7178505458
 20
1116.9613515954
 30
0.0
 11
1497.3642971552
 21
1116.7572495675
 31
0.0
  0
LINE
  5
207
330
1F
100
AcDbEntity
  8
0
  6
SLD-Сплошная
 62
     8
370
    18
100
AcDbLine
 10
1495.9500835928
 20
1118.1715397401
 30
0.0
 11
1495.9500835928
 21
1069.6166739292
 31
0.0
  0
LINE
  5
208
330
1F
100
AcDbEntity
  8
0
  6
SLD-Сплошная
 62
     8
370
    18
100
AcDbLine
 10
1497.3642971552
 20
1116.7572495675
 30
0.0
 11
1497.3642971552
 21
1071.0309641019
 31
0.0
  0
LINE
  5
209
330
1F
100
AcDbEntity
  8
0
  6
SLD-Сплошная
 62
     8
370
    18
100
AcDbLine
 10
1497.3642971552
 20
1071.0309641019
 30
0.0
 11
1497.7178505458
 21
1071.2350661298
 31
0.0
  0
LINE
  5
20A
330
1F
100
AcDbEntity
  8
1
  6
SLD-Сплошная
100
AcDbLine
 10
595.3857448785
 20
1193.1578844747
 30
0.0
 11
987.8251094534
 21
1193.1578844747
 31
0.0
  0
ARC
  5
20B
330
1F
100
AcDbEntity
  8
1
  6
SLD-Сплошная
100
AcDbCircle
 10
607.7554271659
 20
1187.2232605134
 30
0.0
 40
0.2000000000000455
100
AcDbArc
 50
0.0
 51
68.1849373759
  0
ARC
  5
20C
330
1F
100
AcDbEntity
  8
1
  6
SLD-Сплошная
100
AcDbCircle
 10
598.0554271659
 20
1187.2232605134
 30
0.0
 40
0.2000000000000455
100
AcDbArc
 50
111.8150626241
 51
180.0000000001
  0
LINE
  5
20D
330
1F
100
AcDbEntity
  8
1
  6
SLD-Сплошная
100
AcDbLine
 10
607.9554271659
 20
1186.0578844747
 30
0.0
 11
607.9554271659
 21
1187.2232605134
 31
0.0
  0
LINE
  5
20E
330
1F
100
AcDbEntity
  8
1
  6
SLD-Сплошная
100
AcDbLine
 10
597.8554271659
 20
1187.2232605134
 30
0.0
 11
597.8554271659
 21
1186.0578844747
 31
0.0
  0
ARC
  5
20F
330
1F
100
AcDbEntity
  8
1
  6
SLD-Сплошная
100
AcDbCircle
 10
602.9054271659
 20
1175.1066344747
 30
0.0
 40
13.25125000000025
100
AcDbArc
 50
68.1849373759
 51
90.0
  0
ARC
  5
210
330
1F
100
AcDbEntity
  8
1
  6
SLD-Сплошная
100
AcDbCircle
 10
602.9054271659
 20
1175.1066344747
 30
0.0
 40
13.25125000000025
100
AcDbArc
 50
90.0
 51
111.8150626241
  0
LWPOLYLINE
  5
211
330
1F
100
AcDbEntity
  8
1
  6
SLD-Сплошная
100
AcDbPolyline
 90
        3
 70
   128
 43
0.0
 10
988.005427166
 20
1203.0178524239
 10
988.0250132294
 20
1203.0683025904
 10
988.105427166
 20
1203.3157030054
  0
LWPOLYLINE
  5
212
330
1F
100
AcDbEntity
  8
1
  6
SLD-Сплошная
100
AcDbPolyline
 90
        3
 70
   128
 43
0.0
 10
988.105427166
 20
1204.800065944
 10
988.0250132294
 20
1205.047466359
 10
988.005427166
 20
1205.0979165255
  0
LINE
  5
213
330
1F
100
AcDbEntity
  8
1
  6
SLD-Сплошная
100
AcDbLine
 10
663.1054271659
 20
1212.1578844747
 30
0.0
 11
663.1054271659
 21
1213.1578844747
 31
0.0
  0
LINE
  5
214
330
1F
100
AcDbEntity
  8
1
  6
SLD-Сплошная
100
AcDbLine
 10
635.1054271659
 20
1213.1578844747
 30
0.0
 11
635.1054271659
 21
1212.1578844747
 31
0.0
  0
LINE
  5
215
330
1F
100
AcDbEntity
  8
1
  6
SLD-Сплошная
100
AcDbLine
 10
663.1054271659
 20
1213.1578844747
 30
0.0
 11
660.1054271659
 21
1216.1578844747
 31
0.0
  0
LINE
  5
216
330
1F
100
AcDbEntity
  8
1
  6
SLD-Сплошная
100
AcDbLine
 10
638.1054271659
 20
1216.1578844747
 30
0.0
 11
635.1054271659
 21
1213.1578844747
 31
0.0
  0
LINE
  5
217
330
1F
100
AcDbEntity
  8
1
  6
SLD-Сплошная
100
AcDbLine
 10
976.3054271659
 20
1188.1578844747
 30
0.0
 11
976.4054271659
 21
1188.0578844747
 31
0.0
  0
LINE
  5
218
330
1F
100
AcDbEntity
  8
1
  6
SLD-Сплошная
100
AcDbLine
 10
985.4054271659
 20
1188.0578844747
 30
0.0
 11
985.5054271659
 21
1188.1578844747
 31
0.0
  0
LINE
  5
219
330
1F
100
AcDbEntity
  8
1
  6
SLD-Сплошная
100
AcDbLine
 10
976.3054271659
 20
1188.5578844747
 30
0.0
 11
976.3054271659
 21
1188.1578844747
 31
0.0
  0
LINE
  5
21A
330
1F
100
AcDbEntity
  8
1
  6
SLD-Сплошная
100
AcDbLine
 10
985.5054271659
 20
1188.1578844747
 30
0.0
 11
985.5054271659
 21
1188.5578844747
 31
0.0
  0
LINE
  5
21B
330
1F
100
AcDbEntity
  8
1
  6
SLD-Сплошная
100
AcDbLine
 10
593.0054271659
 20
1150.0578844747
 30
0.0
 11
592.9054271659
 21
1150.0578844747
 31
0.0
  0
LINE
  5
21C
330
1F
100
AcDbEntity
  8
1
  6
SLD-Сплошная
100
AcDbLine
 10
592.9054271659
 20
1142.0578844747
 30
0.0
 11
593.0054271659
 21
1142.0578844747
 31
0.0
  0
LINE
  5
21D
330
1F
100
AcDbEntity
  8
1
  6
SLD-Сплошная
100
AcDbLine
 10
592.9054271659
 20
1092.5078844747
 30
0.0
 11
593.0054271659
 21
1092.5078844747
 31
0.0
  0
LINE
  5
21E
330
1F
100
AcDbEntity
  8
1
  6
SLD-Сплошная
100
AcDbLine
 10
593.0054271659
 20
1099.6078844747
 30
0.0
 11
592.9054271659
 21
1099.6078844747
 31
0.0
  0
SPLINE
  5
21F
330
1F
100
AcDbEntity
  8
1
  6
SLD-Сплошная
100
AcDbSpline
210
0.0
220
0.0
230
1.0
 70
     8
 71
     3
 72
    11
 73
     7
 74
     0
 42
0.00000001
 43
0.00000001
 40
0.0
 40
0.0
 40
0.0
 40
0.0
 40
0.2499999999999971
 40
0.4999999999999996
 40
0.7499999999999998
 40
1.0
 40
1.0
 40
1.0
 40
1.0
 10
987.7725844533917
 20
1193.1578844747
 30
0.0
 10
987.7767511200584
 20
1193.173667626126
 30
0.0
 10
987.7850844533917
 20
1193.20523392898
 30
0.0
 10
987.7975844533918
 20
1193.448045602758
 30
0.0
 10
987.8100844533918
 20
1193.79511778671
 30
0.0
 10
987.818417786725
 20
1194.070295578703
 30
0.0
 10
987.8225844533918
 20
1194.2078844747
 30
0.0
  0
SPLINE
  5
220
330
1F
100
AcDbEntity
  8
1
  6
SLD-Сплошная
100
AcDbSpline
210
0.0
220
0.0
230
1.0
 70
     8
 71
     3
 72
    11
 73
     7
 74
     0
 42
0.00000001
 43
0.00000001
 40
0.0
 40
0.0
 40
0.0
 40
0.0
 40
0.2500000000000013
 40
0.4999999999999926
 40
0.7499999999999992
 40
1.0
 40
1.0
 40
1.0
 40
1.0
 10
595.3882698784928
 20
1194.2078844747
 30
0.0
 10
595.3924365451595
 20
1194.070295578704
 30
0.0
 10
595.4007698784928
 20
1193.79511778671
 30
0.0
 10
595.4132698784929
 20
1193.448045602759
 30
0.0
 10
595.4257698784927
 20
1193.20523392898
 30
0.0
 10
595.4341032118261
 20
1193.173667626127
 30
0.0
 10
595.4382698784926
 20
1193.1578844747
 30
0.0
  0
LINE
  5
221
330
1F
100
AcDbEntity
  8
1
  6
SLD-Сплошная
100
AcDbLine
 10
595.3882698785
 20
1209.4578844747
 30
0.0
 11
595.3882698785
 21
1194.2078844747
 31
0.0
  0
LINE
  5
222
330
1F
100
AcDbEntity
  8
1
  6
SLD-Сплошная
100
AcDbLine
 10
987.8225844534
 20
1209.4578844747
 30
0.0
 11
987.8225844534
 21
1194.2078844747
 31
0.0
  0
ELLIPSE
  5
223
330
1F
100
AcDbEntity
  8
1
  6
SLD-Сплошная
100
AcDbEllipse
 10
596.8054271659
 20
1209.4578844747
 30
0.0
 11
0.0
 21
2.700000000000045
 31
0.0
210
0.0
220
0.0
230
1.0
 40
0.5248730694
 41
0.0
 42
1.570796326794897
  0
LINE
  5
224
330
1F
100
AcDbEntity
  8
1
  6
SLD-Сплошная
100
AcDbLine
 10
596.8054271659
 20
1212.1578844747
 30
0.0
 11
986.405427166
 21
1212.1578844747
 31
0.0
  0
ELLIPSE
  5
225
330
1F
100
AcDbEntity
  8
1
  6
SLD-Сплошная
100
AcDbEllipse
 10
986.405427166
 20
1209.4578844747
 30
0.0
 11
0.0
 21
2.699999999999818
 31
0.0
210
0.0
220
0.0
230
1.0
 40
0.5248730694
 41
4.712388980384697
 42
6.283185307179586
  0
LINE
  5
226
330
1F
100
AcDbEntity
  8
1
  6
SLD-Сплошная
100
AcDbLine
 10
595.1054271659
 20
1194.2078844747
 30
0.0
 11
595.1054271659
 21
1209.4578844747
 31
0.0
  0
LINE
  5
227
330
1F
100
AcDbEntity
  8
1
  6
SLD-Сплошная
100
AcDbLine
 10
594.1054271659
 20
1194.2078844747
 30
0.0
 11
595.1054271659
 21
1194.2078844747
 31
0.0
  0
LINE
  5
228
330
1F
100
AcDbEntity
  8
1
  6
SLD-Сплошная
100
AcDbLine
 10
594.1054271659
 20
1194.2078844747
 30
0.0
 11
594.1054271659
 21
1209.4578844747
 31
0.0
  0
SPLINE
  5
229
330
1F
100
AcDbEntity
  8
1
  6
SLD-Сплошная
100
AcDbSpline
210
0.0
220
0.0
230
1.0
 70
     8
 71
     3
 72
    11
 73
     7
 74
     0
 42
0.00000001
 43
0.00000001
 40
0.0
 40
0.0
 40
0.0
 40
0.0
 40
0.2499999999999922
 40
0.4999999999999971
 40
0.7499999999999966
 40
1.0
 40
1.0
 40
1.0
 40
1.0
 10
595.155427165928
 20
1193.1578844747
 30
0.0
 10
595.0178382699311
 20
1193.173667626126
 30
0.0
 10
594.7426604779372
 20
1193.205233928979
 30
0.0
 10
594.395588293984
 20
1193.448045602757
 30
0.0
 10
594.1527766202043
 20
1193.795117786709
 30
0.0
 10
594.1212103173508
 20
1194.070295578703
 30
0.0
 10
594.105427165924
 20
1194.2078844747
 30
0.0
  0
SPLINE
  5
22A
330
1F
100
AcDbEntity
  8
1
  6
SLD-Сплошная
100
AcDbSpline
210
0.0
220
0.0
230
1.0
 70
     8
 71
     3
 72
    11
 73
     7
 74
     0
 42
0.00000001
 43
0.00000001
 40
0.0
 40
0.0
 40
0.0
 40
0.0
 40
0.2500000000001111
 40
0.4999999999999709
 40
0.7499999999999887
 40
1.0
 40
1.0
 40
1.0
 40
1.0
 10
595.1554271659242
 20
1194.1578844747
 30
0.0
 10
595.1488753137338
 20
1194.158636053339
 30
0.0
 10
595.1357716093531
 20
1194.160139210618
 30
0.0
 10
595.1192443624982
 20
1194.171701671274
 30
0.0
 10
595.1076819018422
 20
1194.188228918129
 30
0.0
 10
595.1061787445633
 20
1194.20133262251
 30
0.0
 10
595.105427165924
 20
1194.2078844747
 30
0.0
  0
LINE
  5
22B
330
1F
100
AcDbEntity
  8
1
  6
SLD-Сплошная
100
AcDbLine
 10
595.1554271659
 20
1194.1578844747
 30
0.0
 11
595.1554271659
 21
1193.1578844747
 31
0.0
  0
LINE
  5
22C
330
1F
100
AcDbEntity
  8
1
  6
SLD-Сплошная
100
AcDbLine
 10
989.105427166
 20
1194.2078844747
 30
0.0
 11
989.105427166
 21
1209.4578844747
 31
0.0
  0
LINE
  5
22D
330
1F
100
AcDbEntity
  8
1
  6
SLD-Сплошная
100
AcDbLine
 10
989.105427166
 20
1194.2078844747
 30
0.0
 11
988.105427166
 21
1194.2078844747
 31
0.0
  0
LINE
  5
22E
330
1F
100
AcDbEntity
  8
1
  6
SLD-Сплошная
100
AcDbLine
 10
988.105427166
 20
1194.2078844747
 30
0.0
 11
988.105427166
 21
1209.4578844747
 31
0.0
  0
LINE
  5
22F
330
1F
100
AcDbEntity
  8
1
  6
SLD-Сплошная
100
AcDbLine
 10
988.055427166
 20
1194.1578844747
 30
0.0
 11
988.055427166
 21
1193.1578844747
 31
0.0
  0
SPLINE
  5
230
330
1F
100
AcDbEntity
  8
1
  6
SLD-Сплошная
100
AcDbSpline
210
0.0
220
0.0
230
1.0
 70
     8
 71
     3
 72
    11
 73
     7
 74
     0
 42
0.00000001
 43
0.00000001
 40
0.0
 40
0.0
 40
0.0
 40
0.0
 40
0.2500000000000517
 40
0.4999999999999483
 40
0.7499999999998485
 40
1.0
 40
1.0
 40
1.0
 40
1.0
 10
988.1054271659604
 20
1194.2078844747
 30
0.0
 10
988.104675587321
 20
1194.20133262251
 30
0.0
 10
988.1031724300424
 20
1194.188228918129
 30
0.0
 10
988.0916099693861
 20
1194.171701671274
 30
0.0
 10
988.0750827225312
 20
1194.160139210618
 30
0.0
 10
988.0619790181506
 20
1194.158636053339
 30
0.0
 10
988.0554271659603
 20
1194.1578844747
 30
0.0
  0
SPLINE
  5
231
330
1F
100
AcDbEntity
  8
1
  6
SLD-Сплошная
100
AcDbSpline
210
0.0
220
0.0
230
1.0
 70
     8
 71
     3
 72
    11
 73
     7
 74
     0
 42
0.00000001
 43
0.00000001
 40
0.0
 40
0.0
 40
0.0
 40
0.0
 40
0.2499999999999974
 40
0.5000000000000024
 40
0.7499999999999928
 40
1.0
 40
1.0
 40
1.0
 40
1.0
 10
989.1054271659605
 20
1194.2078844747
 30
0.0
 10
989.0896440145337
 20
1194.070295578703
 30
0.0
 10
989.0580777116802
 20
1193.795117786709
 30
0.0
 10
988.8152660379005
 20
1193.448045602757
 30
0.0
 10
988.4681938539472
 20
1193.205233928978
 30
0.0
 10
988.1930160619535
 20
1193.173667626126
 30
0.0
 10
988.0554271659564
 20
1193.1578844747
 30
0.0
  0
ARC
  5
232
330
1F
100
AcDbEntity
  8
1
  6
SLD-Сплошная
100
AcDbCircle
 10
596.8054271659
 20
1209.4578844747
 30
0.0
 40
1.700000000000042
100
AcDbArc
 50
139.5408896253
 51
180.0
  0
ARC
  5
233
330
1F
100
AcDbEntity
  8
1
  6
SLD-Сплошная
100
AcDbCircle
 10
596.8054271659
 20
1209.4578844747
 30
0.0
 40
2.700000000000045
100
AcDbArc
 50
90.0
 51
180.0
  0
ARC
  5
234
330
1F
100
AcDbEntity
  8
1
  6
SLD-Сплошная
100
AcDbCircle
 10
986.405427166
 20
1209.4578844747
 30
0.0
 40
2.700000000000159
100
AcDbArc
 50
0.0
 51
90.0
  0
ARC
  5
235
330
1F
100
AcDbEntity
  8
1
  6
SLD-Сплошная
100
AcDbCircle
 10
986.405427166
 20
1209.4578844747
 30
0.0
 40
1.700000000000159
100
AcDbArc
 50
0.0
 51
40.4591103744
  0
LINE
  5
236
330
1F
100
AcDbEntity
  8
1
  6
SLD-Сплошная
100
AcDbLine
 10
595.3882698785
 20
1194.2078844747
 30
0.0
 11
595.2054271659
 21
1194.2078844747
 31
0.0
  0
LINE
  5
237
330
1F
100
AcDbEntity
  8
1
  6
SLD-Сплошная
100
AcDbLine
 10
595.4382698785
 20
1193.227844044
 30
0.0
 11
595.1554271659
 21
1193.1578844747
 31
0.0
  0
SPLINE
  5
238
330
1F
100
AcDbEntity
  8
1
  6
SLD-Сплошная
100
AcDbSpline
210
0.0
220
0.0
230
1.0
 70
     8
 71
     3
 72
    11
 73
     7
 74
     0
 42
0.00000001
 43
0.00000001
 40
0.0
 40
0.0
 40
0.0
 40
0.0
 40
0.0090245670115558
 40
0.0782108948241903
 40
0.2706367536299105
 40
1.0
 40
1.0
 40
1.0
 40
1.0
 10
595.205427165924
 20
1194.2078844747
 30
0.0
 10
595.2053900166281
 20
1194.206690890965
 30
0.0
 10
595.2050680643767
 20
1194.19634676566
 30
0.0
 10
595.2016874535575
 20
1194.19077780679
 30
0.0
 10
595.187173135902
 20
1194.158123517397
 30
0.0
 10
595.1694503078229
 20
1194.15799006699
 30
0.0
 10
595.1554271659242
 20
1194.1578844747
 30
0.0
  0
LINE
  5
239
330
1F
100
AcDbEntity
  8
1
  6
SLD-Сплошная
100
AcDbLine
 10
987.8225844534
 20
1194.2078844747
 30
0.0
 11
988.005427166
 21
1194.2078844747
 31
0.0
  0
SPLINE
  5
23A
330
1F
100
AcDbEntity
  8
1
  6
SLD-Сплошная
100
AcDbSpline
210
0.0
220
0.0
230
1.0
 70
     8
 71
     3
 72
    12
 73
     8
 74
     0
 42
0.00000001
 43
0.00000001
 40
0.0
 40
0.0
 40
0.0
 40
0.0
 40
0.7293340570177679
 40
0.9217522148776071
 40
0.9750066998646952
 40
0.9909757941549722
 40
1.0
 40
1.0
 40
1.0
 40
1.0
 10
988.0554271659603
 20
1194.1578844747
 30
0.0
 10
988.0415693656154
 20
1194.160605756439
 30
0.0
 10
988.0240555006885
 20
1194.164044986304
 30
0.0
 10
988.0091574794102
 20
1194.186413191218
 30
0.0
 10
988.0062634497655
 20
1194.198459847634
 30
0.0
 10
988.005556787155
 20
1194.203218748273
 30
0.0
 10
988.0054615520303
 20
1194.206646745052
 30
0.0
 10
988.0054271659603
 20
1194.2078844747
 30
0.0
  0
LINE
  5
23B
330
1F
100
AcDbEntity
  8
1
  6
SLD-Сплошная
100
AcDbLine
 10
988.055427166
 20
1193.1578844747
 30
0.0
 11
987.7725844534
 21
1193.227844044
 31
0.0
  0
LINE
  5
23C
330
1F
100
AcDbEntity
  8
1
  6
SLD-Сплошная
100
AcDbLine
 10
595.2054271659
 20
1194.2078844747
 30
0.0
 11
595.2054271659
 21
1209.0478844747
 31
0.0
  0
LINE
  5
23D
330
1F
100
AcDbEntity
  8
1
  6
SLD-Сплошная
100
AcDbLine
 10
595.3882698785
 20
1209.0478844747
 30
0.0
 11
595.2054271659
 21
1209.0478844747
 31
0.0
  0
LINE
  5
23E
330
1F
100
AcDbEntity
  8
1
  6
SLD-Сплошная
100
AcDbLine
 10
987.8225844534
 20
1209.0478844747
 30
0.0
 11
988.005427166
 21
1209.0478844747
 31
0.0
  0
LINE
  5
23F
330
1F
100
AcDbEntity
  8
1
  6
SLD-Сплошная
100
AcDbLine
 10
988.005427166
 20
1194.2078844747
 30
0.0
 11
988.005427166
 21
1209.0478844747
 31
0.0
  0
ARC
  5
240
330
1F
100
AcDbEntity
  8
1
  6
SLD-Сплошная
100
AcDbCircle
 10
597.2154271659
 20
1209.0478844747
 30
0.0
 40
2.009999999999991
100
AcDbArc
 50
153.9069487097
 51
180.0
  0
ARC
  5
241
330
1F
100
AcDbEntity
  8
1
  6
SLD-Сплошная
100
AcDbCircle
 10
985.995427166
 20
1209.0478844747
 30
0.0
 40
2.010000000000105
100
AcDbArc
 50
0.0
 51
26.0930512921
  0
LINE
  5
242
330
1F
100
AcDbEntity
  8
1
  6
SLD-Сплошная
100
AcDbLine
 10
991.9054271659
 20
1064.5578844747
 30
0.0
 11
991.9054271659
 21
1184.0578844747
 31
0.0
  0
LINE
  5
243
330
1F
100
AcDbEntity
  8
1
  6
SLD-Сплошная
100
AcDbLine
 10
989.9054271659
 20
1184.0578844747
 30
0.0
 11
991.9054271659
 21
1184.0578844747
 31
0.0
  0
LINE
  5
244
330
1F
100
AcDbEntity
  8
1
  6
SLD-Сплошная
100
AcDbLine
 10
989.9054271659
 20
1064.5578844747
 30
0.0
 11
991.9054271659
 21
1064.5578844747
 31
0.0
  0
ELLIPSE
  5
245
330
1F
100
AcDbEntity
  8
1
  6
SLD-Сплошная
100
AcDbEllipse
 10
594.476137844
 20
1064.5578844747
 30
0.0
 11
0.0
 21
2.5
 31
0.0
210
0.0
220
0.0
230
1.0
 40
0.6
 41
2.751284095301565
 42
3.141592653589793
  0
LINE
  5
246
330
1F
100
AcDbEntity
  8
1
  6
SLD-Сплошная
100
AcDbLine
 10
593.9054271659
 20
1064.5578844747
 30
0.0
 11
593.9054271659
 21
1062.2459052108
 31
0.0
  0
LINE
  5
247
330
1F
100
AcDbEntity
  8
1
  6
SLD-Сплошная
100
AcDbLine
 10
593.9054271659
 20
1064.5578844747
 30
0.0
 11
595.0054271659
 21
1064.5578844747
 31
0.0
  0
ELLIPSE
  5
248
330
1F
100
AcDbEntity
  8
1
  6
SLD-Сплошная
100
AcDbEllipse
 10
989.3347164878
 20
1064.5578844747
 30
0.0
 11
0.0
 21
2.5
 31
0.0
210
0.0
220
0.0
230
1.0
 40
0.6
 41
3.141592653589793
 42
3.531901211911861
  0
LINE
  5
249
330
1F
100
AcDbEntity
  8
1
  6
SLD-Сплошная
100
AcDbLine
 10
594.476137844
 20
1062.0578844747
 30
0.0
 11
989.3347164878
 21
1062.0578844747
 31
0.0
  0
LINE
  5
24A
330
1F
100
AcDbEntity
  8
1
  6
SLD-Сплошная
100
AcDbLine
 10
989.9054271659
 20
1062.2459052109
 30
0.0
 11
989.9054271659
 21
1064.5578844747
 31
0.0
  0
LINE
  5
24B
330
1F
100
AcDbEntity
  8
1
  6
SLD-Сплошная
100
AcDbLine
 10
593.9054271659
 20
1064.5578844747
 30
0.0
 11
593.0054271659
 21
1064.5578844747
 31
0.0
  0
LINE
  5
24C
330
1F
100
AcDbEntity
  8
1
  6
SLD-Сплошная
100
AcDbLine
 10
593.0054271659
 20
1064.5578844747
 30
0.0
 11
593.0054271659
 21
1184.0578844747
 31
0.0
  0
LINE
  5
24D
330
1F
100
AcDbEntity
  8
1
  6
SLD-Сплошная
100
AcDbLine
 10
593.0054271659
 20
1184.0578844747
 30
0.0
 11
593.9054271659
 21
1184.0578844747
 31
0.0
  0
LINE
  5
24E
330
1F
100
AcDbEntity
  8
1
  6
SLD-Сплошная
100
AcDbLine
 10
989.8347164879
 20
1186.0578844747
 30
0.0
 11
593.9761378441
 21
1186.0578844747
 31
0.0
  0
LINE
  5
24F
330
1F
100
AcDbEntity
  8
1
  6
SLD-Сплошная
100
AcDbLine
 10
989.8347164879
 20
1186.0578844747
 30
0.0
 11
989.9054271659
 21
1184.0578844747
 31
0.0
  0
LINE
  5
250
330
1F
100
AcDbEntity
  8
1
  6
SLD-Сплошная
100
AcDbLine
 10
593.9054271659
 20
1184.0578844747
 30
0.0
 11
595.0054271659
 21
1184.0578844747
 31
0.0
  0
LINE
  5
251
330
1F
100
AcDbEntity
  8
1
  6
SLD-Сплошная
100
AcDbLine
 10
593.9054271659
 20
1184.0578844747
 30
0.0
 11
593.9761378441
 21
1186.0578844747
 31
0.0
  0
LINE
  5
252
330
1F
100
AcDbEntity
  8
1
  6
SLD-Сплошная
100
AcDbLine
 10
591.9054271659
 20
1064.5578844747
 30
0.0
 11
591.9054271659
 21
1184.0578844747
 31
0.0
  0
LINE
  5
253
330
1F
100
AcDbEntity
  8
1
  6
SLD-Сплошная
100
AcDbLine
 10
592.9054271659
 20
1184.0578844747
 30
0.0
 11
591.9054271659
 21
1184.0578844747
 31
0.0
  0
LINE
  5
254
330
1F
100
AcDbEntity
  8
1
  6
SLD-Сплошная
100
AcDbLine
 10
592.9054271659
 20
1064.5578844747
 30
0.0
 11
592.9054271659
 21
1184.0578844747
 31
0.0
  0
LINE
  5
255
330
1F
100
AcDbEntity
  8
1
  6
SLD-Сплошная
100
AcDbLine
 10
593.4542427024
 20
1062.2459052109
 30
0.0
 11
593.8347164878
 21
1063.1706969164
 31
0.0
  0
LINE
  5
256
330
1F
100
AcDbEntity
  8
1
  6
SLD-Сплошная
100
AcDbLine
 10
594.4054271659
 20
1062.0578844747
 30
0.0
 11
594.4054271659
 21
1062.0606637974
 31
0.0
  0
ARC
  5
257
330
1F
100
AcDbEntity
  8
1
  6
SLD-Сплошная
100
AcDbCircle
 10
594.4054271659
 20
1064.5578844747
 30
0.0
 40
2.500000000000094
100
AcDbArc
 50
247.6369669006
 51
270.0
  0
ARC
  5
258
330
1F
100
AcDbEntity
  8
1
  6
SLD-Сплошная
100
AcDbCircle
 10
594.4054271659
 20
1064.5578844747
 30
0.0
 40
1.500000000000114
100
AcDbArc
 50
180.0
 51
247.6369669006
  0
ARC
  5
259
330
1F
100
AcDbEntity
  8
1
  6
SLD-Сплошная
100
AcDbCircle
 10
594.4054271659
 20
1064.5578844747
 30
0.0
 40
2.500000000000094
100
AcDbArc
 50
180.0
 51
247.6369669006
  0
LINE
  5
25A
330
1F
100
AcDbEntity
  8
1
  6
SLD-Сплошная
100
AcDbLine
 10
990.3566116295
 20
1062.2459052109
 30
0.0
 11
989.9761378441
 21
1063.1706969164
 31
0.0
  0
ARC
  5
25B
330
1F
100
AcDbEntity
  8
1
  6
SLD-Сплошная
100
AcDbCircle
 10
989.4054271659
 20
1064.5578844747
 30
0.0
 40
1.500000000000283
100
AcDbArc
 50
292.3630330994
 51
0.0
  0
ARC
  5
25C
330
1F
100
AcDbEntity
  8
1
  6
SLD-Сплошная
100
AcDbCircle
 10
989.4054271659
 20
1064.5578844747
 30
0.0
 40
2.500000000000114
100
AcDbArc
 50
292.3630330994
 51
0.0
  0
LINE
  5
25D
330
1F
100
AcDbEntity
  8
1
  6
SLD-Сплошная
100
AcDbLine
 10
989.4054271659
 20
1062.0578844747
 30
0.0
 11
989.4054271659
 21
1062.0606637974
 31
0.0
  0
ARC
  5
25E
330
1F
100
AcDbEntity
  8
1
  6
SLD-Сплошная
100
AcDbCircle
 10
989.4054271659
 20
1064.5578844747
 30
0.0
 40
2.5
100
AcDbArc
 50
270.0
 51
292.3630330994
  0
LINE
  5
25F
330
1F
100
AcDbEntity
  8
1
  6
SLD-Сплошная
100
AcDbLine
 10
593.9054271659
 20
1185.0578844747
 30
0.0
 11
593.9054271659
 21
1186.0578844747
 31
0.0
  0
ARC
  5
260
330
1F
100
AcDbEntity
  8
1
  6
SLD-Сплошная
100
AcDbCircle
 10
593.9054271659
 20
1184.0578844747
 30
0.0
 40
1.0
100
AcDbArc
 50
90.0
 51
180.0
  0
ARC
  5
261
330
1F
100
AcDbEntity
  8
1
  6
SLD-Сплошная
100
AcDbCircle
 10
593.9054271659
 20
1184.0578844747
 30
0.0
 40
2.0
100
AcDbArc
 50
90.0
 51
180.0
  0
ARC
  5
262
330
1F
100
AcDbEntity
  8
1
  6
SLD-Сплошная
100
AcDbCircle
 10
989.9054271659
 20
1184.0578844747
 30
0.0
 40
2.0
100
AcDbArc
 50
0.0
 51
90.0
  0
ARC
  5
263
330
1F
100
AcDbEntity
  8
1
  6
SLD-Сплошная
100
AcDbCircle
 10
989.9054271659
 20
1184.0578844747
 30
0.0
 40
1.0
100
AcDbArc
 50
0.0
 51
90.0
  0
LINE
  5
264
330
1F
100
AcDbEntity
  8
1
  6
SLD-Сплошная
100
AcDbLine
 10
989.9054271659
 20
1185.0578844747
 30
0.0
 11
989.9054271659
 21
1186.0578844747
 31
0.0
  0
LINE
  5
265
330
1F
100
AcDbEntity
  8
1
  6
SLD-Сплошная
100
AcDbLine
 10
989.9054271659
 20
1186.0578844747
 30
0.0
 11
989.8347164879
 21
1186.0578844747
 31
0.0
  0
LINE
  5
266
330
1F
100
AcDbEntity
  8
1
  6
SLD-Сплошная
100
AcDbLine
 10
989.9054271659
 20
1185.0578844747
 30
0.0
 11
989.8700718269
 21
1185.0578844747
 31
0.0
  0
LINE
  5
267
330
1F
100
AcDbEntity
  8
1
  6
SLD-Сплошная
100
AcDbLine
 10
593.940782505
 20
1185.0578844747
 30
0.0
 11
593.9054271659
 21
1185.0578844747
 31
0.0
  0
LINE
  5
268
330
1F
100
AcDbEntity
  8
1
  6
SLD-Сплошная
100
AcDbLine
 10
593.9761378441
 20
1186.0578844747
 30
0.0
 11
593.9054271659
 21
1186.0578844747
 31
0.0
  0
LINE
  5
269
330
1F
100
AcDbEntity
  8
1
  6
SLD-Сплошная
100
AcDbLine
 10
594.476137844
 20
1062.0578844747
 30
0.0
 11
594.4054271659
 21
1062.0578844747
 31
0.0
  0
LINE
  5
26A
330
1F
100
AcDbEntity
  8
1
  6
SLD-Сплошная
100
AcDbLine
 10
989.4054271659
 20
1062.0578844747
 30
0.0
 11
989.3347164878
 21
1062.0578844747
 31
0.0
  0
ELLIPSE
  5
26B
330
1F
100
AcDbEntity
  8
1
  6
SLD-Сплошная
100
AcDbEllipse
 10
972.8347164879
 20
1187.0578844747
 30
0.0
 11
2.0
 21
0.0
 31
0.0
210
0.0
220
0.0
230
1.0
 40
0.5
 41
3.141592653589793
 42
4.712388980384697
  0
ELLIPSE
  5
26C
330
1F
100
AcDbEntity
  8
1
  6
SLD-Сплошная
100
AcDbEllipse
 10
610.9761378441
 20
1187.0578844747
 30
0.0
 11
2.000000000000114
 21
0.0
 31
0.0
210
0.0
220
0.0
230
1.0
 40
0.5
 41
4.712388980384754
 42
6.283185307179586
  0
ARC
  5
26D
330
1F
100
AcDbEntity
  8
1
  6
SLD-Сплошная
100
AcDbCircle
 10
972.9054271659
 20
1187.0578844747
 30
0.0
 40
1.0
100
AcDbArc
 50
180.0
 51
270.0
  0
ARC
  5
26E
330
1F
100
AcDbEntity
  8
1
  6
SLD-Сплошная
100
AcDbCircle
 10
972.9054271659
 20
1187.0578844747
 30
0.0
 40
2.0
100
AcDbArc
 50
180.0
 51
188.7004774919
  0
ARC
  5
26F
330
1F
100
AcDbEntity
  8
1
  6
SLD-Сплошная
100
AcDbCircle
 10
610.9054271659
 20
1187.0578844747
 30
0.0
 40
1.999999999999886
100
AcDbArc
 50
351.2995225051
 51
0.0
  0
ARC
  5
270
330
1F
100
AcDbEntity
  8
1
  6
SLD-Сплошная
100
AcDbCircle
 10
610.9054271659
 20
1187.0578844747
 30
0.0
 40
1.0
100
AcDbArc
 50
270.0
 51
0.0
  0
LINE
  5
271
330
1F
100
AcDbEntity
  8
1
  6
SLD-Сплошная
100
AcDbLine
 10
970.8347164879
 20
1187.0578844747
 30
0.0
 11
970.8347164879
 21
1193.1578844747
 31
0.0
  0
LINE
  5
272
330
1F
100
AcDbEntity
  8
1
  6
SLD-Сплошная
100
AcDbLine
 10
612.9761378441
 20
1193.1578844747
 30
0.0
 11
612.976137844
 21
1187.0578844747
 31
0.0
  0
LINE
  5
273
330
1F
100
AcDbEntity
  8
1
  6
SLD-Сплошная
100
AcDbLine
 10
971.9054271659
 20
1193.1578844747
 30
0.0
 11
971.9054271659
 21
1187.0578844747
 31
0.0
  0
LINE
  5
274
330
1F
100
AcDbEntity
  8
1
  6
SLD-Сплошная
100
AcDbLine
 10
970.9054271659
 20
1193.1578844747
 30
0.0
 11
970.9054271659
 21
1187.0578844747
 31
0.0
  0
LINE
  5
275
330
1F
100
AcDbEntity
  8
1
  6
SLD-Сплошная
100
AcDbLine
 10
612.9054271659
 20
1187.0578844747
 30
0.0
 11
612.9054271659
 21
1193.1578844747
 31
0.0
  0
LINE
  5
276
330
1F
100
AcDbEntity
  8
1
  6
SLD-Сплошная
100
AcDbLine
 10
611.9054271659
 20
1187.0578844747
 30
0.0
 11
611.9054271659
 21
1193.1578844747
 31
0.0
  0
LINE
  5
277
330
1F
100
AcDbEntity
  8
1
  6
SLD-Сплошная
100
AcDbLine
 10
592.9054271659
 20
1184.0578844747
 30
0.0
 11
593.0054271659
 21
1184.0578844747
 31
0.0
  0
CIRCLE
  5
278
330
1F
100
AcDbEntity
  8
1
  6
SLD-Сплошная
100
AcDbCircle
 10
976.9054271659
 20
1171.0578844747
 30
0.0
 40
8.299999999999955
  0
LINE
  5
279
330
1F
100
AcDbEntity
  8
1
  6
SLD-Сплошная
100
AcDbLine
 10
609.2485434527
 20
1186.0578844747
 30
0.0
 11
609.8334129729
 21
1186.1854565914
 31
0.0
  0
ELLIPSE
  5
27A
330
1F
100
AcDbEntity
  8
1
  6
SLD-Сплошная
100
AcDbEllipse
 10
613.8523464757
 20
1182.5004010016
 30
0.0
 11
-9.167878707749082
 21
0.0
 31
5.115907697472721E-13
210
5.580252379591952E-14
220
7.278730463884115E-14
230
1.0
 40
0.4472135955
 41
4.94626503241456
 42
5.166174585903213
  0
LINE
  5
27B
330
1F
100
AcDbEntity
  8
1
  6
SLD-Сплошная
100
AcDbLine
 10
607.9554271659
 20
1186.6004010016
 30
0.0
 11
611.7946452898
 21
1186.6004010016
 31
0.0
  0
LINE
  5
27C
330
1F
100
AcDbEntity
  8
1
  6
SLD-Сплошная
100
AcDbLine
 10
663.1054271659
 20
1213.1578844747
 30
0.0
 11
635.1054271659
 21
1213.1578844747
 31
0.0
  0
LINE
  5
27D
330
1F
100
AcDbEntity
  8
1
  6
SLD-Сплошная
100
AcDbLine
 10
660.1054271659
 20
1216.1578844747
 30
0.0
 11
638.1054271659
 21
1216.1578844747
 31
0.0
  0
LINE
  5
27E
330
1F
100
AcDbEntity
  8
1
  6
SLD-Сплошная
100
AcDbLine
 10
987.9054271659
 20
1187.0578844747
 30
0.0
 11
987.9054271659
 21
1186.0578844747
 31
0.0
  0
LINE
  5
27F
330
1F
100
AcDbEntity
  8
1
  6
SLD-Сплошная
100
AcDbLine
 10
985.9054271659
 20
1188.0578844747
 30
0.0
 11
986.9054271659
 21
1188.0578844747
 31
0.0
  0
SPLINE
  5
280
330
1F
100
AcDbEntity
  8
1
  6
SLD-Сплошная
100
AcDbSpline
210
0.0
220
0.0
230
1.0
 70
     8
 71
     3
 72
    12
 73
     8
 74
     0
 42
0.00000001
 43
0.00000001
 40
0.0
 40
0.0
 40
0.0
 40
0.0
 40
0.2178231110881961
 40
0.4765675029999286
 40
0.8410160589292622
 40
0.9961871477580964
 40
1.0
 40
1.0
 40
1.0
 40
1.0
 10
986.9054271659389
 20
1188.057884474701
 30
0.0
 10
987.0465637359724
 20
1188.03853128129
 30
0.0
 10
987.3553514602264
 20
1187.996189111936
 30
0.0
 10
987.7131615885868
 20
1187.702041357067
 30
0.0
 10
987.8794118546106
 20
1187.368050862467
 30
0.0
 10
987.9053007594271
 20
1187.131378676076
 30
0.0
 10
987.905424205381
 20
1187.05960577722
 30
0.0
 10
987.9054271659389
 20
1187.057884474701
 30
0.0
  0
LINE
  5
281
330
1F
100
AcDbEntity
  8
1
  6
SLD-Сплошная
100
AcDbLine
 10
975.4054271659
 20
1188.0578844747
 30
0.0
 11
985.9054271659
 21
1188.0578844747
 31
0.0
  0
ARC
  5
282
330
1F
100
AcDbEntity
  8
1
  6
SLD-Сплошная
100
AcDbCircle
 10
975.4054271659
 20
1189.0578844747
 30
0.0
 40
1.0
100
AcDbArc
 50
180.0
 51
270.0
  0
ARC
  5
283
330
1F
100
AcDbEntity
  8
1
  6
SLD-Сплошная
100
AcDbCircle
 10
975.4054271659
 20
1189.0578844747
 30
0.0
 40
3.0
100
AcDbArc
 50
180.0
 51
270.0
  0
LINE
  5
284
330
1F
100
AcDbEntity
  8
1
  6
SLD-Сплошная
100
AcDbLine
 10
972.4054271659
 20
1193.1578844747
 30
0.0
 11
972.4054271659
 21
1189.0578844747
 31
0.0
  0
LINE
  5
285
330
1F
100
AcDbEntity
  8
1
  6
SLD-Сплошная
100
AcDbLine
 10
974.4054271659
 20
1193.1578844747
 30
0.0
 11
974.4054271659
 21
1189.0578844747
 31
0.0
  0
LINE
  5
286
330
1F
100
AcDbEntity
  8
1
  6
SLD-Сплошная
100
AcDbLine
 10
984.1581183594
 20
1188.1578844747
 30
0.0
 11
985.5054271659
 21
1188.1578844747
 31
0.0
  0
LINE
  5
287
330
1F
100
AcDbEntity
  8
1
  6
SLD-Сплошная
100
AcDbLine
 10
976.3054271659
 20
1188.1578844747
 30
0.0
 11
984.1581183594
 21
1188.1578844747
 31
0.0
  0
LINE
  5
288
330
1F
100
AcDbEntity
  8
1
  6
SLD-Сплошная
100
AcDbLine
 10
984.1581183594
 20
1188.5578844747
 30
0.0
 11
985.5054271659
 21
1188.5578844747
 31
0.0
  0
LINE
  5
289
330
1F
100
AcDbEntity
  8
1
  6
SLD-Сплошная
100
AcDbLine
 10
976.3054271659
 20
1188.5578844747
 30
0.0
 11
984.1581183594
 21
1188.5578844747
 31
0.0
  0
ARC
  5
28A
330
1F
100
AcDbEntity
  8
1
  6
SLD-Сплошная
100
AcDbCircle
 10
974.9054271659
 20
1188.5578844747
 30
0.0
 40
2.5
100
AcDbArc
 50
180.0
 51
270.0
  0
LINE
  5
28B
330
1F
100
AcDbEntity
  8
1
  6
SLD-Сплошная
100
AcDbLine
 10
972.4054271659
 20
1189.0578844747
 30
0.0
 11
972.4054271659
 21
1188.5578844747
 31
0.0
  0
ENDSEC
  0
SECTION
  2
OBJECTS
  0
DICTIONARY
  5
C
330
0
100
AcDbDictionary
281
     1
  3
ACAD_GROUP
350
D
  3
ACAD_LAYOUT
350
1A
  3
ACAD_MLINESTYLE
350
17
  3
ACAD_PLOTSETTINGS
350
19
  3
ACAD_PLOTSTYLENAME
350
E
  3
ACAD_SCALELIST
350
47
  3
DWGPROPS
350
28C
  0
DICTIONARY
  5
D
102
{ACAD_REACTORS
330
C
102
}
330
C
100
AcDbDictionary
281
     1
  0
DICTIONARY
  5
1A
102
{ACAD_REACTORS
330
C
102
}
330
C
100
AcDbDictionary
281
     1
  3
Layout1
350
1E
  3
Layout2
350
26
  3
Model
350
22
  0
DICTIONARY
  5
17
102
{ACAD_REACTORS
330
C
102
}
330
C
100
AcDbDictionary
281
     1
  3
Standard
350
18
  0
DICTIONARY
  5
19
102
{ACAD_REACTORS
330
C
102
}
330
C
100
AcDbDictionary
281
     1
  0
ACDBDICTIONARYWDFLT
  5
E
102
{ACAD_REACTORS
330
C
102
}
330
C
100
AcDbDictionary
281
     1
  3
Normal
350
F
100
AcDbDictionaryWithDefault
340
F
  0
DICTIONARY
  5
47
102
{ACAD_REACTORS
330
C
102
}
330
C
100
AcDbDictionary
281
     1
  3
A0
350
48
  3
A1
350
49
  3
A2
350
4A
  3
A3
350
4B
  3
A4
350
4C
  3
A5
350
4D
  3
A6
350
4E
  3
A7
350
4F
  3
A8
350
50
  3
A9
350
51
  3
B0
350
52
  3
B1
350
53
  3
B2
350
54
  3
B3
350
55
  3
B4
350
56
  3
B5
350
57
  3
B6
350
58
  0
XRECORD
  5
28C
102
{ACAD_REACTORS
330
C
102
}
330
C
100
AcDbXrecord
280
     1
  1
DWGPROPS COOKIE
  2

  3

  4

  6

  7

  8
ignatieved
  9

300
=
301
=
302
=
303
=
304
=
305
=
306
=
307
=
308
=
309
=
 40
0.0
 41
2460213.499611748
 42
2460213.499612164
  1

 90
        0
  0
LAYOUT
  5
1E
102
{ACAD_REACTORS
330
1A
102
}
330
1A
100
AcDbPlotSettings
  1

  2
none_device
  4

  6

 40
0.0
 41
0.0
 42
0.0
 43
0.0
 44
0.0
 45
0.0
 46
0.0
 47
0.0
 48
0.0
 49
0.0
140
0.0
141
0.0
142
1.0
143
1.0
 70
   688
 72
     1
 73
     0
 74
     5
  7

 75
    16
147
1.0
148
0.0
149
0.0
100
AcDbLayout
  1
Layout1
 70
     1
 71
     1
 10
0.0
 20
0.0
 11
420.0
 21
297.0
 12
0.0
 22
0.0
 32
0.0
 14
1.0000000000E+20
 24
1.0000000000E+20
 34
1.0000000000E+20
 15
-1.0000000000E+20
 25
-1.0000000000E+20
 35
-1.0000000000E+20
146
0.0
 13
0.0
 23
0.0
 33
0.0
 16
1.0
 26
0.0
 36
0.0
 17
0.0
 27
1.0
 37
0.0
 76
     0
330
1B
  0
LAYOUT
  5
26
102
{ACAD_REACTORS
330
1A
102
}
330
1A
100
AcDbPlotSettings
  1

  2
none_device
  4

  6

 40
0.0
 41
0.0
 42
0.0
 43
0.0
 44
0.0
 45
0.0
 46
0.0
 47
0.0
 48
0.0
 49
0.0
140
0.0
141
0.0
142
1.0
143
1.0
 70
   688
 72
     1
 73
     0
 74
     5
  7

 75
    16
147
1.0
148
0.0
149
0.0
100
AcDbLayout
  1
Layout2
 70
     1
 71
     2
 10
0.0
 20
0.0
 11
0.0
 21
0.0
 12
0.0
 22
0.0
 32
0.0
 14
0.0
 24
0.0
 34
0.0
 15
0.0
 25
0.0
 35
0.0
146
0.0
 13
0.0
 23
0.0
 33
0.0
 16
1.0
 26
0.0
 36
0.0
 17
0.0
 27
1.0
 37
0.0
 76
     0
330
23
  0
LAYOUT
  5
22
102
{ACAD_REACTORS
330
1A
102
}
330
1A
100
AcDbPlotSettings
  1

  2
none_device
  4
Letter_(8.50_x_11.00_Inches)
  6

 40
6.35
 41
6.35
 42
6.35000508
 43
6.35000508
 44
215.9
 45
279.4
 46
0.0
 47
0.0
 48
0.0
 49
0.0
140
0.0
141
0.0
142
1.0
143
1.0
 70
  1712
 72
     1
 73
     0
 74
     0
  7

 75
     0
147
1.0
148
0.0
149
0.0
100
AcDbLayout
  1
Model
 70
     1
 71
     0
 10
0.0
 20
0.0
 11
2000.0
 21
2000.0
 12
0.0
 22
0.0
 32
0.0
 14
0.0
 24
0.0
 34
0.0
 15
2000.0
 25
2000.0
 35
0.0
146
0.0
 13
0.0
 23
0.0
 33
0.0
 16
1.0
 26
0.0
 36
0.0
 17
0.0
 27
1.0
 37
0.0
 76
     0
330
1F
331
29
  0
MLINESTYLE
  5
18
102
{ACAD_REACTORS
330
17
102
}
330
17
100
AcDbMlineStyle
  2
Standard
 70
     0
  3

 62
   256
 51
90.0
 52
90.0
 71
     2
 49
0.5
 62
   256
  6
BYLAYER
 49
-0.5
 62
   256
  6
BYLAYER
  0
ACDBPLACEHOLDER
  5
F
102
{ACAD_REACTORS
330
E
102
}
330
E
  0
SCALE
  5
48
102
{ACAD_REACTORS
330
47
102
}
330
47
100
AcDbScale
 70
     0
300
1:1
140
1.0
141
1.0
290
     1
  0
SCALE
  5
49
102
{ACAD_REACTORS
330
47
102
}
330
47
100
AcDbScale
 70
     0
300
1:2
140
1.0
141
2.0
290
     0
  0
SCALE
  5
4A
102
{ACAD_REACTORS
330
47
102
}
330
47
100
AcDbScale
 70
     0
300
1:4
140
1.0
141
4.0
290
     0
  0
SCALE
  5
4B
102
{ACAD_REACTORS
330
47
102
}
330
47
100
AcDbScale
 70
     0
300
1:5
140
1.0
141
5.0
290
     0
  0
SCALE
  5
4C
102
{ACAD_REACTORS
330
47
102
}
330
47
100
AcDbScale
 70
     0
300
1:8
140
1.0
141
8.0
290
     0
  0
SCALE
  5
4D
102
{ACAD_REACTORS
330
47
102
}
330
47
100
AcDbScale
 70
     0
300
1:10
140
1.0
141
10.0
290
     0
  0
SCALE
  5
4E
102
{ACAD_REACTORS
330
47
102
}
330
47
100
AcDbScale
 70
     0
300
1:16
140
1.0
141
16.0
290
     0
  0
SCALE
  5
4F
102
{ACAD_REACTORS
330
47
102
}
330
47
100
AcDbScale
 70
     0
300
1:20
140
1.0
141
20.0
290
     0
  0
SCALE
  5
50
102
{ACAD_REACTORS
330
47
102
}
330
47
100
AcDbScale
 70
     0
300
1:30
140
1.0
141
30.0
290
     0
  0
SCALE
  5
51
102
{ACAD_REACTORS
330
47
102
}
330
47
100
AcDbScale
 70
     0
300
1:40
140
1.0
141
40.0
290
     0
  0
SCALE
  5
52
102
{ACAD_REACTORS
330
47
102
}
330
47
100
AcDbScale
 70
     0
300
1:50
140
1.0
141
50.0
290
     0
  0
SCALE
  5
53
102
{ACAD_REACTORS
330
47
102
}
330
47
100
AcDbScale
 70
     0
300
1:100
140
1.0
141
100.0
290
     0
  0
SCALE
  5
54
102
{ACAD_REACTORS
330
47
102
}
330
47
100
AcDbScale
 70
     0
300
2:1
140
2.0
141
1.0
290
     0
  0
SCALE
  5
55
102
{ACAD_REACTORS
330
47
102
}
330
47
100
AcDbScale
 70
     0
300
4:1
140
4.0
141
1.0
290
     0
  0
SCALE
  5
56
102
{ACAD_REACTORS
330
47
102
}
330
47
100
AcDbScale
 70
     0
300
8:1
140
8.0
141
1.0
290
     0
  0
SCALE
  5
57
102
{ACAD_REACTORS
330
47
102
}
330
47
100
AcDbScale
 70
     0
300
10:1
140
10.0
141
1.0
290
     0
  0
SCALE
  5
58
102
{ACAD_REACTORS
330
47
102
}
330
47
100
AcDbScale
 70
     0
300
100:1
140
100.0
141
1.0
290
     0
  0
ENDSEC
  0
EOF
