  0
SECTION
  2
HEADER
  9
$ACADVER
  1
AC1015
  9
$ACADMAINTVER
 70
     6
  9
$DWGCODEPAGE
  3
ANSI_1251
  9
$INSBASE
 10
0.0
 20
0.0
 30
0.0
  9
$EXTMIN
 10
0.0
 20
0.0
 30
0.0
  9
$EXTMAX
 10
4000.0
 20
3300.0
 30
0.0
  9
$LIMMIN
 10
0.0
 20
0.0
  9
$LIMMAX
 10
4000.0
 20
3300.0
  9
$ORTHOMODE
 70
     0
  9
$REGENMODE
 70
     1
  9
$FILLMODE
 70
     1
  9
$QTEXTMODE
 70
     0
  9
$MIRRTEXT
 70
     1
  9
$LTSCALE
 40
1.0
  9
$ATTMODE
 70
     1
  9
$TEXTSIZE
 40
3.5
  9
$TRACEWID
 40
1.0
  9
$TEXTSTYLE
  7
Standard
  9
$CLAYER
  8
0
  9
$CELTYPE
  6
ByLayer
  9
$CECOLOR
 62
   256
  9
$CELTSCALE
 40
1.0
  9
$DISPSILH
 70
     0
  9
$DIMSCALE
 40
1.0
  9
$DIMASZ
 40
3.302
  9
$DIMEXO
 40
0.0
  9
$DIMDLI
 40
3.75
  9
$DIMRND
 40
0.0
  9
$DIMDLE
 40
0.0
  9
$DIMEXE
 40
1.0
  9
$DIMTP
 40
0.0
  9
$DIMTM
 40
0.0
  9
$DIMTXT
 40
3.5
  9
$DIMCEN
 40
2.5
  9
$DIMTSZ
 40
0.0
  9
$DIMTOL
 70
     0
  9
$DIMLIM
 70
     0
  9
$DIMTIH
 70
     1
  9
$DIMTOH
 70
     1
  9
$DIMSE1
 70
     0
  9
$DIMSE2
 70
     0
  9
$DIMTAD
 70
     1
  9
$DIMZIN
 70
     0
  9
$DIMBLK
  1

  9
$DIMASO
 70
     1
  9
$DIMSHO
 70
     1
  9
$DIMPOST
  1

  9
$DIMAPOST
  1

  9
$DIMALT
 70
     0
  9
$DIMALTD
 70
     3
  9
$DIMALTF
 40
0.0393700787
  9
$DIMLFAC
 40
1.0
  9
$DIMTOFL
 70
     1
  9
$DIMTVP
 40
0.0
  9
$DIMTIX
 70
     0
  9
$DIMSOXD
 70
     0
  9
$DIMSAH
 70
     0
  9
$DIMBLK1
  1

  9
$DIMBLK2
  1

  9
$DIMSTYLE
  2
ISO-25
  9
$DIMCLRD
 70
     0
  9
$DIMCLRE
 70
     0
  9
$DIMCLRT
 70
     0
  9
$DIMTFAC
 40
1.0
  9
$DIMGAP
 40
1.524
  9
$DIMJUST
 70
     0
  9
$DIMSD1
 70
     0
  9
$DIMSD2
 70
     0
  9
$DIMTOLJ
 70
     0
  9
$DIMTZIN
 70
     0
  9
$DIMALTZ
 70
     0
  9
$DIMALTTZ
 70
     0
  9
$DIMUPT
 70
     0
  9
$DIMDEC
 70
     2
  9
$DIMTDEC
 70
     2
  9
$DIMALTU
 70
     2
  9
$DIMALTTD
 70
     3
  9
$DIMTXSTY
  7
Standard
  9
$DIMAUNIT
 70
     0
  9
$DIMADEC
 70
     2
  9
$DIMALTRND
 40
0.0
  9
$DIMAZIN
 70
     0
  9
$DIMDSEP
 70
    44
  9
$DIMATFIT
 70
     3
  9
$DIMFRAC
 70
     0
  9
$DIMLDRBLK
  1

  9
$DIMLUNIT
 70
     2
  9
$DIMLWD
 70
    -2
  9
$DIMLWE
 70
    -2
  9
$DIMTMOVE
 70
     0
  9
$LUNITS
 70
     2
  9
$LUPREC
 70
     1
  9
$SKETCHINC
 40
1.0
  9
$FILLETRAD
 40
10.0
  9
$AUNITS
 70
     1
  9
$AUPREC
 70
     2
  9
$MENU
  1
.
  9
$ELEVATION
 40
0.0
  9
$PELEVATION
 40
0.0
  9
$THICKNESS
 40
0.0
  9
$LIMCHECK
 70
     0
  9
$CHAMFERA
 40
0.0
  9
$CHAMFERB
 40
0.0
  9
$CHAMFERC
 40
0.0
  9
$CHAMFERD
 40
0.0
  9
$SKPOLY
 70
     0
  9
$TDCREATE
 40
2459492.747640718
  9
$TDUCREATE
 40
2459492.622640718
  9
$TDUPDATE
 40
2459492.747642338
  9
$TDUUPDATE
 40
2459492.622642338
  9
$TDINDWG
 40
0.0000000116
  9
$TDUSRTIMER
 40
0.0000000116
  9
$USRTIMER
 70
     1
  9
$ANGBASE
 50
0.0
  9
$ANGDIR
 70
     0
  9
$PDMODE
 70
     0
  9
$PDSIZE
 40
-1.0
  9
$PLINEWID
 40
0.0
  9
$SPLFRAME
 70
     0
  9
$SPLINETYPE
 70
     6
  9
$SPLINESEGS
 70
     8
  9
$HANDSEED
  5
246
  9
$SURFTAB1
 70
     6
  9
$SURFTAB2
 70
     6
  9
$SURFTYPE
 70
     6
  9
$SURFU
 70
     6
  9
$SURFV
 70
     6
  9
$UCSBASE
  2

  9
$UCSNAME
  2

  9
$UCSORG
 10
0.0
 20
0.0
 30
0.0
  9
$UCSXDIR
 10
1.0
 20
0.0
 30
0.0
  9
$UCSYDIR
 10
0.0
 20
1.0
 30
0.0
  9
$UCSORTHOREF
  2

  9
$UCSORTHOVIEW
 70
     0
  9
$UCSORGTOP
 10
0.0
 20
0.0
 30
0.0
  9
$UCSORGBOTTOM
 10
0.0
 20
0.0
 30
0.0
  9
$UCSORGLEFT
 10
0.0
 20
0.0
 30
0.0
  9
$UCSORGRIGHT
 10
0.0
 20
0.0
 30
0.0
  9
$UCSORGFRONT
 10
0.0
 20
0.0
 30
0.0
  9
$UCSORGBACK
 10
0.0
 20
0.0
 30
0.0
  9
$PUCSBASE
  2

  9
$PUCSNAME
  2

  9
$PUCSORG
 10
0.0
 20
0.0
 30
0.0
  9
$PUCSXDIR
 10
1.0
 20
0.0
 30
0.0
  9
$PUCSYDIR
 10
0.0
 20
1.0
 30
0.0
  9
$PUCSORTHOREF
  2

  9
$PUCSORTHOVIEW
 70
     0
  9
$PUCSORGTOP
 10
0.0
 20
0.0
 30
0.0
  9
$PUCSORGBOTTOM
 10
0.0
 20
0.0
 30
0.0
  9
$PUCSORGLEFT
 10
0.0
 20
0.0
 30
0.0
  9
$PUCSORGRIGHT
 10
0.0
 20
0.0
 30
0.0
  9
$PUCSORGFRONT
 10
0.0
 20
0.0
 30
0.0
  9
$PUCSORGBACK
 10
0.0
 20
0.0
 30
0.0
  9
$USERI1
 70
     0
  9
$USERI2
 70
     0
  9
$USERI3
 70
     0
  9
$USERI4
 70
     0
  9
$USERI5
 70
     0
  9
$USERR1
 40
0.0
  9
$USERR2
 40
0.0
  9
$USERR3
 40
0.0
  9
$USERR4
 40
0.0
  9
$USERR5
 40
0.0
  9
$WORLDVIEW
 70
     1
  9
$SHADEDGE
 70
     3
  9
$SHADEDIF
 70
    70
  9
$TILEMODE
 70
     1
  9
$MAXACTVP
 70
    64
  9
$PINSBASE
 10
0.0
 20
0.0
 30
0.0
  9
$PLIMCHECK
 70
     0
  9
$PEXTMIN
 10
1.0000000000E+20
 20
1.0000000000E+20
 30
1.0000000000E+20
  9
$PEXTMAX
 10
-1.0000000000E+20
 20
-1.0000000000E+20
 30
-1.0000000000E+20
  9
$PLIMMIN
 10
0.0
 20
0.0
  9
$PLIMMAX
 10
420.0
 20
297.0
  9
$UNITMODE
 70
     0
  9
$VISRETAIN
 70
     1
  9
$PLINEGEN
 70
     0
  9
$PSLTSCALE
 70
     1
  9
$TREEDEPTH
 70
  3020
  9
$CMLSTYLE
  2
Standard
  9
$CMLJUST
 70
     0
  9
$CMLSCALE
 40
20.0
  9
$PROXYGRAPHICS
 70
     1
  9
$MEASUREMENT
 70
     1
  9
$CELWEIGHT
370
    -1
  9
$ENDCAPS
280
     0
  9
$JOINSTYLE
280
     0
  9
$LWDISPLAY
290
     1
  9
$INSUNITS
 70
     4
  9
$HYPERLINKBASE
  1

  9
$STYLESHEET
  1

  9
$XEDIT
290
     1
  9
$CEPSNTYPE
380
     0
  9
$PSTYLEMODE
290
     1
  9
$FINGERPRINTGUID
  2
{6B3506D7-687C-4E80-91DC-D89BF031E662}
  9
$VERSIONGUID
  2
{FAEB1C32-E019-11D5-929B-00C0DF256EC4}
  9
$EXTNAMES
290
     1
  9
$PSVPSCALE
 40
0.0
  9
$OLESTARTUP
290
     0
  0
ENDSEC
  0
SECTION
  2
CLASSES
  0
CLASS
  1
ACDBDICTIONARYWDFLT
  2
AcDbDictionaryWithDefault
  3
ObjectDBX Classes
 90
        0
280
     0
281
     0
  0
CLASS
  1
VISUALSTYLE
  2
AcDbVisualStyle
  3
ObjectDBX Classes
 90
     4095
280
     0
281
     0
  0
CLASS
  1
MATERIAL
  2
AcDbMaterial
  3
ObjectDBX Classes
 90
     1153
280
     0
281
     0
  0
CLASS
  1
SCALE
  2
AcDbScale
  3
ObjectDBX Classes
 90
     1153
280
     0
281
     0
  0
CLASS
  1
TABLESTYLE
  2
AcDbTableStyle
  3
ObjectDBX Classes
 90
     4095
280
     0
281
     0
  0
CLASS
  1
MLEADERSTYLE
  2
AcDbMLeaderStyle
  3
ACDB_MLEADERSTYLE_CLASS
 90
     4095
280
     0
281
     0
  0
CLASS
  1
SUN
  2
AcDbSun
  3
SCENEOE
 90
     1153
280
     0
281
     0
  0
CLASS
  1
ACDBPLACEHOLDER
  2
AcDbPlaceHolder
  3
ObjectDBX Classes
 90
        0
280
     0
281
     0
  0
CLASS
  1
LAYOUT
  2
AcDbLayout
  3
ObjectDBX Classes
 90
        0
280
     0
281
     0
  0
ENDSEC
  0
SECTION
  2
TABLES
  0
TABLE
  2
VPORT
  5
8
330
0
100
AcDbSymbolTable
 70
     1
  0
VPORT
  5
29
330
8
100
AcDbSymbolTableRecord
100
AcDbViewportTableRecord
  2
*Active
 70
     0
 10
0.0
 20
0.0
 11
1.0
 21
1.0
 12
2000.0
 22
1650.0
 13
0.0
 23
0.0
 14
10.0
 24
10.0
 15
10.0
 25
10.0
 16
0.0
 26
0.0
 36
1.0
 17
0.0
 27
0.0
 37
0.0
 40
3300.0
 41
1.2121212121
 42
50.0
 43
0.0
 44
0.0
 50
0.0
 51
0.0
 71
     0
 72
  2000
 73
     1
 74
     3
 75
     0
 76
     0
 77
     0
 78
     0
281
     0
 65
     1
110
0.0
120
0.0
130
0.0
111
1.0
121
0.0
131
0.0
112
0.0
122
1.0
132
0.0
 79
     0
146
0.0
  0
ENDTAB
  0
TABLE
  2
LTYPE
  5
5
330
0
100
AcDbSymbolTable
 70
     6
  0
LTYPE
  5
14
330
5
100
AcDbSymbolTableRecord
100
AcDbLinetypeTableRecord
  2
ByBlock
 70
     0
  3

 72
    65
 73
     0
 40
0.0
  0
LTYPE
  5
15
330
5
100
AcDbSymbolTableRecord
100
AcDbLinetypeTableRecord
  2
ByLayer
 70
     0
  3

 72
    65
 73
     0
 40
0.0
  0
LTYPE
  5
16
330
5
100
AcDbSymbolTableRecord
100
AcDbLinetypeTableRecord
  2
Continuous
 70
     0
  3
Solid line
 72
    65
 73
     0
 40
0.0
  0
LTYPE
  5
6E
330
5
100
AcDbSymbolTableRecord
100
AcDbLinetypeTableRecord
  2
HIDDEN
 70
     0
  3
Hidden __ __ __ __ __ __ __ __ __ __ __ __ __ __
 72
    65
 73
     2
 40
1.905
 49
1.27
 74
     0
 49
-0.635
 74
     0
  0
LTYPE
  5
6F
330
5
100
AcDbSymbolTableRecord
100
AcDbLinetypeTableRecord
  2
PHANTOM
 70
     0
  3
Phantom ______  __  __  ______  __  __  ______
 72
    65
 73
     6
 40
12.7
 49
6.35
 74
     0
 49
-1.27
 74
     0
 49
1.27
 74
     0
 49
-1.27
 74
     0
 49
1.27
 74
     0
 49
-1.27
 74
     0
  0
LTYPE
  5
70
330
5
100
AcDbSymbolTableRecord
100
AcDbLinetypeTableRecord
  2
CENTER
 70
     0
  3
Center ____ _ ____ _ ____ _ ____ _ ____ _ ____
 72
    65
 73
     4
 40
10.16
 49
6.35
 74
     0
 49
-1.27
 74
     0
 49
1.27
 74
     0
 49
-1.27
 74
     0
  0
LTYPE
  5
71
330
5
100
AcDbSymbolTableRecord
100
AcDbLinetypeTableRecord
  2
CENTERX2
 70
     0
  3
Center (2x) ________  __  ________  __  _____
 72
    65
 73
     4
 40
20.32
 49
12.7
 74
     0
 49
-2.54
 74
     0
 49
2.54
 74
     0
 49
-2.54
 74
     0
  0
LTYPE
  5
72
330
5
100
AcDbSymbolTableRecord
100
AcDbLinetypeTableRecord
  2
DOT2
 70
     0
  3
Dot (.5x) ........................................
 72
    65
 73
     2
 40
0.635
 49
0.0
 74
     0
 49
-0.635
 74
     0
  0
ENDTAB
  0
TABLE
  2
LAYER
  5
2
330
0
100
AcDbSymbolTable
 70
    11
  0
LAYER
  5
10
330
2
100
AcDbSymbolTableRecord
100
AcDbLayerTableRecord
  2
0
 70
     0
 62
     7
  6
Continuous
370
    -3
390
F
  0
LAYER
  5
73
330
2
100
AcDbSymbolTableRecord
100
AcDbLayerTableRecord
  2
SLD-0
 70
     0
 62
     7
  6
Continuous
370
    25
390
F
  0
LAYER
  5
74
330
2
100
AcDbSymbolTableRecord
100
AcDbLayerTableRecord
  2
OSNOVA
 70
     0
 62
     5
  6
Continuous
370
    -3
390
F
  0
LAYER
  5
75
330
2
100
AcDbSymbolTableRecord
100
AcDbLayerTableRecord
  2
HIDE
 70
     0
 62
    -1
  6
Continuous
290
     0
370
    -3
390
F
  0
LAYER
  5
76
330
2
100
AcDbSymbolTableRecord
100
AcDbLayerTableRecord
  2
THIN_LINE
 70
     0
 62
     7
  6
Continuous
370
    25
390
F
  0
LAYER
  5
77
330
2
100
AcDbSymbolTableRecord
100
AcDbLayerTableRecord
  2
THICK_LINE
 70
     0
 62
     7
  6
Continuous
370
    25
390
F
  0
LAYER
  5
78
330
2
100
AcDbSymbolTableRecord
100
AcDbLayerTableRecord
  2
ПОДЧЕРКТИПОРАЗМЕР
 70
     0
 62
    -7
  6
Continuous
290
     0
370
    -3
390
F
  0
LAYER
  5
79
330
2
100
AcDbSymbolTableRecord
100
AcDbLayerTableRecord
  2
THIN_LIONE
 70
     0
 62
     7
  6
Continuous
370
    -3
390
F
  0
LAYER
  5
7A
330
2
100
AcDbSymbolTableRecord
100
AcDbLayerTableRecord
  2
THICK_LIONE
 70
     0
 62
     7
  6
Continuous
370
    25
390
F
  0
LAYER
  5
7B
330
2
100
AcDbSymbolTableRecord
100
AcDbLayerTableRecord
  2
ПОДЧЕРКТИПАРАЗМЕР
 70
     0
 62
    -7
  6
Continuous
290
     0
370
    -3
390
F
  0
LAYER
  5
7C
330
2
100
AcDbSymbolTableRecord
100
AcDbLayerTableRecord
  2
ИЗМЕН_РАЗМЕР
 70
     0
 62
     1
  6
Continuous
370
    -3
390
F
  0
ENDTAB
  0
TABLE
  2
STYLE
  5
3
330
0
100
AcDbSymbolTable
 70
     1
  0
STYLE
  5
11
330
3
100
AcDbSymbolTableRecord
100
AcDbTextStyleTableRecord
  2
Standard
 70
     0
 40
0.0
 41
1.0
 50
0.0
 71
     0
 42
3.5
  3
txt
  4

  0
ENDTAB
  0
TABLE
  2
VIEW
  5
6
330
0
100
AcDbSymbolTable
 70
     0
  0
ENDTAB
  0
TABLE
  2
UCS
  5
7
330
0
100
AcDbSymbolTable
 70
     0
  0
ENDTAB
  0
TABLE
  2
APPID
  5
9
330
0
100
AcDbSymbolTable
 70
     1
  0
APPID
  5
12
330
9
100
AcDbSymbolTableRecord
100
AcDbRegAppTableRecord
  2
ACAD
 70
     0
  0
ENDTAB
  0
TABLE
  2
DIMSTYLE
  5
A
330
0
100
AcDbSymbolTable
 70
     1
100
AcDbDimStyleTable
  0
DIMSTYLE
105
27
330
A
100
AcDbSymbolTableRecord
100
AcDbDimStyleTableRecord
  2
ISO-25
 70
     0
 41
2.5
 42
0.625
 43
3.75
 44
1.25
 73
     0
 74
     0
 77
     1
 78
     8
140
2.5
141
2.5
143
0.0393700787
147
0.625
171
     3
172
     1
178
     0
271
     2
272
     2
274
     3
278
    44
283
     0
284
     8
340
11
  0
ENDTAB
  0
TABLE
  2
BLOCK_RECORD
  5
1
330
0
100
AcDbSymbolTable
 70
     1
  0
BLOCK_RECORD
  5
1F
330
1
100
AcDbSymbolTableRecord
100
AcDbBlockTableRecord
  2
*Model_Space
340
22
  0
BLOCK_RECORD
  5
1B
330
1
100
AcDbSymbolTableRecord
100
AcDbBlockTableRecord
  2
*Paper_Space
340
1E
  0
BLOCK_RECORD
  5
23
330
1
100
AcDbSymbolTableRecord
100
AcDbBlockTableRecord
  2
*Paper_Space0
340
26
  0
ENDTAB
  0
ENDSEC
  0
SECTION
  2
BLOCKS
  0
BLOCK
  5
20
330
1F
100
AcDbEntity
  8
0
100
AcDbBlockBegin
  2
*Model_Space
 70
     0
 10
0.0
 20
0.0
 30
0.0
  3
*Model_Space
  1

  0
ENDBLK
  5
21
330
1F
100
AcDbEntity
  8
0
100
AcDbBlockEnd
  0
BLOCK
  5
1C
330
1B
100
AcDbEntity
 67
     1
  8
0
100
AcDbBlockBegin
  2
*Paper_Space
 70
     0
 10
0.0
 20
0.0
 30
0.0
  3
*Paper_Space
  1

  0
ENDBLK
  5
1D
330
1B
100
AcDbEntity
 67
     1
  8
0
100
AcDbBlockEnd
  0
BLOCK
  5
24
330
23
100
AcDbEntity
  8
0
100
AcDbBlockBegin
  2
*Paper_Space0
 70
     0
 10
0.0
 20
0.0
 30
0.0
  3
*Paper_Space0
  1

  0
ENDBLK
  5
25
330
23
100
AcDbEntity
  8
0
100
AcDbBlockEnd
  0
ENDSEC
  0
SECTION
  2
ENTITIES
  0
LINE
  5
7D
330
1F
100
AcDbEntity
  8
0
  6
Continuous
 62
     7
370
    25
100
AcDbLine
 10
109.3759275917
 20
2058.378709553
 30
0.0
 11
109.3759275917
 21
2059.5444786984
 31
0.0
  0
LINE
  5
7E
330
1F
100
AcDbEntity
  8
0
  6
Continuous
 62
     7
370
    25
100
AcDbLine
 10
3109.3759275917
 20
2059.5444786984
 30
0.0
 11
109.3759275917
 21
2059.5444786984
 31
0.0
  0
LINE
  5
7F
330
1F
100
AcDbEntity
  8
0
  6
Continuous
 62
     7
370
    25
100
AcDbLine
 10
3109.3759275917
 20
2058.378709553
 30
0.0
 11
3109.3759275917
 21
2059.5444786984
 31
0.0
  0
LINE
  5
80
330
1F
100
AcDbEntity
  8
0
  6
Continuous
 62
     7
370
    25
100
AcDbLine
 10
3109.3759275917
 20
2058.378709553
 30
0.0
 11
3109.3759275917
 21
1995.878709553
 31
0.0
  0
LINE
  5
81
330
1F
100
AcDbEntity
  8
0
  6
Continuous
 62
     7
370
    25
100
AcDbLine
 10
3109.3759275917
 20
1993.378709553
 30
0.0
 11
3109.3759275917
 21
1995.878709553
 31
0.0
  0
LINE
  5
82
330
1F
100
AcDbEntity
  8
0
  6
Continuous
 62
     7
370
    25
100
AcDbLine
 10
3109.3759275917
 20
1993.378709553
 30
0.0
 11
109.3759275917
 21
1993.378709553
 31
0.0
  0
LINE
  5
83
330
1F
100
AcDbEntity
  8
0
  6
Continuous
 62
     7
370
    25
100
AcDbLine
 10
109.3759275917
 20
1993.378709553
 30
0.0
 11
109.3759275917
 21
1995.878709553
 31
0.0
  0
LINE
  5
84
330
1F
100
AcDbEntity
  8
0
  6
Continuous
 62
     7
370
    25
100
AcDbLine
 10
109.3759275917
 20
2058.378709553
 30
0.0
 11
109.3759275917
 21
1995.878709553
 31
0.0
  0
ARC
  5
85
330
1F
100
AcDbEntity
  8
0
  6
Continuous
 62
     7
370
    25
100
AcDbCircle
 10
193.3759275917
 20
2011.378709553
 30
0.0
 40
3.5
100
AcDbArc
 50
270.0
 51
90.0
  0
LINE
  5
86
330
1F
100
AcDbEntity
  8
0
  6
Continuous
 62
     7
370
    25
100
AcDbLine
 10
193.3759275917
 20
2014.878709553
 30
0.0
 11
175.3759275917
 21
2014.878709553
 31
0.0
  0
ARC
  5
87
330
1F
100
AcDbEntity
  8
0
  6
Continuous
 62
     7
370
    25
100
AcDbCircle
 10
175.3759275917
 20
2011.378709553
 30
0.0
 40
3.5
100
AcDbArc
 50
90.0
 51
270.0
  0
LINE
  5
88
330
1F
100
AcDbEntity
  8
0
  6
Continuous
 62
     7
370
    25
100
AcDbLine
 10
175.3759275917
 20
2007.878709553
 30
0.0
 11
193.3759275917
 21
2007.878709553
 31
0.0
  0
ARC
  5
89
330
1F
100
AcDbEntity
  8
0
  6
Continuous
 62
     7
370
    25
100
AcDbCircle
 10
3075.3759275917
 20
2011.378709553
 30
0.0
 40
3.5
100
AcDbArc
 50
90.0
 51
270.0
  0
LINE
  5
8A
330
1F
100
AcDbEntity
  8
0
  6
Continuous
 62
     7
370
    25
100
AcDbLine
 10
3075.3759275917
 20
2007.878709553
 30
0.0
 11
3093.3759275917
 21
2007.878709553
 31
0.0
  0
ARC
  5
8B
330
1F
100
AcDbEntity
  8
0
  6
Continuous
 62
     7
370
    25
100
AcDbCircle
 10
3093.3759275917
 20
2011.378709553
 30
0.0
 40
3.5
100
AcDbArc
 50
270.0
 51
90.0
  0
LINE
  5
8C
330
1F
100
AcDbEntity
  8
0
  6
Continuous
 62
     7
370
    25
100
AcDbLine
 10
3093.3759275917
 20
2014.878709553
 30
0.0
 11
3075.3759275917
 21
2014.878709553
 31
0.0
  0
ARC
  5
8D
330
1F
100
AcDbEntity
  8
0
  6
Continuous
 62
     7
370
    25
100
AcDbCircle
 10
3025.3759275917
 20
2011.378709553
 30
0.0
 40
3.5
100
AcDbArc
 50
90.0
 51
270.0
  0
LINE
  5
8E
330
1F
100
AcDbEntity
  8
0
  6
Continuous
 62
     7
370
    25
100
AcDbLine
 10
3025.3759275917
 20
2007.878709553
 30
0.0
 11
3043.3759275917
 21
2007.878709553
 31
0.0
  0
ARC
  5
8F
330
1F
100
AcDbEntity
  8
0
  6
Continuous
 62
     7
370
    25
100
AcDbCircle
 10
3043.3759275917
 20
2011.378709553
 30
0.0
 40
3.5
100
AcDbArc
 50
270.0
 51
90.0
  0
LINE
  5
90
330
1F
100
AcDbEntity
  8
0
  6
Continuous
 62
     7
370
    25
100
AcDbLine
 10
3043.3759275917
 20
2014.878709553
 30
0.0
 11
3025.3759275917
 21
2014.878709553
 31
0.0
  0
ARC
  5
91
330
1F
100
AcDbEntity
  8
0
  6
Continuous
 62
     7
370
    25
100
AcDbCircle
 10
143.3759275917
 20
2011.378709553
 30
0.0
 40
3.5
100
AcDbArc
 50
270.0
 51
90.0
  0
LINE
  5
92
330
1F
100
AcDbEntity
  8
0
  6
Continuous
 62
     7
370
    25
100
AcDbLine
 10
143.3759275917
 20
2014.878709553
 30
0.0
 11
125.3759275917
 21
2014.878709553
 31
0.0
  0
ARC
  5
93
330
1F
100
AcDbEntity
  8
0
  6
Continuous
 62
     7
370
    25
100
AcDbCircle
 10
125.3759275917
 20
2011.378709553
 30
0.0
 40
3.5
100
AcDbArc
 50
90.0
 51
270.0
  0
LINE
  5
94
330
1F
100
AcDbEntity
  8
0
  6
Continuous
 62
     7
370
    25
100
AcDbLine
 10
125.3759275917
 20
2007.878709553
 30
0.0
 11
143.3759275917
 21
2007.878709553
 31
0.0
  0
LINE
  5
95
330
1F
100
AcDbEntity
  8
0
  6
Continuous
 62
     7
370
    25
100
AcDbLine
 10
3043.3759275917
 20
2039.878709553
 30
0.0
 11
3025.3759275917
 21
2039.878709553
 31
0.0
  0
ARC
  5
96
330
1F
100
AcDbEntity
  8
0
  6
Continuous
 62
     7
370
    25
100
AcDbCircle
 10
143.3759275917
 20
2036.378709553
 30
0.0
 40
3.5
100
AcDbArc
 50
270.0
 51
90.0
  0
LINE
  5
97
330
1F
100
AcDbEntity
  8
0
  6
Continuous
 62
     7
370
    25
100
AcDbLine
 10
143.3759275917
 20
2039.878709553
 30
0.0
 11
125.3759275917
 21
2039.878709553
 31
0.0
  0
ARC
  5
98
330
1F
100
AcDbEntity
  8
0
  6
Continuous
 62
     7
370
    25
100
AcDbCircle
 10
125.3759275917
 20
2036.378709553
 30
0.0
 40
3.5
100
AcDbArc
 50
90.0
 51
270.0
  0
LINE
  5
99
330
1F
100
AcDbEntity
  8
0
  6
Continuous
 62
     7
370
    25
100
AcDbLine
 10
125.3759275917
 20
2032.878709553
 30
0.0
 11
143.3759275917
 21
2032.878709553
 31
0.0
  0
ARC
  5
9A
330
1F
100
AcDbEntity
  8
0
  6
Continuous
 62
     7
370
    25
100
AcDbCircle
 10
3025.3759275917
 20
2036.378709553
 30
0.0
 40
3.5
100
AcDbArc
 50
90.0
 51
270.0
  0
LINE
  5
9B
330
1F
100
AcDbEntity
  8
0
  6
Continuous
 62
     7
370
    25
100
AcDbLine
 10
3025.3759275917
 20
2032.878709553
 30
0.0
 11
3043.3759275917
 21
2032.878709553
 31
0.0
  0
ARC
  5
9C
330
1F
100
AcDbEntity
  8
0
  6
Continuous
 62
     7
370
    25
100
AcDbCircle
 10
3043.3759275917
 20
2036.378709553
 30
0.0
 40
3.5
100
AcDbArc
 50
270.0
 51
90.0
  0
LINE
  5
9D
330
1F
100
AcDbEntity
  8
0
  6
Continuous
 62
     7
370
    25
100
AcDbLine
 10
3093.3759275917
 20
2039.878709553
 30
0.0
 11
3075.3759275917
 21
2039.878709553
 31
0.0
  0
ARC
  5
9E
330
1F
100
AcDbEntity
  8
0
  6
Continuous
 62
     7
370
    25
100
AcDbCircle
 10
3075.3759275917
 20
2036.378709553
 30
0.0
 40
3.5
100
AcDbArc
 50
90.0
 51
270.0
  0
LINE
  5
9F
330
1F
100
AcDbEntity
  8
0
  6
Continuous
 62
     7
370
    25
100
AcDbLine
 10
3075.3759275917
 20
2032.878709553
 30
0.0
 11
3093.3759275917
 21
2032.878709553
 31
0.0
  0
ARC
  5
A0
330
1F
100
AcDbEntity
  8
0
  6
Continuous
 62
     7
370
    25
100
AcDbCircle
 10
3093.3759275917
 20
2036.378709553
 30
0.0
 40
3.5
100
AcDbArc
 50
270.0
 51
90.0
  0
LINE
  5
A1
330
1F
100
AcDbEntity
  8
0
  6
Continuous
 62
     7
370
    25
100
AcDbLine
 10
175.3759275917
 20
2032.878709553
 30
0.0
 11
193.3759275917
 21
2032.878709553
 31
0.0
  0
ARC
  5
A2
330
1F
100
AcDbEntity
  8
0
  6
Continuous
 62
     7
370
    25
100
AcDbCircle
 10
193.3759275917
 20
2036.378709553
 30
0.0
 40
3.5
100
AcDbArc
 50
270.0
 51
90.0
  0
LINE
  5
A3
330
1F
100
AcDbEntity
  8
0
  6
Continuous
 62
     7
370
    25
100
AcDbLine
 10
193.3759275917
 20
2039.878709553
 30
0.0
 11
175.3759275917
 21
2039.878709553
 31
0.0
  0
ARC
  5
A4
330
1F
100
AcDbEntity
  8
0
  6
Continuous
 62
     7
370
    25
100
AcDbCircle
 10
175.3759275917
 20
2036.378709553
 30
0.0
 40
3.5
100
AcDbArc
 50
90.0
 51
270.0
  0
LINE
  5
A5
330
1F
100
AcDbEntity
  8
0
  6
Continuous
 62
     7
370
    25
100
AcDbLine
 10
3109.3759275917
 20
2060.2938206608
 30
0.0
 11
3109.3759275917
 21
2063.5546756435
 31
0.0
  0
LINE
  5
A6
330
1F
100
AcDbEntity
  8
0
  6
Continuous
 62
     7
370
    25
100
AcDbLine
 10
3109.3759275917
 20
2059.5444786984
 30
0.0
 11
3109.3759275917
 21
2060.2938206608
 31
0.0
  0
LINE
  5
A7
330
1F
100
AcDbEntity
  8
0
  6
Continuous
 62
     7
370
    25
100
AcDbLine
 10
109.3759275917
 20
2063.5546756435
 30
0.0
 11
109.3759275917
 21
2060.2938206608
 31
0.0
  0
LINE
  5
A8
330
1F
100
AcDbEntity
  8
0
  6
Continuous
 62
     7
370
    25
100
AcDbLine
 10
109.3759275917
 20
2063.5546756435
 30
0.0
 11
3109.3759275917
 21
2063.5546756435
 31
0.0
  0
LINE
  5
A9
330
1F
100
AcDbEntity
  8
0
  6
Continuous
 62
     7
370
    25
100
AcDbLine
 10
109.3759275917
 20
2059.5444786984
 30
0.0
 11
109.3759275917
 21
2060.2938206608
 31
0.0
  0
LINE
  5
AA
330
1F
100
AcDbEntity
  8
0
  6
Continuous
 62
     7
370
    25
100
AcDbLine
 10
109.3759275917
 20
2068.6543878319
 30
0.0
 11
3109.3759275917
 21
2068.6543878319
 31
0.0
  0
LINE
  5
AB
330
1F
100
AcDbEntity
  8
0
  6
Continuous
 62
     7
370
    25
100
AcDbLine
 10
3109.3759275917
 20
2068.6543878319
 30
0.0
 11
3109.3759275917
 21
2063.5546756435
 31
0.0
  0
LINE
  5
AC
330
1F
100
AcDbEntity
  8
0
  6
Continuous
 62
     7
370
    25
100
AcDbLine
 10
109.3759275917
 20
2068.6543878319
 30
0.0
 11
109.3759275917
 21
2063.5546756435
 31
0.0
  0
LINE
  5
AD
330
1F
100
AcDbEntity
  8
0
  6
Continuous
 62
     7
370
    25
100
AcDbLine
 10
3109.3759275917
 20
2073.3450172112
 30
0.0
 11
109.3759275917
 21
2073.3450172112
 31
0.0
  0
LINE
  5
AE
330
1F
100
AcDbEntity
  8
0
  6
Continuous
 62
     7
370
    25
100
AcDbLine
 10
3109.3759275917
 20
2068.6543878319
 30
0.0
 11
3109.3759275917
 21
2073.3450172112
 31
0.0
  0
LINE
  5
AF
330
1F
100
AcDbEntity
  8
0
  6
Continuous
 62
     7
370
    25
100
AcDbLine
 10
109.3759275917
 20
2073.3450172112
 30
0.0
 11
109.3759275917
 21
2068.6543878319
 31
0.0
  0
LINE
  5
B0
330
1F
100
AcDbEntity
  8
0
  6
Continuous
 62
     7
370
    25
100
AcDbLine
 10
109.3759275917
 20
2978.9033568925
 30
0.0
 11
109.3759275917
 21
2981.4033568925
 31
0.0
  0
LINE
  5
B1
330
1F
100
AcDbEntity
  8
0
  6
Continuous
 62
     7
370
    25
100
AcDbLine
 10
3109.3759275917
 20
2981.4033568925
 30
0.0
 11
109.3759275917
 21
2981.4033568925
 31
0.0
  0
LINE
  5
B2
330
1F
100
AcDbEntity
  8
0
  6
Continuous
 62
     7
370
    25
100
AcDbLine
 10
3109.3759275917
 20
2978.9033568925
 30
0.0
 11
3109.3759275917
 21
2981.4033568925
 31
0.0
  0
LINE
  5
B3
330
1F
100
AcDbEntity
  8
0
  6
Continuous
 62
     7
370
    25
100
AcDbLine
 10
3109.3759275917
 20
2978.9033568925
 30
0.0
 11
3109.3759275917
 21
2383.9033568925
 31
0.0
  0
LINE
  5
B4
330
1F
100
AcDbEntity
  8
0
  6
Continuous
 62
     7
370
    25
100
AcDbLine
 10
3109.3759275917
 20
2381.4033568925
 30
0.0
 11
109.3759275917
 21
2381.4033568925
 31
0.0
  0
LINE
  5
B5
330
1F
100
AcDbEntity
  8
0
  6
Continuous
 62
     7
370
    25
100
AcDbLine
 10
109.3759275917
 20
2381.4033568925
 30
0.0
 11
109.3759275917
 21
2383.9033568925
 31
0.0
  0
LINE
  5
B6
330
1F
100
AcDbEntity
  8
0
  6
Continuous
 62
     7
370
    25
100
AcDbLine
 10
109.3759275917
 20
2978.9033568925
 30
0.0
 11
109.3759275917
 21
2383.9033568925
 31
0.0
  0
ARC
  5
B7
330
1F
100
AcDbEntity
  8
0
  6
Continuous
 62
     7
370
    25
100
AcDbCircle
 10
3088.3759275917
 20
2685.4033568925
 30
0.0
 40
1.0
100
AcDbArc
 50
90.0
 51
180.0
  0
LINE
  5
B8
330
1F
100
AcDbEntity
  8
0
  6
Continuous
 62
     7
370
    25
100
AcDbLine
 10
3087.3759275917
 20
2677.4033568925
 30
0.0
 11
3087.3759275917
 21
2685.4033568925
 31
0.0
  0
ARC
  5
B9
330
1F
100
AcDbEntity
  8
0
  6
Continuous
 62
     7
370
    25
100
AcDbCircle
 10
3088.3759275917
 20
2677.4033568925
 30
0.0
 40
1.0
100
AcDbArc
 50
180.0
 51
270.0
  0
LINE
  5
BA
330
1F
100
AcDbEntity
  8
0
  6
Continuous
 62
     7
370
    25
100
AcDbLine
 10
3093.3759275917
 20
2676.4033568925
 30
0.0
 11
3088.3759275917
 21
2676.4033568925
 31
0.0
  0
ARC
  5
BB
330
1F
100
AcDbEntity
  8
0
  6
Continuous
 62
     7
370
    25
100
AcDbCircle
 10
3093.3759275917
 20
2677.4033568925
 30
0.0
 40
1.0
100
AcDbArc
 50
270.0
 51
0.0
  0
LINE
  5
BC
330
1F
100
AcDbEntity
  8
0
  6
Continuous
 62
     7
370
    25
100
AcDbLine
 10
3094.3759275917
 20
2685.4033568925
 30
0.0
 11
3094.3759275917
 21
2677.4033568925
 31
0.0
  0
ARC
  5
BD
330
1F
100
AcDbEntity
  8
0
  6
Continuous
 62
     7
370
    25
100
AcDbCircle
 10
3093.3759275917
 20
2685.4033568925
 30
0.0
 40
1.0
100
AcDbArc
 50
0.0
 51
90.0
  0
LINE
  5
BE
330
1F
100
AcDbEntity
  8
0
  6
Continuous
 62
     7
370
    25
100
AcDbLine
 10
3088.3759275917
 20
2686.4033568925
 30
0.0
 11
3093.3759275917
 21
2686.4033568925
 31
0.0
  0
ARC
  5
BF
330
1F
100
AcDbEntity
  8
0
  6
Continuous
 62
     7
370
    25
100
AcDbCircle
 10
125.3759275917
 20
2685.4033568925
 30
0.0
 40
1.0
100
AcDbArc
 50
90.0
 51
180.0
  0
LINE
  5
C0
330
1F
100
AcDbEntity
  8
0
  6
Continuous
 62
     7
370
    25
100
AcDbLine
 10
124.3759275917
 20
2677.4033568925
 30
0.0
 11
124.3759275917
 21
2685.4033568925
 31
0.0
  0
ARC
  5
C1
330
1F
100
AcDbEntity
  8
0
  6
Continuous
 62
     7
370
    25
100
AcDbCircle
 10
125.3759275917
 20
2677.4033568925
 30
0.0
 40
1.0
100
AcDbArc
 50
180.0
 51
270.0
  0
LINE
  5
C2
330
1F
100
AcDbEntity
  8
0
  6
Continuous
 62
     7
370
    25
100
AcDbLine
 10
130.3759275917
 20
2676.4033568925
 30
0.0
 11
125.3759275917
 21
2676.4033568925
 31
0.0
  0
ARC
  5
C3
330
1F
100
AcDbEntity
  8
0
  6
Continuous
 62
     7
370
    25
100
AcDbCircle
 10
130.3759275917
 20
2677.4033568925
 30
0.0
 40
1.0
100
AcDbArc
 50
270.0
 51
0.0
  0
LINE
  5
C4
330
1F
100
AcDbEntity
  8
0
  6
Continuous
 62
     7
370
    25
100
AcDbLine
 10
131.3759275917
 20
2685.4033568925
 30
0.0
 11
131.3759275917
 21
2677.4033568925
 31
0.0
  0
ARC
  5
C5
330
1F
100
AcDbEntity
  8
0
  6
Continuous
 62
     7
370
    25
100
AcDbCircle
 10
130.3759275917
 20
2685.4033568925
 30
0.0
 40
1.0
100
AcDbArc
 50
0.0
 51
90.0
  0
LINE
  5
C6
330
1F
100
AcDbEntity
  8
0
  6
Continuous
 62
     7
370
    25
100
AcDbLine
 10
125.3759275917
 20
2686.4033568925
 30
0.0
 11
130.3759275917
 21
2686.4033568925
 31
0.0
  0
ARC
  5
C7
330
1F
100
AcDbEntity
  8
0
  6
Continuous
 62
     7
370
    25
100
AcDbCircle
 10
143.3759275917
 20
2393.9033568925
 30
0.0
 40
3.500000000000455
100
AcDbArc
 50
270.0
 51
90.0
  0
LINE
  5
C8
330
1F
100
AcDbEntity
  8
0
  6
Continuous
 62
     7
370
    25
100
AcDbLine
 10
125.3759275917
 20
2397.4033568925
 30
0.0
 11
143.3759275917
 21
2397.4033568925
 31
0.0
  0
ARC
  5
C9
330
1F
100
AcDbEntity
  8
0
  6
Continuous
 62
     7
370
    25
100
AcDbCircle
 10
125.3759275917
 20
2393.9033568925
 30
0.0
 40
3.500000000000455
100
AcDbArc
 50
90.0
 51
270.0
  0
LINE
  5
CA
330
1F
100
AcDbEntity
  8
0
  6
Continuous
 62
     7
370
    25
100
AcDbLine
 10
143.3759275917
 20
2390.4033568925
 30
0.0
 11
125.3759275917
 21
2390.4033568925
 31
0.0
  0
ARC
  5
CB
330
1F
100
AcDbEntity
  8
0
  6
Continuous
 62
     7
370
    25
100
AcDbCircle
 10
3075.3759275917
 20
2968.9033568925
 30
0.0
 40
3.5
100
AcDbArc
 50
90.0
 51
270.0
  0
LINE
  5
CC
330
1F
100
AcDbEntity
  8
0
  6
Continuous
 62
     7
370
    25
100
AcDbLine
 10
3093.3759275917
 20
2965.4033568925
 30
0.0
 11
3075.3759275917
 21
2965.4033568925
 31
0.0
  0
ARC
  5
CD
330
1F
100
AcDbEntity
  8
0
  6
Continuous
 62
     7
370
    25
100
AcDbCircle
 10
3093.3759275917
 20
2968.9033568925
 30
0.0
 40
3.5
100
AcDbArc
 50
270.0
 51
90.0
  0
LINE
  5
CE
330
1F
100
AcDbEntity
  8
0
  6
Continuous
 62
     7
370
    25
100
AcDbLine
 10
3075.3759275917
 20
2972.4033568925
 30
0.0
 11
3093.3759275917
 21
2972.4033568925
 31
0.0
  0
ARC
  5
CF
330
1F
100
AcDbEntity
  8
0
  6
Continuous
 62
     7
370
    25
100
AcDbCircle
 10
3025.3759275917
 20
2968.9033568925
 30
0.0
 40
3.500000000000455
100
AcDbArc
 50
90.0
 51
270.0
  0
LINE
  5
D0
330
1F
100
AcDbEntity
  8
0
  6
Continuous
 62
     7
370
    25
100
AcDbLine
 10
3043.3759275917
 20
2965.4033568925
 30
0.0
 11
3025.3759275917
 21
2965.4033568925
 31
0.0
  0
ARC
  5
D1
330
1F
100
AcDbEntity
  8
0
  6
Continuous
 62
     7
370
    25
100
AcDbCircle
 10
3043.3759275917
 20
2968.9033568925
 30
0.0
 40
3.500000000000455
100
AcDbArc
 50
270.0
 51
90.0
  0
LINE
  5
D2
330
1F
100
AcDbEntity
  8
0
  6
Continuous
 62
     7
370
    25
100
AcDbLine
 10
3025.3759275917
 20
2972.4033568925
 30
0.0
 11
3043.3759275917
 21
2972.4033568925
 31
0.0
  0
ARC
  5
D3
330
1F
100
AcDbEntity
  8
0
  6
Continuous
 62
     7
370
    25
100
AcDbCircle
 10
3025.3759275917
 20
2393.9033568925
 30
0.0
 40
3.500000000000455
100
AcDbArc
 50
90.0
 51
270.0
  0
LINE
  5
D4
330
1F
100
AcDbEntity
  8
0
  6
Continuous
 62
     7
370
    25
100
AcDbLine
 10
3043.3759275917
 20
2390.4033568925
 30
0.0
 11
3025.3759275917
 21
2390.4033568925
 31
0.0
  0
ARC
  5
D5
330
1F
100
AcDbEntity
  8
0
  6
Continuous
 62
     7
370
    25
100
AcDbCircle
 10
3043.3759275917
 20
2393.9033568925
 30
0.0
 40
3.500000000000455
100
AcDbArc
 50
270.0
 51
90.0
  0
LINE
  5
D6
330
1F
100
AcDbEntity
  8
0
  6
Continuous
 62
     7
370
    25
100
AcDbLine
 10
3025.3759275917
 20
2397.4033568925
 30
0.0
 11
3043.3759275917
 21
2397.4033568925
 31
0.0
  0
ARC
  5
D7
330
1F
100
AcDbEntity
  8
0
  6
Continuous
 62
     7
370
    25
100
AcDbCircle
 10
193.3759275917
 20
2393.9033568925
 30
0.0
 40
3.500000000000455
100
AcDbArc
 50
270.0
 51
90.0
  0
LINE
  5
D8
330
1F
100
AcDbEntity
  8
0
  6
Continuous
 62
     7
370
    25
100
AcDbLine
 10
175.3759275917
 20
2397.4033568925
 30
0.0
 11
193.3759275917
 21
2397.4033568925
 31
0.0
  0
ARC
  5
D9
330
1F
100
AcDbEntity
  8
0
  6
Continuous
 62
     7
370
    25
100
AcDbCircle
 10
175.3759275917
 20
2393.9033568925
 30
0.0
 40
3.500000000000455
100
AcDbArc
 50
90.0
 51
270.0
  0
LINE
  5
DA
330
1F
100
AcDbEntity
  8
0
  6
Continuous
 62
     7
370
    25
100
AcDbLine
 10
193.3759275917
 20
2390.4033568925
 30
0.0
 11
175.3759275917
 21
2390.4033568925
 31
0.0
  0
ARC
  5
DB
330
1F
100
AcDbEntity
  8
0
  6
Continuous
 62
     7
370
    25
100
AcDbCircle
 10
143.3759275917
 20
2968.9033568925
 30
0.0
 40
3.5
100
AcDbArc
 50
270.0
 51
90.0
  0
LINE
  5
DC
330
1F
100
AcDbEntity
  8
0
  6
Continuous
 62
     7
370
    25
100
AcDbLine
 10
125.3759275917
 20
2972.4033568925
 30
0.0
 11
143.3759275917
 21
2972.4033568925
 31
0.0
  0
ARC
  5
DD
330
1F
100
AcDbEntity
  8
0
  6
Continuous
 62
     7
370
    25
100
AcDbCircle
 10
125.3759275917
 20
2968.9033568925
 30
0.0
 40
3.5
100
AcDbArc
 50
90.0
 51
270.0
  0
LINE
  5
DE
330
1F
100
AcDbEntity
  8
0
  6
Continuous
 62
     7
370
    25
100
AcDbLine
 10
143.3759275917
 20
2965.4033568925
 30
0.0
 11
125.3759275917
 21
2965.4033568925
 31
0.0
  0
ARC
  5
DF
330
1F
100
AcDbEntity
  8
0
  6
Continuous
 62
     7
370
    25
100
AcDbCircle
 10
193.3759275917
 20
2968.9033568925
 30
0.0
 40
3.500000000000455
100
AcDbArc
 50
270.0
 51
90.0
  0
LINE
  5
E0
330
1F
100
AcDbEntity
  8
0
  6
Continuous
 62
     7
370
    25
100
AcDbLine
 10
175.3759275917
 20
2972.4033568925
 30
0.0
 11
193.3759275917
 21
2972.4033568925
 31
0.0
  0
ARC
  5
E1
330
1F
100
AcDbEntity
  8
0
  6
Continuous
 62
     7
370
    25
100
AcDbCircle
 10
175.3759275917
 20
2968.9033568925
 30
0.0
 40
3.500000000000455
100
AcDbArc
 50
90.0
 51
270.0
  0
LINE
  5
E2
330
1F
100
AcDbEntity
  8
0
  6
Continuous
 62
     7
370
    25
100
AcDbLine
 10
193.3759275917
 20
2965.4033568925
 30
0.0
 11
175.3759275917
 21
2965.4033568925
 31
0.0
  0
ARC
  5
E3
330
1F
100
AcDbEntity
  8
0
  6
Continuous
 62
     7
370
    25
100
AcDbCircle
 10
3075.3759275917
 20
2393.9033568925
 30
0.0
 40
3.500000000000455
100
AcDbArc
 50
90.0
 51
270.0
  0
LINE
  5
E4
330
1F
100
AcDbEntity
  8
0
  6
Continuous
 62
     7
370
    25
100
AcDbLine
 10
3093.3759275917
 20
2390.4033568925
 30
0.0
 11
3075.3759275917
 21
2390.4033568925
 31
0.0
  0
ARC
  5
E5
330
1F
100
AcDbEntity
  8
0
  6
Continuous
 62
     7
370
    25
100
AcDbCircle
 10
3093.3759275917
 20
2393.9033568925
 30
0.0
 40
3.500000000000455
100
AcDbArc
 50
270.0
 51
90.0
  0
LINE
  5
E6
330
1F
100
AcDbEntity
  8
0
  6
Continuous
 62
     7
370
    25
100
AcDbLine
 10
3075.3759275917
 20
2397.4033568925
 30
0.0
 11
3093.3759275917
 21
2397.4033568925
 31
0.0
  0
LINE
  5
E7
330
1F
100
AcDbEntity
  8
0
  6
Continuous
 62
     7
370
    25
100
AcDbLine
 10
3094.3759275917
 20
2485.4033568925
 30
0.0
 11
3094.3759275917
 21
2477.4033568925
 31
0.0
  0
ARC
  5
E8
330
1F
100
AcDbEntity
  8
0
  6
Continuous
 62
     7
370
    25
100
AcDbCircle
 10
3093.3759275917
 20
2485.4033568925
 30
0.0
 40
0.9999999999995453
100
AcDbArc
 50
0.0
 51
90.0
  0
LINE
  5
E9
330
1F
100
AcDbEntity
  8
0
  6
Continuous
 62
     7
370
    25
100
AcDbLine
 10
3088.3759275917
 20
2486.4033568925
 30
0.0
 11
3093.3759275917
 21
2486.4033568925
 31
0.0
  0
ARC
  5
EA
330
1F
100
AcDbEntity
  8
0
  6
Continuous
 62
     7
370
    25
100
AcDbCircle
 10
3088.3759275917
 20
2485.4033568925
 30
0.0
 40
1.0
100
AcDbArc
 50
90.0
 51
180.0
  0
LINE
  5
EB
330
1F
100
AcDbEntity
  8
0
  6
Continuous
 62
     7
370
    25
100
AcDbLine
 10
3087.3759275917
 20
2477.4033568925
 30
0.0
 11
3087.3759275917
 21
2485.4033568925
 31
0.0
  0
ARC
  5
EC
330
1F
100
AcDbEntity
  8
0
  6
Continuous
 62
     7
370
    25
100
AcDbCircle
 10
3088.3759275917
 20
2477.4033568925
 30
0.0
 40
1.000000000000455
100
AcDbArc
 50
180.0
 51
270.0
  0
LINE
  5
ED
330
1F
100
AcDbEntity
  8
0
  6
Continuous
 62
     7
370
    25
100
AcDbLine
 10
3093.3759275917
 20
2476.4033568925
 30
0.0
 11
3088.3759275917
 21
2476.4033568925
 31
0.0
  0
ARC
  5
EE
330
1F
100
AcDbEntity
  8
0
  6
Continuous
 62
     7
370
    25
100
AcDbCircle
 10
3093.3759275917
 20
2477.4033568925
 30
0.0
 40
1.000000000000455
100
AcDbArc
 50
270.0
 51
0.0
  0
LINE
  5
EF
330
1F
100
AcDbEntity
  8
0
  6
Continuous
 62
     7
370
    25
100
AcDbLine
 10
3094.3759275917
 20
2885.4033568925
 30
0.0
 11
3094.3759275917
 21
2877.4033568925
 31
0.0
  0
ARC
  5
F0
330
1F
100
AcDbEntity
  8
0
  6
Continuous
 62
     7
370
    25
100
AcDbCircle
 10
3093.3759275917
 20
2885.4033568925
 30
0.0
 40
1.0
100
AcDbArc
 50
0.0
 51
90.0
  0
LINE
  5
F1
330
1F
100
AcDbEntity
  8
0
  6
Continuous
 62
     7
370
    25
100
AcDbLine
 10
3088.3759275917
 20
2886.4033568925
 30
0.0
 11
3093.3759275917
 21
2886.4033568925
 31
0.0
  0
ARC
  5
F2
330
1F
100
AcDbEntity
  8
0
  6
Continuous
 62
     7
370
    25
100
AcDbCircle
 10
3088.3759275917
 20
2885.4033568925
 30
0.0
 40
1.0
100
AcDbArc
 50
90.0
 51
180.0
  0
LINE
  5
F3
330
1F
100
AcDbEntity
  8
0
  6
Continuous
 62
     7
370
    25
100
AcDbLine
 10
3087.3759275917
 20
2877.4033568925
 30
0.0
 11
3087.3759275917
 21
2885.4033568925
 31
0.0
  0
ARC
  5
F4
330
1F
100
AcDbEntity
  8
0
  6
Continuous
 62
     7
370
    25
100
AcDbCircle
 10
3088.3759275917
 20
2877.4033568925
 30
0.0
 40
1.0
100
AcDbArc
 50
180.0
 51
270.0
  0
LINE
  5
F5
330
1F
100
AcDbEntity
  8
0
  6
Continuous
 62
     7
370
    25
100
AcDbLine
 10
3093.3759275917
 20
2876.4033568925
 30
0.0
 11
3088.3759275917
 21
2876.4033568925
 31
0.0
  0
ARC
  5
F6
330
1F
100
AcDbEntity
  8
0
  6
Continuous
 62
     7
370
    25
100
AcDbCircle
 10
3093.3759275917
 20
2877.4033568925
 30
0.0
 40
0.9999999999995453
100
AcDbArc
 50
270.0
 51
0.0
  0
LINE
  5
F7
330
1F
100
AcDbEntity
  8
0
  6
Continuous
 62
     7
370
    25
100
AcDbLine
 10
131.3759275917
 20
2485.4033568925
 30
0.0
 11
131.3759275917
 21
2477.4033568925
 31
0.0
  0
ARC
  5
F8
330
1F
100
AcDbEntity
  8
0
  6
Continuous
 62
     7
370
    25
100
AcDbCircle
 10
130.3759275917
 20
2485.4033568925
 30
0.0
 40
0.9999999999998863
100
AcDbArc
 50
0.0
 51
90.0
  0
LINE
  5
F9
330
1F
100
AcDbEntity
  8
0
  6
Continuous
 62
     7
370
    25
100
AcDbLine
 10
125.3759275917
 20
2486.4033568925
 30
0.0
 11
130.3759275917
 21
2486.4033568925
 31
0.0
  0
ARC
  5
FA
330
1F
100
AcDbEntity
  8
0
  6
Continuous
 62
     7
370
    25
100
AcDbCircle
 10
125.3759275917
 20
2485.4033568925
 30
0.0
 40
0.9999999999998863
100
AcDbArc
 50
90.0
 51
180.0
  0
LINE
  5
FB
330
1F
100
AcDbEntity
  8
0
  6
Continuous
 62
     7
370
    25
100
AcDbLine
 10
124.3759275917
 20
2477.4033568925
 30
0.0
 11
124.3759275917
 21
2485.4033568925
 31
0.0
  0
ARC
  5
FC
330
1F
100
AcDbEntity
  8
0
  6
Continuous
 62
     7
370
    25
100
AcDbCircle
 10
125.3759275917
 20
2477.4033568925
 30
0.0
 40
1.0
100
AcDbArc
 50
180.0
 51
270.0
  0
LINE
  5
FD
330
1F
100
AcDbEntity
  8
0
  6
Continuous
 62
     7
370
    25
100
AcDbLine
 10
130.3759275917
 20
2476.4033568925
 30
0.0
 11
125.3759275917
 21
2476.4033568925
 31
0.0
  0
ARC
  5
FE
330
1F
100
AcDbEntity
  8
0
  6
Continuous
 62
     7
370
    25
100
AcDbCircle
 10
130.3759275917
 20
2477.4033568925
 30
0.0
 40
1.000000000000455
100
AcDbArc
 50
270.0
 51
0.0
  0
LINE
  5
FF
330
1F
100
AcDbEntity
  8
0
  6
Continuous
 62
     7
370
    25
100
AcDbLine
 10
131.3759275917
 20
2885.4033568925
 30
0.0
 11
131.3759275917
 21
2877.4033568925
 31
0.0
  0
ARC
  5
100
330
1F
100
AcDbEntity
  8
0
  6
Continuous
 62
     7
370
    25
100
AcDbCircle
 10
130.3759275917
 20
2885.4033568925
 30
0.0
 40
1.0
100
AcDbArc
 50
0.0
 51
90.0
  0
LINE
  5
101
330
1F
100
AcDbEntity
  8
0
  6
Continuous
 62
     7
370
    25
100
AcDbLine
 10
125.3759275917
 20
2886.4033568925
 30
0.0
 11
130.3759275917
 21
2886.4033568925
 31
0.0
  0
ARC
  5
102
330
1F
100
AcDbEntity
  8
0
  6
Continuous
 62
     7
370
    25
100
AcDbCircle
 10
125.3759275917
 20
2885.4033568925
 30
0.0
 40
1.0
100
AcDbArc
 50
90.0
 51
180.0
  0
LINE
  5
103
330
1F
100
AcDbEntity
  8
0
  6
Continuous
 62
     7
370
    25
100
AcDbLine
 10
124.3759275917
 20
2877.4033568925
 30
0.0
 11
124.3759275917
 21
2885.4033568925
 31
0.0
  0
ARC
  5
104
330
1F
100
AcDbEntity
  8
0
  6
Continuous
 62
     7
370
    25
100
AcDbCircle
 10
125.3759275917
 20
2877.4033568925
 30
0.0
 40
1.0
100
AcDbArc
 50
180.0
 51
270.0
  0
LINE
  5
105
330
1F
100
AcDbEntity
  8
0
  6
Continuous
 62
     7
370
    25
100
AcDbLine
 10
130.3759275917
 20
2876.4033568925
 30
0.0
 11
125.3759275917
 21
2876.4033568925
 31
0.0
  0
ARC
  5
106
330
1F
100
AcDbEntity
  8
0
  6
Continuous
 62
     7
370
    25
100
AcDbCircle
 10
130.3759275917
 20
2877.4033568925
 30
0.0
 40
0.9999999999998863
100
AcDbArc
 50
270.0
 51
0.0
  0
LINE
  5
107
330
1F
100
AcDbEntity
  8
0
  6
Continuous
 62
     7
370
    25
100
AcDbLine
 10
3109.3759275917
 20
2381.4033568925
 30
0.0
 11
3109.3759275917
 21
2383.9033568925
 31
0.0
  0
LINE
  5
108
330
1F
100
AcDbEntity
  8
0
  6
Continuous
 62
     7
370
    25
100
AcDbLine
 10
3095.1787032294
 20
2390.9033568925
 30
0.0
 11
3073.5731519539
 21
2390.9033568925
 31
0.0
  0
LINE
  5
109
330
1F
100
AcDbEntity
  8
0
  6
Continuous
 62
     7
370
    25
100
AcDbLine
 10
3045.1787032294
 20
2390.9033568925
 30
0.0
 11
3023.5731519539
 21
2390.9033568925
 31
0.0
  0
LINE
  5
10A
330
1F
100
AcDbEntity
  8
0
  6
Continuous
 62
     7
370
    25
100
AcDbLine
 10
195.1787032294
 20
2390.9033568925
 30
0.0
 11
173.5731519539
 21
2390.9033568925
 31
0.0
  0
LINE
  5
10B
330
1F
100
AcDbEntity
  8
0
  6
Continuous
 62
     7
370
    25
100
AcDbLine
 10
145.1787032294
 20
2390.9033568925
 30
0.0
 11
123.5731519539
 21
2390.9033568925
 31
0.0
  0
LINE
  5
10C
330
1F
100
AcDbEntity
  8
0
  6
Continuous
 62
     7
370
    25
100
AcDbLine
 10
3095.1787032294
 20
2971.9033568925
 30
0.0
 11
3073.5731519539
 21
2971.9033568925
 31
0.0
  0
LINE
  5
10D
330
1F
100
AcDbEntity
  8
0
  6
Continuous
 62
     7
370
    25
100
AcDbLine
 10
3045.1787032294
 20
2971.9033568925
 30
0.0
 11
3023.5731519539
 21
2971.9033568925
 31
0.0
  0
LINE
  5
10E
330
1F
100
AcDbEntity
  8
0
  6
Continuous
 62
     7
370
    25
100
AcDbLine
 10
195.1787032294
 20
2971.9033568925
 30
0.0
 11
173.5731519539
 21
2971.9033568925
 31
0.0
  0
LINE
  5
10F
330
1F
100
AcDbEntity
  8
0
  6
Continuous
 62
     7
370
    25
100
AcDbLine
 10
145.1787032294
 20
2971.9033568925
 30
0.0
 11
123.5731519539
 21
2971.9033568925
 31
0.0
  0
LINE
  5
110
330
1F
100
AcDbEntity
  8
0
  6
Continuous
 62
     7
370
    25
100
AcDbLine
 10
3287.8401275686
 20
2059.5444786984
 30
0.0
 11
3287.8401275686
 21
2058.378709553
 31
0.0
  0
LINE
  5
111
330
1F
100
AcDbEntity
  8
0
  6
Continuous
 62
     7
370
    25
100
AcDbLine
 10
3288.7331585444
 20
2060.2938206608
 30
0.0
 11
3287.8401275686
 21
2059.5444786984
 31
0.0
  0
LINE
  5
112
330
1F
100
AcDbEntity
  8
0
  6
Continuous
 62
     7
370
    25
100
AcDbLine
 10
3289.697339959
 20
2059.1447539961
 30
0.0
 11
3289.3401275686
 21
2058.8450172112
 31
0.0
  0
LINE
  5
113
330
1F
100
AcDbEntity
  8
0
  6
Continuous
 62
     7
370
    25
100
AcDbLine
 10
3289.3401275686
 20
2058.8450172112
 30
0.0
 11
3289.3401275686
 21
2058.378709553
 31
0.0
  0
LINE
  5
114
330
1F
100
AcDbEntity
  8
0
  6
Continuous
 62
     7
370
    25
100
AcDbLine
 10
3287.8401275686
 20
1993.378709553
 30
0.0
 11
3290.3401275686
 21
1993.378709553
 31
0.0
  0
LINE
  5
115
330
1F
100
AcDbEntity
  8
0
  6
Continuous
 62
     7
370
    25
100
AcDbLine
 10
3287.8401275686
 20
1995.878709553
 30
0.0
 11
3287.8401275686
 21
1993.378709553
 31
0.0
  0
LINE
  5
116
330
1F
100
AcDbEntity
  8
0
  6
Continuous
 62
     7
370
    25
100
AcDbLine
 10
3289.3401275686
 20
1995.878709553
 30
0.0
 11
3289.3401275686
 21
1994.878709553
 31
0.0
  0
LINE
  5
117
330
1F
100
AcDbEntity
  8
0
  6
Continuous
 62
     7
370
    25
100
AcDbLine
 10
3289.3401275686
 20
1994.878709553
 30
0.0
 11
3290.3401275686
 21
1994.878709553
 31
0.0
  0
LINE
  5
118
330
1F
100
AcDbEntity
  8
0
  6
Continuous
 62
     7
370
    25
100
AcDbLine
 10
3289.3401275686
 20
1995.878709553
 30
0.0
 11
3289.3401275686
 21
2058.378709553
 31
0.0
  0
LINE
  5
119
330
1F
100
AcDbEntity
  8
0
  6
Continuous
 62
     7
370
    25
100
AcDbLine
 10
3287.8401275686
 20
1995.878709553
 30
0.0
 11
3287.8401275686
 21
2058.378709553
 31
0.0
  0
LINE
  5
11A
330
1F
100
AcDbEntity
  8
0
  6
Continuous
 62
     7
370
    25
100
AcDbLine
 10
3292.619294185
 20
2063.5546756435
 30
0.0
 11
3288.7331585444
 21
2060.2938206608
 31
0.0
  0
LINE
  5
11B
330
1F
100
AcDbEntity
  8
0
  6
Continuous
 62
     7
370
    25
100
AcDbLine
 10
3288.3401275686
 20
2068.6543878319
 30
0.0
 11
3292.619294185
 21
2063.5546756435
 31
0.0
  0
LINE
  5
11C
330
1F
100
AcDbEntity
  8
0
  6
Continuous
 62
     7
370
    25
100
AcDbLine
 10
3297.3401275686
 20
2073.3450172112
 30
0.0
 11
3293.930201983
 21
2073.3450172112
 31
0.0
  0
LINE
  5
11D
330
1F
100
AcDbEntity
  8
0
  6
Continuous
 62
     7
370
    25
100
AcDbLine
 10
3297.3401275686
 20
2065.5578142606
 30
0.0
 11
3297.3401275686
 21
2073.3450172112
 31
0.0
  0
LINE
  5
11E
330
1F
100
AcDbEntity
  8
0
  6
Continuous
 62
     7
370
    25
100
AcDbLine
 10
3297.3401275686
 20
2065.5578142606
 30
0.0
 11
3289.697339959
 21
2059.1447539961
 31
0.0
  0
LINE
  5
11F
330
1F
100
AcDbEntity
  8
0
  6
Continuous
 62
     7
370
    25
100
AcDbLine
 10
3293.930201983
 20
2073.3450172112
 30
0.0
 11
3288.3401275686
 21
2068.6543878319
 31
0.0
  0
LINE
  5
120
330
1F
100
AcDbEntity
  8
0
  6
Continuous
 62
     7
370
    25
100
AcDbLine
 10
3887.8401275686
 20
1993.378709553
 30
0.0
 11
3887.8401275686
 21
1995.878709553
 31
0.0
  0
LINE
  5
121
330
1F
100
AcDbEntity
  8
0
  6
Continuous
 62
     7
370
    25
100
AcDbLine
 10
3885.3401275686
 20
1993.378709553
 30
0.0
 11
3887.8401275686
 21
1993.378709553
 31
0.0
  0
LINE
  5
122
330
1F
100
AcDbEntity
  8
0
  6
Continuous
 62
     7
370
    25
100
AcDbLine
 10
3885.3401275686
 20
1994.878709553
 30
0.0
 11
3886.3401275686
 21
1994.878709553
 31
0.0
  0
LINE
  5
123
330
1F
100
AcDbEntity
  8
0
  6
Continuous
 62
     7
370
    25
100
AcDbLine
 10
3886.3401275686
 20
1994.878709553
 30
0.0
 11
3886.3401275686
 21
1995.878709553
 31
0.0
  0
LINE
  5
124
330
1F
100
AcDbEntity
  8
0
  6
Continuous
 62
     7
370
    25
100
AcDbLine
 10
3885.3401275686
 20
1994.878709553
 30
0.0
 11
3290.3401275686
 21
1994.878709553
 31
0.0
  0
LINE
  5
125
330
1F
100
AcDbEntity
  8
0
  6
Continuous
 62
     7
370
    25
100
AcDbLine
 10
3885.3401275686
 20
1993.378709553
 30
0.0
 11
3290.3401275686
 21
1993.378709553
 31
0.0
  0
LINE
  5
126
330
1F
100
AcDbEntity
  8
0
  6
Continuous
 62
     7
370
    25
100
AcDbLine
 10
3878.3401275686
 20
2065.5578142606
 30
0.0
 11
3885.9829151783
 21
2059.1447539961
 31
0.0
  0
LINE
  5
127
330
1F
100
AcDbEntity
  8
0
  6
Continuous
 62
     7
370
    25
100
AcDbLine
 10
3878.3401275686
 20
2065.5578142606
 30
0.0
 11
3878.3401275686
 21
2073.3450172112
 31
0.0
  0
LINE
  5
128
330
1F
100
AcDbEntity
  8
0
  6
Continuous
 62
     7
370
    25
100
AcDbLine
 10
3881.7500531543
 20
2073.3450172112
 30
0.0
 11
3878.3401275686
 21
2073.3450172112
 31
0.0
  0
LINE
  5
129
330
1F
100
AcDbEntity
  8
0
  6
Continuous
 62
     7
370
    25
100
AcDbLine
 10
3881.7500531543
 20
2073.3450172112
 30
0.0
 11
3887.3401275686
 21
2068.6543878319
 31
0.0
  0
LINE
  5
12A
330
1F
100
AcDbEntity
  8
0
  6
Continuous
 62
     7
370
    25
100
AcDbLine
 10
3883.0609609523
 20
2063.5546756435
 30
0.0
 11
3886.9470965929
 21
2060.2938206608
 31
0.0
  0
LINE
  5
12B
330
1F
100
AcDbEntity
  8
0
  6
Continuous
 62
     7
370
    25
100
AcDbLine
 10
3887.3401275686
 20
2068.6543878319
 30
0.0
 11
3883.0609609523
 21
2063.5546756435
 31
0.0
  0
LINE
  5
12C
330
1F
100
AcDbEntity
  8
0
  6
Continuous
 62
     7
370
    25
100
AcDbLine
 10
3887.8401275686
 20
2058.378709553
 30
0.0
 11
3887.8401275686
 21
1995.878709553
 31
0.0
  0
LINE
  5
12D
330
1F
100
AcDbEntity
  8
0
  6
Continuous
 62
     7
370
    25
100
AcDbLine
 10
3886.3401275686
 20
2058.378709553
 30
0.0
 11
3886.3401275686
 21
1995.878709553
 31
0.0
  0
LINE
  5
12E
330
1F
100
AcDbEntity
  8
0
  6
Continuous
 62
     7
370
    25
100
AcDbLine
 10
3887.8401275686
 20
2059.5444786984
 30
0.0
 11
3886.9470965929
 21
2060.2938206608
 31
0.0
  0
LINE
  5
12F
330
1F
100
AcDbEntity
  8
0
  6
Continuous
 62
     7
370
    25
100
AcDbLine
 10
3886.3401275686
 20
2058.8450172112
 30
0.0
 11
3885.9829151783
 21
2059.1447539961
 31
0.0
  0
LINE
  5
130
330
1F
100
AcDbEntity
  8
0
  6
Continuous
 62
     7
370
    25
100
AcDbLine
 10
3887.8401275686
 20
2058.378709553
 30
0.0
 11
3887.8401275686
 21
2059.5444786984
 31
0.0
  0
LINE
  5
131
330
1F
100
AcDbEntity
  8
0
  6
Continuous
 62
     7
370
    25
100
AcDbLine
 10
3886.3401275686
 20
2058.378709553
 30
0.0
 11
3886.3401275686
 21
2058.8450172112
 31
0.0
  0
LINE
  5
132
330
1F
100
AcDbEntity
  8
0
  6
Continuous
 62
     7
370
    25
100
AcDbLine
 10
1661.1235905561
 20
243.5200666217
 30
0.0
 11
1665.0763700818
 21
237.4080852513
 31
0.0
  0
LINE
  5
133
330
1F
100
AcDbEntity
  8
0
  6
Continuous
 62
     7
370
    25
100
AcDbLine
 10
3782.4439341157
 20
1468.1322343558
 30
0.0
 11
1661.1235905561
 21
243.5200666217
 31
0.0
  0
LINE
  5
134
330
1F
100
AcDbEntity
  8
0
  6
Continuous
 62
     7
370
    25
100
AcDbLine
 10
3786.3967136414
 20
1462.0202529854
 30
0.0
 11
3782.4439341157
 21
1468.1322343558
 31
0.0
  0
LINE
  5
135
330
1F
100
AcDbEntity
  8
0
  6
Continuous
 62
     7
370
    25
100
AcDbLine
 10
1665.0763700818
 20
237.4080852513
 30
0.0
 11
3786.3967136414
 21
1462.0202529854
 31
0.0
  0
LINE
  5
136
330
1F
100
AcDbEntity
  8
0
  6
Continuous
 62
     7
370
    25
100
AcDbLine
 10
1658.7124090511
 20
238.5534430566
 30
0.0
 11
1664.1166759971
 21
230.1971007208
 31
0.0
  0
LINE
  5
137
330
1F
100
AcDbEntity
  8
0
  6
Continuous
 62
     7
370
    25
100
AcDbLine
 10
1658.7124090511
 20
238.5534430566
 30
0.0
 11
1658.7124090511
 21
244.9120120761
 31
0.0
  0
LINE
  5
138
330
1F
100
AcDbEntity
  8
0
  6
Continuous
 62
     7
370
    25
100
AcDbLine
 10
1661.1235905561
 20
243.5200666217
 30
0.0
 11
1658.7124090511
 21
244.9120120761
 31
0.0
  0
LINE
  5
139
330
1F
100
AcDbEntity
  8
0
  6
Continuous
 62
     7
370
    25
100
AcDbLine
 10
1665.0763700818
 20
237.4080852513
 30
0.0
 11
1662.0505423495
 21
234.9907352894
 31
0.0
  0
LINE
  5
13A
330
1F
100
AcDbEntity
  8
0
  6
Continuous
 62
     7
370
    25
100
AcDbLine
 10
1662.0505423495
 20
234.9907352894
 30
0.0
 11
1664.7984552136
 21
230.741777784
 31
0.0
  0
LINE
  5
13B
330
1F
100
AcDbEntity
  8
0
  6
Continuous
 62
     7
370
    25
100
AcDbLine
 10
3786.3967136414
 20
1462.0202529854
 30
0.0
 11
3783.3708859092
 21
1459.6029030234
 31
0.0
  0
LINE
  5
13C
330
1F
100
AcDbEntity
  8
0
  6
Continuous
 62
     7
370
    25
100
AcDbLine
 10
1662.0505423495
 20
234.9907352894
 30
0.0
 11
3783.3708859092
 21
1459.6029030234
 31
0.0
  0
LINE
  5
13D
330
1F
100
AcDbEntity
  8
0
  6
Continuous
 62
     7
370
    25
100
AcDbLine
 10
3782.4439341157
 20
1468.1322343558
 30
0.0
 11
3780.0327526107
 21
1469.5241798102
 31
0.0
  0
LINE
  5
13E
330
1F
100
AcDbEntity
  8
0
  6
Continuous
 62
     7
370
    25
100
AcDbLine
 10
3780.0327526107
 20
1469.5241798102
 30
0.0
 11
1658.7124090511
 21
244.9120120761
 31
0.0
  0
LINE
  5
13F
330
1F
100
AcDbEntity
  8
0
  6
Continuous
 62
     7
370
    25
100
AcDbLine
 10
3786.1187987732
 20
1455.3539455181
 30
0.0
 11
3783.3708859092
 21
1459.6029030234
 31
0.0
  0
LINE
  5
140
330
1F
100
AcDbEntity
  8
0
  6
Continuous
 62
     7
370
    25
100
AcDbLine
 10
3786.750267032
 20
1454.3775383574
 30
0.0
 11
3786.1187987732
 21
1455.3539455181
 31
0.0
  0
LINE
  5
141
330
1F
100
AcDbEntity
  8
0
  6
Continuous
 62
     7
370
    25
100
AcDbLine
 10
3786.750267032
 20
1454.3775383574
 30
0.0
 11
1665.4299234724
 21
229.7653706233
 31
0.0
  0
LINE
  5
142
330
1F
100
AcDbEntity
  8
0
  6
Continuous
 62
     7
370
    25
100
AcDbLine
 10
1665.4299234724
 20
229.7653706233
 30
0.0
 11
1664.7984552136
 21
230.741777784
 31
0.0
  0
LINE
  5
143
330
1F
100
AcDbEntity
  8
0
  6
Continuous
 62
     7
370
    25
100
AcDbLine
 10
1665.4299234724
 20
228.8134725389
 30
0.0
 11
1665.4299234724
 21
229.7653706233
 31
0.0
  0
LINE
  5
144
330
1F
100
AcDbEntity
  8
0
  6
Continuous
 62
     7
370
    25
100
AcDbLine
 10
1664.3692633006
 20
229.4257786227
 30
0.0
 11
1664.3692633006
 21
229.8065378565
 31
0.0
  0
LINE
  5
145
330
1F
100
AcDbEntity
  8
0
  6
Continuous
 62
     7
370
    25
100
AcDbLine
 10
1664.3692633006
 20
229.8065378565
 30
0.0
 11
1664.1166759971
 21
230.1971007208
 31
0.0
  0
LINE
  5
146
330
1F
100
AcDbEntity
  8
0
  6
Continuous
 62
     7
370
    25
100
AcDbLine
 10
3786.750267032
 20
1453.4256402729
 30
0.0
 11
3786.750267032
 21
1454.3775383574
 31
0.0
  0
LINE
  5
147
330
1F
100
AcDbEntity
  8
0
  6
Continuous
 62
     7
370
    25
100
AcDbLine
 10
3786.750267032
 20
1453.4256402729
 30
0.0
 11
3786.750267032
 21
1402.3918395301
 31
0.0
  0
LINE
  5
148
330
1F
100
AcDbEntity
  8
0
  6
Continuous
 62
     7
370
    25
100
AcDbLine
 10
3786.750267032
 20
1400.3504875004
 30
0.0
 11
3786.750267032
 21
1402.3918395301
 31
0.0
  0
LINE
  5
149
330
1F
100
AcDbEntity
  8
0
  6
Continuous
 62
     7
370
    25
100
AcDbLine
 10
3786.750267032
 20
1400.3504875004
 30
0.0
 11
1665.4299234724
 21
175.7383197663
 31
0.0
  0
LINE
  5
14A
330
1F
100
AcDbEntity
  8
0
  6
Continuous
 62
     7
370
    25
100
AcDbLine
 10
1665.4299234724
 20
175.7383197663
 30
0.0
 11
1665.4299234724
 21
177.779671796
 31
0.0
  0
LINE
  5
14B
330
1F
100
AcDbEntity
  8
0
  6
Continuous
 62
     7
370
    25
100
AcDbLine
 10
1665.4299234724
 20
228.8134725389
 30
0.0
 11
1665.4299234724
 21
177.779671796
 31
0.0
  0
LWPOLYLINE
  5
14C
330
1F
100
AcDbEntity
  8
0
  6
Continuous
 62
     7
370
    25
100
AcDbPolyline
 90
       10
 70
   128
 43
0.0
 10
1724.826893092
 20
221.8673022352
 10
1725.6733497613
 20
222.5283032965
 10
1726.4177112639
 20
223.4542819292
 10
1726.970196617
 20
224.5335514442
 10
1727.2641679332
 20
225.6359360096
 10
1727.2641679332
 20
226.6284717775
 10
1726.970196617
 20
227.3914442858
 10
1726.4177112639
 20
227.8328277899
 10
1725.6733497613
 20
227.899384925
 10
1724.826893092
 20
227.5830879184
  0
LINE
  5
14D
330
1F
100
AcDbEntity
  8
0
  6
Continuous
 62
     7
370
    25
100
AcDbLine
 10
1724.826893092
 20
227.5830879184
 30
0.0
 11
1712.0989710307
 21
220.235414912
 31
0.0
  0
LWPOLYLINE
  5
14E
330
1F
100
AcDbEntity
  8
0
  6
Continuous
 62
     7
370
    25
100
AcDbPolyline
 90
       10
 70
   128
 43
0.0
 10
1712.0989710307
 20
220.235414912
 10
1711.2525143614
 20
219.5744138507
 10
1710.5081528588
 20
218.6484352179
 10
1709.9556675057
 20
217.569165703
 10
1709.6616961896
 20
216.4667811375
 10
1709.6616961896
 20
215.4742453697
 10
1709.9556675057
 20
214.7112728614
 10
1710.5081528588
 20
214.2698893573
 10
1711.2525143614
 20
214.2033322222
 10
1712.0989710307
 20
214.5196292288
  0
LINE
  5
14F
330
1F
100
AcDbEntity
  8
0
  6
Continuous
 62
     7
370
    25
100
AcDbLine
 10
1712.0989710307
 20
214.5196292288
 30
0.0
 11
1724.826893092
 21
221.8673022352
 31
0.0
  0
LWPOLYLINE
  5
150
330
1F
100
AcDbEntity
  8
0
  6
Continuous
 62
     7
370
    25
100
AcDbPolyline
 90
       10
 70
   128
 43
0.0
 10
3762.7086364717
 20
1404.0271770549
 10
3761.8621798024
 20
1403.3661759936
 10
3761.1178182998
 20
1402.4401973609
 10
3760.5653329467
 20
1401.3609278459
 10
3760.2713616305
 20
1400.2585432805
 10
3760.2713616305
 20
1399.2660075126
 10
3760.5653329467
 20
1398.5030350043
 10
3761.1178182998
 20
1398.0616515002
 10
3761.8621798024
 20
1397.9950943651
 10
3762.7086364717
 20
1398.3113913717
  0
LINE
  5
151
330
1F
100
AcDbEntity
  8
0
  6
Continuous
 62
     7
370
    25
100
AcDbLine
 10
3762.7086364717
 20
1398.3113913717
 30
0.0
 11
3775.436558533
 21
1405.6590643781
 31
0.0
  0
LWPOLYLINE
  5
152
330
1F
100
AcDbEntity
  8
0
  6
Continuous
 62
     7
370
    25
100
AcDbPolyline
 90
       10
 70
   128
 43
0.0
 10
3775.436558533
 20
1405.6590643781
 10
3776.2830152023
 20
1406.3200654394
 10
3777.0273767049
 20
1407.2460440722
 10
3777.579862058
 20
1408.3253135871
 10
3777.8738333741
 20
1409.4276981526
 10
3777.8738333741
 20
1410.4202339204
 10
3777.579862058
 20
1411.1832064287
 10
3777.0273767049
 20
1411.6245899328
 10
3776.2830152023
 20
1411.6911470679
 10
3775.436558533
 20
1411.3748500613
  0
LINE
  5
153
330
1F
100
AcDbEntity
  8
0
  6
Continuous
 62
     7
370
    25
100
AcDbLine
 10
3775.436558533
 20
1411.3748500613
 30
0.0
 11
3762.7086364717
 21
1404.0271770549
 31
0.0
  0
LWPOLYLINE
  5
154
330
1F
100
AcDbEntity
  8
0
  6
Continuous
 62
     7
370
    25
100
AcDbPolyline
 90
       10
 70
   128
 43
0.0
 10
3727.3532974123
 20
1383.6169742593
 10
3726.5068407431
 20
1382.955973198
 10
3725.7624792405
 20
1382.0299945653
 10
3725.2099938874
 20
1380.9507250503
 10
3724.9160225712
 20
1379.8483404849
 10
3724.9160225712
 20
1378.8558047171
 10
3725.2099938874
 20
1378.0928322087
 10
3725.7624792405
 20
1377.6514487046
 10
3726.5068407431
 20
1377.5848915695
 10
3727.3532974123
 20
1377.9011885761
  0
LINE
  5
155
330
1F
100
AcDbEntity
  8
0
  6
Continuous
 62
     7
370
    25
100
AcDbLine
 10
3727.3532974123
 20
1377.9011885761
 30
0.0
 11
3740.0812194737
 21
1385.2488615825
 31
0.0
  0
LWPOLYLINE
  5
156
330
1F
100
AcDbEntity
  8
0
  6
Continuous
 62
     7
370
    25
100
AcDbPolyline
 90
       10
 70
   128
 43
0.0
 10
3740.0812194737
 20
1385.2488615825
 10
3740.927676143
 20
1385.9098626439
 10
3741.6720376455
 20
1386.8358412766
 10
3742.2245229986
 20
1387.9151107916
 10
3742.5184943148
 20
1389.017495357
 10
3742.5184943148
 20
1390.0100311248
 10
3742.2245229986
 20
1390.7730036332
 10
3741.6720376455
 20
1391.2143871373
 10
3740.927676143
 20
1391.2809442724
 10
3740.0812194737
 20
1390.9646472657
  0
LINE
  5
157
330
1F
100
AcDbEntity
  8
0
  6
Continuous
 62
     7
370
    25
100
AcDbLine
 10
3740.0812194737
 20
1390.9646472657
 30
0.0
 11
3727.3532974123
 21
1383.6169742593
 31
0.0
  0
LWPOLYLINE
  5
158
330
1F
100
AcDbEntity
  8
0
  6
Continuous
 62
     7
370
    25
100
AcDbPolyline
 90
       10
 70
   128
 43
0.0
 10
1689.4715540327
 20
201.4570994396
 10
1690.318010702
 20
202.118100501
 10
1691.0623722046
 20
203.0440791337
 10
1691.6148575576
 20
204.1233486486
 10
1691.9088288738
 20
205.2257332141
 10
1691.9088288738
 20
206.2182689819
 10
1691.6148575576
 20
206.9812414902
 10
1691.0623722046
 20
207.4226249943
 10
1690.318010702
 20
207.4891821295
 10
1689.4715540327
 20
207.1728851228
  0
LINE
  5
159
330
1F
100
AcDbEntity
  8
0
  6
Continuous
 62
     7
370
    25
100
AcDbLine
 10
1689.4715540327
 20
207.1728851228
 30
0.0
 11
1676.7436319713
 21
199.8252121164
 31
0.0
  0
LWPOLYLINE
  5
15A
330
1F
100
AcDbEntity
  8
0
  6
Continuous
 62
     7
370
    25
100
AcDbPolyline
 90
       10
 70
   128
 43
0.0
 10
1676.7436319713
 20
199.8252121164
 10
1675.8971753021
 20
199.1642110551
 10
1675.1528137995
 20
198.2382324224
 10
1674.6003284464
 20
197.1589629074
 10
1674.3063571302
 20
196.056578342
 10
1674.3063571302
 20
195.0640425742
 10
1674.6003284464
 20
194.3010700658
 10
1675.1528137995
 20
193.8596865617
 10
1675.8971753021
 20
193.7931294266
 10
1676.7436319713
 20
194.1094264332
  0
LINE
  5
15B
330
1F
100
AcDbEntity
  8
0
  6
Continuous
 62
     7
370
    25
100
AcDbLine
 10
1676.7436319713
 20
194.1094264332
 30
0.0
 11
1689.4715540327
 21
201.4570994396
 31
0.0
  0
LWPOLYLINE
  5
15C
330
1F
100
AcDbEntity
  8
0
  6
Continuous
 62
     7
370
    25
100
AcDbPolyline
 90
       10
 70
   128
 43
0.0
 10
1724.826893092
 20
242.2808225323
 10
1725.6733497613
 20
242.9418235937
 10
1726.4177112639
 20
243.8678022264
 10
1726.970196617
 20
244.9470717413
 10
1727.2641679332
 20
246.0494563068
 10
1727.2641679332
 20
247.0419920746
 10
1726.970196617
 20
247.8049645829
 10
1726.4177112639
 20
248.246348087
 10
1725.6733497613
 20
248.3129052222
 10
1724.826893092
 20
247.9966082155
  0
LINE
  5
15D
330
1F
100
AcDbEntity
  8
0
  6
Continuous
 62
     7
370
    25
100
AcDbLine
 10
1724.826893092
 20
247.9966082155
 30
0.0
 11
1712.0989710307
 21
240.6489352091
 31
0.0
  0
LWPOLYLINE
  5
15E
330
1F
100
AcDbEntity
  8
0
  6
Continuous
 62
     7
370
    25
100
AcDbPolyline
 90
       10
 70
   128
 43
0.0
 10
1712.0989710307
 20
240.6489352091
 10
1711.2525143614
 20
239.9879341478
 10
1710.5081528588
 20
239.0619555151
 10
1709.9556675057
 20
237.9826860001
 10
1709.6616961896
 20
236.8803014347
 10
1709.6616961896
 20
235.8877656669
 10
1709.9556675057
 20
235.1247931585
 10
1710.5081528588
 20
234.6834096544
 10
1711.2525143614
 20
234.6168525193
 10
1712.0989710307
 20
234.9331495259
  0
LINE
  5
15F
330
1F
100
AcDbEntity
  8
0
  6
Continuous
 62
     7
370
    25
100
AcDbLine
 10
1712.0989710307
 20
234.9331495259
 30
0.0
 11
1724.826893092
 21
242.2808225323
 31
0.0
  0
LWPOLYLINE
  5
160
330
1F
100
AcDbEntity
  8
0
  6
Continuous
 62
     7
370
    25
100
AcDbPolyline
 90
       10
 70
   128
 43
0.0
 10
3762.7086364717
 20
1424.4406973521
 10
3761.8621798024
 20
1423.7796962907
 10
3761.1178182998
 20
1422.853717658
 10
3760.5653329467
 20
1421.774448143
 10
3760.2713616305
 20
1420.6720635776
 10
3760.2713616305
 20
1419.6795278098
 10
3760.5653329467
 20
1418.9165553014
 10
3761.1178182998
 20
1418.4751717973
 10
3761.8621798024
 20
1418.4086146622
 10
3762.7086364717
 20
1418.7249116689
  0
LINE
  5
161
330
1F
100
AcDbEntity
  8
0
  6
Continuous
 62
     7
370
    25
100
AcDbLine
 10
3762.7086364717
 20
1418.7249116689
 30
0.0
 11
3775.436558533
 21
1426.0725846753
 31
0.0
  0
LWPOLYLINE
  5
162
330
1F
100
AcDbEntity
  8
0
  6
Continuous
 62
     7
370
    25
100
AcDbPolyline
 90
       10
 70
   128
 43
0.0
 10
3775.436558533
 20
1426.0725846753
 10
3776.2830152023
 20
1426.7335857366
 10
3777.0273767049
 20
1427.6595643693
 10
3777.579862058
 20
1428.7388338843
 10
3777.8738333741
 20
1429.8412184497
 10
3777.8738333741
 20
1430.8337542175
 10
3777.579862058
 20
1431.5967267259
 10
3777.0273767049
 20
1432.03811023
 10
3776.2830152023
 20
1432.1046673651
 10
3775.436558533
 20
1431.7883703585
  0
LINE
  5
163
330
1F
100
AcDbEntity
  8
0
  6
Continuous
 62
     7
370
    25
100
AcDbLine
 10
3775.436558533
 20
1431.7883703585
 30
0.0
 11
3762.7086364717
 21
1424.4406973521
 31
0.0
  0
LWPOLYLINE
  5
164
330
1F
100
AcDbEntity
  8
0
  6
Continuous
 62
     7
370
    25
100
AcDbPolyline
 90
       10
 70
   128
 43
0.0
 10
3727.3532974123
 20
1404.0304945565
 10
3726.5068407431
 20
1403.3694934952
 10
3725.7624792405
 20
1402.4435148625
 10
3725.2099938874
 20
1401.3642453475
 10
3724.9160225712
 20
1400.261860782
 10
3724.9160225712
 20
1399.2693250142
 10
3725.2099938874
 20
1398.5063525059
 10
3725.7624792405
 20
1398.0649690018
 10
3726.5068407431
 20
1397.9984118667
 10
3727.3532974123
 20
1398.3147088733
  0
LINE
  5
165
330
1F
100
AcDbEntity
  8
0
  6
Continuous
 62
     7
370
    25
100
AcDbLine
 10
3727.3532974123
 20
1398.3147088733
 30
0.0
 11
3740.0812194737
 21
1405.6623818797
 31
0.0
  0
LWPOLYLINE
  5
166
330
1F
100
AcDbEntity
  8
0
  6
Continuous
 62
     7
370
    25
100
AcDbPolyline
 90
       10
 70
   128
 43
0.0
 10
3740.0812194737
 20
1405.6623818797
 10
3740.927676143
 20
1406.323382941
 10
3741.6720376455
 20
1407.2493615737
 10
3742.2245229986
 20
1408.3286310887
 10
3742.5184943148
 20
1409.4310156541
 10
3742.5184943148
 20
1410.423551422
 10
3742.2245229986
 20
1411.1865239303
 10
3741.6720376455
 20
1411.6279074344
 10
3740.927676143
 20
1411.6944645695
 10
3740.0812194737
 20
1411.3781675629
  0
LINE
  5
167
330
1F
100
AcDbEntity
  8
0
  6
Continuous
 62
     7
370
    25
100
AcDbLine
 10
3740.0812194737
 20
1411.3781675629
 30
0.0
 11
3727.3532974123
 21
1404.0304945565
 31
0.0
  0
LWPOLYLINE
  5
168
330
1F
100
AcDbEntity
  8
0
  6
Continuous
 62
     7
370
    25
100
AcDbPolyline
 90
       10
 70
   128
 43
0.0
 10
1689.4715540327
 20
221.8706197368
 10
1690.318010702
 20
222.5316207981
 10
1691.0623722046
 20
223.4575994308
 10
1691.6148575576
 20
224.5368689458
 10
1691.9088288738
 20
225.6392535112
 10
1691.9088288738
 20
226.631789279
 10
1691.6148575576
 20
227.3947617874
 10
1691.0623722046
 20
227.8361452915
 10
1690.318010702
 20
227.9027024266
 10
1689.4715540327
 20
227.58640542
  0
LINE
  5
169
330
1F
100
AcDbEntity
  8
0
  6
Continuous
 62
     7
370
    25
100
AcDbLine
 10
1689.4715540327
 20
227.58640542
 30
0.0
 11
1676.7436319713
 21
220.2387324136
 31
0.0
  0
LWPOLYLINE
  5
16A
330
1F
100
AcDbEntity
  8
0
  6
Continuous
 62
     7
370
    25
100
AcDbPolyline
 90
       10
 70
   128
 43
0.0
 10
1676.7436319713
 20
220.2387324136
 10
1675.8971753021
 20
219.5777313522
 10
1675.1528137995
 20
218.6517527195
 10
1674.6003284464
 20
217.5724832045
 10
1674.3063571302
 20
216.4700986391
 10
1674.3063571302
 20
215.4775628713
 10
1674.6003284464
 20
214.7145903629
 10
1675.1528137995
 20
214.2732068589
 10
1675.8971753021
 20
214.2066497237
 10
1676.7436319713
 20
214.5229467304
  0
LINE
  5
16B
330
1F
100
AcDbEntity
  8
0
  6
Continuous
 62
     7
370
    25
100
AcDbLine
 10
1676.7436319713
 20
214.5229467304
 30
0.0
 11
1689.4715540327
 21
221.8706197368
 31
0.0
  0
LINE
  5
16C
330
1F
100
AcDbEntity
  8
0
  6
Continuous
 62
     7
370
    25
100
AcDbLine
 10
1664.3692633006
 20
229.4257786227
 30
0.0
 11
1664.3692633006
 21
178.3919778799
 31
0.0
  0
LWPOLYLINE
  5
16D
330
1F
100
AcDbEntity
  8
0
  6
Continuous
 62
     7
370
    25
100
AcDbPolyline
 90
        3
 70
   128
 43
0.0
 10
1675.6829717996
 20
215.1352528142
 10
1674.8365151303
 20
214.8189558076
 10
1674.5457157063
 20
214.7983356336
  0
LINE
  5
16E
330
1F
100
AcDbEntity
  8
0
  6
Continuous
 62
     7
370
    25
100
AcDbLine
 10
1688.4108938609
 20
222.4829258206
 30
0.0
 11
1675.6829717996
 21
215.1352528142
 31
0.0
  0
ARC
  5
16F
330
1F
100
AcDbEntity
  8
0
  6
Continuous
 62
     7
370
    25
100
AcDbCircle
 10
1686.2376443724
 20
226.5250936631
 30
0.0
 40
4.589350085403499
100
AcDbArc
 50
298.2644546681
 51
17.7382019348
  0
LWPOLYLINE
  5
170
330
1F
100
AcDbEntity
  8
0
  6
Continuous
 62
     7
370
    25
100
AcDbPolyline
 90
        3
 70
   128
 43
0.0
 10
1675.6829717996
 20
194.7217325171
 10
1674.8365151303
 20
194.4054355105
 10
1674.5457157064
 20
194.3848153365
  0
LINE
  5
171
330
1F
100
AcDbEntity
  8
0
  6
Continuous
 62
     7
370
    25
100
AcDbLine
 10
1663.6621565194
 20
176.7588299061
 30
0.0
 11
1665.4299234724
 21
175.7383197663
 31
0.0
  0
LINE
  5
172
330
1F
100
AcDbEntity
  8
0
  6
Continuous
 62
     7
370
    25
100
AcDbLine
 10
1663.6621565194
 20
177.9836411239
 30
0.0
 11
1664.3692633006
 21
177.575437068
 31
0.0
  0
LINE
  5
173
330
1F
100
AcDbEntity
  8
0
  6
Continuous
 62
     7
370
    25
100
AcDbLine
 10
1664.3692633006
 20
177.575437068
 30
0.0
 11
1664.3692633006
 21
178.3919778799
 31
0.0
  0
LINE
  5
174
330
1F
100
AcDbEntity
  8
0
  6
Continuous
 62
     7
370
    25
100
AcDbLine
 10
1242.2265149322
 20
421.2732584471
 30
0.0
 11
1242.9336217134
 21
420.8650543912
 31
0.0
  0
LINE
  5
175
330
1F
100
AcDbEntity
  8
0
  6
Continuous
 62
     7
370
    25
100
AcDbLine
 10
3363.5468584919
 20
1645.8854261811
 30
0.0
 11
1242.2265149322
 21
421.2732584471
 31
0.0
  0
LINE
  5
176
330
1F
100
AcDbEntity
  8
0
  6
Continuous
 62
     7
370
    25
100
AcDbLine
 10
3363.5468584919
 20
1645.8854261811
 30
0.0
 11
3364.253965273
 21
1645.4772221252
 31
0.0
  0
LINE
  5
177
330
1F
100
AcDbEntity
  8
0
  6
Continuous
 62
     7
370
    25
100
AcDbLine
 10
3775.9392972887
 20
1407.8163387067
 30
0.0
 11
3772.6058327267
 21
1409.740706837
 31
0.0
  0
LINE
  5
178
330
1F
100
AcDbEntity
  8
0
  6
Continuous
 62
     7
370
    25
100
AcDbLine
 10
3724.5396759182
 20
1437.4887085298
 30
0.0
 11
3364.253965273
 21
1645.4772221252
 31
0.0
  0
LINE
  5
179
330
1F
100
AcDbEntity
  8
0
  6
Continuous
 62
     7
370
    25
100
AcDbLine
 10
1663.6621565194
 20
177.9836411239
 30
0.0
 11
1242.9336217134
 21
420.8650543912
 31
0.0
  0
ARC
  5
17A
330
1F
100
AcDbEntity
  8
0
  6
Continuous
 62
     7
370
    25
100
AcDbCircle
 10
3556.388383392
 20
1517.0970465411
 30
0.0
 40
0.4366153168335875
100
AcDbArc
 50
110.7834207993
 51
249.2165792007
  0
LINE
  5
17B
330
1F
100
AcDbEntity
  8
0
  6
Continuous
 62
     7
370
    25
100
AcDbLine
 10
3556.2334563652
 20
1516.6888424852
 30
0.0
 11
3561.8903106147
 21
1513.4232100379
 31
0.0
  0
ARC
  5
17C
330
1F
100
AcDbEntity
  8
0
  6
Continuous
 62
     7
370
    25
100
AcDbCircle
 10
3562.5974173959
 20
1514.7879211228
 30
0.0
 40
1.537021907909805
100
AcDbArc
 50
242.6096722366
 51
297.3903277634
  0
LINE
  5
17D
330
1F
100
AcDbEntity
  8
0
  6
Continuous
 62
     7
370
    25
100
AcDbLine
 10
3563.3045241771
 20
1513.4232100379
 30
0.0
 11
3566.840058083
 21
1515.4642303174
 31
0.0
  0
ARC
  5
17E
330
1F
100
AcDbEntity
  8
0
  6
Continuous
 62
     7
370
    25
100
AcDbCircle
 10
3566.6851310562
 20
1515.8724343734
 30
0.0
 40
0.4366153168344455
100
AcDbArc
 50
290.7834207994
 51
69.2165792005
  0
LINE
  5
17F
330
1F
100
AcDbEntity
  8
0
  6
Continuous
 62
     7
370
    25
100
AcDbLine
 10
3566.840058083
 20
1516.2806384293
 30
0.0
 11
3561.1832038335
 21
1519.5462708766
 31
0.0
  0
ARC
  5
180
330
1F
100
AcDbEntity
  8
0
  6
Continuous
 62
     7
370
    25
100
AcDbCircle
 10
3560.4760970523
 20
1518.1815597916
 30
0.0
 40
1.53702190791385
100
AcDbArc
 50
62.6096722366
 51
117.3903277634
  0
LINE
  5
181
330
1F
100
AcDbEntity
  8
0
  6
Continuous
 62
     7
370
    25
100
AcDbLine
 10
3559.7689902711
 20
1519.5462708766
 30
0.0
 11
3556.2334563652
 21
1517.505250597
 31
0.0
  0
ARC
  5
182
330
1F
100
AcDbEntity
  8
0
  6
Continuous
 62
     7
370
    25
100
AcDbCircle
 10
1461.2309907362
 20
307.5884288758
 30
0.0
 40
0.4366153168341779
100
AcDbArc
 50
110.7834207994
 51
249.2165792006
  0
LINE
  5
183
330
1F
100
AcDbEntity
  8
0
  6
Continuous
 62
     7
370
    25
100
AcDbLine
 10
1461.0760637094
 20
307.1802248198
 30
0.0
 11
1466.7329179589
 21
303.9145923726
 31
0.0
  0
ARC
  5
184
330
1F
100
AcDbEntity
  8
0
  6
Continuous
 62
     7
370
    25
100
AcDbCircle
 10
1467.4400247401
 20
305.2793034575
 30
0.0
 40
1.537021907911517
100
AcDbArc
 50
242.6096722366
 51
297.3903277634
  0
LINE
  5
185
330
1F
100
AcDbEntity
  8
0
  6
Continuous
 62
     7
370
    25
100
AcDbLine
 10
1468.1471315213
 20
303.9145923726
 30
0.0
 11
1471.6826654272
 21
305.9556126521
 31
0.0
  0
ARC
  5
186
330
1F
100
AcDbEntity
  8
0
  6
Continuous
 62
     7
370
    25
100
AcDbCircle
 10
1471.5277384005
 20
306.363816708
 30
0.0
 40
0.436615316834231
100
AcDbArc
 50
290.7834207994
 51
69.2165792005
  0
LINE
  5
187
330
1F
100
AcDbEntity
  8
0
  6
Continuous
 62
     7
370
    25
100
AcDbLine
 10
1471.6826654272
 20
306.7720207639
 30
0.0
 11
1466.0258111778
 21
310.0376532112
 31
0.0
  0
ARC
  5
188
330
1F
100
AcDbEntity
  8
0
  6
Continuous
 62
     7
370
    25
100
AcDbCircle
 10
1465.3187043966
 20
308.6729421263
 30
0.0
 40
1.53702190791071
100
AcDbArc
 50
62.6096722366
 51
117.3903277634
  0
LINE
  5
189
330
1F
100
AcDbEntity
  8
0
  6
Continuous
 62
     7
370
    25
100
AcDbLine
 10
1464.6115976154
 20
310.0376532112
 30
0.0
 11
1461.0760637094
 21
307.9966329317
 31
0.0
  0
LINE
  5
18A
330
1F
100
AcDbEntity
  8
0
  6
Continuous
 62
     7
370
    25
100
AcDbLine
 10
1263.7932717584
 20
421.8855645309
 30
0.0
 11
1276.5211938198
 21
429.2332375373
 31
0.0
  0
LWPOLYLINE
  5
18B
330
1F
100
AcDbEntity
  8
0
  6
Continuous
 62
     7
370
    25
100
AcDbPolyline
 90
       10
 70
   128
 43
0.0
 10
1276.5211938198
 20
429.2332375373
 10
1277.2183973402
 20
429.8080485801
 10
1277.5330015289
 20
430.4858529454
 10
1277.4270604776
 20
431.1848974234
 10
1276.9133522406
 20
431.8208669333
 10
1276.0538376128
 20
432.3170541663
 10
1274.9521867435
 20
432.6136116191
 10
1273.741274986
 20
432.6747700862
 10
1272.5671561695
 20
432.4931529539
 10
1271.5714463515
 20
432.0906659287
  0
LINE
  5
18C
330
1F
100
AcDbEntity
  8
0
  6
Continuous
 62
     7
370
    25
100
AcDbLine
 10
1271.5714463515
 20
432.0906659287
 30
0.0
 11
1258.8435242901
 21
424.7429929223
 31
0.0
  0
LWPOLYLINE
  5
18D
330
1F
100
AcDbEntity
  8
0
  6
Continuous
 62
     7
370
    25
100
AcDbPolyline
 90
       10
 70
   128
 43
0.0
 10
1258.8435242901
 20
424.7429929223
 10
1258.1463207696
 20
424.1681818795
 10
1257.8317165809
 20
423.4903775143
 10
1257.9376576322
 20
422.7913330363
 10
1258.4513658692
 20
422.1553635264
 10
1259.310880497
 20
421.6591762934
 10
1260.4125313664
 20
421.3626188406
 10
1261.6234431239
 20
421.3014603734
 10
1262.7975619403
 20
421.4830775057
 10
1263.7932717584
 20
421.8855645309
  0
LINE
  5
18E
330
1F
100
AcDbEntity
  8
0
  6
Continuous
 62
     7
370
    25
100
AcDbLine
 10
3764.122850034
 20
1401.5752987182
 30
0.0
 11
3760.2594128192
 21
1399.3449838876
 31
0.0
  0
ARC
  5
18F
330
1F
100
AcDbEntity
  8
0
  6
Continuous
 62
     7
370
    25
100
AcDbCircle
 10
3766.5783094688
 20
1396.8346253923
 30
0.0
 40
5.338844876749836
100
AcDbArc
 50
83.1834142245
 51
117.3821616972
  0
LINE
  5
190
330
1F
100
AcDbEntity
  8
0
  6
Continuous
 62
     7
370
    25
100
AcDbLine
 10
3728.7675109747
 20
1381.1650959226
 30
0.0
 11
3724.9040737598
 21
1378.934781092
 31
0.0
  0
ARC
  5
191
330
1F
100
AcDbEntity
  8
0
  6
Continuous
 62
     7
370
    25
100
AcDbCircle
 10
3731.2229704094
 20
1376.4244225968
 30
0.0
 40
5.338844876750524
100
AcDbArc
 50
83.1834142245
 51
117.3821616972
  0
LINE
  5
192
330
1F
100
AcDbEntity
  8
0
  6
Continuous
 62
     7
370
    25
100
AcDbLine
 10
3322.1811117924
 20
1615.8824280716
 30
0.0
 11
3309.4531897311
 21
1608.5347550652
 31
0.0
  0
LWPOLYLINE
  5
193
330
1F
100
AcDbEntity
  8
0
  6
Continuous
 62
     7
370
    25
100
AcDbPolyline
 90
       10
 70
   128
 43
0.0
 10
3309.4531897311
 20
1608.5347550652
 10
3308.7559862106
 20
1607.9599440225
 10
3308.4413820219
 20
1607.2821396572
 10
3308.5473230732
 20
1606.5830951792
 10
3309.0610313102
 20
1605.9471256693
 10
3309.920545938
 20
1605.4509384363
 10
3311.0221968074
 20
1605.1543809835
 10
3312.2331085649
 20
1605.0932225164
 10
3313.4072273813
 20
1605.2748396487
 10
3314.4029371994
 20
1605.6773266739
  0
LINE
  5
194
330
1F
100
AcDbEntity
  8
0
  6
Continuous
 62
     7
370
    25
100
AcDbLine
 10
3314.4029371994
 20
1605.6773266739
 30
0.0
 11
3327.1308592608
 21
1613.0249996803
 31
0.0
  0
LWPOLYLINE
  5
195
330
1F
100
AcDbEntity
  8
0
  6
Continuous
 62
     7
370
    25
100
AcDbPolyline
 90
       10
 70
   128
 43
0.0
 10
3327.1308592608
 20
1613.0249996803
 10
3327.8280627812
 20
1613.599810723
 10
3328.1426669699
 20
1614.2776150883
 10
3328.0367259186
 20
1614.9766595663
 10
3327.5230176816
 20
1615.6126290762
 10
3326.6635030538
 20
1616.1088163092
 10
3325.5618521845
 20
1616.405373762
 10
3324.350940427
 20
1616.4665322291
 10
3323.1768216105
 20
1616.2849150968
 10
3322.1811117924
 20
1615.8824280716
  0
LINE
  5
196
330
1F
100
AcDbEntity
  8
0
  6
Continuous
 62
     7
370
    25
100
AcDbLine
 10
1299.1486108177
 20
442.2957673265
 30
0.0
 11
1311.8765328791
 21
449.6434403329
 31
0.0
  0
LWPOLYLINE
  5
197
330
1F
100
AcDbEntity
  8
0
  6
Continuous
 62
     7
370
    25
100
AcDbPolyline
 90
       10
 70
   128
 43
0.0
 10
1311.8765328791
 20
449.6434403329
 10
1312.5737363996
 20
450.2182513757
 10
1312.8883405883
 20
450.896055741
 10
1312.7823995369
 20
451.595100219
 10
1312.2686912999
 20
452.2310697289
 10
1311.4091766722
 20
452.7272569618
 10
1310.3075258028
 20
453.0238144147
 10
1309.0966140453
 20
453.0849728818
 10
1307.9224952288
 20
452.9033557495
 10
1306.9267854108
 20
452.5008687243
  0
LINE
  5
198
330
1F
100
AcDbEntity
  8
0
  6
Continuous
 62
     7
370
    25
100
AcDbLine
 10
1306.9267854108
 20
452.5008687243
 30
0.0
 11
1294.1988633494
 21
445.1531957179
 31
0.0
  0
LWPOLYLINE
  5
199
330
1F
100
AcDbEntity
  8
0
  6
Continuous
 62
     7
370
    25
100
AcDbPolyline
 90
       10
 70
   128
 43
0.0
 10
1294.1988633494
 20
445.1531957179
 10
1293.5016598289
 20
444.5783846751
 10
1293.1870556403
 20
443.9005803098
 10
1293.2929966916
 20
443.2015358318
 10
1293.8067049286
 20
442.5655663219
 10
1294.6662195563
 20
442.0693790889
 10
1295.7678704257
 20
441.7728216361
 10
1296.9787821832
 20
441.711663169
 10
1298.1529009997
 20
441.8932803013
 10
1299.1486108177
 20
442.2957673265
  0
ARC
  5
19A
330
1F
100
AcDbEntity
  8
0
  6
Continuous
 62
     7
370
    25
100
AcDbCircle
 10
1680.6133049685
 20
192.6326604538
 30
0.0
 40
5.338844876745397
100
AcDbArc
 50
83.1834142245
 51
117.3821616972
  0
LINE
  5
19B
330
1F
100
AcDbEntity
  8
0
  6
Continuous
 62
     7
370
    25
100
AcDbLine
 10
1678.1578455337
 20
197.3733337797
 30
0.0
 11
1674.2944083188
 21
195.1430189491
 31
0.0
  0
ARC
  5
19C
330
1F
100
AcDbEntity
  8
0
  6
Continuous
 62
     7
370
    25
100
AcDbCircle
 10
1715.9686440278
 20
213.0428632494
 30
0.0
 40
5.338844876746902
100
AcDbArc
 50
83.1834142245
 51
117.3821616972
  0
LINE
  5
19D
330
1F
100
AcDbEntity
  8
0
  6
Continuous
 62
     7
370
    25
100
AcDbLine
 10
1713.513184593
 20
217.7835365753
 30
0.0
 11
1709.6497473782
 21
215.5532217447
 31
0.0
  0
LINE
  5
19E
330
1F
100
AcDbEntity
  8
0
  6
Continuous
 62
     7
370
    25
100
AcDbLine
 10
3357.5364508518
 20
1636.2926308672
 30
0.0
 11
3344.8085287904
 21
1628.9449578608
 31
0.0
  0
LWPOLYLINE
  5
19F
330
1F
100
AcDbEntity
  8
0
  6
Continuous
 62
     7
370
    25
100
AcDbPolyline
 90
       10
 70
   128
 43
0.0
 10
3344.8085287904
 20
1628.9449578608
 10
3344.1113252699
 20
1628.370146818
 10
3343.7967210812
 20
1627.6923424528
 10
3343.9026621326
 20
1626.9932979747
 10
3344.4163703696
 20
1626.3573284649
 10
3345.2758849973
 20
1625.8611412319
 10
3346.3775358667
 20
1625.5645837791
 10
3347.5884476242
 20
1625.5034253119
 10
3348.7625664407
 20
1625.6850424442
 10
3349.7582762587
 20
1626.0875294694
  0
LINE
  5
1A0
330
1F
100
AcDbEntity
  8
0
  6
Continuous
 62
     7
370
    25
100
AcDbLine
 10
3349.7582762587
 20
1626.0875294694
 30
0.0
 11
3362.4861983201
 21
1633.4352024758
 31
0.0
  0
LWPOLYLINE
  5
1A1
330
1F
100
AcDbEntity
  8
0
  6
Continuous
 62
     7
370
    25
100
AcDbPolyline
 90
       10
 70
   128
 43
0.0
 10
3362.4861983201
 20
1633.4352024758
 10
3363.1834018406
 20
1634.0100135186
 10
3363.4980060292
 20
1634.6878178839
 10
3363.3920649779
 20
1635.3868623619
 10
3362.8783567409
 20
1636.0228318718
 10
3362.0188421132
 20
1636.5190191048
 10
3360.9171912438
 20
1636.8155765576
 10
3359.7062794863
 20
1636.8767350247
 10
3358.5321606698
 20
1636.6951178924
 10
3357.5364508518
 20
1636.2926308672
  0
ARC
  5
1A2
330
1F
100
AcDbEntity
  8
0
  6
Continuous
 62
     7
370
    25
100
AcDbCircle
 10
3414.9670271547
 20
1598.7378577234
 30
0.0
 40
0.4366153168342842
100
AcDbArc
 50
110.7834207994
 51
249.2165792006
  0
LINE
  5
1A3
330
1F
100
AcDbEntity
  8
0
  6
Continuous
 62
     7
370
    25
100
AcDbLine
 10
3414.8121001279
 20
1598.3296536675
 30
0.0
 11
3420.4689543774
 21
1595.0640212202
 31
0.0
  0
ARC
  5
1A4
330
1F
100
AcDbEntity
  8
0
  6
Continuous
 62
     7
370
    25
100
AcDbCircle
 10
3421.1760611586
 20
1596.4287323051
 30
0.0
 40
1.537021907914254
100
AcDbArc
 50
242.6096722366
 51
297.3903277633
  0
LINE
  5
1A5
330
1F
100
AcDbEntity
  8
0
  6
Continuous
 62
     7
370
    25
100
AcDbLine
 10
3421.8831679398
 20
1595.0640212202
 30
0.0
 11
3425.4187018457
 21
1597.1050414997
 31
0.0
  0
ARC
  5
1A6
330
1F
100
AcDbEntity
  8
0
  6
Continuous
 62
     7
370
    25
100
AcDbCircle
 10
3425.2637748189
 20
1597.5132455556
 30
0.0
 40
0.4366153168341228
100
AcDbArc
 50
290.7834207994
 51
69.2165792006
  0
LINE
  5
1A7
330
1F
100
AcDbEntity
  8
0
  6
Continuous
 62
     7
370
    25
100
AcDbLine
 10
3425.4187018457
 20
1597.9214496115
 30
0.0
 11
3419.7618475962
 21
1601.1870820588
 31
0.0
  0
ARC
  5
1A8
330
1F
100
AcDbEntity
  8
0
  6
Continuous
 62
     7
370
    25
100
AcDbCircle
 10
3419.054740815
 20
1599.8223709739
 30
0.0
 40
1.537021907911629
100
AcDbArc
 50
62.6096722366
 51
117.3903277634
  0
LINE
  5
1A9
330
1F
100
AcDbEntity
  8
0
  6
Continuous
 62
     7
370
    25
100
AcDbLine
 10
3418.3476340338
 20
1601.1870820588
 30
0.0
 11
3414.8121001279
 21
1599.1460617793
 31
0.0
  0
ARC
  5
1AA
330
1F
100
AcDbEntity
  8
0
  6
Continuous
 62
     7
370
    25
100
AcDbCircle
 10
3697.8097396293
 20
1435.4562353588
 30
0.0
 40
0.4366153168344455
100
AcDbArc
 50
110.7834207995
 51
249.2165792005
  0
LINE
  5
1AB
330
1F
100
AcDbEntity
  8
0
  6
Continuous
 62
     7
370
    25
100
AcDbLine
 10
3697.6548126025
 20
1435.0480313029
 30
0.0
 11
3703.311666852
 21
1431.7823988556
 31
0.0
  0
ARC
  5
1AC
330
1F
100
AcDbEntity
  8
0
  6
Continuous
 62
     7
370
    25
100
AcDbCircle
 10
3704.0187736332
 20
1433.1471099406
 30
0.0
 40
1.537021907910209
100
AcDbArc
 50
242.6096722366
 51
297.3903277634
  0
LINE
  5
1AD
330
1F
100
AcDbEntity
  8
0
  6
Continuous
 62
     7
370
    25
100
AcDbLine
 10
3704.7258804144
 20
1431.7823988556
 30
0.0
 11
3708.2614143203
 21
1433.8234191352
 31
0.0
  0
ARC
  5
1AE
330
1F
100
AcDbEntity
  8
0
  6
Continuous
 62
     7
370
    25
100
AcDbCircle
 10
3708.1064872935
 20
1434.2316231911
 30
0.0
 40
0.4366153168344967
100
AcDbArc
 50
290.7834207994
 51
69.2165792005
  0
LINE
  5
1AF
330
1F
100
AcDbEntity
  8
0
  6
Continuous
 62
     7
370
    25
100
AcDbLine
 10
3708.2614143203
 20
1434.639827247
 30
0.0
 11
3702.6045600708
 21
1437.9054596943
 31
0.0
  0
ARC
  5
1B0
330
1F
100
AcDbEntity
  8
0
  6
Continuous
 62
     7
370
    25
100
AcDbCircle
 10
3701.8974532896
 20
1436.5407486093
 30
0.0
 40
1.537021907912429
100
AcDbArc
 50
62.6096722366
 51
117.3903277634
  0
LINE
  5
1B1
330
1F
100
AcDbEntity
  8
0
  6
Continuous
 62
     7
370
    25
100
AcDbLine
 10
3701.1903465084
 20
1437.9054596943
 30
0.0
 11
3697.6548126025
 21
1435.8644394147
 31
0.0
  0
ARC
  5
1B2
330
1F
100
AcDbEntity
  8
0
  6
Continuous
 62
     7
370
    25
100
AcDbCircle
 10
1319.8096344989
 20
389.229240058
 30
0.0
 40
0.4366153168342585
100
AcDbArc
 50
110.7834207995
 51
249.2165792005
  0
LINE
  5
1B3
330
1F
100
AcDbEntity
  8
0
  6
Continuous
 62
     7
370
    25
100
AcDbLine
 10
1319.6547074721
 20
388.8210360021
 30
0.0
 11
1325.3115617216
 21
385.5554035548
 31
0.0
  0
ARC
  5
1B4
330
1F
100
AcDbEntity
  8
0
  6
Continuous
 62
     7
370
    25
100
AcDbCircle
 10
1326.0186685028
 20
386.9201146398
 30
0.0
 40
1.537021907911975
100
AcDbArc
 50
242.6096722366
 51
297.3903277634
  0
LINE
  5
1B5
330
1F
100
AcDbEntity
  8
0
  6
Continuous
 62
     7
370
    25
100
AcDbLine
 10
1326.725775284
 20
385.5554035548
 30
0.0
 11
1330.2613091899
 21
387.5964238344
 31
0.0
  0
ARC
  5
1B6
330
1F
100
AcDbEntity
  8
0
  6
Continuous
 62
     7
370
    25
100
AcDbCircle
 10
1330.1063821631
 20
388.0046278903
 30
0.0
 40
0.4366153168341247
100
AcDbArc
 50
290.7834207994
 51
69.2165792006
  0
LINE
  5
1B7
330
1F
100
AcDbEntity
  8
0
  6
Continuous
 62
     7
370
    25
100
AcDbLine
 10
1330.2613091899
 20
388.4128319462
 30
0.0
 11
1324.6044549404
 21
391.6784643935
 31
0.0
  0
ARC
  5
1B8
330
1F
100
AcDbEntity
  8
0
  6
Continuous
 62
     7
370
    25
100
AcDbCircle
 10
1323.8973481593
 20
390.3137533085
 30
0.0
 40
1.537021907911874
100
AcDbArc
 50
62.6096722366
 51
117.3903277634
  0
LINE
  5
1B9
330
1F
100
AcDbEntity
  8
0
  6
Continuous
 62
     7
370
    25
100
AcDbLine
 10
1323.1902413781
 20
391.6784643935
 30
0.0
 11
1319.6547074721
 21
389.6374441139
 31
0.0
  0
ARC
  5
1BA
330
1F
100
AcDbEntity
  8
0
  6
Continuous
 62
     7
370
    25
100
AcDbCircle
 10
1602.6523469736
 20
225.9476176935
 30
0.0
 40
0.4366153168341779
100
AcDbArc
 50
110.7834207994
 51
249.2165792006
  0
LINE
  5
1BB
330
1F
100
AcDbEntity
  8
0
  6
Continuous
 62
     7
370
    25
100
AcDbLine
 10
1602.4974199468
 20
225.5394136376
 30
0.0
 11
1608.1542741963
 21
222.2737811903
 31
0.0
  0
ARC
  5
1BC
330
1F
100
AcDbEntity
  8
0
  6
Continuous
 62
     7
370
    25
100
AcDbCircle
 10
1608.8613809774
 20
223.6384922752
 30
0.0
 40
1.537021907911445
100
AcDbArc
 50
242.6096722366
 51
297.3903277634
  0
LINE
  5
1BD
330
1F
100
AcDbEntity
  8
0
  6
Continuous
 62
     7
370
    25
100
AcDbLine
 10
1609.5684877586
 20
222.2737811903
 30
0.0
 11
1613.1040216646
 21
224.3148014698
 31
0.0
  0
ARC
  5
1BE
330
1F
100
AcDbEntity
  8
0
  6
Continuous
 62
     7
370
    25
100
AcDbCircle
 10
1612.9490946378
 20
224.7230055257
 30
0.0
 40
0.4366153168341779
100
AcDbArc
 50
290.7834207994
 51
69.2165792006
  0
LINE
  5
1BF
330
1F
100
AcDbEntity
  8
0
  6
Continuous
 62
     7
370
    25
100
AcDbLine
 10
1613.1040216646
 20
225.1312095817
 30
0.0
 11
1607.4471674151
 21
228.396842029
 31
0.0
  0
ARC
  5
1C0
330
1F
100
AcDbEntity
  8
0
  6
Continuous
 62
     7
370
    25
100
AcDbCircle
 10
1606.7400606339
 20
227.032130944
 30
0.0
 40
1.537021907912278
100
AcDbArc
 50
62.6096722366
 51
117.3903277634
  0
LINE
  5
1C1
330
1F
100
AcDbEntity
  8
0
  6
Continuous
 62
     7
370
    25
100
AcDbLine
 10
1606.0329538527
 20
228.396842029
 30
0.0
 11
1602.4974199468
 21
226.3558217494
 31
0.0
  0
LINE
  5
1C2
330
1F
100
AcDbEntity
  8
0
  6
Continuous
 62
     7
370
    25
100
AcDbLine
 10
1663.6621565194
 20
176.7588299061
 30
0.0
 11
1242.9336217134
 21
419.6402431733
 31
0.0
  0
LINE
  5
1C3
330
1F
100
AcDbEntity
  8
0
  6
Continuous
 62
     7
370
    25
100
AcDbLine
 10
1688.4108938609
 20
202.0694055235
 30
0.0
 11
1675.6829717996
 21
194.7217325171
 31
0.0
  0
ARC
  5
1C4
330
1F
100
AcDbEntity
  8
0
  6
Continuous
 62
     7
370
    25
100
AcDbCircle
 10
1686.2376443724
 20
206.111573366
 30
0.0
 40
4.589350085386967
100
AcDbArc
 50
298.264454668
 51
17.7382019353
  0
LWPOLYLINE
  5
1C5
330
1F
100
AcDbEntity
  8
0
  6
Continuous
 62
     7
370
    25
100
AcDbPolyline
 90
        3
 70
   128
 43
0.0
 10
1711.0383108589
 20
235.5454556098
 10
1710.1918541896
 20
235.2291586032
 10
1709.9010547657
 20
235.2085384292
  0
LINE
  5
1C6
330
1F
100
AcDbEntity
  8
0
  6
Continuous
 62
     7
370
    25
100
AcDbLine
 10
1723.7662329203
 20
242.8931286162
 30
0.0
 11
1711.0383108589
 21
235.5454556098
 31
0.0
  0
ARC
  5
1C7
330
1F
100
AcDbEntity
  8
0
  6
Continuous
 62
     7
370
    25
100
AcDbCircle
 10
1721.5929834318
 20
246.9352964587
 30
0.0
 40
4.589350085340135
100
AcDbArc
 50
298.2644546677
 51
17.7382019367
  0
LWPOLYLINE
  5
1C8
330
1F
100
AcDbEntity
  8
0
  6
Continuous
 62
     7
370
    25
100
AcDbPolyline
 90
        3
 70
   128
 43
0.0
 10
1711.0383108589
 20
215.1319353127
 10
1710.1918541896
 20
214.815638306
 10
1709.9010547656
 20
214.7950181321
  0
LINE
  5
1C9
330
1F
100
AcDbEntity
  8
0
  6
Continuous
 62
     7
370
    25
100
AcDbLine
 10
1723.7662329203
 20
222.4796083191
 30
0.0
 11
1711.0383108589
 21
215.1319353127
 31
0.0
  0
ARC
  5
1CA
330
1F
100
AcDbEntity
  8
0
  6
Continuous
 62
     7
370
    25
100
AcDbCircle
 10
1721.5929834316
 20
226.5217761616
 30
0.0
 40
4.589350085489245
100
AcDbArc
 50
298.2644546686
 51
17.7382019322
  0
LINE
  5
1CB
330
1F
100
AcDbEntity
  8
0
  6
Continuous
 62
     7
370
    25
100
AcDbLine
 10
1612.7502958728
 20
224.1105999168
 30
0.0
 11
1607.4471674151
 21
227.1720308111
 31
0.0
  0
LINE
  5
1CC
330
1F
100
AcDbEntity
  8
0
  6
Continuous
 62
     7
370
    25
100
AcDbLine
 10
1606.0329538527
 20
227.1720308111
 30
0.0
 11
1602.8511457385
 21
225.3352120846
 31
0.0
  0
ARC
  5
1CD
330
1F
100
AcDbEntity
  8
0
  6
Continuous
 62
     7
370
    25
100
AcDbCircle
 10
1606.7400606339
 20
225.8073197262
 30
0.0
 40
1.537021907911344
100
AcDbArc
 50
62.6096722366
 51
117.3903277634
  0
LINE
  5
1CE
330
1F
100
AcDbEntity
  8
0
  6
Continuous
 62
     7
370
    25
100
AcDbLine
 10
1471.3289396355
 20
305.7514110991
 30
0.0
 11
1466.0258111778
 21
308.8128419934
 31
0.0
  0
LINE
  5
1CF
330
1F
100
AcDbEntity
  8
0
  6
Continuous
 62
     7
370
    25
100
AcDbLine
 10
1464.6115976154
 20
308.8128419934
 30
0.0
 11
1461.4297895012
 21
306.9760232668
 31
0.0
  0
ARC
  5
1D0
330
1F
100
AcDbEntity
  8
0
  6
Continuous
 62
     7
370
    25
100
AcDbCircle
 10
1465.3187043966
 20
307.4481309084
 30
0.0
 40
1.537021907911265
100
AcDbArc
 50
62.6096722366
 51
117.3903277634
  0
LINE
  5
1D1
330
1F
100
AcDbEntity
  8
0
  6
Continuous
 62
     7
370
    25
100
AcDbLine
 10
1244.5452358833
 20
476.0114184428
 30
0.0
 11
1241.7973230192
 21
474.9351335981
 31
0.0
  0
LINE
  5
1D2
330
1F
100
AcDbEntity
  8
0
  6
Continuous
 62
     7
370
    25
100
AcDbLine
 10
1241.519408151
 20
481.9223147422
 30
0.0
 11
1244.5452358833
 21
476.0114184428
 31
0.0
  0
LINE
  5
1D3
330
1F
100
AcDbEntity
  8
0
  6
Continuous
 62
     7
370
    25
100
AcDbLine
 10
1245.4721876767
 20
483.4705140151
 30
0.0
 11
1241.519408151
 21
481.9223147422
 31
0.0
  0
LINE
  5
1D4
330
1F
100
AcDbEntity
  8
0
  6
Continuous
 62
     7
370
    25
100
AcDbLine
 10
1247.8833691817
 20
482.0785685606
 30
0.0
 11
1245.4721876767
 21
483.4705140151
 31
0.0
  0
LINE
  5
1D5
330
1F
100
AcDbEntity
  8
0
  6
Continuous
 62
     7
370
    25
100
AcDbLine
 10
1247.8833691817
 20
475.7199995411
 30
0.0
 11
1247.8833691817
 21
482.0785685606
 31
0.0
  0
LINE
  5
1D6
330
1F
100
AcDbEntity
  8
0
  6
Continuous
 62
     7
370
    25
100
AcDbLine
 10
1247.8833691817
 20
475.7199995411
 30
0.0
 11
1242.4791022357
 21
473.6032910068
 31
0.0
  0
LINE
  5
1D7
330
1F
100
AcDbEntity
  8
0
  6
Continuous
 62
     7
370
    25
100
AcDbLine
 10
3369.2037127414
 20
1700.3321672751
 30
0.0
 11
1247.8833691817
 21
475.7199995411
 31
0.0
  0
LINE
  5
1D8
330
1F
100
AcDbEntity
  8
0
  6
Continuous
 62
     7
370
    25
100
AcDbLine
 10
3369.2037127414
 20
1706.6907362947
 30
0.0
 11
1247.8833691817
 21
482.0785685606
 31
0.0
  0
LINE
  5
1D9
330
1F
100
AcDbEntity
  8
0
  6
Continuous
 62
     7
370
    25
100
AcDbLine
 10
3369.2037127414
 20
1706.6907362947
 30
0.0
 11
3369.2037127414
 21
1700.3321672751
 31
0.0
  0
LINE
  5
1DA
330
1F
100
AcDbEntity
  8
0
  6
Continuous
 62
     7
370
    25
100
AcDbLine
 10
3366.7925312364
 20
1708.0826817491
 30
0.0
 11
1245.4721876767
 21
483.4705140151
 31
0.0
  0
LINE
  5
1DB
330
1F
100
AcDbEntity
  8
0
  6
Continuous
 62
     7
370
    25
100
AcDbLine
 10
3369.2037127414
 20
1706.6907362947
 30
0.0
 11
3366.7925312364
 21
1708.0826817491
 31
0.0
  0
LINE
  5
1DC
330
1F
100
AcDbEntity
  8
0
  6
Continuous
 62
     7
370
    25
100
AcDbLine
 10
3362.8397517107
 20
1706.5344824763
 30
0.0
 11
3366.7925312364
 21
1708.0826817491
 31
0.0
  0
LINE
  5
1DD
330
1F
100
AcDbEntity
  8
0
  6
Continuous
 62
     7
370
    25
100
AcDbLine
 10
1241.519408151
 20
481.9223147422
 30
0.0
 11
3362.8397517107
 21
1706.5344824763
 31
0.0
  0
LINE
  5
1DE
330
1F
100
AcDbEntity
  8
0
  6
Continuous
 62
     7
370
    25
100
AcDbLine
 10
1329.9075833982
 20
387.3922222814
 30
0.0
 11
1324.6044549404
 21
390.4536531757
 31
0.0
  0
LINE
  5
1DF
330
1F
100
AcDbEntity
  8
0
  6
Continuous
 62
     7
370
    25
100
AcDbLine
 10
1323.1902413781
 20
390.4536531757
 30
0.0
 11
1320.0084332639
 21
388.6168344491
 31
0.0
  0
ARC
  5
1E0
330
1F
100
AcDbEntity
  8
0
  6
Continuous
 62
     7
370
    25
100
AcDbCircle
 10
1323.8973481593
 20
389.0889420907
 30
0.0
 40
1.53702190791253
100
AcDbArc
 50
62.6096722366
 51
117.3903277634
  0
LINE
  5
1E1
330
1F
100
AcDbEntity
  8
0
  6
Continuous
 62
     7
370
    25
100
AcDbLine
 10
1241.7973230192
 20
474.9351335981
 30
0.0
 11
1241.1658547604
 21
474.6878041701
 31
0.0
  0
LINE
  5
1E2
330
1F
100
AcDbEntity
  8
0
  6
Continuous
 62
     7
370
    25
100
AcDbLine
 10
1244.2973819498
 20
476.4955963366
 30
0.0
 11
1241.1658547604
 21
474.6878041701
 31
0.0
  0
LINE
  5
1E3
330
1F
100
AcDbEntity
  8
0
  6
Continuous
 62
     7
370
    25
100
AcDbLine
 10
1241.1658547604
 20
474.6878041701
 30
0.0
 11
1241.1658547604
 21
473.7359060857
 31
0.0
  0
LINE
  5
1E4
330
1F
100
AcDbEntity
  8
0
  6
Continuous
 62
     7
370
    25
100
AcDbLine
 10
1242.2265149322
 20
473.5043592356
 30
0.0
 11
1242.2265149322
 21
473.1236000018
 31
0.0
  0
LINE
  5
1E5
330
1F
100
AcDbEntity
  8
0
  6
Continuous
 62
     7
370
    25
100
AcDbLine
 10
1242.4791022357
 20
473.6032910068
 30
0.0
 11
1242.2265149322
 21
473.5043592356
 31
0.0
  0
LINE
  5
1E6
330
1F
100
AcDbEntity
  8
0
  6
Continuous
 62
     7
370
    25
100
AcDbLine
 10
3363.5468584919
 20
1646.701966993
 30
0.0
 11
3363.5468584919
 21
1697.0665348278
 31
0.0
  0
LINE
  5
1E7
330
1F
100
AcDbEntity
  8
0
  6
Continuous
 62
     7
370
    25
100
AcDbLine
 10
3363.5468584919
 20
1646.701966993
 30
0.0
 11
3363.5468584919
 21
1645.8854261811
 31
0.0
  0
LINE
  5
1E8
330
1F
100
AcDbEntity
  8
0
  6
Continuous
 62
     7
370
    25
100
AcDbLine
 10
1242.2265149322
 20
422.089799259
 30
0.0
 11
1242.2265149322
 21
421.2732584471
 31
0.0
  0
LINE
  5
1E9
330
1F
100
AcDbEntity
  8
0
  6
Continuous
 62
     7
370
    25
100
AcDbLine
 10
1242.2265149322
 20
422.089799259
 30
0.0
 11
1242.2265149322
 21
473.1236000018
 31
0.0
  0
LINE
  5
1EA
330
1F
100
AcDbEntity
  8
0
  6
Continuous
 62
     7
370
    25
100
AcDbLine
 10
1288.8955624905
 20
458.8297566917
 30
0.0
 11
1301.6234845519
 21
466.1774296981
 31
0.0
  0
LWPOLYLINE
  5
1EB
330
1F
100
AcDbEntity
  8
0
  6
Continuous
 62
     7
370
    25
100
AcDbPolyline
 90
       10
 70
   128
 43
0.0
 10
1301.6234845519
 20
466.1774296981
 10
1302.4699412212
 20
466.8384307595
 10
1303.2143027237
 20
467.7644093922
 10
1303.7667880768
 20
468.8436789071
 10
1304.060759393
 20
469.9460634726
 10
1304.060759393
 20
470.9385992404
 10
1303.7667880768
 20
471.7015717487
 10
1303.2143027237
 20
472.1429552528
 10
1302.4699412212
 20
472.209512388
 10
1301.6234845519
 20
471.8932153813
  0
LINE
  5
1EC
330
1F
100
AcDbEntity
  8
0
  6
Continuous
 62
     7
370
    25
100
AcDbLine
 10
1301.6234845519
 20
471.8932153813
 30
0.0
 11
1288.8955624905
 21
464.5455423749
 31
0.0
  0
LWPOLYLINE
  5
1ED
330
1F
100
AcDbEntity
  8
0
  6
Continuous
 62
     7
370
    25
100
AcDbPolyline
 90
       10
 70
   128
 43
0.0
 10
1288.8955624905
 20
464.5455423749
 10
1288.0491058213
 20
463.8845413136
 10
1287.3047443187
 20
462.9585626809
 10
1286.7522589656
 20
461.8792931659
 10
1286.4582876494
 20
460.7769086005
 10
1286.4582876494
 20
459.7843728327
 10
1286.7522589656
 20
459.0214003243
 10
1287.3047443187
 20
458.5800168202
 10
1288.0491058213
 20
458.5134596851
 10
1288.8955624905
 20
458.8297566917
  0
LINE
  5
1EE
330
1F
100
AcDbEntity
  8
0
  6
Continuous
 62
     7
370
    25
100
AcDbLine
 10
3352.2331499929
 20
1655.6849775243
 30
0.0
 11
3339.5052279315
 21
1648.3373045179
 31
0.0
  0
LWPOLYLINE
  5
1EF
330
1F
100
AcDbEntity
  8
0
  6
Continuous
 62
     7
370
    25
100
AcDbPolyline
 90
       10
 70
   128
 43
0.0
 10
3339.5052279315
 20
1648.3373045179
 10
3338.6587712622
 20
1647.6763034565
 10
3337.9144097597
 20
1646.7503248238
 10
3337.3619244066
 20
1645.6710553088
 10
3337.0679530904
 20
1644.5686707434
 10
3337.0679530904
 20
1643.5761349756
 10
3337.3619244066
 20
1642.8131624672
 10
3337.9144097597
 20
1642.3717789631
 10
3338.6587712623
 20
1642.305221828
 10
3339.5052279315
 20
1642.6215188347
  0
LINE
  5
1F0
330
1F
100
AcDbEntity
  8
0
  6
Continuous
 62
     7
370
    25
100
AcDbLine
 10
3339.5052279315
 20
1642.6215188347
 30
0.0
 11
3352.2331499929
 21
1649.9691918411
 31
0.0
  0
LWPOLYLINE
  5
1F1
330
1F
100
AcDbEntity
  8
0
  6
Continuous
 62
     7
370
    25
100
AcDbPolyline
 90
       10
 70
   128
 43
0.0
 10
3352.2331499929
 20
1649.9691918411
 10
3353.0796066621
 20
1650.6301929024
 10
3353.8239681647
 20
1651.5561715351
 10
3354.3764535178
 20
1652.6354410501
 10
3354.670424834
 20
1653.7378256155
 10
3354.670424834
 20
1654.7303613833
 10
3354.3764535178
 20
1655.4933338917
 10
3353.8239681647
 20
1655.9347173958
 10
3353.0796066621
 20
1656.0012745309
 10
3352.2331499929
 20
1655.6849775243
  0
LINE
  5
1F2
330
1F
100
AcDbEntity
  8
0
  6
Continuous
 62
     7
370
    25
100
AcDbLine
 10
3316.8778109335
 20
1635.2747747287
 30
0.0
 11
3304.1498888722
 21
1627.9271017223
 31
0.0
  0
LWPOLYLINE
  5
1F3
330
1F
100
AcDbEntity
  8
0
  6
Continuous
 62
     7
370
    25
100
AcDbPolyline
 90
       10
 70
   128
 43
0.0
 10
3304.1498888722
 20
1627.9271017223
 10
3303.3034322029
 20
1627.266100661
 10
3302.5590707003
 20
1626.3401220283
 10
3302.0065853473
 20
1625.2608525133
 10
3301.7126140311
 20
1624.1584679478
 10
3301.7126140311
 20
1623.16593218
 10
3302.0065853473
 20
1622.4029596717
 10
3302.5590707003
 20
1621.9615761676
 10
3303.3034322029
 20
1621.8950190325
 10
3304.1498888722
 20
1622.2113160391
  0
LINE
  5
1F4
330
1F
100
AcDbEntity
  8
0
  6
Continuous
 62
     7
370
    25
100
AcDbLine
 10
3304.1498888722
 20
1622.2113160391
 30
0.0
 11
3316.8778109335
 21
1629.5589890455
 31
0.0
  0
LWPOLYLINE
  5
1F5
330
1F
100
AcDbEntity
  8
0
  6
Continuous
 62
     7
370
    25
100
AcDbPolyline
 90
       10
 70
   128
 43
0.0
 10
3316.8778109335
 20
1629.5589890455
 10
3317.7242676028
 20
1630.2199901068
 10
3318.4686291054
 20
1631.1459687395
 10
3319.0211144585
 20
1632.2252382545
 10
3319.3150857747
 20
1633.3276228199
 10
3319.3150857747
 20
1634.3201585878
 10
3319.0211144585
 20
1635.0831310961
 10
3318.4686291054
 20
1635.5245146002
 10
3317.7242676028
 20
1635.5910717353
 10
3316.8778109335
 20
1635.2747747287
  0
LINE
  5
1F6
330
1F
100
AcDbEntity
  8
0
  6
Continuous
 62
     7
370
    25
100
AcDbLine
 10
1253.5402234312
 20
438.4195538962
 30
0.0
 11
1266.2681454926
 21
445.7672269026
 31
0.0
  0
LWPOLYLINE
  5
1F7
330
1F
100
AcDbEntity
  8
0
  6
Continuous
 62
     7
370
    25
100
AcDbPolyline
 90
       10
 70
   128
 43
0.0
 10
1266.2681454926
 20
445.7672269026
 10
1267.1146021618
 20
446.4282279639
 10
1267.8589636644
 20
447.3542065966
 10
1268.4114490175
 20
448.4334761116
 10
1268.7054203337
 20
449.535860677
 10
1268.7054203337
 20
450.5283964448
 10
1268.4114490175
 20
451.2913689532
 10
1267.8589636644
 20
451.7327524573
 10
1267.1146021618
 20
451.7993095924
 10
1266.2681454926
 20
451.4830125858
  0
LINE
  5
1F8
330
1F
100
AcDbEntity
  8
0
  6
Continuous
 62
     7
370
    25
100
AcDbLine
 10
1266.2681454926
 20
451.4830125858
 30
0.0
 11
1253.5402234312
 21
444.1353395794
 31
0.0
  0
LWPOLYLINE
  5
1F9
330
1F
100
AcDbEntity
  8
0
  6
Continuous
 62
     7
370
    25
100
AcDbPolyline
 90
       10
 70
   128
 43
0.0
 10
1253.5402234312
 20
444.1353395794
 10
1252.6937667619
 20
443.474338518
 10
1251.9494052593
 20
442.5483598853
 10
1251.3969199063
 20
441.4690903703
 10
1251.1029485901
 20
440.3667058049
 10
1251.1029485901
 20
439.3741700371
 10
1251.3969199063
 20
438.6111975287
 10
1251.9494052593
 20
438.1698140247
 10
1252.6937667619
 20
438.1032568895
 10
1253.5402234312
 20
438.4195538962
  0
LINE
  5
1FA
330
1F
100
AcDbEntity
  8
0
  6
Continuous
 62
     7
370
    25
100
AcDbLine
 10
1288.8955624905
 20
479.2432769889
 30
0.0
 11
1301.6234845519
 21
486.5909499953
 31
0.0
  0
LWPOLYLINE
  5
1FB
330
1F
100
AcDbEntity
  8
0
  6
Continuous
 62
     7
370
    25
100
AcDbPolyline
 90
       10
 70
   128
 43
0.0
 10
1301.6234845519
 20
486.5909499953
 10
1302.4699412212
 20
487.2519510566
 10
1303.2143027237
 20
488.1779296893
 10
1303.7667880768
 20
489.2571992043
 10
1304.060759393
 20
490.3595837697
 10
1304.060759393
 20
491.3521195375
 10
1303.7667880768
 20
492.1150920459
 10
1303.2143027237
 20
492.55647555
 10
1302.4699412212
 20
492.6230326851
 10
1301.6234845519
 20
492.3067356785
  0
LINE
  5
1FC
330
1F
100
AcDbEntity
  8
0
  6
Continuous
 62
     7
370
    25
100
AcDbLine
 10
1301.6234845519
 20
492.3067356785
 30
0.0
 11
1288.8955624905
 21
484.9590626721
 31
0.0
  0
LWPOLYLINE
  5
1FD
330
1F
100
AcDbEntity
  8
0
  6
Continuous
 62
     7
370
    25
100
AcDbPolyline
 90
       10
 70
   128
 43
0.0
 10
1288.8955624905
 20
484.9590626721
 10
1288.0491058213
 20
484.2980616107
 10
1287.3047443187
 20
483.372082978
 10
1286.7522589656
 20
482.2928134631
 10
1286.4582876494
 20
481.1904288976
 10
1286.4582876494
 20
480.1978931298
 10
1286.7522589656
 20
479.4349206215
 10
1287.3047443187
 20
478.9935371174
 10
1288.0491058213
 20
478.9269799822
 10
1288.8955624905
 20
479.2432769889
  0
LINE
  5
1FE
330
1F
100
AcDbEntity
  8
0
  6
Continuous
 62
     7
370
    25
100
AcDbLine
 10
3352.2331499929
 20
1676.0984978214
 30
0.0
 11
3339.5052279315
 21
1668.750824815
 31
0.0
  0
LWPOLYLINE
  5
1FF
330
1F
100
AcDbEntity
  8
0
  6
Continuous
 62
     7
370
    25
100
AcDbPolyline
 90
       10
 70
   128
 43
0.0
 10
3339.5052279315
 20
1668.750824815
 10
3338.6587712622
 20
1668.0898237537
 10
3337.9144097597
 20
1667.163845121
 10
3337.3619244066
 20
1666.084575606
 10
3337.0679530904
 20
1664.9821910406
 10
3337.0679530904
 20
1663.9896552727
 10
3337.3619244066
 20
1663.2266827644
 10
3337.9144097597
 20
1662.7852992603
 10
3338.6587712623
 20
1662.7187421252
 10
3339.5052279315
 20
1663.0350391318
  0
LINE
  5
200
330
1F
100
AcDbEntity
  8
0
  6
Continuous
 62
     7
370
    25
100
AcDbLine
 10
3339.5052279315
 20
1663.0350391318
 30
0.0
 11
3352.2331499929
 21
1670.3827121382
 31
0.0
  0
LWPOLYLINE
  5
201
330
1F
100
AcDbEntity
  8
0
  6
Continuous
 62
     7
370
    25
100
AcDbPolyline
 90
       10
 70
   128
 43
0.0
 10
3352.2331499929
 20
1670.3827121382
 10
3353.0796066621
 20
1671.0437131995
 10
3353.8239681647
 20
1671.9696918322
 10
3354.3764535178
 20
1673.0489613472
 10
3354.670424834
 20
1674.1513459126
 10
3354.670424834
 20
1675.1438816805
 10
3354.3764535178
 20
1675.9068541888
 10
3353.8239681647
 20
1676.3482376929
 10
3353.0796066621
 20
1676.414794828
 10
3352.2331499929
 20
1676.0984978214
  0
LINE
  5
202
330
1F
100
AcDbEntity
  8
0
  6
Continuous
 62
     7
370
    25
100
AcDbLine
 10
3316.8778109335
 20
1655.6882950258
 30
0.0
 11
3304.1498888722
 21
1648.3406220194
 31
0.0
  0
LWPOLYLINE
  5
203
330
1F
100
AcDbEntity
  8
0
  6
Continuous
 62
     7
370
    25
100
AcDbPolyline
 90
       10
 70
   128
 43
0.0
 10
3304.1498888722
 20
1648.3406220194
 10
3303.3034322029
 20
1647.6796209581
 10
3302.5590707003
 20
1646.7536423254
 10
3302.0065853473
 20
1645.6743728104
 10
3301.7126140311
 20
1644.571988245
 10
3301.7126140311
 20
1643.5794524772
 10
3302.0065853473
 20
1642.8164799688
 10
3302.5590707003
 20
1642.3750964647
 10
3303.3034322029
 20
1642.3085393296
 10
3304.1498888722
 20
1642.6248363362
  0
LINE
  5
204
330
1F
100
AcDbEntity
  8
0
  6
Continuous
 62
     7
370
    25
100
AcDbLine
 10
3304.1498888722
 20
1642.6248363362
 30
0.0
 11
3316.8778109335
 21
1649.9725093426
 31
0.0
  0
LWPOLYLINE
  5
205
330
1F
100
AcDbEntity
  8
0
  6
Continuous
 62
     7
370
    25
100
AcDbPolyline
 90
       10
 70
   128
 43
0.0
 10
3316.8778109335
 20
1649.9725093426
 10
3317.7242676028
 20
1650.633510404
 10
3318.4686291054
 20
1651.5594890367
 10
3319.0211144585
 20
1652.6387585517
 10
3319.3150857747
 20
1653.7411431171
 10
3319.3150857747
 20
1654.7336788849
 10
3319.0211144585
 20
1655.4966513933
 10
3318.4686291054
 20
1655.9380348973
 10
3317.7242676028
 20
1656.0045920325
 10
3316.8778109335
 20
1655.6882950258
  0
LINE
  5
206
330
1F
100
AcDbEntity
  8
0
  6
Continuous
 62
     7
370
    25
100
AcDbLine
 10
1253.5402234312
 20
458.8330741933
 30
0.0
 11
1266.2681454926
 21
466.1807471997
 31
0.0
  0
LWPOLYLINE
  5
207
330
1F
100
AcDbEntity
  8
0
  6
Continuous
 62
     7
370
    25
100
AcDbPolyline
 90
       10
 70
   128
 43
0.0
 10
1266.2681454926
 20
466.1807471997
 10
1267.1146021618
 20
466.841748261
 10
1267.8589636644
 20
467.7677268937
 10
1268.4114490175
 20
468.8469964087
 10
1268.7054203337
 20
469.9493809742
 10
1268.7054203337
 20
470.941916742
 10
1268.4114490175
 20
471.7048892503
 10
1267.8589636644
 20
472.1462727544
 10
1267.1146021618
 20
472.2128298895
 10
1266.2681454926
 20
471.8965328829
  0
LINE
  5
208
330
1F
100
AcDbEntity
  8
0
  6
Continuous
 62
     7
370
    25
100
AcDbLine
 10
1266.2681454926
 20
471.8965328829
 30
0.0
 11
1253.5402234312
 21
464.5488598765
 31
0.0
  0
LWPOLYLINE
  5
209
330
1F
100
AcDbEntity
  8
0
  6
Continuous
 62
     7
370
    25
100
AcDbPolyline
 90
       10
 70
   128
 43
0.0
 10
1253.5402234312
 20
464.5488598765
 10
1252.6937667619
 20
463.8878588152
 10
1251.9494052593
 20
462.9618801825
 10
1251.3969199063
 20
461.8826106675
 10
1251.1029485901
 20
460.7802261021
 10
1251.1029485901
 20
459.7876903342
 10
1251.3969199063
 20
459.0247178259
 10
1251.9494052593
 20
458.5833343218
 10
1252.6937667619
 20
458.5167771867
 10
1253.5402234312
 20
458.8330741933
  0
LINE
  5
20A
330
1F
100
AcDbEntity
  8
0
  6
Continuous
 62
     7
370
    25
100
AcDbLine
 10
1241.1658547604
 20
422.7021053428
 30
0.0
 11
1241.1658547604
 21
473.7359060857
 31
0.0
  0
LWPOLYLINE
  5
20B
330
1F
100
AcDbEntity
  8
0
  6
Continuous
 62
     7
370
    25
100
AcDbPolyline
 90
        3
 70
   128
 43
0.0
 10
1251.3423071662
 20
459.1084630966
 10
1251.6331065902
 20
459.1290832705
 10
1252.4795632594
 20
459.4453802772
  0
LINE
  5
20C
330
1F
100
AcDbEntity
  8
0
  6
Continuous
 62
     7
370
    25
100
AcDbLine
 10
1252.4795632594
 20
459.4453802772
 30
0.0
 11
1265.2074853208
 21
466.7930532836
 31
0.0
  0
ARC
  5
20D
330
1F
100
AcDbEntity
  8
0
  6
Continuous
 62
     7
370
    25
100
AcDbCircle
 10
1263.0342358322
 20
470.8352211261
 30
0.0
 40
4.589350085458788
100
AcDbArc
 50
298.2644546684
 51
17.7382019331
  0
LWPOLYLINE
  5
20E
330
1F
100
AcDbEntity
  8
0
  6
Continuous
 62
     7
370
    25
100
AcDbPolyline
 90
        3
 70
   128
 43
0.0
 10
1251.3423071662
 20
438.6949427994
 10
1251.6331065902
 20
438.7155629734
 10
1252.4795632594
 20
439.03185998
  0
LWPOLYLINE
  5
20F
330
1F
100
AcDbEntity
  8
0
  6
Continuous
 62
     7
370
    25
100
AcDbPolyline
 90
        3
 70
   128
 43
0.0
 10
1258.8435242901
 20
423.5181817045
 10
1258.1463207696
 20
422.9433706617
 10
1257.9830368366
 20
422.7018731177
  0
LINE
  5
210
330
1F
100
AcDbEntity
  8
0
  6
Continuous
 62
     7
370
    25
100
AcDbLine
 10
1241.1658547604
 20
422.7021053428
 30
0.0
 11
1241.1658547604
 21
420.6607533131
 31
0.0
  0
LINE
  5
211
330
1F
100
AcDbEntity
  8
0
  6
Continuous
 62
     7
370
    25
100
AcDbLine
 10
1241.1658547604
 20
420.6607533131
 30
0.0
 11
1242.9336217134
 21
419.6402431733
 31
0.0
  0
LINE
  5
212
330
1F
100
AcDbEntity
  8
0
  6
Continuous
 62
     7
370
    25
100
AcDbLine
 10
1252.4795632594
 20
439.03185998
 30
0.0
 11
1265.2074853208
 21
446.3795329864
 31
0.0
  0
LINE
  5
213
330
1F
100
AcDbEntity
  8
0
  6
Continuous
 62
     7
370
    25
100
AcDbLine
 10
1271.5714463515
 20
430.8658547109
 30
0.0
 11
1258.8435242901
 21
423.5181817045
 31
0.0
  0
ARC
  5
214
330
1F
100
AcDbEntity
  8
0
  6
Continuous
 62
     7
370
    25
100
AcDbCircle
 10
1263.0342358322
 20
450.4217008289
 30
0.0
 40
4.589350085410032
100
AcDbArc
 50
298.2644546681
 51
17.7382019346
  0
LWPOLYLINE
  5
215
330
1F
100
AcDbEntity
  8
0
  6
Continuous
 62
     7
370
    25
100
AcDbPolyline
 90
        3
 70
   128
 43
0.0
 10
1286.6976462257
 20
479.5186658921
 10
1286.9884456495
 20
479.5392860661
 10
1287.8349023187
 20
479.8555830727
  0
ARC
  5
216
330
1F
100
AcDbEntity
  8
0
  6
Continuous
 62
     7
370
    25
100
AcDbCircle
 10
1273.9854413044
 20
426.9620405743
 30
0.0
 40
4.589895036484527
100
AcDbArc
 50
42.2738244985
 51
121.7313331992
  0
LINE
  5
217
330
1F
100
AcDbEntity
  8
0
  6
Continuous
 62
     7
370
    25
100
AcDbLine
 10
1287.8349023187
 20
479.8555830727
 30
0.0
 11
1300.5628243801
 21
487.2032560791
 31
0.0
  0
ARC
  5
218
330
1F
100
AcDbEntity
  8
0
  6
Continuous
 62
     7
370
    25
100
AcDbCircle
 10
1298.3895748915
 20
491.2454239217
 30
0.0
 40
4.589350085435265
100
AcDbArc
 50
298.2644546683
 51
17.7382019338
  0
LWPOLYLINE
  5
219
330
1F
100
AcDbEntity
  8
0
  6
Continuous
 62
     7
370
    25
100
AcDbPolyline
 90
        3
 70
   128
 43
0.0
 10
1286.6976462254
 20
459.105145595
 10
1286.9884456495
 20
459.125765769
 10
1287.8349023187
 20
459.4420627756
  0
LWPOLYLINE
  5
21A
330
1F
100
AcDbEntity
  8
0
  6
Continuous
 62
     7
370
    25
100
AcDbPolyline
 90
        3
 70
   128
 43
0.0
 10
1294.1988633494
 20
443.9283845001
 10
1293.5016598289
 20
443.3535734573
 10
1293.3383758959
 20
443.1120759133
  0
LINE
  5
21B
330
1F
100
AcDbEntity
  8
0
  6
Continuous
 62
     7
370
    25
100
AcDbLine
 10
1287.8349023187
 20
459.4420627756
 30
0.0
 11
1300.5628243801
 21
466.789735782
 31
0.0
  0
LINE
  5
21C
330
1F
100
AcDbEntity
  8
0
  6
Continuous
 62
     7
370
    25
100
AcDbLine
 10
1306.9267854108
 20
451.2760575065
 30
0.0
 11
1294.1988633494
 21
443.9283845001
 31
0.0
  0
ARC
  5
21D
330
1F
100
AcDbEntity
  8
0
  6
Continuous
 62
     7
370
    25
100
AcDbCircle
 10
1298.3895748914
 20
470.8319036246
 30
0.0
 40
4.589350085541241
100
AcDbArc
 50
298.2644546689
 51
17.7382019306
  0
ARC
  5
21E
330
1F
100
AcDbEntity
  8
0
  6
Continuous
 62
     7
370
    25
100
AcDbCircle
 10
1309.3407803638
 20
447.3722433698
 30
0.0
 40
4.589895036587558
100
AcDbArc
 50
42.2738245016
 51
121.7313331987
  0
LWPOLYLINE
  5
21F
330
1F
100
AcDbEntity
  8
0
  6
Continuous
 62
     7
370
    25
100
AcDbPolyline
 90
        3
 70
   128
 43
0.0
 10
3726.2926372406
 20
1398.9270149572
 10
3725.4461805713
 20
1398.6107179505
 10
3725.155381147
 20
1398.5900977766
  0
LINE
  5
220
330
1F
100
AcDbEntity
  8
0
  6
Continuous
 62
     7
370
    25
100
AcDbLine
 10
3739.0205593019
 20
1406.2746879636
 30
0.0
 11
3726.2926372406
 21
1398.9270149572
 31
0.0
  0
ARC
  5
221
330
1F
100
AcDbEntity
  8
0
  6
Continuous
 62
     7
370
    25
100
AcDbCircle
 10
3736.8473098134
 20
1410.3168558061
 30
0.0
 40
4.589350085432685
100
AcDbArc
 50
298.2644546682
 51
17.7382019339
  0
LWPOLYLINE
  5
222
330
1F
100
AcDbEntity
  8
0
  6
Continuous
 62
     7
370
    25
100
AcDbPolyline
 90
        3
 70
   128
 43
0.0
 10
3726.2926372406
 20
1378.51349466
 10
3725.4461805713
 20
1378.1971976534
 10
3725.1553811472
 20
1378.1765774794
  0
LINE
  5
223
330
1F
100
AcDbEntity
  8
0
  6
Continuous
 62
     7
370
    25
100
AcDbLine
 10
3739.0205593019
 20
1385.8611676664
 30
0.0
 11
3726.2926372406
 21
1378.51349466
 31
0.0
  0
ARC
  5
224
330
1F
100
AcDbEntity
  8
0
  6
Continuous
 62
     7
370
    25
100
AcDbCircle
 10
3736.8473098134
 20
1389.9033355089
 30
0.0
 40
4.589350085339304
100
AcDbArc
 50
298.2644546677
 51
17.7382019367
  0
LWPOLYLINE
  5
225
330
1F
100
AcDbEntity
  8
0
  6
Continuous
 62
     7
370
    25
100
AcDbPolyline
 90
        3
 70
   128
 43
0.0
 10
3761.6479762999
 20
1419.3372177527
 10
3760.8015196306
 20
1419.0209207461
 10
3760.5107202065
 20
1419.0003005721
  0
LINE
  5
226
330
1F
100
AcDbEntity
  8
0
  6
Continuous
 62
     7
370
    25
100
AcDbLine
 10
3774.3758983612
 20
1426.6848907591
 30
0.0
 11
3761.6479762999
 21
1419.3372177527
 31
0.0
  0
ARC
  5
227
330
1F
100
AcDbEntity
  8
0
  6
Continuous
 62
     7
370
    25
100
AcDbCircle
 10
3772.2026488727
 20
1430.7270586016
 30
0.0
 40
4.589350085377617
100
AcDbArc
 50
298.2644546679
 51
17.7382019356
  0
LWPOLYLINE
  5
228
330
1F
100
AcDbEntity
  8
0
  6
Continuous
 62
     7
370
    25
100
AcDbPolyline
 90
        3
 70
   128
 43
0.0
 10
3761.6479762999
 20
1398.9236974556
 10
3760.8015196306
 20
1398.6074004489
 10
3760.5107202065
 20
1398.586780275
  0
LINE
  5
229
330
1F
100
AcDbEntity
  8
0
  6
Continuous
 62
     7
370
    25
100
AcDbLine
 10
3774.3758983612
 20
1406.271370462
 30
0.0
 11
3761.6479762999
 21
1398.9236974556
 31
0.0
  0
ARC
  5
22A
330
1F
100
AcDbEntity
  8
0
  6
Continuous
 62
     7
370
    25
100
AcDbCircle
 10
3772.2026488727
 20
1410.3135383045
 30
0.0
 40
4.589350085443868
100
AcDbArc
 50
298.2644546683
 51
17.7382019336
  0
LINE
  5
22B
330
1F
100
AcDbEntity
  8
0
  6
Continuous
 62
     7
370
    25
100
AcDbLine
 10
3707.9076885286
 20
1433.6192175822
 30
0.0
 11
3702.6045600708
 21
1436.6806484765
 31
0.0
  0
LINE
  5
22C
330
1F
100
AcDbEntity
  8
0
  6
Continuous
 62
     7
370
    25
100
AcDbLine
 10
3701.1903465084
 20
1436.6806484765
 30
0.0
 11
3698.0085383942
 21
1434.8438297499
 31
0.0
  0
ARC
  5
22D
330
1F
100
AcDbEntity
  8
0
  6
Continuous
 62
     7
370
    25
100
AcDbCircle
 10
3701.8974532896
 20
1435.3159373915
 30
0.0
 40
1.537021907911218
100
AcDbArc
 50
62.6096722366
 51
117.3903277634
  0
LINE
  5
22E
330
1F
100
AcDbEntity
  8
0
  6
Continuous
 62
     7
370
    25
100
AcDbLine
 10
3566.4863322913
 20
1515.2600287644
 30
0.0
 11
3561.1832038335
 21
1518.3214596587
 31
0.0
  0
LINE
  5
22F
330
1F
100
AcDbEntity
  8
0
  6
Continuous
 62
     7
370
    25
100
AcDbLine
 10
3559.7689902711
 20
1518.3214596587
 30
0.0
 11
3556.5871821569
 21
1516.4846409322
 31
0.0
  0
ARC
  5
230
330
1F
100
AcDbEntity
  8
0
  6
Continuous
 62
     7
370
    25
100
AcDbCircle
 10
3560.4760970523
 20
1516.9567485738
 30
0.0
 40
1.537021907913648
100
AcDbArc
 50
62.6096722366
 51
117.3903277634
  0
LWPOLYLINE
  5
231
330
1F
100
AcDbEntity
  8
0
  6
Continuous
 62
     7
370
    25
100
AcDbPolyline
 90
        3
 70
   128
 43
0.0
 10
3301.9519726071
 20
1642.9002252395
 10
3302.2427720311
 20
1642.9208454135
 10
3303.0892287004
 20
1643.2371424201
  0
LINE
  5
232
330
1F
100
AcDbEntity
  8
0
  6
Continuous
 62
     7
370
    25
100
AcDbLine
 10
3303.0892287004
 20
1643.2371424201
 30
0.0
 11
3315.8171507618
 21
1650.5848154265
 31
0.0
  0
LINE
  5
233
330
1F
100
AcDbEntity
  8
0
  6
Continuous
 62
     7
370
    25
100
AcDbLine
 10
3425.064976054
 20
1596.9008399467
 30
0.0
 11
3419.7618475962
 21
1599.962270841
 31
0.0
  0
LINE
  5
234
330
1F
100
AcDbEntity
  8
0
  6
Continuous
 62
     7
370
    25
100
AcDbLine
 10
3418.3476340338
 20
1599.962270841
 30
0.0
 11
3415.1658259196
 21
1598.1254521145
 31
0.0
  0
ARC
  5
235
330
1F
100
AcDbEntity
  8
0
  6
Continuous
 62
     7
370
    25
100
AcDbCircle
 10
3313.6439012732
 20
1654.626983269
 30
0.0
 40
4.589350085456609
100
AcDbArc
 50
298.2644546684
 51
17.7382019332
  0
ARC
  5
236
330
1F
100
AcDbEntity
  8
0
  6
Continuous
 62
     7
370
    25
100
AcDbCircle
 10
3419.054740815
 20
1598.597559756
 30
0.0
 40
1.537021907913244
100
AcDbArc
 50
62.6096722366
 51
117.3903277634
  0
LWPOLYLINE
  5
237
330
1F
100
AcDbEntity
  8
0
  6
Continuous
 62
     7
370
    25
100
AcDbPolyline
 90
        3
 70
   128
 43
0.0
 10
3301.9519726072
 20
1622.4867049424
 10
3302.2427720311
 20
1622.5073251163
 10
3303.0892287004
 20
1622.823622123
  0
LWPOLYLINE
  5
238
330
1F
100
AcDbEntity
  8
0
  6
Continuous
 62
     7
370
    25
100
AcDbPolyline
 90
        3
 70
   128
 43
0.0
 10
3309.4531897311
 20
1607.3099438474
 10
3308.7559862106
 20
1606.7351328046
 10
3308.5927022776
 20
1606.4936352607
  0
LINE
  5
239
330
1F
100
AcDbEntity
  8
0
  6
Continuous
 62
     7
370
    25
100
AcDbLine
 10
3303.0892287004
 20
1622.823622123
 30
0.0
 11
3315.8171507618
 21
1630.1712951294
 31
0.0
  0
LINE
  5
23A
330
1F
100
AcDbEntity
  8
0
  6
Continuous
 62
     7
370
    25
100
AcDbLine
 10
3322.1811117924
 20
1614.6576168538
 30
0.0
 11
3309.4531897311
 21
1607.3099438474
 31
0.0
  0
ARC
  5
23B
330
1F
100
AcDbEntity
  8
0
  6
Continuous
 62
     7
370
    25
100
AcDbCircle
 10
3313.6439012732
 20
1634.2134629719
 30
0.0
 40
4.589350085472082
100
AcDbArc
 50
298.2644546685
 51
17.7382019327
  0
LWPOLYLINE
  5
23C
330
1F
100
AcDbEntity
  8
0
  6
Continuous
 62
     7
370
    25
100
AcDbPolyline
 90
        3
 70
   128
 43
0.0
 10
3337.3073116665
 20
1663.3104280351
 10
3337.5981110905
 20
1663.331048209
 10
3338.4445677597
 20
1663.6473452157
  0
ARC
  5
23D
330
1F
100
AcDbEntity
  8
0
  6
Continuous
 62
     7
370
    25
100
AcDbCircle
 10
3324.5951067454
 20
1610.7538027173
 30
0.0
 40
4.589895036432682
100
AcDbArc
 50
42.273824497
 51
121.7313331996
  0
LINE
  5
23E
330
1F
100
AcDbEntity
  8
0
  6
Continuous
 62
     7
370
    25
100
AcDbLine
 10
3338.4445677597
 20
1663.6473452157
 30
0.0
 11
3351.1724898211
 21
1670.9950182221
 31
0.0
  0
ARC
  5
23F
330
1F
100
AcDbEntity
  8
0
  6
Continuous
 62
     7
370
    25
100
AcDbCircle
 10
3348.9992403326
 20
1675.0371860646
 30
0.0
 40
4.589350085410824
100
AcDbArc
 50
298.2644546681
 51
17.7382019346
  0
LWPOLYLINE
  5
240
330
1F
100
AcDbEntity
  8
0
  6
Continuous
 62
     7
370
    25
100
AcDbPolyline
 90
        3
 70
   128
 43
0.0
 10
3337.3073116666
 20
1642.8969077379
 10
3337.5981110905
 20
1642.9175279119
 10
3338.4445677597
 20
1643.2338249185
  0
LWPOLYLINE
  5
241
330
1F
100
AcDbEntity
  8
0
  6
Continuous
 62
     7
370
    25
100
AcDbPolyline
 90
        3
 70
   128
 43
0.0
 10
3344.8085287904
 20
1627.720146643
 10
3344.1113252699
 20
1627.1453356002
 10
3343.9480413369
 20
1626.9038380562
  0
LINE
  5
242
330
1F
100
AcDbEntity
  8
0
  6
Continuous
 62
     7
370
    25
100
AcDbLine
 10
3338.4445677597
 20
1643.2338249185
 30
0.0
 11
3351.1724898211
 21
1650.5814979249
 31
0.0
  0
LINE
  5
243
330
1F
100
AcDbEntity
  8
0
  6
Continuous
 62
     7
370
    25
100
AcDbLine
 10
3357.5364508518
 20
1635.0678196494
 30
0.0
 11
3344.8085287904
 21
1627.720146643
 31
0.0
  0
ARC
  5
244
330
1F
100
AcDbEntity
  8
0
  6
Continuous
 62
     7
370
    25
100
AcDbCircle
 10
3348.9992403326
 20
1654.6236657674
 30
0.0
 40
4.5893500853867
100
AcDbArc
 50
298.264454668
 51
17.7382019353
  0
ARC
  5
245
330
1F
100
AcDbEntity
  8
0
  6
Continuous
 62
     7
370
    25
100
AcDbCircle
 10
3359.9504458047
 20
1631.1640055129
 30
0.0
 40
4.589895036368872
100
AcDbArc
 50
42.273824495
 51
121.7313331999
  0
ENDSEC
  0
SECTION
  2
OBJECTS
  0
DICTIONARY
  5
C
330
0
100
AcDbDictionary
281
     1
  3
ACAD_GROUP
350
D
  3
ACAD_LAYOUT
350
1A
  3
ACAD_MLINESTYLE
350
17
  3
ACAD_PLOTSETTINGS
350
19
  3
ACAD_PLOTSTYLENAME
350
E
  3
ACAD_SCALELIST
350
47
  0
DICTIONARY
  5
D
102
{ACAD_REACTORS
330
C
102
}
330
C
100
AcDbDictionary
281
     1
  0
DICTIONARY
  5
1A
102
{ACAD_REACTORS
330
C
102
}
330
C
100
AcDbDictionary
281
     1
  3
Layout1
350
1E
  3
Layout2
350
26
  3
Model
350
22
  0
DICTIONARY
  5
17
102
{ACAD_REACTORS
330
C
102
}
330
C
100
AcDbDictionary
281
     1
  3
Standard
350
18
  0
DICTIONARY
  5
19
102
{ACAD_REACTORS
330
C
102
}
330
C
100
AcDbDictionary
281
     1
  0
ACDBDICTIONARYWDFLT
  5
E
102
{ACAD_REACTORS
330
C
102
}
330
C
100
AcDbDictionary
281
     1
  3
Normal
350
F
100
AcDbDictionaryWithDefault
340
F
  0
DICTIONARY
  5
47
102
{ACAD_REACTORS
330
C
102
}
330
C
100
AcDbDictionary
281
     1
  3
A0
350
48
  3
A1
350
49
  3
A2
350
4A
  3
A3
350
4B
  3
A4
350
4C
  3
A5
350
4D
  3
A6
350
4E
  3
A7
350
4F
  3
A8
350
50
  3
A9
350
51
  3
B0
350
52
  3
B1
350
53
  3
B2
350
54
  3
B3
350
55
  3
B4
350
56
  3
B5
350
57
  3
B6
350
58
  3
B7
350
59
  3
B8
350
5A
  3
B9
350
5B
  3
C0
350
5C
  3
C1
350
5D
  3
C2
350
5E
  3
C3
350
5F
  3
C4
350
60
  3
C5
350
61
  3
C6
350
62
  3
C7
350
63
  3
C8
350
64
  3
C9
350
65
  3
D0
350
66
  3
D1
350
67
  3
D2
350
68
  0
LAYOUT
  5
1E
102
{ACAD_REACTORS
330
1A
102
}
330
1A
100
AcDbPlotSettings
  1

  2
none_device
  4

  6

 40
0.0
 41
0.0
 42
0.0
 43
0.0
 44
0.0
 45
0.0
 46
0.0
 47
0.0
 48
0.0
 49
0.0
140
0.0
141
0.0
142
1.0
143
1.0
 70
   688
 72
     1
 73
     0
 74
     5
  7

 75
    16
147
1.0
148
0.0
149
0.0
100
AcDbLayout
  1
Layout1
 70
     1
 71
     1
 10
0.0
 20
0.0
 11
420.0
 21
297.0
 12
0.0
 22
0.0
 32
0.0
 14
1.0000000000E+20
 24
1.0000000000E+20
 34
1.0000000000E+20
 15
-1.0000000000E+20
 25
-1.0000000000E+20
 35
-1.0000000000E+20
146
0.0
 13
0.0
 23
0.0
 33
0.0
 16
1.0
 26
0.0
 36
0.0
 17
0.0
 27
1.0
 37
0.0
 76
     0
330
1B
  0
LAYOUT
  5
26
102
{ACAD_REACTORS
330
1A
102
}
330
1A
100
AcDbPlotSettings
  1

  2
none_device
  4

  6

 40
0.0
 41
0.0
 42
0.0
 43
0.0
 44
0.0
 45
0.0
 46
0.0
 47
0.0
 48
0.0
 49
0.0
140
0.0
141
0.0
142
1.0
143
1.0
 70
   688
 72
     1
 73
     0
 74
     5
  7

 75
    16
147
1.0
148
0.0
149
0.0
100
AcDbLayout
  1
Layout2
 70
     1
 71
     2
 10
0.0
 20
0.0
 11
0.0
 21
0.0
 12
0.0
 22
0.0
 32
0.0
 14
0.0
 24
0.0
 34
0.0
 15
0.0
 25
0.0
 35
0.0
146
0.0
 13
0.0
 23
0.0
 33
0.0
 16
1.0
 26
0.0
 36
0.0
 17
0.0
 27
1.0
 37
0.0
 76
     0
330
23
  0
LAYOUT
  5
22
102
{ACAD_REACTORS
330
1A
102
}
330
1A
100
AcDbPlotSettings
  1

  2
none_device
  4
Letter_(8.50_x_11.00_Inches)
  6

 40
6.35
 41
6.35
 42
6.35000508
 43
6.35000508
 44
215.9
 45
279.4
 46
0.0
 47
0.0
 48
0.0
 49
0.0
140
0.0
141
0.0
142
1.0
143
1.0
 70
  1712
 72
     1
 73
     0
 74
     0
  7

 75
     0
147
1.0
148
0.0
149
0.0
100
AcDbLayout
  1
Model
 70
     1
 71
     0
 10
0.0
 20
0.0
 11
4000.0
 21
3300.0
 12
0.0
 22
0.0
 32
0.0
 14
0.0
 24
0.0
 34
0.0
 15
4000.0
 25
3300.0
 35
0.0
146
0.0
 13
0.0
 23
0.0
 33
0.0
 16
1.0
 26
0.0
 36
0.0
 17
0.0
 27
1.0
 37
0.0
 76
     0
330
1F
331
29
  0
MLINESTYLE
  5
18
102
{ACAD_REACTORS
330
17
102
}
330
17
100
AcDbMlineStyle
  2
Standard
 70
     0
  3

 62
   256
 51
90.0
 52
90.0
 71
     2
 49
0.5
 62
   256
  6
BYLAYER
 49
-0.5
 62
   256
  6
BYLAYER
  0
ACDBPLACEHOLDER
  5
F
102
{ACAD_REACTORS
330
E
102
}
330
E
  0
SCALE
  5
48
102
{ACAD_REACTORS
330
47
102
}
330
47
100
AcDbScale
 70
     0
300
1:1
140
1.0
141
1.0
290
     1
  0
SCALE
  5
49
102
{ACAD_REACTORS
330
47
102
}
330
47
100
AcDbScale
 70
     0
300
1:2
140
1.0
141
2.0
290
     0
  0
SCALE
  5
4A
102
{ACAD_REACTORS
330
47
102
}
330
47
100
AcDbScale
 70
     0
300
1:4
140
1.0
141
4.0
290
     0
  0
SCALE
  5
4B
102
{ACAD_REACTORS
330
47
102
}
330
47
100
AcDbScale
 70
     0
300
1:5
140
1.0
141
5.0
290
     0
  0
SCALE
  5
4C
102
{ACAD_REACTORS
330
47
102
}
330
47
100
AcDbScale
 70
     0
300
1:8
140
1.0
141
8.0
290
     0
  0
SCALE
  5
4D
102
{ACAD_REACTORS
330
47
102
}
330
47
100
AcDbScale
 70
     0
300
1:10
140
1.0
141
10.0
290
     0
  0
SCALE
  5
4E
102
{ACAD_REACTORS
330
47
102
}
330
47
100
AcDbScale
 70
     0
300
1:16
140
1.0
141
16.0
290
     0
  0
SCALE
  5
4F
102
{ACAD_REACTORS
330
47
102
}
330
47
100
AcDbScale
 70
     0
300
1:20
140
1.0
141
20.0
290
     0
  0
SCALE
  5
50
102
{ACAD_REACTORS
330
47
102
}
330
47
100
AcDbScale
 70
     0
300
1:30
140
1.0
141
30.0
290
     0
  0
SCALE
  5
51
102
{ACAD_REACTORS
330
47
102
}
330
47
100
AcDbScale
 70
     0
300
1:40
140
1.0
141
40.0
290
     0
  0
SCALE
  5
52
102
{ACAD_REACTORS
330
47
102
}
330
47
100
AcDbScale
 70
     0
300
1:50
140
1.0
141
50.0
290
     0
  0
SCALE
  5
53
102
{ACAD_REACTORS
330
47
102
}
330
47
100
AcDbScale
 70
     0
300
1:100
140
1.0
141
100.0
290
     0
  0
SCALE
  5
54
102
{ACAD_REACTORS
330
47
102
}
330
47
100
AcDbScale
 70
     0
300
2:1
140
2.0
141
1.0
290
     0
  0
SCALE
  5
55
102
{ACAD_REACTORS
330
47
102
}
330
47
100
AcDbScale
 70
     0
300
4:1
140
4.0
141
1.0
290
     0
  0
SCALE
  5
56
102
{ACAD_REACTORS
330
47
102
}
330
47
100
AcDbScale
 70
     0
300
8:1
140
8.0
141
1.0
290
     0
  0
SCALE
  5
57
102
{ACAD_REACTORS
330
47
102
}
330
47
100
AcDbScale
 70
     0
300
10:1
140
10.0
141
1.0
290
     0
  0
SCALE
  5
58
102
{ACAD_REACTORS
330
47
102
}
330
47
100
AcDbScale
 70
     0
300
100:1
140
100.0
141
1.0
290
     0
  0
SCALE
  5
59
102
{ACAD_REACTORS
330
47
102
}
330
47
100
AcDbScale
 70
     0
300
1/128" = 1'-0"
140
0.0078125
141
12.0
290
     0
  0
SCALE
  5
5A
102
{ACAD_REACTORS
330
47
102
}
330
47
100
AcDbScale
 70
     0
300
1/64" = 1'-0"
140
0.015625
141
12.0
290
     0
  0
SCALE
  5
5B
102
{ACAD_REACTORS
330
47
102
}
330
47
100
AcDbScale
 70
     0
300
1/32" = 1'-0"
140
0.03125
141
12.0
290
     0
  0
SCALE
  5
5C
102
{ACAD_REACTORS
330
47
102
}
330
47
100
AcDbScale
 70
     0
300
1/16" = 1'-0"
140
0.0625
141
12.0
290
     0
  0
SCALE
  5
5D
102
{ACAD_REACTORS
330
47
102
}
330
47
100
AcDbScale
 70
     0
300
3/32" = 1'-0"
140
0.09375
141
12.0
290
     0
  0
SCALE
  5
5E
102
{ACAD_REACTORS
330
47
102
}
330
47
100
AcDbScale
 70
     0
300
1/8" = 1'-0"
140
0.125
141
12.0
290
     0
  0
SCALE
  5
5F
102
{ACAD_REACTORS
330
47
102
}
330
47
100
AcDbScale
 70
     0
300
3/16" = 1'-0"
140
0.1875
141
12.0
290
     0
  0
SCALE
  5
60
102
{ACAD_REACTORS
330
47
102
}
330
47
100
AcDbScale
 70
     0
300
1/4" = 1'-0"
140
0.25
141
12.0
290
     0
  0
SCALE
  5
61
102
{ACAD_REACTORS
330
47
102
}
330
47
100
AcDbScale
 70
     0
300
3/8" = 1'-0"
140
0.375
141
12.0
290
     0
  0
SCALE
  5
62
102
{ACAD_REACTORS
330
47
102
}
330
47
100
AcDbScale
 70
     0
300
1/2" = 1'-0"
140
0.5
141
12.0
290
     0
  0
SCALE
  5
63
102
{ACAD_REACTORS
330
47
102
}
330
47
100
AcDbScale
 70
     0
300
3/4" = 1'-0"
140
0.75
141
12.0
290
     0
  0
SCALE
  5
64
102
{ACAD_REACTORS
330
47
102
}
330
47
100
AcDbScale
 70
     0
300
1" = 1'-0"
140
1.0
141
12.0
290
     0
  0
SCALE
  5
65
102
{ACAD_REACTORS
330
47
102
}
330
47
100
AcDbScale
 70
     0
300
1-1/2" = 1'-0"
140
1.5
141
12.0
290
     0
  0
SCALE
  5
66
102
{ACAD_REACTORS
330
47
102
}
330
47
100
AcDbScale
 70
     0
300
3" = 1'-0"
140
3.0
141
12.0
290
     0
  0
SCALE
  5
67
102
{ACAD_REACTORS
330
47
102
}
330
47
100
AcDbScale
 70
     0
300
6" = 1'-0"
140
6.0
141
12.0
290
     0
  0
SCALE
  5
68
102
{ACAD_REACTORS
330
47
102
}
330
47
100
AcDbScale
 70
     0
300
1'-0" = 1'-0"
140
12.0
141
12.0
290
     0
  0
ENDSEC
  0
EOF
