  0
SECTION
  2
HEADER
  9
$ACADVER
  1
AC1015
  9
$ACADMAINTVER
 70
     6
  9
$DWGCODEPAGE
  3
ANSI_1251
  9
$INSBASE
 10
0.0
 20
0.0
 30
0.0
  9
$EXTMIN
 10
0.0
 20
0.0
 30
0.0
  9
$EXTMAX
 10
4000.0
 20
3300.0
 30
0.0
  9
$LIMMIN
 10
0.0
 20
0.0
  9
$LIMMAX
 10
4000.0
 20
3300.0
  9
$ORTHOMODE
 70
     0
  9
$REGENMODE
 70
     1
  9
$FILLMODE
 70
     1
  9
$QTEXTMODE
 70
     0
  9
$MIRRTEXT
 70
     1
  9
$LTSCALE
 40
1.0
  9
$ATTMODE
 70
     1
  9
$TEXTSIZE
 40
3.5
  9
$TRACEWID
 40
1.0
  9
$TEXTSTYLE
  7
Standard
  9
$CLAYER
  8
0
  9
$CELTYPE
  6
ByLayer
  9
$CECOLOR
 62
   256
  9
$CELTSCALE
 40
1.0
  9
$DISPSILH
 70
     0
  9
$DIMSCALE
 40
1.0
  9
$DIMASZ
 40
3.302
  9
$DIMEXO
 40
0.0
  9
$DIMDLI
 40
3.75
  9
$DIMRND
 40
0.0
  9
$DIMDLE
 40
0.0
  9
$DIMEXE
 40
1.0
  9
$DIMTP
 40
0.0
  9
$DIMTM
 40
0.0
  9
$DIMTXT
 40
3.5
  9
$DIMCEN
 40
2.5
  9
$DIMTSZ
 40
0.0
  9
$DIMTOL
 70
     0
  9
$DIMLIM
 70
     0
  9
$DIMTIH
 70
     1
  9
$DIMTOH
 70
     1
  9
$DIMSE1
 70
     0
  9
$DIMSE2
 70
     0
  9
$DIMTAD
 70
     1
  9
$DIMZIN
 70
     0
  9
$DIMBLK
  1

  9
$DIMASO
 70
     1
  9
$DIMSHO
 70
     1
  9
$DIMPOST
  1

  9
$DIMAPOST
  1

  9
$DIMALT
 70
     0
  9
$DIMALTD
 70
     3
  9
$DIMALTF
 40
0.0393700787
  9
$DIMLFAC
 40
1.0
  9
$DIMTOFL
 70
     1
  9
$DIMTVP
 40
0.0
  9
$DIMTIX
 70
     0
  9
$DIMSOXD
 70
     0
  9
$DIMSAH
 70
     0
  9
$DIMBLK1
  1

  9
$DIMBLK2
  1

  9
$DIMSTYLE
  2
ISO-25
  9
$DIMCLRD
 70
     0
  9
$DIMCLRE
 70
     0
  9
$DIMCLRT
 70
     0
  9
$DIMTFAC
 40
1.0
  9
$DIMGAP
 40
1.524
  9
$DIMJUST
 70
     0
  9
$DIMSD1
 70
     0
  9
$DIMSD2
 70
     0
  9
$DIMTOLJ
 70
     0
  9
$DIMTZIN
 70
     0
  9
$DIMALTZ
 70
     0
  9
$DIMALTTZ
 70
     0
  9
$DIMUPT
 70
     0
  9
$DIMDEC
 70
     2
  9
$DIMTDEC
 70
     2
  9
$DIMALTU
 70
     2
  9
$DIMALTTD
 70
     3
  9
$DIMTXSTY
  7
Standard
  9
$DIMAUNIT
 70
     0
  9
$DIMADEC
 70
     2
  9
$DIMALTRND
 40
0.0
  9
$DIMAZIN
 70
     0
  9
$DIMDSEP
 70
    44
  9
$DIMATFIT
 70
     3
  9
$DIMFRAC
 70
     0
  9
$DIMLDRBLK
  1

  9
$DIMLUNIT
 70
     2
  9
$DIMLWD
 70
    -2
  9
$DIMLWE
 70
    -2
  9
$DIMTMOVE
 70
     0
  9
$LUNITS
 70
     2
  9
$LUPREC
 70
     1
  9
$SKETCHINC
 40
1.0
  9
$FILLETRAD
 40
10.0
  9
$AUNITS
 70
     1
  9
$AUPREC
 70
     2
  9
$MENU
  1
.
  9
$ELEVATION
 40
0.0
  9
$PELEVATION
 40
0.0
  9
$THICKNESS
 40
0.0
  9
$LIMCHECK
 70
     0
  9
$CHAMFERA
 40
0.0
  9
$CHAMFERB
 40
0.0
  9
$CHAMFERC
 40
0.0
  9
$CHAMFERD
 40
0.0
  9
$SKPOLY
 70
     0
  9
$TDCREATE
 40
2459492.743842558
  9
$TDUCREATE
 40
2459492.618842558
  9
$TDUPDATE
 40
2459492.743844063
  9
$TDUUPDATE
 40
2459492.618844063
  9
$TDINDWG
 40
0.0000000116
  9
$TDUSRTIMER
 40
0.0000000116
  9
$USRTIMER
 70
     1
  9
$ANGBASE
 50
0.0
  9
$ANGDIR
 70
     0
  9
$PDMODE
 70
     0
  9
$PDSIZE
 40
-1.0
  9
$PLINEWID
 40
0.0
  9
$SPLFRAME
 70
     0
  9
$SPLINETYPE
 70
     6
  9
$SPLINESEGS
 70
     8
  9
$HANDSEED
  5
246
  9
$SURFTAB1
 70
     6
  9
$SURFTAB2
 70
     6
  9
$SURFTYPE
 70
     6
  9
$SURFU
 70
     6
  9
$SURFV
 70
     6
  9
$UCSBASE
  2

  9
$UCSNAME
  2

  9
$UCSORG
 10
0.0
 20
0.0
 30
0.0
  9
$UCSXDIR
 10
1.0
 20
0.0
 30
0.0
  9
$UCSYDIR
 10
0.0
 20
1.0
 30
0.0
  9
$UCSORTHOREF
  2

  9
$UCSORTHOVIEW
 70
     0
  9
$UCSORGTOP
 10
0.0
 20
0.0
 30
0.0
  9
$UCSORGBOTTOM
 10
0.0
 20
0.0
 30
0.0
  9
$UCSORGLEFT
 10
0.0
 20
0.0
 30
0.0
  9
$UCSORGRIGHT
 10
0.0
 20
0.0
 30
0.0
  9
$UCSORGFRONT
 10
0.0
 20
0.0
 30
0.0
  9
$UCSORGBACK
 10
0.0
 20
0.0
 30
0.0
  9
$PUCSBASE
  2

  9
$PUCSNAME
  2

  9
$PUCSORG
 10
0.0
 20
0.0
 30
0.0
  9
$PUCSXDIR
 10
1.0
 20
0.0
 30
0.0
  9
$PUCSYDIR
 10
0.0
 20
1.0
 30
0.0
  9
$PUCSORTHOREF
  2

  9
$PUCSORTHOVIEW
 70
     0
  9
$PUCSORGTOP
 10
0.0
 20
0.0
 30
0.0
  9
$PUCSORGBOTTOM
 10
0.0
 20
0.0
 30
0.0
  9
$PUCSORGLEFT
 10
0.0
 20
0.0
 30
0.0
  9
$PUCSORGRIGHT
 10
0.0
 20
0.0
 30
0.0
  9
$PUCSORGFRONT
 10
0.0
 20
0.0
 30
0.0
  9
$PUCSORGBACK
 10
0.0
 20
0.0
 30
0.0
  9
$USERI1
 70
     0
  9
$USERI2
 70
     0
  9
$USERI3
 70
     0
  9
$USERI4
 70
     0
  9
$USERI5
 70
     0
  9
$USERR1
 40
0.0
  9
$USERR2
 40
0.0
  9
$USERR3
 40
0.0
  9
$USERR4
 40
0.0
  9
$USERR5
 40
0.0
  9
$WORLDVIEW
 70
     1
  9
$SHADEDGE
 70
     3
  9
$SHADEDIF
 70
    70
  9
$TILEMODE
 70
     1
  9
$MAXACTVP
 70
    64
  9
$PINSBASE
 10
0.0
 20
0.0
 30
0.0
  9
$PLIMCHECK
 70
     0
  9
$PEXTMIN
 10
1.0000000000E+20
 20
1.0000000000E+20
 30
1.0000000000E+20
  9
$PEXTMAX
 10
-1.0000000000E+20
 20
-1.0000000000E+20
 30
-1.0000000000E+20
  9
$PLIMMIN
 10
0.0
 20
0.0
  9
$PLIMMAX
 10
420.0
 20
297.0
  9
$UNITMODE
 70
     0
  9
$VISRETAIN
 70
     1
  9
$PLINEGEN
 70
     0
  9
$PSLTSCALE
 70
     1
  9
$TREEDEPTH
 70
  3020
  9
$CMLSTYLE
  2
Standard
  9
$CMLJUST
 70
     0
  9
$CMLSCALE
 40
20.0
  9
$PROXYGRAPHICS
 70
     1
  9
$MEASUREMENT
 70
     1
  9
$CELWEIGHT
370
    -1
  9
$ENDCAPS
280
     0
  9
$JOINSTYLE
280
     0
  9
$LWDISPLAY
290
     1
  9
$INSUNITS
 70
     4
  9
$HYPERLINKBASE
  1

  9
$STYLESHEET
  1

  9
$XEDIT
290
     1
  9
$CEPSNTYPE
380
     0
  9
$PSTYLEMODE
290
     1
  9
$FINGERPRINTGUID
  2
{03698F1B-A476-47F2-A84C-076A8A3ACC88}
  9
$VERSIONGUID
  2
{FAEB1C32-E019-11D5-929B-00C0DF256EC4}
  9
$EXTNAMES
290
     1
  9
$PSVPSCALE
 40
0.0
  9
$OLESTARTUP
290
     0
  0
ENDSEC
  0
SECTION
  2
CLASSES
  0
CLASS
  1
ACDBDICTIONARYWDFLT
  2
AcDbDictionaryWithDefault
  3
ObjectDBX Classes
 90
        0
280
     0
281
     0
  0
CLASS
  1
VISUALSTYLE
  2
AcDbVisualStyle
  3
ObjectDBX Classes
 90
     4095
280
     0
281
     0
  0
CLASS
  1
MATERIAL
  2
AcDbMaterial
  3
ObjectDBX Classes
 90
     1153
280
     0
281
     0
  0
CLASS
  1
SCALE
  2
AcDbScale
  3
ObjectDBX Classes
 90
     1153
280
     0
281
     0
  0
CLASS
  1
TABLESTYLE
  2
AcDbTableStyle
  3
ObjectDBX Classes
 90
     4095
280
     0
281
     0
  0
CLASS
  1
MLEADERSTYLE
  2
AcDbMLeaderStyle
  3
ACDB_MLEADERSTYLE_CLASS
 90
     4095
280
     0
281
     0
  0
CLASS
  1
SUN
  2
AcDbSun
  3
SCENEOE
 90
     1153
280
     0
281
     0
  0
CLASS
  1
ACDBPLACEHOLDER
  2
AcDbPlaceHolder
  3
ObjectDBX Classes
 90
        0
280
     0
281
     0
  0
CLASS
  1
LAYOUT
  2
AcDbLayout
  3
ObjectDBX Classes
 90
        0
280
     0
281
     0
  0
ENDSEC
  0
SECTION
  2
TABLES
  0
TABLE
  2
VPORT
  5
8
330
0
100
AcDbSymbolTable
 70
     1
  0
VPORT
  5
29
330
8
100
AcDbSymbolTableRecord
100
AcDbViewportTableRecord
  2
*Active
 70
     0
 10
0.0
 20
0.0
 11
1.0
 21
1.0
 12
2000.0
 22
1650.0
 13
0.0
 23
0.0
 14
10.0
 24
10.0
 15
10.0
 25
10.0
 16
0.0
 26
0.0
 36
1.0
 17
0.0
 27
0.0
 37
0.0
 40
3300.0
 41
1.2121212121
 42
50.0
 43
0.0
 44
0.0
 50
0.0
 51
0.0
 71
     0
 72
  2000
 73
     1
 74
     3
 75
     0
 76
     0
 77
     0
 78
     0
281
     0
 65
     1
110
0.0
120
0.0
130
0.0
111
1.0
121
0.0
131
0.0
112
0.0
122
1.0
132
0.0
 79
     0
146
0.0
  0
ENDTAB
  0
TABLE
  2
LTYPE
  5
5
330
0
100
AcDbSymbolTable
 70
     6
  0
LTYPE
  5
14
330
5
100
AcDbSymbolTableRecord
100
AcDbLinetypeTableRecord
  2
ByBlock
 70
     0
  3

 72
    65
 73
     0
 40
0.0
  0
LTYPE
  5
15
330
5
100
AcDbSymbolTableRecord
100
AcDbLinetypeTableRecord
  2
ByLayer
 70
     0
  3

 72
    65
 73
     0
 40
0.0
  0
LTYPE
  5
16
330
5
100
AcDbSymbolTableRecord
100
AcDbLinetypeTableRecord
  2
Continuous
 70
     0
  3
Solid line
 72
    65
 73
     0
 40
0.0
  0
LTYPE
  5
6E
330
5
100
AcDbSymbolTableRecord
100
AcDbLinetypeTableRecord
  2
HIDDEN
 70
     0
  3
Hidden __ __ __ __ __ __ __ __ __ __ __ __ __ __
 72
    65
 73
     2
 40
1.905
 49
1.27
 74
     0
 49
-0.635
 74
     0
  0
LTYPE
  5
6F
330
5
100
AcDbSymbolTableRecord
100
AcDbLinetypeTableRecord
  2
PHANTOM
 70
     0
  3
Phantom ______  __  __  ______  __  __  ______
 72
    65
 73
     6
 40
12.7
 49
6.35
 74
     0
 49
-1.27
 74
     0
 49
1.27
 74
     0
 49
-1.27
 74
     0
 49
1.27
 74
     0
 49
-1.27
 74
     0
  0
LTYPE
  5
70
330
5
100
AcDbSymbolTableRecord
100
AcDbLinetypeTableRecord
  2
CENTER
 70
     0
  3
Center ____ _ ____ _ ____ _ ____ _ ____ _ ____
 72
    65
 73
     4
 40
10.16
 49
6.35
 74
     0
 49
-1.27
 74
     0
 49
1.27
 74
     0
 49
-1.27
 74
     0
  0
LTYPE
  5
71
330
5
100
AcDbSymbolTableRecord
100
AcDbLinetypeTableRecord
  2
CENTERX2
 70
     0
  3
Center (2x) ________  __  ________  __  _____
 72
    65
 73
     4
 40
20.32
 49
12.7
 74
     0
 49
-2.54
 74
     0
 49
2.54
 74
     0
 49
-2.54
 74
     0
  0
LTYPE
  5
72
330
5
100
AcDbSymbolTableRecord
100
AcDbLinetypeTableRecord
  2
DOT2
 70
     0
  3
Dot (.5x) ........................................
 72
    65
 73
     2
 40
0.635
 49
0.0
 74
     0
 49
-0.635
 74
     0
  0
ENDTAB
  0
TABLE
  2
LAYER
  5
2
330
0
100
AcDbSymbolTable
 70
    11
  0
LAYER
  5
10
330
2
100
AcDbSymbolTableRecord
100
AcDbLayerTableRecord
  2
0
 70
     0
 62
     7
  6
Continuous
370
    -3
390
F
  0
LAYER
  5
73
330
2
100
AcDbSymbolTableRecord
100
AcDbLayerTableRecord
  2
SLD-0
 70
     0
 62
     7
  6
Continuous
370
    25
390
F
  0
LAYER
  5
74
330
2
100
AcDbSymbolTableRecord
100
AcDbLayerTableRecord
  2
OSNOVA
 70
     0
 62
     5
  6
Continuous
370
    -3
390
F
  0
LAYER
  5
75
330
2
100
AcDbSymbolTableRecord
100
AcDbLayerTableRecord
  2
HIDE
 70
     0
 62
    -1
  6
Continuous
290
     0
370
    -3
390
F
  0
LAYER
  5
76
330
2
100
AcDbSymbolTableRecord
100
AcDbLayerTableRecord
  2
THIN_LINE
 70
     0
 62
     7
  6
Continuous
370
    25
390
F
  0
LAYER
  5
77
330
2
100
AcDbSymbolTableRecord
100
AcDbLayerTableRecord
  2
THICK_LINE
 70
     0
 62
     7
  6
Continuous
370
    25
390
F
  0
LAYER
  5
78
330
2
100
AcDbSymbolTableRecord
100
AcDbLayerTableRecord
  2
ПОДЧЕРКТИПОРАЗМЕР
 70
     0
 62
    -7
  6
Continuous
290
     0
370
    -3
390
F
  0
LAYER
  5
79
330
2
100
AcDbSymbolTableRecord
100
AcDbLayerTableRecord
  2
THIN_LIONE
 70
     0
 62
     7
  6
Continuous
370
    -3
390
F
  0
LAYER
  5
7A
330
2
100
AcDbSymbolTableRecord
100
AcDbLayerTableRecord
  2
THICK_LIONE
 70
     0
 62
     7
  6
Continuous
370
    25
390
F
  0
LAYER
  5
7B
330
2
100
AcDbSymbolTableRecord
100
AcDbLayerTableRecord
  2
ПОДЧЕРКТИПАРАЗМЕР
 70
     0
 62
    -7
  6
Continuous
290
     0
370
    -3
390
F
  0
LAYER
  5
7C
330
2
100
AcDbSymbolTableRecord
100
AcDbLayerTableRecord
  2
ИЗМЕН_РАЗМЕР
 70
     0
 62
     1
  6
Continuous
370
    -3
390
F
  0
ENDTAB
  0
TABLE
  2
STYLE
  5
3
330
0
100
AcDbSymbolTable
 70
     1
  0
STYLE
  5
11
330
3
100
AcDbSymbolTableRecord
100
AcDbTextStyleTableRecord
  2
Standard
 70
     0
 40
0.0
 41
1.0
 50
0.0
 71
     0
 42
3.5
  3
txt
  4

  0
ENDTAB
  0
TABLE
  2
VIEW
  5
6
330
0
100
AcDbSymbolTable
 70
     0
  0
ENDTAB
  0
TABLE
  2
UCS
  5
7
330
0
100
AcDbSymbolTable
 70
     0
  0
ENDTAB
  0
TABLE
  2
APPID
  5
9
330
0
100
AcDbSymbolTable
 70
     1
  0
APPID
  5
12
330
9
100
AcDbSymbolTableRecord
100
AcDbRegAppTableRecord
  2
ACAD
 70
     0
  0
ENDTAB
  0
TABLE
  2
DIMSTYLE
  5
A
330
0
100
AcDbSymbolTable
 70
     1
100
AcDbDimStyleTable
  0
DIMSTYLE
105
27
330
A
100
AcDbSymbolTableRecord
100
AcDbDimStyleTableRecord
  2
ISO-25
 70
     0
 41
2.5
 42
0.625
 43
3.75
 44
1.25
 73
     0
 74
     0
 77
     1
 78
     8
140
2.5
141
2.5
143
0.0393700787
147
0.625
171
     3
172
     1
178
     0
271
     2
272
     2
274
     3
278
    44
283
     0
284
     8
340
11
  0
ENDTAB
  0
TABLE
  2
BLOCK_RECORD
  5
1
330
0
100
AcDbSymbolTable
 70
     1
  0
BLOCK_RECORD
  5
1F
330
1
100
AcDbSymbolTableRecord
100
AcDbBlockTableRecord
  2
*Model_Space
340
22
  0
BLOCK_RECORD
  5
1B
330
1
100
AcDbSymbolTableRecord
100
AcDbBlockTableRecord
  2
*Paper_Space
340
1E
  0
BLOCK_RECORD
  5
23
330
1
100
AcDbSymbolTableRecord
100
AcDbBlockTableRecord
  2
*Paper_Space0
340
26
  0
ENDTAB
  0
ENDSEC
  0
SECTION
  2
BLOCKS
  0
BLOCK
  5
20
330
1F
100
AcDbEntity
  8
0
100
AcDbBlockBegin
  2
*Model_Space
 70
     0
 10
0.0
 20
0.0
 30
0.0
  3
*Model_Space
  1

  0
ENDBLK
  5
21
330
1F
100
AcDbEntity
  8
0
100
AcDbBlockEnd
  0
BLOCK
  5
1C
330
1B
100
AcDbEntity
 67
     1
  8
0
100
AcDbBlockBegin
  2
*Paper_Space
 70
     0
 10
0.0
 20
0.0
 30
0.0
  3
*Paper_Space
  1

  0
ENDBLK
  5
1D
330
1B
100
AcDbEntity
 67
     1
  8
0
100
AcDbBlockEnd
  0
BLOCK
  5
24
330
23
100
AcDbEntity
  8
0
100
AcDbBlockBegin
  2
*Paper_Space0
 70
     0
 10
0.0
 20
0.0
 30
0.0
  3
*Paper_Space0
  1

  0
ENDBLK
  5
25
330
23
100
AcDbEntity
  8
0
100
AcDbBlockEnd
  0
ENDSEC
  0
SECTION
  2
ENTITIES
  0
LINE
  5
7D
330
1F
100
AcDbEntity
  8
0
  6
Continuous
 62
     7
370
    25
100
AcDbLine
 10
109.3759275917
 20
2058.378709553
 30
0.0
 11
109.3759275917
 21
2059.5444786984
 31
0.0
  0
LINE
  5
7E
330
1F
100
AcDbEntity
  8
0
  6
Continuous
 62
     7
370
    25
100
AcDbLine
 10
3109.3759275917
 20
2059.5444786984
 30
0.0
 11
109.3759275917
 21
2059.5444786984
 31
0.0
  0
LINE
  5
7F
330
1F
100
AcDbEntity
  8
0
  6
Continuous
 62
     7
370
    25
100
AcDbLine
 10
3109.3759275917
 20
2058.378709553
 30
0.0
 11
3109.3759275917
 21
2059.5444786984
 31
0.0
  0
LINE
  5
80
330
1F
100
AcDbEntity
  8
0
  6
Continuous
 62
     7
370
    25
100
AcDbLine
 10
3109.3759275917
 20
1993.378709553
 30
0.0
 11
109.3759275917
 21
1993.378709553
 31
0.0
  0
LINE
  5
81
330
1F
100
AcDbEntity
  8
0
  6
Continuous
 62
     7
370
    25
100
AcDbLine
 10
109.3759275917
 20
2058.378709553
 30
0.0
 11
109.3759275917
 21
1995.878709553
 31
0.0
  0
ARC
  5
82
330
1F
100
AcDbEntity
  8
0
  6
Continuous
 62
     7
370
    25
100
AcDbCircle
 10
193.3759275917
 20
2011.378709553
 30
0.0
 40
3.5
100
AcDbArc
 50
270.0
 51
90.0
  0
LINE
  5
83
330
1F
100
AcDbEntity
  8
0
  6
Continuous
 62
     7
370
    25
100
AcDbLine
 10
193.3759275917
 20
2014.878709553
 30
0.0
 11
175.3759275917
 21
2014.878709553
 31
0.0
  0
ARC
  5
84
330
1F
100
AcDbEntity
  8
0
  6
Continuous
 62
     7
370
    25
100
AcDbCircle
 10
175.3759275917
 20
2011.378709553
 30
0.0
 40
3.5
100
AcDbArc
 50
90.0
 51
270.0
  0
LINE
  5
85
330
1F
100
AcDbEntity
  8
0
  6
Continuous
 62
     7
370
    25
100
AcDbLine
 10
175.3759275917
 20
2007.878709553
 30
0.0
 11
193.3759275917
 21
2007.878709553
 31
0.0
  0
ARC
  5
86
330
1F
100
AcDbEntity
  8
0
  6
Continuous
 62
     7
370
    25
100
AcDbCircle
 10
3075.3759275917
 20
2011.378709553
 30
0.0
 40
3.5
100
AcDbArc
 50
90.0
 51
270.0
  0
LINE
  5
87
330
1F
100
AcDbEntity
  8
0
  6
Continuous
 62
     7
370
    25
100
AcDbLine
 10
3075.3759275917
 20
2007.878709553
 30
0.0
 11
3093.3759275917
 21
2007.878709553
 31
0.0
  0
ARC
  5
88
330
1F
100
AcDbEntity
  8
0
  6
Continuous
 62
     7
370
    25
100
AcDbCircle
 10
3093.3759275917
 20
2011.378709553
 30
0.0
 40
3.5
100
AcDbArc
 50
270.0
 51
90.0
  0
LINE
  5
89
330
1F
100
AcDbEntity
  8
0
  6
Continuous
 62
     7
370
    25
100
AcDbLine
 10
3093.3759275917
 20
2014.878709553
 30
0.0
 11
3075.3759275917
 21
2014.878709553
 31
0.0
  0
ARC
  5
8A
330
1F
100
AcDbEntity
  8
0
  6
Continuous
 62
     7
370
    25
100
AcDbCircle
 10
3025.3759275917
 20
2011.378709553
 30
0.0
 40
3.5
100
AcDbArc
 50
90.0
 51
270.0
  0
LINE
  5
8B
330
1F
100
AcDbEntity
  8
0
  6
Continuous
 62
     7
370
    25
100
AcDbLine
 10
3025.3759275917
 20
2007.878709553
 30
0.0
 11
3043.3759275917
 21
2007.878709553
 31
0.0
  0
ARC
  5
8C
330
1F
100
AcDbEntity
  8
0
  6
Continuous
 62
     7
370
    25
100
AcDbCircle
 10
3043.3759275917
 20
2011.378709553
 30
0.0
 40
3.5
100
AcDbArc
 50
270.0
 51
90.0
  0
LINE
  5
8D
330
1F
100
AcDbEntity
  8
0
  6
Continuous
 62
     7
370
    25
100
AcDbLine
 10
3043.3759275917
 20
2014.878709553
 30
0.0
 11
3025.3759275917
 21
2014.878709553
 31
0.0
  0
ARC
  5
8E
330
1F
100
AcDbEntity
  8
0
  6
Continuous
 62
     7
370
    25
100
AcDbCircle
 10
143.3759275917
 20
2011.378709553
 30
0.0
 40
3.5
100
AcDbArc
 50
270.0
 51
90.0
  0
LINE
  5
8F
330
1F
100
AcDbEntity
  8
0
  6
Continuous
 62
     7
370
    25
100
AcDbLine
 10
143.3759275917
 20
2014.878709553
 30
0.0
 11
125.3759275917
 21
2014.878709553
 31
0.0
  0
ARC
  5
90
330
1F
100
AcDbEntity
  8
0
  6
Continuous
 62
     7
370
    25
100
AcDbCircle
 10
125.3759275917
 20
2011.378709553
 30
0.0
 40
3.5
100
AcDbArc
 50
90.0
 51
270.0
  0
LINE
  5
91
330
1F
100
AcDbEntity
  8
0
  6
Continuous
 62
     7
370
    25
100
AcDbLine
 10
125.3759275917
 20
2007.878709553
 30
0.0
 11
143.3759275917
 21
2007.878709553
 31
0.0
  0
ARC
  5
92
330
1F
100
AcDbEntity
  8
0
  6
Continuous
 62
     7
370
    25
100
AcDbCircle
 10
3075.3759275917
 20
2036.378709553
 30
0.0
 40
3.5
100
AcDbArc
 50
90.0
 51
270.0
  0
LINE
  5
93
330
1F
100
AcDbEntity
  8
0
  6
Continuous
 62
     7
370
    25
100
AcDbLine
 10
3075.3759275917
 20
2032.878709553
 30
0.0
 11
3093.3759275917
 21
2032.878709553
 31
0.0
  0
ARC
  5
94
330
1F
100
AcDbEntity
  8
0
  6
Continuous
 62
     7
370
    25
100
AcDbCircle
 10
3093.3759275917
 20
2036.378709553
 30
0.0
 40
3.5
100
AcDbArc
 50
270.0
 51
90.0
  0
LINE
  5
95
330
1F
100
AcDbEntity
  8
0
  6
Continuous
 62
     7
370
    25
100
AcDbLine
 10
3043.3759275917
 20
2039.878709553
 30
0.0
 11
3025.3759275917
 21
2039.878709553
 31
0.0
  0
ARC
  5
96
330
1F
100
AcDbEntity
  8
0
  6
Continuous
 62
     7
370
    25
100
AcDbCircle
 10
143.3759275917
 20
2036.378709553
 30
0.0
 40
3.5
100
AcDbArc
 50
270.0
 51
90.0
  0
LINE
  5
97
330
1F
100
AcDbEntity
  8
0
  6
Continuous
 62
     7
370
    25
100
AcDbLine
 10
143.3759275917
 20
2039.878709553
 30
0.0
 11
125.3759275917
 21
2039.878709553
 31
0.0
  0
ARC
  5
98
330
1F
100
AcDbEntity
  8
0
  6
Continuous
 62
     7
370
    25
100
AcDbCircle
 10
125.3759275917
 20
2036.378709553
 30
0.0
 40
3.5
100
AcDbArc
 50
90.0
 51
270.0
  0
LINE
  5
99
330
1F
100
AcDbEntity
  8
0
  6
Continuous
 62
     7
370
    25
100
AcDbLine
 10
125.3759275917
 20
2032.878709553
 30
0.0
 11
143.3759275917
 21
2032.878709553
 31
0.0
  0
ARC
  5
9A
330
1F
100
AcDbEntity
  8
0
  6
Continuous
 62
     7
370
    25
100
AcDbCircle
 10
3025.3759275917
 20
2036.378709553
 30
0.0
 40
3.5
100
AcDbArc
 50
90.0
 51
270.0
  0
LINE
  5
9B
330
1F
100
AcDbEntity
  8
0
  6
Continuous
 62
     7
370
    25
100
AcDbLine
 10
3025.3759275917
 20
2032.878709553
 30
0.0
 11
3043.3759275917
 21
2032.878709553
 31
0.0
  0
ARC
  5
9C
330
1F
100
AcDbEntity
  8
0
  6
Continuous
 62
     7
370
    25
100
AcDbCircle
 10
3043.3759275917
 20
2036.378709553
 30
0.0
 40
3.5
100
AcDbArc
 50
270.0
 51
90.0
  0
LINE
  5
9D
330
1F
100
AcDbEntity
  8
0
  6
Continuous
 62
     7
370
    25
100
AcDbLine
 10
3093.3759275917
 20
2039.878709553
 30
0.0
 11
3075.3759275917
 21
2039.878709553
 31
0.0
  0
LINE
  5
9E
330
1F
100
AcDbEntity
  8
0
  6
Continuous
 62
     7
370
    25
100
AcDbLine
 10
109.3759275917
 20
1993.378709553
 30
0.0
 11
109.3759275917
 21
1995.878709553
 31
0.0
  0
LINE
  5
9F
330
1F
100
AcDbEntity
  8
0
  6
Continuous
 62
     7
370
    25
100
AcDbLine
 10
3109.3759275917
 20
2058.378709553
 30
0.0
 11
3109.3759275917
 21
1995.878709553
 31
0.0
  0
LINE
  5
A0
330
1F
100
AcDbEntity
  8
0
  6
Continuous
 62
     7
370
    25
100
AcDbLine
 10
3109.3759275917
 20
1993.378709553
 30
0.0
 11
3109.3759275917
 21
1995.878709553
 31
0.0
  0
LINE
  5
A1
330
1F
100
AcDbEntity
  8
0
  6
Continuous
 62
     7
370
    25
100
AcDbLine
 10
175.3759275917
 20
2032.878709553
 30
0.0
 11
193.3759275917
 21
2032.878709553
 31
0.0
  0
ARC
  5
A2
330
1F
100
AcDbEntity
  8
0
  6
Continuous
 62
     7
370
    25
100
AcDbCircle
 10
193.3759275917
 20
2036.378709553
 30
0.0
 40
3.5
100
AcDbArc
 50
270.0
 51
90.0
  0
LINE
  5
A3
330
1F
100
AcDbEntity
  8
0
  6
Continuous
 62
     7
370
    25
100
AcDbLine
 10
193.3759275917
 20
2039.878709553
 30
0.0
 11
175.3759275917
 21
2039.878709553
 31
0.0
  0
ARC
  5
A4
330
1F
100
AcDbEntity
  8
0
  6
Continuous
 62
     7
370
    25
100
AcDbCircle
 10
175.3759275917
 20
2036.378709553
 30
0.0
 40
3.5
100
AcDbArc
 50
90.0
 51
270.0
  0
LINE
  5
A5
330
1F
100
AcDbEntity
  8
0
  6
Continuous
 62
     7
370
    25
100
AcDbLine
 10
3109.3759275917
 20
2060.2938206608
 30
0.0
 11
3109.3759275917
 21
2063.5546756435
 31
0.0
  0
LINE
  5
A6
330
1F
100
AcDbEntity
  8
0
  6
Continuous
 62
     7
370
    25
100
AcDbLine
 10
109.3759275917
 20
2063.5546756435
 30
0.0
 11
109.3759275917
 21
2060.2938206608
 31
0.0
  0
LINE
  5
A7
330
1F
100
AcDbEntity
  8
0
  6
Continuous
 62
     7
370
    25
100
AcDbLine
 10
109.3759275917
 20
2063.5546756435
 30
0.0
 11
3109.3759275917
 21
2063.5546756435
 31
0.0
  0
LINE
  5
A8
330
1F
100
AcDbEntity
  8
0
  6
Continuous
 62
     7
370
    25
100
AcDbLine
 10
3109.3759275917
 20
2059.5444786984
 30
0.0
 11
3109.3759275917
 21
2060.2938206608
 31
0.0
  0
LINE
  5
A9
330
1F
100
AcDbEntity
  8
0
  6
Continuous
 62
     7
370
    25
100
AcDbLine
 10
109.3759275917
 20
2059.5444786984
 30
0.0
 11
109.3759275917
 21
2060.2938206608
 31
0.0
  0
LINE
  5
AA
330
1F
100
AcDbEntity
  8
0
  6
Continuous
 62
     7
370
    25
100
AcDbLine
 10
109.3759275917
 20
2068.6543878319
 30
0.0
 11
3109.3759275917
 21
2068.6543878319
 31
0.0
  0
LINE
  5
AB
330
1F
100
AcDbEntity
  8
0
  6
Continuous
 62
     7
370
    25
100
AcDbLine
 10
3109.3759275917
 20
2068.6543878319
 30
0.0
 11
3109.3759275917
 21
2063.5546756435
 31
0.0
  0
LINE
  5
AC
330
1F
100
AcDbEntity
  8
0
  6
Continuous
 62
     7
370
    25
100
AcDbLine
 10
109.3759275917
 20
2068.6543878319
 30
0.0
 11
109.3759275917
 21
2063.5546756435
 31
0.0
  0
LINE
  5
AD
330
1F
100
AcDbEntity
  8
0
  6
Continuous
 62
     7
370
    25
100
AcDbLine
 10
3109.3759275917
 20
2073.3450172112
 30
0.0
 11
109.3759275917
 21
2073.3450172112
 31
0.0
  0
LINE
  5
AE
330
1F
100
AcDbEntity
  8
0
  6
Continuous
 62
     7
370
    25
100
AcDbLine
 10
3109.3759275917
 20
2068.6543878319
 30
0.0
 11
3109.3759275917
 21
2073.3450172112
 31
0.0
  0
LINE
  5
AF
330
1F
100
AcDbEntity
  8
0
  6
Continuous
 62
     7
370
    25
100
AcDbLine
 10
109.3759275917
 20
2073.3450172112
 30
0.0
 11
109.3759275917
 21
2068.6543878319
 31
0.0
  0
LINE
  5
B0
330
1F
100
AcDbEntity
  8
0
  6
Continuous
 62
     7
370
    25
100
AcDbLine
 10
109.3759275917
 20
2878.9033568925
 30
0.0
 11
109.3759275917
 21
2881.4033568925
 31
0.0
  0
LINE
  5
B1
330
1F
100
AcDbEntity
  8
0
  6
Continuous
 62
     7
370
    25
100
AcDbLine
 10
3109.3759275917
 20
2881.4033568925
 30
0.0
 11
109.3759275917
 21
2881.4033568925
 31
0.0
  0
LINE
  5
B2
330
1F
100
AcDbEntity
  8
0
  6
Continuous
 62
     7
370
    25
100
AcDbLine
 10
3109.3759275917
 20
2878.9033568925
 30
0.0
 11
3109.3759275917
 21
2881.4033568925
 31
0.0
  0
LINE
  5
B3
330
1F
100
AcDbEntity
  8
0
  6
Continuous
 62
     7
370
    25
100
AcDbLine
 10
3109.3759275917
 20
2878.9033568925
 30
0.0
 11
3109.3759275917
 21
2483.9033568925
 31
0.0
  0
LINE
  5
B4
330
1F
100
AcDbEntity
  8
0
  6
Continuous
 62
     7
370
    25
100
AcDbLine
 10
3109.3759275917
 20
2481.4033568925
 30
0.0
 11
109.3759275917
 21
2481.4033568925
 31
0.0
  0
LINE
  5
B5
330
1F
100
AcDbEntity
  8
0
  6
Continuous
 62
     7
370
    25
100
AcDbLine
 10
109.3759275917
 20
2481.4033568925
 30
0.0
 11
109.3759275917
 21
2483.9033568925
 31
0.0
  0
LINE
  5
B6
330
1F
100
AcDbEntity
  8
0
  6
Continuous
 62
     7
370
    25
100
AcDbLine
 10
109.3759275917
 20
2878.9033568925
 30
0.0
 11
109.3759275917
 21
2483.9033568925
 31
0.0
  0
ARC
  5
B7
330
1F
100
AcDbEntity
  8
0
  6
Continuous
 62
     7
370
    25
100
AcDbCircle
 10
3088.3759275917
 20
2685.4033568925
 30
0.0
 40
1.0
100
AcDbArc
 50
90.0
 51
180.0
  0
LINE
  5
B8
330
1F
100
AcDbEntity
  8
0
  6
Continuous
 62
     7
370
    25
100
AcDbLine
 10
3087.3759275917
 20
2677.4033568925
 30
0.0
 11
3087.3759275917
 21
2685.4033568925
 31
0.0
  0
ARC
  5
B9
330
1F
100
AcDbEntity
  8
0
  6
Continuous
 62
     7
370
    25
100
AcDbCircle
 10
3088.3759275917
 20
2677.4033568925
 30
0.0
 40
1.0
100
AcDbArc
 50
180.0
 51
270.0
  0
LINE
  5
BA
330
1F
100
AcDbEntity
  8
0
  6
Continuous
 62
     7
370
    25
100
AcDbLine
 10
3093.3759275917
 20
2676.4033568925
 30
0.0
 11
3088.3759275917
 21
2676.4033568925
 31
0.0
  0
ARC
  5
BB
330
1F
100
AcDbEntity
  8
0
  6
Continuous
 62
     7
370
    25
100
AcDbCircle
 10
3093.3759275917
 20
2677.4033568925
 30
0.0
 40
1.0
100
AcDbArc
 50
270.0
 51
0.0
  0
LINE
  5
BC
330
1F
100
AcDbEntity
  8
0
  6
Continuous
 62
     7
370
    25
100
AcDbLine
 10
3094.3759275917
 20
2685.4033568925
 30
0.0
 11
3094.3759275917
 21
2677.4033568925
 31
0.0
  0
ARC
  5
BD
330
1F
100
AcDbEntity
  8
0
  6
Continuous
 62
     7
370
    25
100
AcDbCircle
 10
3093.3759275917
 20
2685.4033568925
 30
0.0
 40
1.0
100
AcDbArc
 50
0.0
 51
90.0
  0
LINE
  5
BE
330
1F
100
AcDbEntity
  8
0
  6
Continuous
 62
     7
370
    25
100
AcDbLine
 10
3088.3759275917
 20
2686.4033568925
 30
0.0
 11
3093.3759275917
 21
2686.4033568925
 31
0.0
  0
ARC
  5
BF
330
1F
100
AcDbEntity
  8
0
  6
Continuous
 62
     7
370
    25
100
AcDbCircle
 10
125.3759275917
 20
2685.4033568925
 30
0.0
 40
1.0
100
AcDbArc
 50
90.0
 51
180.0
  0
LINE
  5
C0
330
1F
100
AcDbEntity
  8
0
  6
Continuous
 62
     7
370
    25
100
AcDbLine
 10
124.3759275917
 20
2677.4033568925
 30
0.0
 11
124.3759275917
 21
2685.4033568925
 31
0.0
  0
ARC
  5
C1
330
1F
100
AcDbEntity
  8
0
  6
Continuous
 62
     7
370
    25
100
AcDbCircle
 10
125.3759275917
 20
2677.4033568925
 30
0.0
 40
1.0
100
AcDbArc
 50
180.0
 51
270.0
  0
LINE
  5
C2
330
1F
100
AcDbEntity
  8
0
  6
Continuous
 62
     7
370
    25
100
AcDbLine
 10
130.3759275917
 20
2676.4033568925
 30
0.0
 11
125.3759275917
 21
2676.4033568925
 31
0.0
  0
ARC
  5
C3
330
1F
100
AcDbEntity
  8
0
  6
Continuous
 62
     7
370
    25
100
AcDbCircle
 10
130.3759275917
 20
2677.4033568925
 30
0.0
 40
1.0
100
AcDbArc
 50
270.0
 51
0.0
  0
LINE
  5
C4
330
1F
100
AcDbEntity
  8
0
  6
Continuous
 62
     7
370
    25
100
AcDbLine
 10
131.3759275917
 20
2685.4033568925
 30
0.0
 11
131.3759275917
 21
2677.4033568925
 31
0.0
  0
ARC
  5
C5
330
1F
100
AcDbEntity
  8
0
  6
Continuous
 62
     7
370
    25
100
AcDbCircle
 10
130.3759275917
 20
2685.4033568925
 30
0.0
 40
1.0
100
AcDbArc
 50
0.0
 51
90.0
  0
LINE
  5
C6
330
1F
100
AcDbEntity
  8
0
  6
Continuous
 62
     7
370
    25
100
AcDbLine
 10
125.3759275917
 20
2686.4033568925
 30
0.0
 11
130.3759275917
 21
2686.4033568925
 31
0.0
  0
ARC
  5
C7
330
1F
100
AcDbEntity
  8
0
  6
Continuous
 62
     7
370
    25
100
AcDbCircle
 10
143.3759275917
 20
2493.9033568925
 30
0.0
 40
3.500000000000455
100
AcDbArc
 50
270.0
 51
90.0
  0
LINE
  5
C8
330
1F
100
AcDbEntity
  8
0
  6
Continuous
 62
     7
370
    25
100
AcDbLine
 10
125.3759275917
 20
2497.4033568925
 30
0.0
 11
143.3759275917
 21
2497.4033568925
 31
0.0
  0
ARC
  5
C9
330
1F
100
AcDbEntity
  8
0
  6
Continuous
 62
     7
370
    25
100
AcDbCircle
 10
125.3759275917
 20
2493.9033568925
 30
0.0
 40
3.500000000000455
100
AcDbArc
 50
90.0
 51
270.0
  0
LINE
  5
CA
330
1F
100
AcDbEntity
  8
0
  6
Continuous
 62
     7
370
    25
100
AcDbLine
 10
143.3759275917
 20
2490.4033568925
 30
0.0
 11
125.3759275917
 21
2490.4033568925
 31
0.0
  0
ARC
  5
CB
330
1F
100
AcDbEntity
  8
0
  6
Continuous
 62
     7
370
    25
100
AcDbCircle
 10
3075.3759275917
 20
2868.9033568925
 30
0.0
 40
3.500000000000455
100
AcDbArc
 50
90.0
 51
270.0
  0
LINE
  5
CC
330
1F
100
AcDbEntity
  8
0
  6
Continuous
 62
     7
370
    25
100
AcDbLine
 10
3093.3759275917
 20
2865.4033568925
 30
0.0
 11
3075.3759275917
 21
2865.4033568925
 31
0.0
  0
ARC
  5
CD
330
1F
100
AcDbEntity
  8
0
  6
Continuous
 62
     7
370
    25
100
AcDbCircle
 10
3093.3759275917
 20
2868.9033568925
 30
0.0
 40
3.500000000000455
100
AcDbArc
 50
270.0
 51
90.0
  0
LINE
  5
CE
330
1F
100
AcDbEntity
  8
0
  6
Continuous
 62
     7
370
    25
100
AcDbLine
 10
3075.3759275917
 20
2872.4033568925
 30
0.0
 11
3093.3759275917
 21
2872.4033568925
 31
0.0
  0
ARC
  5
CF
330
1F
100
AcDbEntity
  8
0
  6
Continuous
 62
     7
370
    25
100
AcDbCircle
 10
3025.3759275917
 20
2868.9033568925
 30
0.0
 40
3.500000000000455
100
AcDbArc
 50
90.0
 51
270.0
  0
LINE
  5
D0
330
1F
100
AcDbEntity
  8
0
  6
Continuous
 62
     7
370
    25
100
AcDbLine
 10
3043.3759275917
 20
2865.4033568925
 30
0.0
 11
3025.3759275917
 21
2865.4033568925
 31
0.0
  0
ARC
  5
D1
330
1F
100
AcDbEntity
  8
0
  6
Continuous
 62
     7
370
    25
100
AcDbCircle
 10
3043.3759275917
 20
2868.9033568925
 30
0.0
 40
3.500000000000455
100
AcDbArc
 50
270.0
 51
90.0
  0
LINE
  5
D2
330
1F
100
AcDbEntity
  8
0
  6
Continuous
 62
     7
370
    25
100
AcDbLine
 10
3025.3759275917
 20
2872.4033568925
 30
0.0
 11
3043.3759275917
 21
2872.4033568925
 31
0.0
  0
ARC
  5
D3
330
1F
100
AcDbEntity
  8
0
  6
Continuous
 62
     7
370
    25
100
AcDbCircle
 10
3025.3759275917
 20
2493.9033568925
 30
0.0
 40
3.500000000000455
100
AcDbArc
 50
90.0
 51
270.0
  0
LINE
  5
D4
330
1F
100
AcDbEntity
  8
0
  6
Continuous
 62
     7
370
    25
100
AcDbLine
 10
3043.3759275917
 20
2490.4033568925
 30
0.0
 11
3025.3759275917
 21
2490.4033568925
 31
0.0
  0
ARC
  5
D5
330
1F
100
AcDbEntity
  8
0
  6
Continuous
 62
     7
370
    25
100
AcDbCircle
 10
3043.3759275917
 20
2493.9033568925
 30
0.0
 40
3.500000000000455
100
AcDbArc
 50
270.0
 51
90.0
  0
LINE
  5
D6
330
1F
100
AcDbEntity
  8
0
  6
Continuous
 62
     7
370
    25
100
AcDbLine
 10
3025.3759275917
 20
2497.4033568925
 30
0.0
 11
3043.3759275917
 21
2497.4033568925
 31
0.0
  0
ARC
  5
D7
330
1F
100
AcDbEntity
  8
0
  6
Continuous
 62
     7
370
    25
100
AcDbCircle
 10
193.3759275917
 20
2493.9033568925
 30
0.0
 40
3.500000000000455
100
AcDbArc
 50
270.0
 51
90.0
  0
LINE
  5
D8
330
1F
100
AcDbEntity
  8
0
  6
Continuous
 62
     7
370
    25
100
AcDbLine
 10
175.3759275917
 20
2497.4033568925
 30
0.0
 11
193.3759275917
 21
2497.4033568925
 31
0.0
  0
ARC
  5
D9
330
1F
100
AcDbEntity
  8
0
  6
Continuous
 62
     7
370
    25
100
AcDbCircle
 10
175.3759275917
 20
2493.9033568925
 30
0.0
 40
3.500000000000455
100
AcDbArc
 50
90.0
 51
270.0
  0
LINE
  5
DA
330
1F
100
AcDbEntity
  8
0
  6
Continuous
 62
     7
370
    25
100
AcDbLine
 10
193.3759275917
 20
2490.4033568925
 30
0.0
 11
175.3759275917
 21
2490.4033568925
 31
0.0
  0
ARC
  5
DB
330
1F
100
AcDbEntity
  8
0
  6
Continuous
 62
     7
370
    25
100
AcDbCircle
 10
143.3759275917
 20
2868.9033568925
 30
0.0
 40
3.500000000000455
100
AcDbArc
 50
270.0
 51
90.0
  0
LINE
  5
DC
330
1F
100
AcDbEntity
  8
0
  6
Continuous
 62
     7
370
    25
100
AcDbLine
 10
125.3759275917
 20
2872.4033568925
 30
0.0
 11
143.3759275917
 21
2872.4033568925
 31
0.0
  0
ARC
  5
DD
330
1F
100
AcDbEntity
  8
0
  6
Continuous
 62
     7
370
    25
100
AcDbCircle
 10
125.3759275917
 20
2868.9033568925
 30
0.0
 40
3.500000000000455
100
AcDbArc
 50
90.0
 51
270.0
  0
LINE
  5
DE
330
1F
100
AcDbEntity
  8
0
  6
Continuous
 62
     7
370
    25
100
AcDbLine
 10
143.3759275917
 20
2865.4033568925
 30
0.0
 11
125.3759275917
 21
2865.4033568925
 31
0.0
  0
ARC
  5
DF
330
1F
100
AcDbEntity
  8
0
  6
Continuous
 62
     7
370
    25
100
AcDbCircle
 10
193.3759275917
 20
2868.9033568925
 30
0.0
 40
3.500000000000909
100
AcDbArc
 50
270.0
 51
90.0
  0
LINE
  5
E0
330
1F
100
AcDbEntity
  8
0
  6
Continuous
 62
     7
370
    25
100
AcDbLine
 10
175.3759275917
 20
2872.4033568925
 30
0.0
 11
193.3759275917
 21
2872.4033568925
 31
0.0
  0
ARC
  5
E1
330
1F
100
AcDbEntity
  8
0
  6
Continuous
 62
     7
370
    25
100
AcDbCircle
 10
175.3759275917
 20
2868.9033568925
 30
0.0
 40
3.500000000000455
100
AcDbArc
 50
90.0
 51
270.0
  0
LINE
  5
E2
330
1F
100
AcDbEntity
  8
0
  6
Continuous
 62
     7
370
    25
100
AcDbLine
 10
193.3759275917
 20
2865.4033568925
 30
0.0
 11
175.3759275917
 21
2865.4033568925
 31
0.0
  0
ARC
  5
E3
330
1F
100
AcDbEntity
  8
0
  6
Continuous
 62
     7
370
    25
100
AcDbCircle
 10
3075.3759275917
 20
2493.9033568925
 30
0.0
 40
3.500000000000455
100
AcDbArc
 50
90.0
 51
270.0
  0
LINE
  5
E4
330
1F
100
AcDbEntity
  8
0
  6
Continuous
 62
     7
370
    25
100
AcDbLine
 10
3093.3759275917
 20
2490.4033568925
 30
0.0
 11
3075.3759275917
 21
2490.4033568925
 31
0.0
  0
ARC
  5
E5
330
1F
100
AcDbEntity
  8
0
  6
Continuous
 62
     7
370
    25
100
AcDbCircle
 10
3093.3759275917
 20
2493.9033568925
 30
0.0
 40
3.500000000000455
100
AcDbArc
 50
270.0
 51
90.0
  0
LINE
  5
E6
330
1F
100
AcDbEntity
  8
0
  6
Continuous
 62
     7
370
    25
100
AcDbLine
 10
3075.3759275917
 20
2497.4033568925
 30
0.0
 11
3093.3759275917
 21
2497.4033568925
 31
0.0
  0
LINE
  5
E7
330
1F
100
AcDbEntity
  8
0
  6
Continuous
 62
     7
370
    25
100
AcDbLine
 10
3094.3759275917
 20
2585.4033568925
 30
0.0
 11
3094.3759275917
 21
2577.4033568925
 31
0.0
  0
ARC
  5
E8
330
1F
100
AcDbEntity
  8
0
  6
Continuous
 62
     7
370
    25
100
AcDbCircle
 10
3093.3759275917
 20
2585.4033568925
 30
0.0
 40
1.000000000000455
100
AcDbArc
 50
0.0
 51
90.0
  0
LINE
  5
E9
330
1F
100
AcDbEntity
  8
0
  6
Continuous
 62
     7
370
    25
100
AcDbLine
 10
3088.3759275917
 20
2586.4033568925
 30
0.0
 11
3093.3759275917
 21
2586.4033568925
 31
0.0
  0
ARC
  5
EA
330
1F
100
AcDbEntity
  8
0
  6
Continuous
 62
     7
370
    25
100
AcDbCircle
 10
3088.3759275917
 20
2585.4033568925
 30
0.0
 40
1.000000000000455
100
AcDbArc
 50
90.0
 51
180.0
  0
LINE
  5
EB
330
1F
100
AcDbEntity
  8
0
  6
Continuous
 62
     7
370
    25
100
AcDbLine
 10
3087.3759275917
 20
2577.4033568925
 30
0.0
 11
3087.3759275917
 21
2585.4033568925
 31
0.0
  0
ARC
  5
EC
330
1F
100
AcDbEntity
  8
0
  6
Continuous
 62
     7
370
    25
100
AcDbCircle
 10
3088.3759275917
 20
2577.4033568925
 30
0.0
 40
1.0
100
AcDbArc
 50
180.0
 51
270.0
  0
LINE
  5
ED
330
1F
100
AcDbEntity
  8
0
  6
Continuous
 62
     7
370
    25
100
AcDbLine
 10
3093.3759275917
 20
2576.4033568925
 30
0.0
 11
3088.3759275917
 21
2576.4033568925
 31
0.0
  0
ARC
  5
EE
330
1F
100
AcDbEntity
  8
0
  6
Continuous
 62
     7
370
    25
100
AcDbCircle
 10
3093.3759275917
 20
2577.4033568925
 30
0.0
 40
1.0
100
AcDbArc
 50
270.0
 51
0.0
  0
LINE
  5
EF
330
1F
100
AcDbEntity
  8
0
  6
Continuous
 62
     7
370
    25
100
AcDbLine
 10
3094.3759275917
 20
2785.4033568925
 30
0.0
 11
3094.3759275917
 21
2777.4033568925
 31
0.0
  0
ARC
  5
F0
330
1F
100
AcDbEntity
  8
0
  6
Continuous
 62
     7
370
    25
100
AcDbCircle
 10
3093.3759275917
 20
2785.4033568925
 30
0.0
 40
1.0
100
AcDbArc
 50
0.0
 51
90.0
  0
LINE
  5
F1
330
1F
100
AcDbEntity
  8
0
  6
Continuous
 62
     7
370
    25
100
AcDbLine
 10
3088.3759275917
 20
2786.4033568925
 30
0.0
 11
3093.3759275917
 21
2786.4033568925
 31
0.0
  0
ARC
  5
F2
330
1F
100
AcDbEntity
  8
0
  6
Continuous
 62
     7
370
    25
100
AcDbCircle
 10
3088.3759275917
 20
2785.4033568925
 30
0.0
 40
1.0
100
AcDbArc
 50
90.0
 51
180.0
  0
LINE
  5
F3
330
1F
100
AcDbEntity
  8
0
  6
Continuous
 62
     7
370
    25
100
AcDbLine
 10
3087.3759275917
 20
2777.4033568925
 30
0.0
 11
3087.3759275917
 21
2785.4033568925
 31
0.0
  0
ARC
  5
F4
330
1F
100
AcDbEntity
  8
0
  6
Continuous
 62
     7
370
    25
100
AcDbCircle
 10
3088.3759275917
 20
2777.4033568925
 30
0.0
 40
1.0
100
AcDbArc
 50
180.0
 51
270.0
  0
LINE
  5
F5
330
1F
100
AcDbEntity
  8
0
  6
Continuous
 62
     7
370
    25
100
AcDbLine
 10
3093.3759275917
 20
2776.4033568925
 30
0.0
 11
3088.3759275917
 21
2776.4033568925
 31
0.0
  0
ARC
  5
F6
330
1F
100
AcDbEntity
  8
0
  6
Continuous
 62
     7
370
    25
100
AcDbCircle
 10
3093.3759275917
 20
2777.4033568925
 30
0.0
 40
0.9999999999995453
100
AcDbArc
 50
270.0
 51
0.0
  0
LINE
  5
F7
330
1F
100
AcDbEntity
  8
0
  6
Continuous
 62
     7
370
    25
100
AcDbLine
 10
131.3759275917
 20
2585.4033568925
 30
0.0
 11
131.3759275917
 21
2577.4033568925
 31
0.0
  0
ARC
  5
F8
330
1F
100
AcDbEntity
  8
0
  6
Continuous
 62
     7
370
    25
100
AcDbCircle
 10
130.3759275917
 20
2585.4033568925
 30
0.0
 40
1.000000000000455
100
AcDbArc
 50
0.0
 51
90.0
  0
LINE
  5
F9
330
1F
100
AcDbEntity
  8
0
  6
Continuous
 62
     7
370
    25
100
AcDbLine
 10
125.3759275917
 20
2586.4033568925
 30
0.0
 11
130.3759275917
 21
2586.4033568925
 31
0.0
  0
ARC
  5
FA
330
1F
100
AcDbEntity
  8
0
  6
Continuous
 62
     7
370
    25
100
AcDbCircle
 10
125.3759275917
 20
2585.4033568925
 30
0.0
 40
1.000000000000455
100
AcDbArc
 50
90.0
 51
180.0
  0
LINE
  5
FB
330
1F
100
AcDbEntity
  8
0
  6
Continuous
 62
     7
370
    25
100
AcDbLine
 10
124.3759275917
 20
2577.4033568925
 30
0.0
 11
124.3759275917
 21
2585.4033568925
 31
0.0
  0
ARC
  5
FC
330
1F
100
AcDbEntity
  8
0
  6
Continuous
 62
     7
370
    25
100
AcDbCircle
 10
125.3759275917
 20
2577.4033568925
 30
0.0
 40
1.0
100
AcDbArc
 50
180.0
 51
270.0
  0
LINE
  5
FD
330
1F
100
AcDbEntity
  8
0
  6
Continuous
 62
     7
370
    25
100
AcDbLine
 10
130.3759275917
 20
2576.4033568925
 30
0.0
 11
125.3759275917
 21
2576.4033568925
 31
0.0
  0
ARC
  5
FE
330
1F
100
AcDbEntity
  8
0
  6
Continuous
 62
     7
370
    25
100
AcDbCircle
 10
130.3759275917
 20
2577.4033568925
 30
0.0
 40
1.0
100
AcDbArc
 50
270.0
 51
0.0
  0
LINE
  5
FF
330
1F
100
AcDbEntity
  8
0
  6
Continuous
 62
     7
370
    25
100
AcDbLine
 10
131.3759275917
 20
2785.4033568925
 30
0.0
 11
131.3759275917
 21
2777.4033568925
 31
0.0
  0
ARC
  5
100
330
1F
100
AcDbEntity
  8
0
  6
Continuous
 62
     7
370
    25
100
AcDbCircle
 10
130.3759275917
 20
2785.4033568925
 30
0.0
 40
1.0
100
AcDbArc
 50
0.0
 51
90.0
  0
LINE
  5
101
330
1F
100
AcDbEntity
  8
0
  6
Continuous
 62
     7
370
    25
100
AcDbLine
 10
125.3759275917
 20
2786.4033568925
 30
0.0
 11
130.3759275917
 21
2786.4033568925
 31
0.0
  0
ARC
  5
102
330
1F
100
AcDbEntity
  8
0
  6
Continuous
 62
     7
370
    25
100
AcDbCircle
 10
125.3759275917
 20
2785.4033568925
 30
0.0
 40
1.0
100
AcDbArc
 50
90.0
 51
180.0
  0
LINE
  5
103
330
1F
100
AcDbEntity
  8
0
  6
Continuous
 62
     7
370
    25
100
AcDbLine
 10
124.3759275917
 20
2777.4033568925
 30
0.0
 11
124.3759275917
 21
2785.4033568925
 31
0.0
  0
ARC
  5
104
330
1F
100
AcDbEntity
  8
0
  6
Continuous
 62
     7
370
    25
100
AcDbCircle
 10
125.3759275917
 20
2777.4033568925
 30
0.0
 40
0.9999999999998863
100
AcDbArc
 50
180.0
 51
270.0
  0
LINE
  5
105
330
1F
100
AcDbEntity
  8
0
  6
Continuous
 62
     7
370
    25
100
AcDbLine
 10
130.3759275917
 20
2776.4033568925
 30
0.0
 11
125.3759275917
 21
2776.4033568925
 31
0.0
  0
ARC
  5
106
330
1F
100
AcDbEntity
  8
0
  6
Continuous
 62
     7
370
    25
100
AcDbCircle
 10
130.3759275917
 20
2777.4033568925
 30
0.0
 40
0.9999999999998863
100
AcDbArc
 50
270.0
 51
0.0
  0
LINE
  5
107
330
1F
100
AcDbEntity
  8
0
  6
Continuous
 62
     7
370
    25
100
AcDbLine
 10
3109.3759275917
 20
2481.4033568925
 30
0.0
 11
3109.3759275917
 21
2483.9033568925
 31
0.0
  0
LINE
  5
108
330
1F
100
AcDbEntity
  8
0
  6
Continuous
 62
     7
370
    25
100
AcDbLine
 10
3095.1787032294
 20
2490.9033568925
 30
0.0
 11
3073.5731519539
 21
2490.9033568925
 31
0.0
  0
LINE
  5
109
330
1F
100
AcDbEntity
  8
0
  6
Continuous
 62
     7
370
    25
100
AcDbLine
 10
3045.1787032294
 20
2490.9033568925
 30
0.0
 11
3023.5731519539
 21
2490.9033568925
 31
0.0
  0
LINE
  5
10A
330
1F
100
AcDbEntity
  8
0
  6
Continuous
 62
     7
370
    25
100
AcDbLine
 10
195.1787032294
 20
2490.9033568925
 30
0.0
 11
173.5731519539
 21
2490.9033568925
 31
0.0
  0
LINE
  5
10B
330
1F
100
AcDbEntity
  8
0
  6
Continuous
 62
     7
370
    25
100
AcDbLine
 10
145.1787032294
 20
2490.9033568925
 30
0.0
 11
123.5731519539
 21
2490.9033568925
 31
0.0
  0
LINE
  5
10C
330
1F
100
AcDbEntity
  8
0
  6
Continuous
 62
     7
370
    25
100
AcDbLine
 10
3095.1787032294
 20
2871.9033568925
 30
0.0
 11
3073.5731519539
 21
2871.9033568925
 31
0.0
  0
LINE
  5
10D
330
1F
100
AcDbEntity
  8
0
  6
Continuous
 62
     7
370
    25
100
AcDbLine
 10
3045.1787032294
 20
2871.9033568925
 30
0.0
 11
3023.5731519539
 21
2871.9033568925
 31
0.0
  0
LINE
  5
10E
330
1F
100
AcDbEntity
  8
0
  6
Continuous
 62
     7
370
    25
100
AcDbLine
 10
195.1787032294
 20
2871.9033568925
 30
0.0
 11
173.5731519539
 21
2871.9033568925
 31
0.0
  0
LINE
  5
10F
330
1F
100
AcDbEntity
  8
0
  6
Continuous
 62
     7
370
    25
100
AcDbLine
 10
145.1787032294
 20
2871.9033568925
 30
0.0
 11
123.5731519539
 21
2871.9033568925
 31
0.0
  0
LINE
  5
110
330
1F
100
AcDbEntity
  8
0
  6
Continuous
 62
     7
370
    25
100
AcDbLine
 10
3387.8401275686
 20
2059.5444786984
 30
0.0
 11
3387.8401275686
 21
2058.378709553
 31
0.0
  0
LINE
  5
111
330
1F
100
AcDbEntity
  8
0
  6
Continuous
 62
     7
370
    25
100
AcDbLine
 10
3388.7331585444
 20
2060.2938206608
 30
0.0
 11
3387.8401275686
 21
2059.5444786984
 31
0.0
  0
LINE
  5
112
330
1F
100
AcDbEntity
  8
0
  6
Continuous
 62
     7
370
    25
100
AcDbLine
 10
3389.697339959
 20
2059.1447539961
 30
0.0
 11
3389.3401275686
 21
2058.8450172112
 31
0.0
  0
LINE
  5
113
330
1F
100
AcDbEntity
  8
0
  6
Continuous
 62
     7
370
    25
100
AcDbLine
 10
3389.3401275686
 20
2058.8450172112
 30
0.0
 11
3389.3401275686
 21
2058.378709553
 31
0.0
  0
LINE
  5
114
330
1F
100
AcDbEntity
  8
0
  6
Continuous
 62
     7
370
    25
100
AcDbLine
 10
3387.8401275686
 20
1993.378709553
 30
0.0
 11
3390.3401275686
 21
1993.378709553
 31
0.0
  0
LINE
  5
115
330
1F
100
AcDbEntity
  8
0
  6
Continuous
 62
     7
370
    25
100
AcDbLine
 10
3387.8401275686
 20
1995.878709553
 30
0.0
 11
3387.8401275686
 21
1993.378709553
 31
0.0
  0
LINE
  5
116
330
1F
100
AcDbEntity
  8
0
  6
Continuous
 62
     7
370
    25
100
AcDbLine
 10
3389.3401275686
 20
1995.878709553
 30
0.0
 11
3389.3401275686
 21
1994.878709553
 31
0.0
  0
LINE
  5
117
330
1F
100
AcDbEntity
  8
0
  6
Continuous
 62
     7
370
    25
100
AcDbLine
 10
3389.3401275686
 20
1994.878709553
 30
0.0
 11
3390.3401275686
 21
1994.878709553
 31
0.0
  0
LINE
  5
118
330
1F
100
AcDbEntity
  8
0
  6
Continuous
 62
     7
370
    25
100
AcDbLine
 10
3389.3401275686
 20
1995.878709553
 30
0.0
 11
3389.3401275686
 21
2058.378709553
 31
0.0
  0
LINE
  5
119
330
1F
100
AcDbEntity
  8
0
  6
Continuous
 62
     7
370
    25
100
AcDbLine
 10
3387.8401275686
 20
1995.878709553
 30
0.0
 11
3387.8401275686
 21
2058.378709553
 31
0.0
  0
LINE
  5
11A
330
1F
100
AcDbEntity
  8
0
  6
Continuous
 62
     7
370
    25
100
AcDbLine
 10
3392.619294185
 20
2063.5546756435
 30
0.0
 11
3388.7331585444
 21
2060.2938206608
 31
0.0
  0
LINE
  5
11B
330
1F
100
AcDbEntity
  8
0
  6
Continuous
 62
     7
370
    25
100
AcDbLine
 10
3388.3401275686
 20
2068.6543878319
 30
0.0
 11
3392.619294185
 21
2063.5546756435
 31
0.0
  0
LINE
  5
11C
330
1F
100
AcDbEntity
  8
0
  6
Continuous
 62
     7
370
    25
100
AcDbLine
 10
3397.3401275686
 20
2073.3450172112
 30
0.0
 11
3393.930201983
 21
2073.3450172112
 31
0.0
  0
LINE
  5
11D
330
1F
100
AcDbEntity
  8
0
  6
Continuous
 62
     7
370
    25
100
AcDbLine
 10
3397.3401275686
 20
2065.5578142606
 30
0.0
 11
3397.3401275686
 21
2073.3450172112
 31
0.0
  0
LINE
  5
11E
330
1F
100
AcDbEntity
  8
0
  6
Continuous
 62
     7
370
    25
100
AcDbLine
 10
3397.3401275686
 20
2065.5578142606
 30
0.0
 11
3389.697339959
 21
2059.1447539961
 31
0.0
  0
LINE
  5
11F
330
1F
100
AcDbEntity
  8
0
  6
Continuous
 62
     7
370
    25
100
AcDbLine
 10
3393.930201983
 20
2073.3450172112
 30
0.0
 11
3388.3401275686
 21
2068.6543878319
 31
0.0
  0
LINE
  5
120
330
1F
100
AcDbEntity
  8
0
  6
Continuous
 62
     7
370
    25
100
AcDbLine
 10
3787.8401275686
 20
1993.378709553
 30
0.0
 11
3787.8401275686
 21
1995.878709553
 31
0.0
  0
LINE
  5
121
330
1F
100
AcDbEntity
  8
0
  6
Continuous
 62
     7
370
    25
100
AcDbLine
 10
3785.3401275686
 20
1993.378709553
 30
0.0
 11
3787.8401275686
 21
1993.378709553
 31
0.0
  0
LINE
  5
122
330
1F
100
AcDbEntity
  8
0
  6
Continuous
 62
     7
370
    25
100
AcDbLine
 10
3785.3401275686
 20
1994.878709553
 30
0.0
 11
3786.3401275686
 21
1994.878709553
 31
0.0
  0
LINE
  5
123
330
1F
100
AcDbEntity
  8
0
  6
Continuous
 62
     7
370
    25
100
AcDbLine
 10
3786.3401275686
 20
1994.878709553
 30
0.0
 11
3786.3401275686
 21
1995.878709553
 31
0.0
  0
LINE
  5
124
330
1F
100
AcDbEntity
  8
0
  6
Continuous
 62
     7
370
    25
100
AcDbLine
 10
3785.3401275686
 20
1994.878709553
 30
0.0
 11
3390.3401275686
 21
1994.878709553
 31
0.0
  0
LINE
  5
125
330
1F
100
AcDbEntity
  8
0
  6
Continuous
 62
     7
370
    25
100
AcDbLine
 10
3785.3401275686
 20
1993.378709553
 30
0.0
 11
3390.3401275686
 21
1993.378709553
 31
0.0
  0
LINE
  5
126
330
1F
100
AcDbEntity
  8
0
  6
Continuous
 62
     7
370
    25
100
AcDbLine
 10
3778.3401275686
 20
2065.5578142606
 30
0.0
 11
3785.9829151783
 21
2059.1447539961
 31
0.0
  0
LINE
  5
127
330
1F
100
AcDbEntity
  8
0
  6
Continuous
 62
     7
370
    25
100
AcDbLine
 10
3778.3401275686
 20
2065.5578142606
 30
0.0
 11
3778.3401275686
 21
2073.3450172112
 31
0.0
  0
LINE
  5
128
330
1F
100
AcDbEntity
  8
0
  6
Continuous
 62
     7
370
    25
100
AcDbLine
 10
3781.7500531543
 20
2073.3450172112
 30
0.0
 11
3778.3401275686
 21
2073.3450172112
 31
0.0
  0
LINE
  5
129
330
1F
100
AcDbEntity
  8
0
  6
Continuous
 62
     7
370
    25
100
AcDbLine
 10
3781.7500531543
 20
2073.3450172112
 30
0.0
 11
3787.3401275686
 21
2068.6543878319
 31
0.0
  0
LINE
  5
12A
330
1F
100
AcDbEntity
  8
0
  6
Continuous
 62
     7
370
    25
100
AcDbLine
 10
3783.0609609523
 20
2063.5546756435
 30
0.0
 11
3786.9470965929
 21
2060.2938206608
 31
0.0
  0
LINE
  5
12B
330
1F
100
AcDbEntity
  8
0
  6
Continuous
 62
     7
370
    25
100
AcDbLine
 10
3787.3401275686
 20
2068.6543878319
 30
0.0
 11
3783.0609609523
 21
2063.5546756435
 31
0.0
  0
LINE
  5
12C
330
1F
100
AcDbEntity
  8
0
  6
Continuous
 62
     7
370
    25
100
AcDbLine
 10
3787.8401275686
 20
2058.378709553
 30
0.0
 11
3787.8401275686
 21
1995.878709553
 31
0.0
  0
LINE
  5
12D
330
1F
100
AcDbEntity
  8
0
  6
Continuous
 62
     7
370
    25
100
AcDbLine
 10
3786.3401275686
 20
2058.378709553
 30
0.0
 11
3786.3401275686
 21
1995.878709553
 31
0.0
  0
LINE
  5
12E
330
1F
100
AcDbEntity
  8
0
  6
Continuous
 62
     7
370
    25
100
AcDbLine
 10
3787.8401275686
 20
2059.5444786984
 30
0.0
 11
3786.9470965929
 21
2060.2938206608
 31
0.0
  0
LINE
  5
12F
330
1F
100
AcDbEntity
  8
0
  6
Continuous
 62
     7
370
    25
100
AcDbLine
 10
3786.3401275686
 20
2058.8450172112
 30
0.0
 11
3785.9829151783
 21
2059.1447539961
 31
0.0
  0
LINE
  5
130
330
1F
100
AcDbEntity
  8
0
  6
Continuous
 62
     7
370
    25
100
AcDbLine
 10
3787.8401275686
 20
2058.378709553
 30
0.0
 11
3787.8401275686
 21
2059.5444786984
 31
0.0
  0
LINE
  5
131
330
1F
100
AcDbEntity
  8
0
  6
Continuous
 62
     7
370
    25
100
AcDbLine
 10
3786.3401275686
 20
2058.378709553
 30
0.0
 11
3786.3401275686
 21
2058.8450172112
 31
0.0
  0
LINE
  5
132
330
1F
100
AcDbEntity
  8
0
  6
Continuous
 62
     7
370
    25
100
AcDbLine
 10
1590.4129124374
 20
284.3404722129
 30
0.0
 11
1594.3656919631
 21
278.2284908424
 31
0.0
  0
LINE
  5
133
330
1F
100
AcDbEntity
  8
0
  6
Continuous
 62
     7
370
    25
100
AcDbLine
 10
3711.733255997
 20
1508.9526399469
 30
0.0
 11
1590.4129124374
 21
284.3404722129
 31
0.0
  0
LINE
  5
134
330
1F
100
AcDbEntity
  8
0
  6
Continuous
 62
     7
370
    25
100
AcDbLine
 10
3715.6860355228
 20
1502.8406585765
 30
0.0
 11
3711.733255997
 21
1508.9526399469
 31
0.0
  0
LINE
  5
135
330
1F
100
AcDbEntity
  8
0
  6
Continuous
 62
     7
370
    25
100
AcDbLine
 10
1594.3656919631
 20
278.2284908424
 30
0.0
 11
3715.6860355228
 21
1502.8406585765
 31
0.0
  0
LINE
  5
136
330
1F
100
AcDbEntity
  8
0
  6
Continuous
 62
     7
370
    25
100
AcDbLine
 10
1588.0017309324
 20
279.3738486477
 30
0.0
 11
1593.4059978784
 21
271.0175063119
 31
0.0
  0
LINE
  5
137
330
1F
100
AcDbEntity
  8
0
  6
Continuous
 62
     7
370
    25
100
AcDbLine
 10
1588.0017309324
 20
279.3738486477
 30
0.0
 11
1588.0017309324
 21
285.7324176673
 31
0.0
  0
LINE
  5
138
330
1F
100
AcDbEntity
  8
0
  6
Continuous
 62
     7
370
    25
100
AcDbLine
 10
1590.4129124374
 20
284.3404722129
 30
0.0
 11
1588.0017309324
 21
285.7324176673
 31
0.0
  0
LINE
  5
139
330
1F
100
AcDbEntity
  8
0
  6
Continuous
 62
     7
370
    25
100
AcDbLine
 10
1594.3656919631
 20
278.2284908424
 30
0.0
 11
1591.3398642309
 21
275.8111408805
 31
0.0
  0
LINE
  5
13A
330
1F
100
AcDbEntity
  8
0
  6
Continuous
 62
     7
370
    25
100
AcDbLine
 10
1591.3398642309
 20
275.8111408805
 30
0.0
 11
1594.0877770949
 21
271.5621833752
 31
0.0
  0
LINE
  5
13B
330
1F
100
AcDbEntity
  8
0
  6
Continuous
 62
     7
370
    25
100
AcDbLine
 10
3715.6860355228
 20
1502.8406585765
 30
0.0
 11
3712.6602077905
 21
1500.4233086146
 31
0.0
  0
LINE
  5
13C
330
1F
100
AcDbEntity
  8
0
  6
Continuous
 62
     7
370
    25
100
AcDbLine
 10
1591.3398642309
 20
275.8111408805
 30
0.0
 11
3712.6602077905
 21
1500.4233086146
 31
0.0
  0
LINE
  5
13D
330
1F
100
AcDbEntity
  8
0
  6
Continuous
 62
     7
370
    25
100
AcDbLine
 10
3711.733255997
 20
1508.9526399469
 30
0.0
 11
3709.3220744921
 21
1510.3445854013
 31
0.0
  0
LINE
  5
13E
330
1F
100
AcDbEntity
  8
0
  6
Continuous
 62
     7
370
    25
100
AcDbLine
 10
3709.3220744921
 20
1510.3445854013
 30
0.0
 11
1588.0017309324
 21
285.7324176673
 31
0.0
  0
LINE
  5
13F
330
1F
100
AcDbEntity
  8
0
  6
Continuous
 62
     7
370
    25
100
AcDbLine
 10
3715.4081206546
 20
1496.1743511092
 30
0.0
 11
3712.6602077905
 21
1500.4233086146
 31
0.0
  0
LINE
  5
140
330
1F
100
AcDbEntity
  8
0
  6
Continuous
 62
     7
370
    25
100
AcDbLine
 10
3716.0395889134
 20
1495.1979439485
 30
0.0
 11
3715.4081206546
 21
1496.1743511092
 31
0.0
  0
LINE
  5
141
330
1F
100
AcDbEntity
  8
0
  6
Continuous
 62
     7
370
    25
100
AcDbLine
 10
3716.0395889134
 20
1495.1979439485
 30
0.0
 11
1594.7192453537
 21
270.5857762144
 31
0.0
  0
LINE
  5
142
330
1F
100
AcDbEntity
  8
0
  6
Continuous
 62
     7
370
    25
100
AcDbLine
 10
1594.7192453537
 20
270.5857762144
 30
0.0
 11
1594.0877770949
 21
271.5621833752
 31
0.0
  0
LINE
  5
143
330
1F
100
AcDbEntity
  8
0
  6
Continuous
 62
     7
370
    25
100
AcDbLine
 10
1594.7192453537
 20
269.63387813
 30
0.0
 11
1594.7192453537
 21
270.5857762144
 31
0.0
  0
LINE
  5
144
330
1F
100
AcDbEntity
  8
0
  6
Continuous
 62
     7
370
    25
100
AcDbLine
 10
1593.6585851819
 20
270.2461842139
 30
0.0
 11
1593.6585851819
 21
270.6269434476
 31
0.0
  0
LINE
  5
145
330
1F
100
AcDbEntity
  8
0
  6
Continuous
 62
     7
370
    25
100
AcDbLine
 10
1593.6585851819
 20
270.6269434476
 30
0.0
 11
1593.4059978784
 21
271.0175063119
 31
0.0
  0
LINE
  5
146
330
1F
100
AcDbEntity
  8
0
  6
Continuous
 62
     7
370
    25
100
AcDbLine
 10
3716.0395889134
 20
1494.2460458641
 30
0.0
 11
3716.0395889134
 21
1495.1979439485
 31
0.0
  0
LINE
  5
147
330
1F
100
AcDbEntity
  8
0
  6
Continuous
 62
     7
370
    25
100
AcDbLine
 10
3716.0395889134
 20
1494.2460458641
 30
0.0
 11
3716.0395889134
 21
1443.2122451212
 31
0.0
  0
LINE
  5
148
330
1F
100
AcDbEntity
  8
0
  6
Continuous
 62
     7
370
    25
100
AcDbLine
 10
3716.0395889134
 20
1441.1708930915
 30
0.0
 11
3716.0395889134
 21
1443.2122451212
 31
0.0
  0
LINE
  5
149
330
1F
100
AcDbEntity
  8
0
  6
Continuous
 62
     7
370
    25
100
AcDbLine
 10
3716.0395889134
 20
1441.1708930915
 30
0.0
 11
1594.7192453537
 21
216.5587253574
 31
0.0
  0
LINE
  5
14A
330
1F
100
AcDbEntity
  8
0
  6
Continuous
 62
     7
370
    25
100
AcDbLine
 10
1594.7192453537
 20
216.5587253574
 30
0.0
 11
1594.7192453537
 21
218.6000773871
 31
0.0
  0
LINE
  5
14B
330
1F
100
AcDbEntity
  8
0
  6
Continuous
 62
     7
370
    25
100
AcDbLine
 10
1594.7192453537
 20
269.63387813
 30
0.0
 11
1594.7192453537
 21
218.6000773871
 31
0.0
  0
LWPOLYLINE
  5
14C
330
1F
100
AcDbEntity
  8
0
  6
Continuous
 62
     7
370
    25
100
AcDbPolyline
 90
       10
 70
   128
 43
0.0
 10
1654.1162149734
 20
262.6877078263
 10
1654.9626716426
 20
263.3487088877
 10
1655.7070331452
 20
264.2746875204
 10
1656.2595184983
 20
265.3539570353
 10
1656.5534898145
 20
266.4563416008
 10
1656.5534898145
 20
267.4488773686
 10
1656.2595184983
 20
268.2118498769
 10
1655.7070331452
 20
268.653233381
 10
1654.9626716426
 20
268.7197905162
 10
1654.1162149734
 20
268.4034935095
  0
LINE
  5
14D
330
1F
100
AcDbEntity
  8
0
  6
Continuous
 62
     7
370
    25
100
AcDbLine
 10
1654.1162149734
 20
268.4034935095
 30
0.0
 11
1641.388292912
 21
261.0558205031
 31
0.0
  0
LWPOLYLINE
  5
14E
330
1F
100
AcDbEntity
  8
0
  6
Continuous
 62
     7
370
    25
100
AcDbPolyline
 90
       10
 70
   128
 43
0.0
 10
1641.388292912
 20
261.0558205031
 10
1640.5418362428
 20
260.3948194418
 10
1639.7974747402
 20
259.4688408091
 10
1639.2449893871
 20
258.3895712941
 10
1638.9510180709
 20
257.2871867287
 10
1638.9510180709
 20
256.2946509609
 10
1639.2449893871
 20
255.5316784525
 10
1639.7974747402
 20
255.0902949484
 10
1640.5418362428
 20
255.0237378133
 10
1641.388292912
 20
255.3400348199
  0
LINE
  5
14F
330
1F
100
AcDbEntity
  8
0
  6
Continuous
 62
     7
370
    25
100
AcDbLine
 10
1641.388292912
 20
255.3400348199
 30
0.0
 11
1654.1162149734
 21
262.6877078263
 31
0.0
  0
LWPOLYLINE
  5
150
330
1F
100
AcDbEntity
  8
0
  6
Continuous
 62
     7
370
    25
100
AcDbPolyline
 90
       10
 70
   128
 43
0.0
 10
3691.997958353
 20
1444.847582646
 10
3691.1515016837
 20
1444.1865815847
 10
3690.4071401812
 20
1443.260602952
 10
3689.8546548281
 20
1442.181333437
 10
3689.5606835119
 20
1441.0789488716
 10
3689.5606835119
 20
1440.0864131038
 10
3689.8546548281
 20
1439.3234405954
 10
3690.4071401812
 20
1438.8820570913
 10
3691.1515016837
 20
1438.8154999562
 10
3691.997958353
 20
1439.1317969628
  0
LINE
  5
151
330
1F
100
AcDbEntity
  8
0
  6
Continuous
 62
     7
370
    25
100
AcDbLine
 10
3691.997958353
 20
1439.1317969628
 30
0.0
 11
3704.7258804144
 21
1446.4794699693
 31
0.0
  0
LWPOLYLINE
  5
152
330
1F
100
AcDbEntity
  8
0
  6
Continuous
 62
     7
370
    25
100
AcDbPolyline
 90
       10
 70
   128
 43
0.0
 10
3704.7258804144
 20
1446.4794699693
 10
3705.5723370836
 20
1447.1404710306
 10
3706.3166985862
 20
1448.0664496633
 10
3706.8691839393
 20
1449.1457191783
 10
3707.1631552555
 20
1450.2481037437
 10
3707.1631552555
 20
1451.2406395115
 10
3706.8691839393
 20
1452.0036120199
 10
3706.3166985862
 20
1452.444995524
 10
3705.5723370836
 20
1452.5115526591
 10
3704.7258804144
 20
1452.1952556525
  0
LINE
  5
153
330
1F
100
AcDbEntity
  8
0
  6
Continuous
 62
     7
370
    25
100
AcDbLine
 10
3704.7258804144
 20
1452.1952556525
 30
0.0
 11
3691.997958353
 21
1444.847582646
 31
0.0
  0
LWPOLYLINE
  5
154
330
1F
100
AcDbEntity
  8
0
  6
Continuous
 62
     7
370
    25
100
AcDbPolyline
 90
       10
 70
   128
 43
0.0
 10
3656.6426192937
 20
1424.4373798505
 10
3655.7961626244
 20
1423.7763787891
 10
3655.0518011218
 20
1422.8504001564
 10
3654.4993157687
 20
1421.7711306415
 10
3654.2053444526
 20
1420.668746076
 10
3654.2053444526
 20
1419.6762103082
 10
3654.4993157687
 20
1418.9132377999
 10
3655.0518011218
 20
1418.4718542958
 10
3655.7961626244
 20
1418.4052971606
 10
3656.6426192937
 20
1418.7215941673
  0
LINE
  5
155
330
1F
100
AcDbEntity
  8
0
  6
Continuous
 62
     7
370
    25
100
AcDbLine
 10
3656.6426192937
 20
1418.7215941673
 30
0.0
 11
3669.370541355
 21
1426.0692671737
 31
0.0
  0
LWPOLYLINE
  5
156
330
1F
100
AcDbEntity
  8
0
  6
Continuous
 62
     7
370
    25
100
AcDbPolyline
 90
       10
 70
   128
 43
0.0
 10
3669.370541355
 20
1426.0692671737
 10
3670.2169980243
 20
1426.730268235
 10
3670.9613595269
 20
1427.6562468677
 10
3671.51384488
 20
1428.7355163827
 10
3671.8078161962
 20
1429.8379009481
 10
3671.8078161962
 20
1430.8304367159
 10
3671.51384488
 20
1431.5934092243
 10
3670.9613595269
 20
1432.0347927284
 10
3670.2169980243
 20
1432.1013498635
 10
3669.370541355
 20
1431.7850528569
  0
LINE
  5
157
330
1F
100
AcDbEntity
  8
0
  6
Continuous
 62
     7
370
    25
100
AcDbLine
 10
3669.370541355
 20
1431.7850528569
 30
0.0
 11
3656.6426192937
 21
1424.4373798505
 31
0.0
  0
LWPOLYLINE
  5
158
330
1F
100
AcDbEntity
  8
0
  6
Continuous
 62
     7
370
    25
100
AcDbPolyline
 90
       10
 70
   128
 43
0.0
 10
1618.760875914
 20
242.2775050308
 10
1619.6073325833
 20
242.9385060921
 10
1620.3516940859
 20
243.8644847248
 10
1620.904179439
 20
244.9437542398
 10
1621.1981507552
 20
246.0461388052
 10
1621.1981507552
 20
247.038674573
 10
1620.904179439
 20
247.8016470814
 10
1620.3516940859
 20
248.2430305855
 10
1619.6073325833
 20
248.3095877206
 10
1618.760875914
 20
247.993290714
  0
LINE
  5
159
330
1F
100
AcDbEntity
  8
0
  6
Continuous
 62
     7
370
    25
100
AcDbLine
 10
1618.760875914
 20
247.993290714
 30
0.0
 11
1606.0329538527
 21
240.6456177076
 31
0.0
  0
LWPOLYLINE
  5
15A
330
1F
100
AcDbEntity
  8
0
  6
Continuous
 62
     7
370
    25
100
AcDbPolyline
 90
       10
 70
   128
 43
0.0
 10
1606.0329538527
 20
240.6456177076
 10
1605.1864971834
 20
239.9846166462
 10
1604.4421356808
 20
239.0586380135
 10
1603.8896503278
 20
237.9793684985
 10
1603.5956790116
 20
236.8769839331
 10
1603.5956790116
 20
235.8844481653
 10
1603.8896503278
 20
235.1214756569
 10
1604.4421356808
 20
234.6800921528
 10
1605.1864971834
 20
234.6135350177
 10
1606.0329538527
 20
234.9298320244
  0
LINE
  5
15B
330
1F
100
AcDbEntity
  8
0
  6
Continuous
 62
     7
370
    25
100
AcDbLine
 10
1606.0329538527
 20
234.9298320244
 30
0.0
 11
1618.760875914
 21
242.2775050308
 31
0.0
  0
LWPOLYLINE
  5
15C
330
1F
100
AcDbEntity
  8
0
  6
Continuous
 62
     7
370
    25
100
AcDbPolyline
 90
       10
 70
   128
 43
0.0
 10
1654.1162149734
 20
283.1012281235
 10
1654.9626716426
 20
283.7622291848
 10
1655.7070331452
 20
284.6882078175
 10
1656.2595184983
 20
285.7674773325
 10
1656.5534898145
 20
286.8698618979
 10
1656.5534898145
 20
287.8623976657
 10
1656.2595184983
 20
288.6253701741
 10
1655.7070331452
 20
289.0667536782
 10
1654.9626716426
 20
289.1333108133
 10
1654.1162149734
 20
288.8170138067
  0
LINE
  5
15D
330
1F
100
AcDbEntity
  8
0
  6
Continuous
 62
     7
370
    25
100
AcDbLine
 10
1654.1162149734
 20
288.8170138067
 30
0.0
 11
1641.388292912
 21
281.4693408003
 31
0.0
  0
LWPOLYLINE
  5
15E
330
1F
100
AcDbEntity
  8
0
  6
Continuous
 62
     7
370
    25
100
AcDbPolyline
 90
       10
 70
   128
 43
0.0
 10
1641.388292912
 20
281.4693408003
 10
1640.5418362428
 20
280.8083397389
 10
1639.7974747402
 20
279.8823611062
 10
1639.2449893871
 20
278.8030915912
 10
1638.9510180709
 20
277.7007070258
 10
1638.9510180709
 20
276.708171258
 10
1639.2449893871
 20
275.9451987496
 10
1639.7974747402
 20
275.5038152456
 10
1640.5418362428
 20
275.4372581104
 10
1641.388292912
 20
275.7535551171
  0
LINE
  5
15F
330
1F
100
AcDbEntity
  8
0
  6
Continuous
 62
     7
370
    25
100
AcDbLine
 10
1641.388292912
 20
275.7535551171
 30
0.0
 11
1654.1162149734
 21
283.1012281235
 31
0.0
  0
LWPOLYLINE
  5
160
330
1F
100
AcDbEntity
  8
0
  6
Continuous
 62
     7
370
    25
100
AcDbPolyline
 90
       10
 70
   128
 43
0.0
 10
3691.997958353
 20
1465.2611029432
 10
3691.1515016837
 20
1464.6001018819
 10
3690.4071401812
 20
1463.6741232492
 10
3689.8546548281
 20
1462.5948537342
 10
3689.5606835119
 20
1461.4924691687
 10
3689.5606835119
 20
1460.4999334009
 10
3689.8546548281
 20
1459.7369608926
 10
3690.4071401812
 20
1459.2955773885
 10
3691.1515016837
 20
1459.2290202534
 10
3691.997958353
 20
1459.54531726
  0
LINE
  5
161
330
1F
100
AcDbEntity
  8
0
  6
Continuous
 62
     7
370
    25
100
AcDbLine
 10
3691.997958353
 20
1459.54531726
 30
0.0
 11
3704.7258804144
 21
1466.8929902664
 31
0.0
  0
LWPOLYLINE
  5
162
330
1F
100
AcDbEntity
  8
0
  6
Continuous
 62
     7
370
    25
100
AcDbPolyline
 90
       10
 70
   128
 43
0.0
 10
3704.7258804144
 20
1466.8929902664
 10
3705.5723370836
 20
1467.5539913277
 10
3706.3166985862
 20
1468.4799699604
 10
3706.8691839393
 20
1469.5592394754
 10
3707.1631552555
 20
1470.6616240408
 10
3707.1631552555
 20
1471.6541598087
 10
3706.8691839393
 20
1472.417132317
 10
3706.3166985862
 20
1472.8585158211
 10
3705.5723370836
 20
1472.9250729562
 10
3704.7258804144
 20
1472.6087759496
  0
LINE
  5
163
330
1F
100
AcDbEntity
  8
0
  6
Continuous
 62
     7
370
    25
100
AcDbLine
 10
3704.7258804144
 20
1472.6087759496
 30
0.0
 11
3691.997958353
 21
1465.2611029432
 31
0.0
  0
LWPOLYLINE
  5
164
330
1F
100
AcDbEntity
  8
0
  6
Continuous
 62
     7
370
    25
100
AcDbPolyline
 90
       10
 70
   128
 43
0.0
 10
3656.6426192937
 20
1444.8509001476
 10
3655.7961626244
 20
1444.1898990863
 10
3655.0518011218
 20
1443.2639204536
 10
3654.4993157687
 20
1442.1846509386
 10
3654.2053444526
 20
1441.0822663732
 10
3654.2053444526
 20
1440.0897306054
 10
3654.4993157687
 20
1439.326758097
 10
3655.0518011218
 20
1438.8853745929
 10
3655.7961626244
 20
1438.8188174578
 10
3656.6426192937
 20
1439.1351144644
  0
LINE
  5
165
330
1F
100
AcDbEntity
  8
0
  6
Continuous
 62
     7
370
    25
100
AcDbLine
 10
3656.6426192937
 20
1439.1351144644
 30
0.0
 11
3669.370541355
 21
1446.4827874708
 31
0.0
  0
LWPOLYLINE
  5
166
330
1F
100
AcDbEntity
  8
0
  6
Continuous
 62
     7
370
    25
100
AcDbPolyline
 90
       10
 70
   128
 43
0.0
 10
3669.370541355
 20
1446.4827874708
 10
3670.2169980243
 20
1447.1437885322
 10
3670.9613595269
 20
1448.0697671649
 10
3671.51384488
 20
1449.1490366798
 10
3671.8078161962
 20
1450.2514212453
 10
3671.8078161962
 20
1451.2439570131
 10
3671.51384488
 20
1452.0069295214
 10
3670.9613595269
 20
1452.4483130255
 10
3670.2169980243
 20
1452.5148701607
 10
3669.370541355
 20
1452.198573154
  0
LINE
  5
167
330
1F
100
AcDbEntity
  8
0
  6
Continuous
 62
     7
370
    25
100
AcDbLine
 10
3669.370541355
 20
1452.198573154
 30
0.0
 11
3656.6426192937
 21
1444.8509001476
 31
0.0
  0
LWPOLYLINE
  5
168
330
1F
100
AcDbEntity
  8
0
  6
Continuous
 62
     7
370
    25
100
AcDbPolyline
 90
       10
 70
   128
 43
0.0
 10
1618.760875914
 20
262.6910253279
 10
1619.6073325833
 20
263.3520263892
 10
1620.3516940859
 20
264.2780050219
 10
1620.904179439
 20
265.3572745369
 10
1621.1981507552
 20
266.4596591023
 10
1621.1981507552
 20
267.4521948702
 10
1620.904179439
 20
268.2151673785
 10
1620.3516940859
 20
268.6565508826
 10
1619.6073325833
 20
268.7231080177
 10
1618.760875914
 20
268.4068110111
  0
LINE
  5
169
330
1F
100
AcDbEntity
  8
0
  6
Continuous
 62
     7
370
    25
100
AcDbLine
 10
1618.760875914
 20
268.4068110111
 30
0.0
 11
1606.0329538527
 21
261.0591380047
 31
0.0
  0
LWPOLYLINE
  5
16A
330
1F
100
AcDbEntity
  8
0
  6
Continuous
 62
     7
370
    25
100
AcDbPolyline
 90
       10
 70
   128
 43
0.0
 10
1606.0329538527
 20
261.0591380047
 10
1605.1864971834
 20
260.3981369434
 10
1604.4421356808
 20
259.4721583107
 10
1603.8896503278
 20
258.3928887957
 10
1603.5956790116
 20
257.2905042303
 10
1603.5956790116
 20
256.2979684624
 10
1603.8896503278
 20
255.5349959541
 10
1604.4421356808
 20
255.09361245
 10
1605.1864971834
 20
255.0270553149
 10
1606.0329538527
 20
255.3433523215
  0
LINE
  5
16B
330
1F
100
AcDbEntity
  8
0
  6
Continuous
 62
     7
370
    25
100
AcDbLine
 10
1606.0329538527
 20
255.3433523215
 30
0.0
 11
1618.760875914
 21
262.6910253279
 31
0.0
  0
LINE
  5
16C
330
1F
100
AcDbEntity
  8
0
  6
Continuous
 62
     7
370
    25
100
AcDbLine
 10
1593.6585851819
 20
270.2461842139
 30
0.0
 11
1593.6585851819
 21
219.212383471
 31
0.0
  0
LWPOLYLINE
  5
16D
330
1F
100
AcDbEntity
  8
0
  6
Continuous
 62
     7
370
    25
100
AcDbPolyline
 90
        3
 70
   128
 43
0.0
 10
1604.9722936809
 20
255.9556584054
 10
1604.1258370116
 20
255.6393613987
 10
1603.8350375876
 20
255.6187412248
  0
LINE
  5
16E
330
1F
100
AcDbEntity
  8
0
  6
Continuous
 62
     7
370
    25
100
AcDbLine
 10
1617.7002157423
 20
263.3033314118
 30
0.0
 11
1604.9722936809
 21
255.9556584054
 31
0.0
  0
ARC
  5
16F
330
1F
100
AcDbEntity
  8
0
  6
Continuous
 62
     7
370
    25
100
AcDbCircle
 10
1615.5269662537
 20
267.3454992543
 30
0.0
 40
4.58935008543049
100
AcDbArc
 50
298.2644546682
 51
17.738201934
  0
LWPOLYLINE
  5
170
330
1F
100
AcDbEntity
  8
0
  6
Continuous
 62
     7
370
    25
100
AcDbPolyline
 90
        3
 70
   128
 43
0.0
 10
1604.9722936809
 20
235.5421381082
 10
1604.1258370116
 20
235.2258411016
 10
1603.8350375877
 20
235.2052209276
  0
LINE
  5
171
330
1F
100
AcDbEntity
  8
0
  6
Continuous
 62
     7
370
    25
100
AcDbLine
 10
1592.9514784007
 20
217.5792354972
 30
0.0
 11
1594.7192453537
 21
216.5587253574
 31
0.0
  0
LINE
  5
172
330
1F
100
AcDbEntity
  8
0
  6
Continuous
 62
     7
370
    25
100
AcDbLine
 10
1592.9514784007
 20
218.804046715
 30
0.0
 11
1593.6585851819
 21
218.3958426591
 31
0.0
  0
LINE
  5
173
330
1F
100
AcDbEntity
  8
0
  6
Continuous
 62
     7
370
    25
100
AcDbLine
 10
1593.6585851819
 20
218.3958426591
 30
0.0
 11
1593.6585851819
 21
219.212383471
 31
0.0
  0
LINE
  5
174
330
1F
100
AcDbEntity
  8
0
  6
Continuous
 62
     7
370
    25
100
AcDbLine
 10
1312.9371930509
 20
380.4528528559
 30
0.0
 11
1313.6442998321
 21
380.0446488
 31
0.0
  0
LINE
  5
175
330
1F
100
AcDbEntity
  8
0
  6
Continuous
 62
     7
370
    25
100
AcDbLine
 10
3434.2575366105
 20
1605.06502059
 30
0.0
 11
1312.9371930509
 21
380.4528528559
 31
0.0
  0
LINE
  5
176
330
1F
100
AcDbEntity
  8
0
  6
Continuous
 62
     7
370
    25
100
AcDbLine
 10
3434.2575366105
 20
1605.06502059
 30
0.0
 11
3434.9646433917
 21
1604.6568165341
 31
0.0
  0
LINE
  5
177
330
1F
100
AcDbEntity
  8
0
  6
Continuous
 62
     7
370
    25
100
AcDbLine
 10
3705.22861917
 20
1448.6367442979
 30
0.0
 11
3701.895154608
 21
1450.5611124282
 31
0.0
  0
LINE
  5
178
330
1F
100
AcDbEntity
  8
0
  6
Continuous
 62
     7
370
    25
100
AcDbLine
 10
3653.8289977995
 20
1478.3091141209
 30
0.0
 11
3434.9646433917
 21
1604.6568165341
 31
0.0
  0
LINE
  5
179
330
1F
100
AcDbEntity
  8
0
  6
Continuous
 62
     7
370
    25
100
AcDbLine
 10
1592.9514784007
 20
218.804046715
 30
0.0
 11
1313.6442998321
 21
380.0446488
 31
0.0
  0
ARC
  5
17A
330
1F
100
AcDbEntity
  8
0
  6
Continuous
 62
     7
370
    25
100
AcDbCircle
 10
3556.388383392
 20
1517.0970465411
 30
0.0
 40
0.4366153168335875
100
AcDbArc
 50
110.7834207993
 51
249.2165792007
  0
LINE
  5
17B
330
1F
100
AcDbEntity
  8
0
  6
Continuous
 62
     7
370
    25
100
AcDbLine
 10
3556.2334563652
 20
1516.6888424852
 30
0.0
 11
3561.8903106147
 21
1513.4232100379
 31
0.0
  0
ARC
  5
17C
330
1F
100
AcDbEntity
  8
0
  6
Continuous
 62
     7
370
    25
100
AcDbCircle
 10
3562.5974173959
 20
1514.7879211228
 30
0.0
 40
1.537021907909805
100
AcDbArc
 50
242.6096722366
 51
297.3903277634
  0
LINE
  5
17D
330
1F
100
AcDbEntity
  8
0
  6
Continuous
 62
     7
370
    25
100
AcDbLine
 10
3563.3045241771
 20
1513.4232100379
 30
0.0
 11
3566.840058083
 21
1515.4642303174
 31
0.0
  0
ARC
  5
17E
330
1F
100
AcDbEntity
  8
0
  6
Continuous
 62
     7
370
    25
100
AcDbCircle
 10
3566.6851310562
 20
1515.8724343734
 30
0.0
 40
0.4366153168344455
100
AcDbArc
 50
290.7834207994
 51
69.2165792005
  0
LINE
  5
17F
330
1F
100
AcDbEntity
  8
0
  6
Continuous
 62
     7
370
    25
100
AcDbLine
 10
3566.840058083
 20
1516.2806384293
 30
0.0
 11
3561.1832038335
 21
1519.5462708766
 31
0.0
  0
ARC
  5
180
330
1F
100
AcDbEntity
  8
0
  6
Continuous
 62
     7
370
    25
100
AcDbCircle
 10
3560.4760970523
 20
1518.1815597916
 30
0.0
 40
1.53702190791385
100
AcDbArc
 50
62.6096722366
 51
117.3903277634
  0
LINE
  5
181
330
1F
100
AcDbEntity
  8
0
  6
Continuous
 62
     7
370
    25
100
AcDbLine
 10
3559.7689902711
 20
1519.5462708766
 30
0.0
 11
3556.2334563652
 21
1517.505250597
 31
0.0
  0
ARC
  5
182
330
1F
100
AcDbEntity
  8
0
  6
Continuous
 62
     7
370
    25
100
AcDbCircle
 10
1461.2309907362
 20
307.5884288758
 30
0.0
 40
0.4366153168341779
100
AcDbArc
 50
110.7834207994
 51
249.2165792006
  0
LINE
  5
183
330
1F
100
AcDbEntity
  8
0
  6
Continuous
 62
     7
370
    25
100
AcDbLine
 10
1461.0760637094
 20
307.1802248198
 30
0.0
 11
1466.7329179589
 21
303.9145923726
 31
0.0
  0
ARC
  5
184
330
1F
100
AcDbEntity
  8
0
  6
Continuous
 62
     7
370
    25
100
AcDbCircle
 10
1467.4400247401
 20
305.2793034575
 30
0.0
 40
1.537021907911517
100
AcDbArc
 50
242.6096722366
 51
297.3903277634
  0
LINE
  5
185
330
1F
100
AcDbEntity
  8
0
  6
Continuous
 62
     7
370
    25
100
AcDbLine
 10
1468.1471315213
 20
303.9145923726
 30
0.0
 11
1471.6826654272
 21
305.9556126521
 31
0.0
  0
ARC
  5
186
330
1F
100
AcDbEntity
  8
0
  6
Continuous
 62
     7
370
    25
100
AcDbCircle
 10
1471.5277384005
 20
306.363816708
 30
0.0
 40
0.436615316834231
100
AcDbArc
 50
290.7834207994
 51
69.2165792005
  0
LINE
  5
187
330
1F
100
AcDbEntity
  8
0
  6
Continuous
 62
     7
370
    25
100
AcDbLine
 10
1471.6826654272
 20
306.7720207639
 30
0.0
 11
1466.0258111778
 21
310.0376532112
 31
0.0
  0
ARC
  5
188
330
1F
100
AcDbEntity
  8
0
  6
Continuous
 62
     7
370
    25
100
AcDbCircle
 10
1465.3187043966
 20
308.6729421263
 30
0.0
 40
1.53702190791071
100
AcDbArc
 50
62.6096722366
 51
117.3903277634
  0
LINE
  5
189
330
1F
100
AcDbEntity
  8
0
  6
Continuous
 62
     7
370
    25
100
AcDbLine
 10
1464.6115976154
 20
310.0376532112
 30
0.0
 11
1461.0760637094
 21
307.9966329317
 31
0.0
  0
LINE
  5
18A
330
1F
100
AcDbEntity
  8
0
  6
Continuous
 62
     7
370
    25
100
AcDbLine
 10
1334.5039498771
 20
381.0651589398
 30
0.0
 11
1347.2318719384
 21
388.4128319462
 31
0.0
  0
LWPOLYLINE
  5
18B
330
1F
100
AcDbEntity
  8
0
  6
Continuous
 62
     7
370
    25
100
AcDbPolyline
 90
       10
 70
   128
 43
0.0
 10
1347.2318719384
 20
388.4128319462
 10
1347.9290754589
 20
388.987642989
 10
1348.2436796476
 20
389.6654473543
 10
1348.1377385963
 20
390.3644918323
 10
1347.6240303593
 20
391.0004613422
 10
1346.7645157315
 20
391.4966485751
 10
1345.6628648621
 20
391.793206028
 10
1344.4519531046
 20
391.8543644951
 10
1343.2778342882
 20
391.6727473628
 10
1342.2821244701
 20
391.2702603376
  0
LINE
  5
18C
330
1F
100
AcDbEntity
  8
0
  6
Continuous
 62
     7
370
    25
100
AcDbLine
 10
1342.2821244701
 20
391.2702603376
 30
0.0
 11
1329.5542024088
 21
383.9225873312
 31
0.0
  0
LWPOLYLINE
  5
18D
330
1F
100
AcDbEntity
  8
0
  6
Continuous
 62
     7
370
    25
100
AcDbPolyline
 90
       10
 70
   128
 43
0.0
 10
1329.5542024088
 20
383.9225873312
 10
1328.8569988883
 20
383.3477762884
 10
1328.5423946996
 20
382.6699719231
 10
1328.6483357509
 20
381.9709274451
 10
1329.1620439879
 20
381.3349579352
 10
1330.0215586157
 20
380.8387707022
 10
1331.123209485
 20
380.5422132494
 10
1332.3341212425
 20
380.4810547823
 10
1333.508240059
 20
380.6626719146
 10
1334.5039498771
 20
381.0651589398
  0
LINE
  5
18E
330
1F
100
AcDbEntity
  8
0
  6
Continuous
 62
     7
370
    25
100
AcDbLine
 10
3693.4121719154
 20
1442.3957043093
 30
0.0
 11
3689.5487347005
 21
1440.1653894787
 31
0.0
  0
ARC
  5
18F
330
1F
100
AcDbEntity
  8
0
  6
Continuous
 62
     7
370
    25
100
AcDbCircle
 10
3695.8676313501
 20
1437.6550309835
 30
0.0
 40
5.33884487674888
100
AcDbArc
 50
83.1834142245
 51
117.3821616972
  0
LINE
  5
190
330
1F
100
AcDbEntity
  8
0
  6
Continuous
 62
     7
370
    25
100
AcDbLine
 10
3658.0568328561
 20
1421.9855015138
 30
0.0
 11
3654.1933956412
 21
1419.7551866832
 31
0.0
  0
ARC
  5
191
330
1F
100
AcDbEntity
  8
0
  6
Continuous
 62
     7
370
    25
100
AcDbCircle
 10
3660.5122922908
 20
1417.2448281879
 30
0.0
 40
5.338844876746227
100
AcDbArc
 50
83.1834142245
 51
117.3821616972
  0
LINE
  5
192
330
1F
100
AcDbEntity
  8
0
  6
Continuous
 62
     7
370
    25
100
AcDbLine
 10
3392.8917899111
 20
1575.0620224805
 30
0.0
 11
3380.1638678497
 21
1567.7143494741
 31
0.0
  0
LWPOLYLINE
  5
193
330
1F
100
AcDbEntity
  8
0
  6
Continuous
 62
     7
370
    25
100
AcDbPolyline
 90
       10
 70
   128
 43
0.0
 10
3380.1638678497
 20
1567.7143494741
 10
3379.4666643293
 20
1567.1395384313
 10
3379.1520601406
 20
1566.4617340661
 10
3379.2580011919
 20
1565.762689588
 10
3379.7717094289
 20
1565.1267200781
 10
3380.6312240567
 20
1564.6305328452
 10
3381.732874926
 20
1564.3339753924
 10
3382.9437866835
 20
1564.2728169252
 10
3384.1179055
 20
1564.4544340575
 10
3385.1136153181
 20
1564.8569210827
  0
LINE
  5
194
330
1F
100
AcDbEntity
  8
0
  6
Continuous
 62
     7
370
    25
100
AcDbLine
 10
3385.1136153181
 20
1564.8569210827
 30
0.0
 11
3397.8415373794
 21
1572.2045940891
 31
0.0
  0
LWPOLYLINE
  5
195
330
1F
100
AcDbEntity
  8
0
  6
Continuous
 62
     7
370
    25
100
AcDbPolyline
 90
       10
 70
   128
 43
0.0
 10
3397.8415373794
 20
1572.2045940891
 10
3398.5387408999
 20
1572.7794051319
 10
3398.8533450886
 20
1573.4572094972
 10
3398.7474040373
 20
1574.1562539752
 10
3398.2336958003
 20
1574.7922234851
 10
3397.3741811725
 20
1575.2884107181
 10
3396.2725303031
 20
1575.5849681709
 10
3395.0616185456
 20
1575.646126638
 10
3393.8874997292
 20
1575.4645095057
 10
3392.8917899111
 20
1575.0620224805
  0
LINE
  5
196
330
1F
100
AcDbEntity
  8
0
  6
Continuous
 62
     7
370
    25
100
AcDbLine
 10
1369.8592889364
 20
401.4753617354
 30
0.0
 11
1382.5872109977
 21
408.8230347418
 31
0.0
  0
LWPOLYLINE
  5
197
330
1F
100
AcDbEntity
  8
0
  6
Continuous
 62
     7
370
    25
100
AcDbPolyline
 90
       10
 70
   128
 43
0.0
 10
1382.5872109977
 20
408.8230347418
 10
1383.2844145182
 20
409.3978457845
 10
1383.5990187069
 20
410.0756501498
 10
1383.4930776556
 20
410.7746946278
 10
1382.9793694186
 20
411.4106641377
 10
1382.1198547908
 20
411.9068513707
 10
1381.0182039215
 20
412.2034088235
 10
1379.807292164
 20
412.2645672906
 10
1378.6331733475
 20
412.0829501583
 10
1377.6374635294
 20
411.6804631331
  0
LINE
  5
198
330
1F
100
AcDbEntity
  8
0
  6
Continuous
 62
     7
370
    25
100
AcDbLine
 10
1377.6374635294
 20
411.6804631331
 30
0.0
 11
1364.9095414681
 21
404.3327901267
 31
0.0
  0
LWPOLYLINE
  5
199
330
1F
100
AcDbEntity
  8
0
  6
Continuous
 62
     7
370
    25
100
AcDbPolyline
 90
       10
 70
   128
 43
0.0
 10
1364.9095414681
 20
404.3327901267
 10
1364.2123379476
 20
403.757979084
 10
1363.8977337589
 20
403.0801747187
 10
1364.0036748102
 20
402.3811302407
 10
1364.5173830472
 20
401.7451607308
 10
1365.376897675
 20
401.2489734978
 10
1366.4785485444
 20
400.952416045
 10
1367.6894603018
 20
400.8912575779
 10
1368.8635791183
 20
401.0728747102
 10
1369.8592889364
 20
401.4753617354
  0
ARC
  5
19A
330
1F
100
AcDbEntity
  8
0
  6
Continuous
 62
     7
370
    25
100
AcDbCircle
 10
1609.9026268498
 20
233.453066045
 30
0.0
 40
5.338844876745859
100
AcDbArc
 50
83.1834142245
 51
117.3821616972
  0
LINE
  5
19B
330
1F
100
AcDbEntity
  8
0
  6
Continuous
 62
     7
370
    25
100
AcDbLine
 10
1607.4471674151
 20
238.1937393708
 30
0.0
 11
1603.5837302002
 21
235.9634245403
 31
0.0
  0
ARC
  5
19C
330
1F
100
AcDbEntity
  8
0
  6
Continuous
 62
     7
370
    25
100
AcDbCircle
 10
1645.2579659091
 20
253.8632688405
 30
0.0
 40
5.338844876750941
100
AcDbArc
 50
83.1834142245
 51
117.3821616972
  0
LINE
  5
19D
330
1F
100
AcDbEntity
  8
0
  6
Continuous
 62
     7
370
    25
100
AcDbLine
 10
1642.8025064744
 20
258.6039421664
 30
0.0
 11
1638.9390692595
 21
256.3736273358
 31
0.0
  0
LINE
  5
19E
330
1F
100
AcDbEntity
  8
0
  6
Continuous
 62
     7
370
    25
100
AcDbLine
 10
3428.2471289704
 20
1595.4722252761
 30
0.0
 11
3415.5192069091
 21
1588.1245522697
 31
0.0
  0
LWPOLYLINE
  5
19F
330
1F
100
AcDbEntity
  8
0
  6
Continuous
 62
     7
370
    25
100
AcDbPolyline
 90
       10
 70
   128
 43
0.0
 10
3415.5192069091
 20
1588.1245522697
 10
3414.8220033886
 20
1587.5497412269
 10
3414.5073991999
 20
1586.8719368616
 10
3414.6133402512
 20
1586.1728923836
 10
3415.1270484882
 20
1585.5369228737
 10
3415.986563116
 20
1585.0407356407
 10
3417.0882139854
 20
1584.7441781879
 10
3418.2991257428
 20
1584.6830197208
 10
3419.4732445593
 20
1584.8646368531
 10
3420.4689543774
 20
1585.2671238783
  0
LINE
  5
1A0
330
1F
100
AcDbEntity
  8
0
  6
Continuous
 62
     7
370
    25
100
AcDbLine
 10
3420.4689543774
 20
1585.2671238783
 30
0.0
 11
3433.1968764387
 21
1592.6147968847
 31
0.0
  0
LWPOLYLINE
  5
1A1
330
1F
100
AcDbEntity
  8
0
  6
Continuous
 62
     7
370
    25
100
AcDbPolyline
 90
       10
 70
   128
 43
0.0
 10
3433.1968764387
 20
1592.6147968847
 10
3433.8940799592
 20
1593.1896079275
 10
3434.2086841479
 20
1593.8674122927
 10
3434.1027430966
 20
1594.5664567708
 10
3433.5890348596
 20
1595.2024262807
 10
3432.7295202318
 20
1595.6986135136
 10
3431.6278693624
 20
1595.9951709664
 10
3430.416957605
 20
1596.0563294336
 10
3429.2428387885
 20
1595.8747123013
 10
3428.2471289704
 20
1595.4722252761
  0
ARC
  5
1A2
330
1F
100
AcDbEntity
  8
0
  6
Continuous
 62
     7
370
    25
100
AcDbCircle
 10
3485.6777052733
 20
1557.9174521322
 30
0.0
 40
0.4366153168343354
100
AcDbArc
 50
110.7834207994
 51
249.2165792006
  0
LINE
  5
1A3
330
1F
100
AcDbEntity
  8
0
  6
Continuous
 62
     7
370
    25
100
AcDbLine
 10
3485.5227782465
 20
1557.5092480763
 30
0.0
 11
3491.179632496
 21
1554.243615629
 31
0.0
  0
ARC
  5
1A4
330
1F
100
AcDbEntity
  8
0
  6
Continuous
 62
     7
370
    25
100
AcDbCircle
 10
3491.8867392772
 20
1555.608326714
 30
0.0
 40
1.537021907911622
100
AcDbArc
 50
242.6096722366
 51
297.3903277634
  0
LINE
  5
1A5
330
1F
100
AcDbEntity
  8
0
  6
Continuous
 62
     7
370
    25
100
AcDbLine
 10
3492.5938460584
 20
1554.243615629
 30
0.0
 11
3496.1293799643
 21
1556.2846359086
 31
0.0
  0
ARC
  5
1A6
330
1F
100
AcDbEntity
  8
0
  6
Continuous
 62
     7
370
    25
100
AcDbCircle
 10
3495.9744529375
 20
1556.6928399645
 30
0.0
 40
0.4366153168342842
100
AcDbArc
 50
290.7834207994
 51
69.2165792006
  0
LINE
  5
1A7
330
1F
100
AcDbEntity
  8
0
  6
Continuous
 62
     7
370
    25
100
AcDbLine
 10
3496.1293799643
 20
1557.1010440204
 30
0.0
 11
3490.4725257148
 21
1560.3666764677
 31
0.0
  0
ARC
  5
1A8
330
1F
100
AcDbEntity
  8
0
  6
Continuous
 62
     7
370
    25
100
AcDbCircle
 10
3489.7654189337
 20
1559.0019653827
 30
0.0
 40
1.53702190791041
100
AcDbArc
 50
62.6096722366
 51
117.3903277634
  0
LINE
  5
1A9
330
1F
100
AcDbEntity
  8
0
  6
Continuous
 62
     7
370
    25
100
AcDbLine
 10
3489.0583121525
 20
1560.3666764677
 30
0.0
 11
3485.5227782465
 21
1558.3256561881
 31
0.0
  0
ARC
  5
1AA
330
1F
100
AcDbEntity
  8
0
  6
Continuous
 62
     7
370
    25
100
AcDbCircle
 10
3627.0990615106
 20
1476.27664095
 30
0.0
 40
0.4366153168339102
100
AcDbArc
 50
110.7834207994
 51
249.2165792006
  0
LINE
  5
1AB
330
1F
100
AcDbEntity
  8
0
  6
Continuous
 62
     7
370
    25
100
AcDbLine
 10
3626.9441344838
 20
1475.868436894
 30
0.0
 11
3632.6009887333
 21
1472.6028044468
 31
0.0
  0
ARC
  5
1AC
330
1F
100
AcDbEntity
  8
0
  6
Continuous
 62
     7
370
    25
100
AcDbCircle
 10
3633.3080955145
 20
1473.9675155317
 30
0.0
 40
1.53702190791222
100
AcDbArc
 50
242.6096722366
 51
297.3903277634
  0
LINE
  5
1AD
330
1F
100
AcDbEntity
  8
0
  6
Continuous
 62
     7
370
    25
100
AcDbLine
 10
3634.0152022957
 20
1472.6028044468
 30
0.0
 11
3637.5507362016
 21
1474.6438247263
 31
0.0
  0
ARC
  5
1AE
330
1F
100
AcDbEntity
  8
0
  6
Continuous
 62
     7
370
    25
100
AcDbCircle
 10
3637.3958091749
 20
1475.0520287822
 30
0.0
 40
0.4366153168344455
100
AcDbArc
 50
290.7834207994
 51
69.2165792005
  0
LINE
  5
1AF
330
1F
100
AcDbEntity
  8
0
  6
Continuous
 62
     7
370
    25
100
AcDbLine
 10
3637.5507362016
 20
1475.4602328381
 30
0.0
 11
3631.8938819522
 21
1478.7258652854
 31
0.0
  0
ARC
  5
1B0
330
1F
100
AcDbEntity
  8
0
  6
Continuous
 62
     7
370
    25
100
AcDbCircle
 10
3631.186775171
 20
1477.3611542005
 30
0.0
 40
1.537021907911629
100
AcDbArc
 50
62.6096722366
 51
117.3903277634
  0
LINE
  5
1B1
330
1F
100
AcDbEntity
  8
0
  6
Continuous
 62
     7
370
    25
100
AcDbLine
 10
3630.4796683898
 20
1478.7258652854
 30
0.0
 11
3626.9441344838
 21
1476.6848450059
 31
0.0
  0
ARC
  5
1B2
330
1F
100
AcDbEntity
  8
0
  6
Continuous
 62
     7
370
    25
100
AcDbCircle
 10
1390.5203126176
 20
348.4088344669
 30
0.0
 40
0.4366153168343392
100
AcDbArc
 50
110.7834207995
 51
249.2165792005
  0
LINE
  5
1B3
330
1F
100
AcDbEntity
  8
0
  6
Continuous
 62
     7
370
    25
100
AcDbLine
 10
1390.3653855908
 20
348.000630411
 30
0.0
 11
1396.0222398403
 21
344.7349979637
 31
0.0
  0
ARC
  5
1B4
330
1F
100
AcDbEntity
  8
0
  6
Continuous
 62
     7
370
    25
100
AcDbCircle
 10
1396.7293466215
 20
346.0997090486
 30
0.0
 40
1.537021907911171
100
AcDbArc
 50
242.6096722366
 51
297.3903277634
  0
LINE
  5
1B5
330
1F
100
AcDbEntity
  8
0
  6
Continuous
 62
     7
370
    25
100
AcDbLine
 10
1397.4364534027
 20
344.7349979637
 30
0.0
 11
1400.9719873086
 21
346.7760182432
 31
0.0
  0
ARC
  5
1B6
330
1F
100
AcDbEntity
  8
0
  6
Continuous
 62
     7
370
    25
100
AcDbCircle
 10
1400.8170602818
 20
347.1842222992
 30
0.0
 40
0.4366153168340972
100
AcDbArc
 50
290.7834207994
 51
69.2165792006
  0
LINE
  5
1B7
330
1F
100
AcDbEntity
  8
0
  6
Continuous
 62
     7
370
    25
100
AcDbLine
 10
1400.9719873086
 20
347.5924263551
 30
0.0
 11
1395.3151330591
 21
350.8580588024
 31
0.0
  0
ARC
  5
1B8
330
1F
100
AcDbEntity
  8
0
  6
Continuous
 62
     7
370
    25
100
AcDbCircle
 10
1394.6080262779
 20
349.4933477174
 30
0.0
 40
1.537021907911164
100
AcDbArc
 50
62.6096722366
 51
117.3903277634
  0
LINE
  5
1B9
330
1F
100
AcDbEntity
  8
0
  6
Continuous
 62
     7
370
    25
100
AcDbLine
 10
1393.9009194967
 20
350.8580588024
 30
0.0
 11
1390.3653855908
 21
348.8170385228
 31
0.0
  0
ARC
  5
1BA
330
1F
100
AcDbEntity
  8
0
  6
Continuous
 62
     7
370
    25
100
AcDbCircle
 10
1531.9416688549
 20
266.7680232846
 30
0.0
 40
0.4366153168341247
100
AcDbArc
 50
110.7834207994
 51
249.2165792006
  0
LINE
  5
1BB
330
1F
100
AcDbEntity
  8
0
  6
Continuous
 62
     7
370
    25
100
AcDbLine
 10
1531.7867418281
 20
266.3598192287
 30
0.0
 11
1537.4435960776
 21
263.0941867814
 31
0.0
  0
ARC
  5
1BC
330
1F
100
AcDbEntity
  8
0
  6
Continuous
 62
     7
370
    25
100
AcDbCircle
 10
1538.1507028588
 20
264.4588978664
 30
0.0
 40
1.537021907912177
100
AcDbArc
 50
242.6096722366
 51
297.3903277634
  0
LINE
  5
1BD
330
1F
100
AcDbEntity
  8
0
  6
Continuous
 62
     7
370
    25
100
AcDbLine
 10
1538.85780964
 20
263.0941867814
 30
0.0
 11
1542.3933435459
 21
265.135207061
 31
0.0
  0
ARC
  5
1BE
330
1F
100
AcDbEntity
  8
0
  6
Continuous
 62
     7
370
    25
100
AcDbCircle
 10
1542.2384165191
 20
265.5434111169
 30
0.0
 40
0.4366153168341779
100
AcDbArc
 50
290.7834207994
 51
69.2165792006
  0
LINE
  5
1BF
330
1F
100
AcDbEntity
  8
0
  6
Continuous
 62
     7
370
    25
100
AcDbLine
 10
1542.3933435459
 20
265.9516151728
 30
0.0
 11
1536.7364892964
 21
269.2172476201
 31
0.0
  0
ARC
  5
1C0
330
1F
100
AcDbEntity
  8
0
  6
Continuous
 62
     7
370
    25
100
AcDbCircle
 10
1536.0293825152
 20
267.8525365351
 30
0.0
 40
1.53702190791248
100
AcDbArc
 50
62.6096722366
 51
117.3903277634
  0
LINE
  5
1C1
330
1F
100
AcDbEntity
  8
0
  6
Continuous
 62
     7
370
    25
100
AcDbLine
 10
1535.322275734
 20
269.2172476201
 30
0.0
 11
1531.7867418281
 21
267.1762273405
 31
0.0
  0
LINE
  5
1C2
330
1F
100
AcDbEntity
  8
0
  6
Continuous
 62
     7
370
    25
100
AcDbLine
 10
1592.9514784007
 20
217.5792354972
 30
0.0
 11
1313.6442998321
 21
378.8198375822
 31
0.0
  0
LINE
  5
1C3
330
1F
100
AcDbEntity
  8
0
  6
Continuous
 62
     7
370
    25
100
AcDbLine
 10
1617.7002157423
 20
242.8898111146
 30
0.0
 11
1604.9722936809
 21
235.5421381082
 31
0.0
  0
ARC
  5
1C4
330
1F
100
AcDbEntity
  8
0
  6
Continuous
 62
     7
370
    25
100
AcDbCircle
 10
1615.5269662537
 20
246.9319789572
 30
0.0
 40
4.589350085454769
100
AcDbArc
 50
298.2644546684
 51
17.7382019333
  0
LWPOLYLINE
  5
1C5
330
1F
100
AcDbEntity
  8
0
  6
Continuous
 62
     7
370
    25
100
AcDbPolyline
 90
        3
 70
   128
 43
0.0
 10
1640.3276327402
 20
276.3658612009
 10
1639.481176071
 20
276.0495641943
 10
1639.190376647
 20
276.0289440203
  0
LINE
  5
1C6
330
1F
100
AcDbEntity
  8
0
  6
Continuous
 62
     7
370
    25
100
AcDbLine
 10
1653.0555548016
 20
283.7135342073
 30
0.0
 11
1640.3276327402
 21
276.3658612009
 31
0.0
  0
ARC
  5
1C7
330
1F
100
AcDbEntity
  8
0
  6
Continuous
 62
     7
370
    25
100
AcDbCircle
 10
1650.882305313
 20
287.7557020499
 30
0.0
 40
4.589350085419849
100
AcDbArc
 50
298.2644546682
 51
17.7382019343
  0
LWPOLYLINE
  5
1C8
330
1F
100
AcDbEntity
  8
0
  6
Continuous
 62
     7
370
    25
100
AcDbPolyline
 90
        3
 70
   128
 43
0.0
 10
1640.3276327402
 20
255.9523409038
 10
1639.481176071
 20
255.6360438972
 10
1639.190376647
 20
255.6154237232
  0
LINE
  5
1C9
330
1F
100
AcDbEntity
  8
0
  6
Continuous
 62
     7
370
    25
100
AcDbLine
 10
1653.0555548016
 20
263.3000139102
 30
0.0
 11
1640.3276327402
 21
255.9523409038
 31
0.0
  0
ARC
  5
1CA
330
1F
100
AcDbEntity
  8
0
  6
Continuous
 62
     7
370
    25
100
AcDbCircle
 10
1650.8823053131
 20
267.3421817527
 30
0.0
 40
4.589350085403861
100
AcDbArc
 50
298.2644546681
 51
17.7382019348
  0
LINE
  5
1CB
330
1F
100
AcDbEntity
  8
0
  6
Continuous
 62
     7
370
    25
100
AcDbLine
 10
1542.0396177542
 20
264.931005508
 30
0.0
 11
1536.7364892964
 21
267.9924364023
 31
0.0
  0
LINE
  5
1CC
330
1F
100
AcDbEntity
  8
0
  6
Continuous
 62
     7
370
    25
100
AcDbLine
 10
1535.322275734
 20
267.9924364023
 30
0.0
 11
1532.1404676198
 21
266.1556176757
 31
0.0
  0
ARC
  5
1CD
330
1F
100
AcDbEntity
  8
0
  6
Continuous
 62
     7
370
    25
100
AcDbCircle
 10
1536.0293825152
 20
266.6277253173
 30
0.0
 40
1.537021907911622
100
AcDbArc
 50
62.6096722366
 51
117.3903277634
  0
LINE
  5
1CE
330
1F
100
AcDbEntity
  8
0
  6
Continuous
 62
     7
370
    25
100
AcDbLine
 10
1471.3289396355
 20
305.7514110991
 30
0.0
 11
1466.0258111778
 21
308.8128419934
 31
0.0
  0
LINE
  5
1CF
330
1F
100
AcDbEntity
  8
0
  6
Continuous
 62
     7
370
    25
100
AcDbLine
 10
1464.6115976154
 20
308.8128419934
 30
0.0
 11
1461.4297895012
 21
306.9760232668
 31
0.0
  0
ARC
  5
1D0
330
1F
100
AcDbEntity
  8
0
  6
Continuous
 62
     7
370
    25
100
AcDbCircle
 10
1465.3187043966
 20
307.4481309084
 30
0.0
 40
1.537021907911265
100
AcDbArc
 50
62.6096722366
 51
117.3903277634
  0
LINE
  5
1D1
330
1F
100
AcDbEntity
  8
0
  6
Continuous
 62
     7
370
    25
100
AcDbLine
 10
1315.2559140019
 20
435.1910128517
 30
0.0
 11
1312.5080011379
 21
434.114728007
 31
0.0
  0
LINE
  5
1D2
330
1F
100
AcDbEntity
  8
0
  6
Continuous
 62
     7
370
    25
100
AcDbLine
 10
1312.2300862697
 20
441.1019091511
 30
0.0
 11
1315.2559140019
 21
435.1910128517
 31
0.0
  0
LINE
  5
1D3
330
1F
100
AcDbEntity
  8
0
  6
Continuous
 62
     7
370
    25
100
AcDbLine
 10
1316.1828657954
 20
442.6501084239
 30
0.0
 11
1312.2300862697
 21
441.1019091511
 31
0.0
  0
LINE
  5
1D4
330
1F
100
AcDbEntity
  8
0
  6
Continuous
 62
     7
370
    25
100
AcDbLine
 10
1318.5940473004
 20
441.2581629695
 30
0.0
 11
1316.1828657954
 21
442.6501084239
 31
0.0
  0
LINE
  5
1D5
330
1F
100
AcDbEntity
  8
0
  6
Continuous
 62
     7
370
    25
100
AcDbLine
 10
1318.5940473004
 20
434.8995939499
 30
0.0
 11
1318.5940473004
 21
441.2581629695
 31
0.0
  0
LINE
  5
1D6
330
1F
100
AcDbEntity
  8
0
  6
Continuous
 62
     7
370
    25
100
AcDbLine
 10
1318.5940473004
 20
434.8995939499
 30
0.0
 11
1313.1897803544
 21
432.7828854157
 31
0.0
  0
LINE
  5
1D7
330
1F
100
AcDbEntity
  8
0
  6
Continuous
 62
     7
370
    25
100
AcDbLine
 10
3439.91439086
 20
1659.511761684
 30
0.0
 11
1318.5940473004
 21
434.8995939499
 31
0.0
  0
LINE
  5
1D8
330
1F
100
AcDbEntity
  8
0
  6
Continuous
 62
     7
370
    25
100
AcDbLine
 10
3439.91439086
 20
1665.8703307036
 30
0.0
 11
1318.5940473004
 21
441.2581629695
 31
0.0
  0
LINE
  5
1D9
330
1F
100
AcDbEntity
  8
0
  6
Continuous
 62
     7
370
    25
100
AcDbLine
 10
3439.91439086
 20
1665.8703307036
 30
0.0
 11
3439.91439086
 21
1659.511761684
 31
0.0
  0
LINE
  5
1DA
330
1F
100
AcDbEntity
  8
0
  6
Continuous
 62
     7
370
    25
100
AcDbLine
 10
3437.503209355
 20
1667.262276158
 30
0.0
 11
1316.1828657954
 21
442.6501084239
 31
0.0
  0
LINE
  5
1DB
330
1F
100
AcDbEntity
  8
0
  6
Continuous
 62
     7
370
    25
100
AcDbLine
 10
3439.91439086
 20
1665.8703307036
 30
0.0
 11
3437.503209355
 21
1667.262276158
 31
0.0
  0
LINE
  5
1DC
330
1F
100
AcDbEntity
  8
0
  6
Continuous
 62
     7
370
    25
100
AcDbLine
 10
3433.5504298293
 20
1665.7140768851
 30
0.0
 11
3437.503209355
 21
1667.262276158
 31
0.0
  0
LINE
  5
1DD
330
1F
100
AcDbEntity
  8
0
  6
Continuous
 62
     7
370
    25
100
AcDbLine
 10
1312.2300862697
 20
441.1019091511
 30
0.0
 11
3433.5504298293
 21
1665.7140768851
 31
0.0
  0
LINE
  5
1DE
330
1F
100
AcDbEntity
  8
0
  6
Continuous
 62
     7
370
    25
100
AcDbLine
 10
1400.6182615169
 20
346.5718166902
 30
0.0
 11
1395.3151330591
 21
349.6332475845
 31
0.0
  0
LINE
  5
1DF
330
1F
100
AcDbEntity
  8
0
  6
Continuous
 62
     7
370
    25
100
AcDbLine
 10
1393.9009194967
 20
349.6332475845
 30
0.0
 11
1390.7191113825
 21
347.796428858
 31
0.0
  0
ARC
  5
1E0
330
1F
100
AcDbEntity
  8
0
  6
Continuous
 62
     7
370
    25
100
AcDbCircle
 10
1394.6080262779
 20
348.2685364996
 30
0.0
 40
1.537021907910962
100
AcDbArc
 50
62.6096722366
 51
117.3903277634
  0
LINE
  5
1E1
330
1F
100
AcDbEntity
  8
0
  6
Continuous
 62
     7
370
    25
100
AcDbLine
 10
1312.5080011379
 20
434.114728007
 30
0.0
 11
1311.8765328791
 21
433.867398579
 31
0.0
  0
LINE
  5
1E2
330
1F
100
AcDbEntity
  8
0
  6
Continuous
 62
     7
370
    25
100
AcDbLine
 10
1315.0080600684
 20
435.6751907455
 30
0.0
 11
1311.8765328791
 21
433.867398579
 31
0.0
  0
LINE
  5
1E3
330
1F
100
AcDbEntity
  8
0
  6
Continuous
 62
     7
370
    25
100
AcDbLine
 10
1311.8765328791
 20
433.867398579
 30
0.0
 11
1311.8765328791
 21
432.9155004945
 31
0.0
  0
LINE
  5
1E4
330
1F
100
AcDbEntity
  8
0
  6
Continuous
 62
     7
370
    25
100
AcDbLine
 10
1312.9371930509
 20
432.6839536445
 30
0.0
 11
1312.9371930509
 21
432.3031944107
 31
0.0
  0
LINE
  5
1E5
330
1F
100
AcDbEntity
  8
0
  6
Continuous
 62
     7
370
    25
100
AcDbLine
 10
1313.1897803544
 20
432.7828854157
 30
0.0
 11
1312.9371930509
 21
432.6839536445
 31
0.0
  0
LINE
  5
1E6
330
1F
100
AcDbEntity
  8
0
  6
Continuous
 62
     7
370
    25
100
AcDbLine
 10
3434.2575366105
 20
1605.8815614019
 30
0.0
 11
3434.2575366105
 21
1656.2461292367
 31
0.0
  0
LINE
  5
1E7
330
1F
100
AcDbEntity
  8
0
  6
Continuous
 62
     7
370
    25
100
AcDbLine
 10
3434.2575366105
 20
1605.8815614019
 30
0.0
 11
3434.2575366105
 21
1605.06502059
 31
0.0
  0
LINE
  5
1E8
330
1F
100
AcDbEntity
  8
0
  6
Continuous
 62
     7
370
    25
100
AcDbLine
 10
1312.9371930509
 20
381.2693936678
 30
0.0
 11
1312.9371930509
 21
380.4528528559
 31
0.0
  0
LINE
  5
1E9
330
1F
100
AcDbEntity
  8
0
  6
Continuous
 62
     7
370
    25
100
AcDbLine
 10
1312.9371930509
 20
381.2693936678
 30
0.0
 11
1312.9371930509
 21
432.3031944107
 31
0.0
  0
LINE
  5
1EA
330
1F
100
AcDbEntity
  8
0
  6
Continuous
 62
     7
370
    25
100
AcDbLine
 10
1359.6062406092
 20
418.0093511006
 30
0.0
 11
1372.3341626705
 21
425.357024107
 31
0.0
  0
LWPOLYLINE
  5
1EB
330
1F
100
AcDbEntity
  8
0
  6
Continuous
 62
     7
370
    25
100
AcDbPolyline
 90
       10
 70
   128
 43
0.0
 10
1372.3341626705
 20
425.357024107
 10
1373.1806193398
 20
426.0180251683
 10
1373.9249808424
 20
426.944003801
 10
1374.4774661955
 20
428.023273316
 10
1374.7714375117
 20
429.1256578814
 10
1374.7714375117
 20
430.1181936493
 10
1374.4774661955
 20
430.8811661576
 10
1373.9249808424
 20
431.3225496617
 10
1373.1806193398
 20
431.3891067968
 10
1372.3341626705
 20
431.0728097902
  0
LINE
  5
1EC
330
1F
100
AcDbEntity
  8
0
  6
Continuous
 62
     7
370
    25
100
AcDbLine
 10
1372.3341626705
 20
431.0728097902
 30
0.0
 11
1359.6062406092
 21
423.7251367838
 31
0.0
  0
LWPOLYLINE
  5
1ED
330
1F
100
AcDbEntity
  8
0
  6
Continuous
 62
     7
370
    25
100
AcDbPolyline
 90
       10
 70
   128
 43
0.0
 10
1359.6062406092
 20
423.7251367838
 10
1358.7597839399
 20
423.0641357225
 10
1358.0154224373
 20
422.1381570898
 10
1357.4629370842
 20
421.0588875748
 10
1357.1689657681
 20
419.9565030094
 10
1357.1689657681
 20
418.9639672415
 10
1357.4629370842
 20
418.2009947332
 10
1358.0154224373
 20
417.7596112291
 10
1358.7597839399
 20
417.693054094
 10
1359.6062406092
 20
418.0093511006
  0
LINE
  5
1EE
330
1F
100
AcDbEntity
  8
0
  6
Continuous
 62
     7
370
    25
100
AcDbLine
 10
3422.9438281115
 20
1614.8645719331
 30
0.0
 11
3410.2159060502
 21
1607.5168989267
 31
0.0
  0
LWPOLYLINE
  5
1EF
330
1F
100
AcDbEntity
  8
0
  6
Continuous
 62
     7
370
    25
100
AcDbPolyline
 90
       10
 70
   128
 43
0.0
 10
3410.2159060502
 20
1607.5168989267
 10
3409.3694493809
 20
1606.8558978654
 10
3408.6250878783
 20
1605.9299192327
 10
3408.0726025252
 20
1604.8506497177
 10
3407.7786312091
 20
1603.7482651523
 10
3407.7786312091
 20
1602.7557293845
 10
3408.0726025252
 20
1601.9927568761
 10
3408.6250878783
 20
1601.551373372
 10
3409.3694493809
 20
1601.4848162369
 10
3410.2159060502
 20
1601.8011132435
  0
LINE
  5
1F0
330
1F
100
AcDbEntity
  8
0
  6
Continuous
 62
     7
370
    25
100
AcDbLine
 10
3410.2159060502
 20
1601.8011132435
 30
0.0
 11
3422.9438281115
 21
1609.1487862499
 31
0.0
  0
LWPOLYLINE
  5
1F1
330
1F
100
AcDbEntity
  8
0
  6
Continuous
 62
     7
370
    25
100
AcDbPolyline
 90
       10
 70
   128
 43
0.0
 10
3422.9438281115
 20
1609.1487862499
 10
3423.7902847808
 20
1609.8097873113
 10
3424.5346462834
 20
1610.735765944
 10
3425.0871316365
 20
1611.8150354589
 10
3425.3811029527
 20
1612.9174200244
 10
3425.3811029527
 20
1613.9099557922
 10
3425.0871316365
 20
1614.6729283005
 10
3424.5346462834
 20
1615.1143118046
 10
3423.7902847808
 20
1615.1808689398
 10
3422.9438281115
 20
1614.8645719331
  0
LINE
  5
1F2
330
1F
100
AcDbEntity
  8
0
  6
Continuous
 62
     7
370
    25
100
AcDbLine
 10
3387.5884890522
 20
1594.4543691376
 30
0.0
 11
3374.8605669908
 21
1587.1066961312
 31
0.0
  0
LWPOLYLINE
  5
1F3
330
1F
100
AcDbEntity
  8
0
  6
Continuous
 62
     7
370
    25
100
AcDbPolyline
 90
       10
 70
   128
 43
0.0
 10
3374.8605669908
 20
1587.1066961312
 10
3374.0141103216
 20
1586.4456950698
 10
3373.269748819
 20
1585.5197164371
 10
3372.7172634659
 20
1584.4404469221
 10
3372.4232921497
 20
1583.3380623567
 10
3372.4232921497
 20
1582.3455265889
 10
3372.7172634659
 20
1581.5825540805
 10
3373.269748819
 20
1581.1411705764
 10
3374.0141103216
 20
1581.0746134413
 10
3374.8605669908
 20
1581.390910448
  0
LINE
  5
1F4
330
1F
100
AcDbEntity
  8
0
  6
Continuous
 62
     7
370
    25
100
AcDbLine
 10
3374.8605669908
 20
1581.390910448
 30
0.0
 11
3387.5884890522
 21
1588.7385834544
 31
0.0
  0
LWPOLYLINE
  5
1F5
330
1F
100
AcDbEntity
  8
0
  6
Continuous
 62
     7
370
    25
100
AcDbPolyline
 90
       10
 70
   128
 43
0.0
 10
3387.5884890522
 20
1588.7385834544
 10
3388.4349457215
 20
1589.3995845157
 10
3389.1793072241
 20
1590.3255631484
 10
3389.7317925771
 20
1591.4048326634
 10
3390.0257638933
 20
1592.5072172288
 10
3390.0257638933
 20
1593.4997529966
 10
3389.7317925771
 20
1594.262725505
 10
3389.1793072241
 20
1594.7041090091
 10
3388.4349457215
 20
1594.7706661442
 10
3387.5884890522
 20
1594.4543691376
  0
LINE
  5
1F6
330
1F
100
AcDbEntity
  8
0
  6
Continuous
 62
     7
370
    25
100
AcDbLine
 10
1324.2509015499
 20
397.599148305
 30
0.0
 11
1336.9788236112
 21
404.9468213114
 31
0.0
  0
LWPOLYLINE
  5
1F7
330
1F
100
AcDbEntity
  8
0
  6
Continuous
 62
     7
370
    25
100
AcDbPolyline
 90
       10
 70
   128
 43
0.0
 10
1336.9788236112
 20
404.9468213114
 10
1337.8252802805
 20
405.6078223728
 10
1338.5696417831
 20
406.5338010055
 10
1339.1221271361
 20
407.6130705204
 10
1339.4160984523
 20
408.7154550859
 10
1339.4160984523
 20
409.7079908537
 10
1339.1221271361
 20
410.470963362
 10
1338.5696417831
 20
410.9123468661
 10
1337.8252802805
 20
410.9789040013
 10
1336.9788236112
 20
410.6626069946
  0
LINE
  5
1F8
330
1F
100
AcDbEntity
  8
0
  6
Continuous
 62
     7
370
    25
100
AcDbLine
 10
1336.9788236112
 20
410.6626069946
 30
0.0
 11
1324.2509015499
 21
403.3149339882
 31
0.0
  0
LWPOLYLINE
  5
1F9
330
1F
100
AcDbEntity
  8
0
  6
Continuous
 62
     7
370
    25
100
AcDbPolyline
 90
       10
 70
   128
 43
0.0
 10
1324.2509015499
 20
403.3149339882
 10
1323.4044448806
 20
402.6539329269
 10
1322.660083378
 20
401.7279542942
 10
1322.1075980249
 20
400.6486847792
 10
1321.8136267087
 20
399.5463002138
 10
1321.8136267087
 20
398.553764446
 10
1322.1075980249
 20
397.7907919376
 10
1322.660083378
 20
397.3494084335
 10
1323.4044448806
 20
397.2828512984
 10
1324.2509015499
 20
397.599148305
  0
LINE
  5
1FA
330
1F
100
AcDbEntity
  8
0
  6
Continuous
 62
     7
370
    25
100
AcDbLine
 10
1359.6062406092
 20
438.4228713977
 30
0.0
 11
1372.3341626705
 21
445.7705444041
 31
0.0
  0
LWPOLYLINE
  5
1FB
330
1F
100
AcDbEntity
  8
0
  6
Continuous
 62
     7
370
    25
100
AcDbPolyline
 90
       10
 70
   128
 43
0.0
 10
1372.3341626705
 20
445.7705444041
 10
1373.1806193398
 20
446.4315454655
 10
1373.9249808424
 20
447.3575240982
 10
1374.4774661955
 20
448.4367936132
 10
1374.7714375117
 20
449.5391781786
 10
1374.7714375117
 20
450.5317139464
 10
1374.4774661955
 20
451.2946864548
 10
1373.9249808424
 20
451.7360699589
 10
1373.1806193398
 20
451.802627094
 10
1372.3341626705
 20
451.4863300873
  0
LINE
  5
1FC
330
1F
100
AcDbEntity
  8
0
  6
Continuous
 62
     7
370
    25
100
AcDbLine
 10
1372.3341626705
 20
451.4863300873
 30
0.0
 11
1359.6062406092
 21
444.1386570809
 31
0.0
  0
LWPOLYLINE
  5
1FD
330
1F
100
AcDbEntity
  8
0
  6
Continuous
 62
     7
370
    25
100
AcDbPolyline
 90
       10
 70
   128
 43
0.0
 10
1359.6062406092
 20
444.1386570809
 10
1358.7597839399
 20
443.4776560196
 10
1358.0154224373
 20
442.5516773869
 10
1357.4629370842
 20
441.4724078719
 10
1357.1689657681
 20
440.3700233065
 10
1357.1689657681
 20
439.3774875387
 10
1357.4629370842
 20
438.6145150303
 10
1358.0154224373
 20
438.1731315262
 10
1358.7597839399
 20
438.1065743911
 10
1359.6062406092
 20
438.4228713977
  0
LINE
  5
1FE
330
1F
100
AcDbEntity
  8
0
  6
Continuous
 62
     7
370
    25
100
AcDbLine
 10
3422.9438281115
 20
1635.2780922303
 30
0.0
 11
3410.2159060502
 21
1627.9304192239
 31
0.0
  0
LWPOLYLINE
  5
1FF
330
1F
100
AcDbEntity
  8
0
  6
Continuous
 62
     7
370
    25
100
AcDbPolyline
 90
       10
 70
   128
 43
0.0
 10
3410.2159060502
 20
1627.9304192239
 10
3409.3694493809
 20
1627.2694181625
 10
3408.6250878783
 20
1626.3434395298
 10
3408.0726025252
 20
1625.2641700149
 10
3407.7786312091
 20
1624.1617854494
 10
3407.7786312091
 20
1623.1692496816
 10
3408.0726025252
 20
1622.4062771733
 10
3408.6250878783
 20
1621.9648936692
 10
3409.3694493809
 20
1621.898336534
 10
3410.2159060502
 20
1622.2146335407
  0
LINE
  5
200
330
1F
100
AcDbEntity
  8
0
  6
Continuous
 62
     7
370
    25
100
AcDbLine
 10
3410.2159060502
 20
1622.2146335407
 30
0.0
 11
3422.9438281115
 21
1629.5623065471
 31
0.0
  0
LWPOLYLINE
  5
201
330
1F
100
AcDbEntity
  8
0
  6
Continuous
 62
     7
370
    25
100
AcDbPolyline
 90
       10
 70
   128
 43
0.0
 10
3422.9438281115
 20
1629.5623065471
 10
3423.7902847808
 20
1630.2233076084
 10
3424.5346462834
 20
1631.1492862411
 10
3425.0871316365
 20
1632.2285557561
 10
3425.3811029527
 20
1633.3309403215
 10
3425.3811029527
 20
1634.3234760893
 10
3425.0871316365
 20
1635.0864485977
 10
3424.5346462834
 20
1635.5278321018
 10
3423.7902847808
 20
1635.5943892369
 10
3422.9438281115
 20
1635.2780922303
  0
LINE
  5
202
330
1F
100
AcDbEntity
  8
0
  6
Continuous
 62
     7
370
    25
100
AcDbLine
 10
3387.5884890522
 20
1614.8678894347
 30
0.0
 11
3374.8605669908
 21
1607.5202164283
 31
0.0
  0
LWPOLYLINE
  5
203
330
1F
100
AcDbEntity
  8
0
  6
Continuous
 62
     7
370
    25
100
AcDbPolyline
 90
       10
 70
   128
 43
0.0
 10
3374.8605669908
 20
1607.5202164283
 10
3374.0141103216
 20
1606.859215367
 10
3373.269748819
 20
1605.9332367343
 10
3372.7172634659
 20
1604.8539672193
 10
3372.4232921497
 20
1603.7515826539
 10
3372.4232921497
 20
1602.759046886
 10
3372.7172634659
 20
1601.9960743777
 10
3373.269748819
 20
1601.5546908736
 10
3374.0141103216
 20
1601.4881337385
 10
3374.8605669908
 20
1601.8044307451
  0
LINE
  5
204
330
1F
100
AcDbEntity
  8
0
  6
Continuous
 62
     7
370
    25
100
AcDbLine
 10
3374.8605669908
 20
1601.8044307451
 30
0.0
 11
3387.5884890522
 21
1609.1521037515
 31
0.0
  0
LWPOLYLINE
  5
205
330
1F
100
AcDbEntity
  8
0
  6
Continuous
 62
     7
370
    25
100
AcDbPolyline
 90
       10
 70
   128
 43
0.0
 10
3387.5884890522
 20
1609.1521037515
 10
3388.4349457215
 20
1609.8131048128
 10
3389.1793072241
 20
1610.7390834455
 10
3389.7317925771
 20
1611.8183529605
 10
3390.0257638933
 20
1612.9207375259
 10
3390.0257638933
 20
1613.9132732938
 10
3389.7317925771
 20
1614.6762458021
 10
3389.1793072241
 20
1615.1176293062
 10
3388.4349457215
 20
1615.1841864413
 10
3387.5884890522
 20
1614.8678894347
  0
LINE
  5
206
330
1F
100
AcDbEntity
  8
0
  6
Continuous
 62
     7
370
    25
100
AcDbLine
 10
1324.2509015499
 20
418.0126686022
 30
0.0
 11
1336.9788236112
 21
425.3603416086
 31
0.0
  0
LWPOLYLINE
  5
207
330
1F
100
AcDbEntity
  8
0
  6
Continuous
 62
     7
370
    25
100
AcDbPolyline
 90
       10
 70
   128
 43
0.0
 10
1336.9788236112
 20
425.3603416086
 10
1337.8252802805
 20
426.0213426699
 10
1338.5696417831
 20
426.9473213026
 10
1339.1221271361
 20
428.0265908176
 10
1339.4160984523
 20
429.128975383
 10
1339.4160984523
 20
430.1215111508
 10
1339.1221271361
 20
430.8844836592
 10
1338.5696417831
 20
431.3258671633
 10
1337.8252802805
 20
431.3924242984
 10
1336.9788236112
 20
431.0761272918
  0
LINE
  5
208
330
1F
100
AcDbEntity
  8
0
  6
Continuous
 62
     7
370
    25
100
AcDbLine
 10
1336.9788236112
 20
431.0761272918
 30
0.0
 11
1324.2509015499
 21
423.7284542854
 31
0.0
  0
LWPOLYLINE
  5
209
330
1F
100
AcDbEntity
  8
0
  6
Continuous
 62
     7
370
    25
100
AcDbPolyline
 90
       10
 70
   128
 43
0.0
 10
1324.2509015499
 20
423.7284542854
 10
1323.4044448806
 20
423.067453224
 10
1322.660083378
 20
422.1414745913
 10
1322.1075980249
 20
421.0622050764
 10
1321.8136267087
 20
419.9598205109
 10
1321.8136267087
 20
418.9672847431
 10
1322.1075980249
 20
418.2043122348
 10
1322.660083378
 20
417.7629287307
 10
1323.4044448806
 20
417.6963715955
 10
1324.2509015499
 20
418.0126686022
  0
LINE
  5
20A
330
1F
100
AcDbEntity
  8
0
  6
Continuous
 62
     7
370
    25
100
AcDbLine
 10
1311.8765328791
 20
381.8816997517
 30
0.0
 11
1311.8765328791
 21
432.9155004945
 31
0.0
  0
LWPOLYLINE
  5
20B
330
1F
100
AcDbEntity
  8
0
  6
Continuous
 62
     7
370
    25
100
AcDbPolyline
 90
        3
 70
   128
 43
0.0
 10
1322.0529852848
 20
418.2880575054
 10
1322.3437847088
 20
418.3086776794
 10
1323.1902413781
 20
418.624974686
  0
LINE
  5
20C
330
1F
100
AcDbEntity
  8
0
  6
Continuous
 62
     7
370
    25
100
AcDbLine
 10
1323.1902413781
 20
418.624974686
 30
0.0
 11
1335.9181634394
 21
425.9726476924
 31
0.0
  0
ARC
  5
20D
330
1F
100
AcDbEntity
  8
0
  6
Continuous
 62
     7
370
    25
100
AcDbCircle
 10
1333.7449139509
 20
430.0148155349
 30
0.0
 40
4.589350085380963
100
AcDbArc
 50
298.2644546679
 51
17.7382019355
  0
LWPOLYLINE
  5
20E
330
1F
100
AcDbEntity
  8
0
  6
Continuous
 62
     7
370
    25
100
AcDbPolyline
 90
        3
 70
   128
 43
0.0
 10
1322.0529852847
 20
397.8745372083
 10
1322.3437847088
 20
397.8951573823
 10
1323.1902413781
 20
398.2114543889
  0
LWPOLYLINE
  5
20F
330
1F
100
AcDbEntity
  8
0
  6
Continuous
 62
     7
370
    25
100
AcDbPolyline
 90
        3
 70
   128
 43
0.0
 10
1329.5542024088
 20
382.6977761133
 10
1328.8569988883
 20
382.1229650706
 10
1328.6937149553
 20
381.8814675268
  0
LINE
  5
210
330
1F
100
AcDbEntity
  8
0
  6
Continuous
 62
     7
370
    25
100
AcDbLine
 10
1311.8765328791
 20
381.8816997517
 30
0.0
 11
1311.8765328791
 21
379.840347722
 31
0.0
  0
LINE
  5
211
330
1F
100
AcDbEntity
  8
0
  6
Continuous
 62
     7
370
    25
100
AcDbLine
 10
1311.8765328791
 20
379.840347722
 30
0.0
 11
1313.6442998321
 21
378.8198375822
 31
0.0
  0
LINE
  5
212
330
1F
100
AcDbEntity
  8
0
  6
Continuous
 62
     7
370
    25
100
AcDbLine
 10
1323.1902413781
 20
398.2114543889
 30
0.0
 11
1335.9181634394
 21
405.5591273953
 31
0.0
  0
LINE
  5
213
330
1F
100
AcDbEntity
  8
0
  6
Continuous
 62
     7
370
    25
100
AcDbLine
 10
1342.2821244701
 20
390.0454491198
 30
0.0
 11
1329.5542024088
 21
382.6977761133
 31
0.0
  0
ARC
  5
214
330
1F
100
AcDbEntity
  8
0
  6
Continuous
 62
     7
370
    25
100
AcDbCircle
 10
1333.7449139509
 20
409.6012952378
 30
0.0
 40
4.589350085353271
100
AcDbArc
 50
298.2644546678
 51
17.7382019363
  0
LWPOLYLINE
  5
215
330
1F
100
AcDbEntity
  8
0
  6
Continuous
 62
     7
370
    25
100
AcDbPolyline
 90
        3
 70
   128
 43
0.0
 10
1357.4083243442
 20
438.698260301
 10
1357.6991237681
 20
438.718880475
 10
1358.5455804374
 20
439.0351774816
  0
ARC
  5
216
330
1F
100
AcDbEntity
  8
0
  6
Continuous
 62
     7
370
    25
100
AcDbCircle
 10
1344.6961194231
 20
386.1416349829
 30
0.0
 40
4.589895036703541
100
AcDbArc
 50
42.2738245052
 51
121.731333198
  0
LINE
  5
217
330
1F
100
AcDbEntity
  8
0
  6
Continuous
 62
     7
370
    25
100
AcDbLine
 10
1358.5455804374
 20
439.0351774816
 30
0.0
 11
1371.2735024988
 21
446.382850488
 31
0.0
  0
ARC
  5
218
330
1F
100
AcDbEntity
  8
0
  6
Continuous
 62
     7
370
    25
100
AcDbCircle
 10
1369.1002530102
 20
450.4250183305
 30
0.0
 40
4.589350085431738
100
AcDbArc
 50
298.2644546682
 51
17.7382019339
  0
LWPOLYLINE
  5
219
330
1F
100
AcDbEntity
  8
0
  6
Continuous
 62
     7
370
    25
100
AcDbPolyline
 90
        3
 70
   128
 43
0.0
 10
1357.4083243442
 20
418.2847400039
 10
1357.6991237681
 20
418.3053601778
 10
1358.5455804374
 20
418.6216571845
  0
LWPOLYLINE
  5
21A
330
1F
100
AcDbEntity
  8
0
  6
Continuous
 62
     7
370
    25
100
AcDbPolyline
 90
        3
 70
   128
 43
0.0
 10
1364.9095414681
 20
403.1079789089
 10
1364.2123379476
 20
402.5331678661
 10
1364.0490540146
 20
402.2916703223
  0
LINE
  5
21B
330
1F
100
AcDbEntity
  8
0
  6
Continuous
 62
     7
370
    25
100
AcDbLine
 10
1358.5455804374
 20
418.6216571845
 30
0.0
 11
1371.2735024988
 21
425.9693301909
 31
0.0
  0
LINE
  5
21C
330
1F
100
AcDbEntity
  8
0
  6
Continuous
 62
     7
370
    25
100
AcDbLine
 10
1377.6374635294
 20
410.4556519153
 30
0.0
 11
1364.9095414681
 21
403.1079789089
 31
0.0
  0
ARC
  5
21D
330
1F
100
AcDbEntity
  8
0
  6
Continuous
 62
     7
370
    25
100
AcDbCircle
 10
1369.1002530101
 20
430.0114980335
 30
0.0
 40
4.589350085534286
100
AcDbArc
 50
298.2644546688
 51
17.7382019308
  0
ARC
  5
21E
330
1F
100
AcDbEntity
  8
0
  6
Continuous
 62
     7
370
    25
100
AcDbCircle
 10
1380.0514584824
 20
406.5518377785
 30
0.0
 40
4.589895036708671
100
AcDbArc
 50
42.2738245053
 51
121.731333198
  0
LWPOLYLINE
  5
21F
330
1F
100
AcDbEntity
  8
0
  6
Continuous
 62
     7
370
    25
100
AcDbPolyline
 90
        3
 70
   128
 43
0.0
 10
3655.5819591219
 20
1439.7474205483
 10
3654.7355024526
 20
1439.4311235417
 10
3654.4447030285
 20
1439.4105033677
  0
LINE
  5
220
330
1F
100
AcDbEntity
  8
0
  6
Continuous
 62
     7
370
    25
100
AcDbLine
 10
3668.3098811833
 20
1447.0950935547
 30
0.0
 11
3655.5819591219
 21
1439.7474205483
 31
0.0
  0
ARC
  5
221
330
1F
100
AcDbEntity
  8
0
  6
Continuous
 62
     7
370
    25
100
AcDbCircle
 10
3666.1366316947
 20
1451.1372613972
 30
0.0
 40
4.589350085466539
100
AcDbArc
 50
298.2644546684
 51
17.7382019329
  0
LWPOLYLINE
  5
222
330
1F
100
AcDbEntity
  8
0
  6
Continuous
 62
     7
370
    25
100
AcDbPolyline
 90
        3
 70
   128
 43
0.0
 10
3655.5819591219
 20
1419.3339002511
 10
3654.7355024526
 20
1419.0176032445
 10
3654.4447030287
 20
1418.9969830706
  0
LINE
  5
223
330
1F
100
AcDbEntity
  8
0
  6
Continuous
 62
     7
370
    25
100
AcDbLine
 10
3668.3098811833
 20
1426.6815732576
 30
0.0
 11
3655.5819591219
 21
1419.3339002511
 31
0.0
  0
ARC
  5
224
330
1F
100
AcDbEntity
  8
0
  6
Continuous
 62
     7
370
    25
100
AcDbCircle
 10
3666.1366316948
 20
1430.7237411
 30
0.0
 40
4.589350085346426
100
AcDbArc
 50
298.2644546677
 51
17.7382019366
  0
LWPOLYLINE
  5
225
330
1F
100
AcDbEntity
  8
0
  6
Continuous
 62
     7
370
    25
100
AcDbPolyline
 90
        3
 70
   128
 43
0.0
 10
3690.9372981812
 20
1460.1576233439
 10
3690.090841512
 20
1459.8413263372
 10
3689.800042088
 20
1459.8207061633
  0
LINE
  5
226
330
1F
100
AcDbEntity
  8
0
  6
Continuous
 62
     7
370
    25
100
AcDbLine
 10
3703.6652202426
 20
1467.5052963503
 30
0.0
 11
3690.9372981812
 21
1460.1576233439
 31
0.0
  0
ARC
  5
227
330
1F
100
AcDbEntity
  8
0
  6
Continuous
 62
     7
370
    25
100
AcDbCircle
 10
3701.4919707539
 20
1471.5474641929
 30
0.0
 40
4.58935008556821
100
AcDbArc
 50
298.264454669
 51
17.7382019298
  0
LWPOLYLINE
  5
228
330
1F
100
AcDbEntity
  8
0
  6
Continuous
 62
     7
370
    25
100
AcDbPolyline
 90
        3
 70
   128
 43
0.0
 10
3690.9372981812
 20
1439.7441030467
 10
3690.090841512
 20
1439.4278060401
 10
3689.8000420879
 20
1439.4071858661
  0
LINE
  5
229
330
1F
100
AcDbEntity
  8
0
  6
Continuous
 62
     7
370
    25
100
AcDbLine
 10
3703.6652202426
 20
1447.0917760531
 30
0.0
 11
3690.9372981812
 21
1439.7441030467
 31
0.0
  0
ARC
  5
22A
330
1F
100
AcDbEntity
  8
0
  6
Continuous
 62
     7
370
    25
100
AcDbCircle
 10
3701.491970754
 20
1451.1339438956
 30
0.0
 40
4.589350085427313
100
AcDbArc
 50
298.2644546682
 51
17.7382019341
  0
LINE
  5
22B
330
1F
100
AcDbEntity
  8
0
  6
Continuous
 62
     7
370
    25
100
AcDbLine
 10
3637.1970104099
 20
1474.4396231733
 30
0.0
 11
3631.8938819522
 21
1477.5010540676
 31
0.0
  0
LINE
  5
22C
330
1F
100
AcDbEntity
  8
0
  6
Continuous
 62
     7
370
    25
100
AcDbLine
 10
3630.4796683898
 20
1477.5010540676
 30
0.0
 11
3627.2978602756
 21
1475.664235341
 31
0.0
  0
ARC
  5
22D
330
1F
100
AcDbEntity
  8
0
  6
Continuous
 62
     7
370
    25
100
AcDbCircle
 10
3631.186775171
 20
1476.1363429826
 30
0.0
 40
1.537021907911218
100
AcDbArc
 50
62.6096722366
 51
117.3903277634
  0
LINE
  5
22E
330
1F
100
AcDbEntity
  8
0
  6
Continuous
 62
     7
370
    25
100
AcDbLine
 10
3566.4863322913
 20
1515.2600287644
 30
0.0
 11
3561.1832038335
 21
1518.3214596587
 31
0.0
  0
LINE
  5
22F
330
1F
100
AcDbEntity
  8
0
  6
Continuous
 62
     7
370
    25
100
AcDbLine
 10
3559.7689902711
 20
1518.3214596587
 30
0.0
 11
3556.5871821569
 21
1516.4846409322
 31
0.0
  0
ARC
  5
230
330
1F
100
AcDbEntity
  8
0
  6
Continuous
 62
     7
370
    25
100
AcDbCircle
 10
3560.4760970523
 20
1516.9567485738
 30
0.0
 40
1.537021907913648
100
AcDbArc
 50
62.6096722366
 51
117.3903277634
  0
LWPOLYLINE
  5
231
330
1F
100
AcDbEntity
  8
0
  6
Continuous
 62
     7
370
    25
100
AcDbPolyline
 90
        3
 70
   128
 43
0.0
 10
3372.6626507259
 20
1602.0798196484
 10
3372.9534501498
 20
1602.1004398223
 10
3373.7999068191
 20
1602.416736829
  0
LINE
  5
232
330
1F
100
AcDbEntity
  8
0
  6
Continuous
 62
     7
370
    25
100
AcDbLine
 10
3373.7999068191
 20
1602.416736829
 30
0.0
 11
3386.5278288804
 21
1609.7644098354
 31
0.0
  0
LINE
  5
233
330
1F
100
AcDbEntity
  8
0
  6
Continuous
 62
     7
370
    25
100
AcDbLine
 10
3495.7756541726
 20
1556.0804343556
 30
0.0
 11
3490.4725257148
 21
1559.1418652499
 31
0.0
  0
LINE
  5
234
330
1F
100
AcDbEntity
  8
0
  6
Continuous
 62
     7
370
    25
100
AcDbLine
 10
3489.0583121525
 20
1559.1418652499
 30
0.0
 11
3485.8765040383
 21
1557.3050465233
 31
0.0
  0
ARC
  5
235
330
1F
100
AcDbEntity
  8
0
  6
Continuous
 62
     7
370
    25
100
AcDbCircle
 10
3384.3545793918
 20
1613.8065776779
 30
0.0
 40
4.589350085469619
100
AcDbArc
 50
298.2644546685
 51
17.7382019328
  0
ARC
  5
236
330
1F
100
AcDbEntity
  8
0
  6
Continuous
 62
     7
370
    25
100
AcDbCircle
 10
3489.7654189337
 20
1557.7771541649
 30
0.0
 40
1.537021907910612
100
AcDbArc
 50
62.6096722366
 51
117.3903277634
  0
LWPOLYLINE
  5
237
330
1F
100
AcDbEntity
  8
0
  6
Continuous
 62
     7
370
    25
100
AcDbPolyline
 90
        3
 70
   128
 43
0.0
 10
3372.6626507258
 20
1581.6662993512
 10
3372.9534501498
 20
1581.6869195252
 10
3373.7999068191
 20
1582.0032165318
  0
LWPOLYLINE
  5
238
330
1F
100
AcDbEntity
  8
0
  6
Continuous
 62
     7
370
    25
100
AcDbPolyline
 90
        3
 70
   128
 43
0.0
 10
3380.1638678497
 20
1566.4895382563
 10
3379.4666643293
 20
1565.9147272135
 10
3379.3033803963
 20
1565.6732296696
  0
LINE
  5
239
330
1F
100
AcDbEntity
  8
0
  6
Continuous
 62
     7
370
    25
100
AcDbLine
 10
3373.7999068191
 20
1582.0032165318
 30
0.0
 11
3386.5278288804
 21
1589.3508895382
 31
0.0
  0
LINE
  5
23A
330
1F
100
AcDbEntity
  8
0
  6
Continuous
 62
     7
370
    25
100
AcDbLine
 10
3392.8917899111
 20
1573.8372112627
 30
0.0
 11
3380.1638678497
 21
1566.4895382563
 31
0.0
  0
ARC
  5
23B
330
1F
100
AcDbEntity
  8
0
  6
Continuous
 62
     7
370
    25
100
AcDbCircle
 10
3384.3545793918
 20
1593.3930573808
 30
0.0
 40
4.589350085458473
100
AcDbArc
 50
298.2644546684
 51
17.7382019331
  0
LWPOLYLINE
  5
23C
330
1F
100
AcDbEntity
  8
0
  6
Continuous
 62
     7
370
    25
100
AcDbPolyline
 90
        3
 70
   128
 43
0.0
 10
3408.0179897851
 20
1622.4900224439
 10
3408.3087892091
 20
1622.5106426179
 10
3409.1552458784
 20
1622.8269396245
  0
ARC
  5
23D
330
1F
100
AcDbEntity
  8
0
  6
Continuous
 62
     7
370
    25
100
AcDbCircle
 10
3395.3057848641
 20
1569.9333971261
 30
0.0
 40
4.589895036520352
100
AcDbArc
 50
42.2738244996
 51
121.731333199
  0
LINE
  5
23E
330
1F
100
AcDbEntity
  8
0
  6
Continuous
 62
     7
370
    25
100
AcDbLine
 10
3409.1552458784
 20
1622.8269396245
 30
0.0
 11
3421.8831679398
 21
1630.1746126309
 31
0.0
  0
ARC
  5
23F
330
1F
100
AcDbEntity
  8
0
  6
Continuous
 62
     7
370
    25
100
AcDbCircle
 10
3419.7099184512
 20
1634.2167804735
 30
0.0
 40
4.589350085437855
100
AcDbArc
 50
298.2644546683
 51
17.7382019338
  0
LWPOLYLINE
  5
240
330
1F
100
AcDbEntity
  8
0
  6
Continuous
 62
     7
370
    25
100
AcDbPolyline
 90
        3
 70
   128
 43
0.0
 10
3408.0179897852
 20
1602.0765021468
 10
3408.3087892091
 20
1602.0971223208
 10
3409.1552458784
 20
1602.4134193274
  0
LWPOLYLINE
  5
241
330
1F
100
AcDbEntity
  8
0
  6
Continuous
 62
     7
370
    25
100
AcDbPolyline
 90
        3
 70
   128
 43
0.0
 10
3415.5192069091
 20
1586.8997410518
 10
3414.8220033886
 20
1586.3249300091
 10
3414.6587194556
 20
1586.0834324651
  0
LINE
  5
242
330
1F
100
AcDbEntity
  8
0
  6
Continuous
 62
     7
370
    25
100
AcDbLine
 10
3409.1552458784
 20
1602.4134193274
 30
0.0
 11
3421.8831679398
 21
1609.7610923338
 31
0.0
  0
LINE
  5
243
330
1F
100
AcDbEntity
  8
0
  6
Continuous
 62
     7
370
    25
100
AcDbLine
 10
3428.2471289704
 20
1594.2474140582
 30
0.0
 11
3415.5192069091
 21
1586.8997410518
 31
0.0
  0
ARC
  5
244
330
1F
100
AcDbEntity
  8
0
  6
Continuous
 62
     7
370
    25
100
AcDbCircle
 10
3419.7099184512
 20
1613.8032601763
 30
0.0
 40
4.589350085469498
100
AcDbArc
 50
298.2644546685
 51
17.7382019328
  0
ARC
  5
245
330
1F
100
AcDbEntity
  8
0
  6
Continuous
 62
     7
370
    25
100
AcDbCircle
 10
3430.6611239234
 20
1590.3435999216
 30
0.0
 40
4.589895036518058
100
AcDbArc
 50
42.2738244996
 51
121.7313331991
  0
ENDSEC
  0
SECTION
  2
OBJECTS
  0
DICTIONARY
  5
C
330
0
100
AcDbDictionary
281
     1
  3
ACAD_GROUP
350
D
  3
ACAD_LAYOUT
350
1A
  3
ACAD_MLINESTYLE
350
17
  3
ACAD_PLOTSETTINGS
350
19
  3
ACAD_PLOTSTYLENAME
350
E
  3
ACAD_SCALELIST
350
47
  0
DICTIONARY
  5
D
102
{ACAD_REACTORS
330
C
102
}
330
C
100
AcDbDictionary
281
     1
  0
DICTIONARY
  5
1A
102
{ACAD_REACTORS
330
C
102
}
330
C
100
AcDbDictionary
281
     1
  3
Layout1
350
1E
  3
Layout2
350
26
  3
Model
350
22
  0
DICTIONARY
  5
17
102
{ACAD_REACTORS
330
C
102
}
330
C
100
AcDbDictionary
281
     1
  3
Standard
350
18
  0
DICTIONARY
  5
19
102
{ACAD_REACTORS
330
C
102
}
330
C
100
AcDbDictionary
281
     1
  0
ACDBDICTIONARYWDFLT
  5
E
102
{ACAD_REACTORS
330
C
102
}
330
C
100
AcDbDictionary
281
     1
  3
Normal
350
F
100
AcDbDictionaryWithDefault
340
F
  0
DICTIONARY
  5
47
102
{ACAD_REACTORS
330
C
102
}
330
C
100
AcDbDictionary
281
     1
  3
A0
350
48
  3
A1
350
49
  3
A2
350
4A
  3
A3
350
4B
  3
A4
350
4C
  3
A5
350
4D
  3
A6
350
4E
  3
A7
350
4F
  3
A8
350
50
  3
A9
350
51
  3
B0
350
52
  3
B1
350
53
  3
B2
350
54
  3
B3
350
55
  3
B4
350
56
  3
B5
350
57
  3
B6
350
58
  3
B7
350
59
  3
B8
350
5A
  3
B9
350
5B
  3
C0
350
5C
  3
C1
350
5D
  3
C2
350
5E
  3
C3
350
5F
  3
C4
350
60
  3
C5
350
61
  3
C6
350
62
  3
C7
350
63
  3
C8
350
64
  3
C9
350
65
  3
D0
350
66
  3
D1
350
67
  3
D2
350
68
  0
LAYOUT
  5
1E
102
{ACAD_REACTORS
330
1A
102
}
330
1A
100
AcDbPlotSettings
  1

  2
none_device
  4

  6

 40
0.0
 41
0.0
 42
0.0
 43
0.0
 44
0.0
 45
0.0
 46
0.0
 47
0.0
 48
0.0
 49
0.0
140
0.0
141
0.0
142
1.0
143
1.0
 70
   688
 72
     1
 73
     0
 74
     5
  7

 75
    16
147
1.0
148
0.0
149
0.0
100
AcDbLayout
  1
Layout1
 70
     1
 71
     1
 10
0.0
 20
0.0
 11
420.0
 21
297.0
 12
0.0
 22
0.0
 32
0.0
 14
1.0000000000E+20
 24
1.0000000000E+20
 34
1.0000000000E+20
 15
-1.0000000000E+20
 25
-1.0000000000E+20
 35
-1.0000000000E+20
146
0.0
 13
0.0
 23
0.0
 33
0.0
 16
1.0
 26
0.0
 36
0.0
 17
0.0
 27
1.0
 37
0.0
 76
     0
330
1B
  0
LAYOUT
  5
26
102
{ACAD_REACTORS
330
1A
102
}
330
1A
100
AcDbPlotSettings
  1

  2
none_device
  4

  6

 40
0.0
 41
0.0
 42
0.0
 43
0.0
 44
0.0
 45
0.0
 46
0.0
 47
0.0
 48
0.0
 49
0.0
140
0.0
141
0.0
142
1.0
143
1.0
 70
   688
 72
     1
 73
     0
 74
     5
  7

 75
    16
147
1.0
148
0.0
149
0.0
100
AcDbLayout
  1
Layout2
 70
     1
 71
     2
 10
0.0
 20
0.0
 11
0.0
 21
0.0
 12
0.0
 22
0.0
 32
0.0
 14
0.0
 24
0.0
 34
0.0
 15
0.0
 25
0.0
 35
0.0
146
0.0
 13
0.0
 23
0.0
 33
0.0
 16
1.0
 26
0.0
 36
0.0
 17
0.0
 27
1.0
 37
0.0
 76
     0
330
23
  0
LAYOUT
  5
22
102
{ACAD_REACTORS
330
1A
102
}
330
1A
100
AcDbPlotSettings
  1

  2
none_device
  4
Letter_(8.50_x_11.00_Inches)
  6

 40
6.35
 41
6.35
 42
6.35000508
 43
6.35000508
 44
215.9
 45
279.4
 46
0.0
 47
0.0
 48
0.0
 49
0.0
140
0.0
141
0.0
142
1.0
143
1.0
 70
  1712
 72
     1
 73
     0
 74
     0
  7

 75
     0
147
1.0
148
0.0
149
0.0
100
AcDbLayout
  1
Model
 70
     1
 71
     0
 10
0.0
 20
0.0
 11
4000.0
 21
3300.0
 12
0.0
 22
0.0
 32
0.0
 14
0.0
 24
0.0
 34
0.0
 15
4000.0
 25
3300.0
 35
0.0
146
0.0
 13
0.0
 23
0.0
 33
0.0
 16
1.0
 26
0.0
 36
0.0
 17
0.0
 27
1.0
 37
0.0
 76
     0
330
1F
331
29
  0
MLINESTYLE
  5
18
102
{ACAD_REACTORS
330
17
102
}
330
17
100
AcDbMlineStyle
  2
Standard
 70
     0
  3

 62
   256
 51
90.0
 52
90.0
 71
     2
 49
0.5
 62
   256
  6
BYLAYER
 49
-0.5
 62
   256
  6
BYLAYER
  0
ACDBPLACEHOLDER
  5
F
102
{ACAD_REACTORS
330
E
102
}
330
E
  0
SCALE
  5
48
102
{ACAD_REACTORS
330
47
102
}
330
47
100
AcDbScale
 70
     0
300
1:1
140
1.0
141
1.0
290
     1
  0
SCALE
  5
49
102
{ACAD_REACTORS
330
47
102
}
330
47
100
AcDbScale
 70
     0
300
1:2
140
1.0
141
2.0
290
     0
  0
SCALE
  5
4A
102
{ACAD_REACTORS
330
47
102
}
330
47
100
AcDbScale
 70
     0
300
1:4
140
1.0
141
4.0
290
     0
  0
SCALE
  5
4B
102
{ACAD_REACTORS
330
47
102
}
330
47
100
AcDbScale
 70
     0
300
1:5
140
1.0
141
5.0
290
     0
  0
SCALE
  5
4C
102
{ACAD_REACTORS
330
47
102
}
330
47
100
AcDbScale
 70
     0
300
1:8
140
1.0
141
8.0
290
     0
  0
SCALE
  5
4D
102
{ACAD_REACTORS
330
47
102
}
330
47
100
AcDbScale
 70
     0
300
1:10
140
1.0
141
10.0
290
     0
  0
SCALE
  5
4E
102
{ACAD_REACTORS
330
47
102
}
330
47
100
AcDbScale
 70
     0
300
1:16
140
1.0
141
16.0
290
     0
  0
SCALE
  5
4F
102
{ACAD_REACTORS
330
47
102
}
330
47
100
AcDbScale
 70
     0
300
1:20
140
1.0
141
20.0
290
     0
  0
SCALE
  5
50
102
{ACAD_REACTORS
330
47
102
}
330
47
100
AcDbScale
 70
     0
300
1:30
140
1.0
141
30.0
290
     0
  0
SCALE
  5
51
102
{ACAD_REACTORS
330
47
102
}
330
47
100
AcDbScale
 70
     0
300
1:40
140
1.0
141
40.0
290
     0
  0
SCALE
  5
52
102
{ACAD_REACTORS
330
47
102
}
330
47
100
AcDbScale
 70
     0
300
1:50
140
1.0
141
50.0
290
     0
  0
SCALE
  5
53
102
{ACAD_REACTORS
330
47
102
}
330
47
100
AcDbScale
 70
     0
300
1:100
140
1.0
141
100.0
290
     0
  0
SCALE
  5
54
102
{ACAD_REACTORS
330
47
102
}
330
47
100
AcDbScale
 70
     0
300
2:1
140
2.0
141
1.0
290
     0
  0
SCALE
  5
55
102
{ACAD_REACTORS
330
47
102
}
330
47
100
AcDbScale
 70
     0
300
4:1
140
4.0
141
1.0
290
     0
  0
SCALE
  5
56
102
{ACAD_REACTORS
330
47
102
}
330
47
100
AcDbScale
 70
     0
300
8:1
140
8.0
141
1.0
290
     0
  0
SCALE
  5
57
102
{ACAD_REACTORS
330
47
102
}
330
47
100
AcDbScale
 70
     0
300
10:1
140
10.0
141
1.0
290
     0
  0
SCALE
  5
58
102
{ACAD_REACTORS
330
47
102
}
330
47
100
AcDbScale
 70
     0
300
100:1
140
100.0
141
1.0
290
     0
  0
SCALE
  5
59
102
{ACAD_REACTORS
330
47
102
}
330
47
100
AcDbScale
 70
     0
300
1/128" = 1'-0"
140
0.0078125
141
12.0
290
     0
  0
SCALE
  5
5A
102
{ACAD_REACTORS
330
47
102
}
330
47
100
AcDbScale
 70
     0
300
1/64" = 1'-0"
140
0.015625
141
12.0
290
     0
  0
SCALE
  5
5B
102
{ACAD_REACTORS
330
47
102
}
330
47
100
AcDbScale
 70
     0
300
1/32" = 1'-0"
140
0.03125
141
12.0
290
     0
  0
SCALE
  5
5C
102
{ACAD_REACTORS
330
47
102
}
330
47
100
AcDbScale
 70
     0
300
1/16" = 1'-0"
140
0.0625
141
12.0
290
     0
  0
SCALE
  5
5D
102
{ACAD_REACTORS
330
47
102
}
330
47
100
AcDbScale
 70
     0
300
3/32" = 1'-0"
140
0.09375
141
12.0
290
     0
  0
SCALE
  5
5E
102
{ACAD_REACTORS
330
47
102
}
330
47
100
AcDbScale
 70
     0
300
1/8" = 1'-0"
140
0.125
141
12.0
290
     0
  0
SCALE
  5
5F
102
{ACAD_REACTORS
330
47
102
}
330
47
100
AcDbScale
 70
     0
300
3/16" = 1'-0"
140
0.1875
141
12.0
290
     0
  0
SCALE
  5
60
102
{ACAD_REACTORS
330
47
102
}
330
47
100
AcDbScale
 70
     0
300
1/4" = 1'-0"
140
0.25
141
12.0
290
     0
  0
SCALE
  5
61
102
{ACAD_REACTORS
330
47
102
}
330
47
100
AcDbScale
 70
     0
300
3/8" = 1'-0"
140
0.375
141
12.0
290
     0
  0
SCALE
  5
62
102
{ACAD_REACTORS
330
47
102
}
330
47
100
AcDbScale
 70
     0
300
1/2" = 1'-0"
140
0.5
141
12.0
290
     0
  0
SCALE
  5
63
102
{ACAD_REACTORS
330
47
102
}
330
47
100
AcDbScale
 70
     0
300
3/4" = 1'-0"
140
0.75
141
12.0
290
     0
  0
SCALE
  5
64
102
{ACAD_REACTORS
330
47
102
}
330
47
100
AcDbScale
 70
     0
300
1" = 1'-0"
140
1.0
141
12.0
290
     0
  0
SCALE
  5
65
102
{ACAD_REACTORS
330
47
102
}
330
47
100
AcDbScale
 70
     0
300
1-1/2" = 1'-0"
140
1.5
141
12.0
290
     0
  0
SCALE
  5
66
102
{ACAD_REACTORS
330
47
102
}
330
47
100
AcDbScale
 70
     0
300
3" = 1'-0"
140
3.0
141
12.0
290
     0
  0
SCALE
  5
67
102
{ACAD_REACTORS
330
47
102
}
330
47
100
AcDbScale
 70
     0
300
6" = 1'-0"
140
6.0
141
12.0
290
     0
  0
SCALE
  5
68
102
{ACAD_REACTORS
330
47
102
}
330
47
100
AcDbScale
 70
     0
300
1'-0" = 1'-0"
140
12.0
141
12.0
290
     0
  0
ENDSEC
  0
EOF
