  0
SECTION
  2
HEADER
  9
$ACADVER
  1
AC1015
  9
$ACADMAINTVER
 70
     6
  9
$DWGCODEPAGE
  3
ANSI_1251
  9
$INSBASE
 10
0.0
 20
0.0
 30
0.0
  9
$EXTMIN
 10
0.0
 20
0.0
 30
0.0
  9
$EXTMAX
 10
2000.0
 20
2000.0
 30
0.0
  9
$LIMMIN
 10
0.0
 20
0.0
  9
$LIMMAX
 10
2000.0
 20
2000.0
  9
$ORTHOMODE
 70
     0
  9
$REGENMODE
 70
     1
  9
$FILLMODE
 70
     1
  9
$QTEXTMODE
 70
     0
  9
$MIRRTEXT
 70
     1
  9
$LTSCALE
 40
1.0
  9
$ATTMODE
 70
     1
  9
$TEXTSIZE
 40
5.0
  9
$TRACEWID
 40
1.0
  9
$TEXTSTYLE
  7
Standard
  9
$CLAYER
  8
0
  9
$CELTYPE
  6
ByLayer
  9
$CECOLOR
 62
   256
  9
$CELTSCALE
 40
1.0
  9
$DISPSILH
 70
     0
  9
$DIMSCALE
 40
1.0
  9
$DIMASZ
 40
5.0
  9
$DIMEXO
 40
0.0
  9
$DIMDLI
 40
3.75
  9
$DIMRND
 40
0.0
  9
$DIMDLE
 40
0.0
  9
$DIMEXE
 40
1.0
  9
$DIMTP
 40
0.0
  9
$DIMTM
 40
0.0
  9
$DIMTXT
 40
3.5
  9
$DIMCEN
 40
2.5
  9
$DIMTSZ
 40
0.0
  9
$DIMTOL
 70
     0
  9
$DIMLIM
 70
     0
  9
$DIMTIH
 70
     1
  9
$DIMTOH
 70
     1
  9
$DIMSE1
 70
     0
  9
$DIMSE2
 70
     0
  9
$DIMTAD
 70
     1
  9
$DIMZIN
 70
     0
  9
$DIMBLK
  1

  9
$DIMASO
 70
     1
  9
$DIMSHO
 70
     1
  9
$DIMPOST
  1

  9
$DIMAPOST
  1

  9
$DIMALT
 70
     0
  9
$DIMALTD
 70
     3
  9
$DIMALTF
 40
0.0393700787
  9
$DIMLFAC
 40
1.0
  9
$DIMTOFL
 70
     1
  9
$DIMTVP
 40
0.0
  9
$DIMTIX
 70
     0
  9
$DIMSOXD
 70
     0
  9
$DIMSAH
 70
     0
  9
$DIMBLK1
  1

  9
$DIMBLK2
  1

  9
$DIMSTYLE
  2
ISO-25
  9
$DIMCLRD
 70
     0
  9
$DIMCLRE
 70
     0
  9
$DIMCLRT
 70
     0
  9
$DIMTFAC
 40
1.0
  9
$DIMGAP
 40
1.5
  9
$DIMJUST
 70
     0
  9
$DIMSD1
 70
     0
  9
$DIMSD2
 70
     0
  9
$DIMTOLJ
 70
     0
  9
$DIMTZIN
 70
     0
  9
$DIMALTZ
 70
     0
  9
$DIMALTTZ
 70
     0
  9
$DIMUPT
 70
     0
  9
$DIMDEC
 70
     1
  9
$DIMTDEC
 70
     1
  9
$DIMALTU
 70
     2
  9
$DIMALTTD
 70
     3
  9
$DIMTXSTY
  7
Standard
  9
$DIMAUNIT
 70
     0
  9
$DIMADEC
 70
     2
  9
$DIMALTRND
 40
0.0
  9
$DIMAZIN
 70
     0
  9
$DIMDSEP
 70
    44
  9
$DIMATFIT
 70
     3
  9
$DIMFRAC
 70
     0
  9
$DIMLDRBLK
  1

  9
$DIMLUNIT
 70
     2
  9
$DIMLWD
 70
    -2
  9
$DIMLWE
 70
    -2
  9
$DIMTMOVE
 70
     0
  9
$LUNITS
 70
     2
  9
$LUPREC
 70
     1
  9
$SKETCHINC
 40
1.0
  9
$FILLETRAD
 40
0.0
  9
$AUNITS
 70
     0
  9
$AUPREC
 70
     2
  9
$MENU
  1
.
  9
$ELEVATION
 40
0.0
  9
$PELEVATION
 40
0.0
  9
$THICKNESS
 40
0.0
  9
$LIMCHECK
 70
     0
  9
$CHAMFERA
 40
0.0
  9
$CHAMFERB
 40
0.0
  9
$CHAMFERC
 40
0.0
  9
$CHAMFERD
 40
0.0
  9
$SKPOLY
 70
     0
  9
$TDCREATE
 40
2460213.631162176
  9
$TDUCREATE
 40
2460213.506162176
  9
$TDUPDATE
 40
2460213.631162789
  9
$TDUUPDATE
 40
2460213.506162789
  9
$TDINDWG
 40
0.0000000116
  9
$TDUSRTIMER
 40
0.0000000116
  9
$USRTIMER
 70
     1
  9
$ANGBASE
 50
0.0
  9
$ANGDIR
 70
     0
  9
$PDMODE
 70
     0
  9
$PDSIZE
 40
-1.0
  9
$PLINEWID
 40
0.0
  9
$SPLFRAME
 70
     0
  9
$SPLINETYPE
 70
     6
  9
$SPLINESEGS
 70
     8
  9
$HANDSEED
  5
530
  9
$SURFTAB1
 70
     6
  9
$SURFTAB2
 70
     6
  9
$SURFTYPE
 70
     6
  9
$SURFU
 70
     6
  9
$SURFV
 70
     6
  9
$UCSBASE
  2

  9
$UCSNAME
  2

  9
$UCSORG
 10
0.0
 20
0.0
 30
0.0
  9
$UCSXDIR
 10
1.0
 20
0.0
 30
0.0
  9
$UCSYDIR
 10
0.0
 20
1.0
 30
0.0
  9
$UCSORTHOREF
  2

  9
$UCSORTHOVIEW
 70
     0
  9
$UCSORGTOP
 10
0.0
 20
0.0
 30
0.0
  9
$UCSORGBOTTOM
 10
0.0
 20
0.0
 30
0.0
  9
$UCSORGLEFT
 10
0.0
 20
0.0
 30
0.0
  9
$UCSORGRIGHT
 10
0.0
 20
0.0
 30
0.0
  9
$UCSORGFRONT
 10
0.0
 20
0.0
 30
0.0
  9
$UCSORGBACK
 10
0.0
 20
0.0
 30
0.0
  9
$PUCSBASE
  2

  9
$PUCSNAME
  2

  9
$PUCSORG
 10
0.0
 20
0.0
 30
0.0
  9
$PUCSXDIR
 10
1.0
 20
0.0
 30
0.0
  9
$PUCSYDIR
 10
0.0
 20
1.0
 30
0.0
  9
$PUCSORTHOREF
  2

  9
$PUCSORTHOVIEW
 70
     0
  9
$PUCSORGTOP
 10
0.0
 20
0.0
 30
0.0
  9
$PUCSORGBOTTOM
 10
0.0
 20
0.0
 30
0.0
  9
$PUCSORGLEFT
 10
0.0
 20
0.0
 30
0.0
  9
$PUCSORGRIGHT
 10
0.0
 20
0.0
 30
0.0
  9
$PUCSORGFRONT
 10
0.0
 20
0.0
 30
0.0
  9
$PUCSORGBACK
 10
0.0
 20
0.0
 30
0.0
  9
$USERI1
 70
     0
  9
$USERI2
 70
     0
  9
$USERI3
 70
     0
  9
$USERI4
 70
     0
  9
$USERI5
 70
     0
  9
$USERR1
 40
0.0
  9
$USERR2
 40
0.0
  9
$USERR3
 40
0.0
  9
$USERR4
 40
0.0
  9
$USERR5
 40
0.0
  9
$WORLDVIEW
 70
     1
  9
$SHADEDGE
 70
     3
  9
$SHADEDIF
 70
    70
  9
$TILEMODE
 70
     1
  9
$MAXACTVP
 70
    64
  9
$PINSBASE
 10
0.0
 20
0.0
 30
0.0
  9
$PLIMCHECK
 70
     0
  9
$PEXTMIN
 10
1.0000000000E+20
 20
1.0000000000E+20
 30
1.0000000000E+20
  9
$PEXTMAX
 10
-1.0000000000E+20
 20
-1.0000000000E+20
 30
-1.0000000000E+20
  9
$PLIMMIN
 10
0.0
 20
0.0
  9
$PLIMMAX
 10
420.0
 20
297.0
  9
$UNITMODE
 70
     0
  9
$VISRETAIN
 70
     1
  9
$PLINEGEN
 70
     0
  9
$PSLTSCALE
 70
     1
  9
$TREEDEPTH
 70
  3020
  9
$CMLSTYLE
  2
Standard
  9
$CMLJUST
 70
     0
  9
$CMLSCALE
 40
20.0
  9
$PROXYGRAPHICS
 70
     1
  9
$MEASUREMENT
 70
     1
  9
$CELWEIGHT
370
    -1
  9
$ENDCAPS
280
     0
  9
$JOINSTYLE
280
     0
  9
$LWDISPLAY
290
     1
  9
$INSUNITS
 70
     4
  9
$HYPERLINKBASE
  1

  9
$STYLESHEET
  1

  9
$XEDIT
290
     1
  9
$CEPSNTYPE
380
     0
  9
$PSTYLEMODE
290
     1
  9
$FINGERPRINTGUID
  2
{142ee003-53f5-4a36-81f8-88b41ab3dc73}
  9
$VERSIONGUID
  2
{FAEB1C32-E019-11D5-929B-00C0DF256EC4}
  9
$EXTNAMES
290
     1
  9
$PSVPSCALE
 40
0.0
  9
$OLESTARTUP
290
     0
  0
ENDSEC
  0
SECTION
  2
CLASSES
  0
CLASS
  1
ACDBDICTIONARYWDFLT
  2
AcDbDictionaryWithDefault
  3
ObjectDBX Classes
 90
        0
280
     0
281
     0
  0
CLASS
  1
VISUALSTYLE
  2
AcDbVisualStyle
  3
ObjectDBX Classes
 90
     4095
280
     0
281
     0
  0
CLASS
  1
MATERIAL
  2
AcDbMaterial
  3
ObjectDBX Classes
 90
     1153
280
     0
281
     0
  0
CLASS
  1
SCALE
  2
AcDbScale
  3
ObjectDBX Classes
 90
     1153
280
     0
281
     0
  0
CLASS
  1
TABLESTYLE
  2
AcDbTableStyle
  3
ObjectDBX Classes
 90
     4095
280
     0
281
     0
  0
CLASS
  1
MLEADERSTYLE
  2
AcDbMLeaderStyle
  3
ACDB_MLEADERSTYLE_CLASS
 90
     4095
280
     0
281
     0
  0
CLASS
  1
SUN
  2
AcDbSun
  3
SCENEOE
 90
     1153
280
     0
281
     0
  0
CLASS
  1
ACDBPLACEHOLDER
  2
AcDbPlaceHolder
  3
ObjectDBX Classes
 90
        0
280
     0
281
     0
  0
CLASS
  1
LAYOUT
  2
AcDbLayout
  3
ObjectDBX Classes
 90
        0
280
     0
281
     0
  0
ENDSEC
  0
SECTION
  2
TABLES
  0
TABLE
  2
VPORT
  5
8
330
0
100
AcDbSymbolTable
 70
     1
  0
VPORT
  5
29
330
8
100
AcDbSymbolTableRecord
100
AcDbViewportTableRecord
  2
*Active
 70
     0
 10
0.0
 20
0.0
 11
1.0
 21
1.0
 12
1000.0
 22
1000.0
 13
0.0
 23
0.0
 14
10.0
 24
10.0
 15
10.0
 25
10.0
 16
0.0
 26
0.0
 36
1.0
 17
0.0
 27
0.0
 37
0.0
 40
2000.0
 41
1.0
 42
50.0
 43
0.0
 44
0.0
 50
0.0
 51
0.0
 71
     0
 72
  2000
 73
     1
 74
     3
 75
     0
 76
     0
 77
     0
 78
     0
281
     0
 65
     1
110
0.0
120
0.0
130
0.0
111
1.0
121
0.0
131
0.0
112
0.0
122
1.0
132
0.0
 79
     0
146
0.0
  0
ENDTAB
  0
TABLE
  2
LTYPE
  5
5
330
0
100
AcDbSymbolTable
 70
     8
  0
LTYPE
  5
14
330
5
100
AcDbSymbolTableRecord
100
AcDbLinetypeTableRecord
  2
ByBlock
 70
     0
  3

 72
    65
 73
     0
 40
0.0
  0
LTYPE
  5
15
330
5
100
AcDbSymbolTableRecord
100
AcDbLinetypeTableRecord
  2
ByLayer
 70
     0
  3

 72
    65
 73
     0
 40
0.0
  0
LTYPE
  5
16
330
5
100
AcDbSymbolTableRecord
100
AcDbLinetypeTableRecord
  2
Continuous
 70
     0
  3
Solid line
 72
    65
 73
     0
 40
0.0
  0
LTYPE
  5
5E
330
5
100
AcDbSymbolTableRecord
100
AcDbLinetypeTableRecord
  2
SLD-Сплошная
 70
     0
  3
SolidWorks Line Style
 72
    65
 73
     0
 40
0.0
  0
LTYPE
  5
5F
330
5
100
AcDbSymbolTableRecord
100
AcDbLinetypeTableRecord
  2
SLD-Штриховая
 70
     0
  3
SolidWorks Line Style
 72
    65
 73
     2
 40
1.905
 49
1.27
 74
     0
 49
-0.635
 74
     0
  0
LTYPE
  5
60
330
5
100
AcDbSymbolTableRecord
100
AcDbLinetypeTableRecord
  2
SLD-Штрихпункт.-с-двумя-точками
 70
     0
  3
SolidWorks Line Style
 72
    65
 73
     6
 40
12.7
 49
6.35
 74
     0
 49
-1.27
 74
     0
 49
1.27
 74
     0
 49
-1.27
 74
     0
 49
1.27
 74
     0
 49
-1.27
 74
     0
  0
LTYPE
  5
61
330
5
100
AcDbSymbolTableRecord
100
AcDbLinetypeTableRecord
  2
SLD-Штрихпункт.-утолщ.
 70
     0
  3
SolidWorks Line Style
 72
    65
 73
     4
 40
10.16
 49
6.35
 74
     0
 49
-1.27
 74
     0
 49
1.27
 74
     0
 49
-1.27
 74
     0
  0
LTYPE
  5
62
330
5
100
AcDbSymbolTableRecord
100
AcDbLinetypeTableRecord
  2
SLD-Осевая
 70
     0
  3
SolidWorks Line Style
 72
    65
 73
     4
 40
19.05
 49
15.24
 74
     0
 49
-1.27
 74
     0
 49
1.27
 74
     0
 49
-1.27
 74
     0
  0
LTYPE
  5
63
330
5
100
AcDbSymbolTableRecord
100
AcDbLinetypeTableRecord
  2
SLD-Сшитая
 70
     0
  3
SolidWorks Line Style
 72
    65
 73
     2
 40
0.635
 49
0.0
 74
     0
 49
-0.635
 74
     0
  0
LTYPE
  5
64
330
5
100
AcDbSymbolTableRecord
100
AcDbLinetypeTableRecord
  2
SLD-Тонкая-Толстая
 70
     0
  3
SolidWorks Line Style
 72
    65
 73
     2
 40
5.080508
 49
0.000508
 74
     0
 49
-5.08
 74
     0
  0
ENDTAB
  0
TABLE
  2
LAYER
  5
2
330
0
100
AcDbSymbolTable
 70
     3
  0
LAYER
  5
10
330
2
100
AcDbSymbolTableRecord
100
AcDbLayerTableRecord
  2
0
 70
     0
 62
     7
  6
Continuous
370
    -3
390
F
  0
LAYER
  5
65
330
2
100
AcDbSymbolTableRecord
100
AcDbLayerTableRecord
  2
1
 70
     0
 62
     7
  6
SLD-Сплошная
370
    -1
390
F
  0
LAYER
  5
66
330
2
100
AcDbSymbolTableRecord
100
AcDbLayerTableRecord
  2
2
 70
     0
 62
     7
  6
SLD-Сплошная
370
    -3
390
F
  0
ENDTAB
  0
TABLE
  2
STYLE
  5
3
330
0
100
AcDbSymbolTable
 70
     1
  0
STYLE
  5
11
330
3
100
AcDbSymbolTableRecord
100
AcDbTextStyleTableRecord
  2
Standard
 70
     0
 40
0.0
 41
1.0
 50
0.0
 71
     0
 42
5.0
  3
txt
  4

  0
ENDTAB
  0
TABLE
  2
VIEW
  5
6
330
0
100
AcDbSymbolTable
 70
     0
  0
ENDTAB
  0
TABLE
  2
UCS
  5
7
330
0
100
AcDbSymbolTable
 70
     0
  0
ENDTAB
  0
TABLE
  2
APPID
  5
9
330
0
100
AcDbSymbolTable
 70
     1
  0
APPID
  5
12
330
9
100
AcDbSymbolTableRecord
100
AcDbRegAppTableRecord
  2
ACAD
 70
     0
  0
ENDTAB
  0
TABLE
  2
DIMSTYLE
  5
A
330
0
100
AcDbSymbolTable
 70
     1
100
AcDbDimStyleTable
  0
DIMSTYLE
105
27
330
A
100
AcDbSymbolTableRecord
100
AcDbDimStyleTableRecord
  2
ISO-25
 70
     0
 41
2.5
 42
0.625
 43
3.75
 44
1.25
 73
     0
 74
     0
 77
     1
 78
     8
140
2.5
141
2.5
143
0.0393700787
147
0.625
171
     3
172
     1
178
     0
271
     2
272
     2
274
     3
278
    44
283
     0
284
     8
340
11
  0
ENDTAB
  0
TABLE
  2
BLOCK_RECORD
  5
1
330
0
100
AcDbSymbolTable
 70
     1
  0
BLOCK_RECORD
  5
1F
330
1
100
AcDbSymbolTableRecord
100
AcDbBlockTableRecord
  2
*Model_Space
340
22
  0
BLOCK_RECORD
  5
1B
330
1
100
AcDbSymbolTableRecord
100
AcDbBlockTableRecord
  2
*Paper_Space
340
1E
  0
BLOCK_RECORD
  5
23
330
1
100
AcDbSymbolTableRecord
100
AcDbBlockTableRecord
  2
*Paper_Space0
340
26
  0
ENDTAB
  0
ENDSEC
  0
SECTION
  2
BLOCKS
  0
BLOCK
  5
20
330
1F
100
AcDbEntity
  8
0
100
AcDbBlockBegin
  2
*Model_Space
 70
     0
 10
0.0
 20
0.0
 30
0.0
  3
*Model_Space
  1

  0
ENDBLK
  5
21
330
1F
100
AcDbEntity
  8
0
100
AcDbBlockEnd
  0
BLOCK
  5
1C
330
1B
100
AcDbEntity
 67
     1
  8
0
100
AcDbBlockBegin
  2
*Paper_Space
 70
     0
 10
0.0
 20
0.0
 30
0.0
  3
*Paper_Space
  1

  0
ENDBLK
  5
1D
330
1B
100
AcDbEntity
 67
     1
  8
0
100
AcDbBlockEnd
  0
BLOCK
  5
24
330
23
100
AcDbEntity
  8
0
100
AcDbBlockBegin
  2
*Paper_Space0
 70
     0
 10
0.0
 20
0.0
 30
0.0
  3
*Paper_Space0
  1

  0
ENDBLK
  5
25
330
23
100
AcDbEntity
  8
0
100
AcDbBlockEnd
  0
ENDSEC
  0
SECTION
  2
ENTITIES
  0
ARC
  5
67
330
1F
100
AcDbEntity
  8
1
  6
SLD-Сплошная
100
AcDbCircle
 10
1069.6054271659
 20
367.0234668679
 30
0.0
 40
1.000000000000227
100
AcDbArc
 50
180.0
 51
257.5813184942
  0
ARC
  5
68
330
1F
100
AcDbEntity
  8
1
  6
SLD-Сплошная
100
AcDbCircle
 10
1084.2054271659
 20
367.0234668679
 30
0.0
 40
1.0
100
AcDbArc
 50
282.4186815058
 51
0.0
  0
LINE
  5
69
330
1F
100
AcDbEntity
  8
1
  6
SLD-Сплошная
100
AcDbLine
 10
1068.6054271659
 20
368.2292289255
 30
0.0
 11
1068.6054271659
 21
367.0234668679
 31
0.0
  0
LINE
  5
6A
330
1F
100
AcDbEntity
  8
1
  6
SLD-Сплошная
100
AcDbLine
 10
1085.2054271659
 20
367.0234668679
 30
0.0
 11
1085.2054271659
 21
368.2292289255
 31
0.0
  0
ARC
  5
6B
330
1F
100
AcDbEntity
  8
1
  6
SLD-Сплошная
100
AcDbCircle
 10
1076.9054271659
 20
400.1742289255
 30
0.0
 40
34.94500000000001
100
AcDbArc
 50
270.0104111827
 51
282.4186815058
  0
ARC
  5
6C
330
1F
100
AcDbEntity
  8
1
  6
SLD-Сплошная
100
AcDbCircle
 10
1076.9054271659
 20
400.1742289255
 30
0.0
 40
34.94500000000001
100
AcDbArc
 50
257.5813184942
 51
270.0104111827
  0
LINE
  5
6D
330
1F
100
AcDbEntity
  8
1
  6
SLD-Сплошная
100
AcDbLine
 10
494.6175592003
 20
371.012071638
 30
0.0
 11
493.9054271659
 21
370.2999396036
 31
0.0
  0
LINE
  5
6E
330
1F
100
AcDbEntity
  8
1
  6
SLD-Сплошная
100
AcDbLine
 10
494.6175592004
 20
965.446386213
 30
0.0
 11
493.9054271659
 21
966.1585182474
 31
0.0
  0
LINE
  5
6F
330
1F
100
AcDbEntity
  8
1
  6
SLD-Сплошная
100
AcDbLine
 10
1089.9054271659
 20
370.2999396036
 30
0.0
 11
1089.105427166
 21
371.0999396036
 31
0.0
  0
LINE
  5
70
330
1F
100
AcDbEntity
  8
1
  6
SLD-Сплошная
100
AcDbLine
 10
1089.9054271659
 20
966.1585182474
 30
0.0
 11
1089.1054271659
 21
965.3585182474
 31
0.0
  0
LINE
  5
71
330
1F
100
AcDbEntity
  8
1
  6
SLD-Сплошная
100
AcDbLine
 10
1089.0518737754
 20
965.4463862131
 30
0.0
 11
1089.8347164879
 21
966.2292289255
 31
0.0
  0
LINE
  5
72
330
1F
100
AcDbEntity
  8
1
  6
SLD-Сплошная
100
AcDbLine
 10
493.976137844
 20
966.2292289255
 30
0.0
 11
494.7589805565
 21
965.446386213
 31
0.0
  0
LINE
  5
73
330
1F
100
AcDbEntity
  8
1
  6
SLD-Сплошная
100
AcDbLine
 10
493.976137844
 20
370.2292289255
 30
0.0
 11
494.7589805565
 21
371.012071638
 31
0.0
  0
LINE
  5
74
330
1F
100
AcDbEntity
  8
1
  6
SLD-Сплошная
100
AcDbLine
 10
1089.0518737753
 20
371.012071638
 30
0.0
 11
1089.8347164879
 21
370.2292289255
 31
0.0
  0
ELLIPSE
  5
75
330
1F
100
AcDbEntity
  8
1
  6
SLD-Сплошная
100
AcDbEllipse
 10
493.9054271659
 20
966.2292289255
 30
0.0
 11
1.0
 21
0.0
 31
0.0
210
0.0
220
0.0
230
1.0
 40
0.0707106781
 41
3.14159265353995
 42
4.712388980384634
  0
ELLIPSE
  5
76
330
1F
100
AcDbEntity
  8
1
  6
SLD-Сплошная
100
AcDbEllipse
 10
493.9054271659
 20
966.2292289255
 30
0.0
 11
2.0
 21
-1.136868377216160E-13
 31
0.0
210
0.0
220
0.0
230
1.0
 40
0.035355339
 41
3.141592653539949
 42
4.712388980384635
  0
LINE
  5
77
330
1F
100
AcDbEntity
  8
1
  6
SLD-Сплошная
100
AcDbLine
 10
492.9054271659
 20
966.2292289255
 30
0.0
 11
491.9054271659
 21
966.2292289255
 31
0.0
  0
ELLIPSE
  5
78
330
1F
100
AcDbEntity
  8
1
  6
SLD-Сплошная
100
AcDbEllipse
 10
493.9054271659
 20
370.2292289255
 30
0.0
 11
2.0
 21
0.0
 31
0.0
210
0.0
220
0.0
230
1.0
 40
0.035355339
 41
1.570796326794953
 42
3.141592653642444
  0
ELLIPSE
  5
79
330
1F
100
AcDbEntity
  8
1
  6
SLD-Сплошная
100
AcDbEllipse
 10
493.9054271659
 20
370.2292289255
 30
0.0
 11
1.0
 21
0.0
 31
0.0
210
0.0
220
0.0
230
1.0
 40
0.0707106781
 41
1.570796326794953
 42
3.141592653642245
  0
LINE
  5
7A
330
1F
100
AcDbEntity
  8
1
  6
SLD-Сплошная
100
AcDbLine
 10
492.9054271659
 20
370.2292289255
 30
0.0
 11
491.9054271659
 21
370.2292289255
 31
0.0
  0
LINE
  5
7B
330
1F
100
AcDbEntity
  8
1
  6
SLD-Сплошная
100
AcDbLine
 10
493.9054271659
 20
968.2292289255
 30
0.0
 11
1089.9054271659
 21
968.2292289255
 31
0.0
  0
ELLIPSE
  5
7C
330
1F
100
AcDbEntity
  8
1
  6
SLD-Сплошная
100
AcDbEllipse
 10
1089.905427166
 20
966.2292289255
 30
0.0
 11
0.0
 21
2.0
 31
0.0
210
0.0
220
0.0
230
1.0
 40
0.035355339
 41
0.0
 42
1.57079632679484
  0
ELLIPSE
  5
7D
330
1F
100
AcDbEntity
  8
1
  6
SLD-Сплошная
100
AcDbEllipse
 10
493.905427166
 20
966.2292289255
 30
0.0
 11
0.0
 21
2.0
 31
0.0
210
0.0
220
0.0
230
1.0
 40
0.035355339
 41
4.712388980384917
 42
6.283185307179586
  0
LINE
  5
7E
330
1F
100
AcDbEntity
  8
1
  6
SLD-Сплошная
100
AcDbLine
 10
1091.9054271659
 20
966.2292289255
 30
0.0
 11
1091.9054271659
 21
370.2292289255
 31
0.0
  0
ELLIPSE
  5
7F
330
1F
100
AcDbEntity
  8
1
  6
SLD-Сплошная
100
AcDbEllipse
 10
1089.9054271659
 20
370.2292289255
 30
0.0
 11
2.0
 21
0.0
 31
0.0
210
0.0
220
0.0
230
1.0
 40
0.035355339
 41
0.0
 42
1.570796326794897
  0
ELLIPSE
  5
80
330
1F
100
AcDbEntity
  8
1
  6
SLD-Сплошная
100
AcDbEllipse
 10
1089.9054271659
 20
966.2292289255
 30
0.0
 11
2.0
 21
0.0
 31
0.0
210
0.0
220
0.0
230
1.0
 40
0.035355339
 41
4.71238898038469
 42
6.283185307179586
  0
ELLIPSE
  5
81
330
1F
100
AcDbEntity
  8
1
  6
SLD-Сплошная
100
AcDbEllipse
 10
493.905427166
 20
370.2292289255
 30
0.0
 11
0.0
 21
2.0
 31
0.0
210
0.0
220
0.0
230
1.0
 40
0.035355339
 41
3.141592653508597
 42
4.712388980384462
  0
LINE
  5
82
330
1F
100
AcDbEntity
  8
1
  6
SLD-Сплошная
100
AcDbLine
 10
493.9054271659
 20
368.2292289255
 30
0.0
 11
493.9054271659
 21
368.5588996167
 31
0.0
  0
LINE
  5
83
330
1F
100
AcDbEntity
  8
1
  6
SLD-Сплошная
100
AcDbLine
 10
493.9054271659
 20
368.5588996167
 30
0.0
 11
493.9054271659
 21
369.2292289255
 31
0.0
  0
ELLIPSE
  5
84
330
1F
100
AcDbEntity
  8
1
  6
SLD-Сплошная
100
AcDbEllipse
 10
493.905427166
 20
370.2292289255
 30
0.0
 11
0.0
 21
1.0
 31
0.0
210
0.0
220
0.0
230
1.0
 40
0.0707106781
 41
3.141592653511815
 42
4.712388980384691
  0
LINE
  5
85
330
1F
100
AcDbEntity
  8
1
  6
SLD-Сплошная
100
AcDbLine
 10
491.9054271659
 20
370.2292289255
 30
0.0
 11
491.9054271659
 21
966.2292289255
 31
0.0
  0
LINE
  5
86
330
1F
100
AcDbEntity
  8
1
  6
SLD-Сплошная
100
AcDbLine
 10
1091.9054271659
 20
370.2292289255
 30
0.0
 11
1090.9054271659
 21
370.2292289255
 31
0.0
  0
ELLIPSE
  5
87
330
1F
100
AcDbEntity
  8
1
  6
SLD-Сплошная
100
AcDbEllipse
 10
1089.9054271659
 20
370.2292289255
 30
0.0
 11
0.9999999999997726
 21
0.0
 31
0.0
210
0.0
220
0.0
230
1.0
 40
0.0707106781
 41
0.0
 42
1.570796326794897
  0
ELLIPSE
  5
88
330
1F
100
AcDbEntity
  8
1
  6
SLD-Сплошная
100
AcDbEllipse
 10
1089.9054271659
 20
966.2292289255
 30
0.0
 11
0.9999999999997726
 21
0.0
 31
0.0
210
0.0
220
0.0
230
1.0
 40
0.0707106781
 41
4.712388980384691
 42
6.283185307179586
  0
LINE
  5
89
330
1F
100
AcDbEntity
  8
1
  6
SLD-Сплошная
100
AcDbLine
 10
1091.9054271659
 20
966.2292289255
 30
0.0
 11
1090.9054271659
 21
966.2292289255
 31
0.0
  0
ELLIPSE
  5
8A
330
1F
100
AcDbEntity
  8
1
  6
SLD-Сплошная
100
AcDbEllipse
 10
1089.905427166
 20
966.2292289255
 30
0.0
 11
0.0
 21
1.0
 31
0.0
210
0.0
220
0.0
230
1.0
 40
0.0707106781
 41
0.0
 42
1.570796326794897
  0
LINE
  5
8B
330
1F
100
AcDbEntity
  8
1
  6
SLD-Сплошная
100
AcDbLine
 10
1089.9054271659
 20
967.2292289255
 30
0.0
 11
1089.9054271659
 21
968.2292289255
 31
0.0
  0
ELLIPSE
  5
8C
330
1F
100
AcDbEntity
  8
1
  6
SLD-Сплошная
100
AcDbEllipse
 10
493.905427166
 20
966.2292289255
 30
0.0
 11
0.0
 21
1.0
 31
0.0
210
0.0
220
0.0
230
1.0
 40
0.0707106781
 41
4.712388980384804
 42
6.283185307179586
  0
LINE
  5
8D
330
1F
100
AcDbEntity
  8
1
  6
SLD-Сплошная
100
AcDbLine
 10
493.9054271659
 20
968.2292289255
 30
0.0
 11
493.9054271659
 21
967.2292289255
 31
0.0
  0
ELLIPSE
  5
8E
330
1F
100
AcDbEntity
  8
1
  6
SLD-Сплошная
100
AcDbEllipse
 10
1089.905427166
 20
370.2292289255
 30
0.0
 11
0.0
 21
2.0
 31
0.0
210
0.0
220
0.0
230
1.0
 40
0.035355339
 41
1.570796326794953
 42
3.141592653541557
  0
LINE
  5
8F
330
1F
100
AcDbEntity
  8
1
  6
SLD-Сплошная
100
AcDbLine
 10
495.0054271659
 20
368.2292289255
 30
0.0
 11
1089.9054271659
 21
368.2292289255
 31
0.0
  0
LINE
  5
90
330
1F
100
AcDbEntity
  8
1
  6
SLD-Сплошная
100
AcDbLine
 10
493.9054271659
 20
368.2292289255
 30
0.0
 11
495.0054271659
 21
368.2292289255
 31
0.0
  0
ELLIPSE
  5
91
330
1F
100
AcDbEntity
  8
1
  6
SLD-Сплошная
100
AcDbEllipse
 10
1089.905427166
 20
370.2292289255
 30
0.0
 11
0.0
 21
1.0
 31
0.0
210
0.0
220
0.0
230
1.0
 40
0.0707106781
 41
1.57079632679501
 42
3.141592653541558
  0
LINE
  5
92
330
1F
100
AcDbEntity
  8
1
  6
SLD-Сплошная
100
AcDbLine
 10
1089.9054271659
 20
369.2292289255
 30
0.0
 11
1089.9054271659
 21
368.2292289255
 31
0.0
  0
LINE
  5
93
330
1F
100
AcDbEntity
  8
1
  6
SLD-Сплошная
100
AcDbLine
 10
494.0054271659
 20
370.2585182474
 30
0.0
 11
494.0054271659
 21
370.3999396036
 31
0.0
  0
LINE
  5
94
330
1F
100
AcDbEntity
  8
1
  6
SLD-Сплошная
100
AcDbLine
 10
493.0054271659
 20
370.2292289255
 30
0.0
 11
493.0054271659
 21
370.2600509955
 31
0.0
  0
ARC
  5
95
330
1F
100
AcDbEntity
  8
1
  6
SLD-Сплошная
100
AcDbCircle
 10
495.0054271659
 20
370.2292289255
 30
0.0
 40
2.000000000000162
100
AcDbArc
 50
180.0
 51
236.6329870308
  0
ARC
  5
96
330
1F
100
AcDbEntity
  8
1
  6
SLD-Сплошная
100
AcDbCircle
 10
493.9054271659
 20
966.2292289255
 30
0.0
 40
1.000000000007958
100
AcDbArc
 50
90.0
 51
180.0
  0
ARC
  5
97
330
1F
100
AcDbEntity
  8
1
  6
SLD-Сплошная
100
AcDbCircle
 10
493.9054271659
 20
966.2292289255
 30
0.0
 40
2.000000000007958
100
AcDbArc
 50
90.0
 51
180.0
  0
ARC
  5
98
330
1F
100
AcDbEntity
  8
1
  6
SLD-Сплошная
100
AcDbCircle
 10
1089.9054271659
 20
966.2292289255
 30
0.0
 40
1.0
100
AcDbArc
 50
0.0
 51
90.0
  0
ARC
  5
99
330
1F
100
AcDbEntity
  8
1
  6
SLD-Сплошная
100
AcDbCircle
 10
1089.9054271659
 20
966.2292289255
 30
0.0
 40
2.0
100
AcDbArc
 50
0.0
 51
90.0
  0
ARC
  5
9A
330
1F
100
AcDbEntity
  8
1
  6
SLD-Сплошная
100
AcDbCircle
 10
1089.9054271659
 20
370.2292289255
 30
0.0
 40
1.0
100
AcDbArc
 50
270.0
 51
0.0
  0
ARC
  5
9B
330
1F
100
AcDbEntity
  8
1
  6
SLD-Сплошная
100
AcDbCircle
 10
1089.9054271659
 20
370.2292289255
 30
0.0
 40
2.0
100
AcDbArc
 50
270.0
 51
0.0
  0
LINE
  5
9C
330
1F
100
AcDbEntity
  8
1
  6
SLD-Сплошная
100
AcDbLine
 10
493.9054271659
 20
967.2292289255
 30
0.0
 11
493.9054271659
 21
966.2999396036
 31
0.0
  0
LINE
  5
9D
330
1F
100
AcDbEntity
  8
1
  6
SLD-Сплошная
100
AcDbLine
 10
1089.9054271659
 20
966.2999396036
 30
0.0
 11
1089.9054271659
 21
967.2292289255
 31
0.0
  0
LINE
  5
9E
330
1F
100
AcDbEntity
  8
1
  6
SLD-Сплошная
100
AcDbLine
 10
493.0054271659
 20
370.2292289255
 30
0.0
 11
492.9054271659
 21
370.2292289255
 31
0.0
  0
LINE
  5
9F
330
1F
100
AcDbEntity
  8
1
  6
SLD-Сплошная
100
AcDbLine
 10
493.8347164879
 20
966.2292289255
 30
0.0
 11
492.9054271659
 21
966.2292289255
 31
0.0
  0
LINE
  5
A0
330
1F
100
AcDbEntity
  8
1
  6
SLD-Сплошная
100
AcDbLine
 10
1089.9054271659
 20
370.1585182475
 30
0.0
 11
1089.9054271659
 21
369.2292289255
 31
0.0
  0
LINE
  5
A1
330
1F
100
AcDbEntity
  8
1
  6
SLD-Сплошная
100
AcDbLine
 10
1090.9054271659
 20
966.2292289255
 30
0.0
 11
1089.976137844
 21
966.2292289255
 31
0.0
  0
LINE
  5
A2
330
1F
100
AcDbEntity
  8
1
  6
SLD-Сплошная
100
AcDbLine
 10
1090.9054271659
 20
370.2292289255
 30
0.0
 11
1089.976137844
 21
370.2292289255
 31
0.0
  0
LINE
  5
A3
330
1F
100
AcDbEntity
  8
1
  6
SLD-Сплошная
100
AcDbLine
 10
494.1054271659
 20
965.446386213
 30
0.0
 11
496.8054271659
 21
964.0292289256
 31
0.0
  0
LINE
  5
A4
330
1F
100
AcDbEntity
  8
1
  6
SLD-Сплошная
100
AcDbLine
 10
494.1054271659
 20
965.446386213
 30
0.0
 11
495.1054271659
 21
965.446386213
 31
0.0
  0
LINE
  5
A5
330
1F
100
AcDbEntity
  8
1
  6
SLD-Сплошная
100
AcDbLine
 10
495.1054271659
 20
965.446386213
 30
0.0
 11
496.8054271659
 21
964.0292289255
 31
0.0
  0
LINE
  5
A6
330
1F
100
AcDbEntity
  8
1
  6
SLD-Сплошная
100
AcDbLine
 10
496.8054271659
 20
964.0292289256
 30
0.0
 11
495.3882698785
 21
966.7292289255
 31
0.0
  0
LINE
  5
A7
330
1F
100
AcDbEntity
  8
1
  6
SLD-Сплошная
100
AcDbLine
 10
495.3882698785
 20
966.7292289255
 30
0.0
 11
1087.8225844533
 21
966.7292289255
 31
0.0
  0
LINE
  5
A8
330
1F
100
AcDbEntity
  8
1
  6
SLD-Сплошная
100
AcDbLine
 10
1086.4054271659
 20
964.0292289256
 30
0.0
 11
1087.8225844533
 21
966.7292289255
 31
0.0
  0
LINE
  5
A9
330
1F
100
AcDbEntity
  8
1
  6
SLD-Сплошная
100
AcDbLine
 10
496.8054271659
 20
964.0292289255
 30
0.0
 11
495.3882698785
 21
965.7292289255
 31
0.0
  0
LINE
  5
AA
330
1F
100
AcDbEntity
  8
1
  6
SLD-Сплошная
100
AcDbLine
 10
495.3882698785
 20
966.7292289255
 30
0.0
 11
495.3882698785
 21
965.7292289255
 31
0.0
  0
LINE
  5
AB
330
1F
100
AcDbEntity
  8
1
  6
SLD-Сплошная
100
AcDbLine
 10
494.1054271659
 20
371.012071638
 30
0.0
 11
496.8054271659
 21
372.4292289254
 31
0.0
  0
LINE
  5
AC
330
1F
100
AcDbEntity
  8
1
  6
SLD-Сплошная
100
AcDbLine
 10
494.1054271659
 20
965.446386213
 30
0.0
 11
494.1054271659
 21
371.012071638
 31
0.0
  0
CIRCLE
  5
AD
330
1F
100
AcDbEntity
  8
1
  6
SLD-Сплошная
100
AcDbCircle
 10
1029.105427166
 20
409.7292289255
 30
0.0
 40
0.5
  0
CIRCLE
  5
AE
330
1F
100
AcDbEntity
  8
1
  6
SLD-Сплошная
100
AcDbCircle
 10
1029.1054271659
 20
926.7292289255
 30
0.0
 40
0.4999999999997726
  0
CIRCLE
  5
AF
330
1F
100
AcDbEntity
  8
1
  6
SLD-Сплошная
100
AcDbCircle
 10
549.1054271659
 20
906.7292289255
 30
0.0
 40
0.5000000000001137
  0
CIRCLE
  5
B0
330
1F
100
AcDbEntity
  8
1
  6
SLD-Сплошная
100
AcDbCircle
 10
549.1054271659
 20
429.7292289255
 30
0.0
 40
0.5
  0
LINE
  5
B1
330
1F
100
AcDbEntity
  8
1
  6
SLD-Сплошная
100
AcDbLine
 10
495.1054271659
 20
371.012071638
 30
0.0
 11
496.805427166
 21
372.4292289255
 31
0.0
  0
LINE
  5
B2
330
1F
100
AcDbEntity
  8
1
  6
SLD-Сплошная
100
AcDbLine
 10
494.1054271659
 20
371.012071638
 30
0.0
 11
495.1054271659
 21
371.012071638
 31
0.0
  0
LINE
  5
B3
330
1F
100
AcDbEntity
  8
1
  6
SLD-Сплошная
100
AcDbLine
 10
496.805427166
 20
372.4292289255
 30
0.0
 11
495.3882698785
 21
370.7292289255
 31
0.0
  0
LINE
  5
B4
330
1F
100
AcDbEntity
  8
1
  6
SLD-Сплошная
100
AcDbLine
 10
496.8054271659
 20
372.4292289254
 30
0.0
 11
495.3882698785
 21
369.7292289255
 31
0.0
  0
LINE
  5
B5
330
1F
100
AcDbEntity
  8
1
  6
SLD-Сплошная
100
AcDbLine
 10
495.3882698785
 20
369.7292289255
 30
0.0
 11
495.3882698785
 21
370.7292289255
 31
0.0
  0
LINE
  5
B6
330
1F
100
AcDbEntity
  8
1
  6
SLD-Сплошная
100
AcDbLine
 10
495.3882698785
 20
369.7292289255
 30
0.0
 11
1087.8225844534
 21
369.7292289255
 31
0.0
  0
LINE
  5
B7
330
1F
100
AcDbEntity
  8
1
  6
SLD-Сплошная
100
AcDbLine
 10
1086.405427166
 20
372.4292289255
 30
0.0
 11
1087.8225844534
 21
369.7292289255
 31
0.0
  0
LINE
  5
B8
330
1F
100
AcDbEntity
  8
1
  6
SLD-Сплошная
100
AcDbLine
 10
1086.4054271659
 20
964.0292289256
 30
0.0
 11
1087.8225844533
 21
965.7292289255
 31
0.0
  0
LINE
  5
B9
330
1F
100
AcDbEntity
  8
1
  6
SLD-Сплошная
100
AcDbLine
 10
1087.8225844533
 20
966.7292289255
 30
0.0
 11
1087.8225844533
 21
965.7292289255
 31
0.0
  0
LINE
  5
BA
330
1F
100
AcDbEntity
  8
1
  6
SLD-Сплошная
100
AcDbLine
 10
1089.1054271659
 20
965.4463862131
 30
0.0
 11
1086.4054271659
 21
964.0292289256
 31
0.0
  0
LINE
  5
BB
330
1F
100
AcDbEntity
  8
1
  6
SLD-Сплошная
100
AcDbLine
 10
1089.1054271659
 20
965.4463862131
 30
0.0
 11
1089.105427166
 21
371.012071638
 31
0.0
  0
LINE
  5
BC
330
1F
100
AcDbEntity
  8
1
  6
SLD-Сплошная
100
AcDbLine
 10
1089.105427166
 20
371.012071638
 30
0.0
 11
1086.405427166
 21
372.4292289255
 31
0.0
  0
LINE
  5
BD
330
1F
100
AcDbEntity
  8
1
  6
SLD-Сплошная
100
AcDbLine
 10
1088.1054271659
 20
965.4463862131
 30
0.0
 11
1086.4054271659
 21
964.0292289256
 31
0.0
  0
LINE
  5
BE
330
1F
100
AcDbEntity
  8
1
  6
SLD-Сплошная
100
AcDbLine
 10
1089.1054271659
 20
965.4463862131
 30
0.0
 11
1088.1054271659
 21
965.4463862131
 31
0.0
  0
LINE
  5
BF
330
1F
100
AcDbEntity
  8
1
  6
SLD-Сплошная
100
AcDbLine
 10
1089.105427166
 20
371.012071638
 30
0.0
 11
1088.105427166
 21
371.012071638
 31
0.0
  0
LINE
  5
C0
330
1F
100
AcDbEntity
  8
1
  6
SLD-Сплошная
100
AcDbLine
 10
1088.105427166
 20
371.012071638
 30
0.0
 11
1086.4054271659
 21
372.4292289255
 31
0.0
  0
LINE
  5
C1
330
1F
100
AcDbEntity
  8
1
  6
SLD-Сплошная
100
AcDbLine
 10
1086.4054271659
 20
372.4292289255
 30
0.0
 11
1087.8225844534
 21
370.7292289255
 31
0.0
  0
LINE
  5
C2
330
1F
100
AcDbEntity
  8
1
  6
SLD-Сплошная
100
AcDbLine
 10
1087.8225844534
 20
369.7292289255
 30
0.0
 11
1087.8225844534
 21
370.7292289255
 31
0.0
  0
LINE
  5
C3
330
1F
100
AcDbEntity
  8
1
  6
SLD-Сплошная
100
AcDbLine
 10
988.9054271659
 20
367.7292289255
 30
0.0
 11
594.9054271659
 21
367.7292289255
 31
0.0
  0
LINE
  5
C4
330
1F
100
AcDbEntity
  8
1
  6
SLD-Сплошная
100
AcDbLine
 10
999.3971010539
 20
367.7292289255
 30
0.0
 11
988.9054271659
 21
367.7292289255
 31
0.0
  0
ARC
  5
C5
330
1F
100
AcDbEntity
  8
1
  6
SLD-Сплошная
100
AcDbCircle
 10
999.3971010539
 20
370.1292289255
 30
0.0
 40
2.399999999999977
100
AcDbArc
 50
270.0
 51
307.6584620068
  0
LINE
  5
C6
330
1F
100
AcDbEntity
  8
1
  6
SLD-Сплошная
100
AcDbLine
 10
594.9054271659
 20
367.7292289255
 30
0.0
 11
584.413753278
 21
367.7292289255
 31
0.0
  0
ARC
  5
C7
330
1F
100
AcDbEntity
  8
1
  6
SLD-Сплошная
100
AcDbCircle
 10
584.413753278
 20
370.1292289255
 30
0.0
 40
2.400000000000043
100
AcDbArc
 50
232.3415379932
 51
270.0
  0
CIRCLE
  5
C8
330
1F
100
AcDbEntity
  8
1
  6
SLD-Сплошная
100
AcDbCircle
 10
549.1054271659
 20
668.2292289255
 30
0.0
 40
14.0
  0
CIRCLE
  5
C9
330
1F
100
AcDbEntity
  8
1
  6
SLD-Сплошная
100
AcDbCircle
 10
549.1054271659
 20
668.2292289255
 30
0.0
 40
11.0
  0
CIRCLE
  5
CA
330
1F
100
AcDbEntity
  8
1
  6
SLD-Сплошная
100
AcDbCircle
 10
549.1054271659
 20
668.2292289255
 30
0.0
 40
8.0
  0
ARC
  5
CB
330
1F
100
AcDbEntity
  8
1
  6
SLD-Сплошная
100
AcDbCircle
 10
550.9921785119
 20
664.9612797331
 30
0.0
 40
1.0
100
AcDbArc
 50
240.0
 51
0.0
  0
LINE
  5
CC
330
1F
100
AcDbEntity
  8
1
  6
SLD-Сплошная
100
AcDbLine
 10
544.831924474
 20
667.3632035217
 30
0.0
 11
550.4921785119
 21
664.0952543293
 31
0.0
  0
ARC
  5
CD
330
1F
100
AcDbEntity
  8
1
  6
SLD-Сплошная
100
AcDbCircle
 10
545.331924474
 20
668.2292289255
 30
0.0
 40
1.000000000000082
100
AcDbArc
 50
120.0
 51
240.0
  0
ARC
  5
CE
330
1F
100
AcDbEntity
  8
1
  6
SLD-Сплошная
100
AcDbCircle
 10
550.9921785119
 20
671.4971781179
 30
0.0
 40
1.0
100
AcDbArc
 50
0.0
 51
120.0
  0
LINE
  5
CF
330
1F
100
AcDbEntity
  8
1
  6
SLD-Сплошная
100
AcDbLine
 10
551.9921785119
 20
664.9612797331
 30
0.0
 11
551.9921785119
 21
671.4971781179
 31
0.0
  0
LINE
  5
D0
330
1F
100
AcDbEntity
  8
1
  6
SLD-Сплошная
100
AcDbLine
 10
550.4921785119
 20
672.3632035217
 30
0.0
 11
544.831924474
 21
669.0952543293
 31
0.0
  0
LINE
  5
D1
330
1F
100
AcDbEntity
  8
1
  6
SLD-Сплошная
100
AcDbLine
 10
1858.8235035746
 20
1132.9144300735
 30
0.0
 11
1858.8235035746
 21
1619.5727539574
 31
0.0
  0
LINE
  5
D2
330
1F
100
AcDbEntity
  8
1
  6
SLD-Сплошная
100
AcDbLine
 10
1857.926955381
 20
1621.1255036795
 30
0.0
 11
1436.4913137938
 21
1864.4151210026
 31
0.0
  0
LINE
  5
D3
330
1F
100
AcDbEntity
  8
1
  6
SLD-Сплошная
100
AcDbLine
 10
1667.1116981681
 20
1020.9672372527
 30
0.0
 11
1857.6769756978
 21
1130.9782303208
 31
0.0
  0
LINE
  5
D4
330
1F
100
AcDbEntity
  8
1
  6
SLD-Сплошная
100
AcDbLine
 10
1658.6764980612
 20
1024.6822930285
 30
0.0
 11
1665.076508237
 21
1020.9876457968
 31
0.0
  0
LINE
  5
D5
330
1F
100
AcDbEntity
  8
1
  6
SLD-Сплошная
100
AcDbLine
 10
1242.6761378483
 20
1752.6064491439
 30
0.0
 11
1242.6761378483
 21
1746.2786145513
 31
0.0
  0
LINE
  5
D6
330
1F
100
AcDbEntity
  8
1
  6
SLD-Сплошная
100
AcDbLine
 10
1434.2414966454
 20
1864.3903669774
 30
0.0
 11
1243.6762191156
 21
1754.3793739093
 31
0.0
  0
LINE
  5
D7
330
1F
100
AcDbEntity
  8
1
  6
SLD-Сплошная
100
AcDbLine
 10
1658.6764980612
 20
1019.9484025719
 30
0.0
 11
1658.6764980612
 21
1505.3324039388
 31
0.0
  0
LINE
  5
D8
330
1F
100
AcDbEntity
  8
1
  6
SLD-Сплошная
100
AcDbLine
 10
1657.9885961794
 20
1506.5238356807
 30
0.0
 11
1239.0707040467
 21
1748.3599871817
 31
0.0
  0
LINE
  5
D9
330
1F
100
AcDbEntity
  8
1
  6
SLD-Сплошная
100
AcDbLine
 10
1226.0662352715
 20
1740.1169520805
 30
0.0
 11
1226.0662352715
 21
1255.41492684
 31
0.0
  0
LINE
  5
DA
330
1F
100
AcDbEntity
  8
1
  6
SLD-Сплошная
100
AcDbLine
 10
1226.7077087592
 20
1254.3039223601
 30
0.0
 11
1645.0351393934
 21
1012.8086370266
 31
0.0
  0
LINE
  5
DB
330
1F
100
AcDbEntity
  8
1
  6
SLD-Сплошная
100
AcDbLine
 10
1253.2321299006
 20
1480.621369112
 30
0.0
 11
1253.2321299006
 21
1478.1721447765
 31
0.0
  0
LINE
  5
DC
330
1F
100
AcDbEntity
  8
1
  6
SLD-Сплошная
100
AcDbLine
 10
1261.0090403215
 20
1464.7006811404
 30
0.0
 11
1263.1300158909
 21
1463.4758699388
 31
0.0
  0
LINE
  5
DD
330
1F
100
AcDbEntity
  8
1
  6
SLD-Сплошная
100
AcDbLine
 10
1256.8393004899
 20
1487.4394004585
 30
0.0
 11
1256.1321937087
 21
1487.0311964026
 31
0.0
  0
LINE
  5
DE
330
1F
100
AcDbEntity
  8
1
  6
SLD-Сплошная
100
AcDbLine
 10
1270.1310559657
 20
1462.7818282559
 30
0.0
 11
1270.8381627468
 21
1463.1900323118
 31
0.0
  0
LINE
  5
DF
330
1F
100
AcDbEntity
  8
1
  6
SLD-Сплошная
100
AcDbLine
 10
1264.9657188746
 20
1470.6018700281
 30
0.0
 11
1266.5895653016
 21
1471.5392966167
 31
0.0
  0
LINE
  5
E0
330
1F
100
AcDbEntity
  8
1
  6
SLD-Сплошная
100
AcDbLine
 10
1261.6604524035
 20
1478.2926100296
 30
0.0
 11
1259.9633961286
 21
1477.3129202954
 31
0.0
  0
LINE
  5
E1
330
1F
100
AcDbEntity
  8
1
  6
SLD-Сплошная
100
AcDbLine
 10
1661.4548439186
 20
1069.9596859658
 30
0.0
 11
1662.8690574809
 21
1070.7760940776
 31
0.0
  0
LINE
  5
E2
330
1F
100
AcDbEntity
  8
1
  6
SLD-Сплошная
100
AcDbLine
 10
1658.8656509745
 20
1092.408019908
 30
0.0
 11
1659.1484936869
 21
1092.5713015304
 31
0.0
  0
LINE
  5
E3
330
1F
100
AcDbEntity
  8
1
  6
SLD-Сплошная
100
AcDbLine
 10
1660.1013717953
 20
1094.6773876401
 30
0.0
 11
1660.1013717953
 21
1096.0007344151
 31
0.0
  0
LINE
  5
E4
330
1F
100
AcDbEntity
  8
1
  6
SLD-Сплошная
100
AcDbLine
 10
1660.1013717953
 20
1095.5461918018
 30
0.0
 11
1660.156371768
 21
1095.5779426101
 31
0.0
  0
LINE
  5
E5
330
1F
100
AcDbEntity
  8
1
  6
SLD-Сплошная
100
AcDbLine
 10
1659.2192043651
 20
1435.559262928
 30
0.0
 11
1659.5020470775
 21
1435.7225445504
 31
0.0
  0
LINE
  5
E6
330
1F
100
AcDbEntity
  8
1
  6
SLD-Сплошная
100
AcDbLine
 10
1660.4549251859
 20
1437.8286306601
 30
0.0
 11
1660.4549251859
 21
1437.9102714713
 31
0.0
  0
LINE
  5
E7
330
1F
100
AcDbEntity
  8
1
  6
SLD-Сплошная
100
AcDbLine
 10
1661.8083973092
 20
1413.1109289858
 30
0.0
 11
1662.8690574809
 21
1413.7232350697
 31
0.0
  0
ELLIPSE
  5
E8
330
1F
100
AcDbEntity
  8
1
  6
SLD-Сплошная
100
AcDbEllipse
 10
1666.1117794354
 20
1022.6993349774
 30
0.0
 11
1.999729017871914
 21
-0.05915489562073617
 31
0.0
210
0.0
220
0.0
230
1.0
 40
0.5565381198
 41
3.94345253765724
 42
5.514248864453112
  0
ELLIPSE
  5
E9
330
1F
100
AcDbEntity
  8
1
  6
SLD-Сплошная
100
AcDbEllipse
 10
1666.1117794354
 20
1509.3576588613
 30
0.0
 11
1.999640479968775
 21
0.06348472508761915
 31
0.0
210
0.0
220
0.0
230
0.9999999999999998
 40
0.5973141192
 41
3.908029519490618
 42
5.478825846284709
  0
ELLIPSE
  5
EA
330
1F
100
AcDbEntity
  8
1
  6
SLD-Сплошная
100
AcDbEllipse
 10
1666.1117794354
 20
1509.3576588613
 30
0.0
 11
0.9991743340483481
 21
0.06590621740519964
 31
0.0
210
0.0
220
0.0
230
1.0
 40
0.616454653
 41
3.88635143713751
 42
5.457147763931713
  0
LINE
  5
EB
330
1F
100
AcDbEntity
  8
1
  6
SLD-Сплошная
100
AcDbLine
 10
1667.5259929978
 20
1508.5412507495
 30
0.0
 11
1666.8188862166
 21
1508.9494548054
 31
0.0
  0
LINE
  5
EC
330
1F
100
AcDbEntity
  8
1
  6
SLD-Сплошная
100
AcDbLine
 10
1665.4046726543
 20
1508.8917166509
 30
0.0
 11
1664.6975658731
 21
1508.483512595
 31
0.0
  0
ELLIPSE
  5
ED
330
1F
100
AcDbEntity
  8
1
  6
SLD-Сплошная
100
AcDbEllipse
 10
1666.1117794354
 20
1509.3576588613
 30
0.0
 11
1.05472045088527
 21
1.700046099215797
 31
0.0
210
0.0
220
0.0
230
1.0
 40
0.5974079498
 41
0.8042814001590153
 42
2.375077726950514
  0
ELLIPSE
  5
EE
330
1F
100
AcDbEntity
  8
1
  6
SLD-Сплошная
100
AcDbEllipse
 10
1244.6761378483
 20
1752.6472761845
 30
0.0
 11
0.9485527510694283
 21
1.761437681458801
 31
0.0
210
0.0
220
0.0
230
0.9999999999999999
 40
0.5566319546
 41
0.7688525864882296
 42
2.339648913277357
  0
ARC
  5
EF
330
1F
100
AcDbEntity
  8
1
  6
SLD-Сплошная
100
AcDbCircle
 10
1855.0208383249
 20
1618.4125221131
 30
0.0
 40
3.073609615125614
100
AcDbArc
 50
2.6054784853
 51
57.3945216602
  0
ARC
  5
F0
330
1F
100
AcDbEntity
  8
1
  6
SLD-Сплошная
100
AcDbCircle
 10
1664.4555607951
 20
1508.401529045
 30
0.0
 40
3.073609615144701
100
AcDbArc
 50
2.6054784857
 51
57.39452166
  0
ELLIPSE
  5
F1
330
1F
100
AcDbEntity
  8
1
  6
SLD-Сплошная
100
AcDbEllipse
 10
1666.1117794354
 20
1509.3576588613
 30
0.0
 11
0.5566258153232867
 21
0.832382309830564
 31
0.0
210
0.0
220
0.0
230
1.0
 40
0.6165484624
 41
0.8259634570342731
 42
2.396759783822672
  0
LINE
  5
F2
330
1F
100
AcDbEntity
  8
1
  6
SLD-Сплошная
100
AcDbLine
 10
1665.3546726543
 20
1508.978319191
 30
0.0
 11
1664.6475658731
 21
1508.5701151351
 31
0.0
  0
LINE
  5
F3
330
1F
100
AcDbEntity
  8
1
  6
SLD-Сплошная
100
AcDbLine
 10
1666.1117794354
 20
1510.1741996732
 30
0.0
 11
1666.1117794354
 21
1510.9907404851
 31
0.0
  0
ARC
  5
F4
330
1F
100
AcDbEntity
  8
1
  6
SLD-Сплошная
100
AcDbCircle
 10
1665.2836701153
 20
1508.8795939532
 30
0.0
 40
1.536804807573197
100
AcDbArc
 50
2.6054784857
 51
57.39452166
  0
LWPOLYLINE
  5
F5
330
1F
100
AcDbEntity
  8
1
  6
SLD-Сплошная
100
AcDbPolyline
 90
       17
 70
   128
 43
0.0
 10
1729.7513897422
 20
1088.4251642315
 10
1729.6160907172
 20
1088.3781355011
 10
1729.5013897422
 20
1088.4004219368
 10
1729.424749001
 20
1088.488630631
 10
1729.3978363516
 20
1088.6293326095
 10
1729.424749001
 20
1088.8011072716
 10
1729.5013897422
 20
1088.977803482
 10
1729.6160907172
 20
1089.1325208446
 10
1729.7513897422
 20
1089.2417050434
 10
1729.8866887673
 20
1089.2887337738
 10
1730.0013897422
 20
1089.2664473381
 10
1730.0780304834
 20
1089.1782386439
 10
1730.1049431328
 20
1089.0375366654
 10
1730.0780304834
 20
1088.8657620033
 10
1730.0013897422
 20
1088.6890657929
 10
1729.8866887673
 20
1088.5343484303
 10
1729.7513897422
 20
1088.4251642315
  0
LWPOLYLINE
  5
F6
330
1F
100
AcDbEntity
  8
1
  6
SLD-Сплошная
100
AcDbPolyline
 90
       17
 70
   128
 43
0.0
 10
1694.3960506829
 20
1076.1803695548
 10
1694.2607516579
 20
1076.1333408244
 10
1694.1460506829
 20
1076.1556272601
 10
1694.0694099417
 20
1076.2438359543
 10
1694.0424972923
 20
1076.3845379328
 10
1694.0694099417
 20
1076.5563125949
 10
1694.1460506829
 20
1076.7330088053
 10
1694.2607516579
 20
1076.8877261679
 10
1694.3960506829
 20
1076.9969103667
 10
1694.5313497079
 20
1077.0439390971
 10
1694.6460506829
 20
1077.0216526614
 10
1694.7226914241
 20
1076.9334439672
 10
1694.7496040735
 20
1076.7927419887
 10
1694.7226914241
 20
1076.6209673266
 10
1694.6460506829
 20
1076.4442711162
 10
1694.5313497079
 20
1076.2895537536
 10
1694.3960506829
 20
1076.1803695548
  0
LWPOLYLINE
  5
F7
330
1F
100
AcDbEntity
  8
1
  6
SLD-Сплошная
100
AcDbPolyline
 90
       17
 70
   128
 43
0.0
 10
1694.3960506829
 20
1485.2673163096
 10
1694.5313497079
 20
1485.31434504
 10
1694.6460506829
 20
1485.2920586042
 10
1694.7226914241
 20
1485.2038499101
 10
1694.7496040735
 20
1485.0631479316
 10
1694.7226914241
 20
1484.8913732695
 10
1694.6460506829
 20
1484.714677059
 10
1694.5313497079
 20
1484.5599596965
 10
1694.3960506829
 20
1484.4507754977
 10
1694.2607516579
 20
1484.4037467672
 10
1694.1460506829
 20
1484.426033203
 10
1694.0694099417
 20
1484.5142418972
 10
1694.0424972923
 20
1484.6549438757
 10
1694.0694099417
 20
1484.8267185377
 10
1694.1460506829
 20
1485.0034147482
 10
1694.2607516579
 20
1485.1581321108
 10
1694.3960506829
 20
1485.2673163096
  0
LINE
  5
F8
330
1F
100
AcDbEntity
  8
1
  6
SLD-Сплошная
100
AcDbLine
 10
1660.1013717953
 20
1095.4563796553
 30
0.0
 11
1660.1802859046
 21
1095.6429069327
 31
0.0
  0
LINE
  5
F9
330
1F
100
AcDbEntity
  8
1
  6
SLD-Сплошная
100
AcDbLine
 10
1664.6975658731
 20
1021.9406650201
 30
0.0
 11
1658.6764980612
 21
1032.3694603554
 31
0.0
  0
LINE
  5
FA
330
1F
100
AcDbEntity
  8
1
  6
SLD-Сплошная
100
AcDbLine
 10
1664.6975658731
 20
1508.483512595
 30
0.0
 11
1658.6764980612
 21
1505.0064941825
 31
0.0
  0
LINE
  5
FB
330
1F
100
AcDbEntity
  8
1
  6
SLD-Сплошная
100
AcDbLine
 10
1658.6764980612
 20
1505.1219704915
 30
0.0
 11
1664.6475658731
 21
1508.5701151351
 31
0.0
  0
LINE
  5
FC
330
1F
100
AcDbEntity
  8
1
  6
SLD-Сплошная
100
AcDbLine
 10
1243.3119242858
 20
1751.8020036871
 30
0.0
 11
1248.4129020385
 21
1742.9668510771
 31
0.0
  0
LINE
  5
FD
330
1F
100
AcDbEntity
  8
1
  6
SLD-Сплошная
100
AcDbLine
 10
1658.6764980612
 20
1505.1218377914
 30
0.0
 11
1665.3546726543
 21
1508.978319191
 31
0.0
  0
LINE
  5
FE
330
1F
100
AcDbEntity
  8
1
  6
SLD-Сплошная
100
AcDbLine
 10
1659.0001850581
 20
1505.3086130924
 30
0.0
 11
1659.0000586512
 21
1505.3086860655
 31
0.0
  0
LINE
  5
FF
330
1F
100
AcDbEntity
  8
1
  6
SLD-Сплошная
100
AcDbLine
 10
1658.293078277
 20
1504.9004090365
 30
0.0
 11
1659.0001850581
 21
1505.3086130924
 31
0.0
  0
LINE
  5
100
330
1F
100
AcDbEntity
  8
1
  6
SLD-Сплошная
100
AcDbLine
 10
1658.6764980612
 20
1505.1216918213
 30
0.0
 11
1659.0001850581
 21
1505.3086130924
 31
0.0
  0
LINE
  5
101
330
1F
100
AcDbEntity
  8
1
  6
SLD-Сплошная
100
AcDbLine
 10
1650.5054302494
 20
1501.2200535275
 30
0.0
 11
1645.9752666276
 21
1498.6048457349
 31
0.0
  0
ELLIPSE
  5
102
330
1F
100
AcDbEntity
  8
1
  6
SLD-Сплошная
100
AcDbEllipse
 10
1651.9196438117
 20
1501.2201862276
 30
0.0
 11
1.580529840018926
 21
0.1927335649925226
 31
0.0
210
0.0
220
0.0
230
0.9999999999999999
 40
0.2276700627
 41
2.329626122948627
 42
2.650189545573029
  0
LWPOLYLINE
  5
103
330
1F
100
AcDbEntity
  8
1
  6
SLD-Сплошная
100
AcDbPolyline
 90
        3
 70
   128
 43
0.0
 10
1857.8083448171
 20
1619.6955501027
 10
1857.7777849065
 20
1619.7849146983
 10
1857.7079466944
 20
1619.9060431315
  0
LINE
  5
104
330
1F
100
AcDbEntity
  8
1
  6
SLD-Сплошная
100
AcDbLine
 10
1858.6309087743
 20
1620.1282359142
 30
0.0
 11
1857.7079466944
 21
1619.9060431315
 31
0.0
  0
LWPOLYLINE
  5
105
330
1F
100
AcDbEntity
  8
1
  6
SLD-Сплошная
100
AcDbPolyline
 90
        9
 70
   128
 43
0.0
 10
1858.0912705276
 20
1618.5522438176
 10
1858.331967324
 20
1618.7133756625
 10
1858.5290106448
 20
1618.8931858876
 10
1858.6781178008
 20
1619.087766361
 10
1858.776047984
 20
1619.2928879229
 10
1858.8206727053
 20
1619.5040923056
 10
1858.8110220573
 20
1619.7167890328
 10
1858.7473057944
 20
1619.9263551923
 10
1858.6309087743
 20
1620.1282359142
  0
ELLIPSE
  5
106
330
1F
100
AcDbEntity
  8
1
  6
SLD-Сплошная
100
AcDbEllipse
 10
1856.3235035746
 20
1619.106745397
 30
0.0
 11
2.493080340725328
 21
0.9065865826364644
 31
0.0
210
0.0
220
0.0
230
0.9999999999999999
 40
0.2050299685
 41
0.3206699639108982
 42
0.7109785221997432
  0
ARC
  5
107
330
1F
100
AcDbEntity
  8
1
  6
SLD-Сплошная
100
AcDbCircle
 10
1857.5894012396
 20
1133.026969301
 30
0.0
 40
1.239223002912665
100
AcDbArc
 50
293.8903166264
 51
354.7895424156
  0
LINE
  5
108
330
1F
100
AcDbEntity
  8
1
  6
SLD-Сплошная
100
AcDbLine
 10
1858.3118731807
 20
1620.6808217702
 30
0.0
 11
1857.6579466945
 21
1619.9926456715
 31
0.0
  0
LWPOLYLINE
  5
109
330
1F
100
AcDbEntity
  8
1
  6
SLD-Сплошная
100
AcDbPolyline
 90
        3
 70
   128
 43
0.0
 10
1857.6579466945
 20
1619.9926456715
 10
1857.5879541329
 20
1620.1137112421
 10
1857.5259165822
 20
1620.1847938295
  0
LWPOLYLINE
  5
10A
330
1F
100
AcDbEntity
  8
1
  6
SLD-Сплошная
100
AcDbPolyline
 90
        9
 70
   128
 43
0.0
 10
1858.3118731807
 20
1620.6808217702
 10
1858.1952189114
 20
1620.8825977212
 10
1858.045567758
 20
1621.0425947662
 10
1857.8661723522
 20
1621.1573354081
 10
1857.6609318101
 20
1621.2243257867
 10
1857.4343069852
 20
1621.2421098823
 10
1857.1912235137
 20
1621.2103011617
 10
1856.936964756
 20
1621.1295909799
 10
1856.6770569652
 20
1621.0017335532
  0
ELLIPSE
  5
10B
330
1F
100
AcDbEntity
  8
1
  6
SLD-Сплошная
100
AcDbEllipse
 10
1856.2735035747
 20
1619.193347937
 30
0.0
 11
2.031629674499754
 21
1.705837126210554
 31
0.0
210
0.0
220
0.0
230
0.9999999999999999
 40
0.2051618287
 41
5.572177975265237
 42
5.962486533548674
  0
ARC
  5
10C
330
1F
100
AcDbEntity
  8
1
  6
SLD-Сплошная
100
AcDbCircle
 10
1435.9716498187
 20
1863.2900080857
 30
0.0
 40
1.239326318116759
100
AcDbArc
 50
65.2088626953
 51
126.1015957338
  0
LINE
  5
10D
330
1F
100
AcDbEntity
  8
1
  6
SLD-Сплошная
100
AcDbLine
 10
1858.0912705276
 20
1620.1272555368
 30
0.0
 11
1857.7081717237
 21
1619.9060973047
 31
0.0
  0
LINE
  5
10E
330
1F
100
AcDbEntity
  8
1
  6
SLD-Сплошная
100
AcDbLine
 10
1858.0412705276
 20
1620.2138580768
 30
0.0
 11
1857.6518592127
 21
1619.9890557098
 31
0.0
  0
LINE
  5
10F
330
1F
100
AcDbEntity
  8
1
  6
SLD-Сплошная
100
AcDbLine
 10
1857.6518916425
 20
1619.9890013578
 30
0.0
 11
1858.0412705276
 21
1620.2138580768
 31
0.0
  0
LINE
  5
110
330
1F
100
AcDbEntity
  8
1
  6
SLD-Сплошная
100
AcDbLine
 10
1658.6764980612
 20
1032.2539840464
 30
0.0
 11
1664.6475658731
 21
1021.9117912512
 31
0.0
  0
LINE
  5
111
330
1F
100
AcDbEntity
  8
1
  6
SLD-Сплошная
100
AcDbLine
 10
1664.6975740002
 20
1021.9406603285
 30
0.0
 11
1664.6475658731
 21
1021.9117912512
 31
0.0
  0
LINE
  5
112
330
1F
100
AcDbEntity
  8
1
  6
SLD-Сплошная
100
AcDbLine
 10
1248.3129020386
 20
1743.0245798483
 30
0.0
 11
1243.2619242859
 21
1751.7731299182
 31
0.0
  0
LINE
  5
113
330
1F
100
AcDbEntity
  8
1
  6
SLD-Сплошная
100
AcDbLine
 10
1243.3119283491
 20
1751.8019966494
 30
0.0
 11
1243.2619242859
 21
1751.7731299182
 31
0.0
  0
ARC
  5
114
330
1F
100
AcDbEntity
  8
1
  6
SLD-Сплошная
100
AcDbCircle
 10
1666.663844263
 20
1021.7430724718
 30
0.0
 40
0.8734183948568082
100
AcDbArc
 50
230.7967147643
 51
9.2140369905
  0
LINE
  5
115
330
1F
100
AcDbEntity
  8
1
  6
SLD-Сплошная
100
AcDbLine
 10
1666.1117794354
 20
1021.5855865938
 30
0.0
 11
1666.1117794354
 21
1021.0662533537
 31
0.0
  0
ARC
  5
116
330
1F
100
AcDbEntity
  8
1
  6
SLD-Сплошная
100
AcDbCircle
 10
1857.1112667602
 20
1131.7857464421
 30
0.0
 40
0.9859558247623866
100
AcDbArc
 50
305.0133316617
 51
6.2988487317
  0
ELLIPSE
  5
117
330
1F
100
AcDbEntity
  8
1
  6
SLD-Сплошная
100
AcDbEllipse
 10
1666.1117794354
 20
1022.6993349774
 30
0.0
 11
1.054720450885043
 21
1.70004609921557
 31
0.0
210
0.0
220
0.0
230
1.0
 40
0.5974079498
 41
2.375077726950714
 42
3.945874053745574
  0
ELLIPSE
  5
118
330
1F
100
AcDbEntity
  8
1
  6
SLD-Сплошная
100
AcDbEllipse
 10
1244.6761378483
 20
1752.6472761845
 30
0.0
 11
1.999640479969002
 21
0.06348472507011137
 31
0.0
210
0.0
220
0.0
230
0.9999999999999999
 40
0.5973141191
 41
2.337233192698785
 42
3.908029519493641
  0
LINE
  5
119
330
1F
100
AcDbEntity
  8
1
  6
SLD-Сплошная
100
AcDbLine
 10
1243.7114147995
 20
1753.2041989461
 30
0.0
 11
1243.2619242859
 21
1753.4636842963
 31
0.0
  0
ARC
  5
11A
330
1F
100
AcDbEntity
  8
1
  6
SLD-Сплошная
100
AcDbCircle
 10
1434.6555752683
 20
1863.4735882181
 30
0.0
 40
1.005954471802405
100
AcDbArc
 50
54.3824225248
 51
114.3071190461
  0
ARC
  5
11B
330
1F
100
AcDbEntity
  8
1
  6
SLD-Сплошная
100
AcDbCircle
 10
1244.1240730207
 20
1753.6035386901
 30
0.0
 40
0.8734183948616099
100
AcDbArc
 50
50.7967147649
 51
189.2140369902
  0
ELLIPSE
  5
11C
330
1F
100
AcDbEntity
  8
1
  6
SLD-Сплошная
100
AcDbEllipse
 10
1645.6763934591
 20
1498.6216002508
 30
0.0
 11
1.698791117366909
 21
0.8238102184634499
 31
0.0
210
0.0
220
0.0
230
1.0
 40
0.0778085159
 41
3.889276317900338
 42
5.460072644551822
  0
ELLIPSE
  5
11D
330
1F
100
AcDbEntity
  8
1
  6
SLD-Сплошная
100
AcDbEllipse
 10
1645.6763934591
 20
1498.6216002508
 30
0.0
 11
2.691140751008788
 21
0.8754882017281035
 31
0.0
210
0.0
220
0.0
230
1.0
 40
0.2496252376
 41
3.845959967499039
 42
5.416756294294105
  0
LINE
  5
11E
330
1F
100
AcDbEntity
  8
1
  6
SLD-Сплошная
100
AcDbLine
 10
1643.7672051499
 20
1497.5194492999
 30
0.0
 11
1644.4743119311
 21
1497.9276533557
 31
0.0
  0
ELLIPSE
  5
11F
330
1F
100
AcDbEntity
  8
1
  6
SLD-Сплошная
100
AcDbEllipse
 10
1645.6763934592
 20
1015.5560559391
 30
0.0
 11
2.346496907439359
 21
-1.886933551429706
 31
0.0
210
0.0
220
0.0
230
1.0
 40
0.7078398481
 41
4.444461987419946
 42
6.015258314214782
  0
ELLIPSE
  5
120
330
1F
100
AcDbEntity
  8
1
  6
SLD-Сплошная
100
AcDbEllipse
 10
1645.6763934591
 20
1498.6216002508
 30
0.0
 11
1.562801634033804
 21
1.05935063920083
 31
0.0
210
0.0
220
0.0
230
1.0
 40
0.0779476132
 41
0.8230997739050052
 42
2.393896100770252
  0
ELLIPSE
  5
121
330
1F
100
AcDbEntity
  8
1
  6
SLD-Сплошная
100
AcDbEllipse
 10
1645.6763934591
 20
1498.6216002508
 30
0.0
 11
2.103726216600081
 21
1.892910169520746
 31
0.0
210
0.0
220
0.0
230
1.0
 40
0.2497537726
 41
0.8663954412188464
 42
2.437191768013609
  0
ELLIPSE
  5
122
330
1F
100
AcDbEntity
  8
1
  6
SLD-Сплошная
100
AcDbEllipse
 10
1228.7662352715
 20
1739.2987116161
 30
0.0
 11
-0.4612130826678822
 21
2.975579473082689
 31
0.0
210
0.0
220
0.0
230
1.0
 40
0.7078581484
 41
0.2677802285299251
 42
1.838576555294879
  0
LINE
  5
123
330
1F
100
AcDbEntity
  8
1
  6
SLD-Сплошная
100
AcDbLine
 10
1658.3689601815
 20
1019.5218500787
 30
0.0
 11
1647.5855817684
 21
1013.2967382261
 31
0.0
  0
LINE
  5
124
330
1F
100
AcDbEntity
  8
1
  6
SLD-Сплошная
100
AcDbLine
 10
1658.3689601814
 20
1504.9017279145
 30
0.0
 11
1647.5855817683
 21
1498.6766160619
 31
0.0
  0
LINE
  5
125
330
1F
100
AcDbEntity
  8
1
  6
SLD-Сплошная
100
AcDbLine
 10
1657.6618534002
 20
1505.3099319705
 30
0.0
 11
1646.8784749871
 21
1499.0848201178
 31
0.0
  0
LINE
  5
126
330
1F
100
AcDbEntity
  8
1
  6
SLD-Сплошная
100
AcDbLine
 10
1658.3689601814
 20
1504.9017279145
 30
0.0
 11
1657.6618534002
 21
1505.3099319705
 31
0.0
  0
LINE
  5
127
330
1F
100
AcDbEntity
  8
1
  6
SLD-Сплошная
100
AcDbLine
 10
1646.6784749871
 20
1499.4312302784
 30
0.0
 11
1657.4618534002
 21
1505.656342131
 31
0.0
  0
LINE
  5
128
330
1F
100
AcDbEntity
  8
1
  6
SLD-Сплошная
100
AcDbLine
 10
1646.6784749871
 20
1500.2477710903
 30
0.0
 11
1657.4618534002
 21
1506.4728829429
 31
0.0
  0
LINE
  5
129
330
1F
100
AcDbEntity
  8
1
  6
SLD-Сплошная
100
AcDbLine
 10
1657.4618534002
 20
1506.4728829429
 30
0.0
 11
1657.4618534002
 21
1505.656342131
 31
0.0
  0
LINE
  5
12A
330
1F
100
AcDbEntity
  8
1
  6
SLD-Сплошная
100
AcDbLine
 10
1227.7641537436
 20
1742.0818611608
 30
0.0
 11
1238.5475321567
 21
1748.3069730134
 31
0.0
  0
LWPOLYLINE
  5
12B
330
1F
100
AcDbEntity
  8
1
  6
SLD-Сплошная
100
AcDbPolyline
 90
       17
 70
   128
 43
0.0
 10
1602.8964331974
 20
1068.5050717032
 10
1602.9233458468
 20
1068.6457736817
 10
1602.999986588
 20
1068.7339823758
 10
1603.1146875629
 20
1068.7562688116
 10
1603.249986588
 20
1068.7092400812
 10
1603.385285613
 20
1068.6000558824
 10
1603.499986588
 20
1068.4453385198
 10
1603.5766273292
 20
1068.2686423093
 10
1603.6035399786
 20
1068.0968676473
 10
1603.5766273292
 20
1067.9561656688
 10
1603.499986588
 20
1067.8679569746
 10
1603.385285613
 20
1067.8456705388
 10
1603.249986588
 20
1067.8926992693
 10
1603.1146875629
 20
1068.0018834681
 10
1602.999986588
 20
1068.1566008306
 10
1602.9233458468
 20
1068.3332970411
 10
1602.8964331974
 20
1068.5050717032
  0
LWPOLYLINE
  5
12C
330
1F
100
AcDbEntity
  8
1
  6
SLD-Сплошная
100
AcDbPolyline
 90
       17
 70
   128
 43
0.0
 10
1603.6035399785
 20
1490.2484673922
 10
1603.5766273292
 20
1490.1077654137
 10
1603.4999865879
 20
1490.0195567196
 10
1603.385285613
 20
1489.9972702838
 10
1603.2499865879
 20
1490.0442990142
 10
1603.1146875629
 20
1490.153483213
 10
1602.9999865879
 20
1490.3082005756
 10
1602.9233458467
 20
1490.4848967861
 10
1602.8964331973
 20
1490.6566714481
 10
1602.9233458467
 20
1490.7973734266
 10
1602.9999865879
 20
1490.8855821208
 10
1603.1146875629
 20
1490.9078685566
 10
1603.2499865879
 20
1490.8608398261
 10
1603.385285613
 20
1490.7516556273
 10
1603.4999865879
 20
1490.5969382648
 10
1603.5766273292
 20
1490.4202420543
 10
1603.6035399785
 20
1490.2484673922
  0
LWPOLYLINE
  5
12D
330
1F
100
AcDbEntity
  8
1
  6
SLD-Сплошная
100
AcDbPolyline
 90
       17
 70
   128
 43
0.0
 10
1263.4851782278
 20
1670.2638020479
 10
1263.5120908772
 20
1670.4045040263
 10
1263.5887316184
 20
1670.4927127205
 10
1263.7034325933
 20
1670.5149991563
 10
1263.8387316184
 20
1670.4679704258
 10
1263.9740306434
 20
1670.3587862271
 10
1264.0887316184
 20
1670.2040688645
 10
1264.1653723596
 20
1670.027372654
 10
1264.192285009
 20
1669.8555979919
 10
1264.1653723596
 20
1669.7148960134
 10
1264.0887316184
 20
1669.6266873193
 10
1263.9740306434
 20
1669.6044008835
 10
1263.8387316184
 20
1669.651429614
 10
1263.7034325933
 20
1669.7606138127
 10
1263.5887316184
 20
1669.9153311753
 10
1263.5120908772
 20
1670.0920273858
 10
1263.4851782278
 20
1670.2638020479
  0
LWPOLYLINE
  5
12E
330
1F
100
AcDbEntity
  8
1
  6
SLD-Сплошная
100
AcDbPolyline
 90
       17
 70
   128
 43
0.0
 10
1264.192285009
 20
1280.3656307224
 10
1264.1653723596
 20
1280.2249287439
 10
1264.0887316184
 20
1280.1367200498
 10
1263.9740306434
 20
1280.114433614
 10
1263.8387316184
 20
1280.1614623444
 10
1263.7034325934
 20
1280.2706465432
 10
1263.5887316184
 20
1280.4253639058
 10
1263.5120908772
 20
1280.6020601163
 10
1263.4851782278
 20
1280.7738347783
 10
1263.5120908772
 20
1280.9145367568
 10
1263.5887316184
 20
1281.002745451
 10
1263.7034325934
 20
1281.0250318868
 10
1263.8387316184
 20
1280.9780031563
 10
1263.9740306434
 20
1280.8688189575
 10
1264.0887316184
 20
1280.714101595
 10
1264.1653723596
 20
1280.5374053845
 10
1264.192285009
 20
1280.3656307224
  0
LINE
  5
12F
330
1F
100
AcDbEntity
  8
1
  6
SLD-Сплошная
100
AcDbLine
 10
1646.6351277732
 20
1499.4060604944
 30
0.0
 11
1646.6785381905
 21
1499.4311207949
 31
0.0
  0
SPLINE
  5
130
330
1F
100
AcDbEntity
  8
1
  6
SLD-Сплошная
100
AcDbSpline
210
0.0
220
0.0
230
1.0
 70
     8
 71
     3
 72
     9
 73
     5
 74
     0
 42
0.00000001
 43
0.00000001
 40
0.0
 40
0.0
 40
0.0
 40
0.0
 40
0.5000000000000067
 40
1.0
 40
1.0
 40
1.0
 40
1.0
 10
1658.368960181471
 20
1019.521850078721
 30
0.0
 10
1658.457137719271
 20
1019.587859423926
 30
0.0
 10
1658.633492794871
 20
1019.719878114335
 30
0.0
 10
1658.662162972441
 20
1019.887211276596
 30
0.0
 10
1658.676498061226
 20
1019.970877857727
 30
0.0
  0
SPLINE
  5
131
330
1F
100
AcDbEntity
  8
1
  6
SLD-Сплошная
100
AcDbSpline
210
0.0
220
0.0
230
1.0
 70
     8
 71
     3
 72
    11
 73
     7
 74
     0
 42
0.00000001
 43
0.00000001
 40
0.0
 40
0.0
 40
0.0
 40
0.0
 40
0.2499999999999949
 40
0.4999999999999918
 40
0.7500000000000036
 40
1.0
 40
1.0
 40
1.0
 40
1.0
 10
1658.368960181431
 20
1505.718129391362
 30
0.0
 10
1658.455089849404
 20
1505.658924552924
 30
0.0
 10
1658.627349185349
 20
1505.540514876046
 30
0.0
 10
1658.701072499103
 20
1505.309928652953
 30
0.0
 10
1658.62734918535
 20
1505.079342429859
 30
0.0
 10
1658.455089849404
 20
1504.960932752981
 30
0.0
 10
1658.368960181431
 20
1504.901727914543
 30
0.0
  0
SPLINE
  5
132
330
1F
100
AcDbEntity
  8
1
  6
SLD-Сплошная
100
AcDbSpline
210
0.0
220
0.0
230
1.0
 70
     8
 71
     3
 72
    12
 73
     8
 74
     0
 42
0.00000001
 43
0.00000001
 40
0.0
 40
0.0
 40
0.0
 40
0.0
 40
0.0768349934724644
 40
0.1653464171666577
 40
0.3824629150556239
 40
0.6595554638269099
 40
1.0
 40
1.0
 40
1.0
 40
1.0
 10
1656.884035940939
 20
1504.860761538882
 30
0.0
 10
1656.921090946736
 20
1504.88595878604
 30
0.0
 10
1657.00083211895
 20
1504.940182445752
 30
0.0
 10
1657.204902218122
 20
1505.082609224747
 30
0.0
 10
1657.53260043321
 20
1505.292642131916
 30
0.0
 10
1657.99140685369
 20
1505.537424865431
 30
0.0
 10
1658.234786451257
 20
1505.653911177611
 30
0.0
 10
1658.368960181431
 20
1505.718129391362
 30
0.0
  0
SPLINE
  5
133
330
1F
100
AcDbEntity
  8
1
  6
SLD-Сплошная
100
AcDbSpline
210
0.0
220
0.0
230
1.0
 70
     8
 71
     3
 72
    11
 73
     7
 74
     0
 42
0.00000001
 43
0.00000001
 40
0.0
 40
0.0
 40
0.0
 40
0.0
 40
0.2500000000000289
 40
0.5000000000003166
 40
0.7500000000004383
 40
1.0
 40
1.0
 40
1.0
 40
1.0
 10
1657.661853400244
 20
1505.309925335451
 30
0.0
 10
1657.665954813005
 20
1505.310346298747
 30
0.0
 10
1657.674157638526
 20
1505.311188225339
 30
0.0
 10
1657.677668272514
 20
1505.309928652953
 30
0.0
 10
1657.674157638526
 20
1505.308669080566
 30
0.0
 10
1657.665954813005
 20
1505.309511007158
 30
0.0
 10
1657.661853400244
 20
1505.309931970454
 30
0.0
  0
LINE
  5
134
330
1F
100
AcDbEntity
  8
1
  6
SLD-Сплошная
100
AcDbLine
 10
1657.6618534002
 20
1505.3099253355
 30
0.0
 11
1658.3689601814
 21
1505.7181293914
 31
0.0
  0
SPLINE
  5
135
330
1F
100
AcDbEntity
  8
1
  6
SLD-Сплошная
100
AcDbSpline
210
0.0
220
0.0
230
1.0
 70
     8
 71
     3
 72
    11
 73
     7
 74
     0
 42
0.00000001
 43
0.00000001
 40
0.0
 40
0.0
 40
0.0
 40
0.0
 40
0.2499999999999985
 40
0.4999999999999988
 40
0.7499999999999881
 40
1.0
 40
1.0
 40
1.0
 40
1.0
 10
1657.461853400193
 20
1506.472882942898
 30
0.0
 10
1657.556197163314
 20
1506.517860551245
 30
0.0
 10
1657.744884689554
 20
1506.607815767939
 30
0.0
 10
1657.981462949623
 20
1506.556328950579
 30
0.0
 10
1658.144317895938
 20
1506.37714960847
 30
0.0
 10
1658.160746086233
 20
1506.168742904103
 30
0.0
 10
1658.16896018138
 20
1506.06453955192
 30
0.0
  0
LINE
  5
136
330
1F
100
AcDbEntity
  8
1
  6
SLD-Сплошная
100
AcDbLine
 10
1657.4618534002
 20
1505.656335496
 30
0.0
 11
1658.1689601814
 21
1506.0645395519
 31
0.0
  0
SPLINE
  5
137
330
1F
100
AcDbEntity
  8
1
  6
SLD-Сплошная
100
AcDbSpline
210
0.0
220
0.0
230
1.0
 70
     8
 71
     3
 72
    11
 73
     7
 74
     0
 42
0.00000001
 43
0.00000001
 40
0.0
 40
0.0
 40
0.0
 40
0.0
 40
0.2499999999999706
 40
0.5000000000001519
 40
0.7500000000002023
 40
1.0
 40
1.0
 40
1.0
 40
1.0
 10
1657.461853400193
 20
1505.656342131012
 30
0.0
 10
1657.463539981052
 20
1505.66010377925
 30
0.0
 10
1657.466913142768
 20
1505.667627075727
 30
0.0
 10
1657.469760836329
 20
1505.670034894614
 30
0.0
 10
1657.469097895901
 20
1505.666362117084
 30
0.0
 10
1657.464268232096
 20
1505.659677703034
 30
0.0
 10
1657.461853400193
 20
1505.656335496009
 30
0.0
  0
SPLINE
  5
138
330
1F
100
AcDbEntity
  8
1
  6
SLD-Сплошная
100
AcDbSpline
210
0.0
220
0.0
230
1.0
 70
     8
 71
     3
 72
    13
 73
     9
 74
     0
 42
0.00000001
 43
0.00000001
 40
0.0
 40
0.0
 40
0.0
 40
0.0
 40
0.3220863390587878
 40
0.4996033953875348
 40
0.6100900277204965
 40
0.7293891021163955
 40
0.8589773925863613
 40
1.0
 40
1.0
 40
1.0
 40
1.0
 10
1658.16896018138
 20
1506.06453955192
 30
0.0
 10
1658.050352913129
 20
1505.991168287003
 30
0.0
 10
1657.866375554422
 20
1505.877358638373
 30
0.0
 10
1657.554801722274
 20
1505.714302610401
 30
0.0
 10
1657.338962149262
 20
1505.573118919546
 30
0.0
 10
1657.140124239909
 20
1505.441728084394
 30
0.0
 10
1656.917263403323
 20
1505.306303242573
 30
0.0
 10
1656.76393795188
 20
1505.241133436049
 30
0.0
 10
1656.684035940858
 20
1505.207171699428
 30
0.0
  0
SPLINE
  5
139
330
1F
100
AcDbEntity
  8
1
  6
SLD-Сплошная
100
AcDbSpline
210
0.0
220
0.0
230
1.0
 70
     8
 71
     3
 72
     9
 73
     5
 74
     0
 42
0.00000001
 43
0.00000001
 40
0.0
 40
0.0
 40
0.0
 40
0.0
 40
0.4999489266172272
 40
1.0
 40
1.0
 40
1.0
 40
1.0
 10
1239.090158817065
 20
1748.348737333425
 30
0.0
 10
1239.010542413673
 20
1748.378161591929
 30
0.0
 10
1238.851293340109
 20
1748.437016120738
 30
0.0
 10
1238.648792779391
 20
1748.350323667641
 30
0.0
 10
1238.547532156643
 20
1748.306973013415
 30
0.0
  0
ELLIPSE
  5
13A
330
1F
100
AcDbEntity
  8
1
  6
SLD-Сплошная
100
AcDbEllipse
 10
1228.7662352715
 20
1739.2987116161
 30
0.0
 11
2.346496907439132
 21
-1.88693355142982
 31
0.0
210
0.0
220
0.0
230
1.0
 40
0.7078398481
 41
2.873665660625198
 42
4.444461987419996
  0
ELLIPSE
  5
13B
330
1F
100
AcDbEntity
  8
1
  6
SLD-Сплошная
100
AcDbEllipse
 10
1228.7662352715
 20
1256.2331673044
 30
0.0
 11
2.691140751008788
 21
0.8754882017281035
 31
0.0
210
0.0
220
0.0
230
1.0
 40
0.2496252376
 41
3.060561804099813
 42
3.845959967499164
  0
ELLIPSE
  5
13C
330
1F
100
AcDbEntity
  8
1
  6
SLD-Сплошная
100
AcDbEllipse
 10
1645.6763934591
 20
1015.5560559391
 30
0.0
 11
-0.4612130826681096
 21
2.975579473082803
 31
0.0
210
0.0
220
0.0
230
0.9999999999999998
 40
0.7078581484
 41
1.838576555344783
 42
3.409372882119542
  0
ELLIPSE
  5
13D
330
1F
100
AcDbEntity
  8
1
  6
SLD-Сплошная
100
AcDbEllipse
 10
1228.7662352716
 20
1256.2331673044
 30
0.0
 11
2.103726216600307
 21
1.892910169520747
 31
0.0
210
0.0
220
0.0
230
1.0
 40
0.2497537726
 41
2.437191768053843
 42
3.222671195489736
  0
LINE
  5
13E
330
1F
100
AcDbEntity
  8
1
  6
SLD-Сплошная
100
AcDbLine
 10
1227.7449910583
 20
1742.0706285448
 30
0.0
 11
1226.8570469623
 21
1741.5580293291
 31
0.0
  0
LINE
  5
13F
330
1F
100
AcDbEntity
  8
1
  6
SLD-Сплошная
100
AcDbLine
 10
1646.6784749871
 20
1012.7729063944
 30
0.0
 11
1647.5856554775
 21
1013.2966105442
 31
0.0
  0
LWPOLYLINE
  5
140
330
1F
100
AcDbEntity
  8
1
  6
SLD-Сплошная
100
AcDbPolyline
 90
       21
 70
   128
 43
0.0
 10
1263.1316248372
 20
1486.3380836956
 10
1264.7196154998
 20
1485.2733203524
 10
1266.2664780384
 20
1483.9400621267
 10
1267.7321495258
 20
1482.3728397064
 10
1269.0786698402
 20
1480.612243329
 10
1270.2711648129
 20
1478.7038715157
 10
1271.2787494505
 20
1476.6971500941
 10
1272.0753278401
 20
1474.644052095
 10
1272.6402690198
 20
1472.5977516781
 10
1272.9589413099
 20
1470.6112469494
 10
1273.0230912653
 20
1468.7359873378
 10
1272.831057436
 20
1467.0205410822
 10
1272.3878133973
 20
1465.5093373396
 10
1271.7048389369
 20
1464.2415154932
 10
1270.7998227347
 20
1463.2499114627
 10
1269.6962042348
 20
1462.5602072717
 10
1268.4225665767
 20
1462.1902658966
 10
1267.0118963068
 20
1462.1496686244
 10
1265.5007290441
 20
1462.4394669034
 10
1263.9282032268
 20
1463.0521551103
 10
1263.1300158909
 20
1463.4758699388
  0
LWPOLYLINE
  5
141
330
1F
100
AcDbEntity
  8
1
  6
SLD-Сплошная
100
AcDbPolyline
 90
       11
 70
   128
 43
0.0
 10
1253.2321299006
 20
1480.621369112
 10
1253.3043083645
 20
1481.9576250343
 10
1253.6229806546
 20
1483.5761985686
 10
1254.1879218343
 20
1484.9702317833
 10
1254.9845002239
 20
1486.1036199503
 10
1255.9920848614
 20
1486.9470089116
 10
1257.1845798342
 20
1487.4785553359
 10
1258.5311001486
 20
1487.6844924501
 10
1259.996771636
 20
1487.5594865912
 10
1261.5436341746
 20
1487.1067753452
 10
1263.1316248372
 20
1486.3380836956
  0
LWPOLYLINE
  5
142
330
1F
100
AcDbEntity
  8
1
  6
SLD-Сплошная
100
AcDbPolyline
 90
       36
 70
   128
 43
0.0
 10
1261.0103044936
 20
1482.6638490922
 10
1262.3991511962
 20
1481.7177413424
 10
1263.7433592229
 20
1480.5133550451
 10
1264.999724622
 20
1479.0894001669
 10
1266.1278667755
 20
1477.4916437892
 10
1267.0915262666
 20
1475.7714391166
 10
1267.8597302863
 20
1473.9840749428
 10
1268.4077881252
 20
1472.1869986228
 10
1268.7180847536
 20
1470.4379696683
 10
1268.7806469824
 20
1468.793203309
 10
1268.5934640102
 20
1467.305563689
 10
1268.1625520517
 20
1466.0228647696
 10
1267.5017609718
 20
1464.9863335496
 10
1266.6323291394
 20
1464.2292849953
 10
1265.5822008092
 20
1463.77605127
 10
1264.3851279696
 20
1463.6411996787
 10
1263.0795855266
 20
1463.8290644624
 10
1261.7075346887
 20
1464.3336074924
 10
1260.3130742986
 20
1465.1386123406
 10
1258.9410234606
 20
1466.2182054888
 10
1257.6354810177
 20
1467.5376879249
 10
1256.4384081781
 20
1469.0546503978
 10
1255.3882798478
 20
1470.7203364854
 10
1254.5188480155
 20
1472.4812096664
 10
1253.8580569356
 20
1474.2806740277
 10
1253.427144977
 20
1476.0608933044
 10
1253.2399620048
 20
1477.764649784
 10
1253.3025242337
 20
1479.3371833314
 10
1253.612820862
 20
1480.7279514246
 10
1254.160878701
 20
1481.8922536326
 10
1254.9290827207
 20
1482.7926683246
 10
1255.8927422117
 20
1483.4002554315
 10
1257.0208843653
 20
1483.6954866037
 10
1258.2772497643
 20
1483.6688728684
 10
1259.6214577911
 20
1483.3212696131
 10
1261.0103044936
 20
1482.6638490922
  0
LWPOLYLINE
  5
143
330
1F
100
AcDbEntity
  8
1
  6
SLD-Сплошная
100
AcDbPolyline
 90
       16
 70
   128
 43
0.0
 10
1263.8387316184
 20
1486.7462877515
 10
1265.426722281
 20
1485.6815244083
 10
1266.9735848196
 20
1484.3482661826
 10
1268.439256307
 20
1482.7810437623
 10
1269.7857766214
 20
1481.0204473849
 10
1270.9782715941
 20
1479.1120755716
 10
1271.9858562317
 20
1477.10535415
 10
1272.7824346213
 20
1475.0522561509
 10
1273.347375801
 20
1473.0059557341
 10
1273.666048091
 20
1471.0194510053
 10
1273.7301980465
 20
1469.1441913937
 10
1273.5381642172
 20
1467.4287451381
 10
1273.0949201785
 20
1465.9175413955
 10
1272.4119457181
 20
1464.6497195491
 10
1271.5069295159
 20
1463.6581155186
 10
1270.8381627468
 20
1463.1900323118
  0
ARC
  5
144
330
1F
100
AcDbEntity
  8
1
  6
SLD-Сплошная
100
AcDbCircle
 10
1259.7288377032
 20
1480.9309294542
 30
0.0
 40
7.121068748506804
100
AcDbArc
 50
54.7499671021
 51
113.9395744688
  0
LWPOLYLINE
  5
145
330
1F
100
AcDbEntity
  8
1
  6
SLD-Сплошная
100
AcDbPolyline
 90
       30
 70
   128
 43
0.0
 10
1261.0103044936
 20
1480.2142266566
 10
1262.2263609419
 20
1479.3594900484
 10
1263.3855559421
 20
1478.2392756474
 10
1264.4336868245
 20
1476.9059634338
 10
1265.321744154
 20
1475.4218976048
 10
1266.0082033567
 20
1473.8564714293
 10
1266.4609663634
 20
1472.2828824953
 10
1266.658862479
 20
1470.7747100725
 10
1266.5926383012
 20
1469.4024746271
 10
1266.2653903988
 20
1468.2303403635
 10
1265.6924205201
 20
1467.3131149771
 10
1264.9005200998
 20
1466.6936869075
 10
1263.9267175215
 20
1466.4010199228
 10
1262.8165467113
 20
1466.4487988059
 10
1261.6219180225
 20
1466.8347894695
 10
1260.3986909648
 20
1467.5409434189
 10
1259.204062276
 20
1468.5342416805
 10
1258.0938914658
 20
1469.7682387314
 10
1257.1200888875
 20
1471.1852342411
 10
1256.3281884672
 20
1472.7189710744
 10
1255.7552185885
 20
1474.2977334015
 10
1255.4279706861
 20
1475.8477000508
 10
1255.3617465082
 20
1477.2963963044
 10
1255.5596426239
 20
1478.5760827356
 10
1256.0124056305
 20
1479.6269226291
 10
1256.6988648333
 20
1480.3997798794
 10
1257.5869221627
 20
1480.8585165406
 10
1258.6350530452
 20
1480.981682596
 10
1259.7942480454
 20
1480.763518938
 10
1261.0103044936
 20
1480.2142266566
  0
LWPOLYLINE
  5
146
330
1F
100
AcDbEntity
  8
1
  6
SLD-Сплошная
100
AcDbPolyline
 90
       12
 70
   128
 43
0.0
 10
1266.4342593936
 20
1468.6956371082
 10
1265.4402946409
 20
1469.0390913714
 10
1264.2170675832
 20
1469.7452453209
 10
1263.0224388944
 20
1470.7385435824
 10
1261.9122680842
 20
1471.9725406334
 10
1260.9384655059
 20
1473.389536143
 10
1260.1465650856
 20
1474.9232729763
 10
1259.5735952069
 20
1476.5020353035
 10
1259.2463473045
 20
1478.0520019528
 10
1259.1801231266
 20
1479.5006982064
 10
1259.3780192423
 20
1480.7803846375
 10
1259.4047262121
 20
1480.8724651167
  0
LINE
  5
147
330
1F
100
AcDbEntity
  8
1
  6
SLD-Сплошная
100
AcDbLine
 10
1261.8068583792
 20
1478.3378082815
 30
0.0
 11
1263.1813121439
 21
1478.4607051597
 31
0.0
  0
LINE
  5
148
330
1F
100
AcDbEntity
  8
1
  6
SLD-Сплошная
100
AcDbLine
 10
1261.8068583792
 20
1478.3378082815
 30
0.0
 11
1261.6604524035
 21
1478.2926100296
 31
0.0
  0
LWPOLYLINE
  5
149
330
1F
100
AcDbEntity
  8
1
  6
SLD-Сплошная
100
AcDbPolyline
 90
        9
 70
   128
 43
0.0
 10
1264.1122061177
 20
1470.9648758322
 10
1264.2827468064
 20
1470.7848520161
 10
1264.4657595083
 20
1470.6513780786
 10
1264.6487722102
 20
1470.5735500481
 10
1264.8193128989
 20
1470.5566717762
 10
1264.9657595083
 20
1470.6018934893
 10
1265.078131944
 20
1470.7061334022
 10
1265.1487722102
 20
1470.8622877373
 10
1265.1728662895
 20
1471.0597148346
  0
LINE
  5
14A
330
1F
100
AcDbEntity
  8
1
  6
SLD-Сплошная
100
AcDbLine
 10
1260.1098021043
 20
1475.9438283747
 30
0.0
 11
1264.1122061177
 21
1470.9648758322
 31
0.0
  0
LWPOLYLINE
  5
14B
330
1F
100
AcDbEntity
  8
1
  6
SLD-Сплошная
100
AcDbPolyline
 90
        9
 70
   128
 43
0.0
 10
1260.1098021043
 20
1477.3581185473
 10
1259.9633554949
 20
1477.3128968343
 10
1259.8509830592
 20
1477.2086569213
 10
1259.780342793
 20
1477.0525025863
 10
1259.7562487137
 20
1476.855075489
 10
1259.780342793
 20
1476.6298299598
 10
1259.8509830592
 20
1476.3921161095
 10
1259.9633554949
 20
1476.1581337439
 10
1260.1098021043
 20
1475.9438283747
  0
LINE
  5
14C
330
1F
100
AcDbEntity
  8
1
  6
SLD-Сплошная
100
AcDbLine
 10
1263.8497444027
 20
1477.692525746
 30
0.0
 11
1260.1098021043
 21
1477.3581185473
 31
0.0
  0
LINE
  5
14D
330
1F
100
AcDbEntity
  8
1
  6
SLD-Сплошная
100
AcDbLine
 10
1265.1728662895
 20
1471.0597148346
 30
0.0
 11
1265.1728662895
 21
1475.702277016
 31
0.0
  0
ARC
  5
14E
330
1F
100
AcDbEntity
  8
1
  6
SLD-Сплошная
100
AcDbCircle
 10
1659.1099960981
 20
1116.822155284
 30
0.0
 40
2.603316187508966
100
AcDbArc
 50
37.9787348638
 51
58.8941006488
  0
ARC
  5
14F
330
1F
100
AcDbEntity
  8
1
  6
SLD-Сплошная
100
AcDbCircle
 10
1660.2129201079
 20
1117.2783474516
 30
0.0
 40
3.073609615143146
100
AcDbArc
 50
2.6054784856
 51
57.39452166
  0
SPLINE
  5
150
330
1F
100
AcDbEntity
  8
1
  6
SLD-Сплошная
100
AcDbSpline
210
0.0
220
0.0
230
1.0
 70
     8
 71
     3
 72
    12
 73
     8
 74
     0
 42
0.00000001
 43
0.00000001
 40
0.0
 40
0.0
 40
0.0
 40
0.0
 40
0.0038128522418986
 40
0.1589839410707332
 40
0.523432497000078
 40
0.7821768889117862
 40
1.0
 40
1.0
 40
1.0
 40
1.0
 10
1662.576245529494
 20
1117.009865100241
 30
0.0
 10
1662.575026291379
 20
1117.01115138116
 30
0.0
 10
1662.524187898423
 20
1117.064785248083
 30
0.0
 10
1662.338529170353
 20
1117.251784173694
 30
0.0
 10
1661.984805536291
 20
1117.583428074813
 30
0.0
 10
1661.523801696011
 20
1118.013428839387
 30
0.0
 10
1661.275515367164
 20
1118.295314663958
 30
0.0
 10
1661.162031967121
 20
1118.424155272881
 30
0.0
  0
SPLINE
  5
151
330
1F
100
AcDbEntity
  8
1
  6
SLD-Сплошная
100
AcDbSpline
210
0.0
220
0.0
230
1.0
 70
     8
 71
     3
 72
    12
 73
     8
 74
     0
 42
0.00000001
 43
0.00000001
 40
0.0
 40
0.0
 40
0.0
 40
0.0
 40
0.2178231110881947
 40
0.4765675029999277
 40
0.8410160589292637
 40
0.9961871477580916
 40
0.9999999999999999
 40
0.9999999999999999
 40
0.9999999999999999
 40
0.9999999999999999
 10
1661.162031967118
 20
1069.869289462002
 30
0.0
 10
1661.27551536716
 20
1069.898705134365
 30
0.0
 10
1661.523801696007
 20
1069.963062646556
 30
0.0
 10
1661.984805536287
 20
1070.341088932994
 30
0.0
 10
1662.338529170351
 20
1070.809677317401
 30
0.0
 10
1662.524187898418
 20
1071.168761423927
 30
0.0
 10
1662.575026291376
 20
1071.280890485407
 30
0.0
 10
1662.576245529491
 20
1071.283579634641
 30
0.0
  0
LWPOLYLINE
  5
152
330
1F
100
AcDbEntity
  8
1
  6
SLD-Сплошная
100
AcDbPolyline
 90
        9
 70
   128
 43
0.0
 10
1658.6764980612
 20
1098.8870836601
 10
1659.0390624636
 20
1098.3809362287
 10
1659.663394799
 20
1097.2485615269
 10
1660.0842169465
 20
1096.0677853692
 10
1660.2703184523
 20
1094.9261805214
 10
1660.2078970193
 20
1093.9084145926
 10
1659.9015821595
 20
1093.0899706258
 10
1659.3740918448
 20
1092.5315488658
 10
1658.6764980612
 20
1092.2760974384
  0
ARC
  5
153
330
1F
100
AcDbEntity
  8
1
  6
SLD-Сплошная
100
AcDbCircle
 10
1661.1115480862
 20
1071.0954014895
 30
0.0
 40
1.227150897869995
100
AcDbArc
 50
237.6507184098
 51
272.3577620583
  0
LINE
  5
154
330
1F
100
AcDbEntity
  8
1
  6
SLD-Сплошная
100
AcDbLine
 10
1658.6764980612
 20
1071.0853661927
 30
0.0
 11
1660.4549251859
 21
1070.0587020668
 31
0.0
  0
LINE
  5
155
330
1F
100
AcDbEntity
  8
1
  6
SLD-Сплошная
100
AcDbLine
 10
1658.6764980612
 20
1120.0778149059
 30
0.0
 11
1660.4549251859
 21
1119.0511507799
 31
0.0
  0
LINE
  5
156
330
1F
100
AcDbEntity
  8
1
  6
SLD-Сплошная
100
AcDbLine
 10
1658.6764980612
 20
1121.7106311295
 30
0.0
 11
1661.8691387483
 21
1119.8675588917
 31
0.0
  0
LINE
  5
157
330
1F
100
AcDbEntity
  8
1
  6
SLD-Сплошная
100
AcDbLine
 10
1663.2833523107
 20
1071.6917836906
 30
0.0
 11
1663.2833523107
 21
1117.4180691562
 31
0.0
  0
ARC
  5
158
330
1F
100
AcDbEntity
  8
1
  6
SLD-Сплошная
100
AcDbCircle
 10
1662.3319811982
 20
1071.5706556337
 30
0.0
 40
0.9590510934376951
100
AcDbArc
 50
304.0563508539
 51
7.2558295395
  0
LWPOLYLINE
  5
159
330
1F
100
AcDbEntity
  8
1
  6
SLD-Сплошная
100
AcDbPolyline
 90
        8
 70
   128
 43
0.0
 10
1658.6764980612
 20
1092.3154671402
 10
1658.8658378894
 20
1092.4081278292
 10
1659.4206566095
 20
1092.9436916668
 10
1659.7441948951
 20
1093.7586043541
 10
1659.8102415985
 20
1094.7868465117
 10
1659.6134460086
 20
1095.9451160752
 10
1659.1697513338
 20
1097.139576933
 10
1658.7171878518
 20
1097.9670675052
  0
LWPOLYLINE
  5
15A
330
1F
100
AcDbEntity
  8
1
  6
SLD-Сплошная
100
AcDbPolyline
 90
        8
 70
   128
 43
0.0
 10
1659.1486806019
 20
1092.5714094516
 10
1659.7034993219
 20
1093.1069732891
 10
1660.0270376075
 20
1093.9218859764
 10
1660.093084311
 20
1094.950128134
 10
1659.8962887211
 20
1096.1083976975
 10
1659.4525940462
 20
1097.3028585554
 10
1658.7979457902
 20
1098.4367425927
 10
1658.6764980612
 20
1098.6069027283
  0
LWPOLYLINE
  5
15B
330
1F
100
AcDbEntity
  8
1
  6
SLD-Сплошная
100
AcDbPolyline
 90
        9
 70
   128
 43
0.0
 10
1658.6359030452
 20
1435.3616776736
 10
1659.21939128
 20
1435.5593708493
 10
1659.77421
 20
1436.0949346868
 10
1660.0977482857
 20
1436.9098473741
 10
1660.1637949891
 20
1437.9380895317
 10
1659.9669993992
 20
1439.0963590952
 10
1659.5233047244
 20
1440.2908199531
 10
1658.8686564683
 20
1441.4247039903
 10
1658.6764980612
 20
1441.6896148676
  0
LWPOLYLINE
  5
15C
330
1F
100
AcDbEntity
  8
1
  6
SLD-Сплошная
100
AcDbPolyline
 90
        8
 70
   128
 43
0.0
 10
1659.5022339925
 20
1435.7226524716
 10
1660.0570527125
 20
1436.2582163092
 10
1660.3805909981
 20
1437.0731289964
 10
1660.4466377016
 20
1438.1013711541
 10
1660.2498421117
 20
1439.2596407176
 10
1659.8061474368
 20
1440.4541015754
 10
1659.1514991808
 20
1441.5879856127
 10
1658.6764980612
 20
1442.2034198879
  0
ARC
  5
15D
330
1F
100
AcDbEntity
  8
1
  6
SLD-Сплошная
100
AcDbCircle
 10
1659.4635494887
 20
1459.973398304
 30
0.0
 40
2.603316187511022
100
AcDbArc
 50
37.9787348638
 51
58.8941006488
  0
ARC
  5
15E
330
1F
100
AcDbEntity
  8
1
  6
SLD-Сплошная
100
AcDbCircle
 10
1660.2129201079
 20
1460.2254884437
 30
0.0
 40
3.073609615145398
100
AcDbArc
 50
2.6054784857
 51
57.39452166
  0
SPLINE
  5
15F
330
1F
100
AcDbEntity
  8
1
  6
SLD-Сплошная
100
AcDbSpline
210
0.0
220
0.0
230
1.0
 70
     8
 71
     3
 72
    12
 73
     8
 74
     0
 42
0.00000001
 43
0.00000001
 40
0.0
 40
0.0
 40
0.0
 40
0.0
 40
0.0038128522419083
 40
0.1589839410707352
 40
0.5234324970000687
 40
0.7821768889117998
 40
1.0
 40
1.0
 40
1.0
 40
1.0
 10
1662.929798920084
 20
1460.161108120267
 30
0.0
 10
1662.928579681969
 20
1460.162394401185
 30
0.0
 10
1662.877741289012
 20
1460.216028268109
 30
0.0
 10
1662.692082560944
 20
1460.403027193719
 30
0.0
 10
1662.33835892688
 20
1460.734671094839
 30
0.0
 10
1661.877355086601
 20
1461.164671859412
 30
0.0
 10
1661.629068757753
 20
1461.446557683983
 30
0.0
 10
1661.515585357711
 20
1461.575398292906
 30
0.0
  0
SPLINE
  5
160
330
1F
100
AcDbEntity
  8
1
  6
SLD-Сплошная
100
AcDbSpline
210
0.0
220
0.0
230
1.0
 70
     8
 71
     3
 72
    12
 73
     8
 74
     0
 42
0.00000001
 43
0.00000001
 40
0.0
 40
0.0
 40
0.0
 40
0.0
 40
0.217823111088203
 40
0.4765675029999236
 40
0.8410160589292645
 40
0.9961871477581015
 40
1.0
 40
1.0
 40
1.0
 40
1.0
 10
1661.515585357714
 20
1413.020532482023
 30
0.0
 10
1661.629068757757
 20
1413.049948154386
 30
0.0
 10
1661.877355086604
 20
1413.114305666577
 30
0.0
 10
1662.338358926884
 20
1413.492331953015
 30
0.0
 10
1662.692082560947
 20
1413.960920337424
 30
0.0
 10
1662.877741289015
 20
1414.320004443947
 30
0.0
 10
1662.928579681973
 20
1414.432133505428
 30
0.0
 10
1662.929798920087
 20
1414.434822654663
 30
0.0
  0
ARC
  5
161
330
1F
100
AcDbEntity
  8
1
  6
SLD-Сплошная
100
AcDbCircle
 10
1661.4651014768
 20
1414.2466445095
 30
0.0
 40
1.22715089786867
100
AcDbArc
 50
237.6507184098
 51
272.3577620584
  0
LINE
  5
162
330
1F
100
AcDbEntity
  8
1
  6
SLD-Сплошная
100
AcDbLine
 10
1658.6764980612
 20
1414.4407112407
 30
0.0
 11
1660.8084785765
 21
1413.2099450868
 31
0.0
  0
LINE
  5
163
330
1F
100
AcDbEntity
  8
1
  6
SLD-Сплошная
100
AcDbLine
 10
1658.6764980612
 20
1463.4331599539
 30
0.0
 11
1660.8084785765
 21
1462.2023937999
 31
0.0
  0
LINE
  5
164
330
1F
100
AcDbEntity
  8
1
  6
SLD-Сплошная
100
AcDbLine
 10
1658.6764980612
 20
1464.6577721216
 30
0.0
 11
1661.8691387483
 21
1462.8146998838
 31
0.0
  0
LINE
  5
165
330
1F
100
AcDbEntity
  8
1
  6
SLD-Сплошная
100
AcDbLine
 10
1663.2833523107
 20
1414.6389246826
 30
0.0
 11
1663.2833523107
 21
1460.3652101482
 31
0.0
  0
ARC
  5
166
330
1F
100
AcDbEntity
  8
1
  6
SLD-Сплошная
100
AcDbCircle
 10
1662.3319811993
 20
1414.5177966252
 30
0.0
 40
0.9590510924199782
100
AcDbArc
 50
304.0563508165
 51
7.2558295769
  0
ARC
  5
167
330
1F
100
AcDbEntity
  8
1
  6
SLD-Сплошная
100
AcDbCircle
 10
1729.0081954102
 20
1089.2624715932
 30
0.0
 40
0.7434844032504906
100
AcDbArc
 50
301.6059349943
 51
358.399441082
  0
LINE
  5
168
330
1F
100
AcDbEntity
  8
1
  6
SLD-Сплошная
100
AcDbLine
 10
1603.5200971656
 20
1068.156505381
 30
0.0
 11
1603.6035373763
 21
1068.0968027995
 31
0.0
  0
ARC
  5
169
330
1F
100
AcDbEntity
  8
1
  6
SLD-Сплошная
100
AcDbCircle
 10
1604.0204064745
 20
1068.7433630933
 30
0.0
 40
0.7711753231684404
100
AcDbArc
 50
182.5362775196
 51
229.5516668742
  0
LINE
  5
16A
330
1F
100
AcDbEntity
  8
0
  6
SLD-Сплошная
 62
     8
370
    18
100
AcDbLine
 10
1667.5259929978
 20
1508.5412507495
 30
0.0
 11
1667.5259929978
 21
1021.8829268656
 31
0.0
  0
LINE
  5
16B
330
1F
100
AcDbEntity
  8
0
  6
SLD-Сплошная
 62
     8
370
    18
100
AcDbLine
 10
1664.6975658731
 20
1021.9406650201
 30
0.0
 11
1664.6975658731
 21
1508.483512595
 31
0.0
  0
LINE
  5
16C
330
1F
100
AcDbEntity
  8
0
  6
SLD-Сплошная
 62
     8
370
    18
100
AcDbLine
 10
1244.6761378483
 20
1754.2803578083
 30
0.0
 11
1666.1117794354
 21
1510.9907404851
 31
0.0
  0
LINE
  5
16D
330
1F
100
AcDbEntity
  8
0
  6
SLD-Сплошная
 62
     8
370
    18
100
AcDbLine
 10
1664.6475658731
 20
1508.5701151351
 30
0.0
 11
1243.3119242858
 21
1751.8020036871
 31
0.0
  0
LINE
  5
16E
330
1F
100
AcDbEntity
  8
0
  6
SLD-Сплошная
 62
     8
370
    18
100
AcDbLine
 10
1856.6770569652
 20
1621.0017335532
 30
0.0
 11
1666.1117794354
 21
1510.9907404851
 31
0.0
  0
LINE
  5
16F
330
1F
100
AcDbEntity
  8
0
  6
SLD-Сплошная
 62
     8
370
    18
100
AcDbLine
 10
1858.0912705276
 20
1618.5522438176
 30
0.0
 11
1667.5259929978
 21
1508.5412507495
 31
0.0
  0
LINE
  5
170
330
1F
100
AcDbEntity
  8
0
  6
SLD-Сплошная
 62
     8
370
    18
100
AcDbLine
 10
1858.0912705276
 20
1618.5522438176
 30
0.0
 11
1858.0912705276
 21
1131.8939199337
 31
0.0
  0
LINE
  5
171
330
1F
100
AcDbEntity
  8
0
  6
SLD-Сплошная
 62
     8
370
    18
100
AcDbLine
 10
1858.0912705276
 20
1131.8939199337
 30
0.0
 11
1667.5259929978
 21
1021.8829268656
 31
0.0
  0
LINE
  5
172
330
1F
100
AcDbEntity
  8
0
  6
SLD-Сплошная
 62
     8
370
    18
100
AcDbLine
 10
1435.241415378
 20
1864.2913508764
 30
0.0
 11
1244.6761378483
 21
1754.2803578083
 31
0.0
  0
LINE
  5
173
330
1F
100
AcDbEntity
  8
0
  6
SLD-Сплошная
 62
     8
370
    18
100
AcDbLine
 10
1435.241415378
 20
1864.2913508764
 30
0.0
 11
1856.6770569652
 21
1621.0017335532
 31
0.0
  0
LINE
  5
174
330
1F
100
AcDbEntity
  8
0
  6
SLD-Сплошная
 62
     8
370
    18
100
AcDbLine
 10
1651.9556478733
 20
1502.0158096371
 30
0.0
 11
1651.5557417924
 21
1502.2466705036
 31
0.0
  0
LINE
  5
175
330
1F
100
AcDbEntity
  8
0
  6
SLD-Сплошная
 62
     8
370
    18
100
AcDbLine
 10
1650.5054302494
 20
1501.2200535275
 30
0.0
 11
1650.141413296
 21
1501.4301960417
 31
0.0
  0
LINE
  5
176
330
1F
100
AcDbEntity
  8
0
  6
SLD-Сплошная
 62
     8
370
    18
100
AcDbLine
 10
1650.5054302494
 20
1501.178616823
 30
0.0
 11
1650.5054302494
 21
1501.2200535275
 31
0.0
  0
LINE
  5
177
330
1F
100
AcDbEntity
  8
0
  6
SLD-Сплошная
 62
     8
370
    18
100
AcDbLine
 10
1664.6475658731
 20
1021.9117912512
 30
0.0
 11
1658.6764980612
 21
1025.358815327
 31
0.0
  0
LINE
  5
178
330
1F
100
AcDbEntity
  8
0
  6
SLD-Сплошная
 62
     8
370
    18
100
AcDbLine
 10
1243.2619242859
 20
1751.7731299182
 30
0.0
 11
1243.2619242859
 21
1745.9404472389
 31
0.0
  0
LINE
  5
179
330
1F
100
AcDbEntity
  8
0
  6
SLD-Сплошная
 62
     8
370
    18
100
AcDbLine
 10
1647.5855817683
 20
1498.6766160619
 30
0.0
 11
1646.8784749871
 21
1499.0848201178
 31
0.0
  0
LINE
  5
17A
330
1F
100
AcDbEntity
  8
0
  6
SLD-Сплошная
 62
     8
370
    18
100
AcDbLine
 10
1647.5855817683
 20
1498.6766160619
 30
0.0
 11
1647.5855817684
 21
1013.2967382261
 31
0.0
  0
LINE
  5
17B
330
1F
100
AcDbEntity
  8
0
  6
SLD-Сплошная
 62
     8
370
    18
100
AcDbLine
 10
1643.7672051499
 20
1497.5194492999
 30
0.0
 11
1643.76720515
 21
1014.4539049881
 31
0.0
  0
LINE
  5
17C
330
1F
100
AcDbEntity
  8
0
  6
SLD-Сплошная
 62
     8
370
    18
100
AcDbLine
 10
1646.6784749871
 20
1500.2477710903
 30
0.0
 11
1646.6784749871
 21
1499.4312302784
 31
0.0
  0
LINE
  5
17D
330
1F
100
AcDbEntity
  8
0
  6
SLD-Сплошная
 62
     8
370
    18
100
AcDbLine
 10
1226.8570469623
 20
1738.1965606652
 30
0.0
 11
1643.7672051499
 21
1497.5194492999
 31
0.0
  0
LINE
  5
17E
330
1F
100
AcDbEntity
  8
0
  6
SLD-Сплошная
 62
     8
370
    18
100
AcDbLine
 10
1227.7641537436
 20
1742.0818611608
 30
0.0
 11
1646.6784749871
 21
1500.2477710903
 31
0.0
  0
LINE
  5
17F
330
1F
100
AcDbEntity
  8
0
  6
SLD-Сплошная
 62
     8
370
    18
100
AcDbLine
 10
1658.3689601814
 20
1504.9017279145
 30
0.0
 11
1658.3689601815
 21
1019.5218500787
 31
0.0
  0
LINE
  5
180
330
1F
100
AcDbEntity
  8
0
  6
SLD-Сплошная
 62
     8
370
    18
100
AcDbLine
 10
1238.5475321566
 20
1748.3069730134
 30
0.0
 11
1657.4618534002
 21
1506.4728829429
 31
0.0
  0
LINE
  5
181
330
1F
100
AcDbEntity
  8
0
  6
SLD-Сплошная
 62
     8
370
    18
100
AcDbLine
 10
1226.8570469623
 20
1255.1310163534
 30
0.0
 11
1643.76720515
 21
1014.4539049881
 31
0.0
  0
LINE
  5
182
330
1F
100
AcDbEntity
  8
0
  6
SLD-Сплошная
 62
     8
370
    18
100
AcDbLine
 10
1226.8570469623
 20
1738.1965606652
 30
0.0
 11
1226.8570469623
 21
1255.1310163534
 31
0.0
  0
LINE
  5
183
330
1F
100
AcDbEntity
  8
0
  6
SLD-Сплошная
 62
     8
370
    18
100
AcDbLine
 10
1226.8570469623
 20
1741.5580293291
 30
0.0
 11
1227.0926793584
 21
1741.4220016423
 31
0.0
  0
LINE
  5
184
330
1F
100
AcDbEntity
  8
0
  6
SLD-Сплошная
 62
     8
370
    18
100
AcDbLine
 10
1646.6784749871
 20
1012.7729063944
 30
0.0
 11
1646.6784749871
 21
1013.0452238066
 31
0.0
  0
LINE
  5
185
330
1F
100
AcDbEntity
  8
0
  6
SLD-Сплошная
 62
     8
370
    18
100
AcDbLine
 10
1265.1728662895
 20
1471.0597148346
 30
0.0
 11
1266.5427504655
 21
1471.8505321364
 31
0.0
  0
LINE
  5
186
330
1F
100
AcDbEntity
  8
0
  6
SLD-Сплошная
 62
     8
370
    18
100
AcDbLine
 10
1261.8068583792
 20
1478.3378082815
 30
0.0
 11
1260.1098021043
 21
1477.3581185473
 31
0.0
  0
LINE
  5
187
330
1F
100
AcDbEntity
  8
0
  6
SLD-Сплошная
 62
     8
370
    18
100
AcDbLine
 10
1660.4549251859
 20
1119.0511507799
 30
0.0
 11
1661.8691387483
 21
1119.8675588917
 31
0.0
  0
LINE
  5
188
330
1F
100
AcDbEntity
  8
0
  6
SLD-Сплошная
 62
     8
370
    18
100
AcDbLine
 10
1663.2833523107
 20
1117.4180691562
 30
0.0
 11
1662.5762455295
 21
1117.0098651002
 31
0.0
  0
LINE
  5
189
330
1F
100
AcDbEntity
  8
0
  6
SLD-Сплошная
 62
     8
370
    18
100
AcDbLine
 10
1661.1620319671
 20
1118.4241552729
 30
0.0
 11
1661.1620319671
 21
1069.869289462
 31
0.0
  0
LINE
  5
18A
330
1F
100
AcDbEntity
  8
0
  6
SLD-Сплошная
 62
     8
370
    18
100
AcDbLine
 10
1662.5762455295
 20
1117.0098651002
 30
0.0
 11
1662.5762455295
 21
1071.2835796346
 31
0.0
  0
LINE
  5
18B
330
1F
100
AcDbEntity
  8
0
  6
SLD-Сплошная
 62
     8
370
    18
100
AcDbLine
 10
1662.5762455295
 20
1071.2835796346
 30
0.0
 11
1663.2833523107
 21
1071.6917836906
 31
0.0
  0
LINE
  5
18C
330
1F
100
AcDbEntity
  8
0
  6
SLD-Сплошная
 62
     8
370
    18
100
AcDbLine
 10
1660.8084785765
 20
1462.2023937999
 30
0.0
 11
1661.8691387483
 21
1462.8146998838
 31
0.0
  0
LINE
  5
18D
330
1F
100
AcDbEntity
  8
0
  6
SLD-Сплошная
 62
     8
370
    18
100
AcDbLine
 10
1663.2833523107
 20
1460.3652101482
 30
0.0
 11
1662.9297989201
 21
1460.1611081203
 31
0.0
  0
LINE
  5
18E
330
1F
100
AcDbEntity
  8
0
  6
SLD-Сплошная
 62
     8
370
    18
100
AcDbLine
 10
1661.5155853577
 20
1461.5753982929
 30
0.0
 11
1661.5155853577
 21
1413.020532482
 31
0.0
  0
LINE
  5
18F
330
1F
100
AcDbEntity
  8
0
  6
SLD-Сплошная
 62
     8
370
    18
100
AcDbLine
 10
1662.9297989201
 20
1460.1611081203
 30
0.0
 11
1662.9297989201
 21
1414.4348226547
 31
0.0
  0
LINE
  5
190
330
1F
100
AcDbEntity
  8
0
  6
SLD-Сплошная
 62
     8
370
    18
100
AcDbLine
 10
1662.9297989201
 20
1414.4348226547
 30
0.0
 11
1663.2833523107
 21
1414.6389246826
 31
0.0
  0
LINE
  5
191
330
1F
100
AcDbEntity
  8
1
  6
SLD-Сплошная
100
AcDbLine
 10
495.3857448785
 20
1479.1958155776
 30
0.0
 11
1087.8251094534
 21
1479.1958155776
 31
0.0
  0
ARC
  5
192
330
1F
100
AcDbEntity
  8
1
  6
SLD-Сплошная
100
AcDbCircle
 10
507.7554271659
 20
1473.2611916163
 30
0.0
 40
0.1999999999999886
100
AcDbArc
 50
0.0000000001
 51
68.1849373759
  0
ARC
  5
193
330
1F
100
AcDbEntity
  8
1
  6
SLD-Сплошная
100
AcDbCircle
 10
498.0554271659
 20
1473.2611916163
 30
0.0
 40
0.2000000000000455
100
AcDbArc
 50
111.8150626241
 51
180.0
  0
LINE
  5
194
330
1F
100
AcDbEntity
  8
1
  6
SLD-Сплошная
100
AcDbLine
 10
507.9554271659
 20
1472.0958155776
 30
0.0
 11
507.9554271659
 21
1473.2611916163
 31
0.0
  0
LINE
  5
195
330
1F
100
AcDbEntity
  8
1
  6
SLD-Сплошная
100
AcDbLine
 10
497.8554271659
 20
1473.2611916163
 30
0.0
 11
497.8554271659
 21
1472.0958155776
 31
0.0
  0
ARC
  5
196
330
1F
100
AcDbEntity
  8
1
  6
SLD-Сплошная
100
AcDbCircle
 10
502.9054271659
 20
1461.1445655776
 30
0.0
 40
13.25125000000003
100
AcDbArc
 50
68.1849373759
 51
90.0
  0
ARC
  5
197
330
1F
100
AcDbEntity
  8
1
  6
SLD-Сплошная
100
AcDbCircle
 10
502.9054271659
 20
1461.1445655776
 30
0.0
 40
13.25125000000003
100
AcDbArc
 50
90.0
 51
111.8150626241
  0
LWPOLYLINE
  5
198
330
1F
100
AcDbEntity
  8
1
  6
SLD-Сплошная
100
AcDbPolyline
 90
        3
 70
   128
 43
0.0
 10
1088.005427166
 20
1489.0557835268
 10
1088.0250132294
 20
1489.1062336932
 10
1088.105427166
 20
1489.3536341083
  0
LWPOLYLINE
  5
199
330
1F
100
AcDbEntity
  8
1
  6
SLD-Сплошная
100
AcDbPolyline
 90
        3
 70
   128
 43
0.0
 10
1088.105427166
 20
1490.8379970469
 10
1088.0250132294
 20
1491.0853974619
 10
1088.005427166
 20
1491.1358476284
  0
LINE
  5
19A
330
1F
100
AcDbEntity
  8
1
  6
SLD-Сплошная
100
AcDbLine
 10
563.1054271659
 20
1498.1958155776
 30
0.0
 11
563.1054271659
 21
1499.1958155776
 31
0.0
  0
LINE
  5
19B
330
1F
100
AcDbEntity
  8
1
  6
SLD-Сплошная
100
AcDbLine
 10
535.1054271659
 20
1499.1958155776
 30
0.0
 11
535.1054271659
 21
1498.1958155776
 31
0.0
  0
LINE
  5
19C
330
1F
100
AcDbEntity
  8
1
  6
SLD-Сплошная
100
AcDbLine
 10
563.1054271659
 20
1499.1958155776
 30
0.0
 11
560.1054271659
 21
1502.1958155776
 31
0.0
  0
LINE
  5
19D
330
1F
100
AcDbEntity
  8
1
  6
SLD-Сплошная
100
AcDbLine
 10
538.1054271659
 20
1502.1958155776
 30
0.0
 11
535.1054271659
 21
1499.1958155776
 31
0.0
  0
LINE
  5
19E
330
1F
100
AcDbEntity
  8
1
  6
SLD-Сплошная
100
AcDbLine
 10
1076.3054271659
 20
1474.1958155776
 30
0.0
 11
1076.4054271659
 21
1474.0958155776
 31
0.0
  0
LINE
  5
19F
330
1F
100
AcDbEntity
  8
1
  6
SLD-Сплошная
100
AcDbLine
 10
1085.4054271659
 20
1474.0958155776
 30
0.0
 11
1085.5054271659
 21
1474.1958155776
 31
0.0
  0
LINE
  5
1A0
330
1F
100
AcDbEntity
  8
1
  6
SLD-Сплошная
100
AcDbLine
 10
1076.3054271659
 20
1474.5958155776
 30
0.0
 11
1076.3054271659
 21
1474.1958155776
 31
0.0
  0
LINE
  5
1A1
330
1F
100
AcDbEntity
  8
1
  6
SLD-Сплошная
100
AcDbLine
 10
1085.5054271659
 20
1474.1958155776
 30
0.0
 11
1085.5054271659
 21
1474.5958155776
 31
0.0
  0
LINE
  5
1A2
330
1F
100
AcDbEntity
  8
1
  6
SLD-Сплошная
100
AcDbLine
 10
493.0054271659
 20
1436.0958155776
 30
0.0
 11
492.9054271659
 21
1436.0958155776
 31
0.0
  0
LINE
  5
1A3
330
1F
100
AcDbEntity
  8
1
  6
SLD-Сплошная
100
AcDbLine
 10
492.9054271659
 20
1428.0958155776
 30
0.0
 11
493.0054271659
 21
1428.0958155776
 31
0.0
  0
LINE
  5
1A4
330
1F
100
AcDbEntity
  8
1
  6
SLD-Сплошная
100
AcDbLine
 10
492.9054271659
 20
1378.5458155776
 30
0.0
 11
493.0054271659
 21
1378.5458155776
 31
0.0
  0
LINE
  5
1A5
330
1F
100
AcDbEntity
  8
1
  6
SLD-Сплошная
100
AcDbLine
 10
493.0054271659
 20
1385.6458155776
 30
0.0
 11
492.9054271659
 21
1385.6458155776
 31
0.0
  0
LINE
  5
1A6
330
1F
100
AcDbEntity
  8
1
  6
SLD-Сплошная
100
AcDbLine
 10
1091.9054271659
 20
1200.5958155776
 30
0.0
 11
1091.9054271659
 21
1470.0958155776
 31
0.0
  0
LINE
  5
1A7
330
1F
100
AcDbEntity
  8
1
  6
SLD-Сплошная
100
AcDbLine
 10
1089.9054271659
 20
1200.5958155776
 30
0.0
 11
1091.9054271659
 21
1200.5958155776
 31
0.0
  0
LINE
  5
1A8
330
1F
100
AcDbEntity
  8
1
  6
SLD-Сплошная
100
AcDbLine
 10
1089.9054271659
 20
1470.0958155776
 30
0.0
 11
1091.9054271659
 21
1470.0958155776
 31
0.0
  0
ELLIPSE
  5
1A9
330
1F
100
AcDbEntity
  8
1
  6
SLD-Сплошная
100
AcDbEllipse
 10
494.476137844
 20
1200.5958155776
 30
0.0
 11
0.0
 21
2.5
 31
0.0
210
0.0
220
0.0
230
1.0
 40
0.6
 41
2.751284095301552
 42
3.141592653589793
  0
LINE
  5
1AA
330
1F
100
AcDbEntity
  8
1
  6
SLD-Сплошная
100
AcDbLine
 10
493.9054271659
 20
1200.5958155776
 30
0.0
 11
493.9054271659
 21
1198.2838363137
 31
0.0
  0
LINE
  5
1AB
330
1F
100
AcDbEntity
  8
1
  6
SLD-Сплошная
100
AcDbLine
 10
493.9054271659
 20
1200.5958155776
 30
0.0
 11
495.0054271659
 21
1200.5958155776
 31
0.0
  0
ELLIPSE
  5
1AC
330
1F
100
AcDbEntity
  8
1
  6
SLD-Сплошная
100
AcDbEllipse
 10
1089.3347164879
 20
1200.5958155776
 30
0.0
 11
0.0
 21
2.5
 31
0.0
210
0.0
220
0.0
230
1.0
 40
0.6
 41
3.14159265358949
 42
3.531901211873301
  0
LINE
  5
1AD
330
1F
100
AcDbEntity
  8
1
  6
SLD-Сплошная
100
AcDbLine
 10
494.476137844
 20
1198.0958155776
 30
0.0
 11
1089.3347164879
 21
1198.0958155776
 31
0.0
  0
LINE
  5
1AE
330
1F
100
AcDbEntity
  8
1
  6
SLD-Сплошная
100
AcDbLine
 10
1089.9054271659
 20
1198.2838363137
 30
0.0
 11
1089.9054271659
 21
1200.5958155776
 31
0.0
  0
LINE
  5
1AF
330
1F
100
AcDbEntity
  8
1
  6
SLD-Сплошная
100
AcDbLine
 10
493.9054271659
 20
1200.5958155776
 30
0.0
 11
493.0054271659
 21
1200.5958155776
 31
0.0
  0
LINE
  5
1B0
330
1F
100
AcDbEntity
  8
1
  6
SLD-Сплошная
100
AcDbLine
 10
493.0054271659
 20
1200.5958155776
 30
0.0
 11
493.0054271659
 21
1470.0958155776
 31
0.0
  0
LINE
  5
1B1
330
1F
100
AcDbEntity
  8
1
  6
SLD-Сплошная
100
AcDbLine
 10
493.0054271659
 20
1470.0958155776
 30
0.0
 11
493.9054271659
 21
1470.0958155776
 31
0.0
  0
LINE
  5
1B2
330
1F
100
AcDbEntity
  8
1
  6
SLD-Сплошная
100
AcDbLine
 10
493.905427166
 20
1470.0958155776
 30
0.0
 11
493.976137844
 21
1472.0958155776
 31
0.0
  0
LINE
  5
1B3
330
1F
100
AcDbEntity
  8
1
  6
SLD-Сплошная
100
AcDbLine
 10
1089.8347164879
 20
1472.0958155776
 30
0.0
 11
493.976137844
 21
1472.0958155776
 31
0.0
  0
LINE
  5
1B4
330
1F
100
AcDbEntity
  8
1
  6
SLD-Сплошная
100
AcDbLine
 10
1089.8347164879
 20
1472.0958155776
 30
0.0
 11
1089.905427166
 21
1470.0958155776
 31
0.0
  0
LINE
  5
1B5
330
1F
100
AcDbEntity
  8
1
  6
SLD-Сплошная
100
AcDbLine
 10
493.9054271659
 20
1470.0958155776
 30
0.0
 11
495.0054271659
 21
1470.0958155776
 31
0.0
  0
LINE
  5
1B6
330
1F
100
AcDbEntity
  8
1
  6
SLD-Сплошная
100
AcDbLine
 10
492.9054271659
 20
1470.0958155776
 30
0.0
 11
491.9054271659
 21
1470.0958155776
 31
0.0
  0
LINE
  5
1B7
330
1F
100
AcDbEntity
  8
1
  6
SLD-Сплошная
100
AcDbLine
 10
492.9054271659
 20
1200.5958155776
 30
0.0
 11
492.9054271659
 21
1470.0958155776
 31
0.0
  0
LINE
  5
1B8
330
1F
100
AcDbEntity
  8
1
  6
SLD-Сплошная
100
AcDbLine
 10
491.9054271659
 20
1200.5958155776
 30
0.0
 11
491.9054271659
 21
1470.0958155776
 31
0.0
  0
ARC
  5
1B9
330
1F
100
AcDbEntity
  8
1
  6
SLD-Сплошная
100
AcDbCircle
 10
494.4054271659
 20
1200.5958155776
 30
0.0
 40
1.500000000000568
100
AcDbArc
 50
180.0
 51
247.6369669013
  0
LINE
  5
1BA
330
1F
100
AcDbEntity
  8
1
  6
SLD-Сплошная
100
AcDbLine
 10
493.4542427025
 20
1198.2838363137
 30
0.0
 11
493.8347164879
 21
1199.2086280193
 31
0.0
  0
ARC
  5
1BB
330
1F
100
AcDbEntity
  8
1
  6
SLD-Сплошная
100
AcDbCircle
 10
494.4054271659
 20
1200.5958155776
 30
0.0
 40
2.500000000000004
100
AcDbArc
 50
180.0
 51
247.6369669013
  0
LINE
  5
1BC
330
1F
100
AcDbEntity
  8
1
  6
SLD-Сплошная
100
AcDbLine
 10
1090.3566116294
 20
1198.2838363137
 30
0.0
 11
1089.976137844
 21
1199.2086280193
 31
0.0
  0
ARC
  5
1BD
330
1F
100
AcDbEntity
  8
1
  6
SLD-Сплошная
100
AcDbCircle
 10
1089.4054271659
 20
1200.5958155776
 30
0.0
 40
2.5
100
AcDbArc
 50
292.3630330978
 51
0.0
  0
ARC
  5
1BE
330
1F
100
AcDbEntity
  8
1
  6
SLD-Сплошная
100
AcDbCircle
 10
1089.4054271659
 20
1200.5958155776
 30
0.0
 40
1.499999999999857
100
AcDbArc
 50
292.3630330978
 51
0.0
  0
ARC
  5
1BF
330
1F
100
AcDbEntity
  8
1
  6
SLD-Сплошная
100
AcDbCircle
 10
494.4054271659
 20
1200.5958155776
 30
0.0
 40
2.500000000000004
100
AcDbArc
 50
247.6369669013
 51
270.0
  0
LINE
  5
1C0
330
1F
100
AcDbEntity
  8
1
  6
SLD-Сплошная
100
AcDbLine
 10
494.4054271659
 20
1198.0958155776
 30
0.0
 11
494.4054271659
 21
1198.0985949003
 31
0.0
  0
LINE
  5
1C1
330
1F
100
AcDbEntity
  8
1
  6
SLD-Сплошная
100
AcDbLine
 10
1089.4054271659
 20
1198.0958155776
 30
0.0
 11
1089.4054271659
 21
1198.0985949003
 31
0.0
  0
ARC
  5
1C2
330
1F
100
AcDbEntity
  8
1
  6
SLD-Сплошная
100
AcDbCircle
 10
1089.4054271659
 20
1200.5958155776
 30
0.0
 40
2.5
100
AcDbArc
 50
270.0
 51
292.3630330978
  0
ARC
  5
1C3
330
1F
100
AcDbEntity
  8
1
  6
SLD-Сплошная
100
AcDbCircle
 10
493.9054271659
 20
1470.0958155776
 30
0.0
 40
2.0
100
AcDbArc
 50
90.0
 51
180.0
  0
LINE
  5
1C4
330
1F
100
AcDbEntity
  8
1
  6
SLD-Сплошная
100
AcDbLine
 10
493.9054271659
 20
1471.0958155776
 30
0.0
 11
493.9054271659
 21
1472.0958155776
 31
0.0
  0
ARC
  5
1C5
330
1F
100
AcDbEntity
  8
1
  6
SLD-Сплошная
100
AcDbCircle
 10
493.9054271659
 20
1470.0958155776
 30
0.0
 40
1.000000000000227
100
AcDbArc
 50
90.0
 51
180.0
  0
LINE
  5
1C6
330
1F
100
AcDbEntity
  8
1
  6
SLD-Сплошная
100
AcDbLine
 10
1089.9054271659
 20
1471.0958155776
 30
0.0
 11
1089.9054271659
 21
1472.0958155776
 31
0.0
  0
ARC
  5
1C7
330
1F
100
AcDbEntity
  8
1
  6
SLD-Сплошная
100
AcDbCircle
 10
1089.9054271659
 20
1470.0958155776
 30
0.0
 40
1.000000000000227
100
AcDbArc
 50
0.0
 51
90.0
  0
ARC
  5
1C8
330
1F
100
AcDbEntity
  8
1
  6
SLD-Сплошная
100
AcDbCircle
 10
1089.9054271659
 20
1470.0958155776
 30
0.0
 40
2.0
100
AcDbArc
 50
0.0
 51
90.0
  0
LINE
  5
1C9
330
1F
100
AcDbEntity
  8
1
  6
SLD-Сплошная
100
AcDbLine
 10
493.976137844
 20
1472.0958155776
 30
0.0
 11
493.9054271659
 21
1472.0958155776
 31
0.0
  0
LINE
  5
1CA
330
1F
100
AcDbEntity
  8
1
  6
SLD-Сплошная
100
AcDbLine
 10
493.940782505
 20
1471.0958155776
 30
0.0
 11
493.9054271659
 21
1471.0958155776
 31
0.0
  0
LINE
  5
1CB
330
1F
100
AcDbEntity
  8
1
  6
SLD-Сплошная
100
AcDbLine
 10
1089.9054271659
 20
1472.0958155776
 30
0.0
 11
1089.8347164879
 21
1472.0958155776
 31
0.0
  0
LINE
  5
1CC
330
1F
100
AcDbEntity
  8
1
  6
SLD-Сплошная
100
AcDbLine
 10
1089.9054271659
 20
1471.0958155776
 30
0.0
 11
1089.8700718269
 21
1471.0958155776
 31
0.0
  0
LINE
  5
1CD
330
1F
100
AcDbEntity
  8
1
  6
SLD-Сплошная
100
AcDbLine
 10
1089.4054271659
 20
1198.0958155776
 30
0.0
 11
1089.3347164879
 21
1198.0958155776
 31
0.0
  0
LINE
  5
1CE
330
1F
100
AcDbEntity
  8
1
  6
SLD-Сплошная
100
AcDbLine
 10
494.476137844
 20
1198.0958155776
 30
0.0
 11
494.4054271659
 21
1198.0958155776
 31
0.0
  0
ELLIPSE
  5
1CF
330
1F
100
AcDbEntity
  8
1
  6
SLD-Сплошная
100
AcDbEllipse
 10
1072.8347164879
 20
1473.0958155776
 30
0.0
 11
1.999999999999773
 21
0.0
 31
0.0
210
0.0
220
0.0
230
1.0
 40
0.5
 41
3.141592653589793
 42
4.71238898038481
  0
ELLIPSE
  5
1D0
330
1F
100
AcDbEntity
  8
1
  6
SLD-Сплошная
100
AcDbEllipse
 10
510.976137844
 20
1473.0958155776
 30
0.0
 11
2.000000000000114
 21
0.0
 31
0.0
210
0.0
220
0.0
230
1.0
 40
0.5
 41
4.712388980384754
 42
6.283185307179586
  0
ARC
  5
1D1
330
1F
100
AcDbEntity
  8
1
  6
SLD-Сплошная
100
AcDbCircle
 10
510.9054271659
 20
1473.0958155776
 30
0.0
 40
1.0
100
AcDbArc
 50
270.0
 51
0.0
  0
ARC
  5
1D2
330
1F
100
AcDbEntity
  8
1
  6
SLD-Сплошная
100
AcDbCircle
 10
510.9054271659
 20
1473.0958155776
 30
0.0
 40
1.999999999999921
100
AcDbArc
 50
351.2995225093
 51
0.0
  0
ARC
  5
1D3
330
1F
100
AcDbEntity
  8
1
  6
SLD-Сплошная
100
AcDbCircle
 10
1072.9054271659
 20
1473.0958155776
 30
0.0
 40
1.0
100
AcDbArc
 50
180.0
 51
270.0
  0
ARC
  5
1D4
330
1F
100
AcDbEntity
  8
1
  6
SLD-Сплошная
100
AcDbCircle
 10
1072.9054271659
 20
1473.0958155776
 30
0.0
 40
2.0
100
AcDbArc
 50
180.0
 51
188.7004774928
  0
LINE
  5
1D5
330
1F
100
AcDbEntity
  8
1
  6
SLD-Сплошная
100
AcDbLine
 10
1070.8347164879
 20
1473.0958155776
 30
0.0
 11
1070.8347164879
 21
1479.1958155776
 31
0.0
  0
LINE
  5
1D6
330
1F
100
AcDbEntity
  8
1
  6
SLD-Сплошная
100
AcDbLine
 10
512.976137844
 20
1479.1958155776
 30
0.0
 11
512.976137844
 21
1473.0958155776
 31
0.0
  0
LINE
  5
1D7
330
1F
100
AcDbEntity
  8
1
  6
SLD-Сплошная
100
AcDbLine
 10
512.9054271659
 20
1473.0958155776
 30
0.0
 11
512.9054271659
 21
1479.1958155776
 31
0.0
  0
LINE
  5
1D8
330
1F
100
AcDbEntity
  8
1
  6
SLD-Сплошная
100
AcDbLine
 10
511.9054271659
 20
1473.0958155776
 30
0.0
 11
511.9054271659
 21
1479.1958155776
 31
0.0
  0
LINE
  5
1D9
330
1F
100
AcDbEntity
  8
1
  6
SLD-Сплошная
100
AcDbLine
 10
1071.9054271659
 20
1479.1958155776
 30
0.0
 11
1071.9054271659
 21
1473.0958155776
 31
0.0
  0
LINE
  5
1DA
330
1F
100
AcDbEntity
  8
1
  6
SLD-Сплошная
100
AcDbLine
 10
1070.9054271659
 20
1479.1958155776
 30
0.0
 11
1070.9054271659
 21
1473.0958155776
 31
0.0
  0
LINE
  5
1DB
330
1F
100
AcDbEntity
  8
1
  6
SLD-Сплошная
100
AcDbLine
 10
492.9054271659
 20
1470.0958155776
 30
0.0
 11
493.0054271659
 21
1470.0958155776
 31
0.0
  0
SPLINE
  5
1DC
330
1F
100
AcDbEntity
  8
1
  6
SLD-Сплошная
100
AcDbSpline
210
0.0
220
0.0
230
1.0
 70
     8
 71
     3
 72
    11
 73
     7
 74
     0
 42
0.00000001
 43
0.00000001
 40
0.0
 40
0.0
 40
0.0
 40
0.0
 40
0.2500000000000009
 40
0.50000000000001
 40
0.7500000000000017
 40
1.0
 40
1.0
 40
1.0
 40
1.0
 10
1087.772584453429
 20
1479.195815577579
 30
0.0
 10
1087.776751120096
 20
1479.211598729006
 30
0.0
 10
1087.785084453429
 20
1479.243165031859
 30
0.0
 10
1087.797584453429
 20
1479.485976705637
 30
0.0
 10
1087.810084453429
 20
1479.833048889589
 30
0.0
 10
1087.818417786762
 20
1480.108226681582
 30
0.0
 10
1087.822584453429
 20
1480.245815577579
 30
0.0
  0
SPLINE
  5
1DD
330
1F
100
AcDbEntity
  8
1
  6
SLD-Сплошная
100
AcDbSpline
210
0.0
220
0.0
230
1.0
 70
     8
 71
     3
 72
    11
 73
     7
 74
     0
 42
0.00000001
 43
0.00000001
 40
0.0
 40
0.0
 40
0.0
 40
0.0
 40
0.2500000000000081
 40
0.4999999999999978
 40
0.7500000000000029
 40
1.0
 40
1.0
 40
1.0
 40
1.0
 10
495.3882698784802
 20
1480.245815577579
 30
0.0
 10
495.3924365451469
 20
1480.108226681583
 30
0.0
 10
495.4007698784803
 20
1479.833048889589
 30
0.0
 10
495.4132698784802
 20
1479.485976705638
 30
0.0
 10
495.4257698784801
 20
1479.243165031859
 30
0.0
 10
495.4341032118135
 20
1479.211598729006
 30
0.0
 10
495.4382698784801
 20
1479.195815577579
 30
0.0
  0
LINE
  5
1DE
330
1F
100
AcDbEntity
  8
1
  6
SLD-Сплошная
100
AcDbLine
 10
495.3882698785
 20
1495.4958155776
 30
0.0
 11
495.3882698785
 21
1480.2458155776
 31
0.0
  0
LINE
  5
1DF
330
1F
100
AcDbEntity
  8
1
  6
SLD-Сплошная
100
AcDbLine
 10
1087.8225844534
 20
1495.4958155776
 30
0.0
 11
1087.8225844534
 21
1480.2458155776
 31
0.0
  0
ELLIPSE
  5
1E0
330
1F
100
AcDbEntity
  8
1
  6
SLD-Сплошная
100
AcDbEllipse
 10
496.805427166
 20
1495.4958155776
 30
0.0
 11
0.0
 21
2.699999999999818
 31
0.0
210
0.0
220
0.0
230
1.0
 40
0.5248730694
 41
0.0
 42
1.570796326794897
  0
LINE
  5
1E1
330
1F
100
AcDbEntity
  8
1
  6
SLD-Сплошная
100
AcDbLine
 10
496.8054271659
 20
1498.1958155776
 30
0.0
 11
1086.405427166
 21
1498.1958155776
 31
0.0
  0
ELLIPSE
  5
1E2
330
1F
100
AcDbEntity
  8
1
  6
SLD-Сплошная
100
AcDbEllipse
 10
1086.4054271659
 20
1495.4958155776
 30
0.0
 11
0.0
 21
2.700000000000045
 31
0.0
210
0.0
220
0.0
230
1.0
 40
0.5248730694
 41
4.712388980384697
 42
6.283185307179586
  0
SPLINE
  5
1E3
330
1F
100
AcDbEntity
  8
1
  6
SLD-Сплошная
100
AcDbSpline
210
0.0
220
0.0
230
1.0
 70
     8
 71
     3
 72
    11
 73
     7
 74
     0
 42
0.00000001
 43
0.00000001
 40
0.0
 40
0.0
 40
0.0
 40
0.0
 40
0.249999999999982
 40
0.5000000000000002
 40
0.7499999999999896
 40
1.0
 40
1.0
 40
1.0
 40
1.0
 10
495.1554271659338
 20
1479.195815577579
 30
0.0
 10
495.0178382699364
 20
1479.211598729005
 30
0.0
 10
494.7426604779416
 20
1479.243165031857
 30
0.0
 10
494.3955882939868
 20
1479.485976705635
 30
0.0
 10
494.1527766202058
 20
1479.833048889587
 30
0.0
 10
494.1212103173521
 20
1480.108226681582
 30
0.0
 10
494.1054271659252
 20
1480.245815577579
 30
0.0
  0
LINE
  5
1E4
330
1F
100
AcDbEntity
  8
1
  6
SLD-Сплошная
100
AcDbLine
 10
494.1054271659
 20
1480.2458155776
 30
0.0
 11
495.1054271659
 21
1480.2458155776
 31
0.0
  0
SPLINE
  5
1E5
330
1F
100
AcDbEntity
  8
1
  6
SLD-Сплошная
100
AcDbSpline
210
0.0
220
0.0
230
1.0
 70
     8
 71
     3
 72
    11
 73
     7
 74
     0
 42
0.00000001
 43
0.00000001
 40
0.0
 40
0.0
 40
0.0
 40
0.0
 40
0.2500000000003021
 40
0.5000000000001289
 40
0.7500000000000185
 40
1.0
 40
1.0
 40
1.0
 40
1.0
 10
495.1554271659256
 20
1480.195815577579
 30
0.0
 10
495.1488753137352
 20
1480.196567156218
 30
0.0
 10
495.1357716093547
 20
1480.198070313497
 30
0.0
 10
495.1192443624996
 20
1480.209632774153
 30
0.0
 10
495.1076819018435
 20
1480.226160021008
 30
0.0
 10
495.1061787445646
 20
1480.239263725389
 30
0.0
 10
495.1054271659252
 20
1480.245815577579
 30
0.0
  0
LINE
  5
1E6
330
1F
100
AcDbEntity
  8
1
  6
SLD-Сплошная
100
AcDbLine
 10
495.1554271659
 20
1480.1958155776
 30
0.0
 11
495.1554271659
 21
1479.1958155776
 31
0.0
  0
LINE
  5
1E7
330
1F
100
AcDbEntity
  8
1
  6
SLD-Сплошная
100
AcDbLine
 10
495.1054271659
 20
1480.2458155776
 30
0.0
 11
495.1054271659
 21
1495.4958155776
 31
0.0
  0
LINE
  5
1E8
330
1F
100
AcDbEntity
  8
1
  6
SLD-Сплошная
100
AcDbLine
 10
494.1054271659
 20
1480.2458155776
 30
0.0
 11
494.1054271659
 21
1495.4958155776
 31
0.0
  0
SPLINE
  5
1E9
330
1F
100
AcDbEntity
  8
1
  6
SLD-Сплошная
100
AcDbSpline
210
0.0
220
0.0
230
1.0
 70
     8
 71
     3
 72
    11
 73
     7
 74
     0
 42
0.00000001
 43
0.00000001
 40
0.0
 40
0.0
 40
0.0
 40
0.0
 40
0.2499999999999981
 40
0.4999999999999896
 40
0.7499999999999959
 40
1.0
 40
1.0
 40
1.0
 40
1.0
 10
1089.105427165984
 20
1480.245815577579
 30
0.0
 10
1089.089644014557
 20
1480.108226681582
 30
0.0
 10
1089.058077711703
 20
1479.833048889587
 30
0.0
 10
1088.815266037922
 20
1479.485976705634
 30
0.0
 10
1088.468193853967
 20
1479.243165031856
 30
0.0
 10
1088.193016061972
 20
1479.211598729005
 30
0.0
 10
1088.055427165975
 20
1479.195815577579
 30
0.0
  0
LINE
  5
1EA
330
1F
100
AcDbEntity
  8
1
  6
SLD-Сплошная
100
AcDbLine
 10
1088.055427166
 20
1480.1958155776
 30
0.0
 11
1088.055427166
 21
1479.1958155776
 31
0.0
  0
SPLINE
  5
1EB
330
1F
100
AcDbEntity
  8
1
  6
SLD-Сплошная
100
AcDbSpline
210
0.0
220
0.0
230
1.0
 70
     8
 71
     3
 72
    11
 73
     7
 74
     0
 42
0.00000001
 43
0.00000001
 40
0.0
 40
0.0
 40
0.0
 40
0.0
 40
0.2500000000000442
 40
0.4999999999999654
 40
0.7499999999998239
 40
0.9999999999999999
 40
0.9999999999999999
 40
0.9999999999999999
 40
0.9999999999999999
 10
1088.105427165984
 20
1480.245815577579
 30
0.0
 10
1088.104675587344
 20
1480.239263725389
 30
0.0
 10
1088.103172430066
 20
1480.226160021008
 30
0.0
 10
1088.09160996941
 20
1480.209632774153
 30
0.0
 10
1088.075082722554
 20
1480.198070313497
 30
0.0
 10
1088.061979018174
 20
1480.196567156218
 30
0.0
 10
1088.055427165983
 20
1480.195815577579
 30
0.0
  0
LINE
  5
1EC
330
1F
100
AcDbEntity
  8
1
  6
SLD-Сплошная
100
AcDbLine
 10
1089.105427166
 20
1480.2458155776
 30
0.0
 11
1088.105427166
 21
1480.2458155776
 31
0.0
  0
LINE
  5
1ED
330
1F
100
AcDbEntity
  8
1
  6
SLD-Сплошная
100
AcDbLine
 10
1089.105427166
 20
1480.2458155776
 30
0.0
 11
1089.105427166
 21
1495.4958155776
 31
0.0
  0
LINE
  5
1EE
330
1F
100
AcDbEntity
  8
1
  6
SLD-Сплошная
100
AcDbLine
 10
1088.105427166
 20
1480.2458155776
 30
0.0
 11
1088.105427166
 21
1495.4958155776
 31
0.0
  0
ARC
  5
1EF
330
1F
100
AcDbEntity
  8
1
  6
SLD-Сплошная
100
AcDbCircle
 10
496.8054271659
 20
1495.4958155776
 30
0.0
 40
1.699999999999818
100
AcDbArc
 50
139.5408896219
 51
180.0
  0
ARC
  5
1F0
330
1F
100
AcDbEntity
  8
1
  6
SLD-Сплошная
100
AcDbCircle
 10
496.8054271659
 20
1495.4958155776
 30
0.0
 40
2.699999999999818
100
AcDbArc
 50
90.0
 51
180.0
  0
ARC
  5
1F1
330
1F
100
AcDbEntity
  8
1
  6
SLD-Сплошная
100
AcDbCircle
 10
1086.405427166
 20
1495.4958155776
 30
0.0
 40
1.699999999999818
100
AcDbArc
 50
0.0
 51
40.4591103777
  0
ARC
  5
1F2
330
1F
100
AcDbEntity
  8
1
  6
SLD-Сплошная
100
AcDbCircle
 10
1086.405427166
 20
1495.4958155776
 30
0.0
 40
2.700000000000045
100
AcDbArc
 50
0.0
 51
90.0
  0
LINE
  5
1F3
330
1F
100
AcDbEntity
  8
1
  6
SLD-Сплошная
100
AcDbLine
 10
495.3882698785
 20
1480.2458155776
 30
0.0
 11
495.2054271659
 21
1480.2458155776
 31
0.0
  0
LINE
  5
1F4
330
1F
100
AcDbEntity
  8
1
  6
SLD-Сплошная
100
AcDbLine
 10
495.4382698784
 20
1479.2657751469
 30
0.0
 11
495.1554271659
 21
1479.1958155776
 31
0.0
  0
SPLINE
  5
1F5
330
1F
100
AcDbEntity
  8
1
  6
SLD-Сплошная
100
AcDbSpline
210
0.0
220
0.0
230
1.0
 70
     8
 71
     3
 72
    11
 73
     7
 74
     0
 42
0.00000001
 43
0.00000001
 40
0.0
 40
0.0
 40
0.0
 40
0.0
 40
0.0090245670111564
 40
0.078210894822772
 40
0.2706367536280104
 40
1.0
 40
1.0
 40
1.0
 40
1.0
 10
495.2054271659252
 20
1480.245815577579
 30
0.0
 10
495.2053900166294
 20
1480.244621993844
 30
0.0
 10
495.2050680643782
 20
1480.234277868539
 30
0.0
 10
495.2016874535589
 20
1480.228708909669
 30
0.0
 10
495.1871731359035
 20
1480.196054620276
 30
0.0
 10
495.1694503078244
 20
1480.195921169869
 30
0.0
 10
495.1554271659256
 20
1480.195815577579
 30
0.0
  0
LINE
  5
1F6
330
1F
100
AcDbEntity
  8
1
  6
SLD-Сплошная
100
AcDbLine
 10
1087.8225844534
 20
1480.2458155776
 30
0.0
 11
1088.005427166
 21
1480.2458155776
 31
0.0
  0
SPLINE
  5
1F7
330
1F
100
AcDbEntity
  8
1
  6
SLD-Сплошная
100
AcDbSpline
210
0.0
220
0.0
230
1.0
 70
     8
 71
     3
 72
    12
 73
     8
 74
     0
 42
0.00000001
 43
0.00000001
 40
0.0
 40
0.0
 40
0.0
 40
0.0
 40
0.729334057021423
 40
0.9217522148803566
 40
0.9750066998663002
 40
0.990975794155749
 40
1.0
 40
1.0
 40
1.0
 40
1.0
 10
1088.055427165983
 20
1480.195815577579
 30
0.0
 10
1088.041569365638
 20
1480.198536859318
 30
0.0
 10
1088.024055500711
 20
1480.201976089183
 30
0.0
 10
1088.009157479434
 20
1480.224344294097
 30
0.0
 10
1088.006263449789
 20
1480.236390950514
 30
0.0
 10
1088.005556787178
 20
1480.241149851152
 30
0.0
 10
1088.005461552054
 20
1480.244577847931
 30
0.0
 10
1088.005427165984
 20
1480.245815577579
 30
0.0
  0
LINE
  5
1F8
330
1F
100
AcDbEntity
  8
1
  6
SLD-Сплошная
100
AcDbLine
 10
1088.055427166
 20
1479.1958155776
 30
0.0
 11
1087.6988984482
 21
1479.2840009698
 31
0.0
  0
LINE
  5
1F9
330
1F
100
AcDbEntity
  8
1
  6
SLD-Сплошная
100
AcDbLine
 10
495.3882698785
 20
1495.0858155776
 30
0.0
 11
495.2054271659
 21
1495.0858155776
 31
0.0
  0
LINE
  5
1FA
330
1F
100
AcDbEntity
  8
1
  6
SLD-Сплошная
100
AcDbLine
 10
495.2054271659
 20
1480.2458155776
 30
0.0
 11
495.2054271659
 21
1495.0858155776
 31
0.0
  0
LINE
  5
1FB
330
1F
100
AcDbEntity
  8
1
  6
SLD-Сплошная
100
AcDbLine
 10
1087.8225844533
 20
1495.0858155776
 30
0.0
 11
1088.005427166
 21
1495.0858155776
 31
0.0
  0
LINE
  5
1FC
330
1F
100
AcDbEntity
  8
1
  6
SLD-Сплошная
100
AcDbLine
 10
1088.005427166
 20
1480.2458155776
 30
0.0
 11
1088.005427166
 21
1495.0858155776
 31
0.0
  0
ARC
  5
1FD
330
1F
100
AcDbEntity
  8
1
  6
SLD-Сплошная
100
AcDbCircle
 10
497.2154271659
 20
1495.0858155776
 30
0.0
 40
2.009999999999991
100
AcDbArc
 50
153.9069487057
 51
180.0
  0
ARC
  5
1FE
330
1F
100
AcDbEntity
  8
1
  6
SLD-Сплошная
100
AcDbCircle
 10
1085.995427166
 20
1495.0858155776
 30
0.0
 40
2.010000000000036
100
AcDbArc
 50
0.0
 51
26.0930512942
  0
LINE
  5
1FF
330
1F
100
AcDbEntity
  8
1
  6
SLD-Сплошная
100
AcDbLine
 10
996.9054271659
 20
1394.8458155776
 30
0.0
 11
586.9054271659
 21
1394.8458155776
 31
0.0
  0
ARC
  5
200
330
1F
100
AcDbEntity
  8
1
  6
SLD-Сплошная
100
AcDbCircle
 10
996.9054271659
 20
1377.3458155776
 30
0.0
 40
17.49999999999989
100
AcDbArc
 50
0.0
 51
90.0
  0
LINE
  5
201
330
1F
100
AcDbEntity
  8
1
  6
SLD-Сплошная
100
AcDbLine
 10
1014.4054271659
 20
1242.3458155776
 30
0.0
 11
1014.4054271659
 21
1377.3458155776
 31
0.0
  0
ARC
  5
202
330
1F
100
AcDbEntity
  8
1
  6
SLD-Сплошная
100
AcDbCircle
 10
996.9054271659
 20
1242.3458155776
 30
0.0
 40
17.49999999999989
100
AcDbArc
 50
270.0
 51
0.0
  0
ARC
  5
203
330
1F
100
AcDbEntity
  8
1
  6
SLD-Сплошная
100
AcDbCircle
 10
586.9054271659
 20
1242.3458155776
 30
0.0
 40
17.50000000000011
100
AcDbArc
 50
180.0
 51
270.0
  0
LINE
  5
204
330
1F
100
AcDbEntity
  8
1
  6
SLD-Сплошная
100
AcDbLine
 10
569.4054271659
 20
1377.3458155776
 30
0.0
 11
569.4054271659
 21
1242.3458155776
 31
0.0
  0
ARC
  5
205
330
1F
100
AcDbEntity
  8
1
  6
SLD-Сплошная
100
AcDbCircle
 10
586.9054271659
 20
1377.3458155776
 30
0.0
 40
17.50000000000011
100
AcDbArc
 50
90.0
 51
180.0
  0
LINE
  5
206
330
1F
100
AcDbEntity
  8
1
  6
SLD-Сплошная
100
AcDbLine
 10
586.9054271659
 20
1224.8458155776
 30
0.0
 11
996.9054271659
 21
1224.8458155776
 31
0.0
  0
ELLIPSE
  5
207
330
1F
100
AcDbEntity
  8
1
  6
SLD-Сплошная
100
AcDbEllipse
 10
792.8186406199
 20
1389.2893721613
 30
0.0
 11
-0.352044069943986
 21
0.2145091096842862
 31
0.0
210
0.0
220
0.0
230
1.0
 40
0.9702875252
 41
5.512866274279046
 42
7.053504340080755
  0
SPLINE
  5
208
330
1F
100
AcDbEntity
  8
1
  6
SLD-Сплошная
100
AcDbSpline
210
0.0
220
0.0
230
1.0
 70
     8
 71
     3
 72
    12
 73
     8
 74
     0
 42
0.00000001
 43
0.00000001
 40
0.0
 40
0.0
 40
0.0
 40
0.0
 40
0.2187857887072034
 40
0.4375776469534873
 40
0.656235365886381
 40
0.8748419359491046
 40
1.0
 40
1.0
 40
1.0
 40
1.0
 10
793.0009170466197
 20
1389.504487879304
 30
0.0
 10
792.9595101873399
 20
1389.488351522403
 30
0.0
 10
792.876695320074
 20
1389.456078360945
 30
0.0
 10
792.7791534738691
 20
1389.358640037659
 30
0.0
 10
792.7166091720735
 20
1389.238027351317
 30
0.0
 10
792.6974161220171
 20
1389.122201171114
 30
0.0
 10
792.707404290385
 20
1389.053695682077
 30
0.0
 10
792.7110407895834
 20
1389.028754156585
 30
0.0
  0
ELLIPSE
  5
209
330
1F
100
AcDbEntity
  8
1
  6
SLD-Сплошная
100
AcDbEllipse
 10
791.3489837497
 20
1388.9326021236
 30
0.0
 11
0.2145091096841724
 21
0.352044069943986
 31
0.0
210
0.0
220
0.0
230
1.0
 40
0.9702875252
 41
5.512866274278639
 42
7.0535043400803
  0
SPLINE
  5
20A
330
1F
100
AcDbEntity
  8
1
  6
SLD-Сплошная
100
AcDbSpline
210
0.0
220
0.0
230
1.0
 70
     8
 71
     3
 72
    12
 73
     8
 74
     0
 42
0.00000001
 43
0.00000001
 40
0.0
 40
0.0
 40
0.0
 40
0.0
 40
0.2187857887072159
 40
0.4375776469534865
 40
0.6562353658863898
 40
0.8748419359490979
 40
0.9999999999999999
 40
0.9999999999999999
 40
0.9999999999999999
 40
0.9999999999999999
 10
791.5640994676716
 20
1388.750325696907
 30
0.0
 10
791.5479631107698
 20
1388.791732556187
 30
0.0
 10
791.5156899493127
 20
1388.874547423453
 30
0.0
 10
791.4182516260264
 20
1388.972089269658
 30
0.0
 10
791.2976389396839
 20
1389.034633571453
 30
0.0
 10
791.1818127594811
 20
1389.05382662151
 30
0.0
 10
791.1133072704437
 20
1389.043838453142
 30
0.0
 10
791.0883657449523
 20
1389.040201953944
 30
0.0
  0
ELLIPSE
  5
20B
330
1F
100
AcDbEntity
  8
1
  6
SLD-Сплошная
100
AcDbEllipse
 10
790.992213712
 20
1390.4022589938
 30
0.0
 11
0.3520440699439859
 21
-0.2145091096840588
 31
0.0
210
0.0
220
0.0
230
1.0
 40
0.9702875252
 41
5.512866274278233
 42
7.053504340080567
  0
SPLINE
  5
20C
330
1F
100
AcDbEntity
  8
1
  6
SLD-Сплошная
100
AcDbSpline
210
0.0
220
0.0
230
1.0
 70
     8
 71
     3
 72
    12
 73
     8
 74
     0
 42
0.00000001
 43
0.00000001
 40
0.0
 40
0.0
 40
0.0
 40
0.0
 40
0.2187857887072095
 40
0.4375776469534748
 40
0.6562353658863855
 40
0.8748419359491063
 40
1.0
 40
1.0
 40
1.0
 40
1.0
 10
790.8099372852744
 20
1390.187143275856
 30
0.0
 10
790.8513441445543
 20
1390.203279632757
 30
0.0
 10
790.9341590118203
 20
1390.235552794214
 30
0.0
 10
791.0317008580251
 20
1390.3329911175
 30
0.0
 10
791.0942451598206
 20
1390.453603803843
 30
0.0
 10
791.1134382098772
 20
1390.569429984046
 30
0.0
 10
791.1034500415091
 20
1390.637935473083
 30
0.0
 10
791.0998135423108
 20
1390.662876998575
 30
0.0
  0
ARC
  5
20D
330
1F
100
AcDbEntity
  8
1
  6
SLD-Сплошная
100
AcDbCircle
 10
815.6055766449
 20
1395.5992015508
 30
0.0
 40
26.56195549589825
100
AcDbArc
 50
192.5267196435
 51
194.7633220947
  0
ARC
  5
20E
330
1F
100
AcDbEntity
  8
1
  6
SLD-Сплошная
100
AcDbCircle
 10
786.3681071927
 20
1411.9713331684
 30
0.0
 40
23.41191191627267
100
AcDbArc
 50
278.7274979605
 51
281.6315804797
  0
ARC
  5
20F
330
1F
100
AcDbEntity
  8
1
  6
SLD-Сплошная
100
AcDbCircle
 10
814.1071409101
 20
1395.0692577345
 30
0.0
 40
23.41191191612903
100
AcDbArc
 50
195.6584612585
 51
198.5625437778
  0
ARC
  5
210
330
1F
100
AcDbEntity
  8
1
  6
SLD-Сплошная
100
AcDbCircle
 10
786.1520411927
 20
1413.5459650568
 30
0.0
 40
26.56195549622072
100
AcDbArc
 50
282.5267196435
 51
284.7633220947
  0
ARC
  5
211
330
1F
100
AcDbEntity
  8
1
  6
SLD-Сплошная
100
AcDbCircle
 10
769.7799095751
 20
1384.3084956043
 30
0.0
 40
23.4119119162972
100
AcDbArc
 50
8.7274979605
 51
11.6315804797
  0
ARC
  5
212
330
1F
100
AcDbEntity
  8
1
  6
SLD-Сплошная
100
AcDbCircle
 10
786.6819850092
 20
1412.0475293211
 30
0.0
 40
23.41191191551228
100
AcDbArc
 50
285.6584612585
 51
288.5625437778
  0
ARC
  5
213
330
1F
100
AcDbEntity
  8
1
  6
SLD-Сплошная
100
AcDbCircle
 10
768.205277687
 20
1384.0924296044
 30
0.0
 40
26.56195549591061
100
AcDbArc
 50
12.5267196435
 51
14.7633220947
  0
ARC
  5
214
330
1F
100
AcDbEntity
  8
1
  6
SLD-Сплошная
100
AcDbCircle
 10
797.4427471392
 20
1367.720297987
 30
0.0
 40
23.41191191597091
100
AcDbArc
 50
98.7274979604
 51
101.6315804797
  0
SPLINE
  5
215
330
1F
100
AcDbEntity
  8
1
  6
SLD-Сплошная
100
AcDbSpline
210
0.0
220
0.0
230
1.0
 70
     8
 71
     3
 72
    12
 73
     8
 74
     0
 42
0.00000001
 43
0.00000001
 40
0.0
 40
0.0
 40
0.0
 40
0.0
 40
0.2187857887072005
 40
0.437577646953476
 40
0.6562353658863848
 40
0.8748419359490978
 40
1.0
 40
1.0
 40
1.0
 40
1.0
 10
792.2467548642227
 20
1390.941305458252
 30
0.0
 10
792.2628912211245
 20
1390.899898598973
 30
0.0
 10
792.2951643825816
 20
1390.817083731707
 30
0.0
 10
792.3926027058677
 20
1390.719541885502
 30
0.0
 10
792.5132153922103
 20
1390.656997583706
 30
0.0
 10
792.6290415724131
 20
1390.63780453365
 30
0.0
 10
792.6975470614506
 20
1390.647792702018
 30
0.0
 10
792.722488586942
 20
1390.651429201216
 30
0.0
  0
ARC
  5
216
330
1F
100
AcDbEntity
  8
1
  6
SLD-Сплошная
100
AcDbCircle
 10
769.7037134219
 20
1384.6223734207
 30
0.0
 40
23.41191191610818
100
AcDbArc
 50
15.6584612585
 51
18.5625437778
  0
ARC
  5
217
330
1F
100
AcDbEntity
  8
1
  6
SLD-Сплошная
100
AcDbCircle
 10
797.6588131392
 20
1366.1456660982
 30
0.0
 40
26.56195549635452
100
AcDbArc
 50
102.5267196436
 51
104.7633220947
  0
ARC
  5
218
330
1F
100
AcDbEntity
  8
1
  6
SLD-Сплошная
100
AcDbCircle
 10
814.0309447568
 20
1395.3831355509
 30
0.0
 40
23.41191191627587
100
AcDbArc
 50
188.7274979605
 51
191.6315804797
  0
ARC
  5
219
330
1F
100
AcDbEntity
  8
1
  6
SLD-Сплошная
100
AcDbCircle
 10
797.1288693231
 20
1367.6441018328
 30
0.0
 40
23.41191191684906
100
AcDbArc
 50
105.6584612586
 51
108.5625437778
  0
CIRCLE
  5
21A
330
1F
100
AcDbEntity
  8
1
  6
SLD-Сплошная
100
AcDbCircle
 10
791.9054271659
 20
1389.8458155776
 30
0.0
 40
3.499999999999991
  0
ELLIPSE
  5
21B
330
1F
100
AcDbEntity
  8
1
  6
SLD-Сплошная
100
AcDbEllipse
 10
792.4618705822
 20
1390.7590290315
 30
0.0
 11
-0.2145091096841724
 21
-0.352044069943986
 31
0.0
210
0.0
220
0.0
230
1.0
 40
0.9702875252
 41
5.512866274278713
 42
7.053504340080268
  0
LINE
  5
21C
330
1F
100
AcDbEntity
  8
1
  6
SLD-Сплошная
100
AcDbLine
 10
793.8903357534
 20
1390.861127551
 30
0.0
 11
793.7664120156
 21
1390.6577486964
 31
0.0
  0
LINE
  5
21D
330
1F
100
AcDbEntity
  8
1
  6
SLD-Сплошная
100
AcDbLine
 10
793.7664120156
 20
1390.6577486964
 30
0.0
 11
792.5457867132
 21
1390.3614329074
 31
0.0
  0
LINE
  5
21E
330
1F
100
AcDbEntity
  8
1
  6
SLD-Сплошная
100
AcDbLine
 10
794.1349249097
 20
1389.8535818043
 30
0.0
 11
793.9315460552
 21
1389.9775055421
 31
0.0
  0
LINE
  5
21F
330
1F
100
AcDbEntity
  8
1
  6
SLD-Сплошная
100
AcDbLine
 10
792.7109207528
 20
1389.6811897531
 30
0.0
 11
793.9315460552
 21
1389.9775055421
 31
0.0
  0
LINE
  5
220
330
1F
100
AcDbEntity
  8
1
  6
SLD-Сплошная
100
AcDbLine
 10
791.9131933927
 20
1387.6163178338
 30
0.0
 11
792.0371171305
 21
1387.8196966884
 31
0.0
  0
LINE
  5
221
330
1F
100
AcDbEntity
  8
1
  6
SLD-Сплошная
100
AcDbLine
 10
791.7408013414
 20
1389.0403219908
 30
0.0
 11
792.0371171305
 21
1387.8196966884
 31
0.0
  0
LINE
  5
222
330
1F
100
AcDbEntity
  8
1
  6
SLD-Сплошная
100
AcDbLine
 10
789.6759294221
 20
1389.8380493509
 30
0.0
 11
789.8793082767
 21
1389.714125613
 31
0.0
  0
LINE
  5
223
330
1F
100
AcDbEntity
  8
1
  6
SLD-Сплошная
100
AcDbLine
 10
791.0999335791
 20
1390.0104414021
 30
0.0
 11
789.8793082767
 21
1389.714125613
 31
0.0
  0
LINE
  5
224
330
1F
100
AcDbEntity
  8
1
  6
SLD-Сплошная
100
AcDbLine
 10
789.9205185785
 20
1388.8305036042
 30
0.0
 11
790.0444423163
 21
1389.0338824588
 31
0.0
  0
LINE
  5
225
330
1F
100
AcDbEntity
  8
1
  6
SLD-Сплошная
100
AcDbLine
 10
790.0444423163
 20
1389.0338824588
 30
0.0
 11
791.2650676187
 21
1389.3301982478
 31
0.0
  0
LINE
  5
226
330
1F
100
AcDbEntity
  8
1
  6
SLD-Сплошная
100
AcDbLine
 10
791.8976609392
 20
1392.0753133214
 30
0.0
 11
791.7737372014
 21
1391.8719344668
 31
0.0
  0
LINE
  5
227
330
1F
100
AcDbEntity
  8
1
  6
SLD-Сплошная
100
AcDbLine
 10
792.0700529905
 20
1390.6513091644
 30
0.0
 11
791.7737372014
 21
1391.8719344668
 31
0.0
  0
LINE
  5
228
330
1F
100
AcDbEntity
  8
1
  6
SLD-Сплошная
100
AcDbLine
 10
790.8901151925
 20
1391.830724165
 30
0.0
 11
791.0934940471
 21
1391.7068004272
 31
0.0
  0
LINE
  5
229
330
1F
100
AcDbEntity
  8
1
  6
SLD-Сплошная
100
AcDbLine
 10
791.0934940471
 20
1391.7068004272
 30
0.0
 11
791.3898098362
 21
1390.4861751248
 31
0.0
  0
LINE
  5
22A
330
1F
100
AcDbEntity
  8
1
  6
SLD-Сплошная
100
AcDbLine
 10
792.9207391394
 20
1387.8609069901
 30
0.0
 11
792.7173602848
 21
1387.984830728
 31
0.0
  0
LINE
  5
22B
330
1F
100
AcDbEntity
  8
1
  6
SLD-Сплошная
100
AcDbLine
 10
792.7173602848
 20
1387.984830728
 30
0.0
 11
792.4210444957
 21
1389.2054560303
 31
0.0
  0
LINE
  5
22C
330
1F
100
AcDbEntity
  8
1
  6
SLD-Сплошная
100
AcDbLine
 10
792.0371171305
 20
1387.8196966884
 30
0.0
 11
792.7173602848
 21
1387.984830728
 31
0.0
  0
LINE
  5
22D
330
1F
100
AcDbEntity
  8
1
  6
SLD-Сплошная
100
AcDbLine
 10
791.7737372014
 20
1391.8719344668
 30
0.0
 11
791.0934940471
 21
1391.7068004272
 31
0.0
  0
LINE
  5
22E
330
1F
100
AcDbEntity
  8
1
  6
SLD-Сплошная
100
AcDbLine
 10
793.9315460552
 20
1389.9775055421
 30
0.0
 11
793.7664120156
 21
1390.6577486964
 31
0.0
  0
LINE
  5
22F
330
1F
100
AcDbEntity
  8
1
  6
SLD-Сплошная
100
AcDbLine
 10
789.8793082767
 20
1389.714125613
 30
0.0
 11
790.0444423163
 21
1389.0338824588
 31
0.0
  0
CIRCLE
  5
230
330
1F
100
AcDbEntity
  8
1
  6
SLD-Сплошная
100
AcDbCircle
 10
791.9054271659
 20
1389.8458155776
 30
0.0
 40
5.000000000000082
  0
ELLIPSE
  5
231
330
1F
100
AcDbEntity
  8
1
  6
SLD-Сплошная
100
AcDbEllipse
 10
1010.4748139472
 20
1247.3458155776
 30
0.0
 11
-0.4122489361055841
 21
0.0
 31
0.0
210
0.0
220
0.0
230
1.0
 40
0.9702875252
 41
5.51286627427823
 42
7.053504340080548
  0
SPLINE
  5
232
330
1F
100
AcDbEntity
  8
1
  6
SLD-Сплошная
100
AcDbSpline
210
0.0
220
0.0
230
1.0
 70
     8
 71
     3
 72
    12
 73
     8
 74
     0
 42
0.00000001
 43
0.00000001
 40
0.0
 40
0.0
 40
0.0
 40
0.0
 40
0.2187857887071872
 40
0.4375776469534928
 40
0.6562353658863584
 40
0.8748419359491
 40
1.0
 40
1.0
 40
1.0
 40
1.0
 10
1010.518537659759
 20
1247.624361273708
 30
0.0
 10
1010.491574233687
 20
1247.589035876839
 30
0.0
 10
1010.437646633526
 20
1247.518384103107
 30
0.0
 10
1010.405050744553
 20
1247.384420874465
 30
0.0
 10
1010.414399875795
 20
1247.248878248186
 30
0.0
 10
1010.458278633877
 20
1247.139980443892
 30
0.0
 10
1010.502454192163
 20
1247.086676733086
 30
0.0
 10
1010.518537659759
 20
1247.067269881452
 30
0.0
  0
ELLIPSE
  5
233
330
1F
100
AcDbEntity
  8
1
  6
SLD-Сплошная
100
AcDbEllipse
 10
1009.4054271659
 20
1246.2764287963
 30
0.0
 11
0.0
 21
0.4122489361054704
 31
0.0
210
0.0
220
0.0
230
1.0
 40
0.9702875252
 41
5.51286627427843
 42
7.053504340080551
  0
SPLINE
  5
234
330
1F
100
AcDbEntity
  8
1
  6
SLD-Сплошная
100
AcDbSpline
210
0.0
220
0.0
230
1.0
 70
     8
 71
     3
 72
    12
 73
     8
 74
     0
 42
0.00000001
 43
0.00000001
 40
0.0
 40
0.0
 40
0.0
 40
0.0
 40
0.218785788707225
 40
0.4375776469534876
 40
0.656235365886399
 40
0.8748419359490996
 40
1.0
 40
1.0
 40
1.0
 40
1.0
 10
1009.683972862075
 20
1246.232705083768
 30
0.0
 10
1009.648647465206
 20
1246.25966850984
 30
0.0
 10
1009.577995691474
 20
1246.313596110001
 30
0.0
 10
1009.444032462833
 20
1246.346191998974
 30
0.0
 10
1009.308489836553
 20
1246.336842867732
 30
0.0
 10
1009.199592032259
 20
1246.29296410965
 30
0.0
 10
1009.146288321453
 20
1246.248788551364
 30
0.0
 10
1009.126881469819
 20
1246.232705083768
 30
0.0
  0
ELLIPSE
  5
235
330
1F
100
AcDbEntity
  8
1
  6
SLD-Сплошная
100
AcDbEllipse
 10
1009.4054271659
 20
1248.4152023589
 30
0.0
 11
0.0
 21
-0.4122489361054704
 31
0.0
210
0.0
220
0.0
230
1.0
 40
0.9702875252
 41
5.512866274278492
 42
7.053504340080899
  0
SPLINE
  5
236
330
1F
100
AcDbEntity
  8
1
  6
SLD-Сплошная
100
AcDbSpline
210
0.0
220
0.0
230
1.0
 70
     8
 71
     3
 72
    12
 73
     8
 74
     0
 42
0.00000001
 43
0.00000001
 40
0.0
 40
0.0
 40
0.0
 40
0.0
 40
0.2187857887071718
 40
0.4375776469534864
 40
0.6562353658863612
 40
0.8748419359490948
 40
1.0
 40
1.0
 40
1.0
 40
1.0
 10
1009.126881469819
 20
1248.458926071392
 30
0.0
 10
1009.162206866688
 20
1248.43196264532
 30
0.0
 10
1009.23285864042
 20
1248.378035045159
 30
0.0
 10
1009.366821869061
 20
1248.345439156186
 30
0.0
 10
1009.502364495341
 20
1248.354788287427
 30
0.0
 10
1009.611262299635
 20
1248.398667045509
 30
0.0
 10
1009.664566010441
 20
1248.442842603796
 30
0.0
 10
1009.683972862075
 20
1248.458926071392
 30
0.0
  0
ELLIPSE
  5
237
330
1F
100
AcDbEntity
  8
1
  6
SLD-Сплошная
100
AcDbEllipse
 10
1008.3360403847
 20
1247.3458155776
 30
0.0
 11
0.4122489361058115
 21
0.0
 31
0.0
210
0.0
220
0.0
230
1.0
 40
0.9702875252
 41
5.512866274278462
 42
7.053504340081131
  0
SPLINE
  5
238
330
1F
100
AcDbEntity
  8
1
  6
SLD-Сплошная
100
AcDbSpline
210
0.0
220
0.0
230
1.0
 70
     8
 71
     3
 72
    12
 73
     8
 74
     0
 42
0.00000001
 43
0.00000001
 40
0.0
 40
0.0
 40
0.0
 40
0.0
 40
0.2187857887072096
 40
0.4375776469534813
 40
0.6562353658864019
 40
0.8748419359490944
 40
1.0
 40
1.0
 40
1.0
 40
1.0
 10
1008.292316672135
 20
1247.067269881452
 30
0.0
 10
1008.319280098207
 20
1247.102595278321
 30
0.0
 10
1008.373207698368
 20
1247.173247052053
 30
0.0
 10
1008.405803587342
 20
1247.307210280694
 30
0.0
 10
1008.396454456099
 20
1247.442752906974
 30
0.0
 10
1008.352575698018
 20
1247.551650711268
 30
0.0
 10
1008.308400139731
 20
1247.604954422074
 30
0.0
 10
1008.292316672135
 20
1247.624361273708
 30
0.0
  0
ARC
  5
239
330
1F
100
AcDbEntity
  8
1
  6
SLD-Сплошная
100
AcDbCircle
 10
992.160159185
 20
1264.5910835585
 30
0.0
 40
26.56195549561989
100
AcDbArc
 50
313.8816987744
 51
316.1183012256
  0
ARC
  5
23A
330
1F
100
AcDbEntity
  8
1
  6
SLD-Сплошная
100
AcDbCircle
 10
993.3924041923
 20
1231.1044013416
 30
0.0
 40
23.41191191602647
100
AcDbArc
 50
40.0824770913
 51
42.9865596106
  0
ARC
  5
23B
330
1F
100
AcDbEntity
  8
1
  6
SLD-Сплошная
100
AcDbCircle
 10
993.3924041923
 20
1263.5872298135
 30
0.0
 40
23.41191191602661
100
AcDbArc
 50
317.0134403894
 51
319.9175229087
  0
ARC
  5
23C
330
1F
100
AcDbEntity
  8
1
  6
SLD-Сплошная
100
AcDbCircle
 10
992.1601591847
 20
1230.1005475963
 30
0.0
 40
26.56195549614473
100
AcDbArc
 50
43.8816987744
 51
46.1183012256
  0
ARC
  5
23D
330
1F
100
AcDbEntity
  8
1
  6
SLD-Сплошная
100
AcDbCircle
 10
1025.6468414021
 20
1231.3327926037
 30
0.0
 40
23.4119119163775
100
AcDbArc
 50
130.0824770913
 51
132.9865596106
  0
ARC
  5
23E
330
1F
100
AcDbEntity
  8
1
  6
SLD-Сплошная
100
AcDbCircle
 10
993.1640129298
 20
1231.3327926037
 30
0.0
 40
23.41191191637863
100
AcDbArc
 50
47.0134403894
 51
49.9175229087
  0
ARC
  5
23F
330
1F
100
AcDbEntity
  8
1
  6
SLD-Сплошная
100
AcDbCircle
 10
1026.6506951469
 20
1230.1005475967
 30
0.0
 40
26.56195549562677
100
AcDbArc
 50
133.8816987744
 51
136.1183012256
  0
ARC
  5
240
330
1F
100
AcDbEntity
  8
1
  6
SLD-Сплошная
100
AcDbCircle
 10
1025.41845014
 20
1263.5872298139
 30
0.0
 40
23.41191191660977
100
AcDbArc
 50
220.0824770913
 51
222.9865596106
  0
ARC
  5
241
330
1F
100
AcDbEntity
  8
1
  6
SLD-Сплошная
100
AcDbCircle
 10
1025.41845014
 20
1231.1044013413
 30
0.0
 40
23.41191191660961
100
AcDbArc
 50
137.0134403894
 51
139.9175229087
  0
ARC
  5
242
330
1F
100
AcDbEntity
  8
1
  6
SLD-Сплошная
100
AcDbCircle
 10
1026.6506951467
 20
1264.5910835583
 30
0.0
 40
26.56195549537608
100
AcDbArc
 50
223.8816987744
 51
226.1183012256
  0
ARC
  5
243
330
1F
100
AcDbEntity
  8
1
  6
SLD-Сплошная
100
AcDbCircle
 10
993.16401293
 20
1263.3588385512
 30
0.0
 40
23.41191191604454
100
AcDbArc
 50
310.0824770913
 51
312.9865596106
  0
ARC
  5
244
330
1F
100
AcDbEntity
  8
1
  6
SLD-Сплошная
100
AcDbCircle
 10
1025.6468414019
 20
1263.3588385512
 30
0.0
 40
23.4119119160435
100
AcDbArc
 50
227.0134403894
 51
229.9175229087
  0
CIRCLE
  5
245
330
1F
100
AcDbEntity
  8
1
  6
SLD-Сплошная
100
AcDbCircle
 10
1009.4054271659
 20
1247.3458155776
 30
0.0
 40
3.500000000000028
  0
LINE
  5
246
330
1F
100
AcDbEntity
  8
1
  6
SLD-Сплошная
100
AcDbLine
 10
1010.5721533549
 20
1245.4459549238
 30
0.0
 11
1010.5721533549
 21
1245.6841146418
 31
0.0
  0
LINE
  5
247
330
1F
100
AcDbEntity
  8
1
  6
SLD-Сплошная
100
AcDbLine
 10
1009.6839728621
 20
1246.5722951346
 30
0.0
 11
1010.5721533549
 21
1245.6841146418
 31
0.0
  0
LINE
  5
248
330
1F
100
AcDbEntity
  8
1
  6
SLD-Сплошная
100
AcDbLine
 10
1011.3052878198
 20
1246.1790893886
 30
0.0
 11
1011.0671281017
 21
1246.1790893886
 31
0.0
  0
LINE
  5
249
330
1F
100
AcDbEntity
  8
1
  6
SLD-Сплошная
100
AcDbLine
 10
1011.0671281017
 20
1246.1790893886
 30
0.0
 11
1010.1789476089
 21
1247.0672698815
 31
0.0
  0
LINE
  5
24A
330
1F
100
AcDbEntity
  8
1
  6
SLD-Сплошная
100
AcDbLine
 10
1007.5055665121
 20
1246.1790893886
 30
0.0
 11
1007.7437262302
 21
1246.1790893886
 31
0.0
  0
LINE
  5
24B
330
1F
100
AcDbEntity
  8
1
  6
SLD-Сплошная
100
AcDbLine
 10
1008.631906723
 20
1247.0672698815
 30
0.0
 11
1007.7437262302
 21
1246.1790893886
 31
0.0
  0
LINE
  5
24C
330
1F
100
AcDbEntity
  8
1
  6
SLD-Сплошная
100
AcDbLine
 10
1011.3052878198
 20
1248.5125417665
 30
0.0
 11
1011.0671281017
 21
1248.5125417665
 31
0.0
  0
LINE
  5
24D
330
1F
100
AcDbEntity
  8
1
  6
SLD-Сплошная
100
AcDbLine
 10
1010.1789476089
 20
1247.6243612737
 30
0.0
 11
1011.0671281017
 21
1248.5125417665
 31
0.0
  0
LINE
  5
24E
330
1F
100
AcDbEntity
  8
1
  6
SLD-Сплошная
100
AcDbLine
 10
1008.238700977
 20
1249.2456762314
 30
0.0
 11
1008.238700977
 21
1249.0075165134
 31
0.0
  0
LINE
  5
24F
330
1F
100
AcDbEntity
  8
1
  6
SLD-Сплошная
100
AcDbLine
 10
1009.1268814698
 20
1248.1193360205
 30
0.0
 11
1008.238700977
 21
1249.0075165134
 31
0.0
  0
LINE
  5
250
330
1F
100
AcDbEntity
  8
1
  6
SLD-Сплошная
100
AcDbLine
 10
1008.238700977
 20
1245.4459549238
 30
0.0
 11
1008.238700977
 21
1245.6841146418
 31
0.0
  0
LINE
  5
251
330
1F
100
AcDbEntity
  8
1
  6
SLD-Сплошная
100
AcDbLine
 10
1008.238700977
 20
1245.6841146418
 30
0.0
 11
1009.1268814698
 21
1246.5722951346
 31
0.0
  0
LINE
  5
252
330
1F
100
AcDbEntity
  8
1
  6
SLD-Сплошная
100
AcDbLine
 10
1010.5721533549
 20
1249.2456762314
 30
0.0
 11
1010.5721533549
 21
1249.0075165134
 31
0.0
  0
LINE
  5
253
330
1F
100
AcDbEntity
  8
1
  6
SLD-Сплошная
100
AcDbLine
 10
1010.5721533549
 20
1249.0075165134
 30
0.0
 11
1009.6839728621
 21
1248.1193360205
 31
0.0
  0
LINE
  5
254
330
1F
100
AcDbEntity
  8
1
  6
SLD-Сплошная
100
AcDbLine
 10
1007.5055665121
 20
1248.5125417665
 30
0.0
 11
1007.7437262302
 21
1248.5125417665
 31
0.0
  0
LINE
  5
255
330
1F
100
AcDbEntity
  8
1
  6
SLD-Сплошная
100
AcDbLine
 10
1007.7437262302
 20
1248.5125417665
 30
0.0
 11
1008.631906723
 21
1247.6243612737
 31
0.0
  0
LINE
  5
256
330
1F
100
AcDbEntity
  8
1
  6
SLD-Сплошная
100
AcDbLine
 10
1007.7437262302
 20
1246.1790893886
 30
0.0
 11
1008.238700977
 21
1245.6841146418
 31
0.0
  0
LINE
  5
257
330
1F
100
AcDbEntity
  8
1
  6
SLD-Сплошная
100
AcDbLine
 10
1011.0671281017
 20
1248.5125417665
 30
0.0
 11
1010.5721533549
 21
1249.0075165134
 31
0.0
  0
LINE
  5
258
330
1F
100
AcDbEntity
  8
1
  6
SLD-Сплошная
100
AcDbLine
 10
1010.5721533549
 20
1245.6841146418
 30
0.0
 11
1011.0671281017
 21
1246.1790893886
 31
0.0
  0
LINE
  5
259
330
1F
100
AcDbEntity
  8
1
  6
SLD-Сплошная
100
AcDbLine
 10
1008.238700977
 20
1249.0075165134
 30
0.0
 11
1007.7437262302
 21
1248.5125417665
 31
0.0
  0
CIRCLE
  5
25A
330
1F
100
AcDbEntity
  8
1
  6
SLD-Сплошная
100
AcDbCircle
 10
1009.4054271659
 20
1247.3458155776
 30
0.0
 40
4.999999999999879
  0
ARC
  5
25B
330
1F
100
AcDbEntity
  8
1
  6
SLD-Сплошная
100
AcDbCircle
 10
768.2052776867
 20
1235.5992015508
 30
0.0
 40
26.56195549623535
100
AcDbArc
 50
345.2366779053
 51
347.4732803565
  0
ARC
  5
25C
330
1F
100
AcDbEntity
  8
1
  6
SLD-Сплошная
100
AcDbCircle
 10
786.681985009
 20
1207.6441018333
 30
0.0
 40
23.41191191633994
100
AcDbArc
 50
71.4374562222
 51
74.3415387414
  0
SPLINE
  5
25D
330
1F
100
AcDbEntity
  8
1
  6
SLD-Сплошная
100
AcDbSpline
210
0.0
220
0.0
230
1.0
 70
     8
 71
     3
 72
    12
 73
     8
 74
     0
 42
0.00000001
 43
0.00000001
 40
0.0
 40
0.0
 40
0.0
 40
0.0
 40
0.2187857887071979
 40
0.4375776469535063
 40
0.656235365886396
 40
0.8748419359490901
 40
1.0
 40
1.0
 40
1.0
 40
1.0
 10
792.7110407895834
 20
1230.662876998575
 30
0.0
 10
792.7063962783312
 20
1230.61868040906
 30
0.0
 10
792.6971071269792
 20
1230.530286003932
 30
0.0
 10
792.7389778074756
 20
1230.398925870252
 30
0.0
 10
792.8174896760719
 20
1230.288042615053
 30
0.0
 10
792.911624127919
 20
1230.217880074006
 30
0.0
 10
792.9770842723017
 20
1230.195347097438
 30
0.0
 10
793.0009170466199
 20
1230.187143275855
 30
0.0
  0
ARC
  5
25E
330
1F
100
AcDbEntity
  8
1
  6
SLD-Сплошная
100
AcDbCircle
 10
769.7799095753
 20
1235.3831355508
 30
0.0
 40
23.41191191608471
100
AcDbArc
 50
348.3684195203
 51
351.2725020396
  0
ARC
  5
25F
330
1F
100
AcDbEntity
  8
1
  6
SLD-Сплошная
100
AcDbCircle
 10
786.1520411927
 20
1206.1456660983
 30
0.0
 40
26.56195549621809
100
AcDbArc
 50
75.2366779053
 51
77.4732803565
  0
ARC
  5
260
330
1F
100
AcDbEntity
  8
1
  6
SLD-Сплошная
100
AcDbCircle
 10
814.1071409103
 20
1224.6223734206
 30
0.0
 40
23.41191191638877
100
AcDbArc
 50
161.4374562222
 51
164.3415387414
  0
SPLINE
  5
261
330
1F
100
AcDbEntity
  8
1
  6
SLD-Сплошная
100
AcDbSpline
210
0.0
220
0.0
230
1.0
 70
     8
 71
     3
 72
    12
 73
     8
 74
     0
 42
0.00000001
 43
0.00000001
 40
0.0
 40
0.0
 40
0.0
 40
0.0
 40
0.2187857887072001
 40
0.4375776469534799
 40
0.656235365886367
 40
0.8748419359490702
 40
1.0
 40
1.0
 40
1.0
 40
1.0
 10
791.0883657449523
 20
1230.651429201216
 30
0.0
 10
791.1325623344669
 20
1230.646784689964
 30
0.0
 10
791.2209567395946
 20
1230.637495538612
 30
0.0
 10
791.3523168732753
 20
1230.679366219108
 30
0.0
 10
791.4632001284737
 20
1230.757878087705
 30
0.0
 10
791.5333626695216
 20
1230.852012539552
 30
0.0
 10
791.5558956460894
 20
1230.917472683934
 30
0.0
 10
791.5640994676716
 20
1230.941305458253
 30
0.0
  0
ARC
  5
262
330
1F
100
AcDbEntity
  8
1
  6
SLD-Сплошная
100
AcDbCircle
 10
786.3681071927
 20
1207.7202979867
 30
0.0
 40
23.41191191627943
100
AcDbArc
 50
78.3684195203
 51
81.2725020395
  0
ARC
  5
263
330
1F
100
AcDbEntity
  8
1
  6
SLD-Сплошная
100
AcDbCircle
 10
815.6055766444
 20
1224.0924296045
 30
0.0
 40
26.56195549539888
100
AcDbArc
 50
165.2366779053
 51
167.4732803565
  0
ARC
  5
264
330
1F
100
AcDbEntity
  8
1
  6
SLD-Сплошная
100
AcDbCircle
 10
797.128869323
 20
1252.047529322
 30
0.0
 40
23.41191191646713
100
AcDbArc
 50
251.4374562222
 51
254.3415387414
  0
SPLINE
  5
265
330
1F
100
AcDbEntity
  8
1
  6
SLD-Сплошная
100
AcDbSpline
210
0.0
220
0.0
230
1.0
 70
     8
 71
     3
 72
    12
 73
     8
 74
     0
 42
0.00000001
 43
0.00000001
 40
0.0
 40
0.0
 40
0.0
 40
0.0
 40
0.218785788707163
 40
0.4375776469534812
 40
0.6562353658863812
 40
0.8748419359490849
 40
1.0
 40
1.0
 40
1.0
 40
1.0
 10
791.0998135423108
 20
1229.028754156585
 30
0.0
 10
791.1044580535631
 20
1229.0729507461
 30
0.0
 10
791.1137472049152
 20
1229.161345151227
 30
0.0
 10
791.0718765244187
 20
1229.292705284908
 30
0.0
 10
790.9933646558223
 20
1229.403588540107
 30
0.0
 10
790.8992302039752
 20
1229.473751081154
 30
0.0
 10
790.8337700595927
 20
1229.496284057722
 30
0.0
 10
790.8099372852744
 20
1229.504487879304
 30
0.0
  0
ARC
  5
266
330
1F
100
AcDbEntity
  8
1
  6
SLD-Сплошная
100
AcDbCircle
 10
814.0309447567
 20
1224.3084956043
 30
0.0
 40
23.41191191624343
100
AcDbArc
 50
168.3684195203
 51
171.2725020396
  0
ARC
  5
267
330
1F
100
AcDbEntity
  8
1
  6
SLD-Сплошная
100
AcDbCircle
 10
797.6588131391
 20
1253.5459650564
 30
0.0
 40
26.56195549579265
100
AcDbArc
 50
255.2366779053
 51
257.4732803565
  0
ARC
  5
268
330
1F
100
AcDbEntity
  8
1
  6
SLD-Сплошная
100
AcDbCircle
 10
769.7037134216
 20
1235.0692577345
 30
0.0
 40
23.41191191633566
100
AcDbArc
 50
341.4374562222
 51
344.3415387414
  0
SPLINE
  5
269
330
1F
100
AcDbEntity
  8
1
  6
SLD-Сплошная
100
AcDbSpline
210
0.0
220
0.0
230
1.0
 70
     8
 71
     3
 72
    12
 73
     8
 74
     0
 42
0.00000001
 43
0.00000001
 40
0.0
 40
0.0
 40
0.0
 40
0.0
 40
0.2187857887071963
 40
0.4375776469534701
 40
0.6562353658863769
 40
0.8748419359490738
 40
1.0
 40
1.0
 40
1.0
 40
1.0
 10
792.722488586942
 20
1229.040201953944
 30
0.0
 10
792.6782919974273
 20
1229.044846465196
 30
0.0
 10
792.5898975922997
 20
1229.054135616548
 30
0.0
 10
792.4585374586189
 20
1229.012264936051
 30
0.0
 10
792.3476542034206
 20
1228.933753067455
 30
0.0
 10
792.2774916623728
 20
1228.839618615608
 30
0.0
 10
792.2549586858049
 20
1228.774158471226
 30
0.0
 10
792.2467548642227
 20
1228.750325696907
 30
0.0
  0
ARC
  5
26A
330
1F
100
AcDbEntity
  8
1
  6
SLD-Сплошная
100
AcDbCircle
 10
797.4427471393
 20
1251.9713331688
 30
0.0
 40
23.41191191662093
100
AcDbArc
 50
258.3684195203
 51
261.2725020395
  0
CIRCLE
  5
26B
330
1F
100
AcDbEntity
  8
1
  6
SLD-Сплошная
100
AcDbCircle
 10
791.9054271659
 20
1229.8458155776
 30
0.0
 40
3.499999999999937
  0
ELLIPSE
  5
26C
330
1F
100
AcDbEntity
  8
1
  6
SLD-Сплошная
100
AcDbEllipse
 10
792.8186406199
 20
1230.4022589939
 30
0.0
 11
-0.3520440699438723
 21
-0.2145091096842861
 31
0.0
210
0.0
220
0.0
230
1.0
 40
0.9702875252
 41
5.512866274278031
 42
7.053504340080465
  0
ELLIPSE
  5
26D
330
1F
100
AcDbEntity
  8
1
  6
SLD-Сплошная
100
AcDbEllipse
 10
792.4618705822
 20
1228.9326021236
 30
0.0
 11
-0.2145091096842862
 21
0.3520440699442133
 31
0.0
210
0.0
220
0.0
230
1.0
 40
0.9702875252
 41
5.512866274278784
 42
7.053504340080561
  0
ELLIPSE
  5
26E
330
1F
100
AcDbEntity
  8
1
  6
SLD-Сплошная
100
AcDbEllipse
 10
791.3489837497
 20
1230.7590290315
 30
0.0
 11
0.2145091096840588
 21
-0.3520440699442134
 31
0.0
210
0.0
220
0.0
230
1.0
 40
0.9702875252
 41
5.512866274279241
 42
7.053504340080424
  0
ELLIPSE
  5
26F
330
1F
100
AcDbEntity
  8
1
  6
SLD-Сплошная
100
AcDbEllipse
 10
790.992213712
 20
1229.2893721613
 30
0.0
 11
0.352044069943986
 21
0.2145091096842862
 31
0.0
210
0.0
220
0.0
230
1.0
 40
0.9702875252
 41
5.51286627427842
 42
7.0535043400807
  0
LINE
  5
270
330
1F
100
AcDbEntity
  8
1
  6
SLD-Сплошная
100
AcDbLine
 10
794.1349249097
 20
1229.8380493509
 30
0.0
 11
793.9315460552
 21
1229.714125613
 31
0.0
  0
LINE
  5
271
330
1F
100
AcDbEntity
  8
1
  6
SLD-Сплошная
100
AcDbLine
 10
793.9315460552
 20
1229.714125613
 30
0.0
 11
792.7109207528
 21
1230.0104414021
 31
0.0
  0
LINE
  5
272
330
1F
100
AcDbEntity
  8
1
  6
SLD-Сплошная
100
AcDbLine
 10
793.8903357534
 20
1228.8305036042
 30
0.0
 11
793.7664120156
 21
1229.0338824588
 31
0.0
  0
LINE
  5
273
330
1F
100
AcDbEntity
  8
1
  6
SLD-Сплошная
100
AcDbLine
 10
792.5457867132
 20
1229.3301982478
 30
0.0
 11
793.7664120156
 21
1229.0338824588
 31
0.0
  0
LINE
  5
274
330
1F
100
AcDbEntity
  8
1
  6
SLD-Сплошная
100
AcDbLine
 10
790.8901151925
 20
1227.8609069901
 30
0.0
 11
791.0934940471
 21
1227.984830728
 31
0.0
  0
LINE
  5
275
330
1F
100
AcDbEntity
  8
1
  6
SLD-Сплошная
100
AcDbLine
 10
791.3898098362
 20
1229.2054560303
 30
0.0
 11
791.0934940471
 21
1227.984830728
 31
0.0
  0
LINE
  5
276
330
1F
100
AcDbEntity
  8
1
  6
SLD-Сплошная
100
AcDbLine
 10
789.9205185785
 20
1230.861127551
 30
0.0
 11
790.0444423163
 21
1230.6577486964
 31
0.0
  0
LINE
  5
277
330
1F
100
AcDbEntity
  8
1
  6
SLD-Сплошная
100
AcDbLine
 10
791.2650676187
 20
1230.3614329074
 30
0.0
 11
790.0444423163
 21
1230.6577486964
 31
0.0
  0
LINE
  5
278
330
1F
100
AcDbEntity
  8
1
  6
SLD-Сплошная
100
AcDbLine
 10
791.8976609392
 20
1227.6163178338
 30
0.0
 11
791.7737372014
 21
1227.8196966884
 31
0.0
  0
LINE
  5
279
330
1F
100
AcDbEntity
  8
1
  6
SLD-Сплошная
100
AcDbLine
 10
791.7737372014
 20
1227.8196966884
 30
0.0
 11
792.0700529905
 21
1229.0403219908
 31
0.0
  0
LINE
  5
27A
330
1F
100
AcDbEntity
  8
1
  6
SLD-Сплошная
100
AcDbLine
 10
789.6759294221
 20
1229.8535818043
 30
0.0
 11
789.8793082767
 21
1229.9775055421
 31
0.0
  0
LINE
  5
27B
330
1F
100
AcDbEntity
  8
1
  6
SLD-Сплошная
100
AcDbLine
 10
789.8793082767
 20
1229.9775055421
 30
0.0
 11
791.0999335791
 21
1229.6811897531
 31
0.0
  0
LINE
  5
27C
330
1F
100
AcDbEntity
  8
1
  6
SLD-Сплошная
100
AcDbLine
 10
792.9207391394
 20
1231.830724165
 30
0.0
 11
792.7173602848
 21
1231.7068004272
 31
0.0
  0
LINE
  5
27D
330
1F
100
AcDbEntity
  8
1
  6
SLD-Сплошная
100
AcDbLine
 10
792.4210444957
 20
1230.4861751248
 30
0.0
 11
792.7173602848
 21
1231.7068004272
 31
0.0
  0
LINE
  5
27E
330
1F
100
AcDbEntity
  8
1
  6
SLD-Сплошная
100
AcDbLine
 10
791.9131933927
 20
1232.0753133214
 30
0.0
 11
792.0371171305
 21
1231.8719344668
 31
0.0
  0
LINE
  5
27F
330
1F
100
AcDbEntity
  8
1
  6
SLD-Сплошная
100
AcDbLine
 10
792.0371171305
 20
1231.8719344668
 30
0.0
 11
791.7408013414
 21
1230.6513091644
 31
0.0
  0
LINE
  5
280
330
1F
100
AcDbEntity
  8
1
  6
SLD-Сплошная
100
AcDbLine
 10
792.7173602848
 20
1231.7068004272
 30
0.0
 11
792.0371171305
 21
1231.8719344668
 31
0.0
  0
LINE
  5
281
330
1F
100
AcDbEntity
  8
1
  6
SLD-Сплошная
100
AcDbLine
 10
793.7664120156
 20
1229.0338824588
 30
0.0
 11
793.9315460552
 21
1229.714125613
 31
0.0
  0
LINE
  5
282
330
1F
100
AcDbEntity
  8
1
  6
SLD-Сплошная
100
AcDbLine
 10
791.0934940471
 20
1227.984830728
 30
0.0
 11
791.7737372014
 21
1227.8196966884
 31
0.0
  0
LINE
  5
283
330
1F
100
AcDbEntity
  8
1
  6
SLD-Сплошная
100
AcDbLine
 10
790.0444423163
 20
1230.6577486964
 30
0.0
 11
789.8793082767
 21
1229.9775055421
 31
0.0
  0
CIRCLE
  5
284
330
1F
100
AcDbEntity
  8
1
  6
SLD-Сплошная
100
AcDbCircle
 10
791.9054271659
 20
1229.8458155776
 30
0.0
 40
5.000000000000028
  0
ELLIPSE
  5
285
330
1F
100
AcDbEntity
  8
1
  6
SLD-Сплошная
100
AcDbEllipse
 10
575.0317373212
 20
1308.9790262852
 30
0.0
 11
-0.2414427592460697
 21
0.3341475412566979
 31
0.0
210
0.0
220
0.0
230
1.0
 40
0.9702875252
 41
5.512866274278567
 42
7.053504340080725
  0
SPLINE
  5
286
330
1F
100
AcDbEntity
  8
1
  6
SLD-Сплошная
100
AcDbSpline
210
0.0
220
0.0
230
1.0
 70
     8
 71
     3
 72
    12
 73
     8
 74
     0
 42
0.00000001
 43
0.00000001
 40
0.0
 40
0.0
 40
0.0
 40
0.0
 40
0.2187857887071989
 40
0.4375776469534885
 40
0.6562353658863966
 40
0.8748419359491308
 40
1.0
 40
1.0
 40
1.0
 40
1.0
 10
575.2831197365542
 20
1309.106722601177
 30
0.0
 10
575.2386950773416
 20
1309.107888647205
 30
0.0
 10
575.1498445264908
 20
1309.110220771609
 30
0.0
 10
575.0221703950784
 20
1309.058182758829
 30
0.0
 10
574.9177821201934
 20
1308.971221285404
 30
0.0
 10
574.8552137958864
 20
1308.871877025458
 30
0.0
 10
574.8378809792412
 20
1308.804852112159
 30
0.0
 10
574.8315704354544
 20
1308.780449635699
 30
0.0
  0
ELLIPSE
  5
287
330
1F
100
AcDbEntity
  8
1
  6
SLD-Сплошная
100
AcDbEllipse
 10
573.5386378736
 20
1309.2195054223
 30
0.0
 11
0.3341475412565842
 21
0.2414427592461834
 31
0.0
210
0.0
220
0.0
230
1.0
 40
0.9702875252
 41
5.512866274278092
 42
7.053504340080064
  0
SPLINE
  5
288
330
1F
100
AcDbEntity
  8
1
  6
SLD-Сплошная
100
AcDbSpline
210
0.0
220
0.0
230
1.0
 70
     8
 71
     3
 72
    12
 73
     8
 74
     0
 42
0.00000001
 43
0.00000001
 40
0.0
 40
0.0
 40
0.0
 40
0.0
 40
0.2187857887072338
 40
0.4375776469534699
 40
0.6562353658863723
 40
0.8748419359490949
 40
1.0
 40
1.0
 40
1.0
 40
1.0
 10
573.6663341895445
 20
1308.968123006973
 30
0.0
 10
573.6675002355722
 20
1309.012547666185
 30
0.0
 10
573.6698323599757
 20
1309.101398217036
 30
0.0
 10
573.617794347197
 20
1309.229072348449
 30
0.0
 10
573.5308328737711
 20
1309.333460623334
 30
0.0
 10
573.431488613825
 20
1309.396028947641
 30
0.0
 10
573.364463700526
 20
1309.413361764286
 30
0.0
 10
573.3400612240661
 20
1309.419672308072
 30
0.0
  0
ELLIPSE
  5
289
330
1F
100
AcDbEntity
  8
1
  6
SLD-Сплошная
100
AcDbEllipse
 10
573.7791170107
 20
1310.71260487
 30
0.0
 11
0.2414427592460697
 21
-0.3341475412566979
 31
0.0
210
0.0
220
0.0
230
1.0
 40
0.9702875252
 41
5.512866274278729
 42
7.053504340080893
  0
SPLINE
  5
28A
330
1F
100
AcDbEntity
  8
1
  6
SLD-Сплошная
100
AcDbSpline
210
0.0
220
0.0
230
1.0
 70
     8
 71
     3
 72
    12
 73
     8
 74
     0
 42
0.00000001
 43
0.00000001
 40
0.0
 40
0.0
 40
0.0
 40
0.0
 40
0.2187857887071923
 40
0.4375776469534917
 40
0.6562353658863643
 40
0.874841935949092
 40
1.0
 40
1.0
 40
1.0
 40
1.0
 10
573.5277345953401
 20
1310.584908553982
 30
0.0
 10
573.5721592545526
 20
1310.583742507955
 30
0.0
 10
573.6610098054034
 20
1310.581410383551
 30
0.0
 10
573.7886839368156
 20
1310.63344839633
 30
0.0
 10
573.8930722117009
 20
1310.720409869756
 30
0.0
 10
573.9556405360079
 20
1310.819754129702
 30
0.0
 10
573.9729733526532
 20
1310.886779043001
 30
0.0
 10
573.9792838964398
 20
1310.911181519461
 30
0.0
  0
ELLIPSE
  5
28B
330
1F
100
AcDbEntity
  8
1
  6
SLD-Сплошная
100
AcDbEllipse
 10
575.2722164583
 20
1310.4721257328
 30
0.0
 11
-0.3341475412566979
 21
-0.2414427592461834
 31
0.0
210
0.0
220
0.0
230
0.9999999999999999
 40
0.9702875252
 41
5.512866274278321
 42
7.053504340080544
  0
SPLINE
  5
28C
330
1F
100
AcDbEntity
  8
1
  6
SLD-Сплошная
100
AcDbSpline
210
0.0
220
0.0
230
1.0
 70
     8
 71
     3
 72
    12
 73
     8
 74
     0
 42
0.00000001
 43
0.00000001
 40
0.0
 40
0.0
 40
0.0
 40
0.0
 40
0.2187857887071898
 40
0.4375776469534868
 40
0.6562353658863918
 40
0.8748419359490933
 40
1.0
 40
1.0
 40
1.0
 40
1.0
 10
575.1445201423497
 20
1310.723508148187
 30
0.0
 10
575.1433540963221
 20
1310.679083488974
 30
0.0
 10
575.1410219719185
 20
1310.590232938124
 30
0.0
 10
575.1930599846974
 20
1310.462558806711
 30
0.0
 10
575.2800214581232
 20
1310.358170531826
 30
0.0
 10
575.3793657180693
 20
1310.295602207519
 30
0.0
 10
575.4463906313683
 20
1310.278269390874
 30
0.0
 10
575.4707931078282
 20
1310.271958847087
 30
0.0
  0
ARC
  5
28D
330
1F
100
AcDbEntity
  8
1
  6
SLD-Сплошная
100
AcDbCircle
 10
578.2834694577
 20
1333.9240074427
 30
0.0
 40
26.56195549652635
100
AcDbArc
 50
259.732193907
 51
261.9687963581
  0
ARC
  5
28E
330
1F
100
AcDbEntity
  8
1
  6
SLD-Сплошная
100
AcDbCircle
 10
551.8625986218
 20
1313.312993446
 30
0.0
 40
23.41191191616889
100
AcDbArc
 50
345.9329722238
 51
348.8370547431
  0
ARC
  5
28F
330
1F
100
AcDbEntity
  8
1
  6
SLD-Сплошная
100
AcDbCircle
 10
578.191489533
 20
1332.3372844694
 30
0.0
 40
23.41191191647735
100
AcDbArc
 50
262.863935522
 51
265.7680180412
  0
ARC
  5
290
330
1F
100
AcDbEntity
  8
1
  6
SLD-Сплошная
100
AcDbCircle
 10
550.3272353012
 20
1313.7238578693
 30
0.0
 40
26.5619554961649
100
AcDbArc
 50
349.7321939069
 51
351.9687963581
  0
ARC
  5
291
330
1F
100
AcDbEntity
  8
1
  6
SLD-Сплошная
100
AcDbCircle
 10
570.9382492975
 20
1287.3029870336
 30
0.0
 40
23.41191191601195
100
AcDbArc
 50
75.9329722238
 51
78.8370547431
  0
ARC
  5
292
330
1F
100
AcDbEntity
  8
1
  6
SLD-Сплошная
100
AcDbCircle
 10
551.9139582743
 20
1313.6318779447
 30
0.0
 40
23.41191191629794
100
AcDbArc
 50
352.8639355219
 51
355.7680180412
  0
ARC
  5
293
330
1F
100
AcDbEntity
  8
1
  6
SLD-Сплошная
100
AcDbCircle
 10
570.5273848744
 20
1285.7676237134
 30
0.0
 40
26.56195549559833
100
AcDbArc
 50
79.7321939069
 51
81.9687963581
  0
ARC
  5
294
330
1F
100
AcDbEntity
  8
1
  6
SLD-Сплошная
100
AcDbCircle
 10
596.9482557102
 20
1306.3786377091
 30
0.0
 40
23.41191191625028
100
AcDbArc
 50
165.9329722238
 51
168.8370547431
  0
ARC
  5
295
330
1F
100
AcDbEntity
  8
1
  6
SLD-Сплошная
100
AcDbCircle
 10
570.6193647989
 20
1287.3543466865
 30
0.0
 40
23.41191191575336
100
AcDbArc
 50
82.8639355219
 51
85.7680180412
  0
ARC
  5
296
330
1F
100
AcDbEntity
  8
1
  6
SLD-Сплошная
100
AcDbCircle
 10
598.48361903
 20
1305.967773286
 30
0.0
 40
26.56195549546411
100
AcDbArc
 50
169.7321939069
 51
171.9687963581
  0
ARC
  5
297
330
1F
100
AcDbEntity
  8
1
  6
SLD-Сплошная
100
AcDbCircle
 10
577.8726050344
 20
1332.3886441219
 30
0.0
 40
23.41191191630123
100
AcDbArc
 50
255.9329722238
 51
258.8370547431
  0
ARC
  5
298
330
1F
100
AcDbEntity
  8
1
  6
SLD-Сплошная
100
AcDbCircle
 10
596.8968960575
 20
1306.0597532105
 30
0.0
 40
23.41191191629134
100
AcDbArc
 50
172.863935522
 51
175.7680180412
  0
CIRCLE
  5
299
330
1F
100
AcDbEntity
  8
1
  6
SLD-Сплошная
100
AcDbCircle
 10
574.4054271659
 20
1309.8458155776
 30
0.0
 40
3.500000000000013
  0
LINE
  5
29A
330
1F
100
AcDbEntity
  8
1
  6
SLD-Сплошная
100
AcDbLine
 10
574.2384190671
 20
1312.069062932
 30
0.0
 11
574.3779026034
 21
1311.8760230543
 31
0.0
  0
LINE
  5
29B
330
1F
100
AcDbEntity
  8
1
  6
SLD-Сплошная
100
AcDbLine
 10
574.3779026034
 20
1311.8760230543
 30
0.0
 11
574.1781723634
 21
1310.6359274907
 31
0.0
  0
LINE
  5
29C
330
1F
100
AcDbEntity
  8
1
  6
SLD-Сплошная
100
AcDbLine
 10
575.2620362313
 20
1311.9041987812
 30
0.0
 11
575.0689963536
 21
1311.7647152449
 31
0.0
  0
LINE
  5
29D
330
1F
100
AcDbEntity
  8
1
  6
SLD-Сплошная
100
AcDbLine
 10
574.8692661136
 20
1310.5246196813
 30
0.0
 11
575.0689963536
 21
1311.7647152449
 31
0.0
  0
LINE
  5
29E
330
1F
100
AcDbEntity
  8
1
  6
SLD-Сплошная
100
AcDbLine
 10
572.3470439623
 20
1310.7024246429
 30
0.0
 11
572.4865274986
 21
1310.5093847653
 31
0.0
  0
LINE
  5
29F
330
1F
100
AcDbEntity
  8
1
  6
SLD-Сплошная
100
AcDbLine
 10
573.7266230623
 20
1310.3096545252
 30
0.0
 11
572.4865274986
 21
1310.5093847653
 31
0.0
  0
LINE
  5
2A0
330
1F
100
AcDbEntity
  8
1
  6
SLD-Сплошная
100
AcDbLine
 10
576.4638103696
 20
1308.9892065122
 30
0.0
 11
576.3243268332
 21
1309.1822463899
 31
0.0
  0
LINE
  5
2A1
330
1F
100
AcDbEntity
  8
1
  6
SLD-Сплошная
100
AcDbLine
 10
575.0842312696
 20
1309.38197663
 30
0.0
 11
576.3243268332
 21
1309.1822463899
 31
0.0
  0
LINE
  5
2A2
330
1F
100
AcDbEntity
  8
1
  6
SLD-Сплошная
100
AcDbLine
 10
576.6286745203
 20
1310.0128236764
 30
0.0
 11
576.4356346426
 21
1309.8733401401
 31
0.0
  0
LINE
  5
2A3
330
1F
100
AcDbEntity
  8
1
  6
SLD-Сплошная
100
AcDbLine
 10
576.4356346426
 20
1309.8733401401
 30
0.0
 11
575.195539079
 21
1310.0730703802
 31
0.0
  0
LINE
  5
2A4
330
1F
100
AcDbEntity
  8
1
  6
SLD-Сплошная
100
AcDbLine
 10
573.5488181006
 20
1307.7874323739
 30
0.0
 11
573.7418579783
 21
1307.9269159103
 31
0.0
  0
LINE
  5
2A5
330
1F
100
AcDbEntity
  8
1
  6
SLD-Сплошная
100
AcDbLine
 10
573.9415882183
 20
1309.1670114739
 30
0.0
 11
573.7418579783
 21
1307.9269159103
 31
0.0
  0
LINE
  5
2A6
330
1F
100
AcDbEntity
  8
1
  6
SLD-Сплошная
100
AcDbLine
 10
572.1821798116
 20
1309.6788074787
 30
0.0
 11
572.3752196892
 21
1309.8182910151
 31
0.0
  0
LINE
  5
2A7
330
1F
100
AcDbEntity
  8
1
  6
SLD-Сплошная
100
AcDbLine
 10
572.3752196892
 20
1309.8182910151
 30
0.0
 11
573.6153152529
 21
1309.618560775
 31
0.0
  0
LINE
  5
2A8
330
1F
100
AcDbEntity
  8
1
  6
SLD-Сплошная
100
AcDbLine
 10
574.5724352648
 20
1307.6225682232
 30
0.0
 11
574.4329517285
 21
1307.8156081009
 31
0.0
  0
LINE
  5
2A9
330
1F
100
AcDbEntity
  8
1
  6
SLD-Сплошная
100
AcDbLine
 10
574.4329517285
 20
1307.8156081009
 30
0.0
 11
574.6326819685
 21
1309.0557036645
 31
0.0
  0
LINE
  5
2AA
330
1F
100
AcDbEntity
  8
1
  6
SLD-Сплошная
100
AcDbLine
 10
572.4865274986
 20
1310.5093847653
 30
0.0
 11
572.3752196892
 21
1309.8182910151
 31
0.0
  0
LINE
  5
2AB
330
1F
100
AcDbEntity
  8
1
  6
SLD-Сплошная
100
AcDbLine
 10
575.0689963536
 20
1311.7647152449
 30
0.0
 11
574.3779026034
 21
1311.8760230543
 31
0.0
  0
LINE
  5
2AC
330
1F
100
AcDbEntity
  8
1
  6
SLD-Сплошная
100
AcDbLine
 10
576.3243268332
 20
1309.1822463899
 30
0.0
 11
576.4356346426
 21
1309.8733401401
 31
0.0
  0
LINE
  5
2AD
330
1F
100
AcDbEntity
  8
1
  6
SLD-Сплошная
100
AcDbLine
 10
573.7418579783
 20
1307.9269159103
 30
0.0
 11
574.4329517285
 21
1307.8156081009
 31
0.0
  0
CIRCLE
  5
2AE
330
1F
100
AcDbEntity
  8
1
  6
SLD-Сплошная
100
AcDbCircle
 10
574.4054271659
 20
1309.8458155776
 30
0.0
 40
4.999999999999973
  0
ELLIPSE
  5
2AF
330
1F
100
AcDbEntity
  8
1
  6
SLD-Сплошная
100
AcDbEllipse
 10
574.4054271659
 20
1246.2764287963
 30
0.0
 11
0.0
 21
0.4122489361054704
 31
0.0
210
0.0
220
0.0
230
1.0
 40
0.9702875252
 41
5.51286627427916
 42
7.053504340079822
  0
SPLINE
  5
2B0
330
1F
100
AcDbEntity
  8
1
  6
SLD-Сплошная
100
AcDbSpline
210
0.0
220
0.0
230
1.0
 70
     8
 71
     3
 72
    12
 73
     8
 74
     0
 42
0.00000001
 43
0.00000001
 40
0.0
 40
0.0
 40
0.0
 40
0.0
 40
0.218785788707225
 40
0.4375776469534876
 40
0.656235365886399
 40
0.8748419359490996
 40
1.0
 40
1.0
 40
1.0
 40
1.0
 10
574.6839728620752
 20
1246.232705083767
 30
0.0
 10
574.6486474652062
 20
1246.259668509839
 30
0.0
 10
574.5779956914738
 20
1246.313596110001
 30
0.0
 10
574.4440324628329
 20
1246.346191998974
 30
0.0
 10
574.3084898365528
 20
1246.336842867732
 30
0.0
 10
574.1995920322589
 20
1246.29296410965
 30
0.0
 10
574.146288321453
 20
1246.248788551364
 30
0.0
 10
574.1268814698192
 20
1246.232705083767
 30
0.0
  0
ARC
  5
2B1
330
1F
100
AcDbEntity
  8
1
  6
SLD-Сплошная
100
AcDbCircle
 10
557.1601591853
 20
1264.5910835582
 30
0.0
 40
26.5619554952478
100
AcDbArc
 50
313.8816987744
 51
316.1183012256
  0
ARC
  5
2B2
330
1F
100
AcDbEntity
  8
1
  6
SLD-Сплошная
100
AcDbCircle
 10
558.3924041922
 20
1231.1044013415
 30
0.0
 40
23.41191191624162
100
AcDbArc
 50
40.0824770913
 51
42.9865596106
  0
SPLINE
  5
2B3
330
1F
100
AcDbEntity
  8
1
  6
SLD-Сплошная
100
AcDbSpline
210
0.0
220
0.0
230
1.0
 70
     8
 71
     3
 72
    12
 73
     8
 74
     0
 42
0.00000001
 43
0.00000001
 40
0.0
 40
0.0
 40
0.0
 40
0.0
 40
0.2187857887071872
 40
0.4375776469534928
 40
0.6562353658863584
 40
0.8748419359491
 40
1.0
 40
1.0
 40
1.0
 40
1.0
 10
575.5185376597594
 20
1247.624361273708
 30
0.0
 10
575.4915742336874
 20
1247.589035876839
 30
0.0
 10
575.4376466335259
 20
1247.518384103107
 30
0.0
 10
575.4050507445527
 20
1247.384420874465
 30
0.0
 10
575.414399875795
 20
1247.248878248186
 30
0.0
 10
575.4582786338766
 20
1247.139980443891
 30
0.0
 10
575.5024541921632
 20
1247.086676733086
 30
0.0
 10
575.5185376597594
 20
1247.067269881452
 30
0.0
  0
ARC
  5
2B4
330
1F
100
AcDbEntity
  8
1
  6
SLD-Сплошная
100
AcDbCircle
 10
558.3924041922
 20
1263.5872298137
 30
0.0
 40
23.41191191624162
100
AcDbArc
 50
317.0134403894
 51
319.9175229087
  0
ARC
  5
2B5
330
1F
100
AcDbEntity
  8
1
  6
SLD-Сплошная
100
AcDbCircle
 10
557.160159185
 20
1230.1005475967
 30
0.0
 40
26.56195549562701
100
AcDbArc
 50
43.8816987744
 51
46.1183012256
  0
ARC
  5
2B6
330
1F
100
AcDbEntity
  8
1
  6
SLD-Сплошная
100
AcDbCircle
 10
590.6468414021
 20
1231.3327926037
 30
0.0
 40
23.4119119164035
100
AcDbArc
 50
130.0824770913
 51
132.9865596106
  0
SPLINE
  5
2B7
330
1F
100
AcDbEntity
  8
1
  6
SLD-Сплошная
100
AcDbSpline
210
0.0
220
0.0
230
1.0
 70
     8
 71
     3
 72
    12
 73
     8
 74
     0
 42
0.00000001
 43
0.00000001
 40
0.0
 40
0.0
 40
0.0
 40
0.0
 40
0.2187857887071718
 40
0.4375776469534864
 40
0.6562353658863612
 40
0.8748419359490948
 40
1.0
 40
1.0
 40
1.0
 40
1.0
 10
574.1268814698192
 20
1248.458926071392
 30
0.0
 10
574.162206866688
 20
1248.43196264532
 30
0.0
 10
574.2328586404204
 20
1248.378035045159
 30
0.0
 10
574.3668218690615
 20
1248.345439156185
 30
0.0
 10
574.5023644953415
 20
1248.354788287427
 30
0.0
 10
574.6112622996355
 20
1248.398667045509
 30
0.0
 10
574.6645660104414
 20
1248.442842603796
 30
0.0
 10
574.6839728620752
 20
1248.458926071392
 30
0.0
  0
ARC
  5
2B8
330
1F
100
AcDbEntity
  8
1
  6
SLD-Сплошная
100
AcDbCircle
 10
558.1640129297
 20
1231.3327926036
 30
0.0
 40
23.41191191644952
100
AcDbArc
 50
47.0134403894
 51
49.9175229087
  0
ARC
  5
2B9
330
1F
100
AcDbEntity
  8
1
  6
SLD-Сплошная
100
AcDbCircle
 10
591.6506951467
 20
1230.1005475968
 30
0.0
 40
26.56195549542591
100
AcDbArc
 50
133.8816987744
 51
136.1183012256
  0
ARC
  5
2BA
330
1F
100
AcDbEntity
  8
1
  6
SLD-Сплошная
100
AcDbCircle
 10
590.4184501395
 20
1263.5872298135
 30
0.0
 40
23.41191191595281
100
AcDbArc
 50
220.0824770913
 51
222.9865596106
  0
SPLINE
  5
2BB
330
1F
100
AcDbEntity
  8
1
  6
SLD-Сплошная
100
AcDbSpline
210
0.0
220
0.0
230
1.0
 70
     8
 71
     3
 72
    12
 73
     8
 74
     0
 42
0.00000001
 43
0.00000001
 40
0.0
 40
0.0
 40
0.0
 40
0.0
 40
0.2187857887072096
 40
0.4375776469534813
 40
0.6562353658864019
 40
0.8748419359490944
 40
1.0
 40
1.0
 40
1.0
 40
1.0
 10
573.2923166721349
 20
1247.067269881452
 30
0.0
 10
573.319280098207
 20
1247.102595278321
 30
0.0
 10
573.3732076983684
 20
1247.173247052053
 30
0.0
 10
573.4058035873416
 20
1247.307210280694
 30
0.0
 10
573.3964544560995
 20
1247.442752906974
 30
0.0
 10
573.3525756980176
 20
1247.551650711268
 30
0.0
 10
573.3084001397311
 20
1247.604954422074
 30
0.0
 10
573.2923166721349
 20
1247.624361273708
 30
0.0
  0
ARC
  5
2BC
330
1F
100
AcDbEntity
  8
1
  6
SLD-Сплошная
100
AcDbCircle
 10
590.4184501396
 20
1231.1044013416
 30
0.0
 40
23.41191191611948
100
AcDbArc
 50
137.0134403894
 51
139.9175229087
  0
ARC
  5
2BD
330
1F
100
AcDbEntity
  8
1
  6
SLD-Сплошная
100
AcDbCircle
 10
591.6506951466
 20
1264.5910835583
 30
0.0
 40
26.5619554953111
100
AcDbArc
 50
223.8816987744
 51
226.1183012256
  0
ARC
  5
2BE
330
1F
100
AcDbEntity
  8
1
  6
SLD-Сплошная
100
AcDbCircle
 10
558.1640129297
 20
1263.3588385516
 30
0.0
 40
23.41191191652202
100
AcDbArc
 50
310.0824770913
 51
312.9865596105
  0
ARC
  5
2BF
330
1F
100
AcDbEntity
  8
1
  6
SLD-Сплошная
100
AcDbCircle
 10
590.6468414022
 20
1263.3588385515
 30
0.0
 40
23.4119119164761
100
AcDbArc
 50
227.0134403894
 51
229.9175229087
  0
CIRCLE
  5
2C0
330
1F
100
AcDbEntity
  8
1
  6
SLD-Сплошная
100
AcDbCircle
 10
574.4054271659
 20
1247.3458155776
 30
0.0
 40
3.499999999999948
  0
ELLIPSE
  5
2C1
330
1F
100
AcDbEntity
  8
1
  6
SLD-Сплошная
100
AcDbEllipse
 10
575.4748139472
 20
1247.3458155776
 30
0.0
 11
-0.4122489361056978
 21
0.0
 31
0.0
210
0.0
220
0.0
230
1.0
 40
0.9702875252
 41
5.512866274278377
 42
7.053504340079994
  0
ELLIPSE
  5
2C2
330
1F
100
AcDbEntity
  8
1
  6
SLD-Сплошная
100
AcDbEllipse
 10
573.3360403847
 20
1247.3458155776
 30
0.0
 11
0.4122489361055841
 21
0.0
 31
0.0
210
0.0
220
0.0
230
1.0
 40
0.9702875252
 41
5.512866274278762
 42
7.05350434008124
  0
ELLIPSE
  5
2C3
330
1F
100
AcDbEntity
  8
1
  6
SLD-Сплошная
100
AcDbEllipse
 10
574.4054271659
 20
1248.4152023589
 30
0.0
 11
0.0
 21
-0.4122489361056978
 31
0.0
210
0.0
220
0.0
230
1.0
 40
0.9702875252
 41
5.512866274278947
 42
7.053504340080444
  0
LINE
  5
2C4
330
1F
100
AcDbEntity
  8
1
  6
SLD-Сплошная
100
AcDbLine
 10
576.3052878198
 20
1246.1790893886
 30
0.0
 11
576.0671281017
 21
1246.1790893886
 31
0.0
  0
LINE
  5
2C5
330
1F
100
AcDbEntity
  8
1
  6
SLD-Сплошная
100
AcDbLine
 10
576.0671281017
 20
1246.1790893886
 30
0.0
 11
575.1789476089
 21
1247.0672698815
 31
0.0
  0
LINE
  5
2C6
330
1F
100
AcDbEntity
  8
1
  6
SLD-Сплошная
100
AcDbLine
 10
575.5721533549
 20
1245.4459549238
 30
0.0
 11
575.5721533549
 21
1245.6841146418
 31
0.0
  0
LINE
  5
2C7
330
1F
100
AcDbEntity
  8
1
  6
SLD-Сплошная
100
AcDbLine
 10
574.6839728621
 20
1246.5722951346
 30
0.0
 11
575.5721533549
 21
1245.6841146418
 31
0.0
  0
LINE
  5
2C8
330
1F
100
AcDbEntity
  8
1
  6
SLD-Сплошная
100
AcDbLine
 10
572.5055665121
 20
1246.1790893886
 30
0.0
 11
572.7437262302
 21
1246.1790893886
 31
0.0
  0
LINE
  5
2C9
330
1F
100
AcDbEntity
  8
1
  6
SLD-Сплошная
100
AcDbLine
 10
573.631906723
 20
1247.0672698815
 30
0.0
 11
572.7437262302
 21
1246.1790893886
 31
0.0
  0
LINE
  5
2CA
330
1F
100
AcDbEntity
  8
1
  6
SLD-Сплошная
100
AcDbLine
 10
573.238700977
 20
1245.4459549238
 30
0.0
 11
573.238700977
 21
1245.6841146418
 31
0.0
  0
LINE
  5
2CB
330
1F
100
AcDbEntity
  8
1
  6
SLD-Сплошная
100
AcDbLine
 10
573.238700977
 20
1245.6841146418
 30
0.0
 11
574.1268814698
 21
1246.5722951346
 31
0.0
  0
LINE
  5
2CC
330
1F
100
AcDbEntity
  8
1
  6
SLD-Сплошная
100
AcDbLine
 10
572.5055665121
 20
1248.5125417665
 30
0.0
 11
572.7437262302
 21
1248.5125417665
 31
0.0
  0
LINE
  5
2CD
330
1F
100
AcDbEntity
  8
1
  6
SLD-Сплошная
100
AcDbLine
 10
572.7437262302
 20
1248.5125417665
 30
0.0
 11
573.631906723
 21
1247.6243612737
 31
0.0
  0
LINE
  5
2CE
330
1F
100
AcDbEntity
  8
1
  6
SLD-Сплошная
100
AcDbLine
 10
573.238700977
 20
1249.2456762314
 30
0.0
 11
573.238700977
 21
1249.0075165134
 31
0.0
  0
LINE
  5
2CF
330
1F
100
AcDbEntity
  8
1
  6
SLD-Сплошная
100
AcDbLine
 10
574.1268814698
 20
1248.1193360205
 30
0.0
 11
573.238700977
 21
1249.0075165134
 31
0.0
  0
LINE
  5
2D0
330
1F
100
AcDbEntity
  8
1
  6
SLD-Сплошная
100
AcDbLine
 10
576.3052878198
 20
1248.5125417665
 30
0.0
 11
576.0671281017
 21
1248.5125417665
 31
0.0
  0
LINE
  5
2D1
330
1F
100
AcDbEntity
  8
1
  6
SLD-Сплошная
100
AcDbLine
 10
575.1789476089
 20
1247.6243612737
 30
0.0
 11
576.0671281017
 21
1248.5125417665
 31
0.0
  0
LINE
  5
2D2
330
1F
100
AcDbEntity
  8
1
  6
SLD-Сплошная
100
AcDbLine
 10
575.5721533549
 20
1249.2456762314
 30
0.0
 11
575.5721533549
 21
1249.0075165134
 31
0.0
  0
LINE
  5
2D3
330
1F
100
AcDbEntity
  8
1
  6
SLD-Сплошная
100
AcDbLine
 10
575.5721533549
 20
1249.0075165134
 30
0.0
 11
574.6839728621
 21
1248.1193360205
 31
0.0
  0
LINE
  5
2D4
330
1F
100
AcDbEntity
  8
1
  6
SLD-Сплошная
100
AcDbLine
 10
572.7437262302
 20
1246.1790893886
 30
0.0
 11
573.238700977
 21
1245.6841146418
 31
0.0
  0
LINE
  5
2D5
330
1F
100
AcDbEntity
  8
1
  6
SLD-Сплошная
100
AcDbLine
 10
576.0671281017
 20
1248.5125417665
 30
0.0
 11
575.5721533549
 21
1249.0075165134
 31
0.0
  0
LINE
  5
2D6
330
1F
100
AcDbEntity
  8
1
  6
SLD-Сплошная
100
AcDbLine
 10
575.5721533549
 20
1245.6841146418
 30
0.0
 11
576.0671281017
 21
1246.1790893886
 31
0.0
  0
LINE
  5
2D7
330
1F
100
AcDbEntity
  8
1
  6
SLD-Сплошная
100
AcDbLine
 10
573.238700977
 20
1249.0075165134
 30
0.0
 11
572.7437262302
 21
1248.5125417665
 31
0.0
  0
CIRCLE
  5
2D8
330
1F
100
AcDbEntity
  8
1
  6
SLD-Сплошная
100
AcDbCircle
 10
574.4054271659
 20
1247.3458155776
 30
0.0
 40
4.999999999999799
  0
ELLIPSE
  5
2D9
330
1F
100
AcDbEntity
  8
1
  6
SLD-Сплошная
100
AcDbEllipse
 10
990.8360403847
 20
1229.8458155776
 30
0.0
 11
0.4122489361055841
 21
0.0
 31
0.0
210
0.0
220
0.0
230
1.0
 40
0.9702875252
 41
5.512866274278954
 42
7.053504340080639
  0
SPLINE
  5
2DA
330
1F
100
AcDbEntity
  8
1
  6
SLD-Сплошная
100
AcDbSpline
210
0.0
220
0.0
230
1.0
 70
     8
 71
     3
 72
    12
 73
     8
 74
     0
 42
0.00000001
 43
0.00000001
 40
0.0
 40
0.0
 40
0.0
 40
0.0
 40
0.2187857887072096
 40
0.4375776469534813
 40
0.6562353658864019
 40
0.8748419359490944
 40
1.0
 40
1.0
 40
1.0
 40
1.0
 10
990.7923166721348
 20
1229.567269881452
 30
0.0
 10
990.819280098207
 20
1229.602595278321
 30
0.0
 10
990.8732076983684
 20
1229.673247052053
 30
0.0
 10
990.9058035873414
 20
1229.807210280694
 30
0.0
 10
990.8964544560994
 20
1229.942752906974
 30
0.0
 10
990.8525756980175
 20
1230.051650711268
 30
0.0
 10
990.8084001397311
 20
1230.104954422074
 30
0.0
 10
990.7923166721348
 20
1230.124361273708
 30
0.0
  0
ELLIPSE
  5
2DB
330
1F
100
AcDbEntity
  8
1
  6
SLD-Сплошная
100
AcDbEllipse
 10
991.9054271659
 20
1228.7764287963
 30
0.0
 11
0.0
 21
0.4122489361056978
 31
0.0
210
0.0
220
0.0
230
1.0
 40
0.9702875252
 41
5.512866274278742
 42
7.05350434008024
  0
SPLINE
  5
2DC
330
1F
100
AcDbEntity
  8
1
  6
SLD-Сплошная
100
AcDbSpline
210
0.0
220
0.0
230
1.0
 70
     8
 71
     3
 72
    12
 73
     8
 74
     0
 42
0.00000001
 43
0.00000001
 40
0.0
 40
0.0
 40
0.0
 40
0.0
 40
0.218785788707225
 40
0.4375776469534876
 40
0.656235365886399
 40
0.8748419359490996
 40
1.0
 40
1.0
 40
1.0
 40
1.0
 10
992.1839728620752
 20
1228.732705083768
 30
0.0
 10
992.1486474652062
 20
1228.75966850984
 30
0.0
 10
992.0779956914738
 20
1228.813596110001
 30
0.0
 10
991.9440324628326
 20
1228.846191998974
 30
0.0
 10
991.8084898365528
 20
1228.836842867732
 30
0.0
 10
991.6995920322589
 20
1228.79296410965
 30
0.0
 10
991.646288321453
 20
1228.748788551364
 30
0.0
 10
991.6268814698192
 20
1228.732705083768
 30
0.0
  0
ELLIPSE
  5
2DD
330
1F
100
AcDbEntity
  8
1
  6
SLD-Сплошная
100
AcDbEllipse
 10
992.9748139472
 20
1229.8458155776
 30
0.0
 11
-0.4122489361056978
 21
0.0
 31
0.0
210
0.0
220
0.0
230
1.0
 40
0.9702875252
 41
5.512866274278785
 42
7.053504340079994
  0
SPLINE
  5
2DE
330
1F
100
AcDbEntity
  8
1
  6
SLD-Сплошная
100
AcDbSpline
210
0.0
220
0.0
230
1.0
 70
     8
 71
     3
 72
    12
 73
     8
 74
     0
 42
0.00000001
 43
0.00000001
 40
0.0
 40
0.0
 40
0.0
 40
0.0
 40
0.2187857887071872
 40
0.4375776469534928
 40
0.6562353658863584
 40
0.8748419359491
 40
1.0
 40
1.0
 40
1.0
 40
1.0
 10
993.0185376597593
 20
1230.124361273708
 30
0.0
 10
992.9915742336872
 20
1230.089035876839
 30
0.0
 10
992.9376466335257
 20
1230.018384103107
 30
0.0
 10
992.9050507445528
 20
1229.884420874465
 30
0.0
 10
992.9143998757947
 20
1229.748878248186
 30
0.0
 10
992.9582786338767
 20
1229.639980443892
 30
0.0
 10
993.0024541921631
 20
1229.586676733086
 30
0.0
 10
993.0185376597593
 20
1229.567269881452
 30
0.0
  0
ARC
  5
2DF
330
1F
100
AcDbEntity
  8
1
  6
SLD-Сплошная
100
AcDbCircle
 10
974.6601591849
 20
1247.0910835586
 30
0.0
 40
26.56195549581817
100
AcDbArc
 50
313.8816987744
 51
316.1183012256
  0
ARC
  5
2E0
330
1F
100
AcDbEntity
  8
1
  6
SLD-Сплошная
100
AcDbCircle
 10
975.892404192
 20
1213.6044013414
 30
0.0
 40
23.41191191646482
100
AcDbArc
 50
40.0824770913
 51
42.9865596106
  0
ARC
  5
2E1
330
1F
100
AcDbEntity
  8
1
  6
SLD-Сплошная
100
AcDbCircle
 10
975.8924041923
 20
1246.0872298136
 30
0.0
 40
23.41191191609608
100
AcDbArc
 50
317.0134403894
 51
319.9175229087
  0
ARC
  5
2E2
330
1F
100
AcDbEntity
  8
1
  6
SLD-Сплошная
100
AcDbCircle
 10
974.6601591843
 20
1212.6005475959
 30
0.0
 40
26.56195549672214
100
AcDbArc
 50
43.8816987744
 51
46.1183012256
  0
ARC
  5
2E3
330
1F
100
AcDbEntity
  8
1
  6
SLD-Сплошная
100
AcDbCircle
 10
1008.1468414021
 20
1213.8327926037
 30
0.0
 40
23.41191191640143
100
AcDbArc
 50
130.0824770913
 51
132.9865596106
  0
SPLINE
  5
2E4
330
1F
100
AcDbEntity
  8
1
  6
SLD-Сплошная
100
AcDbSpline
210
0.0
220
0.0
230
1.0
 70
     8
 71
     3
 72
    12
 73
     8
 74
     0
 42
0.00000001
 43
0.00000001
 40
0.0
 40
0.0
 40
0.0
 40
0.0
 40
0.2187857887071718
 40
0.4375776469534864
 40
0.6562353658863612
 40
0.8748419359490948
 40
1.0
 40
1.0
 40
1.0
 40
1.0
 10
991.6268814698192
 20
1230.958926071392
 30
0.0
 10
991.662206866688
 20
1230.93196264532
 30
0.0
 10
991.7328586404204
 20
1230.878035045158
 30
0.0
 10
991.8668218690615
 20
1230.845439156185
 30
0.0
 10
992.0023644953416
 20
1230.854788287428
 30
0.0
 10
992.1112622996354
 20
1230.898667045509
 30
0.0
 10
992.1645660104414
 20
1230.942842603796
 30
0.0
 10
992.1839728620752
 20
1230.958926071392
 30
0.0
  0
ARC
  5
2E5
330
1F
100
AcDbEntity
  8
1
  6
SLD-Сплошная
100
AcDbCircle
 10
975.6640129296
 20
1213.8327926035
 30
0.0
 40
23.41191191663406
100
AcDbArc
 50
47.0134403895
 51
49.9175229087
  0
ARC
  5
2E6
330
1F
100
AcDbEntity
  8
1
  6
SLD-Сплошная
100
AcDbCircle
 10
1009.1506951474
 20
1212.6005475962
 30
0.0
 40
26.56195549634301
100
AcDbArc
 50
133.8816987744
 51
136.1183012256
  0
ARC
  5
2E7
330
1F
100
AcDbEntity
  8
1
  6
SLD-Сплошная
100
AcDbCircle
 10
1007.9184501398
 20
1246.0872298137
 30
0.0
 40
23.41191191637029
100
AcDbArc
 50
220.0824770913
 51
222.9865596106
  0
ARC
  5
2E8
330
1F
100
AcDbEntity
  8
1
  6
SLD-Сплошная
100
AcDbCircle
 10
1007.9184501399
 20
1213.6044013414
 30
0.0
 40
23.41191191646666
100
AcDbArc
 50
137.0134403894
 51
139.9175229087
  0
ARC
  5
2E9
330
1F
100
AcDbEntity
  8
1
  6
SLD-Сплошная
100
AcDbCircle
 10
1009.1506951469
 20
1247.0910835585
 30
0.0
 40
26.56195549567728
100
AcDbArc
 50
223.8816987744
 51
226.1183012256
  0
ARC
  5
2EA
330
1F
100
AcDbEntity
  8
1
  6
SLD-Сплошная
100
AcDbCircle
 10
975.6640129298
 20
1245.8588385514
 30
0.0
 40
23.41191191630207
100
AcDbArc
 50
310.0824770913
 51
312.9865596106
  0
ARC
  5
2EB
330
1F
100
AcDbEntity
  8
1
  6
SLD-Сплошная
100
AcDbCircle
 10
1008.1468414019
 20
1245.8588385512
 30
0.0
 40
23.41191191606959
100
AcDbArc
 50
227.0134403894
 51
229.9175229087
  0
CIRCLE
  5
2EC
330
1F
100
AcDbEntity
  8
1
  6
SLD-Сплошная
100
AcDbCircle
 10
991.9054271659
 20
1229.8458155776
 30
0.0
 40
3.499999999999948
  0
ELLIPSE
  5
2ED
330
1F
100
AcDbEntity
  8
1
  6
SLD-Сплошная
100
AcDbEllipse
 10
991.9054271659
 20
1230.9152023589
 30
0.0
 11
0.0
 21
-0.4122489361059252
 31
0.0
210
0.0
220
0.0
230
1.0
 40
0.9702875252
 41
5.512866274278671
 42
7.053504340080719
  0
LINE
  5
2EE
330
1F
100
AcDbEntity
  8
1
  6
SLD-Сплошная
100
AcDbLine
 10
993.8052878198
 20
1228.6790893886
 30
0.0
 11
993.5671281017
 21
1228.6790893886
 31
0.0
  0
LINE
  5
2EF
330
1F
100
AcDbEntity
  8
1
  6
SLD-Сплошная
100
AcDbLine
 10
993.5671281017
 20
1228.6790893886
 30
0.0
 11
992.6789476089
 21
1229.5672698815
 31
0.0
  0
LINE
  5
2F0
330
1F
100
AcDbEntity
  8
1
  6
SLD-Сплошная
100
AcDbLine
 10
993.0721533549
 20
1227.9459549238
 30
0.0
 11
993.0721533549
 21
1228.1841146418
 31
0.0
  0
LINE
  5
2F1
330
1F
100
AcDbEntity
  8
1
  6
SLD-Сплошная
100
AcDbLine
 10
992.1839728621
 20
1229.0722951346
 30
0.0
 11
993.0721533549
 21
1228.1841146418
 31
0.0
  0
LINE
  5
2F2
330
1F
100
AcDbEntity
  8
1
  6
SLD-Сплошная
100
AcDbLine
 10
990.0055665121
 20
1231.0125417665
 30
0.0
 11
990.2437262302
 21
1231.0125417665
 31
0.0
  0
LINE
  5
2F3
330
1F
100
AcDbEntity
  8
1
  6
SLD-Сплошная
100
AcDbLine
 10
990.2437262302
 20
1231.0125417665
 30
0.0
 11
991.131906723
 21
1230.1243612737
 31
0.0
  0
LINE
  5
2F4
330
1F
100
AcDbEntity
  8
1
  6
SLD-Сплошная
100
AcDbLine
 10
990.0055665121
 20
1228.6790893886
 30
0.0
 11
990.2437262302
 21
1228.6790893886
 31
0.0
  0
LINE
  5
2F5
330
1F
100
AcDbEntity
  8
1
  6
SLD-Сплошная
100
AcDbLine
 10
991.131906723
 20
1229.5672698815
 30
0.0
 11
990.2437262302
 21
1228.6790893886
 31
0.0
  0
LINE
  5
2F6
330
1F
100
AcDbEntity
  8
1
  6
SLD-Сплошная
100
AcDbLine
 10
990.738700977
 20
1231.7456762314
 30
0.0
 11
990.738700977
 21
1231.5075165134
 31
0.0
  0
LINE
  5
2F7
330
1F
100
AcDbEntity
  8
1
  6
SLD-Сплошная
100
AcDbLine
 10
991.6268814698
 20
1230.6193360205
 30
0.0
 11
990.738700977
 21
1231.5075165134
 31
0.0
  0
LINE
  5
2F8
330
1F
100
AcDbEntity
  8
1
  6
SLD-Сплошная
100
AcDbLine
 10
993.8052878198
 20
1231.0125417665
 30
0.0
 11
993.5671281017
 21
1231.0125417665
 31
0.0
  0
LINE
  5
2F9
330
1F
100
AcDbEntity
  8
1
  6
SLD-Сплошная
100
AcDbLine
 10
992.6789476089
 20
1230.1243612737
 30
0.0
 11
993.5671281017
 21
1231.0125417665
 31
0.0
  0
LINE
  5
2FA
330
1F
100
AcDbEntity
  8
1
  6
SLD-Сплошная
100
AcDbLine
 10
993.0721533549
 20
1231.7456762314
 30
0.0
 11
993.0721533549
 21
1231.5075165134
 31
0.0
  0
LINE
  5
2FB
330
1F
100
AcDbEntity
  8
1
  6
SLD-Сплошная
100
AcDbLine
 10
993.0721533549
 20
1231.5075165134
 30
0.0
 11
992.1839728621
 21
1230.6193360205
 31
0.0
  0
LINE
  5
2FC
330
1F
100
AcDbEntity
  8
1
  6
SLD-Сплошная
100
AcDbLine
 10
990.738700977
 20
1227.9459549238
 30
0.0
 11
990.738700977
 21
1228.1841146418
 31
0.0
  0
LINE
  5
2FD
330
1F
100
AcDbEntity
  8
1
  6
SLD-Сплошная
100
AcDbLine
 10
990.738700977
 20
1228.1841146418
 30
0.0
 11
991.6268814698
 21
1229.0722951346
 31
0.0
  0
LINE
  5
2FE
330
1F
100
AcDbEntity
  8
1
  6
SLD-Сплошная
100
AcDbLine
 10
993.5671281017
 20
1231.0125417665
 30
0.0
 11
993.0721533549
 21
1231.5075165134
 31
0.0
  0
LINE
  5
2FF
330
1F
100
AcDbEntity
  8
1
  6
SLD-Сплошная
100
AcDbLine
 10
993.0721533549
 20
1228.1841146418
 30
0.0
 11
993.5671281017
 21
1228.6790893886
 31
0.0
  0
LINE
  5
300
330
1F
100
AcDbEntity
  8
1
  6
SLD-Сплошная
100
AcDbLine
 10
990.2437262302
 20
1228.6790893886
 30
0.0
 11
990.738700977
 21
1228.1841146418
 31
0.0
  0
LINE
  5
301
330
1F
100
AcDbEntity
  8
1
  6
SLD-Сплошная
100
AcDbLine
 10
990.738700977
 20
1231.5075165134
 30
0.0
 11
990.2437262302
 21
1231.0125417665
 31
0.0
  0
CIRCLE
  5
302
330
1F
100
AcDbEntity
  8
1
  6
SLD-Сплошная
100
AcDbCircle
 10
991.9054271659
 20
1229.8458155776
 30
0.0
 40
4.99999999999996
  0
ELLIPSE
  5
303
330
1F
100
AcDbEntity
  8
1
  6
SLD-Сплошная
100
AcDbEllipse
 10
892.9748139472
 20
1229.8458155776
 30
0.0
 11
-0.4122489361055841
 21
0.0
 31
0.0
210
0.0
220
0.0
230
1.0
 40
0.9702875252
 41
5.512866274278923
 42
7.053504340079856
  0
SPLINE
  5
304
330
1F
100
AcDbEntity
  8
1
  6
SLD-Сплошная
100
AcDbSpline
210
0.0
220
0.0
230
1.0
 70
     8
 71
     3
 72
    12
 73
     8
 74
     0
 42
0.00000001
 43
0.00000001
 40
0.0
 40
0.0
 40
0.0
 40
0.0
 40
0.2187857887072182
 40
0.4375776469534861
 40
0.6562353658863578
 40
0.8748419359490965
 40
1.0
 40
1.0
 40
1.0
 40
1.0
 10
893.0185376597594
 20
1230.124361273708
 30
0.0
 10
892.9915742336874
 20
1230.089035876839
 30
0.0
 10
892.9376466335259
 20
1230.018384103106
 30
0.0
 10
892.9050507445527
 20
1229.884420874465
 30
0.0
 10
892.9143998757949
 20
1229.748878248186
 30
0.0
 10
892.9582786338767
 20
1229.639980443892
 30
0.0
 10
893.0024541921632
 20
1229.586676733086
 30
0.0
 10
893.0185376597594
 20
1229.567269881452
 30
0.0
  0
ARC
  5
305
330
1F
100
AcDbEntity
  8
1
  6
SLD-Сплошная
100
AcDbCircle
 10
874.6601591848
 20
1247.0910835587
 30
0.0
 40
26.56195549593322
100
AcDbArc
 50
313.8816987744
 51
316.1183012256
  0
ARC
  5
306
330
1F
100
AcDbEntity
  8
1
  6
SLD-Сплошная
100
AcDbCircle
 10
875.8924041923
 20
1213.6044013416
 30
0.0
 40
23.41191191604574
100
AcDbArc
 50
40.0824770913
 51
42.9865596106
  0
ARC
  5
307
330
1F
100
AcDbEntity
  8
1
  6
SLD-Сплошная
100
AcDbCircle
 10
875.8924041923
 20
1246.0872298135
 30
0.0
 40
23.41191191604792
100
AcDbArc
 50
317.0134403894
 51
319.9175229087
  0
ARC
  5
308
330
1F
100
AcDbEntity
  8
1
  6
SLD-Сплошная
100
AcDbCircle
 10
874.6601591847
 20
1212.6005475963
 30
0.0
 40
26.56195549608232
100
AcDbArc
 50
43.8816987744
 51
46.1183012256
  0
ARC
  5
309
330
1F
100
AcDbEntity
  8
1
  6
SLD-Сплошная
100
AcDbCircle
 10
908.146841402
 20
1213.8327926038
 30
0.0
 40
23.41191191620921
100
AcDbArc
 50
130.0824770913
 51
132.9865596106
  0
SPLINE
  5
30A
330
1F
100
AcDbEntity
  8
1
  6
SLD-Сплошная
100
AcDbSpline
210
0.0
220
0.0
230
1.0
 70
     8
 71
     3
 72
    12
 73
     8
 74
     0
 42
0.00000001
 43
0.00000001
 40
0.0
 40
0.0
 40
0.0
 40
0.0
 40
0.2187857887071912
 40
0.4375776469534632
 40
0.656235365886384
 40
0.8748419359490767
 40
1.0
 40
1.0
 40
1.0
 40
1.0
 10
891.6268814698192
 20
1230.958926071392
 30
0.0
 10
891.662206866688
 20
1230.93196264532
 30
0.0
 10
891.7328586404205
 20
1230.878035045158
 30
0.0
 10
891.8668218690615
 20
1230.845439156186
 30
0.0
 10
892.0023644953416
 20
1230.854788287428
 30
0.0
 10
892.1112622996354
 20
1230.898667045509
 30
0.0
 10
892.1645660104414
 20
1230.942842603796
 30
0.0
 10
892.1839728620752
 20
1230.958926071392
 30
0.0
  0
ARC
  5
30B
330
1F
100
AcDbEntity
  8
1
  6
SLD-Сплошная
100
AcDbCircle
 10
875.6640129299
 20
1213.8327926038
 30
0.0
 40
23.41191191620921
100
AcDbArc
 50
47.0134403894
 51
49.9175229087
  0
ARC
  5
30C
330
1F
100
AcDbEntity
  8
1
  6
SLD-Сплошная
100
AcDbCircle
 10
909.1506951471
 20
1212.6005475964
 30
0.0
 40
26.56195549601637
100
AcDbArc
 50
133.8816987744
 51
136.1183012256
  0
ARC
  5
30D
330
1F
100
AcDbEntity
  8
1
  6
SLD-Сплошная
100
AcDbCircle
 10
907.9184501397
 20
1246.0872298136
 30
0.0
 40
23.41191191612435
100
AcDbArc
 50
220.0824770913
 51
222.9865596106
  0
SPLINE
  5
30E
330
1F
100
AcDbEntity
  8
1
  6
SLD-Сплошная
100
AcDbSpline
210
0.0
220
0.0
230
1.0
 70
     8
 71
     3
 72
    12
 73
     8
 74
     0
 42
0.00000001
 43
0.00000001
 40
0.0
 40
0.0
 40
0.0
 40
0.0
 40
0.2187857887072142
 40
0.4375776469534839
 40
0.6562353658863967
 40
0.8748419359490988
 40
1.0
 40
1.0
 40
1.0
 40
1.0
 10
890.7923166721349
 20
1229.567269881452
 30
0.0
 10
890.8192800982068
 20
1229.602595278321
 30
0.0
 10
890.8732076983684
 20
1229.673247052053
 30
0.0
 10
890.9058035873417
 20
1229.807210280694
 30
0.0
 10
890.8964544560995
 20
1229.942752906974
 30
0.0
 10
890.8525756980176
 20
1230.051650711268
 30
0.0
 10
890.8084001397311
 20
1230.104954422074
 30
0.0
 10
890.7923166721349
 20
1230.124361273708
 30
0.0
  0
ARC
  5
30F
330
1F
100
AcDbEntity
  8
1
  6
SLD-Сплошная
100
AcDbCircle
 10
907.9184501396
 20
1213.6044013416
 30
0.0
 40
23.41191191612217
100
AcDbArc
 50
137.0134403894
 51
139.9175229087
  0
ARC
  5
310
330
1F
100
AcDbEntity
  8
1
  6
SLD-Сплошная
100
AcDbCircle
 10
909.150695147
 20
1247.0910835587
 30
0.0
 40
26.56195549586752
100
AcDbArc
 50
223.8816987744
 51
226.1183012256
  0
ARC
  5
311
330
1F
100
AcDbEntity
  8
1
  6
SLD-Сплошная
100
AcDbCircle
 10
875.6640129297
 20
1245.8588385515
 30
0.0
 40
23.4119119164515
100
AcDbArc
 50
310.0824770913
 51
312.9865596106
  0
SPLINE
  5
312
330
1F
100
AcDbEntity
  8
1
  6
SLD-Сплошная
100
AcDbSpline
210
0.0
220
0.0
230
1.0
 70
     8
 71
     3
 72
    12
 73
     8
 74
     0
 42
0.00000001
 43
0.00000001
 40
0.0
 40
0.0
 40
0.0
 40
0.0
 40
0.2187857887072066
 40
0.4375776469534695
 40
0.6562353658863811
 40
0.8748419359490819
 40
1.0
 40
1.0
 40
1.0
 40
1.0
 10
892.1839728620752
 20
1228.732705083768
 30
0.0
 10
892.1486474652063
 20
1228.75966850984
 30
0.0
 10
892.0779956914739
 20
1228.813596110001
 30
0.0
 10
891.9440324628329
 20
1228.846191998974
 30
0.0
 10
891.8084898365528
 20
1228.836842867732
 30
0.0
 10
891.6995920322589
 20
1228.79296410965
 30
0.0
 10
891.646288321453
 20
1228.748788551364
 30
0.0
 10
891.6268814698192
 20
1228.732705083768
 30
0.0
  0
ARC
  5
313
330
1F
100
AcDbEntity
  8
1
  6
SLD-Сплошная
100
AcDbCircle
 10
908.1468414021
 20
1245.8588385515
 30
0.0
 40
23.41191191635215
100
AcDbArc
 50
227.0134403894
 51
229.9175229087
  0
CIRCLE
  5
314
330
1F
100
AcDbEntity
  8
1
  6
SLD-Сплошная
100
AcDbCircle
 10
891.9054271659
 20
1229.8458155776
 30
0.0
 40
3.499999999999948
  0
ELLIPSE
  5
315
330
1F
100
AcDbEntity
  8
1
  6
SLD-Сплошная
100
AcDbEllipse
 10
890.8360403847
 20
1229.8458155776
 30
0.0
 11
0.4122489361056978
 21
0.0
 31
0.0
210
0.0
220
0.0
230
1.0
 40
0.9702875252
 41
5.512866274278624
 42
7.05350434008097
  0
ELLIPSE
  5
316
330
1F
100
AcDbEntity
  8
1
  6
SLD-Сплошная
100
AcDbEllipse
 10
891.9054271659
 20
1230.9152023589
 30
0.0
 11
0.0
 21
-0.4122489361059252
 31
0.0
210
0.0
220
0.0
230
1.0
 40
0.9702875252
 41
5.512866274278609
 42
7.053504340080373
  0
ELLIPSE
  5
317
330
1F
100
AcDbEntity
  8
1
  6
SLD-Сплошная
100
AcDbEllipse
 10
891.9054271659
 20
1228.7764287963
 30
0.0
 11
0.0
 21
0.4122489361056978
 31
0.0
210
0.0
220
0.0
230
1.0
 40
0.9702875252
 41
5.512866274278947
 42
7.053504340080444
  0
LINE
  5
318
330
1F
100
AcDbEntity
  8
1
  6
SLD-Сплошная
100
AcDbLine
 10
893.0721533549
 20
1227.9459549238
 30
0.0
 11
893.0721533549
 21
1228.1841146418
 31
0.0
  0
LINE
  5
319
330
1F
100
AcDbEntity
  8
1
  6
SLD-Сплошная
100
AcDbLine
 10
892.1839728621
 20
1229.0722951346
 30
0.0
 11
893.0721533549
 21
1228.1841146418
 31
0.0
  0
LINE
  5
31A
330
1F
100
AcDbEntity
  8
1
  6
SLD-Сплошная
100
AcDbLine
 10
893.8052878198
 20
1228.6790893886
 30
0.0
 11
893.5671281017
 21
1228.6790893886
 31
0.0
  0
LINE
  5
31B
330
1F
100
AcDbEntity
  8
1
  6
SLD-Сплошная
100
AcDbLine
 10
893.5671281017
 20
1228.6790893886
 30
0.0
 11
892.6789476089
 21
1229.5672698815
 31
0.0
  0
LINE
  5
31C
330
1F
100
AcDbEntity
  8
1
  6
SLD-Сплошная
100
AcDbLine
 10
890.738700977
 20
1231.7456762314
 30
0.0
 11
890.738700977
 21
1231.5075165134
 31
0.0
  0
LINE
  5
31D
330
1F
100
AcDbEntity
  8
1
  6
SLD-Сплошная
100
AcDbLine
 10
891.6268814698
 20
1230.6193360205
 30
0.0
 11
890.738700977
 21
1231.5075165134
 31
0.0
  0
LINE
  5
31E
330
1F
100
AcDbEntity
  8
1
  6
SLD-Сплошная
100
AcDbLine
 10
890.738700977
 20
1227.9459549238
 30
0.0
 11
890.738700977
 21
1228.1841146418
 31
0.0
  0
LINE
  5
31F
330
1F
100
AcDbEntity
  8
1
  6
SLD-Сплошная
100
AcDbLine
 10
890.738700977
 20
1228.1841146418
 30
0.0
 11
891.6268814698
 21
1229.0722951346
 31
0.0
  0
LINE
  5
320
330
1F
100
AcDbEntity
  8
1
  6
SLD-Сплошная
100
AcDbLine
 10
893.0721533549
 20
1231.7456762314
 30
0.0
 11
893.0721533549
 21
1231.5075165134
 31
0.0
  0
LINE
  5
321
330
1F
100
AcDbEntity
  8
1
  6
SLD-Сплошная
100
AcDbLine
 10
893.0721533549
 20
1231.5075165134
 30
0.0
 11
892.1839728621
 21
1230.6193360205
 31
0.0
  0
LINE
  5
322
330
1F
100
AcDbEntity
  8
1
  6
SLD-Сплошная
100
AcDbLine
 10
890.0055665121
 20
1231.0125417665
 30
0.0
 11
890.2437262302
 21
1231.0125417665
 31
0.0
  0
LINE
  5
323
330
1F
100
AcDbEntity
  8
1
  6
SLD-Сплошная
100
AcDbLine
 10
890.2437262302
 20
1231.0125417665
 30
0.0
 11
891.131906723
 21
1230.1243612737
 31
0.0
  0
LINE
  5
324
330
1F
100
AcDbEntity
  8
1
  6
SLD-Сплошная
100
AcDbLine
 10
893.8052878198
 20
1231.0125417665
 30
0.0
 11
893.5671281017
 21
1231.0125417665
 31
0.0
  0
LINE
  5
325
330
1F
100
AcDbEntity
  8
1
  6
SLD-Сплошная
100
AcDbLine
 10
892.6789476089
 20
1230.1243612737
 30
0.0
 11
893.5671281017
 21
1231.0125417665
 31
0.0
  0
LINE
  5
326
330
1F
100
AcDbEntity
  8
1
  6
SLD-Сплошная
100
AcDbLine
 10
890.0055665121
 20
1228.6790893886
 30
0.0
 11
890.2437262302
 21
1228.6790893886
 31
0.0
  0
LINE
  5
327
330
1F
100
AcDbEntity
  8
1
  6
SLD-Сплошная
100
AcDbLine
 10
891.131906723
 20
1229.5672698815
 30
0.0
 11
890.2437262302
 21
1228.6790893886
 31
0.0
  0
LINE
  5
328
330
1F
100
AcDbEntity
  8
1
  6
SLD-Сплошная
100
AcDbLine
 10
890.2437262302
 20
1228.6790893886
 30
0.0
 11
890.738700977
 21
1228.1841146418
 31
0.0
  0
LINE
  5
329
330
1F
100
AcDbEntity
  8
1
  6
SLD-Сплошная
100
AcDbLine
 10
893.0721533549
 20
1228.1841146418
 30
0.0
 11
893.5671281017
 21
1228.6790893886
 31
0.0
  0
LINE
  5
32A
330
1F
100
AcDbEntity
  8
1
  6
SLD-Сплошная
100
AcDbLine
 10
893.5671281017
 20
1231.0125417665
 30
0.0
 11
893.0721533549
 21
1231.5075165134
 31
0.0
  0
LINE
  5
32B
330
1F
100
AcDbEntity
  8
1
  6
SLD-Сплошная
100
AcDbLine
 10
890.738700977
 20
1231.5075165134
 30
0.0
 11
890.2437262302
 21
1231.0125417665
 31
0.0
  0
CIRCLE
  5
32C
330
1F
100
AcDbEntity
  8
1
  6
SLD-Сплошная
100
AcDbCircle
 10
891.9054271659
 20
1229.8458155776
 30
0.0
 40
4.999999999999879
  0
ELLIPSE
  5
32D
330
1F
100
AcDbEntity
  8
1
  6
SLD-Сплошная
100
AcDbEllipse
 10
692.9748139472
 20
1229.8458155776
 30
0.0
 11
-0.4122489361055841
 21
0.0
 31
0.0
210
0.0
220
0.0
230
1.0
 40
0.9702875252
 41
5.512866274278831
 42
7.053504340080355
  0
SPLINE
  5
32E
330
1F
100
AcDbEntity
  8
1
  6
SLD-Сплошная
100
AcDbSpline
210
0.0
220
0.0
230
1.0
 70
     8
 71
     3
 72
    12
 73
     8
 74
     0
 42
0.00000001
 43
0.00000001
 40
0.0
 40
0.0
 40
0.0
 40
0.0
 40
0.2187857887072182
 40
0.4375776469534861
 40
0.6562353658863578
 40
0.8748419359490965
 40
1.0
 40
1.0
 40
1.0
 40
1.0
 10
693.0185376597594
 20
1230.124361273708
 30
0.0
 10
692.9915742336874
 20
1230.089035876839
 30
0.0
 10
692.9376466335259
 20
1230.018384103106
 30
0.0
 10
692.9050507445528
 20
1229.884420874465
 30
0.0
 10
692.9143998757949
 20
1229.748878248185
 30
0.0
 10
692.9582786338766
 20
1229.639980443892
 30
0.0
 10
693.0024541921632
 20
1229.586676733086
 30
0.0
 10
693.0185376597594
 20
1229.567269881452
 30
0.0
  0
ELLIPSE
  5
32F
330
1F
100
AcDbEntity
  8
1
  6
SLD-Сплошная
100
AcDbEllipse
 10
691.9054271659
 20
1230.9152023589
 30
0.0
 11
0.0
 21
-0.4122489361056978
 31
0.0
210
0.0
220
0.0
230
1.0
 40
0.9702875252
 41
5.512866274278359
 42
7.053504340080828
  0
SPLINE
  5
330
330
1F
100
AcDbEntity
  8
1
  6
SLD-Сплошная
100
AcDbSpline
210
0.0
220
0.0
230
1.0
 70
     8
 71
     3
 72
    12
 73
     8
 74
     0
 42
0.00000001
 43
0.00000001
 40
0.0
 40
0.0
 40
0.0
 40
0.0
 40
0.2187857887071912
 40
0.4375776469534632
 40
0.656235365886384
 40
0.8748419359490767
 40
1.0
 40
1.0
 40
1.0
 40
1.0
 10
691.6268814698191
 20
1230.958926071392
 30
0.0
 10
691.6622068666882
 20
1230.93196264532
 30
0.0
 10
691.7328586404204
 20
1230.878035045158
 30
0.0
 10
691.8668218690616
 20
1230.845439156185
 30
0.0
 10
692.0023644953415
 20
1230.854788287427
 30
0.0
 10
692.1112622996354
 20
1230.898667045509
 30
0.0
 10
692.1645660104413
 20
1230.942842603796
 30
0.0
 10
692.1839728620752
 20
1230.958926071392
 30
0.0
  0
ELLIPSE
  5
331
330
1F
100
AcDbEntity
  8
1
  6
SLD-Сплошная
100
AcDbEllipse
 10
691.9054271659
 20
1228.7764287963
 30
0.0
 11
0.0
 21
0.4122489361056978
 31
0.0
210
0.0
220
0.0
230
1.0
 40
0.9702875252
 41
5.512866274278359
 42
7.053504340080828
  0
SPLINE
  5
332
330
1F
100
AcDbEntity
  8
1
  6
SLD-Сплошная
100
AcDbSpline
210
0.0
220
0.0
230
1.0
 70
     8
 71
     3
 72
    12
 73
     8
 74
     0
 42
0.00000001
 43
0.00000001
 40
0.0
 40
0.0
 40
0.0
 40
0.0
 40
0.2187857887072066
 40
0.4375776469534695
 40
0.6562353658863811
 40
0.8748419359490819
 40
1.0
 40
1.0
 40
1.0
 40
1.0
 10
692.1839728620752
 20
1228.732705083768
 30
0.0
 10
692.1486474652062
 20
1228.75966850984
 30
0.0
 10
692.0779956914738
 20
1228.813596110001
 30
0.0
 10
691.9440324628328
 20
1228.846191998974
 30
0.0
 10
691.8084898365529
 20
1228.836842867732
 30
0.0
 10
691.6995920322588
 20
1228.79296410965
 30
0.0
 10
691.646288321453
 20
1228.748788551364
 30
0.0
 10
691.6268814698191
 20
1228.732705083768
 30
0.0
  0
ELLIPSE
  5
333
330
1F
100
AcDbEntity
  8
1
  6
SLD-Сплошная
100
AcDbEllipse
 10
690.8360403847
 20
1229.8458155776
 30
0.0
 11
0.4122489361056978
 21
0.0
 31
0.0
210
0.0
220
0.0
230
1.0
 40
0.9702875252
 41
5.512866274278409
 42
7.053504340080777
  0
SPLINE
  5
334
330
1F
100
AcDbEntity
  8
1
  6
SLD-Сплошная
100
AcDbSpline
210
0.0
220
0.0
230
1.0
 70
     8
 71
     3
 72
    12
 73
     8
 74
     0
 42
0.00000001
 43
0.00000001
 40
0.0
 40
0.0
 40
0.0
 40
0.0
 40
0.2187857887072142
 40
0.4375776469534839
 40
0.6562353658863967
 40
0.8748419359490988
 40
1.0
 40
1.0
 40
1.0
 40
1.0
 10
690.7923166721348
 20
1229.567269881452
 30
0.0
 10
690.819280098207
 20
1229.602595278321
 30
0.0
 10
690.8732076983684
 20
1229.673247052053
 30
0.0
 10
690.9058035873416
 20
1229.807210280694
 30
0.0
 10
690.8964544560995
 20
1229.942752906974
 30
0.0
 10
690.8525756980176
 20
1230.051650711268
 30
0.0
 10
690.8084001397311
 20
1230.104954422074
 30
0.0
 10
690.7923166721348
 20
1230.124361273708
 30
0.0
  0
ARC
  5
335
330
1F
100
AcDbEntity
  8
1
  6
SLD-Сплошная
100
AcDbCircle
 10
674.6601591849
 20
1247.0910835586
 30
0.0
 40
26.56195549581327
100
AcDbArc
 50
313.8816987744
 51
316.1183012256
  0
ARC
  5
336
330
1F
100
AcDbEntity
  8
1
  6
SLD-Сплошная
100
AcDbCircle
 10
675.8924041924
 20
1213.6044013417
 30
0.0
 40
23.41191191596275
100
AcDbArc
 50
40.0824770913
 51
42.9865596106
  0
ARC
  5
337
330
1F
100
AcDbEntity
  8
1
  6
SLD-Сплошная
100
AcDbCircle
 10
675.8924041922
 20
1246.0872298136
 30
0.0
 40
23.4119119161661
100
AcDbArc
 50
317.0134403894
 51
319.9175229087
  0
ARC
  5
338
330
1F
100
AcDbEntity
  8
1
  6
SLD-Сплошная
100
AcDbCircle
 10
674.6601591845
 20
1212.6005475962
 30
0.0
 40
26.56195549633827
100
AcDbArc
 50
43.8816987744
 51
46.1183012256
  0
ARC
  5
339
330
1F
100
AcDbEntity
  8
1
  6
SLD-Сплошная
100
AcDbCircle
 10
708.1468414019
 20
1213.8327926039
 30
0.0
 40
23.41191191604
100
AcDbArc
 50
130.0824770913
 51
132.9865596106
  0
ARC
  5
33A
330
1F
100
AcDbEntity
  8
1
  6
SLD-Сплошная
100
AcDbCircle
 10
675.6640129299
 20
1213.8327926038
 30
0.0
 40
23.41191191616526
100
AcDbArc
 50
47.0134403894
 51
49.9175229087
  0
ARC
  5
33B
330
1F
100
AcDbEntity
  8
1
  6
SLD-Сплошная
100
AcDbCircle
 10
709.1506951479
 20
1212.6005475956
 30
0.0
 40
26.56195549709378
100
AcDbArc
 50
133.8816987745
 51
136.1183012256
  0
ARC
  5
33C
330
1F
100
AcDbEntity
  8
1
  6
SLD-Сплошная
100
AcDbCircle
 10
707.9184501399
 20
1246.0872298138
 30
0.0
 40
23.41191191648929
100
AcDbArc
 50
220.0824770913
 51
222.9865596106
  0
ARC
  5
33D
330
1F
100
AcDbEntity
  8
1
  6
SLD-Сплошная
100
AcDbCircle
 10
707.9184501398
 20
1213.6044013415
 30
0.0
 40
23.41191191628608
100
AcDbArc
 50
137.0134403894
 51
139.9175229087
  0
ARC
  5
33E
330
1F
100
AcDbEntity
  8
1
  6
SLD-Сплошная
100
AcDbCircle
 10
709.1506951474
 20
1247.091083559
 30
0.0
 40
26.56195549632822
100
AcDbArc
 50
223.8816987744
 51
226.1183012256
  0
ARC
  5
33F
330
1F
100
AcDbEntity
  8
1
  6
SLD-Сплошная
100
AcDbCircle
 10
675.6640129302
 20
1245.858838551
 30
0.0
 40
23.41191191573386
100
AcDbArc
 50
310.0824770913
 51
312.9865596106
  0
ARC
  5
340
330
1F
100
AcDbEntity
  8
1
  6
SLD-Сплошная
100
AcDbCircle
 10
708.1468414017
 20
1245.858838551
 30
0.0
 40
23.41191191573386
100
AcDbArc
 50
227.0134403894
 51
229.9175229087
  0
CIRCLE
  5
341
330
1F
100
AcDbEntity
  8
1
  6
SLD-Сплошная
100
AcDbCircle
 10
691.9054271659
 20
1229.8458155776
 30
0.0
 40
3.500000000000028
  0
LINE
  5
342
330
1F
100
AcDbEntity
  8
1
  6
SLD-Сплошная
100
AcDbLine
 10
693.8052878198
 20
1228.6790893886
 30
0.0
 11
693.5671281017
 21
1228.6790893886
 31
0.0
  0
LINE
  5
343
330
1F
100
AcDbEntity
  8
1
  6
SLD-Сплошная
100
AcDbLine
 10
693.5671281017
 20
1228.6790893886
 30
0.0
 11
692.6789476089
 21
1229.5672698815
 31
0.0
  0
LINE
  5
344
330
1F
100
AcDbEntity
  8
1
  6
SLD-Сплошная
100
AcDbLine
 10
693.0721533549
 20
1227.9459549238
 30
0.0
 11
693.0721533549
 21
1228.1841146418
 31
0.0
  0
LINE
  5
345
330
1F
100
AcDbEntity
  8
1
  6
SLD-Сплошная
100
AcDbLine
 10
692.1839728621
 20
1229.0722951346
 30
0.0
 11
693.0721533549
 21
1228.1841146418
 31
0.0
  0
LINE
  5
346
330
1F
100
AcDbEntity
  8
1
  6
SLD-Сплошная
100
AcDbLine
 10
690.0055665121
 20
1231.0125417665
 30
0.0
 11
690.2437262302
 21
1231.0125417665
 31
0.0
  0
LINE
  5
347
330
1F
100
AcDbEntity
  8
1
  6
SLD-Сплошная
100
AcDbLine
 10
690.2437262302
 20
1231.0125417665
 30
0.0
 11
691.131906723
 21
1230.1243612737
 31
0.0
  0
LINE
  5
348
330
1F
100
AcDbEntity
  8
1
  6
SLD-Сплошная
100
AcDbLine
 10
690.738700977
 20
1227.9459549238
 30
0.0
 11
690.738700977
 21
1228.1841146418
 31
0.0
  0
LINE
  5
349
330
1F
100
AcDbEntity
  8
1
  6
SLD-Сплошная
100
AcDbLine
 10
690.738700977
 20
1228.1841146418
 30
0.0
 11
691.6268814698
 21
1229.0722951346
 31
0.0
  0
LINE
  5
34A
330
1F
100
AcDbEntity
  8
1
  6
SLD-Сплошная
100
AcDbLine
 10
693.0721533549
 20
1231.7456762314
 30
0.0
 11
693.0721533549
 21
1231.5075165134
 31
0.0
  0
LINE
  5
34B
330
1F
100
AcDbEntity
  8
1
  6
SLD-Сплошная
100
AcDbLine
 10
693.0721533549
 20
1231.5075165134
 30
0.0
 11
692.1839728621
 21
1230.6193360205
 31
0.0
  0
LINE
  5
34C
330
1F
100
AcDbEntity
  8
1
  6
SLD-Сплошная
100
AcDbLine
 10
693.8052878198
 20
1231.0125417665
 30
0.0
 11
693.5671281017
 21
1231.0125417665
 31
0.0
  0
LINE
  5
34D
330
1F
100
AcDbEntity
  8
1
  6
SLD-Сплошная
100
AcDbLine
 10
692.6789476089
 20
1230.1243612737
 30
0.0
 11
693.5671281017
 21
1231.0125417665
 31
0.0
  0
LINE
  5
34E
330
1F
100
AcDbEntity
  8
1
  6
SLD-Сплошная
100
AcDbLine
 10
690.738700977
 20
1231.7456762314
 30
0.0
 11
690.738700977
 21
1231.5075165134
 31
0.0
  0
LINE
  5
34F
330
1F
100
AcDbEntity
  8
1
  6
SLD-Сплошная
100
AcDbLine
 10
691.6268814698
 20
1230.6193360205
 30
0.0
 11
690.738700977
 21
1231.5075165134
 31
0.0
  0
LINE
  5
350
330
1F
100
AcDbEntity
  8
1
  6
SLD-Сплошная
100
AcDbLine
 10
690.0055665121
 20
1228.6790893886
 30
0.0
 11
690.2437262302
 21
1228.6790893886
 31
0.0
  0
LINE
  5
351
330
1F
100
AcDbEntity
  8
1
  6
SLD-Сплошная
100
AcDbLine
 10
691.131906723
 20
1229.5672698815
 30
0.0
 11
690.2437262302
 21
1228.6790893886
 31
0.0
  0
LINE
  5
352
330
1F
100
AcDbEntity
  8
1
  6
SLD-Сплошная
100
AcDbLine
 10
693.5671281017
 20
1231.0125417665
 30
0.0
 11
693.0721533549
 21
1231.5075165134
 31
0.0
  0
LINE
  5
353
330
1F
100
AcDbEntity
  8
1
  6
SLD-Сплошная
100
AcDbLine
 10
693.0721533549
 20
1228.1841146418
 30
0.0
 11
693.5671281017
 21
1228.6790893886
 31
0.0
  0
LINE
  5
354
330
1F
100
AcDbEntity
  8
1
  6
SLD-Сплошная
100
AcDbLine
 10
690.2437262302
 20
1228.6790893886
 30
0.0
 11
690.738700977
 21
1228.1841146418
 31
0.0
  0
LINE
  5
355
330
1F
100
AcDbEntity
  8
1
  6
SLD-Сплошная
100
AcDbLine
 10
690.738700977
 20
1231.5075165134
 30
0.0
 11
690.2437262302
 21
1231.0125417665
 31
0.0
  0
CIRCLE
  5
356
330
1F
100
AcDbEntity
  8
1
  6
SLD-Сплошная
100
AcDbCircle
 10
691.9054271659
 20
1229.8458155776
 30
0.0
 40
4.99999999999996
  0
ELLIPSE
  5
357
330
1F
100
AcDbEntity
  8
1
  6
SLD-Сплошная
100
AcDbEllipse
 10
591.9054271659
 20
1230.9152023589
 30
0.0
 11
0.0
 21
-0.4122489361056978
 31
0.0
210
0.0
220
0.0
230
1.0
 40
0.9702875252
 41
5.51286627427868
 42
7.053504340080098
  0
SPLINE
  5
358
330
1F
100
AcDbEntity
  8
1
  6
SLD-Сплошная
100
AcDbSpline
210
0.0
220
0.0
230
1.0
 70
     8
 71
     3
 72
    12
 73
     8
 74
     0
 42
0.00000001
 43
0.00000001
 40
0.0
 40
0.0
 40
0.0
 40
0.0
 40
0.2187857887071718
 40
0.4375776469534864
 40
0.6562353658863612
 40
0.8748419359490948
 40
1.0
 40
1.0
 40
1.0
 40
1.0
 10
591.6268814698191
 20
1230.958926071392
 30
0.0
 10
591.662206866688
 20
1230.93196264532
 30
0.0
 10
591.7328586404204
 20
1230.878035045158
 30
0.0
 10
591.8668218690615
 20
1230.845439156185
 30
0.0
 10
592.0023644953413
 20
1230.854788287427
 30
0.0
 10
592.1112622996355
 20
1230.898667045509
 30
0.0
 10
592.1645660104414
 20
1230.942842603795
 30
0.0
 10
592.1839728620752
 20
1230.958926071392
 30
0.0
  0
ELLIPSE
  5
359
330
1F
100
AcDbEntity
  8
1
  6
SLD-Сплошная
100
AcDbEllipse
 10
590.8360403847
 20
1229.8458155776
 30
0.0
 11
0.4122489361056978
 21
0.0
 31
0.0
210
0.0
220
0.0
230
1.0
 40
0.9702875252
 41
5.512866274278693
 42
7.053504340080086
  0
SPLINE
  5
35A
330
1F
100
AcDbEntity
  8
1
  6
SLD-Сплошная
100
AcDbSpline
210
0.0
220
0.0
230
1.0
 70
     8
 71
     3
 72
    12
 73
     8
 74
     0
 42
0.00000001
 43
0.00000001
 40
0.0
 40
0.0
 40
0.0
 40
0.0
 40
0.2187857887072096
 40
0.4375776469534813
 40
0.6562353658864019
 40
0.8748419359490944
 40
1.0
 40
1.0
 40
1.0
 40
1.0
 10
590.7923166721348
 20
1229.567269881452
 30
0.0
 10
590.819280098207
 20
1229.60259527832
 30
0.0
 10
590.8732076983684
 20
1229.673247052053
 30
0.0
 10
590.9058035873416
 20
1229.807210280694
 30
0.0
 10
590.8964544560994
 20
1229.942752906974
 30
0.0
 10
590.8525756980176
 20
1230.051650711268
 30
0.0
 10
590.8084001397311
 20
1230.104954422074
 30
0.0
 10
590.7923166721349
 20
1230.124361273708
 30
0.0
  0
ARC
  5
35B
330
1F
100
AcDbEntity
  8
1
  6
SLD-Сплошная
100
AcDbCircle
 10
574.6601591848
 20
1247.0910835587
 30
0.0
 40
26.56195549588998
100
AcDbArc
 50
313.8816987744
 51
316.1183012256
  0
ARC
  5
35C
330
1F
100
AcDbEntity
  8
1
  6
SLD-Сплошная
100
AcDbCircle
 10
575.8924041919
 20
1213.6044013413
 30
0.0
 40
23.41191191653899
100
AcDbArc
 50
40.0824770913
 51
42.9865596106
  0
SPLINE
  5
35D
330
1F
100
AcDbEntity
  8
1
  6
SLD-Сплошная
100
AcDbSpline
210
0.0
220
0.0
230
1.0
 70
     8
 71
     3
 72
    12
 73
     8
 74
     0
 42
0.00000001
 43
0.00000001
 40
0.0
 40
0.0
 40
0.0
 40
0.0
 40
0.2187857887072258
 40
0.4375776469534892
 40
0.6562353658863563
 40
0.8748419359490992
 40
1.0
 40
1.0
 40
1.0
 40
1.0
 10
593.0185376597594
 20
1230.124361273708
 30
0.0
 10
592.9915742336873
 20
1230.089035876839
 30
0.0
 10
592.9376466335259
 20
1230.018384103106
 30
0.0
 10
592.9050507445528
 20
1229.884420874465
 30
0.0
 10
592.9143998757949
 20
1229.748878248185
 30
0.0
 10
592.9582786338767
 20
1229.639980443891
 30
0.0
 10
593.0024541921632
 20
1229.586676733085
 30
0.0
 10
593.0185376597594
 20
1229.567269881452
 30
0.0
  0
ARC
  5
35E
330
1F
100
AcDbEntity
  8
1
  6
SLD-Сплошная
100
AcDbCircle
 10
575.8924041918
 20
1246.087229814
 30
0.0
 40
23.41191191673809
100
AcDbArc
 50
317.0134403895
 51
319.9175229086
  0
ARC
  5
35F
330
1F
100
AcDbEntity
  8
1
  6
SLD-Сплошная
100
AcDbCircle
 10
574.6601591842
 20
1212.6005475958
 30
0.0
 40
26.56195549679628
100
AcDbArc
 50
43.8816987744
 51
46.1183012256
  0
ARC
  5
360
330
1F
100
AcDbEntity
  8
1
  6
SLD-Сплошная
100
AcDbCircle
 10
608.1468414022
 20
1213.8327926036
 30
0.0
 40
23.41191191648941
100
AcDbArc
 50
130.0824770913
 51
132.9865596106
  0
ARC
  5
361
330
1F
100
AcDbEntity
  8
1
  6
SLD-Сплошная
100
AcDbCircle
 10
575.6640129298
 20
1213.8327926037
 30
0.0
 40
23.41191191630294
100
AcDbArc
 50
47.0134403894
 51
49.9175229087
  0
ARC
  5
362
330
1F
100
AcDbEntity
  8
1
  6
SLD-Сплошная
100
AcDbCircle
 10
609.1506951472
 20
1212.6005475963
 30
0.0
 40
26.56195549607918
100
AcDbArc
 50
133.8816987744
 51
136.1183012256
  0
ARC
  5
363
330
1F
100
AcDbEntity
  8
1
  6
SLD-Сплошная
100
AcDbCircle
 10
607.9184501398
 20
1246.0872298137
 30
0.0
 40
23.411911916364
100
AcDbArc
 50
220.0824770913
 51
222.9865596106
  0
ARC
  5
364
330
1F
100
AcDbEntity
  8
1
  6
SLD-Сплошная
100
AcDbCircle
 10
607.9184501398
 20
1213.6044013414
 30
0.0
 40
23.41191191633198
100
AcDbArc
 50
137.0134403894
 51
139.9175229087
  0
ARC
  5
365
330
1F
100
AcDbEntity
  8
1
  6
SLD-Сплошная
100
AcDbCircle
 10
609.150695147
 20
1247.0910835586
 30
0.0
 40
26.5619554958156
100
AcDbArc
 50
223.8816987744
 51
226.1183012256
  0
ARC
  5
366
330
1F
100
AcDbEntity
  8
1
  6
SLD-Сплошная
100
AcDbCircle
 10
575.6640129301
 20
1245.8588385512
 30
0.0
 40
23.41191191596485
100
AcDbArc
 50
310.0824770913
 51
312.9865596106
  0
SPLINE
  5
367
330
1F
100
AcDbEntity
  8
1
  6
SLD-Сплошная
100
AcDbSpline
210
0.0
220
0.0
230
1.0
 70
     8
 71
     3
 72
    12
 73
     8
 74
     0
 42
0.00000001
 43
0.00000001
 40
0.0
 40
0.0
 40
0.0
 40
0.0
 40
0.218785788707225
 40
0.4375776469534876
 40
0.656235365886399
 40
0.8748419359490996
 40
1.0
 40
1.0
 40
1.0
 40
1.0
 10
592.1839728620752
 20
1228.732705083767
 30
0.0
 10
592.1486474652062
 20
1228.759668509839
 30
0.0
 10
592.0779956914739
 20
1228.813596110001
 30
0.0
 10
591.9440324628328
 20
1228.846191998974
 30
0.0
 10
591.8084898365528
 20
1228.836842867732
 30
0.0
 10
591.6995920322588
 20
1228.79296410965
 30
0.0
 10
591.646288321453
 20
1228.748788551364
 30
0.0
 10
591.6268814698191
 20
1228.732705083767
 30
0.0
  0
ARC
  5
368
330
1F
100
AcDbEntity
  8
1
  6
SLD-Сплошная
100
AcDbCircle
 10
608.1468414018
 20
1245.8588385512
 30
0.0
 40
23.41191191596517
100
AcDbArc
 50
227.0134403894
 51
229.9175229087
  0
CIRCLE
  5
369
330
1F
100
AcDbEntity
  8
1
  6
SLD-Сплошная
100
AcDbCircle
 10
591.9054271659
 20
1229.8458155776
 30
0.0
 40
3.500000000000109
  0
ELLIPSE
  5
36A
330
1F
100
AcDbEntity
  8
1
  6
SLD-Сплошная
100
AcDbEllipse
 10
592.9748139472
 20
1229.8458155776
 30
0.0
 11
-0.4122489361055841
 21
0.0
 31
0.0
210
0.0
220
0.0
230
1.0
 40
0.9702875252
 41
5.512866274279238
 42
7.053504340080355
  0
ELLIPSE
  5
36B
330
1F
100
AcDbEntity
  8
1
  6
SLD-Сплошная
100
AcDbEllipse
 10
591.9054271659
 20
1228.7764287963
 30
0.0
 11
0.0
 21
0.4122489361059252
 31
0.0
210
0.0
220
0.0
230
1.0
 40
0.9702875252
 41
5.512866274278529
 42
7.053504340081066
  0
LINE
  5
36C
330
1F
100
AcDbEntity
  8
1
  6
SLD-Сплошная
100
AcDbLine
 10
593.8052878198
 20
1228.6790893886
 30
0.0
 11
593.5671281017
 21
1228.6790893886
 31
0.0
  0
LINE
  5
36D
330
1F
100
AcDbEntity
  8
1
  6
SLD-Сплошная
100
AcDbLine
 10
593.5671281017
 20
1228.6790893886
 30
0.0
 11
592.6789476089
 21
1229.5672698815
 31
0.0
  0
LINE
  5
36E
330
1F
100
AcDbEntity
  8
1
  6
SLD-Сплошная
100
AcDbLine
 10
593.0721533549
 20
1227.9459549238
 30
0.0
 11
593.0721533549
 21
1228.1841146418
 31
0.0
  0
LINE
  5
36F
330
1F
100
AcDbEntity
  8
1
  6
SLD-Сплошная
100
AcDbLine
 10
592.1839728621
 20
1229.0722951346
 30
0.0
 11
593.0721533549
 21
1228.1841146418
 31
0.0
  0
LINE
  5
370
330
1F
100
AcDbEntity
  8
1
  6
SLD-Сплошная
100
AcDbLine
 10
590.738700977
 20
1231.7456762314
 30
0.0
 11
590.738700977
 21
1231.5075165134
 31
0.0
  0
LINE
  5
371
330
1F
100
AcDbEntity
  8
1
  6
SLD-Сплошная
100
AcDbLine
 10
591.6268814698
 20
1230.6193360205
 30
0.0
 11
590.738700977
 21
1231.5075165134
 31
0.0
  0
LINE
  5
372
330
1F
100
AcDbEntity
  8
1
  6
SLD-Сплошная
100
AcDbLine
 10
590.0055665121
 20
1228.6790893886
 30
0.0
 11
590.2437262302
 21
1228.6790893886
 31
0.0
  0
LINE
  5
373
330
1F
100
AcDbEntity
  8
1
  6
SLD-Сплошная
100
AcDbLine
 10
591.131906723
 20
1229.5672698815
 30
0.0
 11
590.2437262302
 21
1228.6790893886
 31
0.0
  0
LINE
  5
374
330
1F
100
AcDbEntity
  8
1
  6
SLD-Сплошная
100
AcDbLine
 10
590.0055665121
 20
1231.0125417665
 30
0.0
 11
590.2437262302
 21
1231.0125417665
 31
0.0
  0
LINE
  5
375
330
1F
100
AcDbEntity
  8
1
  6
SLD-Сплошная
100
AcDbLine
 10
590.2437262302
 20
1231.0125417665
 30
0.0
 11
591.131906723
 21
1230.1243612737
 31
0.0
  0
LINE
  5
376
330
1F
100
AcDbEntity
  8
1
  6
SLD-Сплошная
100
AcDbLine
 10
590.738700977
 20
1227.9459549238
 30
0.0
 11
590.738700977
 21
1228.1841146418
 31
0.0
  0
LINE
  5
377
330
1F
100
AcDbEntity
  8
1
  6
SLD-Сплошная
100
AcDbLine
 10
590.738700977
 20
1228.1841146418
 30
0.0
 11
591.6268814698
 21
1229.0722951346
 31
0.0
  0
LINE
  5
378
330
1F
100
AcDbEntity
  8
1
  6
SLD-Сплошная
100
AcDbLine
 10
593.0721533549
 20
1231.7456762314
 30
0.0
 11
593.0721533549
 21
1231.5075165134
 31
0.0
  0
LINE
  5
379
330
1F
100
AcDbEntity
  8
1
  6
SLD-Сплошная
100
AcDbLine
 10
593.0721533549
 20
1231.5075165134
 30
0.0
 11
592.1839728621
 21
1230.6193360205
 31
0.0
  0
LINE
  5
37A
330
1F
100
AcDbEntity
  8
1
  6
SLD-Сплошная
100
AcDbLine
 10
593.8052878198
 20
1231.0125417665
 30
0.0
 11
593.5671281017
 21
1231.0125417665
 31
0.0
  0
LINE
  5
37B
330
1F
100
AcDbEntity
  8
1
  6
SLD-Сплошная
100
AcDbLine
 10
592.6789476089
 20
1230.1243612737
 30
0.0
 11
593.5671281017
 21
1231.0125417665
 31
0.0
  0
LINE
  5
37C
330
1F
100
AcDbEntity
  8
1
  6
SLD-Сплошная
100
AcDbLine
 10
593.5671281017
 20
1231.0125417665
 30
0.0
 11
593.0721533549
 21
1231.5075165134
 31
0.0
  0
LINE
  5
37D
330
1F
100
AcDbEntity
  8
1
  6
SLD-Сплошная
100
AcDbLine
 10
593.0721533549
 20
1228.1841146418
 30
0.0
 11
593.5671281017
 21
1228.6790893886
 31
0.0
  0
LINE
  5
37E
330
1F
100
AcDbEntity
  8
1
  6
SLD-Сплошная
100
AcDbLine
 10
590.2437262302
 20
1228.6790893886
 30
0.0
 11
590.738700977
 21
1228.1841146418
 31
0.0
  0
LINE
  5
37F
330
1F
100
AcDbEntity
  8
1
  6
SLD-Сплошная
100
AcDbLine
 10
590.738700977
 20
1231.5075165134
 30
0.0
 11
590.2437262302
 21
1231.0125417665
 31
0.0
  0
CIRCLE
  5
380
330
1F
100
AcDbEntity
  8
1
  6
SLD-Сплошная
100
AcDbCircle
 10
591.9054271659
 20
1229.8458155776
 30
0.0
 40
5.000000000000041
  0
ARC
  5
381
330
1F
100
AcDbEntity
  8
1
  6
SLD-Сплошная
100
AcDbCircle
 10
609.1506951469
 20
1407.0910835586
 30
0.0
 40
26.56195549573981
100
AcDbArc
 50
223.8816987744
 51
226.1183012256
  0
ARC
  5
382
330
1F
100
AcDbEntity
  8
1
  6
SLD-Сплошная
100
AcDbCircle
 10
575.6640129298
 20
1405.8588385515
 30
0.0
 40
23.41191191640367
100
AcDbArc
 50
310.0824770913
 51
312.9865596106
  0
SPLINE
  5
383
330
1F
100
AcDbEntity
  8
1
  6
SLD-Сплошная
100
AcDbSpline
210
0.0
220
0.0
230
1.0
 70
     8
 71
     3
 72
    12
 73
     8
 74
     0
 42
0.00000001
 43
0.00000001
 40
0.0
 40
0.0
 40
0.0
 40
0.0
 40
0.2187857887072158
 40
0.437577646953487
 40
0.656235365886403
 40
0.874841935949098
 40
1.0
 40
1.0
 40
1.0
 40
1.0
 10
592.1839728620752
 20
1388.732705083768
 30
0.0
 10
592.1486474652062
 20
1388.759668509839
 30
0.0
 10
592.0779956914739
 20
1388.813596110001
 30
0.0
 10
591.9440324628328
 20
1388.846191998974
 30
0.0
 10
591.8084898365528
 20
1388.836842867732
 30
0.0
 10
591.6995920322587
 20
1388.79296410965
 30
0.0
 10
591.6462883214529
 20
1388.748788551364
 30
0.0
 10
591.6268814698191
 20
1388.732705083768
 30
0.0
  0
ARC
  5
384
330
1F
100
AcDbEntity
  8
1
  6
SLD-Сплошная
100
AcDbCircle
 10
608.1468414021
 20
1405.8588385514
 30
0.0
 40
23.41191191630294
100
AcDbArc
 50
227.0134403894
 51
229.9175229087
  0
ARC
  5
385
330
1F
100
AcDbEntity
  8
1
  6
SLD-Сплошная
100
AcDbCircle
 10
574.6601591847
 20
1407.0910835588
 30
0.0
 40
26.56195549606893
100
AcDbArc
 50
313.8816987744
 51
316.1183012256
  0
ARC
  5
386
330
1F
100
AcDbEntity
  8
1
  6
SLD-Сплошная
100
AcDbCircle
 10
575.8924041918
 20
1373.6044013412
 30
0.0
 40
23.41191191668838
100
AcDbArc
 50
40.0824770913
 51
42.9865596105
  0
SPLINE
  5
387
330
1F
100
AcDbEntity
  8
1
  6
SLD-Сплошная
100
AcDbSpline
210
0.0
220
0.0
230
1.0
 70
     8
 71
     3
 72
    12
 73
     8
 74
     0
 42
0.00000001
 43
0.00000001
 40
0.0
 40
0.0
 40
0.0
 40
0.0
 40
0.2187857887072255
 40
0.4375776469534884
 40
0.6562353658863777
 40
0.8748419359490994
 40
1.0
 40
1.0
 40
1.0
 40
1.0
 10
593.0185376597594
 20
1390.124361273708
 30
0.0
 10
592.9915742336873
 20
1390.089035876839
 30
0.0
 10
592.9376466335258
 20
1390.018384103107
 30
0.0
 10
592.9050507445527
 20
1389.884420874465
 30
0.0
 10
592.9143998757949
 20
1389.748878248186
 30
0.0
 10
592.9582786338766
 20
1389.639980443892
 30
0.0
 10
593.0024541921631
 20
1389.586676733086
 30
0.0
 10
593.0185376597594
 20
1389.567269881452
 30
0.0
  0
ARC
  5
388
330
1F
100
AcDbEntity
  8
1
  6
SLD-Сплошная
100
AcDbCircle
 10
575.8924041918
 20
1406.087229814
 30
0.0
 40
23.41191191670794
100
AcDbArc
 50
317.0134403895
 51
319.9175229087
  0
ARC
  5
389
330
1F
100
AcDbEntity
  8
1
  6
SLD-Сплошная
100
AcDbCircle
 10
574.6601591849
 20
1372.6005475965
 30
0.0
 40
26.56195549581551
100
AcDbArc
 50
43.8816987744
 51
46.1183012256
  0
ARC
  5
38A
330
1F
100
AcDbEntity
  8
1
  6
SLD-Сплошная
100
AcDbCircle
 10
608.1468414017
 20
1373.8327926042
 30
0.0
 40
23.41191191573354
100
AcDbArc
 50
130.0824770913
 51
132.9865596106
  0
SPLINE
  5
38B
330
1F
100
AcDbEntity
  8
1
  6
SLD-Сплошная
100
AcDbSpline
210
0.0
220
0.0
230
1.0
 70
     8
 71
     3
 72
    12
 73
     8
 74
     0
 42
0.00000001
 43
0.00000001
 40
0.0
 40
0.0
 40
0.0
 40
0.0
 40
0.2187857887071779
 40
0.4375776469534922
 40
0.6562353658863623
 40
0.8748419359490983
 40
1.0
 40
1.0
 40
1.0
 40
1.0
 10
591.6268814698191
 20
1390.958926071392
 30
0.0
 10
591.662206866688
 20
1390.93196264532
 30
0.0
 10
591.7328586404204
 20
1390.878035045159
 30
0.0
 10
591.8668218690615
 20
1390.845439156185
 30
0.0
 10
592.0023644953413
 20
1390.854788287427
 30
0.0
 10
592.1112622996354
 20
1390.898667045509
 30
0.0
 10
592.1645660104413
 20
1390.942842603796
 30
0.0
 10
592.1839728620752
 20
1390.958926071392
 30
0.0
  0
ARC
  5
38C
330
1F
100
AcDbEntity
  8
1
  6
SLD-Сплошная
100
AcDbCircle
 10
575.6640129302
 20
1373.8327926042
 30
0.0
 40
23.41191191573362
100
AcDbArc
 50
47.0134403894
 51
49.9175229087
  0
ARC
  5
38D
330
1F
100
AcDbEntity
  8
1
  6
SLD-Сплошная
100
AcDbCircle
 10
609.1506951468
 20
1372.6005475968
 30
0.0
 40
26.56195549548654
100
AcDbArc
 50
133.8816987744
 51
136.1183012256
  0
ARC
  5
38E
330
1F
100
AcDbEntity
  8
1
  6
SLD-Сплошная
100
AcDbCircle
 10
607.9184501399
 20
1406.0872298138
 30
0.0
 40
23.4119119165003
100
AcDbArc
 50
220.0824770913
 51
222.9865596106
  0
SPLINE
  5
38F
330
1F
100
AcDbEntity
  8
1
  6
SLD-Сплошная
100
AcDbSpline
210
0.0
220
0.0
230
1.0
 70
     8
 71
     3
 72
    12
 73
     8
 74
     0
 42
0.00000001
 43
0.00000001
 40
0.0
 40
0.0
 40
0.0
 40
0.0
 40
0.2187857887072118
 40
0.4375776469534857
 40
0.6562353658864084
 40
0.8748419359491202
 40
1.0
 40
1.0
 40
1.0
 40
1.0
 10
590.7923166721348
 20
1389.567269881452
 30
0.0
 10
590.8192800982068
 20
1389.602595278321
 30
0.0
 10
590.8732076983683
 20
1389.673247052053
 30
0.0
 10
590.9058035873413
 20
1389.807210280694
 30
0.0
 10
590.8964544560994
 20
1389.942752906974
 30
0.0
 10
590.8525756980175
 20
1390.051650711268
 30
0.0
 10
590.808400139731
 20
1390.104954422074
 30
0.0
 10
590.7923166721348
 20
1390.124361273708
 30
0.0
  0
ARC
  5
390
330
1F
100
AcDbEntity
  8
1
  6
SLD-Сплошная
100
AcDbCircle
 10
607.91845014
 20
1373.6044013413
 30
0.0
 40
23.41191191656915
100
AcDbArc
 50
137.0134403895
 51
139.9175229087
  0
CIRCLE
  5
391
330
1F
100
AcDbEntity
  8
1
  6
SLD-Сплошная
100
AcDbCircle
 10
591.9054271659
 20
1389.8458155776
 30
0.0
 40
3.500000000000028
  0
ELLIPSE
  5
392
330
1F
100
AcDbEntity
  8
1
  6
SLD-Сплошная
100
AcDbEllipse
 10
591.9054271659
 20
1388.7764287963
 30
0.0
 11
0.0
 21
0.4122489361059252
 31
0.0
210
0.0
220
0.0
230
1.0
 40
0.9702875252
 41
5.512866274278466
 42
7.053504340080719
  0
ELLIPSE
  5
393
330
1F
100
AcDbEntity
  8
1
  6
SLD-Сплошная
100
AcDbEllipse
 10
592.9748139472
 20
1389.8458155776
 30
0.0
 11
-0.4122489361056978
 21
0.0
 31
0.0
210
0.0
220
0.0
230
1.0
 40
0.9702875252
 41
5.512866274278816
 42
7.053504340080777
  0
ELLIPSE
  5
394
330
1F
100
AcDbEntity
  8
1
  6
SLD-Сплошная
100
AcDbEllipse
 10
590.8360403847
 20
1389.8458155776
 30
0.0
 11
0.4122489361055841
 21
0.0
 31
0.0
210
0.0
220
0.0
230
1.0
 40
0.9702875252
 41
5.512866274278831
 42
7.053504340079948
  0
ELLIPSE
  5
395
330
1F
100
AcDbEntity
  8
1
  6
SLD-Сплошная
100
AcDbEllipse
 10
591.9054271659
 20
1390.9152023589
 30
0.0
 11
0.0
 21
-0.4122489361054704
 31
0.0
210
0.0
220
0.0
230
1.0
 40
0.9702875252
 41
5.512866274278634
 42
7.053504340080551
  0
LINE
  5
396
330
1F
100
AcDbEntity
  8
1
  6
SLD-Сплошная
100
AcDbLine
 10
593.0721533549
 20
1391.7456762314
 30
0.0
 11
593.0721533549
 21
1391.5075165134
 31
0.0
  0
LINE
  5
397
330
1F
100
AcDbEntity
  8
1
  6
SLD-Сплошная
100
AcDbLine
 10
593.0721533549
 20
1391.5075165134
 30
0.0
 11
592.1839728621
 21
1390.6193360205
 31
0.0
  0
LINE
  5
398
330
1F
100
AcDbEntity
  8
1
  6
SLD-Сплошная
100
AcDbLine
 10
593.8052878198
 20
1391.0125417665
 30
0.0
 11
593.5671281017
 21
1391.0125417665
 31
0.0
  0
LINE
  5
399
330
1F
100
AcDbEntity
  8
1
  6
SLD-Сплошная
100
AcDbLine
 10
592.6789476089
 20
1390.1243612737
 30
0.0
 11
593.5671281017
 21
1391.0125417665
 31
0.0
  0
LINE
  5
39A
330
1F
100
AcDbEntity
  8
1
  6
SLD-Сплошная
100
AcDbLine
 10
593.8052878198
 20
1388.6790893886
 30
0.0
 11
593.5671281017
 21
1388.6790893886
 31
0.0
  0
LINE
  5
39B
330
1F
100
AcDbEntity
  8
1
  6
SLD-Сплошная
100
AcDbLine
 10
593.5671281017
 20
1388.6790893886
 30
0.0
 11
592.6789476089
 21
1389.5672698815
 31
0.0
  0
LINE
  5
39C
330
1F
100
AcDbEntity
  8
1
  6
SLD-Сплошная
100
AcDbLine
 10
593.0721533549
 20
1387.9459549238
 30
0.0
 11
593.0721533549
 21
1388.1841146418
 31
0.0
  0
LINE
  5
39D
330
1F
100
AcDbEntity
  8
1
  6
SLD-Сплошная
100
AcDbLine
 10
592.1839728621
 20
1389.0722951346
 30
0.0
 11
593.0721533549
 21
1388.1841146418
 31
0.0
  0
LINE
  5
39E
330
1F
100
AcDbEntity
  8
1
  6
SLD-Сплошная
100
AcDbLine
 10
590.0055665121
 20
1388.6790893886
 30
0.0
 11
590.2437262302
 21
1388.6790893886
 31
0.0
  0
LINE
  5
39F
330
1F
100
AcDbEntity
  8
1
  6
SLD-Сплошная
100
AcDbLine
 10
591.131906723
 20
1389.5672698815
 30
0.0
 11
590.2437262302
 21
1388.6790893886
 31
0.0
  0
LINE
  5
3A0
330
1F
100
AcDbEntity
  8
1
  6
SLD-Сплошная
100
AcDbLine
 10
590.738700977
 20
1391.7456762314
 30
0.0
 11
590.738700977
 21
1391.5075165134
 31
0.0
  0
LINE
  5
3A1
330
1F
100
AcDbEntity
  8
1
  6
SLD-Сплошная
100
AcDbLine
 10
591.6268814698
 20
1390.6193360205
 30
0.0
 11
590.738700977
 21
1391.5075165134
 31
0.0
  0
LINE
  5
3A2
330
1F
100
AcDbEntity
  8
1
  6
SLD-Сплошная
100
AcDbLine
 10
590.0055665121
 20
1391.0125417665
 30
0.0
 11
590.2437262302
 21
1391.0125417665
 31
0.0
  0
LINE
  5
3A3
330
1F
100
AcDbEntity
  8
1
  6
SLD-Сплошная
100
AcDbLine
 10
590.2437262302
 20
1391.0125417665
 30
0.0
 11
591.131906723
 21
1390.1243612737
 31
0.0
  0
LINE
  5
3A4
330
1F
100
AcDbEntity
  8
1
  6
SLD-Сплошная
100
AcDbLine
 10
590.738700977
 20
1387.9459549238
 30
0.0
 11
590.738700977
 21
1388.1841146418
 31
0.0
  0
LINE
  5
3A5
330
1F
100
AcDbEntity
  8
1
  6
SLD-Сплошная
100
AcDbLine
 10
590.738700977
 20
1388.1841146418
 30
0.0
 11
591.6268814698
 21
1389.0722951346
 31
0.0
  0
LINE
  5
3A6
330
1F
100
AcDbEntity
  8
1
  6
SLD-Сплошная
100
AcDbLine
 10
593.5671281017
 20
1391.0125417665
 30
0.0
 11
593.0721533549
 21
1391.5075165134
 31
0.0
  0
LINE
  5
3A7
330
1F
100
AcDbEntity
  8
1
  6
SLD-Сплошная
100
AcDbLine
 10
593.0721533549
 20
1388.1841146418
 30
0.0
 11
593.5671281017
 21
1388.6790893886
 31
0.0
  0
LINE
  5
3A8
330
1F
100
AcDbEntity
  8
1
  6
SLD-Сплошная
100
AcDbLine
 10
590.738700977
 20
1391.5075165134
 30
0.0
 11
590.2437262302
 21
1391.0125417665
 31
0.0
  0
LINE
  5
3A9
330
1F
100
AcDbEntity
  8
1
  6
SLD-Сплошная
100
AcDbLine
 10
590.2437262302
 20
1388.6790893886
 30
0.0
 11
590.738700977
 21
1388.1841146418
 31
0.0
  0
CIRCLE
  5
3AA
330
1F
100
AcDbEntity
  8
1
  6
SLD-Сплошная
100
AcDbCircle
 10
591.9054271659
 20
1389.8458155776
 30
0.0
 40
5.000000000000121
  0
ARC
  5
3AB
330
1F
100
AcDbEntity
  8
1
  6
SLD-Сплошная
100
AcDbCircle
 10
591.650695147
 20
1389.5910835586
 30
0.0
 40
26.56195549580399
100
AcDbArc
 50
223.8816987744
 51
226.1183012256
  0
ARC
  5
3AC
330
1F
100
AcDbEntity
  8
1
  6
SLD-Сплошная
100
AcDbCircle
 10
558.1640129296
 20
1388.3588385517
 30
0.0
 40
23.41191191662664
100
AcDbArc
 50
310.0824770913
 51
312.9865596106
  0
SPLINE
  5
3AD
330
1F
100
AcDbEntity
  8
1
  6
SLD-Сплошная
100
AcDbSpline
210
0.0
220
0.0
230
1.0
 70
     8
 71
     3
 72
    12
 73
     8
 74
     0
 42
0.00000001
 43
0.00000001
 40
0.0
 40
0.0
 40
0.0
 40
0.0
 40
0.2187857887072158
 40
0.437577646953487
 40
0.656235365886403
 40
0.874841935949098
 40
1.0
 40
1.0
 40
1.0
 40
1.0
 10
574.6839728620752
 20
1371.232705083768
 30
0.0
 10
574.6486474652062
 20
1371.25966850984
 30
0.0
 10
574.5779956914738
 20
1371.313596110001
 30
0.0
 10
574.4440324628329
 20
1371.346191998974
 30
0.0
 10
574.3084898365527
 20
1371.336842867732
 30
0.0
 10
574.1995920322588
 20
1371.29296410965
 30
0.0
 10
574.1462883214529
 20
1371.248788551364
 30
0.0
 10
574.1268814698191
 20
1371.232705083768
 30
0.0
  0
ARC
  5
3AE
330
1F
100
AcDbEntity
  8
1
  6
SLD-Сплошная
100
AcDbCircle
 10
590.6468414023
 20
1388.3588385516
 30
0.0
 40
23.41191191658029
100
AcDbArc
 50
227.0134403894
 51
229.9175229087
  0
ARC
  5
3AF
330
1F
100
AcDbEntity
  8
1
  6
SLD-Сплошная
100
AcDbCircle
 10
557.1601591845
 20
1389.591083559
 30
0.0
 40
26.5619554963431
100
AcDbArc
 50
313.8816987744
 51
316.1183012256
  0
ARC
  5
3B0
330
1F
100
AcDbEntity
  8
1
  6
SLD-Сплошная
100
AcDbCircle
 10
558.3924041925
 20
1356.1044013418
 30
0.0
 40
23.41191191580276
100
AcDbArc
 50
40.0824770913
 51
42.9865596106
  0
SPLINE
  5
3B1
330
1F
100
AcDbEntity
  8
1
  6
SLD-Сплошная
100
AcDbSpline
210
0.0
220
0.0
230
1.0
 70
     8
 71
     3
 72
    12
 73
     8
 74
     0
 42
0.00000001
 43
0.00000001
 40
0.0
 40
0.0
 40
0.0
 40
0.0
 40
0.2187857887072255
 40
0.4375776469534884
 40
0.6562353658863777
 40
0.8748419359490994
 40
1.0
 40
1.0
 40
1.0
 40
1.0
 10
575.5185376597593
 20
1372.624361273708
 30
0.0
 10
575.4915742336874
 20
1372.589035876839
 30
0.0
 10
575.4376466335258
 20
1372.518384103107
 30
0.0
 10
575.4050507445526
 20
1372.384420874465
 30
0.0
 10
575.4143998757949
 20
1372.248878248186
 30
0.0
 10
575.4582786338766
 20
1372.139980443892
 30
0.0
 10
575.5024541921632
 20
1372.086676733086
 30
0.0
 10
575.5185376597593
 20
1372.067269881452
 30
0.0
  0
ARC
  5
3B2
330
1F
100
AcDbEntity
  8
1
  6
SLD-Сплошная
100
AcDbCircle
 10
558.3924041925
 20
1388.5872298134
 30
0.0
 40
23.41191191580261
100
AcDbArc
 50
317.0134403894
 51
319.9175229087
  0
ARC
  5
3B3
330
1F
100
AcDbEntity
  8
1
  6
SLD-Сплошная
100
AcDbCircle
 10
557.160159185
 20
1355.1005475966
 30
0.0
 40
26.56195549567446
100
AcDbArc
 50
43.8816987744
 51
46.1183012256
  0
ARC
  5
3B4
330
1F
100
AcDbEntity
  8
1
  6
SLD-Сплошная
100
AcDbCircle
 10
590.646841402
 20
1356.3327926038
 30
0.0
 40
23.41191191624478
100
AcDbArc
 50
130.0824770913
 51
132.9865596106
  0
SPLINE
  5
3B5
330
1F
100
AcDbEntity
  8
1
  6
SLD-Сплошная
100
AcDbSpline
210
0.0
220
0.0
230
1.0
 70
     8
 71
     3
 72
    12
 73
     8
 74
     0
 42
0.00000001
 43
0.00000001
 40
0.0
 40
0.0
 40
0.0
 40
0.0
 40
0.2187857887071779
 40
0.4375776469534922
 40
0.6562353658863623
 40
0.8748419359490983
 40
1.0
 40
1.0
 40
1.0
 40
1.0
 10
574.1268814698191
 20
1373.458926071392
 30
0.0
 10
574.162206866688
 20
1373.43196264532
 30
0.0
 10
574.2328586404204
 20
1373.378035045159
 30
0.0
 10
574.3668218690614
 20
1373.345439156185
 30
0.0
 10
574.5023644953415
 20
1373.354788287427
 30
0.0
 10
574.6112622996354
 20
1373.398667045509
 30
0.0
 10
574.6645660104413
 20
1373.442842603796
 30
0.0
 10
574.6839728620752
 20
1373.458926071392
 30
0.0
  0
ARC
  5
3B6
330
1F
100
AcDbEntity
  8
1
  6
SLD-Сплошная
100
AcDbCircle
 10
558.1640129299
 20
1356.3327926038
 30
0.0
 40
23.41191191618919
100
AcDbArc
 50
47.0134403894
 51
49.9175229087
  0
ARC
  5
3B7
330
1F
100
AcDbEntity
  8
1
  6
SLD-Сплошная
100
AcDbCircle
 10
591.6506951471
 20
1355.1005475964
 30
0.0
 40
26.56195549592969
100
AcDbArc
 50
133.8816987744
 51
136.1183012256
  0
ARC
  5
3B8
330
1F
100
AcDbEntity
  8
1
  6
SLD-Сплошная
100
AcDbCircle
 10
590.4184501393
 20
1388.5872298133
 30
0.0
 40
23.41191191571517
100
AcDbArc
 50
220.0824770913
 51
222.9865596106
  0
SPLINE
  5
3B9
330
1F
100
AcDbEntity
  8
1
  6
SLD-Сплошная
100
AcDbSpline
210
0.0
220
0.0
230
1.0
 70
     8
 71
     3
 72
    12
 73
     8
 74
     0
 42
0.00000001
 43
0.00000001
 40
0.0
 40
0.0
 40
0.0
 40
0.0
 40
0.2187857887072118
 40
0.4375776469534857
 40
0.6562353658864084
 40
0.8748419359491202
 40
1.0
 40
1.0
 40
1.0
 40
1.0
 10
573.2923166721349
 20
1372.067269881452
 30
0.0
 10
573.3192800982068
 20
1372.102595278321
 30
0.0
 10
573.3732076983683
 20
1372.173247052053
 30
0.0
 10
573.4058035873416
 20
1372.307210280694
 30
0.0
 10
573.3964544560995
 20
1372.442752906974
 30
0.0
 10
573.3525756980175
 20
1372.551650711268
 30
0.0
 10
573.308400139731
 20
1372.604954422074
 30
0.0
 10
573.2923166721349
 20
1372.624361273708
 30
0.0
  0
ARC
  5
3BA
330
1F
100
AcDbEntity
  8
1
  6
SLD-Сплошная
100
AcDbCircle
 10
590.4184501394
 20
1356.1044013418
 30
0.0
 40
23.41191191580284
100
AcDbArc
 50
137.0134403894
 51
139.9175229087
  0
CIRCLE
  5
3BB
330
1F
100
AcDbEntity
  8
1
  6
SLD-Сплошная
100
AcDbCircle
 10
574.4054271659
 20
1372.3458155776
 30
0.0
 40
3.499999999999948
  0
ELLIPSE
  5
3BC
330
1F
100
AcDbEntity
  8
1
  6
SLD-Сплошная
100
AcDbEllipse
 10
574.4054271659
 20
1371.2764287963
 30
0.0
 11
0.0
 21
0.4122489361054704
 31
0.0
210
0.0
220
0.0
230
1.0
 40
0.9702875252
 41
5.512866274278634
 42
7.053504340080551
  0
ELLIPSE
  5
3BD
330
1F
100
AcDbEntity
  8
1
  6
SLD-Сплошная
100
AcDbEllipse
 10
574.4054271659
 20
1373.4152023589
 30
0.0
 11
0.0
 21
-0.4122489361054704
 31
0.0
210
0.0
220
0.0
230
1.0
 40
0.9702875252
 41
5.512866274278634
 42
7.053504340080551
  0
ELLIPSE
  5
3BE
330
1F
100
AcDbEntity
  8
1
  6
SLD-Сплошная
100
AcDbEllipse
 10
575.4748139472
 20
1372.3458155776
 30
0.0
 11
-0.4122489361055841
 21
0.0
 31
0.0
210
0.0
220
0.0
230
1.0
 40
0.9702875252
 41
5.512866274278038
 42
7.05350434008074
  0
ELLIPSE
  5
3BF
330
1F
100
AcDbEntity
  8
1
  6
SLD-Сплошная
100
AcDbEllipse
 10
573.3360403847
 20
1372.3458155776
 30
0.0
 11
0.4122489361055841
 21
0.0
 31
0.0
210
0.0
220
0.0
230
1.0
 40
0.9702875252
 41
5.512866274278163
 42
7.053504340081432
  0
LINE
  5
3C0
330
1F
100
AcDbEntity
  8
1
  6
SLD-Сплошная
100
AcDbLine
 10
576.3052878198
 20
1373.5125417665
 30
0.0
 11
576.0671281017
 21
1373.5125417665
 31
0.0
  0
LINE
  5
3C1
330
1F
100
AcDbEntity
  8
1
  6
SLD-Сплошная
100
AcDbLine
 10
575.1789476089
 20
1372.6243612737
 30
0.0
 11
576.0671281017
 21
1373.5125417665
 31
0.0
  0
LINE
  5
3C2
330
1F
100
AcDbEntity
  8
1
  6
SLD-Сплошная
100
AcDbLine
 10
575.5721533549
 20
1374.2456762314
 30
0.0
 11
575.5721533549
 21
1374.0075165134
 31
0.0
  0
LINE
  5
3C3
330
1F
100
AcDbEntity
  8
1
  6
SLD-Сплошная
100
AcDbLine
 10
575.5721533549
 20
1374.0075165134
 30
0.0
 11
574.6839728621
 21
1373.1193360205
 31
0.0
  0
LINE
  5
3C4
330
1F
100
AcDbEntity
  8
1
  6
SLD-Сплошная
100
AcDbLine
 10
576.3052878198
 20
1371.1790893886
 30
0.0
 11
576.0671281017
 21
1371.1790893886
 31
0.0
  0
LINE
  5
3C5
330
1F
100
AcDbEntity
  8
1
  6
SLD-Сплошная
100
AcDbLine
 10
576.0671281017
 20
1371.1790893886
 30
0.0
 11
575.1789476089
 21
1372.0672698815
 31
0.0
  0
LINE
  5
3C6
330
1F
100
AcDbEntity
  8
1
  6
SLD-Сплошная
100
AcDbLine
 10
572.5055665121
 20
1371.1790893886
 30
0.0
 11
572.7437262302
 21
1371.1790893886
 31
0.0
  0
LINE
  5
3C7
330
1F
100
AcDbEntity
  8
1
  6
SLD-Сплошная
100
AcDbLine
 10
573.631906723
 20
1372.0672698815
 30
0.0
 11
572.7437262302
 21
1371.1790893886
 31
0.0
  0
LINE
  5
3C8
330
1F
100
AcDbEntity
  8
1
  6
SLD-Сплошная
100
AcDbLine
 10
572.5055665121
 20
1373.5125417665
 30
0.0
 11
572.7437262302
 21
1373.5125417665
 31
0.0
  0
LINE
  5
3C9
330
1F
100
AcDbEntity
  8
1
  6
SLD-Сплошная
100
AcDbLine
 10
572.7437262302
 20
1373.5125417665
 30
0.0
 11
573.631906723
 21
1372.6243612737
 31
0.0
  0
LINE
  5
3CA
330
1F
100
AcDbEntity
  8
1
  6
SLD-Сплошная
100
AcDbLine
 10
573.238700977
 20
1370.4459549238
 30
0.0
 11
573.238700977
 21
1370.6841146418
 31
0.0
  0
LINE
  5
3CB
330
1F
100
AcDbEntity
  8
1
  6
SLD-Сплошная
100
AcDbLine
 10
573.238700977
 20
1370.6841146418
 30
0.0
 11
574.1268814698
 21
1371.5722951346
 31
0.0
  0
LINE
  5
3CC
330
1F
100
AcDbEntity
  8
1
  6
SLD-Сплошная
100
AcDbLine
 10
573.238700977
 20
1374.2456762314
 30
0.0
 11
573.238700977
 21
1374.0075165134
 31
0.0
  0
LINE
  5
3CD
330
1F
100
AcDbEntity
  8
1
  6
SLD-Сплошная
100
AcDbLine
 10
574.1268814698
 20
1373.1193360205
 30
0.0
 11
573.238700977
 21
1374.0075165134
 31
0.0
  0
LINE
  5
3CE
330
1F
100
AcDbEntity
  8
1
  6
SLD-Сплошная
100
AcDbLine
 10
575.5721533549
 20
1370.4459549238
 30
0.0
 11
575.5721533549
 21
1370.6841146418
 31
0.0
  0
LINE
  5
3CF
330
1F
100
AcDbEntity
  8
1
  6
SLD-Сплошная
100
AcDbLine
 10
574.6839728621
 20
1371.5722951346
 30
0.0
 11
575.5721533549
 21
1370.6841146418
 31
0.0
  0
LINE
  5
3D0
330
1F
100
AcDbEntity
  8
1
  6
SLD-Сплошная
100
AcDbLine
 10
575.5721533549
 20
1370.6841146418
 30
0.0
 11
576.0671281017
 21
1371.1790893886
 31
0.0
  0
LINE
  5
3D1
330
1F
100
AcDbEntity
  8
1
  6
SLD-Сплошная
100
AcDbLine
 10
573.238700977
 20
1374.0075165134
 30
0.0
 11
572.7437262302
 21
1373.5125417665
 31
0.0
  0
LINE
  5
3D2
330
1F
100
AcDbEntity
  8
1
  6
SLD-Сплошная
100
AcDbLine
 10
576.0671281017
 20
1373.5125417665
 30
0.0
 11
575.5721533549
 21
1374.0075165134
 31
0.0
  0
LINE
  5
3D3
330
1F
100
AcDbEntity
  8
1
  6
SLD-Сплошная
100
AcDbLine
 10
572.7437262302
 20
1371.1790893886
 30
0.0
 11
573.238700977
 21
1370.6841146418
 31
0.0
  0
CIRCLE
  5
3D4
330
1F
100
AcDbEntity
  8
1
  6
SLD-Сплошная
100
AcDbCircle
 10
574.4054271659
 20
1372.3458155776
 30
0.0
 40
4.99999999999996
  0
ELLIPSE
  5
3D5
330
1F
100
AcDbEntity
  8
1
  6
SLD-Сплошная
100
AcDbEllipse
 10
1009.4054271659
 20
1373.4152023589
 30
0.0
 11
0.0
 21
-0.4122489361054704
 31
0.0
210
0.0
220
0.0
230
1.0
 40
0.9702875252
 41
5.51286627427916
 42
7.053504340079822
  0
SPLINE
  5
3D6
330
1F
100
AcDbEntity
  8
1
  6
SLD-Сплошная
100
AcDbSpline
210
0.0
220
0.0
230
1.0
 70
     8
 71
     3
 72
    12
 73
     8
 74
     0
 42
0.00000001
 43
0.00000001
 40
0.0
 40
0.0
 40
0.0
 40
0.0
 40
0.2187857887071779
 40
0.4375776469534922
 40
0.6562353658863623
 40
0.8748419359490983
 40
1.0
 40
1.0
 40
1.0
 40
1.0
 10
1009.126881469819
 20
1373.458926071392
 30
0.0
 10
1009.162206866688
 20
1373.43196264532
 30
0.0
 10
1009.23285864042
 20
1373.378035045159
 30
0.0
 10
1009.366821869061
 20
1373.345439156186
 30
0.0
 10
1009.502364495341
 20
1373.354788287428
 30
0.0
 10
1009.611262299635
 20
1373.398667045509
 30
0.0
 10
1009.664566010441
 20
1373.442842603796
 30
0.0
 10
1009.683972862075
 20
1373.458926071392
 30
0.0
  0
ELLIPSE
  5
3D7
330
1F
100
AcDbEntity
  8
1
  6
SLD-Сплошная
100
AcDbEllipse
 10
1008.3360403847
 20
1372.3458155776
 30
0.0
 11
0.4122489361058115
 21
0.0
 31
0.0
210
0.0
220
0.0
230
1.0
 40
0.9702875252
 41
5.512866274278746
 42
7.05350434008044
  0
SPLINE
  5
3D8
330
1F
100
AcDbEntity
  8
1
  6
SLD-Сплошная
100
AcDbSpline
210
0.0
220
0.0
230
1.0
 70
     8
 71
     3
 72
    12
 73
     8
 74
     0
 42
0.00000001
 43
0.00000001
 40
0.0
 40
0.0
 40
0.0
 40
0.0
 40
0.2187857887072118
 40
0.4375776469534857
 40
0.6562353658864084
 40
0.8748419359491202
 40
1.0
 40
1.0
 40
1.0
 40
1.0
 10
1008.292316672135
 20
1372.067269881452
 30
0.0
 10
1008.319280098207
 20
1372.102595278321
 30
0.0
 10
1008.373207698368
 20
1372.173247052053
 30
0.0
 10
1008.405803587342
 20
1372.307210280694
 30
0.0
 10
1008.396454456099
 20
1372.442752906974
 30
0.0
 10
1008.352575698018
 20
1372.551650711268
 30
0.0
 10
1008.308400139731
 20
1372.604954422074
 30
0.0
 10
1008.292316672135
 20
1372.624361273708
 30
0.0
  0
ELLIPSE
  5
3D9
330
1F
100
AcDbEntity
  8
1
  6
SLD-Сплошная
100
AcDbEllipse
 10
1010.4748139472
 20
1372.3458155776
 30
0.0
 11
-0.4122489361055841
 21
0.0
 31
0.0
210
0.0
220
0.0
230
1.0
 40
0.9702875252
 41
5.512866274279022
 42
7.053504340080164
  0
SPLINE
  5
3DA
330
1F
100
AcDbEntity
  8
1
  6
SLD-Сплошная
100
AcDbSpline
210
0.0
220
0.0
230
1.0
 70
     8
 71
     3
 72
    12
 73
     8
 74
     0
 42
0.00000001
 43
0.00000001
 40
0.0
 40
0.0
 40
0.0
 40
0.0
 40
0.2187857887072255
 40
0.4375776469534884
 40
0.6562353658863777
 40
0.8748419359490994
 40
1.0
 40
1.0
 40
1.0
 40
1.0
 10
1010.518537659759
 20
1372.624361273708
 30
0.0
 10
1010.491574233687
 20
1372.589035876839
 30
0.0
 10
1010.437646633526
 20
1372.518384103107
 30
0.0
 10
1010.405050744553
 20
1372.384420874466
 30
0.0
 10
1010.414399875795
 20
1372.248878248186
 30
0.0
 10
1010.458278633877
 20
1372.139980443892
 30
0.0
 10
1010.502454192163
 20
1372.086676733086
 30
0.0
 10
1010.518537659759
 20
1372.067269881452
 30
0.0
  0
ELLIPSE
  5
3DB
330
1F
100
AcDbEntity
  8
1
  6
SLD-Сплошная
100
AcDbEllipse
 10
1009.4054271659
 20
1371.2764287963
 30
0.0
 11
0.0
 21
0.4122489361056978
 31
0.0
210
0.0
220
0.0
230
1.0
 40
0.9702875252
 41
5.512866274278947
 42
7.053504340080444
  0
SPLINE
  5
3DC
330
1F
100
AcDbEntity
  8
1
  6
SLD-Сплошная
100
AcDbSpline
210
0.0
220
0.0
230
1.0
 70
     8
 71
     3
 72
    12
 73
     8
 74
     0
 42
0.00000001
 43
0.00000001
 40
0.0
 40
0.0
 40
0.0
 40
0.0
 40
0.2187857887072158
 40
0.437577646953487
 40
0.656235365886403
 40
0.874841935949098
 40
1.0
 40
1.0
 40
1.0
 40
1.0
 10
1009.683972862075
 20
1371.232705083768
 30
0.0
 10
1009.648647465206
 20
1371.25966850984
 30
0.0
 10
1009.577995691474
 20
1371.313596110001
 30
0.0
 10
1009.444032462833
 20
1371.346191998975
 30
0.0
 10
1009.308489836553
 20
1371.336842867732
 30
0.0
 10
1009.199592032259
 20
1371.29296410965
 30
0.0
 10
1009.146288321453
 20
1371.248788551364
 30
0.0
 10
1009.126881469819
 20
1371.232705083768
 30
0.0
  0
ARC
  5
3DD
330
1F
100
AcDbEntity
  8
1
  6
SLD-Сплошная
100
AcDbCircle
 10
1026.6506951466
 20
1389.5910835582
 30
0.0
 40
26.56195549524788
100
AcDbArc
 50
223.8816987744
 51
226.1183012256
  0
ARC
  5
3DE
330
1F
100
AcDbEntity
  8
1
  6
SLD-Сплошная
100
AcDbCircle
 10
993.1640129296
 20
1388.3588385517
 30
0.0
 40
23.41191191671592
100
AcDbArc
 50
310.0824770913
 51
312.9865596105
  0
ARC
  5
3DF
330
1F
100
AcDbEntity
  8
1
  6
SLD-Сплошная
100
AcDbCircle
 10
1025.6468414025
 20
1388.3588385519
 30
0.0
 40
23.41191191693443
100
AcDbArc
 50
227.0134403895
 51
229.9175229086
  0
ARC
  5
3E0
330
1F
100
AcDbEntity
  8
1
  6
SLD-Сплошная
100
AcDbCircle
 10
992.1601591852
 20
1389.5910835583
 30
0.0
 40
26.56195549536447
100
AcDbArc
 50
313.8816987744
 51
316.1183012256
  0
ARC
  5
3E1
330
1F
100
AcDbEntity
  8
1
  6
SLD-Сплошная
100
AcDbCircle
 10
993.3924041922
 20
1356.1044013416
 30
0.0
 40
23.41191191615203
100
AcDbArc
 50
40.0824770913
 51
42.9865596106
  0
ARC
  5
3E2
330
1F
100
AcDbEntity
  8
1
  6
SLD-Сплошная
100
AcDbCircle
 10
993.3924041922
 20
1388.5872298136
 30
0.0
 40
23.41191191615217
100
AcDbArc
 50
317.0134403894
 51
319.9175229087
  0
ARC
  5
3E3
330
1F
100
AcDbEntity
  8
1
  6
SLD-Сплошная
100
AcDbCircle
 10
992.1601591855
 20
1355.1005475971
 30
0.0
 40
26.56195549498534
100
AcDbArc
 50
43.8816987744
 51
46.1183012256
  0
ARC
  5
3E4
330
1F
100
AcDbEntity
  8
1
  6
SLD-Сплошная
100
AcDbCircle
 10
1025.6468414023
 20
1356.3327926035
 30
0.0
 40
23.41191191661883
100
AcDbArc
 50
130.0824770913
 51
132.9865596105
  0
ARC
  5
3E5
330
1F
100
AcDbEntity
  8
1
  6
SLD-Сплошная
100
AcDbCircle
 10
993.1640129299
 20
1356.3327926038
 30
0.0
 40
23.41191191624462
100
AcDbArc
 50
47.0134403894
 51
49.9175229087
  0
ARC
  5
3E6
330
1F
100
AcDbEntity
  8
1
  6
SLD-Сплошная
100
AcDbCircle
 10
1026.6506951463
 20
1355.1005475972
 30
0.0
 40
26.56195549486884
100
AcDbArc
 50
133.8816987744
 51
136.1183012256
  0
ARC
  5
3E7
330
1F
100
AcDbEntity
  8
1
  6
SLD-Сплошная
100
AcDbCircle
 10
1025.4184501397
 20
1388.5872298136
 30
0.0
 40
23.41191191616151
100
AcDbArc
 50
220.0824770913
 51
222.9865596106
  0
ARC
  5
3E8
330
1F
100
AcDbEntity
  8
1
  6
SLD-Сплошная
100
AcDbCircle
 10
1025.4184501397
 20
1356.1044013416
 30
0.0
 40
23.41191191616151
100
AcDbArc
 50
137.0134403894
 51
139.9175229087
  0
CIRCLE
  5
3E9
330
1F
100
AcDbEntity
  8
1
  6
SLD-Сплошная
100
AcDbCircle
 10
1009.4054271659
 20
1372.3458155776
 30
0.0
 40
3.500000000000109
  0
LINE
  5
3EA
330
1F
100
AcDbEntity
  8
1
  6
SLD-Сплошная
100
AcDbLine
 10
1011.3052878198
 20
1373.5125417665
 30
0.0
 11
1011.0671281017
 21
1373.5125417665
 31
0.0
  0
LINE
  5
3EB
330
1F
100
AcDbEntity
  8
1
  6
SLD-Сплошная
100
AcDbLine
 10
1010.1789476089
 20
1372.6243612737
 30
0.0
 11
1011.0671281017
 21
1373.5125417665
 31
0.0
  0
LINE
  5
3EC
330
1F
100
AcDbEntity
  8
1
  6
SLD-Сплошная
100
AcDbLine
 10
1010.5721533549
 20
1374.2456762314
 30
0.0
 11
1010.5721533549
 21
1374.0075165134
 31
0.0
  0
LINE
  5
3ED
330
1F
100
AcDbEntity
  8
1
  6
SLD-Сплошная
100
AcDbLine
 10
1010.5721533549
 20
1374.0075165134
 30
0.0
 11
1009.6839728621
 21
1373.1193360205
 31
0.0
  0
LINE
  5
3EE
330
1F
100
AcDbEntity
  8
1
  6
SLD-Сплошная
100
AcDbLine
 10
1008.238700977
 20
1374.2456762314
 30
0.0
 11
1008.238700977
 21
1374.0075165134
 31
0.0
  0
LINE
  5
3EF
330
1F
100
AcDbEntity
  8
1
  6
SLD-Сплошная
100
AcDbLine
 10
1009.1268814698
 20
1373.1193360205
 30
0.0
 11
1008.238700977
 21
1374.0075165134
 31
0.0
  0
LINE
  5
3F0
330
1F
100
AcDbEntity
  8
1
  6
SLD-Сплошная
100
AcDbLine
 10
1011.3052878198
 20
1371.1790893886
 30
0.0
 11
1011.0671281017
 21
1371.1790893886
 31
0.0
  0
LINE
  5
3F1
330
1F
100
AcDbEntity
  8
1
  6
SLD-Сплошная
100
AcDbLine
 10
1011.0671281017
 20
1371.1790893886
 30
0.0
 11
1010.1789476089
 21
1372.0672698815
 31
0.0
  0
LINE
  5
3F2
330
1F
100
AcDbEntity
  8
1
  6
SLD-Сплошная
100
AcDbLine
 10
1008.238700977
 20
1370.4459549238
 30
0.0
 11
1008.238700977
 21
1370.6841146418
 31
0.0
  0
LINE
  5
3F3
330
1F
100
AcDbEntity
  8
1
  6
SLD-Сплошная
100
AcDbLine
 10
1008.238700977
 20
1370.6841146418
 30
0.0
 11
1009.1268814698
 21
1371.5722951346
 31
0.0
  0
LINE
  5
3F4
330
1F
100
AcDbEntity
  8
1
  6
SLD-Сплошная
100
AcDbLine
 10
1010.5721533549
 20
1370.4459549238
 30
0.0
 11
1010.5721533549
 21
1370.6841146418
 31
0.0
  0
LINE
  5
3F5
330
1F
100
AcDbEntity
  8
1
  6
SLD-Сплошная
100
AcDbLine
 10
1009.6839728621
 20
1371.5722951346
 30
0.0
 11
1010.5721533549
 21
1370.6841146418
 31
0.0
  0
LINE
  5
3F6
330
1F
100
AcDbEntity
  8
1
  6
SLD-Сплошная
100
AcDbLine
 10
1007.5055665121
 20
1373.5125417665
 30
0.0
 11
1007.7437262302
 21
1373.5125417665
 31
0.0
  0
LINE
  5
3F7
330
1F
100
AcDbEntity
  8
1
  6
SLD-Сплошная
100
AcDbLine
 10
1007.7437262302
 20
1373.5125417665
 30
0.0
 11
1008.631906723
 21
1372.6243612737
 31
0.0
  0
LINE
  5
3F8
330
1F
100
AcDbEntity
  8
1
  6
SLD-Сплошная
100
AcDbLine
 10
1007.5055665121
 20
1371.1790893886
 30
0.0
 11
1007.7437262302
 21
1371.1790893886
 31
0.0
  0
LINE
  5
3F9
330
1F
100
AcDbEntity
  8
1
  6
SLD-Сплошная
100
AcDbLine
 10
1008.631906723
 20
1372.0672698815
 30
0.0
 11
1007.7437262302
 21
1371.1790893886
 31
0.0
  0
LINE
  5
3FA
330
1F
100
AcDbEntity
  8
1
  6
SLD-Сплошная
100
AcDbLine
 10
1008.238700977
 20
1374.0075165134
 30
0.0
 11
1007.7437262302
 21
1373.5125417665
 31
0.0
  0
LINE
  5
3FB
330
1F
100
AcDbEntity
  8
1
  6
SLD-Сплошная
100
AcDbLine
 10
1011.0671281017
 20
1373.5125417665
 30
0.0
 11
1010.5721533549
 21
1374.0075165134
 31
0.0
  0
LINE
  5
3FC
330
1F
100
AcDbEntity
  8
1
  6
SLD-Сплошная
100
AcDbLine
 10
1010.5721533549
 20
1370.6841146418
 30
0.0
 11
1011.0671281017
 21
1371.1790893886
 31
0.0
  0
LINE
  5
3FD
330
1F
100
AcDbEntity
  8
1
  6
SLD-Сплошная
100
AcDbLine
 10
1007.7437262302
 20
1371.1790893886
 30
0.0
 11
1008.238700977
 21
1370.6841146418
 31
0.0
  0
CIRCLE
  5
3FE
330
1F
100
AcDbEntity
  8
1
  6
SLD-Сплошная
100
AcDbCircle
 10
1009.4054271659
 20
1372.3458155776
 30
0.0
 40
5.000000000000121
  0
ARC
  5
3FF
330
1F
100
AcDbEntity
  8
1
  6
SLD-Сплошная
100
AcDbCircle
 10
1009.1506951472
 20
1407.0910835588
 30
0.0
 40
26.56195549612146
100
AcDbArc
 50
223.8816987744
 51
226.1183012256
  0
ARC
  5
400
330
1F
100
AcDbEntity
  8
1
  6
SLD-Сплошная
100
AcDbCircle
 10
975.66401293
 20
1405.8588385512
 30
0.0
 40
23.41191191597573
100
AcDbArc
 50
310.0824770913
 51
312.9865596106
  0
SPLINE
  5
401
330
1F
100
AcDbEntity
  8
1
  6
SLD-Сплошная
100
AcDbSpline
210
0.0
220
0.0
230
1.0
 70
     8
 71
     3
 72
    12
 73
     8
 74
     0
 42
0.00000001
 43
0.00000001
 40
0.0
 40
0.0
 40
0.0
 40
0.0
 40
0.2187857887072158
 40
0.437577646953487
 40
0.656235365886403
 40
0.874841935949098
 40
1.0
 40
1.0
 40
1.0
 40
1.0
 10
992.183972862075
 20
1388.732705083768
 30
0.0
 10
992.1486474652062
 20
1388.75966850984
 30
0.0
 10
992.0779956914737
 20
1388.813596110001
 30
0.0
 10
991.9440324628326
 20
1388.846191998974
 30
0.0
 10
991.8084898365527
 20
1388.836842867732
 30
0.0
 10
991.6995920322588
 20
1388.79296410965
 30
0.0
 10
991.6462883214529
 20
1388.748788551364
 30
0.0
 10
991.6268814698191
 20
1388.732705083768
 30
0.0
  0
ARC
  5
402
330
1F
100
AcDbEntity
  8
1
  6
SLD-Сплошная
100
AcDbCircle
 10
1008.1468414019
 20
1405.8588385512
 30
0.0
 40
23.41191191603911
100
AcDbArc
 50
227.0134403894
 51
229.9175229087
  0
ARC
  5
403
330
1F
100
AcDbEntity
  8
1
  6
SLD-Сплошная
100
AcDbCircle
 10
974.6601591849
 20
1407.0910835586
 30
0.0
 40
26.56195549576388
100
AcDbArc
 50
313.8816987744
 51
316.1183012256
  0
ARC
  5
404
330
1F
100
AcDbEntity
  8
1
  6
SLD-Сплошная
100
AcDbCircle
 10
975.8924041917
 20
1373.6044013411
 30
0.0
 40
23.4119119168759
100
AcDbArc
 50
40.0824770914
 51
42.9865596105
  0
SPLINE
  5
405
330
1F
100
AcDbEntity
  8
1
  6
SLD-Сплошная
100
AcDbSpline
210
0.0
220
0.0
230
1.0
 70
     8
 71
     3
 72
    12
 73
     8
 74
     0
 42
0.00000001
 43
0.00000001
 40
0.0
 40
0.0
 40
0.0
 40
0.0
 40
0.2187857887072255
 40
0.4375776469534884
 40
0.6562353658863777
 40
0.8748419359490994
 40
1.0
 40
1.0
 40
1.0
 40
1.0
 10
993.0185376597593
 20
1390.124361273708
 30
0.0
 10
992.9915742336872
 20
1390.089035876839
 30
0.0
 10
992.9376466335258
 20
1390.018384103107
 30
0.0
 10
992.9050507445527
 20
1389.884420874466
 30
0.0
 10
992.9143998757947
 20
1389.748878248186
 30
0.0
 10
992.9582786338765
 20
1389.639980443892
 30
0.0
 10
993.002454192163
 20
1389.586676733086
 30
0.0
 10
993.0185376597593
 20
1389.567269881452
 30
0.0
  0
ARC
  5
406
330
1F
100
AcDbEntity
  8
1
  6
SLD-Сплошная
100
AcDbCircle
 10
975.8924041922
 20
1406.0872298136
 30
0.0
 40
23.41191191614293
100
AcDbArc
 50
317.0134403894
 51
319.9175229087
  0
ARC
  5
407
330
1F
100
AcDbEntity
  8
1
  6
SLD-Сплошная
100
AcDbCircle
 10
974.6601591846
 20
1372.6005475962
 30
0.0
 40
26.56195549626823
100
AcDbArc
 50
43.8816987744
 51
46.1183012256
  0
ARC
  5
408
330
1F
100
AcDbEntity
  8
1
  6
SLD-Сплошная
100
AcDbCircle
 10
1008.146841402
 20
1373.8327926038
 30
0.0
 40
23.41191191618065
100
AcDbArc
 50
130.0824770913
 51
132.9865596106
  0
SPLINE
  5
409
330
1F
100
AcDbEntity
  8
1
  6
SLD-Сплошная
100
AcDbSpline
210
0.0
220
0.0
230
1.0
 70
     8
 71
     3
 72
    12
 73
     8
 74
     0
 42
0.00000001
 43
0.00000001
 40
0.0
 40
0.0
 40
0.0
 40
0.0
 40
0.2187857887071779
 40
0.4375776469534922
 40
0.6562353658863623
 40
0.8748419359490983
 40
1.0
 40
1.0
 40
1.0
 40
1.0
 10
991.6268814698191
 20
1390.958926071392
 30
0.0
 10
991.662206866688
 20
1390.93196264532
 30
0.0
 10
991.7328586404204
 20
1390.878035045159
 30
0.0
 10
991.8668218690614
 20
1390.845439156185
 30
0.0
 10
992.0023644953415
 20
1390.854788287428
 30
0.0
 10
992.1112622996353
 20
1390.898667045509
 30
0.0
 10
992.1645660104413
 20
1390.942842603796
 30
0.0
 10
992.183972862075
 20
1390.958926071392
 30
0.0
  0
ARC
  5
40A
330
1F
100
AcDbEntity
  8
1
  6
SLD-Сплошная
100
AcDbCircle
 10
975.66401293
 20
1373.8327926039
 30
0.0
 40
23.41191191603949
100
AcDbArc
 50
47.0134403894
 51
49.9175229087
  0
ARC
  5
40B
330
1F
100
AcDbEntity
  8
1
  6
SLD-Сплошная
100
AcDbCircle
 10
1009.1506951474
 20
1372.6005475961
 30
0.0
 40
26.56195549638504
100
AcDbArc
 50
133.8816987744
 51
136.1183012256
  0
ARC
  5
40C
330
1F
100
AcDbEntity
  8
1
  6
SLD-Сплошная
100
AcDbCircle
 10
1007.9184501397
 20
1406.0872298136
 30
0.0
 40
23.41191191617772
100
AcDbArc
 50
220.0824770913
 51
222.9865596106
  0
SPLINE
  5
40D
330
1F
100
AcDbEntity
  8
1
  6
SLD-Сплошная
100
AcDbSpline
210
0.0
220
0.0
230
1.0
 70
     8
 71
     3
 72
    12
 73
     8
 74
     0
 42
0.00000001
 43
0.00000001
 40
0.0
 40
0.0
 40
0.0
 40
0.0
 40
0.2187857887072118
 40
0.4375776469534857
 40
0.6562353658864084
 40
0.8748419359491202
 40
1.0
 40
1.0
 40
1.0
 40
1.0
 10
990.7923166721348
 20
1389.567269881452
 30
0.0
 10
990.8192800982068
 20
1389.602595278321
 30
0.0
 10
990.8732076983684
 20
1389.673247052053
 30
0.0
 10
990.9058035873414
 20
1389.807210280694
 30
0.0
 10
990.8964544560993
 20
1389.942752906974
 30
0.0
 10
990.8525756980175
 20
1390.051650711268
 30
0.0
 10
990.808400139731
 20
1390.104954422074
 30
0.0
 10
990.7923166721348
 20
1390.124361273708
 30
0.0
  0
ARC
  5
40E
330
1F
100
AcDbEntity
  8
1
  6
SLD-Сплошная
100
AcDbCircle
 10
1007.9184501397
 20
1373.6044013416
 30
0.0
 40
23.41191191616394
100
AcDbArc
 50
137.0134403894
 51
139.9175229087
  0
CIRCLE
  5
40F
330
1F
100
AcDbEntity
  8
1
  6
SLD-Сплошная
100
AcDbCircle
 10
991.9054271659
 20
1389.8458155776
 30
0.0
 40
3.499999999999948
  0
ELLIPSE
  5
410
330
1F
100
AcDbEntity
  8
1
  6
SLD-Сплошная
100
AcDbEllipse
 10
991.9054271659
 20
1388.7764287963
 30
0.0
 11
0.0
 21
0.4122489361056978
 31
0.0
210
0.0
220
0.0
230
1.0
 40
0.9702875252
 41
5.512866274278562
 42
7.053504340080828
  0
ELLIPSE
  5
411
330
1F
100
AcDbEntity
  8
1
  6
SLD-Сплошная
100
AcDbEllipse
 10
990.8360403847
 20
1389.8458155776
 30
0.0
 11
0.4122489361056978
 21
0.0
 31
0.0
210
0.0
220
0.0
230
1.0
 40
0.9702875252
 41
5.512866274279101
 42
7.053504340080494
  0
ELLIPSE
  5
412
330
1F
100
AcDbEntity
  8
1
  6
SLD-Сплошная
100
AcDbEllipse
 10
992.9748139472
 20
1389.8458155776
 30
0.0
 11
-0.4122489361055841
 21
0.0
 31
0.0
210
0.0
220
0.0
230
1.0
 40
0.9702875252
 41
5.512866274278355
 42
7.053504340080424
  0
ELLIPSE
  5
413
330
1F
100
AcDbEntity
  8
1
  6
SLD-Сплошная
100
AcDbEllipse
 10
991.9054271659
 20
1390.9152023589
 30
0.0
 11
0.0
 21
-0.4122489361056978
 31
0.0
210
0.0
220
0.0
230
1.0
 40
0.9702875252
 41
5.512866274278359
 42
7.053504340080623
  0
LINE
  5
414
330
1F
100
AcDbEntity
  8
1
  6
SLD-Сплошная
100
AcDbLine
 10
993.0721533549
 20
1391.7456762314
 30
0.0
 11
993.0721533549
 21
1391.5075165134
 31
0.0
  0
LINE
  5
415
330
1F
100
AcDbEntity
  8
1
  6
SLD-Сплошная
100
AcDbLine
 10
993.0721533549
 20
1391.5075165134
 30
0.0
 11
992.1839728621
 21
1390.6193360205
 31
0.0
  0
LINE
  5
416
330
1F
100
AcDbEntity
  8
1
  6
SLD-Сплошная
100
AcDbLine
 10
993.8052878198
 20
1391.0125417665
 30
0.0
 11
993.5671281017
 21
1391.0125417665
 31
0.0
  0
LINE
  5
417
330
1F
100
AcDbEntity
  8
1
  6
SLD-Сплошная
100
AcDbLine
 10
992.6789476089
 20
1390.1243612737
 30
0.0
 11
993.5671281017
 21
1391.0125417665
 31
0.0
  0
LINE
  5
418
330
1F
100
AcDbEntity
  8
1
  6
SLD-Сплошная
100
AcDbLine
 10
990.738700977
 20
1387.9459549238
 30
0.0
 11
990.738700977
 21
1388.1841146418
 31
0.0
  0
LINE
  5
419
330
1F
100
AcDbEntity
  8
1
  6
SLD-Сплошная
100
AcDbLine
 10
990.738700977
 20
1388.1841146418
 30
0.0
 11
991.6268814698
 21
1389.0722951346
 31
0.0
  0
LINE
  5
41A
330
1F
100
AcDbEntity
  8
1
  6
SLD-Сплошная
100
AcDbLine
 10
993.0721533549
 20
1387.9459549238
 30
0.0
 11
993.0721533549
 21
1388.1841146418
 31
0.0
  0
LINE
  5
41B
330
1F
100
AcDbEntity
  8
1
  6
SLD-Сплошная
100
AcDbLine
 10
992.1839728621
 20
1389.0722951346
 30
0.0
 11
993.0721533549
 21
1388.1841146418
 31
0.0
  0
LINE
  5
41C
330
1F
100
AcDbEntity
  8
1
  6
SLD-Сплошная
100
AcDbLine
 10
990.0055665121
 20
1391.0125417665
 30
0.0
 11
990.2437262302
 21
1391.0125417665
 31
0.0
  0
LINE
  5
41D
330
1F
100
AcDbEntity
  8
1
  6
SLD-Сплошная
100
AcDbLine
 10
990.2437262302
 20
1391.0125417665
 30
0.0
 11
991.131906723
 21
1390.1243612737
 31
0.0
  0
LINE
  5
41E
330
1F
100
AcDbEntity
  8
1
  6
SLD-Сплошная
100
AcDbLine
 10
990.738700977
 20
1391.7456762314
 30
0.0
 11
990.738700977
 21
1391.5075165134
 31
0.0
  0
LINE
  5
41F
330
1F
100
AcDbEntity
  8
1
  6
SLD-Сплошная
100
AcDbLine
 10
991.6268814698
 20
1390.6193360205
 30
0.0
 11
990.738700977
 21
1391.5075165134
 31
0.0
  0
LINE
  5
420
330
1F
100
AcDbEntity
  8
1
  6
SLD-Сплошная
100
AcDbLine
 10
990.0055665121
 20
1388.6790893886
 30
0.0
 11
990.2437262302
 21
1388.6790893886
 31
0.0
  0
LINE
  5
421
330
1F
100
AcDbEntity
  8
1
  6
SLD-Сплошная
100
AcDbLine
 10
991.131906723
 20
1389.5672698815
 30
0.0
 11
990.2437262302
 21
1388.6790893886
 31
0.0
  0
LINE
  5
422
330
1F
100
AcDbEntity
  8
1
  6
SLD-Сплошная
100
AcDbLine
 10
993.8052878198
 20
1388.6790893886
 30
0.0
 11
993.5671281017
 21
1388.6790893886
 31
0.0
  0
LINE
  5
423
330
1F
100
AcDbEntity
  8
1
  6
SLD-Сплошная
100
AcDbLine
 10
993.5671281017
 20
1388.6790893886
 30
0.0
 11
992.6789476089
 21
1389.5672698815
 31
0.0
  0
LINE
  5
424
330
1F
100
AcDbEntity
  8
1
  6
SLD-Сплошная
100
AcDbLine
 10
990.738700977
 20
1391.5075165134
 30
0.0
 11
990.2437262302
 21
1391.0125417665
 31
0.0
  0
LINE
  5
425
330
1F
100
AcDbEntity
  8
1
  6
SLD-Сплошная
100
AcDbLine
 10
993.5671281017
 20
1391.0125417665
 30
0.0
 11
993.0721533549
 21
1391.5075165134
 31
0.0
  0
LINE
  5
426
330
1F
100
AcDbEntity
  8
1
  6
SLD-Сплошная
100
AcDbLine
 10
993.0721533549
 20
1388.1841146418
 30
0.0
 11
993.5671281017
 21
1388.6790893886
 31
0.0
  0
LINE
  5
427
330
1F
100
AcDbEntity
  8
1
  6
SLD-Сплошная
100
AcDbLine
 10
990.2437262302
 20
1388.6790893886
 30
0.0
 11
990.738700977
 21
1388.1841146418
 31
0.0
  0
CIRCLE
  5
428
330
1F
100
AcDbEntity
  8
1
  6
SLD-Сплошная
100
AcDbCircle
 10
991.9054271659
 20
1389.8458155776
 30
0.0
 40
4.99999999999996
  0
ELLIPSE
  5
429
330
1F
100
AcDbEntity
  8
1
  6
SLD-Сплошная
100
AcDbEllipse
 10
891.9054271659
 20
1390.9152023589
 30
0.0
 11
0.0
 21
-0.4122489361054704
 31
0.0
210
0.0
220
0.0
230
1.0
 40
0.9702875252
 41
5.512866274278596
 42
7.053504340080591
  0
SPLINE
  5
42A
330
1F
100
AcDbEntity
  8
1
  6
SLD-Сплошная
100
AcDbSpline
210
0.0
220
0.0
230
1.0
 70
     8
 71
     3
 72
    12
 73
     8
 74
     0
 42
0.00000001
 43
0.00000001
 40
0.0
 40
0.0
 40
0.0
 40
0.0
 40
0.2187857887072158
 40
0.437577646953487
 40
0.656235365886403
 40
0.874841935949098
 40
1.0
 40
1.0
 40
1.0
 40
1.0
 10
891.6268814698191
 20
1390.958926071392
 30
0.0
 10
891.6622068666879
 20
1390.93196264532
 30
0.0
 10
891.7328586404204
 20
1390.878035045159
 30
0.0
 10
891.8668218690614
 20
1390.845439156185
 30
0.0
 10
892.0023644953415
 20
1390.854788287427
 30
0.0
 10
892.1112622996354
 20
1390.898667045509
 30
0.0
 10
892.1645660104414
 20
1390.942842603796
 30
0.0
 10
892.183972862075
 20
1390.958926071392
 30
0.0
  0
ELLIPSE
  5
42B
330
1F
100
AcDbEntity
  8
1
  6
SLD-Сплошная
100
AcDbEllipse
 10
892.9748139472
 20
1389.8458155776
 30
0.0
 11
-0.4122489361056978
 21
0.0
 31
0.0
210
0.0
220
0.0
230
1.0
 40
0.9702875252
 41
5.512866274278409
 42
7.053504340080777
  0
SPLINE
  5
42C
330
1F
100
AcDbEntity
  8
1
  6
SLD-Сплошная
100
AcDbSpline
210
0.0
220
0.0
230
1.0
 70
     8
 71
     3
 72
    12
 73
     8
 74
     0
 42
0.00000001
 43
0.00000001
 40
0.0
 40
0.0
 40
0.0
 40
0.0
 40
0.2187857887072162
 40
0.4375776469534877
 40
0.6562353658863814
 40
0.8748419359490976
 40
1.0
 40
1.0
 40
1.0
 40
1.0
 10
893.0185376597593
 20
1390.124361273708
 30
0.0
 10
892.9915742336874
 20
1390.089035876839
 30
0.0
 10
892.9376466335258
 20
1390.018384103107
 30
0.0
 10
892.9050507445527
 20
1389.884420874465
 30
0.0
 10
892.9143998757949
 20
1389.748878248186
 30
0.0
 10
892.9582786338766
 20
1389.639980443892
 30
0.0
 10
893.0024541921631
 20
1389.586676733086
 30
0.0
 10
893.0185376597593
 20
1389.567269881452
 30
0.0
  0
ARC
  5
42D
330
1F
100
AcDbEntity
  8
1
  6
SLD-Сплошная
100
AcDbCircle
 10
909.1506951469
 20
1407.0910835586
 30
0.0
 40
26.5619554957419
100
AcDbArc
 50
223.8816987744
 51
226.1183012256
  0
ARC
  5
42E
330
1F
100
AcDbEntity
  8
1
  6
SLD-Сплошная
100
AcDbCircle
 10
875.6640129299
 20
1405.8588385514
 30
0.0
 40
23.41191191623421
100
AcDbArc
 50
310.0824770913
 51
312.9865596106
  0
SPLINE
  5
42F
330
1F
100
AcDbEntity
  8
1
  6
SLD-Сплошная
100
AcDbSpline
210
0.0
220
0.0
230
1.0
 70
     8
 71
     3
 72
    12
 73
     8
 74
     0
 42
0.00000001
 43
0.00000001
 40
0.0
 40
0.0
 40
0.0
 40
0.0
 40
0.2187857887072162
 40
0.4375776469534877
 40
0.6562353658863814
 40
0.8748419359490976
 40
1.0
 40
1.0
 40
1.0
 40
1.0
 10
892.183972862075
 20
1388.732705083768
 30
0.0
 10
892.1486474652062
 20
1388.759668509839
 30
0.0
 10
892.0779956914737
 20
1388.813596110001
 30
0.0
 10
891.9440324628328
 20
1388.846191998974
 30
0.0
 10
891.8084898365528
 20
1388.836842867732
 30
0.0
 10
891.6995920322588
 20
1388.79296410965
 30
0.0
 10
891.6462883214529
 20
1388.748788551364
 30
0.0
 10
891.6268814698192
 20
1388.732705083768
 30
0.0
  0
ARC
  5
430
330
1F
100
AcDbEntity
  8
1
  6
SLD-Сплошная
100
AcDbCircle
 10
908.146841402
 20
1405.8588385514
 30
0.0
 40
23.41191191623428
100
AcDbArc
 50
227.0134403894
 51
229.9175229087
  0
ARC
  5
431
330
1F
100
AcDbEntity
  8
1
  6
SLD-Сплошная
100
AcDbCircle
 10
874.6601591849
 20
1407.0910835586
 30
0.0
 40
26.5619554957423
100
AcDbArc
 50
313.8816987744
 51
316.1183012256
  0
ARC
  5
432
330
1F
100
AcDbEntity
  8
1
  6
SLD-Сплошная
100
AcDbCircle
 10
875.8924041921
 20
1373.6044013414
 30
0.0
 40
23.41191191632328
100
AcDbArc
 50
40.0824770913
 51
42.9865596106
  0
ARC
  5
433
330
1F
100
AcDbEntity
  8
1
  6
SLD-Сплошная
100
AcDbCircle
 10
875.8924041925
 20
1406.0872298133
 30
0.0
 40
23.41191191576873
100
AcDbArc
 50
317.0134403894
 51
319.9175229087
  0
ARC
  5
434
330
1F
100
AcDbEntity
  8
1
  6
SLD-Сплошная
100
AcDbCircle
 10
874.6601591848
 20
1372.6005475964
 30
0.0
 40
26.56195549599057
100
AcDbArc
 50
43.8816987744
 51
46.1183012256
  0
ARC
  5
435
330
1F
100
AcDbEntity
  8
1
  6
SLD-Сплошная
100
AcDbCircle
 10
908.1468414018
 20
1373.832792604
 30
0.0
 40
23.41191191597995
100
AcDbArc
 50
130.0824770913
 51
132.9865596106
  0
ARC
  5
436
330
1F
100
AcDbEntity
  8
1
  6
SLD-Сплошная
100
AcDbCircle
 10
875.6640129302
 20
1373.8327926042
 30
0.0
 40
23.41191191569397
100
AcDbArc
 50
47.0134403894
 51
49.9175229087
  0
ARC
  5
437
330
1F
100
AcDbEntity
  8
1
  6
SLD-Сплошная
100
AcDbCircle
 10
909.1506951473
 20
1372.6005475962
 30
0.0
 40
26.56195549624411
100
AcDbArc
 50
133.8816987744
 51
136.1183012256
  0
ARC
  5
438
330
1F
100
AcDbEntity
  8
1
  6
SLD-Сплошная
100
AcDbCircle
 10
907.9184501396
 20
1406.0872298136
 30
0.0
 40
23.41191191610654
100
AcDbArc
 50
220.0824770913
 51
222.9865596106
  0
SPLINE
  5
439
330
1F
100
AcDbEntity
  8
1
  6
SLD-Сплошная
100
AcDbSpline
210
0.0
220
0.0
230
1.0
 70
     8
 71
     3
 72
    12
 73
     8
 74
     0
 42
0.00000001
 43
0.00000001
 40
0.0
 40
0.0
 40
0.0
 40
0.0
 40
0.2187857887072158
 40
0.437577646953487
 40
0.656235365886403
 40
0.874841935949098
 40
1.0
 40
1.0
 40
1.0
 40
1.0
 10
890.7923166721348
 20
1389.567269881452
 30
0.0
 10
890.8192800982068
 20
1389.602595278321
 30
0.0
 10
890.8732076983683
 20
1389.673247052053
 30
0.0
 10
890.9058035873416
 20
1389.807210280694
 30
0.0
 10
890.8964544560994
 20
1389.942752906974
 30
0.0
 10
890.8525756980175
 20
1390.051650711268
 30
0.0
 10
890.808400139731
 20
1390.104954422074
 30
0.0
 10
890.7923166721348
 20
1390.124361273708
 30
0.0
  0
ARC
  5
43A
330
1F
100
AcDbEntity
  8
1
  6
SLD-Сплошная
100
AcDbCircle
 10
907.9184501398
 20
1373.6044013414
 30
0.0
 40
23.41191191636496
100
AcDbArc
 50
137.0134403894
 51
139.9175229087
  0
CIRCLE
  5
43B
330
1F
100
AcDbEntity
  8
1
  6
SLD-Сплошная
100
AcDbCircle
 10
891.9054271659
 20
1389.8458155776
 30
0.0
 40
3.499999999999948
  0
ELLIPSE
  5
43C
330
1F
100
AcDbEntity
  8
1
  6
SLD-Сплошная
100
AcDbEllipse
 10
890.8360403847
 20
1389.8458155776
 30
0.0
 11
0.4122489361056978
 21
0.0
 31
0.0
210
0.0
220
0.0
230
1.0
 40
0.9702875252
 41
5.512866274278501
 42
7.053504340080686
  0
ELLIPSE
  5
43D
330
1F
100
AcDbEntity
  8
1
  6
SLD-Сплошная
100
AcDbEllipse
 10
891.9054271659
 20
1388.7764287963
 30
0.0
 11
0.0
 21
0.4122489361059252
 31
0.0
210
0.0
220
0.0
230
1.0
 40
0.9702875252
 41
5.512866274278813
 42
7.053504340080373
  0
LINE
  5
43E
330
1F
100
AcDbEntity
  8
1
  6
SLD-Сплошная
100
AcDbLine
 10
893.0721533549
 20
1391.7456762314
 30
0.0
 11
893.0721533549
 21
1391.5075165134
 31
0.0
  0
LINE
  5
43F
330
1F
100
AcDbEntity
  8
1
  6
SLD-Сплошная
100
AcDbLine
 10
893.0721533549
 20
1391.5075165134
 30
0.0
 11
892.1839728621
 21
1390.6193360205
 31
0.0
  0
LINE
  5
440
330
1F
100
AcDbEntity
  8
1
  6
SLD-Сплошная
100
AcDbLine
 10
893.8052878198
 20
1391.0125417665
 30
0.0
 11
893.5671281017
 21
1391.0125417665
 31
0.0
  0
LINE
  5
441
330
1F
100
AcDbEntity
  8
1
  6
SLD-Сплошная
100
AcDbLine
 10
892.6789476089
 20
1390.1243612737
 30
0.0
 11
893.5671281017
 21
1391.0125417665
 31
0.0
  0
LINE
  5
442
330
1F
100
AcDbEntity
  8
1
  6
SLD-Сплошная
100
AcDbLine
 10
890.738700977
 20
1391.7456762314
 30
0.0
 11
890.738700977
 21
1391.5075165134
 31
0.0
  0
LINE
  5
443
330
1F
100
AcDbEntity
  8
1
  6
SLD-Сплошная
100
AcDbLine
 10
891.6268814698
 20
1390.6193360205
 30
0.0
 11
890.738700977
 21
1391.5075165134
 31
0.0
  0
LINE
  5
444
330
1F
100
AcDbEntity
  8
1
  6
SLD-Сплошная
100
AcDbLine
 10
893.0721533549
 20
1387.9459549238
 30
0.0
 11
893.0721533549
 21
1388.1841146418
 31
0.0
  0
LINE
  5
445
330
1F
100
AcDbEntity
  8
1
  6
SLD-Сплошная
100
AcDbLine
 10
892.1839728621
 20
1389.0722951346
 30
0.0
 11
893.0721533549
 21
1388.1841146418
 31
0.0
  0
LINE
  5
446
330
1F
100
AcDbEntity
  8
1
  6
SLD-Сплошная
100
AcDbLine
 10
893.8052878198
 20
1388.6790893886
 30
0.0
 11
893.5671281017
 21
1388.6790893886
 31
0.0
  0
LINE
  5
447
330
1F
100
AcDbEntity
  8
1
  6
SLD-Сплошная
100
AcDbLine
 10
893.5671281017
 20
1388.6790893886
 30
0.0
 11
892.6789476089
 21
1389.5672698815
 31
0.0
  0
LINE
  5
448
330
1F
100
AcDbEntity
  8
1
  6
SLD-Сплошная
100
AcDbLine
 10
890.738700977
 20
1387.9459549238
 30
0.0
 11
890.738700977
 21
1388.1841146418
 31
0.0
  0
LINE
  5
449
330
1F
100
AcDbEntity
  8
1
  6
SLD-Сплошная
100
AcDbLine
 10
890.738700977
 20
1388.1841146418
 30
0.0
 11
891.6268814698
 21
1389.0722951346
 31
0.0
  0
LINE
  5
44A
330
1F
100
AcDbEntity
  8
1
  6
SLD-Сплошная
100
AcDbLine
 10
890.0055665121
 20
1391.0125417665
 30
0.0
 11
890.2437262302
 21
1391.0125417665
 31
0.0
  0
LINE
  5
44B
330
1F
100
AcDbEntity
  8
1
  6
SLD-Сплошная
100
AcDbLine
 10
890.2437262302
 20
1391.0125417665
 30
0.0
 11
891.131906723
 21
1390.1243612737
 31
0.0
  0
LINE
  5
44C
330
1F
100
AcDbEntity
  8
1
  6
SLD-Сплошная
100
AcDbLine
 10
890.0055665121
 20
1388.6790893886
 30
0.0
 11
890.2437262302
 21
1388.6790893886
 31
0.0
  0
LINE
  5
44D
330
1F
100
AcDbEntity
  8
1
  6
SLD-Сплошная
100
AcDbLine
 10
891.131906723
 20
1389.5672698815
 30
0.0
 11
890.2437262302
 21
1388.6790893886
 31
0.0
  0
LINE
  5
44E
330
1F
100
AcDbEntity
  8
1
  6
SLD-Сплошная
100
AcDbLine
 10
893.0721533549
 20
1388.1841146418
 30
0.0
 11
893.5671281017
 21
1388.6790893886
 31
0.0
  0
LINE
  5
44F
330
1F
100
AcDbEntity
  8
1
  6
SLD-Сплошная
100
AcDbLine
 10
890.738700977
 20
1391.5075165134
 30
0.0
 11
890.2437262302
 21
1391.0125417665
 31
0.0
  0
LINE
  5
450
330
1F
100
AcDbEntity
  8
1
  6
SLD-Сплошная
100
AcDbLine
 10
893.5671281017
 20
1391.0125417665
 30
0.0
 11
893.0721533549
 21
1391.5075165134
 31
0.0
  0
LINE
  5
451
330
1F
100
AcDbEntity
  8
1
  6
SLD-Сплошная
100
AcDbLine
 10
890.2437262302
 20
1388.6790893886
 30
0.0
 11
890.738700977
 21
1388.1841146418
 31
0.0
  0
CIRCLE
  5
452
330
1F
100
AcDbEntity
  8
1
  6
SLD-Сплошная
100
AcDbCircle
 10
891.9054271659
 20
1389.8458155776
 30
0.0
 40
5.000000000000121
  0
ELLIPSE
  5
453
330
1F
100
AcDbEntity
  8
1
  6
SLD-Сплошная
100
AcDbEllipse
 10
690.8360403847
 20
1389.8458155776
 30
0.0
 11
0.4122489361055841
 21
0.0
 31
0.0
210
0.0
220
0.0
230
1.0
 40
0.9702875252
 41
5.512866274278831
 42
7.053504340080355
  0
SPLINE
  5
454
330
1F
100
AcDbEntity
  8
1
  6
SLD-Сплошная
100
AcDbSpline
210
0.0
220
0.0
230
1.0
 70
     8
 71
     3
 72
    12
 73
     8
 74
     0
 42
0.00000001
 43
0.00000001
 40
0.0
 40
0.0
 40
0.0
 40
0.0
 40
0.2187857887072158
 40
0.437577646953487
 40
0.656235365886403
 40
0.874841935949098
 40
1.0
 40
1.0
 40
1.0
 40
1.0
 10
690.7923166721348
 20
1389.567269881452
 30
0.0
 10
690.819280098207
 20
1389.602595278321
 30
0.0
 10
690.8732076983683
 20
1389.673247052053
 30
0.0
 10
690.9058035873414
 20
1389.807210280694
 30
0.0
 10
690.8964544560994
 20
1389.942752906974
 30
0.0
 10
690.8525756980175
 20
1390.051650711268
 30
0.0
 10
690.8084001397311
 20
1390.104954422074
 30
0.0
 10
690.7923166721348
 20
1390.124361273708
 30
0.0
  0
ELLIPSE
  5
455
330
1F
100
AcDbEntity
  8
1
  6
SLD-Сплошная
100
AcDbEllipse
 10
691.9054271659
 20
1388.7764287963
 30
0.0
 11
0.0
 21
0.4122489361059252
 31
0.0
210
0.0
220
0.0
230
1.0
 40
0.9702875252
 41
5.512866274278405
 42
7.053504340080373
  0
SPLINE
  5
456
330
1F
100
AcDbEntity
  8
1
  6
SLD-Сплошная
100
AcDbSpline
210
0.0
220
0.0
230
1.0
 70
     8
 71
     3
 72
    12
 73
     8
 74
     0
 42
0.00000001
 43
0.00000001
 40
0.0
 40
0.0
 40
0.0
 40
0.0
 40
0.2187857887072162
 40
0.4375776469534877
 40
0.6562353658863814
 40
0.8748419359490976
 40
1.0
 40
1.0
 40
1.0
 40
1.0
 10
692.1839728620752
 20
1388.732705083768
 30
0.0
 10
692.1486474652062
 20
1388.759668509839
 30
0.0
 10
692.0779956914738
 20
1388.813596110001
 30
0.0
 10
691.9440324628328
 20
1388.846191998974
 30
0.0
 10
691.8084898365528
 20
1388.836842867732
 30
0.0
 10
691.6995920322588
 20
1388.79296410965
 30
0.0
 10
691.646288321453
 20
1388.748788551364
 30
0.0
 10
691.6268814698191
 20
1388.732705083768
 30
0.0
  0
ELLIPSE
  5
457
330
1F
100
AcDbEntity
  8
1
  6
SLD-Сплошная
100
AcDbEllipse
 10
692.9748139472
 20
1389.8458155776
 30
0.0
 11
-0.4122489361056978
 21
0.0
 31
0.0
210
0.0
220
0.0
230
1.0
 40
0.9702875252
 41
5.512866274278409
 42
7.053504340080777
  0
SPLINE
  5
458
330
1F
100
AcDbEntity
  8
1
  6
SLD-Сплошная
100
AcDbSpline
210
0.0
220
0.0
230
1.0
 70
     8
 71
     3
 72
    12
 73
     8
 74
     0
 42
0.00000001
 43
0.00000001
 40
0.0
 40
0.0
 40
0.0
 40
0.0
 40
0.2187857887072162
 40
0.4375776469534877
 40
0.6562353658863814
 40
0.8748419359490976
 40
1.0
 40
1.0
 40
1.0
 40
1.0
 10
693.0185376597594
 20
1390.124361273708
 30
0.0
 10
692.9915742336873
 20
1390.089035876839
 30
0.0
 10
692.9376466335258
 20
1390.018384103107
 30
0.0
 10
692.9050507445527
 20
1389.884420874465
 30
0.0
 10
692.9143998757949
 20
1389.748878248186
 30
0.0
 10
692.9582786338766
 20
1389.639980443892
 30
0.0
 10
693.0024541921631
 20
1389.586676733086
 30
0.0
 10
693.0185376597594
 20
1389.567269881452
 30
0.0
  0
ELLIPSE
  5
459
330
1F
100
AcDbEntity
  8
1
  6
SLD-Сплошная
100
AcDbEllipse
 10
691.9054271659
 20
1390.9152023589
 30
0.0
 11
0.0
 21
-0.4122489361054704
 31
0.0
210
0.0
220
0.0
230
1.0
 40
0.9702875252
 41
5.512866274278312
 42
7.053504340081282
  0
SPLINE
  5
45A
330
1F
100
AcDbEntity
  8
1
  6
SLD-Сплошная
100
AcDbSpline
210
0.0
220
0.0
230
1.0
 70
     8
 71
     3
 72
    12
 73
     8
 74
     0
 42
0.00000001
 43
0.00000001
 40
0.0
 40
0.0
 40
0.0
 40
0.0
 40
0.2187857887072158
 40
0.437577646953487
 40
0.656235365886403
 40
0.874841935949098
 40
1.0
 40
1.0
 40
1.0
 40
1.0
 10
691.6268814698191
 20
1390.958926071392
 30
0.0
 10
691.662206866688
 20
1390.93196264532
 30
0.0
 10
691.7328586404204
 20
1390.878035045159
 30
0.0
 10
691.8668218690615
 20
1390.845439156185
 30
0.0
 10
692.0023644953415
 20
1390.854788287427
 30
0.0
 10
692.1112622996354
 20
1390.898667045509
 30
0.0
 10
692.1645660104413
 20
1390.942842603796
 30
0.0
 10
692.1839728620752
 20
1390.958926071392
 30
0.0
  0
ARC
  5
45B
330
1F
100
AcDbEntity
  8
1
  6
SLD-Сплошная
100
AcDbCircle
 10
709.1506951472
 20
1407.0910835589
 30
0.0
 40
26.56195549614301
100
AcDbArc
 50
223.8816987744
 51
226.1183012256
  0
ARC
  5
45C
330
1F
100
AcDbEntity
  8
1
  6
SLD-Сплошная
100
AcDbCircle
 10
675.66401293
 20
1405.8588385512
 30
0.0
 40
23.41191191598811
100
AcDbArc
 50
310.0824770913
 51
312.9865596106
  0
ARC
  5
45D
330
1F
100
AcDbEntity
  8
1
  6
SLD-Сплошная
100
AcDbCircle
 10
708.1468414019
 20
1405.8588385512
 30
0.0
 40
23.41191191598804
100
AcDbArc
 50
227.0134403894
 51
229.9175229087
  0
ARC
  5
45E
330
1F
100
AcDbEntity
  8
1
  6
SLD-Сплошная
100
AcDbCircle
 10
674.6601591849
 20
1407.0910835586
 30
0.0
 40
26.56195549580495
100
AcDbArc
 50
313.8816987744
 51
316.1183012256
  0
ARC
  5
45F
330
1F
100
AcDbEntity
  8
1
  6
SLD-Сплошная
100
AcDbCircle
 10
675.8924041919
 20
1373.6044013413
 30
0.0
 40
23.41191191652145
100
AcDbArc
 50
40.0824770913
 51
42.9865596105
  0
ARC
  5
460
330
1F
100
AcDbEntity
  8
1
  6
SLD-Сплошная
100
AcDbCircle
 10
675.8924041924
 20
1406.0872298135
 30
0.0
 40
23.41191191596714
100
AcDbArc
 50
317.0134403894
 51
319.9175229087
  0
ARC
  5
461
330
1F
100
AcDbEntity
  8
1
  6
SLD-Сплошная
100
AcDbCircle
 10
674.6601591847
 20
1372.6005475964
 30
0.0
 40
26.56195549605338
100
AcDbArc
 50
43.8816987744
 51
46.1183012256
  0
ARC
  5
462
330
1F
100
AcDbEntity
  8
1
  6
SLD-Сплошная
100
AcDbCircle
 10
708.1468414017
 20
1373.8327926042
 30
0.0
 40
23.41191191573353
100
AcDbArc
 50
130.0824770913
 51
132.9865596106
  0
ARC
  5
463
330
1F
100
AcDbEntity
  8
1
  6
SLD-Сплошная
100
AcDbCircle
 10
675.6640129302
 20
1373.8327926042
 30
0.0
 40
23.41191191573362
100
AcDbArc
 50
47.0134403894
 51
49.9175229087
  0
ARC
  5
464
330
1F
100
AcDbEntity
  8
1
  6
SLD-Сплошная
100
AcDbCircle
 10
709.1506951474
 20
1372.6005475961
 30
0.0
 40
26.56195549639152
100
AcDbArc
 50
133.8816987744
 51
136.1183012256
  0
ARC
  5
465
330
1F
100
AcDbEntity
  8
1
  6
SLD-Сплошная
100
AcDbCircle
 10
707.9184501398
 20
1406.0872298137
 30
0.0
 40
23.41191191636364
100
AcDbArc
 50
220.0824770913
 51
222.9865596106
  0
ARC
  5
466
330
1F
100
AcDbEntity
  8
1
  6
SLD-Сплошная
100
AcDbCircle
 10
707.91845014
 20
1373.6044013413
 30
0.0
 40
23.41191191662239
100
AcDbArc
 50
137.0134403895
 51
139.9175229087
  0
CIRCLE
  5
467
330
1F
100
AcDbEntity
  8
1
  6
SLD-Сплошная
100
AcDbCircle
 10
691.9054271659
 20
1389.8458155776
 30
0.0
 40
3.499999999999948
  0
LINE
  5
468
330
1F
100
AcDbEntity
  8
1
  6
SLD-Сплошная
100
AcDbLine
 10
693.0721533549
 20
1391.7456762314
 30
0.0
 11
693.0721533549
 21
1391.5075165134
 31
0.0
  0
LINE
  5
469
330
1F
100
AcDbEntity
  8
1
  6
SLD-Сплошная
100
AcDbLine
 10
693.0721533549
 20
1391.5075165134
 30
0.0
 11
692.1839728621
 21
1390.6193360205
 31
0.0
  0
LINE
  5
46A
330
1F
100
AcDbEntity
  8
1
  6
SLD-Сплошная
100
AcDbLine
 10
693.8052878198
 20
1391.0125417665
 30
0.0
 11
693.5671281017
 21
1391.0125417665
 31
0.0
  0
LINE
  5
46B
330
1F
100
AcDbEntity
  8
1
  6
SLD-Сплошная
100
AcDbLine
 10
692.6789476089
 20
1390.1243612737
 30
0.0
 11
693.5671281017
 21
1391.0125417665
 31
0.0
  0
LINE
  5
46C
330
1F
100
AcDbEntity
  8
1
  6
SLD-Сплошная
100
AcDbLine
 10
690.738700977
 20
1391.7456762314
 30
0.0
 11
690.738700977
 21
1391.5075165134
 31
0.0
  0
LINE
  5
46D
330
1F
100
AcDbEntity
  8
1
  6
SLD-Сплошная
100
AcDbLine
 10
691.6268814698
 20
1390.6193360205
 30
0.0
 11
690.738700977
 21
1391.5075165134
 31
0.0
  0
LINE
  5
46E
330
1F
100
AcDbEntity
  8
1
  6
SLD-Сплошная
100
AcDbLine
 10
690.0055665121
 20
1388.6790893886
 30
0.0
 11
690.2437262302
 21
1388.6790893886
 31
0.0
  0
LINE
  5
46F
330
1F
100
AcDbEntity
  8
1
  6
SLD-Сплошная
100
AcDbLine
 10
691.131906723
 20
1389.5672698815
 30
0.0
 11
690.2437262302
 21
1388.6790893886
 31
0.0
  0
LINE
  5
470
330
1F
100
AcDbEntity
  8
1
  6
SLD-Сплошная
100
AcDbLine
 10
690.0055665121
 20
1391.0125417665
 30
0.0
 11
690.2437262302
 21
1391.0125417665
 31
0.0
  0
LINE
  5
471
330
1F
100
AcDbEntity
  8
1
  6
SLD-Сплошная
100
AcDbLine
 10
690.2437262302
 20
1391.0125417665
 30
0.0
 11
691.131906723
 21
1390.1243612737
 31
0.0
  0
LINE
  5
472
330
1F
100
AcDbEntity
  8
1
  6
SLD-Сплошная
100
AcDbLine
 10
690.738700977
 20
1387.9459549238
 30
0.0
 11
690.738700977
 21
1388.1841146418
 31
0.0
  0
LINE
  5
473
330
1F
100
AcDbEntity
  8
1
  6
SLD-Сплошная
100
AcDbLine
 10
690.738700977
 20
1388.1841146418
 30
0.0
 11
691.6268814698
 21
1389.0722951346
 31
0.0
  0
LINE
  5
474
330
1F
100
AcDbEntity
  8
1
  6
SLD-Сплошная
100
AcDbLine
 10
693.8052878198
 20
1388.6790893886
 30
0.0
 11
693.5671281017
 21
1388.6790893886
 31
0.0
  0
LINE
  5
475
330
1F
100
AcDbEntity
  8
1
  6
SLD-Сплошная
100
AcDbLine
 10
693.5671281017
 20
1388.6790893886
 30
0.0
 11
692.6789476089
 21
1389.5672698815
 31
0.0
  0
LINE
  5
476
330
1F
100
AcDbEntity
  8
1
  6
SLD-Сплошная
100
AcDbLine
 10
693.0721533549
 20
1387.9459549238
 30
0.0
 11
693.0721533549
 21
1388.1841146418
 31
0.0
  0
LINE
  5
477
330
1F
100
AcDbEntity
  8
1
  6
SLD-Сплошная
100
AcDbLine
 10
692.1839728621
 20
1389.0722951346
 30
0.0
 11
693.0721533549
 21
1388.1841146418
 31
0.0
  0
LINE
  5
478
330
1F
100
AcDbEntity
  8
1
  6
SLD-Сплошная
100
AcDbLine
 10
693.5671281017
 20
1391.0125417665
 30
0.0
 11
693.0721533549
 21
1391.5075165134
 31
0.0
  0
LINE
  5
479
330
1F
100
AcDbEntity
  8
1
  6
SLD-Сплошная
100
AcDbLine
 10
690.738700977
 20
1391.5075165134
 30
0.0
 11
690.2437262302
 21
1391.0125417665
 31
0.0
  0
LINE
  5
47A
330
1F
100
AcDbEntity
  8
1
  6
SLD-Сплошная
100
AcDbLine
 10
693.0721533549
 20
1388.1841146418
 30
0.0
 11
693.5671281017
 21
1388.6790893886
 31
0.0
  0
LINE
  5
47B
330
1F
100
AcDbEntity
  8
1
  6
SLD-Сплошная
100
AcDbLine
 10
690.2437262302
 20
1388.6790893886
 30
0.0
 11
690.738700977
 21
1388.1841146418
 31
0.0
  0
CIRCLE
  5
47C
330
1F
100
AcDbEntity
  8
1
  6
SLD-Сплошная
100
AcDbCircle
 10
691.9054271659
 20
1389.8458155776
 30
0.0
 40
4.99999999999996
  0
ELLIPSE
  5
47D
330
1F
100
AcDbEntity
  8
1
  6
SLD-Сплошная
100
AcDbEllipse
 10
1008.3360403847
 20
1309.8458155776
 30
0.0
 11
0.4122489361058115
 21
0.0
 31
0.0
210
0.0
220
0.0
230
1.0
 40
0.9702875252
 41
5.512866274278871
 42
7.053504340081131
  0
SPLINE
  5
47E
330
1F
100
AcDbEntity
  8
1
  6
SLD-Сплошная
100
AcDbSpline
210
0.0
220
0.0
230
1.0
 70
     8
 71
     3
 72
    12
 73
     8
 74
     0
 42
0.00000001
 43
0.00000001
 40
0.0
 40
0.0
 40
0.0
 40
0.0
 40
0.2187857887071739
 40
0.4375776469534908
 40
0.6562353658863678
 40
0.8748419359491206
 40
1.0
 40
1.0
 40
1.0
 40
1.0
 10
1008.292316672135
 20
1309.567269881452
 30
0.0
 10
1008.319280098207
 20
1309.602595278321
 30
0.0
 10
1008.373207698368
 20
1309.673247052053
 30
0.0
 10
1008.405803587341
 20
1309.807210280694
 30
0.0
 10
1008.396454456099
 20
1309.942752906974
 30
0.0
 10
1008.352575698018
 20
1310.051650711268
 30
0.0
 10
1008.308400139731
 20
1310.104954422074
 30
0.0
 10
1008.292316672135
 20
1310.124361273708
 30
0.0
  0
ARC
  5
47F
330
1F
100
AcDbEntity
  8
1
  6
SLD-Сплошная
100
AcDbCircle
 10
1026.6506951463
 20
1327.091083558
 30
0.0
 40
26.56195549486884
100
AcDbArc
 50
223.8816987744
 51
226.1183012256
  0
ARC
  5
480
330
1F
100
AcDbEntity
  8
1
  6
SLD-Сплошная
100
AcDbCircle
 10
993.1640129298
 20
1325.8588385514
 30
0.0
 40
23.41191191627987
100
AcDbArc
 50
310.0824770913
 51
312.9865596106
  0
SPLINE
  5
481
330
1F
100
AcDbEntity
  8
1
  6
SLD-Сплошная
100
AcDbSpline
210
0.0
220
0.0
230
1.0
 70
     8
 71
     3
 72
    12
 73
     8
 74
     0
 42
0.00000001
 43
0.00000001
 40
0.0
 40
0.0
 40
0.0
 40
0.0
 40
0.2187857887072118
 40
0.4375776469534856
 40
0.6562353658864083
 40
0.8748419359491202
 40
1.0
 40
1.0
 40
1.0
 40
1.0
 10
1009.683972862075
 20
1308.732705083768
 30
0.0
 10
1009.648647465206
 20
1308.75966850984
 30
0.0
 10
1009.577995691474
 20
1308.813596110001
 30
0.0
 10
1009.444032462833
 20
1308.846191998974
 30
0.0
 10
1009.308489836553
 20
1308.836842867732
 30
0.0
 10
1009.199592032259
 20
1308.79296410965
 30
0.0
 10
1009.146288321453
 20
1308.748788551364
 30
0.0
 10
1009.126881469819
 20
1308.732705083768
 30
0.0
  0
ARC
  5
482
330
1F
100
AcDbEntity
  8
1
  6
SLD-Сплошная
100
AcDbCircle
 10
1025.6468414022
 20
1325.8588385516
 30
0.0
 40
23.41191191651513
100
AcDbArc
 50
227.0134403894
 51
229.9175229087
  0
ARC
  5
483
330
1F
100
AcDbEntity
  8
1
  6
SLD-Сплошная
100
AcDbCircle
 10
992.1601591851
 20
1327.0910835584
 30
0.0
 40
26.56195549549
100
AcDbArc
 50
313.8816987744
 51
316.1183012256
  0
ARC
  5
484
330
1F
100
AcDbEntity
  8
1
  6
SLD-Сплошная
100
AcDbCircle
 10
993.3924041917
 20
1293.6044013411
 30
0.0
 40
23.41191191683913
100
AcDbArc
 50
40.0824770914
 51
42.9865596105
  0
SPLINE
  5
485
330
1F
100
AcDbEntity
  8
1
  6
SLD-Сплошная
100
AcDbSpline
210
0.0
220
0.0
230
1.0
 70
     8
 71
     3
 72
    12
 73
     8
 74
     0
 42
0.00000001
 43
0.00000001
 40
0.0
 40
0.0
 40
0.0
 40
0.0
 40
0.218785788707225
 40
0.4375776469534876
 40
0.656235365886399
 40
0.8748419359490996
 40
1.0
 40
1.0
 40
1.0
 40
1.0
 10
1010.518537659759
 20
1310.124361273708
 30
0.0
 10
1010.491574233687
 20
1310.089035876839
 30
0.0
 10
1010.437646633526
 20
1310.018384103107
 30
0.0
 10
1010.405050744553
 20
1309.884420874466
 30
0.0
 10
1010.414399875795
 20
1309.748878248186
 30
0.0
 10
1010.458278633877
 20
1309.639980443892
 30
0.0
 10
1010.502454192163
 20
1309.586676733086
 30
0.0
 10
1010.518537659759
 20
1309.567269881452
 30
0.0
  0
ARC
  5
486
330
1F
100
AcDbEntity
  8
1
  6
SLD-Сплошная
100
AcDbCircle
 10
993.392404192
 20
1326.0872298138
 30
0.0
 40
23.41191191646588
100
AcDbArc
 50
317.0134403894
 51
319.9175229087
  0
ARC
  5
487
330
1F
100
AcDbEntity
  8
1
  6
SLD-Сплошная
100
AcDbCircle
 10
992.1601591849
 20
1292.6005475965
 30
0.0
 40
26.56195549586905
100
AcDbArc
 50
43.8816987744
 51
46.1183012256
  0
ARC
  5
488
330
1F
100
AcDbEntity
  8
1
  6
SLD-Сплошная
100
AcDbCircle
 10
1025.6468414022
 20
1293.8327926036
 30
0.0
 40
23.41191191651513
100
AcDbArc
 50
130.0824770913
 51
132.9865596106
  0
SPLINE
  5
489
330
1F
100
AcDbEntity
  8
1
  6
SLD-Сплошная
100
AcDbSpline
210
0.0
220
0.0
230
1.0
 70
     8
 71
     3
 72
    12
 73
     8
 74
     0
 42
0.00000001
 43
0.00000001
 40
0.0
 40
0.0
 40
0.0
 40
0.0
 40
0.2187857887071872
 40
0.4375776469534928
 40
0.6562353658863584
 40
0.8748419359491
 40
1.0
 40
1.0
 40
1.0
 40
1.0
 10
1009.126881469819
 20
1310.958926071392
 30
0.0
 10
1009.162206866688
 20
1310.93196264532
 30
0.0
 10
1009.23285864042
 20
1310.878035045159
 30
0.0
 10
1009.366821869061
 20
1310.845439156185
 30
0.0
 10
1009.502364495341
 20
1310.854788287428
 30
0.0
 10
1009.611262299635
 20
1310.898667045509
 30
0.0
 10
1009.664566010441
 20
1310.942842603796
 30
0.0
 10
1009.683972862075
 20
1310.958926071392
 30
0.0
  0
ARC
  5
48A
330
1F
100
AcDbEntity
  8
1
  6
SLD-Сплошная
100
AcDbCircle
 10
993.1640129297
 20
1293.8327926036
 30
0.0
 40
23.4119119165161
100
AcDbArc
 50
47.0134403894
 51
49.9175229087
  0
ARC
  5
48B
330
1F
100
AcDbEntity
  8
1
  6
SLD-Сплошная
100
AcDbCircle
 10
1026.6506951466
 20
1292.6005475969
 30
0.0
 40
26.56195549524772
100
AcDbArc
 50
133.8816987744
 51
136.1183012256
  0
ARC
  5
48C
330
1F
100
AcDbEntity
  8
1
  6
SLD-Сплошная
100
AcDbCircle
 10
1025.4184501399
 20
1326.0872298138
 30
0.0
 40
23.41191191639577
100
AcDbArc
 50
220.0824770913
 51
222.9865596106
  0
ARC
  5
48D
330
1F
100
AcDbEntity
  8
1
  6
SLD-Сплошная
100
AcDbCircle
 10
1025.4184501401
 20
1293.6044013411
 30
0.0
 40
23.41191191678981
100
AcDbArc
 50
137.0134403895
 51
139.9175229086
  0
CIRCLE
  5
48E
330
1F
100
AcDbEntity
  8
1
  6
SLD-Сплошная
100
AcDbCircle
 10
1009.4054271659
 20
1309.8458155776
 30
0.0
 40
3.499999999999948
  0
ELLIPSE
  5
48F
330
1F
100
AcDbEntity
  8
1
  6
SLD-Сплошная
100
AcDbEllipse
 10
1009.4054271659
 20
1308.7764287963
 30
0.0
 11
0.0
 21
0.4122489361054704
 31
0.0
210
0.0
220
0.0
230
1.0
 40
0.9702875252
 41
5.512866274278814
 42
7.053504340080169
  0
ELLIPSE
  5
490
330
1F
100
AcDbEntity
  8
1
  6
SLD-Сплошная
100
AcDbEllipse
 10
1009.4054271659
 20
1310.9152023589
 30
0.0
 11
0.0
 21
-0.4122489361056978
 31
0.0
210
0.0
220
0.0
230
1.0
 40
0.9702875252
 41
5.512866274278884
 42
7.053504340080506
  0
ELLIPSE
  5
491
330
1F
100
AcDbEntity
  8
1
  6
SLD-Сплошная
100
AcDbEllipse
 10
1010.4748139472
 20
1309.8458155776
 30
0.0
 11
-0.4122489361055841
 21
0.0
 31
0.0
210
0.0
220
0.0
230
1.0
 40
0.9702875252
 41
5.512866274278514
 42
7.053504340079856
  0
LINE
  5
492
330
1F
100
AcDbEntity
  8
1
  6
SLD-Сплошная
100
AcDbLine
 10
1010.5721533549
 20
1311.7456762314
 30
0.0
 11
1010.5721533549
 21
1311.5075165134
 31
0.0
  0
LINE
  5
493
330
1F
100
AcDbEntity
  8
1
  6
SLD-Сплошная
100
AcDbLine
 10
1010.5721533549
 20
1311.5075165134
 30
0.0
 11
1009.6839728621
 21
1310.6193360205
 31
0.0
  0
LINE
  5
494
330
1F
100
AcDbEntity
  8
1
  6
SLD-Сплошная
100
AcDbLine
 10
1011.3052878198
 20
1311.0125417665
 30
0.0
 11
1011.0671281017
 21
1311.0125417665
 31
0.0
  0
LINE
  5
495
330
1F
100
AcDbEntity
  8
1
  6
SLD-Сплошная
100
AcDbLine
 10
1010.1789476089
 20
1310.1243612737
 30
0.0
 11
1011.0671281017
 21
1311.0125417665
 31
0.0
  0
LINE
  5
496
330
1F
100
AcDbEntity
  8
1
  6
SLD-Сплошная
100
AcDbLine
 10
1010.5721533549
 20
1307.9459549238
 30
0.0
 11
1010.5721533549
 21
1308.1841146418
 31
0.0
  0
LINE
  5
497
330
1F
100
AcDbEntity
  8
1
  6
SLD-Сплошная
100
AcDbLine
 10
1009.6839728621
 20
1309.0722951346
 30
0.0
 11
1010.5721533549
 21
1308.1841146418
 31
0.0
  0
LINE
  5
498
330
1F
100
AcDbEntity
  8
1
  6
SLD-Сплошная
100
AcDbLine
 10
1008.238700977
 20
1307.9459549238
 30
0.0
 11
1008.238700977
 21
1308.1841146418
 31
0.0
  0
LINE
  5
499
330
1F
100
AcDbEntity
  8
1
  6
SLD-Сплошная
100
AcDbLine
 10
1008.238700977
 20
1308.1841146418
 30
0.0
 11
1009.1268814698
 21
1309.0722951346
 31
0.0
  0
LINE
  5
49A
330
1F
100
AcDbEntity
  8
1
  6
SLD-Сплошная
100
AcDbLine
 10
1008.238700977
 20
1311.7456762314
 30
0.0
 11
1008.238700977
 21
1311.5075165134
 31
0.0
  0
LINE
  5
49B
330
1F
100
AcDbEntity
  8
1
  6
SLD-Сплошная
100
AcDbLine
 10
1009.1268814698
 20
1310.6193360205
 30
0.0
 11
1008.238700977
 21
1311.5075165134
 31
0.0
  0
LINE
  5
49C
330
1F
100
AcDbEntity
  8
1
  6
SLD-Сплошная
100
AcDbLine
 10
1007.5055665121
 20
1308.6790893886
 30
0.0
 11
1007.7437262302
 21
1308.6790893886
 31
0.0
  0
LINE
  5
49D
330
1F
100
AcDbEntity
  8
1
  6
SLD-Сплошная
100
AcDbLine
 10
1008.631906723
 20
1309.5672698815
 30
0.0
 11
1007.7437262302
 21
1308.6790893886
 31
0.0
  0
LINE
  5
49E
330
1F
100
AcDbEntity
  8
1
  6
SLD-Сплошная
100
AcDbLine
 10
1007.5055665121
 20
1311.0125417665
 30
0.0
 11
1007.7437262302
 21
1311.0125417665
 31
0.0
  0
LINE
  5
49F
330
1F
100
AcDbEntity
  8
1
  6
SLD-Сплошная
100
AcDbLine
 10
1007.7437262302
 20
1311.0125417665
 30
0.0
 11
1008.631906723
 21
1310.1243612737
 31
0.0
  0
LINE
  5
4A0
330
1F
100
AcDbEntity
  8
1
  6
SLD-Сплошная
100
AcDbLine
 10
1011.3052878198
 20
1308.6790893886
 30
0.0
 11
1011.0671281017
 21
1308.6790893886
 31
0.0
  0
LINE
  5
4A1
330
1F
100
AcDbEntity
  8
1
  6
SLD-Сплошная
100
AcDbLine
 10
1011.0671281017
 20
1308.6790893886
 30
0.0
 11
1010.1789476089
 21
1309.5672698815
 31
0.0
  0
LINE
  5
4A2
330
1F
100
AcDbEntity
  8
1
  6
SLD-Сплошная
100
AcDbLine
 10
1011.0671281017
 20
1311.0125417665
 30
0.0
 11
1010.5721533549
 21
1311.5075165134
 31
0.0
  0
LINE
  5
4A3
330
1F
100
AcDbEntity
  8
1
  6
SLD-Сплошная
100
AcDbLine
 10
1008.238700977
 20
1311.5075165134
 30
0.0
 11
1007.7437262302
 21
1311.0125417665
 31
0.0
  0
LINE
  5
4A4
330
1F
100
AcDbEntity
  8
1
  6
SLD-Сплошная
100
AcDbLine
 10
1010.5721533549
 20
1308.1841146418
 30
0.0
 11
1011.0671281017
 21
1308.6790893886
 31
0.0
  0
LINE
  5
4A5
330
1F
100
AcDbEntity
  8
1
  6
SLD-Сплошная
100
AcDbLine
 10
1007.7437262302
 20
1308.6790893886
 30
0.0
 11
1008.238700977
 21
1308.1841146418
 31
0.0
  0
CIRCLE
  5
4A6
330
1F
100
AcDbEntity
  8
1
  6
SLD-Сплошная
100
AcDbCircle
 10
1009.4054271659
 20
1309.8458155776
 30
0.0
 40
4.99999999999996
  0
CIRCLE
  5
4A7
330
1F
100
AcDbEntity
  8
1
  6
SLD-Сплошная
100
AcDbCircle
 10
1076.9054271659
 20
1457.0958155776
 30
0.0
 40
8.299999999999955
  0
LINE
  5
4A8
330
1F
100
AcDbEntity
  8
1
  6
SLD-Сплошная
100
AcDbLine
 10
563.1054271659
 20
1499.1958155776
 30
0.0
 11
535.1054271659
 21
1499.1958155776
 31
0.0
  0
LINE
  5
4A9
330
1F
100
AcDbEntity
  8
1
  6
SLD-Сплошная
100
AcDbLine
 10
560.1054271659
 20
1502.1958155776
 30
0.0
 11
538.1054271659
 21
1502.1958155776
 31
0.0
  0
LINE
  5
4AA
330
1F
100
AcDbEntity
  8
1
  6
SLD-Сплошная
100
AcDbLine
 10
1087.9054271659
 20
1473.0958155776
 30
0.0
 11
1087.9054271659
 21
1472.0958155776
 31
0.0
  0
LINE
  5
4AB
330
1F
100
AcDbEntity
  8
1
  6
SLD-Сплошная
100
AcDbLine
 10
1085.9054271659
 20
1474.0958155776
 30
0.0
 11
1086.9054271659
 21
1474.0958155776
 31
0.0
  0
SPLINE
  5
4AC
330
1F
100
AcDbEntity
  8
1
  6
SLD-Сплошная
100
AcDbSpline
210
0.0
220
0.0
230
1.0
 70
     8
 71
     3
 72
    12
 73
     8
 74
     0
 42
0.00000001
 43
0.00000001
 40
0.0
 40
0.0
 40
0.0
 40
0.0
 40
0.2178231110881947
 40
0.4765675029999277
 40
0.8410160589292637
 40
0.9961871477580916
 40
0.9999999999999999
 40
0.9999999999999999
 40
0.9999999999999999
 40
0.9999999999999999
 10
1086.905427165927
 20
1474.09581557758
 30
0.0
 10
1087.046563735961
 20
1474.076462384169
 30
0.0
 10
1087.355351460215
 20
1474.034120214815
 30
0.0
 10
1087.713161588575
 20
1473.739972459946
 30
0.0
 10
1087.8794118546
 20
1473.405981965347
 30
0.0
 10
1087.905300759414
 20
1473.169309778955
 30
0.0
 10
1087.90542420537
 20
1473.097536880099
 30
0.0
 10
1087.905427165928
 20
1473.09581557758
 30
0.0
  0
LINE
  5
4AD
330
1F
100
AcDbEntity
  8
1
  6
SLD-Сплошная
100
AcDbLine
 10
1075.4054271659
 20
1474.0958155776
 30
0.0
 11
1085.9054271659
 21
1474.0958155776
 31
0.0
  0
ARC
  5
4AE
330
1F
100
AcDbEntity
  8
1
  6
SLD-Сплошная
100
AcDbCircle
 10
1075.4054271659
 20
1475.0958155776
 30
0.0
 40
1.0
100
AcDbArc
 50
180.0
 51
270.0
  0
ARC
  5
4AF
330
1F
100
AcDbEntity
  8
1
  6
SLD-Сплошная
100
AcDbCircle
 10
1075.4054271659
 20
1475.0958155776
 30
0.0
 40
3.0
100
AcDbArc
 50
180.0
 51
270.0
  0
LINE
  5
4B0
330
1F
100
AcDbEntity
  8
1
  6
SLD-Сплошная
100
AcDbLine
 10
1074.4054271659
 20
1479.1958155776
 30
0.0
 11
1074.4054271659
 21
1475.0958155776
 31
0.0
  0
LINE
  5
4B1
330
1F
100
AcDbEntity
  8
1
  6
SLD-Сплошная
100
AcDbLine
 10
1072.4054271659
 20
1479.1958155776
 30
0.0
 11
1072.4054271659
 21
1475.0958155776
 31
0.0
  0
LINE
  5
4B2
330
1F
100
AcDbEntity
  8
1
  6
SLD-Сплошная
100
AcDbLine
 10
1084.1581183594
 20
1474.1958155776
 30
0.0
 11
1085.5054271659
 21
1474.1958155776
 31
0.0
  0
LINE
  5
4B3
330
1F
100
AcDbEntity
  8
1
  6
SLD-Сплошная
100
AcDbLine
 10
1076.3054271659
 20
1474.1958155776
 30
0.0
 11
1084.1581183594
 21
1474.1958155776
 31
0.0
  0
LINE
  5
4B4
330
1F
100
AcDbEntity
  8
1
  6
SLD-Сплошная
100
AcDbLine
 10
1084.1581183594
 20
1474.5958155776
 30
0.0
 11
1085.5054271659
 21
1474.5958155776
 31
0.0
  0
LINE
  5
4B5
330
1F
100
AcDbEntity
  8
1
  6
SLD-Сплошная
100
AcDbLine
 10
1076.3054271659
 20
1474.5958155776
 30
0.0
 11
1084.1581183594
 21
1474.5958155776
 31
0.0
  0
ARC
  5
4B6
330
1F
100
AcDbEntity
  8
1
  6
SLD-Сплошная
100
AcDbCircle
 10
1074.9054271659
 20
1474.5958155776
 30
0.0
 40
2.5
100
AcDbArc
 50
180.0
 51
270.0
  0
LINE
  5
4B7
330
1F
100
AcDbEntity
  8
1
  6
SLD-Сплошная
100
AcDbLine
 10
1072.4054271659
 20
1475.0958155776
 30
0.0
 11
1072.4054271659
 21
1474.5958155776
 31
0.0
  0
LINE
  5
4B8
330
1F
100
AcDbEntity
  8
1
  6
SLD-Сплошная
100
AcDbLine
 10
1637.4568051668
 20
965.448911213
 30
0.0
 11
1637.4568051668
 21
371.009546638
 31
0.0
  0
LINE
  5
4B9
330
1F
100
AcDbEntity
  8
1
  6
SLD-Сплошная
100
AcDbLine
 10
1630.3568051668
 20
453.1792289255
 30
0.0
 11
1631.5221812055
 21
453.1792289255
 31
0.0
  0
LINE
  5
4BA
330
1F
100
AcDbEntity
  8
1
  6
SLD-Сплошная
100
AcDbLine
 10
1631.5221812055
 20
463.2792289255
 30
0.0
 11
1630.3568051668
 21
463.2792289255
 31
0.0
  0
ARC
  5
4BB
330
1F
100
AcDbEntity
  8
1
  6
SLD-Сплошная
100
AcDbCircle
 10
1631.5221812055
 20
453.3792289255
 30
0.0
 40
0.2000000000001203
100
AcDbArc
 50
270.0
 51
338.1849373759
  0
ARC
  5
4BC
330
1F
100
AcDbEntity
  8
1
  6
SLD-Сплошная
100
AcDbCircle
 10
1631.5221812055
 20
463.0792289255
 30
0.0
 40
0.2000000000001625
100
AcDbArc
 50
21.8150626241
 51
90.0
  0
ARC
  5
4BD
330
1F
100
AcDbEntity
  8
1
  6
SLD-Сплошная
100
AcDbCircle
 10
1619.4055551668
 20
458.2292289255
 30
0.0
 40
13.25125000000011
100
AcDbArc
 50
338.1849373759
 51
0.0
  0
ARC
  5
4BE
330
1F
100
AcDbEntity
  8
1
  6
SLD-Сплошная
100
AcDbCircle
 10
1619.4055551668
 20
458.2292289255
 30
0.0
 40
13.25125000000013
100
AcDbArc
 50
0.0
 51
21.8150626241
  0
ARC
  5
4BF
330
1F
100
AcDbEntity
  8
1
  6
SLD-Сплошная
100
AcDbCircle
 10
1631.5221812055
 20
873.3792289255
 30
0.0
 40
0.2000000000001203
100
AcDbArc
 50
270.0
 51
338.1849373759
  0
ARC
  5
4C0
330
1F
100
AcDbEntity
  8
1
  6
SLD-Сплошная
100
AcDbCircle
 10
1631.5221812055
 20
883.0792289255
 30
0.0
 40
0.2000000000001203
100
AcDbArc
 50
21.8150626241
 51
90.0
  0
LINE
  5
4C1
330
1F
100
AcDbEntity
  8
1
  6
SLD-Сплошная
100
AcDbLine
 10
1630.3568051668
 20
873.1792289255
 30
0.0
 11
1631.5221812055
 21
873.1792289255
 31
0.0
  0
LINE
  5
4C2
330
1F
100
AcDbEntity
  8
1
  6
SLD-Сплошная
100
AcDbLine
 10
1631.5221812055
 20
883.2792289255
 30
0.0
 11
1630.3568051668
 21
883.2792289255
 31
0.0
  0
ARC
  5
4C3
330
1F
100
AcDbEntity
  8
1
  6
SLD-Сплошная
100
AcDbCircle
 10
1619.4055551668
 20
878.2292289255
 30
0.0
 40
13.25125000000011
100
AcDbArc
 50
338.1849373759
 51
0.0
  0
ARC
  5
4C4
330
1F
100
AcDbEntity
  8
1
  6
SLD-Сплошная
100
AcDbCircle
 10
1619.4055551668
 20
878.2292289255
 30
0.0
 40
13.25125000000011
100
AcDbArc
 50
0.0
 51
21.8150626241
  0
LINE
  5
4C5
330
1F
100
AcDbEntity
  8
1
  6
SLD-Сплошная
100
AcDbLine
 10
1607.0568051668
 20
368.2292289255
 30
0.0
 11
1607.0568051668
 21
367.0234668679
 31
0.0
  0
LINE
  5
4C6
330
1F
100
AcDbEntity
  8
1
  6
SLD-Сплошная
100
AcDbLine
 10
1623.6568051668
 20
367.0234668679
 30
0.0
 11
1623.6568051668
 21
368.2292289255
 31
0.0
  0
ARC
  5
4C7
330
1F
100
AcDbEntity
  8
1
  6
SLD-Сплошная
100
AcDbCircle
 10
1608.0568051668
 20
367.0234668679
 30
0.0
 40
1.000000000000227
100
AcDbArc
 50
180.0
 51
257.5813184942
  0
ARC
  5
4C8
330
1F
100
AcDbEntity
  8
1
  6
SLD-Сплошная
100
AcDbCircle
 10
1622.6568051668
 20
367.0234668679
 30
0.0
 40
1.000000000000227
100
AcDbArc
 50
282.4186815058
 51
0.0
  0
ARC
  5
4C9
330
1F
100
AcDbEntity
  8
1
  6
SLD-Сплошная
100
AcDbCircle
 10
1615.3568051668
 20
400.1742289255
 30
0.0
 40
34.94500000000006
100
AcDbArc
 50
270.0104111827
 51
282.4186815058
  0
ARC
  5
4CA
330
1F
100
AcDbEntity
  8
1
  6
SLD-Сплошная
100
AcDbCircle
 10
1615.3568051668
 20
400.1742289255
 30
0.0
 40
34.94499999999996
100
AcDbArc
 50
257.5813184942
 51
270.0104111827
  0
LINE
  5
4CB
330
1F
100
AcDbEntity
  8
1
  6
SLD-Сплошная
100
AcDbLine
 10
1656.4568051668
 20
654.2292289255
 30
0.0
 11
1657.4568051668
 21
654.2292289255
 31
0.0
  0
LINE
  5
4CC
330
1F
100
AcDbEntity
  8
1
  6
SLD-Сплошная
100
AcDbLine
 10
1657.4568051668
 20
682.2292289255
 30
0.0
 11
1656.4568051668
 21
682.2292289255
 31
0.0
  0
LINE
  5
4CD
330
1F
100
AcDbEntity
  8
1
  6
SLD-Сплошная
100
AcDbLine
 10
1657.4568051668
 20
654.2292289255
 30
0.0
 11
1660.4568051668
 21
657.2292289255
 31
0.0
  0
LINE
  5
4CE
330
1F
100
AcDbEntity
  8
1
  6
SLD-Сплошная
100
AcDbLine
 10
1660.4568051668
 20
679.2292289255
 30
0.0
 11
1657.4568051668
 21
682.2292289255
 31
0.0
  0
LINE
  5
4CF
330
1F
100
AcDbEntity
  8
1
  6
SLD-Сплошная
100
AcDbLine
 10
1358.8568051668
 20
370.2292289255
 30
0.0
 11
1628.3568051668
 21
370.2292289255
 31
0.0
  0
CIRCLE
  5
4D0
330
1F
100
AcDbEntity
  8
1
  6
SLD-Сплошная
100
AcDbCircle
 10
1590.3568051668
 20
418.2292289255
 30
0.0
 40
0.5
  0
CIRCLE
  5
4D1
330
1F
100
AcDbEntity
  8
1
  6
SLD-Сплошная
100
AcDbCircle
 10
1590.3568051668
 20
918.2292289255
 30
0.0
 40
0.5
  0
CIRCLE
  5
4D2
330
1F
100
AcDbEntity
  8
1
  6
SLD-Сплошная
100
AcDbCircle
 10
1540.3568051668
 20
928.2292289255
 30
0.0
 40
0.5
  0
ELLIPSE
  5
4D3
330
1F
100
AcDbEntity
  8
1
  6
SLD-Сплошная
100
AcDbEllipse
 10
1358.8568051668
 20
965.6585182474
 30
0.0
 11
2.499999999999773
 21
0.0
 31
0.0
210
0.0
220
0.0
230
1.0
 40
0.6
 41
2.751284095285934
 42
3.141592653589968
  0
LINE
  5
4D4
330
1F
100
AcDbEntity
  8
1
  6
SLD-Сплошная
100
AcDbLine
 10
1356.5448259029
 20
966.2292289255
 30
0.0
 11
1358.8568051668
 21
966.2292289255
 31
0.0
  0
ELLIPSE
  5
4D5
330
1F
100
AcDbEntity
  8
1
  6
SLD-Сплошная
100
AcDbEllipse
 10
1358.8568051668
 20
370.7999396036
 30
0.0
 11
2.499999999999773
 21
0.0
 31
0.0
210
0.0
220
0.0
230
1.0
 40
0.6
 41
3.141592653589641
 42
3.53190121189366
  0
LINE
  5
4D6
330
1F
100
AcDbEntity
  8
1
  6
SLD-Сплошная
100
AcDbLine
 10
1356.3568051668
 20
370.7999396036
 30
0.0
 11
1356.3568051668
 21
965.6585182474
 31
0.0
  0
LINE
  5
4D7
330
1F
100
AcDbEntity
  8
1
  6
SLD-Сплошная
100
AcDbLine
 10
1356.5448259029
 20
370.2292289255
 30
0.0
 11
1358.8568051668
 21
370.2292289255
 31
0.0
  0
LINE
  5
4D8
330
1F
100
AcDbEntity
  8
1
  6
SLD-Сплошная
100
AcDbLine
 10
1358.8568051668
 20
968.2292289255
 30
0.0
 11
1628.3568051668
 21
968.2292289255
 31
0.0
  0
LINE
  5
4D9
330
1F
100
AcDbEntity
  8
1
  6
SLD-Сплошная
100
AcDbLine
 10
1628.3568051668
 20
966.2292289255
 30
0.0
 11
1628.3568051668
 21
968.2292289255
 31
0.0
  0
LINE
  5
4DA
330
1F
100
AcDbEntity
  8
1
  6
SLD-Сплошная
100
AcDbLine
 10
1358.8568051668
 20
966.2292289255
 30
0.0
 11
1358.8568051668
 21
968.2292289255
 31
0.0
  0
LINE
  5
4DB
330
1F
100
AcDbEntity
  8
1
  6
SLD-Сплошная
100
AcDbLine
 10
1630.3568051668
 20
370.2999396036
 30
0.0
 11
1628.3568051668
 21
370.2292289255
 31
0.0
  0
LINE
  5
4DC
330
1F
100
AcDbEntity
  8
1
  6
SLD-Сплошная
100
AcDbLine
 10
1630.3568051668
 20
966.1585182474
 30
0.0
 11
1628.3568051668
 21
966.2292289255
 31
0.0
  0
LINE
  5
4DD
330
1F
100
AcDbEntity
  8
1
  6
SLD-Сплошная
100
AcDbLine
 10
1630.3568051668
 20
966.1585182474
 30
0.0
 11
1630.3568051668
 21
370.2999396036
 31
0.0
  0
LINE
  5
4DE
330
1F
100
AcDbEntity
  8
1
  6
SLD-Сплошная
100
AcDbLine
 10
1358.8568051668
 20
368.5588996167
 30
0.0
 11
1358.8568051668
 21
370.2292289255
 31
0.0
  0
LINE
  5
4DF
330
1F
100
AcDbEntity
  8
1
  6
SLD-Сплошная
100
AcDbLine
 10
1628.3568051668
 20
370.2292289255
 30
0.0
 11
1628.3568051668
 21
368.5588996167
 31
0.0
  0
LINE
  5
4E0
330
1F
100
AcDbEntity
  8
1
  6
SLD-Сплошная
100
AcDbLine
 10
1628.3568051668
 20
368.2292289255
 30
0.0
 11
1358.8568051668
 21
368.2292289255
 31
0.0
  0
LINE
  5
4E1
330
1F
100
AcDbEntity
  8
1
  6
SLD-Сплошная
100
AcDbLine
 10
1356.5448259029
 20
966.680413389
 30
0.0
 11
1357.4696176084
 21
966.2999396036
 31
0.0
  0
ARC
  5
4E2
330
1F
100
AcDbEntity
  8
1
  6
SLD-Сплошная
100
AcDbCircle
 10
1358.8568051668
 20
965.7292289255
 30
0.0
 40
2.50000000000004
100
AcDbArc
 50
90.0
 51
157.6369669023
  0
ARC
  5
4E3
330
1F
100
AcDbEntity
  8
1
  6
SLD-Сплошная
100
AcDbCircle
 10
1358.8568051668
 20
965.7292289255
 30
0.0
 40
1.500000000000024
100
AcDbArc
 50
90.0
 51
157.6369669023
  0
LINE
  5
4E4
330
1F
100
AcDbEntity
  8
1
  6
SLD-Сплошная
100
AcDbLine
 10
1356.5448259029
 20
369.7780444621
 30
0.0
 11
1357.4696176084
 21
370.1585182475
 31
0.0
  0
ARC
  5
4E5
330
1F
100
AcDbEntity
  8
1
  6
SLD-Сплошная
100
AcDbCircle
 10
1358.8568051668
 20
370.7292289255
 30
0.0
 40
1.500000000000024
100
AcDbArc
 50
202.3630330978
 51
270.0
  0
LINE
  5
4E6
330
1F
100
AcDbEntity
  8
1
  6
SLD-Сплошная
100
AcDbLine
 10
1358.8568051668
 20
368.5588996167
 30
0.0
 11
1358.8568051668
 21
368.2292289255
 31
0.0
  0
ARC
  5
4E7
330
1F
100
AcDbEntity
  8
1
  6
SLD-Сплошная
100
AcDbCircle
 10
1358.8568051668
 20
370.7292289255
 30
0.0
 40
2.500000000000083
100
AcDbArc
 50
202.3630330978
 51
270.0
  0
LINE
  5
4E8
330
1F
100
AcDbEntity
  8
1
  6
SLD-Сплошная
100
AcDbLine
 10
1356.3568051668
 20
370.7292289255
 30
0.0
 11
1356.3595844895
 21
370.7292289255
 31
0.0
  0
ARC
  5
4E9
330
1F
100
AcDbEntity
  8
1
  6
SLD-Сплошная
100
AcDbCircle
 10
1358.8568051668
 20
370.7292289255
 30
0.0
 40
2.500000000000083
100
AcDbArc
 50
180.0
 51
202.3630330978
  0
LINE
  5
4EA
330
1F
100
AcDbEntity
  8
1
  6
SLD-Сплошная
100
AcDbLine
 10
1356.3568051668
 20
965.7292289255
 30
0.0
 11
1356.3595844895
 21
965.7292289255
 31
0.0
  0
ARC
  5
4EB
330
1F
100
AcDbEntity
  8
1
  6
SLD-Сплошная
100
AcDbCircle
 10
1358.8568051668
 20
965.7292289255
 30
0.0
 40
2.50000000000004
100
AcDbArc
 50
157.6369669023
 51
180.0
  0
ARC
  5
4EC
330
1F
100
AcDbEntity
  8
1
  6
SLD-Сплошная
100
AcDbCircle
 10
1628.3568051668
 20
370.2292289255
 30
0.0
 40
1.0
100
AcDbArc
 50
270.0
 51
360.0
  0
LINE
  5
4ED
330
1F
100
AcDbEntity
  8
1
  6
SLD-Сплошная
100
AcDbLine
 10
1629.3568051668
 20
370.2292289255
 30
0.0
 11
1630.3568051668
 21
370.2292289255
 31
0.0
  0
LINE
  5
4EE
330
1F
100
AcDbEntity
  8
1
  6
SLD-Сплошная
100
AcDbLine
 10
1628.3568051668
 20
368.2292289255
 30
0.0
 11
1628.3568051668
 21
368.5588996167
 31
0.0
  0
ARC
  5
4EF
330
1F
100
AcDbEntity
  8
1
  6
SLD-Сплошная
100
AcDbCircle
 10
1628.3568051668
 20
370.2292289255
 30
0.0
 40
2.0
100
AcDbArc
 50
270.0
 51
360.0
  0
ARC
  5
4F0
330
1F
100
AcDbEntity
  8
1
  6
SLD-Сплошная
100
AcDbCircle
 10
1628.3568051668
 20
966.2292289255
 30
0.0
 40
2.0
100
AcDbArc
 50
0.0
 51
90.0
  0
LINE
  5
4F1
330
1F
100
AcDbEntity
  8
1
  6
SLD-Сплошная
100
AcDbLine
 10
1629.3568051668
 20
966.2292289255
 30
0.0
 11
1630.3568051668
 21
966.2292289255
 31
0.0
  0
ARC
  5
4F2
330
1F
100
AcDbEntity
  8
1
  6
SLD-Сплошная
100
AcDbCircle
 10
1628.3568051668
 20
966.2292289255
 30
0.0
 40
1.0
100
AcDbArc
 50
0.0
 51
90.0
  0
LINE
  5
4F3
330
1F
100
AcDbEntity
  8
1
  6
SLD-Сплошная
100
AcDbLine
 10
1629.3568051668
 20
966.2292289255
 30
0.0
 11
1629.3568051668
 21
966.1938735865
 31
0.0
  0
LINE
  5
4F4
330
1F
100
AcDbEntity
  8
1
  6
SLD-Сплошная
100
AcDbLine
 10
1630.3568051668
 20
966.2292289255
 30
0.0
 11
1630.3568051668
 21
966.1585182474
 31
0.0
  0
LINE
  5
4F5
330
1F
100
AcDbEntity
  8
1
  6
SLD-Сплошная
100
AcDbLine
 10
1630.3568051668
 20
370.2292289255
 30
0.0
 11
1630.3568051668
 21
370.2999396036
 31
0.0
  0
LINE
  5
4F6
330
1F
100
AcDbEntity
  8
1
  6
SLD-Сплошная
100
AcDbLine
 10
1629.3568051668
 20
370.2292289255
 30
0.0
 11
1629.3568051668
 21
370.2645842646
 31
0.0
  0
LINE
  5
4F7
330
1F
100
AcDbEntity
  8
1
  6
SLD-Сплошная
100
AcDbLine
 10
1356.3568051668
 20
965.7292289255
 30
0.0
 11
1356.3568051668
 21
965.6585182475
 31
0.0
  0
LINE
  5
4F8
330
1F
100
AcDbEntity
  8
1
  6
SLD-Сплошная
100
AcDbLine
 10
1356.3568051668
 20
370.7292289255
 30
0.0
 11
1356.3568051668
 21
370.7999396036
 31
0.0
  0
ELLIPSE
  5
4F9
330
1F
100
AcDbEntity
  8
1
  6
SLD-Сплошная
100
AcDbEllipse
 10
1631.3568051668
 20
949.1585182474
 30
0.0
 11
0.0
 21
2.0
 31
0.0
210
0.0
220
0.0
230
1.0
 40
0.5
 41
1.570796326794726
 42
3.141592653589793
  0
ELLIPSE
  5
4FA
330
1F
100
AcDbEntity
  8
1
  6
SLD-Сплошная
100
AcDbEllipse
 10
1631.3568051668
 20
387.2999396036
 30
0.0
 11
0.0
 21
1.999999999999943
 31
0.0
210
0.0
220
0.0
230
1.0
 40
0.5
 41
0.0
 42
1.570796326795067
  0
ARC
  5
4FB
330
1F
100
AcDbEntity
  8
1
  6
SLD-Сплошная
100
AcDbCircle
 10
1631.3568051668
 20
949.2292289255
 30
0.0
 40
2.000000000000029
100
AcDbArc
 50
261.2995225051
 51
270.0
  0
ARC
  5
4FC
330
1F
100
AcDbEntity
  8
1
  6
SLD-Сплошная
100
AcDbCircle
 10
1631.3568051668
 20
949.2292289255
 30
0.0
 40
1.0
100
AcDbArc
 50
180.0
 51
270.0
  0
ARC
  5
4FD
330
1F
100
AcDbEntity
  8
1
  6
SLD-Сплошная
100
AcDbCircle
 10
1631.3568051668
 20
387.2292289255
 30
0.0
 40
1.000000000000057
100
AcDbArc
 50
90.0
 51
180.0
  0
ARC
  5
4FE
330
1F
100
AcDbEntity
  8
1
  6
SLD-Сплошная
100
AcDbCircle
 10
1631.3568051668
 20
387.2292289255
 30
0.0
 40
2.000000000000057
100
AcDbArc
 50
90.0
 51
98.7004774949
  0
LINE
  5
4FF
330
1F
100
AcDbEntity
  8
1
  6
SLD-Сплошная
100
AcDbLine
 10
1631.3568051668
 20
947.1585182475
 30
0.0
 11
1637.4568051667
 21
947.1585182474
 31
0.0
  0
LINE
  5
500
330
1F
100
AcDbEntity
  8
1
  6
SLD-Сплошная
100
AcDbLine
 10
1631.3568051668
 20
389.2999396036
 30
0.0
 11
1637.4568051667
 21
389.2999396036
 31
0.0
  0
LINE
  5
501
330
1F
100
AcDbEntity
  8
1
  6
SLD-Сплошная
100
AcDbLine
 10
1637.4568051667
 20
947.2292289255
 30
0.0
 11
1631.3568051668
 21
947.2292289255
 31
0.0
  0
LINE
  5
502
330
1F
100
AcDbEntity
  8
1
  6
SLD-Сплошная
100
AcDbLine
 10
1637.4568051667
 20
948.2292289255
 30
0.0
 11
1631.3568051668
 21
948.2292289255
 31
0.0
  0
LINE
  5
503
330
1F
100
AcDbEntity
  8
1
  6
SLD-Сплошная
100
AcDbLine
 10
1637.4568051667
 20
388.2292289255
 30
0.0
 11
1631.3568051668
 21
388.2292289255
 31
0.0
  0
LINE
  5
504
330
1F
100
AcDbEntity
  8
1
  6
SLD-Сплошная
100
AcDbLine
 10
1637.4568051667
 20
389.2292289255
 30
0.0
 11
1631.3568051668
 21
389.2292289255
 31
0.0
  0
SPLINE
  5
505
330
1F
100
AcDbEntity
  8
1
  6
SLD-Сплошная
100
AcDbSpline
210
0.0
220
0.0
230
1.0
 70
     8
 71
     3
 72
    11
 73
     7
 74
     0
 42
0.00000001
 43
0.00000001
 40
0.0
 40
0.0
 40
0.0
 40
0.0
 40
0.2500000000000041
 40
0.5000000000000134
 40
0.749999999999991
 40
1.0
 40
1.0
 40
1.0
 40
1.0
 10
1638.50680516675
 20
965.4463862129871
 30
0.0
 10
1638.369216270754
 20
965.4422195463205
 30
0.0
 10
1638.09403847876
 20
965.4338862129872
 30
0.0
 10
1637.746966294809
 20
965.4213862129874
 30
0.0
 10
1637.50415462103
 20
965.4088862129873
 30
0.0
 10
1637.472588318177
 20
965.4005528796541
 30
0.0
 10
1637.45680516675
 20
965.3963862129875
 30
0.0
  0
SPLINE
  5
506
330
1F
100
AcDbEntity
  8
1
  6
SLD-Сплошная
100
AcDbSpline
210
0.0
220
0.0
230
1.0
 70
     8
 71
     3
 72
    11
 73
     7
 74
     0
 42
0.00000001
 43
0.00000001
 40
0.0
 40
0.0
 40
0.0
 40
0.0
 40
0.249999999999982
 40
0.5000000000000002
 40
0.7499999999999896
 40
1.0
 40
1.0
 40
1.0
 40
1.0
 10
1637.45680516675
 20
371.0620716380133
 30
0.0
 10
1637.472588318176
 20
371.0579049713465
 30
0.0
 10
1637.504154621027
 20
371.049571638013
 30
0.0
 10
1637.746966294805
 20
371.0370716380132
 30
0.0
 10
1638.094038478759
 20
371.0245716380132
 30
0.0
 10
1638.369216270753
 20
371.0162383046798
 30
0.0
 10
1638.50680516675
 20
371.0120716380131
 30
0.0
  0
LINE
  5
507
330
1F
100
AcDbEntity
  8
1
  6
SLD-Сплошная
100
AcDbLine
 10
1638.5068051668
 20
371.012071638
 30
0.0
 11
1653.7568051668
 21
371.012071638
 31
0.0
  0
LINE
  5
508
330
1F
100
AcDbEntity
  8
1
  6
SLD-Сплошная
100
AcDbLine
 10
1638.5068051668
 20
965.446386213
 30
0.0
 11
1653.7568051668
 21
965.446386213
 31
0.0
  0
ELLIPSE
  5
509
330
1F
100
AcDbEntity
  8
1
  6
SLD-Сплошная
100
AcDbEllipse
 10
1653.7568051668
 20
964.0292289256
 30
0.0
 11
2.699999999999818
 21
0.0
 31
0.0
210
0.0
220
0.0
230
1.0
 40
0.5248730694
 41
0.0
 42
1.570796326794897
  0
LINE
  5
50A
330
1F
100
AcDbEntity
  8
1
  6
SLD-Сплошная
100
AcDbLine
 10
1656.4568051668
 20
964.0292289256
 30
0.0
 11
1656.4568051668
 21
372.4292289254
 31
0.0
  0
ELLIPSE
  5
50B
330
1F
100
AcDbEntity
  8
1
  6
SLD-Сплошная
100
AcDbEllipse
 10
1653.7568051668
 20
372.4292289254
 30
0.0
 11
2.700000000000045
 21
0.0
 31
0.0
210
0.0
220
0.0
230
1.0
 40
0.5248730694
 41
4.712388980384697
 42
6.283185307179586
  0
LINE
  5
50C
330
1F
100
AcDbEntity
  8
1
  6
SLD-Сплошная
100
AcDbLine
 10
1638.4568051668
 20
965.6792289255
 30
0.0
 11
1637.4568051668
 21
965.6792289255
 31
0.0
  0
LINE
  5
50D
330
1F
100
AcDbEntity
  8
1
  6
SLD-Сплошная
100
AcDbLine
 10
1638.5068051668
 20
966.7292289255
 30
0.0
 11
1638.5068051668
 21
965.7292289255
 31
0.0
  0
SPLINE
  5
50E
330
1F
100
AcDbEntity
  8
1
  6
SLD-Сплошная
100
AcDbSpline
210
0.0
220
0.0
230
1.0
 70
     8
 71
     3
 72
    11
 73
     7
 74
     0
 42
0.00000001
 43
0.00000001
 40
0.0
 40
0.0
 40
0.0
 40
0.0
 40
0.2500000000002824
 40
0.5000000000004944
 40
0.7500000000001911
 40
1.0
 40
1.0
 40
1.0
 40
1.0
 10
1638.45680516675
 20
965.6792289254998
 30
0.0
 10
1638.45755674539
 20
965.6857807776902
 30
0.0
 10
1638.459059902669
 20
965.6988844820709
 30
0.0
 10
1638.470622363325
 20
965.7154117289256
 30
0.0
 10
1638.487149610179
 20
965.7269741895818
 30
0.0
 10
1638.50025331456
 20
965.7284773468605
 30
0.0
 10
1638.50680516675
 20
965.7292289254999
 30
0.0
  0
SPLINE
  5
50F
330
1F
100
AcDbEntity
  8
1
  6
SLD-Сплошная
100
AcDbSpline
210
0.0
220
0.0
230
1.0
 70
     8
 71
     3
 72
    11
 73
     7
 74
     0
 42
0.00000001
 43
0.00000001
 40
0.0
 40
0.0
 40
0.0
 40
0.0
 40
0.250000000000015
 40
0.5000000000000042
 40
0.7500000000000024
 40
0.9999999999999999
 40
0.9999999999999999
 40
0.9999999999999999
 40
0.9999999999999999
 10
1637.45680516675
 20
965.6792289254998
 30
0.0
 10
1637.472588318177
 20
965.8168178214963
 30
0.0
 10
1637.50415462103
 20
966.0919956134894
 30
0.0
 10
1637.746966294809
 20
966.4390677974412
 30
0.0
 10
1638.09403847876
 20
966.6818794712198
 30
0.0
 10
1638.369216270754
 20
966.7134457740734
 30
0.0
 10
1638.50680516675
 20
966.7292289254998
 30
0.0
  0
LINE
  5
510
330
1F
100
AcDbEntity
  8
1
  6
SLD-Сплошная
100
AcDbLine
 10
1653.7568051668
 20
965.7292289255
 30
0.0
 11
1638.5068051668
 21
965.7292289255
 31
0.0
  0
LINE
  5
511
330
1F
100
AcDbEntity
  8
1
  6
SLD-Сплошная
100
AcDbLine
 10
1653.7568051668
 20
966.7292289255
 30
0.0
 11
1638.5068051668
 21
966.7292289255
 31
0.0
  0
LINE
  5
512
330
1F
100
AcDbEntity
  8
1
  6
SLD-Сплошная
100
AcDbLine
 10
1638.5068051668
 20
369.7292289255
 30
0.0
 11
1638.5068051668
 21
370.7292289255
 31
0.0
  0
LINE
  5
513
330
1F
100
AcDbEntity
  8
1
  6
SLD-Сплошная
100
AcDbLine
 10
1638.4568051668
 20
370.7792289255
 30
0.0
 11
1637.4568051668
 21
370.7792289255
 31
0.0
  0
SPLINE
  5
514
330
1F
100
AcDbEntity
  8
1
  6
SLD-Сплошная
100
AcDbSpline
210
0.0
220
0.0
230
1.0
 70
     8
 71
     3
 72
    11
 73
     7
 74
     0
 42
0.00000001
 43
0.00000001
 40
0.0
 40
0.0
 40
0.0
 40
0.0
 40
0.250000000000264
 40
0.5000000000001494
 40
0.7499999999998779
 40
0.9999999999999999
 40
0.9999999999999999
 40
0.9999999999999999
 40
0.9999999999999999
 10
1638.50680516675
 20
370.7292289255
 30
0.0
 10
1638.50025331456
 20
370.7299805041394
 30
0.0
 10
1638.487149610179
 20
370.7314836614181
 30
0.0
 10
1638.470622363325
 20
370.7430461220744
 30
0.0
 10
1638.459059902668
 20
370.7595733689291
 30
0.0
 10
1638.45755674539
 20
370.7726770733098
 30
0.0
 10
1638.45680516675
 20
370.7792289255001
 30
0.0
  0
SPLINE
  5
515
330
1F
100
AcDbEntity
  8
1
  6
SLD-Сплошная
100
AcDbSpline
210
0.0
220
0.0
230
1.0
 70
     8
 71
     3
 72
    11
 73
     7
 74
     0
 42
0.00000001
 43
0.00000001
 40
0.0
 40
0.0
 40
0.0
 40
0.0
 40
0.2500000000000081
 40
0.4999999999999978
 40
0.7500000000000029
 40
1.0
 40
1.0
 40
1.0
 40
1.0
 10
1638.50680516675
 20
369.7292289255
 30
0.0
 10
1638.369216270754
 20
369.7450120769267
 30
0.0
 10
1638.09403847876
 20
369.7765783797802
 30
0.0
 10
1637.746966294809
 20
370.0193900535587
 30
0.0
 10
1637.50415462103
 20
370.3664622375103
 30
0.0
 10
1637.472588318177
 20
370.6416400295034
 30
0.0
 10
1637.45680516675
 20
370.7792289255
 30
0.0
  0
LINE
  5
516
330
1F
100
AcDbEntity
  8
1
  6
SLD-Сплошная
100
AcDbLine
 10
1653.7568051668
 20
369.7292289255
 30
0.0
 11
1638.5068051668
 21
369.7292289255
 31
0.0
  0
LINE
  5
517
330
1F
100
AcDbEntity
  8
1
  6
SLD-Сплошная
100
AcDbLine
 10
1653.7568051668
 20
370.7292289255
 30
0.0
 11
1638.5068051668
 21
370.7292289255
 31
0.0
  0
ARC
  5
518
330
1F
100
AcDbEntity
  8
1
  6
SLD-Сплошная
100
AcDbCircle
 10
1653.7568051668
 20
964.0292289255
 30
0.0
 40
1.699999999999972
100
AcDbArc
 50
49.540889629
 51
90.0
  0
ARC
  5
519
330
1F
100
AcDbEntity
  8
1
  6
SLD-Сплошная
100
AcDbCircle
 10
1653.7568051668
 20
964.0292289255
 30
0.0
 40
2.699999999999818
100
AcDbArc
 50
0.0000000013
 51
90.0
  0
ARC
  5
51A
330
1F
100
AcDbEntity
  8
1
  6
SLD-Сплошная
100
AcDbCircle
 10
1653.7568051668
 20
372.4292289255
 30
0.0
 40
1.700000000000102
100
AcDbArc
 50
270.0
 51
310.4591103701
  0
ARC
  5
51B
330
1F
100
AcDbEntity
  8
1
  6
SLD-Сплошная
100
AcDbCircle
 10
1653.7568051668
 20
372.4292289255
 30
0.0
 40
2.700000000000102
100
AcDbArc
 50
270.0
 51
359.9999999987
  0
LINE
  5
51C
330
1F
100
AcDbEntity
  8
1
  6
SLD-Сплошная
100
AcDbLine
 10
1638.5068051668
 20
965.446386213
 30
0.0
 11
1638.5068051668
 21
965.6292289255
 31
0.0
  0
SPLINE
  5
51D
330
1F
100
AcDbEntity
  8
1
  6
SLD-Сплошная
100
AcDbSpline
210
0.0
220
0.0
230
1.0
 70
     8
 71
     3
 72
    10
 73
     6
 74
     0
 42
0.00000001
 43
0.00000001
 40
0.0
 40
0.0
 40
0.0
 40
0.0
 40
0.358548661095119
 40
0.5969690050958554
 40
1.0
 40
1.0
 40
1.0
 40
1.0
 10
1638.506805166752
 20
965.6292289255
 30
0.0
 10
1638.491378974222
 20
965.6351459684922
 30
0.0
 10
1638.465694988179
 20
965.6449976055262
 30
0.0
 10
1638.459803414306
 20
965.6618976277312
 30
0.0
 10
1638.457962090765
 20
965.6725413541005
 30
0.0
 10
1638.45680516675
 20
965.6792289254998
 30
0.0
  0
LINE
  5
51E
330
1F
100
AcDbEntity
  8
1
  6
SLD-Сплошная
100
AcDbLine
 10
1637.5162905234
 20
965.396386213
 30
0.0
 11
1637.4568051668
 21
965.6792289255
 31
0.0
  0
LINE
  5
51F
330
1F
100
AcDbEntity
  8
1
  6
SLD-Сплошная
100
AcDbLine
 10
1638.5068051668
 20
371.012071638
 30
0.0
 11
1638.5068051668
 21
370.8292289255
 31
0.0
  0
SPLINE
  5
520
330
1F
100
AcDbEntity
  8
1
  6
SLD-Сплошная
100
AcDbSpline
210
0.0
220
0.0
230
1.0
 70
     8
 71
     3
 72
    10
 73
     6
 74
     0
 42
0.00000001
 43
0.00000001
 40
0.0
 40
0.0
 40
0.0
 40
0.0
 40
0.4215647020837269
 40
0.6406677011982226
 40
1.0
 40
1.0
 40
1.0
 40
1.0
 10
1638.45680516675
 20
370.7792289255001
 30
0.0
 10
1638.458145206677
 20
370.7864836745108
 30
0.0
 10
1638.460181715653
 20
370.7975089888895
 30
0.0
 10
1638.466303720687
 20
370.813598806514
 30
0.0
 10
1638.491285886953
 20
370.8232398013233
 30
0.0
 10
1638.50680516675
 20
370.8292289255002
 30
0.0
  0
LINE
  5
521
330
1F
100
AcDbEntity
  8
1
  6
SLD-Сплошная
100
AcDbLine
 10
1637.4568051668
 20
370.7792289255
 30
0.0
 11
1637.5205695873
 21
371.0620716381
 31
0.0
  0
LINE
  5
522
330
1F
100
AcDbEntity
  8
1
  6
SLD-Сплошная
100
AcDbLine
 10
1653.3468051668
 20
965.446386213
 30
0.0
 11
1653.3468051668
 21
965.6292289255
 31
0.0
  0
LINE
  5
523
330
1F
100
AcDbEntity
  8
1
  6
SLD-Сплошная
100
AcDbLine
 10
1653.3468051668
 20
965.6292289255
 30
0.0
 11
1638.5068051668
 21
965.6292289255
 31
0.0
  0
LINE
  5
524
330
1F
100
AcDbEntity
  8
1
  6
SLD-Сплошная
100
AcDbLine
 10
1653.3468051668
 20
370.8292289255
 30
0.0
 11
1638.5068051668
 21
370.8292289255
 31
0.0
  0
LINE
  5
525
330
1F
100
AcDbEntity
  8
1
  6
SLD-Сплошная
100
AcDbLine
 10
1653.3468051668
 20
371.012071638
 30
0.0
 11
1653.3468051668
 21
370.8292289255
 31
0.0
  0
ARC
  5
526
330
1F
100
AcDbEntity
  8
1
  6
SLD-Сплошная
100
AcDbCircle
 10
1653.3468051668
 20
963.6192289255
 30
0.0
 40
2.009999999999991
100
AcDbArc
 50
63.9069487135
 51
90.0
  0
ARC
  5
527
330
1F
100
AcDbEntity
  8
1
  6
SLD-Сплошная
100
AcDbCircle
 10
1653.3468051668
 20
372.8392289255
 30
0.0
 40
2.010000000000066
100
AcDbArc
 50
270.0
 51
296.0930512832
  0
LINE
  5
528
330
1F
100
AcDbEntity
  8
1
  6
SLD-Сплошная
100
AcDbLine
 10
1408.6068051668
 20
367.7292289255
 30
0.0
 11
1398.1151312788
 21
367.7292289255
 31
0.0
  0
ARC
  5
529
330
1F
100
AcDbEntity
  8
1
  6
SLD-Сплошная
100
AcDbCircle
 10
1398.1151312788
 20
370.1292289255
 30
0.0
 40
2.400000000000034
100
AcDbArc
 50
232.3415379932
 51
270.0
  0
LINE
  5
52A
330
1F
100
AcDbEntity
  8
1
  6
SLD-Сплошная
100
AcDbLine
 10
1527.6068051668
 20
367.7292289255
 30
0.0
 11
1408.6068051668
 21
367.7292289255
 31
0.0
  0
LINE
  5
52B
330
1F
100
AcDbEntity
  8
1
  6
SLD-Сплошная
100
AcDbLine
 10
1538.0984790547
 20
367.7292289255
 30
0.0
 11
1527.6068051668
 21
367.7292289255
 31
0.0
  0
ARC
  5
52C
330
1F
100
AcDbEntity
  8
1
  6
SLD-Сплошная
100
AcDbCircle
 10
1538.0984790547
 20
370.1292289255
 30
0.0
 40
2.400000000000034
100
AcDbArc
 50
270.0
 51
307.6584620066
  0
LINE
  5
52D
330
1F
100
AcDbEntity
  8
1
  6
SLD-Сплошная
100
AcDbLine
 10
1657.4568051668
 20
654.2292289255
 30
0.0
 11
1657.4568051668
 21
682.2292289255
 31
0.0
  0
LINE
  5
52E
330
1F
100
AcDbEntity
  8
1
  6
SLD-Сплошная
100
AcDbLine
 10
1660.4568051668
 20
657.2292289255
 30
0.0
 11
1660.4568051668
 21
679.2292289255
 31
0.0
  0
ENDSEC
  0
SECTION
  2
OBJECTS
  0
DICTIONARY
  5
C
330
0
100
AcDbDictionary
281
     1
  3
ACAD_GROUP
350
D
  3
ACAD_LAYOUT
350
1A
  3
ACAD_MLINESTYLE
350
17
  3
ACAD_PLOTSETTINGS
350
19
  3
ACAD_PLOTSTYLENAME
350
E
  3
ACAD_SCALELIST
350
47
  3
DWGPROPS
350
52F
  0
DICTIONARY
  5
D
102
{ACAD_REACTORS
330
C
102
}
330
C
100
AcDbDictionary
281
     1
  0
DICTIONARY
  5
1A
102
{ACAD_REACTORS
330
C
102
}
330
C
100
AcDbDictionary
281
     1
  3
Layout1
350
1E
  3
Layout2
350
26
  3
Model
350
22
  0
DICTIONARY
  5
17
102
{ACAD_REACTORS
330
C
102
}
330
C
100
AcDbDictionary
281
     1
  3
Standard
350
18
  0
DICTIONARY
  5
19
102
{ACAD_REACTORS
330
C
102
}
330
C
100
AcDbDictionary
281
     1
  0
ACDBDICTIONARYWDFLT
  5
E
102
{ACAD_REACTORS
330
C
102
}
330
C
100
AcDbDictionary
281
     1
  3
Normal
350
F
100
AcDbDictionaryWithDefault
340
F
  0
DICTIONARY
  5
47
102
{ACAD_REACTORS
330
C
102
}
330
C
100
AcDbDictionary
281
     1
  3
A0
350
48
  3
A1
350
49
  3
A2
350
4A
  3
A3
350
4B
  3
A4
350
4C
  3
A5
350
4D
  3
A6
350
4E
  3
A7
350
4F
  3
A8
350
50
  3
A9
350
51
  3
B0
350
52
  3
B1
350
53
  3
B2
350
54
  3
B3
350
55
  3
B4
350
56
  3
B5
350
57
  3
B6
350
58
  0
XRECORD
  5
52F
102
{ACAD_REACTORS
330
C
102
}
330
C
100
AcDbXrecord
280
     1
  1
DWGPROPS COOKIE
  2

  3

  4

  6

  7

  8
ignatieved
  9

300
=
301
=
302
=
303
=
304
=
305
=
306
=
307
=
308
=
309
=
 40
0.0
 41
2460213.506162176
 42
2460213.506162789
  1

 90
        0
  0
LAYOUT
  5
1E
102
{ACAD_REACTORS
330
1A
102
}
330
1A
100
AcDbPlotSettings
  1

  2
none_device
  4

  6

 40
0.0
 41
0.0
 42
0.0
 43
0.0
 44
0.0
 45
0.0
 46
0.0
 47
0.0
 48
0.0
 49
0.0
140
0.0
141
0.0
142
1.0
143
1.0
 70
   688
 72
     1
 73
     0
 74
     5
  7

 75
    16
147
1.0
148
0.0
149
0.0
100
AcDbLayout
  1
Layout1
 70
     1
 71
     1
 10
0.0
 20
0.0
 11
420.0
 21
297.0
 12
0.0
 22
0.0
 32
0.0
 14
1.0000000000E+20
 24
1.0000000000E+20
 34
1.0000000000E+20
 15
-1.0000000000E+20
 25
-1.0000000000E+20
 35
-1.0000000000E+20
146
0.0
 13
0.0
 23
0.0
 33
0.0
 16
1.0
 26
0.0
 36
0.0
 17
0.0
 27
1.0
 37
0.0
 76
     0
330
1B
  0
LAYOUT
  5
26
102
{ACAD_REACTORS
330
1A
102
}
330
1A
100
AcDbPlotSettings
  1

  2
none_device
  4

  6

 40
0.0
 41
0.0
 42
0.0
 43
0.0
 44
0.0
 45
0.0
 46
0.0
 47
0.0
 48
0.0
 49
0.0
140
0.0
141
0.0
142
1.0
143
1.0
 70
   688
 72
     1
 73
     0
 74
     5
  7

 75
    16
147
1.0
148
0.0
149
0.0
100
AcDbLayout
  1
Layout2
 70
     1
 71
     2
 10
0.0
 20
0.0
 11
0.0
 21
0.0
 12
0.0
 22
0.0
 32
0.0
 14
0.0
 24
0.0
 34
0.0
 15
0.0
 25
0.0
 35
0.0
146
0.0
 13
0.0
 23
0.0
 33
0.0
 16
1.0
 26
0.0
 36
0.0
 17
0.0
 27
1.0
 37
0.0
 76
     0
330
23
  0
LAYOUT
  5
22
102
{ACAD_REACTORS
330
1A
102
}
330
1A
100
AcDbPlotSettings
  1

  2
none_device
  4
Letter_(8.50_x_11.00_Inches)
  6

 40
6.35
 41
6.35
 42
6.35000508
 43
6.35000508
 44
215.9
 45
279.4
 46
0.0
 47
0.0
 48
0.0
 49
0.0
140
0.0
141
0.0
142
1.0
143
1.0
 70
  1712
 72
     1
 73
     0
 74
     0
  7

 75
     0
147
1.0
148
0.0
149
0.0
100
AcDbLayout
  1
Model
 70
     1
 71
     0
 10
0.0
 20
0.0
 11
2000.0
 21
2000.0
 12
0.0
 22
0.0
 32
0.0
 14
0.0
 24
0.0
 34
0.0
 15
2000.0
 25
2000.0
 35
0.0
146
0.0
 13
0.0
 23
0.0
 33
0.0
 16
1.0
 26
0.0
 36
0.0
 17
0.0
 27
1.0
 37
0.0
 76
     0
330
1F
331
29
  0
MLINESTYLE
  5
18
102
{ACAD_REACTORS
330
17
102
}
330
17
100
AcDbMlineStyle
  2
Standard
 70
     0
  3

 62
   256
 51
90.0
 52
90.0
 71
     2
 49
0.5
 62
   256
  6
BYLAYER
 49
-0.5
 62
   256
  6
BYLAYER
  0
ACDBPLACEHOLDER
  5
F
102
{ACAD_REACTORS
330
E
102
}
330
E
  0
SCALE
  5
48
102
{ACAD_REACTORS
330
47
102
}
330
47
100
AcDbScale
 70
     0
300
1:1
140
1.0
141
1.0
290
     1
  0
SCALE
  5
49
102
{ACAD_REACTORS
330
47
102
}
330
47
100
AcDbScale
 70
     0
300
1:2
140
1.0
141
2.0
290
     0
  0
SCALE
  5
4A
102
{ACAD_REACTORS
330
47
102
}
330
47
100
AcDbScale
 70
     0
300
1:4
140
1.0
141
4.0
290
     0
  0
SCALE
  5
4B
102
{ACAD_REACTORS
330
47
102
}
330
47
100
AcDbScale
 70
     0
300
1:5
140
1.0
141
5.0
290
     0
  0
SCALE
  5
4C
102
{ACAD_REACTORS
330
47
102
}
330
47
100
AcDbScale
 70
     0
300
1:8
140
1.0
141
8.0
290
     0
  0
SCALE
  5
4D
102
{ACAD_REACTORS
330
47
102
}
330
47
100
AcDbScale
 70
     0
300
1:10
140
1.0
141
10.0
290
     0
  0
SCALE
  5
4E
102
{ACAD_REACTORS
330
47
102
}
330
47
100
AcDbScale
 70
     0
300
1:16
140
1.0
141
16.0
290
     0
  0
SCALE
  5
4F
102
{ACAD_REACTORS
330
47
102
}
330
47
100
AcDbScale
 70
     0
300
1:20
140
1.0
141
20.0
290
     0
  0
SCALE
  5
50
102
{ACAD_REACTORS
330
47
102
}
330
47
100
AcDbScale
 70
     0
300
1:30
140
1.0
141
30.0
290
     0
  0
SCALE
  5
51
102
{ACAD_REACTORS
330
47
102
}
330
47
100
AcDbScale
 70
     0
300
1:40
140
1.0
141
40.0
290
     0
  0
SCALE
  5
52
102
{ACAD_REACTORS
330
47
102
}
330
47
100
AcDbScale
 70
     0
300
1:50
140
1.0
141
50.0
290
     0
  0
SCALE
  5
53
102
{ACAD_REACTORS
330
47
102
}
330
47
100
AcDbScale
 70
     0
300
1:100
140
1.0
141
100.0
290
     0
  0
SCALE
  5
54
102
{ACAD_REACTORS
330
47
102
}
330
47
100
AcDbScale
 70
     0
300
2:1
140
2.0
141
1.0
290
     0
  0
SCALE
  5
55
102
{ACAD_REACTORS
330
47
102
}
330
47
100
AcDbScale
 70
     0
300
4:1
140
4.0
141
1.0
290
     0
  0
SCALE
  5
56
102
{ACAD_REACTORS
330
47
102
}
330
47
100
AcDbScale
 70
     0
300
8:1
140
8.0
141
1.0
290
     0
  0
SCALE
  5
57
102
{ACAD_REACTORS
330
47
102
}
330
47
100
AcDbScale
 70
     0
300
10:1
140
10.0
141
1.0
290
     0
  0
SCALE
  5
58
102
{ACAD_REACTORS
330
47
102
}
330
47
100
AcDbScale
 70
     0
300
100:1
140
100.0
141
1.0
290
     0
  0
ENDSEC
  0
EOF
