ISO-10303-21;
HEADER;
FILE_DESCRIPTION (( 'STEP AP203' ),
    '1' );
FILE_NAME ('ITK DATAROW Ïàíåëü ìîä. êðûøè ïîëèêîðá. 800x1200.STEP',
    '2024-12-18T10:21:12',
    ( '' ),
    ( '' ),
    'SwSTEP 2.0',
    'SolidWorks 2022',
    '' );
FILE_SCHEMA (( 'CONFIG_CONTROL_DESIGN' ));
ENDSEC;

DATA;
#1 = VERTEX_POINT ( 'NONE', #37 ) ;
#2 = ORIENTED_EDGE ( 'NONE', *, *, #166, .T. ) ;
#3 = DIRECTION ( 'NONE',  ( 0.000000000000000000, 0.000000000000000000, 1.000000000000000000 ) ) ;
#4 = APPROVAL_PERSON_ORGANIZATION ( #28, #157, #211 ) ;
#5 = DIRECTION ( 'NONE',  ( -1.000000000000000000, 0.000000000000000000, 0.000000000000000000 ) ) ;
#6 = DIRECTION ( 'NONE',  ( 0.000000000000000000, -0.000000000000000000, -1.000000000000000000 ) ) ;
#7 = PLANE ( 'NONE',  #179 ) ;
#8 = CARTESIAN_POINT ( 'NONE',  ( -349.5000000000000000, -625.0000000000000000, 0.000000000000000000 ) ) ;
#9 = APPROVAL_STATUS ( 'not_yet_approved' ) ;
#10 = CALENDAR_DATE ( 2024, 18, 12 ) ;
#11 = APPLICATION_CONTEXT ( 'configuration controlled 3d designs of mechanical parts and assemblies' ) ;
#12 = PERSON_AND_ORGANIZATION ( #214, #83 ) ;
#13 = ORIENTED_EDGE ( 'NONE', *, *, #17, .F. ) ;
#14 = DIRECTION ( 'NONE',  ( 1.000000000000000000, 0.000000000000000000, 0.000000000000000000 ) ) ;
#15 = EDGE_LOOP ( 'NONE', ( #85, #103, #117, #163 ) ) ;
#16 = EDGE_LOOP ( 'NONE', ( #84, #19, #50, #153 ) ) ;
#17 = EDGE_CURVE ( 'NONE', #20, #197, #234, .T. ) ;
#18 = CARTESIAN_POINT ( 'NONE',  ( -349.5000000000000000, 625.0000000000000000, 0.000000000000000000 ) ) ;
#19 = ORIENTED_EDGE ( 'NONE', *, *, #93, .T. ) ;
#20 = VERTEX_POINT ( 'NONE', #51 ) ;
#21 = DIRECTION ( 'NONE',  ( -0.000000000000000000, -0.000000000000000000, -1.000000000000000000 ) ) ;
#22 = DIRECTION ( 'NONE',  ( 0.000000000000000000, -0.000000000000000000, 1.000000000000000000 ) ) ;
#23 = CC_DESIGN_PERSON_AND_ORGANIZATION_ASSIGNMENT ( #191, #26, ( #109 ) ) ;
#24 = DIRECTION ( 'NONE',  ( 1.000000000000000000, 0.000000000000000000, -0.000000000000000000 ) ) ;
#25 = DIRECTION ( 'NONE',  ( 1.000000000000000000, 0.000000000000000000, -0.000000000000000000 ) ) ;
#26 = PERSON_AND_ORGANIZATION_ROLE ( 'design_supplier' ) ;
#27 = DATE_AND_TIME ( #193, #96 ) ;
#28 = PERSON_AND_ORGANIZATION ( #214, #83 ) ;
#29 = VECTOR ( 'NONE', #31, 1000.000000000000000 ) ;
#30 = APPROVAL_STATUS ( 'not_yet_approved' ) ;
#31 = DIRECTION ( 'NONE',  ( -1.000000000000000000, 0.000000000000000000, 0.000000000000000000 ) ) ;
#32 = LOCAL_TIME ( 13, 21, 12.00000000000000000, #44 ) ;
#33 = VERTEX_POINT ( 'NONE', #18 ) ;
#34 = CARTESIAN_POINT ( 'NONE',  ( 349.5000000000000000, -625.0000000000000000, 0.000000000000000000 ) ) ;
#35 = VECTOR ( 'NONE', #69, 1000.000000000000000 ) ;
#36 = VERTEX_POINT ( 'NONE', #95 ) ;
#37 = CARTESIAN_POINT ( 'NONE',  ( 349.5000000000000000, -625.0000000000000000, 4.000000000000000000 ) ) ;
#38 = DIRECTION ( 'NONE',  ( -0.000000000000000000, -0.000000000000000000, -1.000000000000000000 ) ) ;
#39 = APPLICATION_PROTOCOL_DEFINITION ( 'international standard', 'config_control_design', 1994, #11 ) ;
#40 = PLANE ( 'NONE',  #46 ) ;
#41 = COORDINATED_UNIVERSAL_TIME_OFFSET ( 3, 0, .AHEAD. ) ;
#42 = VECTOR ( 'NONE', #89, 1000.000000000000000 ) ;
#43 = ORIENTED_EDGE ( 'NONE', *, *, #148, .F. ) ;
#44 = COORDINATED_UNIVERSAL_TIME_OFFSET ( 3, 0, .AHEAD. ) ;
#45 = PERSON_AND_ORGANIZATION_ROLE ( 'classification_officer' ) ;
#46 = AXIS2_PLACEMENT_3D ( 'NONE', #123, #22, #24 ) ;
#47 = CC_DESIGN_DATE_AND_TIME_ASSIGNMENT ( #27, #79, ( #62 ) ) ;
#48 = DATE_AND_TIME ( #112, #32 ) ;
#49 = CARTESIAN_POINT ( 'NONE',  ( 349.5000000000000000, 625.0000000000002274, 0.000000000000000000 ) ) ;
#50 = ORIENTED_EDGE ( 'NONE', *, *, #111, .F. ) ;
#51 = CARTESIAN_POINT ( 'NONE',  ( 349.5000000000000000, -625.0000000000000000, 0.000000000000000000 ) ) ;
#52 = ORIENTED_EDGE ( 'NONE', *, *, #66, .T. ) ;
#53 = CARTESIAN_POINT ( 'NONE',  ( 349.5000000000000000, 625.0000000000002274, 4.000000000000000000 ) ) ;
#54 = LINE ( 'NONE', #206, #235 ) ;
#55 = EDGE_CURVE ( 'NONE', #160, #33, #71, .T. ) ;
#56 = LINE ( 'NONE', #57, #126 ) ;
#57 = CARTESIAN_POINT ( 'NONE',  ( -349.5000000000000000, 625.0000000000000000, 4.000000000000000000 ) ) ;
#58 = APPLICATION_PROTOCOL_DEFINITION ( 'international standard', 'config_control_design', 1994, #124 ) ;
#59 = ORIENTED_EDGE ( 'NONE', *, *, #185, .T. ) ;
#60 = UNCERTAINTY_MEASURE_WITH_UNIT (LENGTH_MEASURE( 1.000000000000000082E-05 ), #150, 'distance_accuracy_value', 'NONE');
#61 = CALENDAR_DATE ( 2024, 18, 12 ) ;
#62 = SECURITY_CLASSIFICATION ( '', '', #232 ) ;
#63 = VERTEX_POINT ( 'NONE', #100 ) ;
#64 = APPROVAL ( #9, 'UNSPECIFIED' ) ;
#65 = DATE_AND_TIME ( #10, #144 ) ;
#66 = EDGE_CURVE ( 'NONE', #20, #160, #200, .T. ) ;
#67 = AXIS2_PLACEMENT_3D ( 'NONE', #77, #5, #189 ) ;
#68 = ORIENTED_EDGE ( 'NONE', *, *, #66, .F. ) ;
#69 = DIRECTION ( 'NONE',  ( 0.000000000000000000, 1.000000000000000000, 0.000000000000000000 ) ) ;
#70 = LINE ( 'NONE', #141, #169 ) ;
#71 = LINE ( 'NONE', #49, #195 ) ;
#72 = CARTESIAN_POINT ( 'NONE',  ( 0.000000000000000000, 0.000000000000000000, 4.000000000000000000 ) ) ;
#73 = CC_DESIGN_APPROVAL ( #64, ( #201 ) ) ;
#74 = EDGE_CURVE ( 'NONE', #1, #63, #70, .T. ) ;
#75 = CARTESIAN_POINT ( 'NONE',  ( 349.5000000000000000, 625.0000000000002274, 0.000000000000000000 ) ) ;
#76 = FACE_OUTER_BOUND ( 'NONE', #16, .T. ) ;
#77 = CARTESIAN_POINT ( 'NONE',  ( 349.5000000000000000, -625.0000000000000000, 4.000000000000000000 ) ) ;
#78 = APPROVAL_DATE_TIME ( #154, #64 ) ;
#79 = DATE_TIME_ROLE ( 'classification_date' ) ;
#80 = DATE_TIME_ROLE ( 'creation_date' ) ;
#81 = COORDINATED_UNIVERSAL_TIME_OFFSET ( 3, 0, .AHEAD. ) ;
#82 = CARTESIAN_POINT ( 'NONE',  ( -349.5000000000000000, -625.0000000000000000, 4.000000000000000000 ) ) ;
#83 = ORGANIZATION ( 'UNSPECIFIED', 'UNSPECIFIED', '' ) ;
#84 = ORIENTED_EDGE ( 'NONE', *, *, #74, .T. ) ;
#85 = ORIENTED_EDGE ( 'NONE', *, *, #237, .F. ) ;
#86 = EDGE_CURVE ( 'NONE', #1, #36, #140, .T. ) ;
#87 = VERTEX_POINT ( 'NONE', #121 ) ;
#88 = EDGE_LOOP ( 'NONE', ( #68, #134, #236, #182 ) ) ;
#89 = DIRECTION ( 'NONE',  ( 0.000000000000000000, 1.000000000000000000, 0.000000000000000000 ) ) ;
#90 = DIRECTION ( 'NONE',  ( 0.000000000000000000, -1.000000000000000000, 0.000000000000000000 ) ) ;
#91 = CARTESIAN_POINT ( 'NONE',  ( 349.5000000000000000, 625.0000000000002274, 4.000000000000000000 ) ) ;
#92 = PERSON_AND_ORGANIZATION_ROLE ( 'creator' ) ;
#93 = EDGE_CURVE ( 'NONE', #63, #87, #138, .T. ) ;
#94 = ADVANCED_BREP_SHAPE_REPRESENTATION ( 'ITK DATAROW \X2\041f0430043d0435043b044c\X0\ \X2\043c043e0434\X0\. \X2\043a0440044b04480438\X0\ \X2\043f043e043b0438043a043e04400431\X0\. 800x1200', ( #202, #155 ), #187 ) ;
#95 = CARTESIAN_POINT ( 'NONE',  ( -349.5000000000000000, -625.0000000000000000, 4.000000000000000000 ) ) ;
#96 = LOCAL_TIME ( 13, 21, 12.00000000000000000, #110 ) ;
#97 = CARTESIAN_POINT ( 'NONE',  ( 349.5000000000000000, -625.0000000000000000, 0.000000000000000000 ) ) ;
#98 = ADVANCED_FACE ( 'NONE', ( #122 ), #219, .T. ) ;
#99 = ADVANCED_FACE ( 'NONE', ( #218 ), #183, .F. ) ;
#100 = CARTESIAN_POINT ( 'NONE',  ( 349.5000000000000000, 625.0000000000002274, 4.000000000000000000 ) ) ;
#101 = VECTOR ( 'NONE', #21, 1000.000000000000000 ) ;
#102 = DIRECTION ( 'NONE',  ( -1.000000000000000000, -3.176603790057672925E-16, 0.000000000000000000 ) ) ;
#103 = ORIENTED_EDGE ( 'NONE', *, *, #185, .F. ) ;
#104 = FACE_OUTER_BOUND ( 'NONE', #88, .T. ) ;
#105 = CC_DESIGN_PERSON_AND_ORGANIZATION_ASSIGNMENT ( #230, #92, ( #201 ) ) ;
#106 = CARTESIAN_POINT ( 'NONE',  ( 349.5000000000000000, -625.0000000000000000, 4.000000000000000000 ) ) ;
#107 = AXIS2_PLACEMENT_3D ( 'NONE', #106, #90, #6 ) ;
#108 = MECHANICAL_CONTEXT ( 'NONE', #11, 'mechanical' ) ;
#109 = PRODUCT_DEFINITION_FORMATION_WITH_SPECIFIED_SOURCE ( 'ANY', '', #192, .NOT_KNOWN. ) ;
#110 = COORDINATED_UNIVERSAL_TIME_OFFSET ( 3, 0, .AHEAD. ) ;
#111 = EDGE_CURVE ( 'NONE', #36, #87, #147, .T. ) ;
#112 = CALENDAR_DATE ( 2024, 18, 12 ) ;
#113 = VECTOR ( 'NONE', #180, 1000.000000000000000 ) ;
#114 = SHAPE_DEFINITION_REPRESENTATION ( #135, #94 ) ;
#115 = COORDINATED_UNIVERSAL_TIME_OFFSET ( 3, 0, .AHEAD. ) ;
#116 = EDGE_LOOP ( 'NONE', ( #13, #162, #158, #59 ) ) ;
#117 = ORIENTED_EDGE ( 'NONE', *, *, #111, .T. ) ;
#118 = LOCAL_TIME ( 13, 21, 12.00000000000000000, #115 ) ;
#119 = ADVANCED_FACE ( 'NONE', ( #76 ), #188, .T. ) ;
#120 = ORIENTED_EDGE ( 'NONE', *, *, #166, .F. ) ;
#121 = CARTESIAN_POINT ( 'NONE',  ( -349.5000000000000000, 625.0000000000000000, 4.000000000000000000 ) ) ;
#122 = FACE_OUTER_BOUND ( 'NONE', #15, .T. ) ;
#123 = CARTESIAN_POINT ( 'NONE',  ( 0.000000000000000000, 0.000000000000000000, 0.000000000000000000 ) ) ;
#124 = APPLICATION_CONTEXT ( 'configuration controlled 3d designs of mechanical parts and assemblies' ) ;
#125 =( NAMED_UNIT ( * ) SI_UNIT ( $, .STERADIAN. ) SOLID_ANGLE_UNIT ( ) );
#126 = VECTOR ( 'NONE', #204, 1000.000000000000000 ) ;
#127 = CC_DESIGN_PERSON_AND_ORGANIZATION_ASSIGNMENT ( #12, #45, ( #62 ) ) ;
#128 = DIRECTION ( 'NONE',  ( 3.176603790057672925E-16, -1.000000000000000000, 0.000000000000000000 ) ) ;
#129 = CARTESIAN_POINT ( 'NONE',  ( 349.5000000000000000, -625.0000000000000000, 4.000000000000000000 ) ) ;
#130 = LINE ( 'NONE', #129, #161 ) ;
#131 = DATE_AND_TIME ( #61, #224 ) ;
#132 = APPROVAL_PERSON_ORGANIZATION ( #136, #146, #209 ) ;
#133 = PERSON_AND_ORGANIZATION ( #214, #83 ) ;
#134 = ORIENTED_EDGE ( 'NONE', *, *, #17, .T. ) ;
#135 = PRODUCT_DEFINITION_SHAPE ( 'NONE', 'NONE',  #201 ) ;
#136 = PERSON_AND_ORGANIZATION ( #214, #83 ) ;
#137 = DIRECTION ( 'NONE',  ( 0.000000000000000000, 0.000000000000000000, 1.000000000000000000 ) ) ;
#138 = LINE ( 'NONE', #53, #226 ) ;
#139 = ADVANCED_FACE ( 'NONE', ( #104 ), #40, .F. ) ;
#140 = LINE ( 'NONE', #142, #113 ) ;
#141 = CARTESIAN_POINT ( 'NONE',  ( 349.5000000000000000, -625.0000000000000000, 4.000000000000000000 ) ) ;
#142 = CARTESIAN_POINT ( 'NONE',  ( 349.5000000000000000, -625.0000000000000000, 4.000000000000000000 ) ) ;
#143 = CARTESIAN_POINT ( 'NONE',  ( 349.5000000000000000, 625.0000000000002274, 4.000000000000000000 ) ) ;
#144 = LOCAL_TIME ( 13, 21, 12.00000000000000000, #41 ) ;
#145 =( NAMED_UNIT ( * ) PLANE_ANGLE_UNIT ( ) SI_UNIT ( $, .RADIAN. ) );
#146 = APPROVAL ( #30, 'UNSPECIFIED' ) ;
#147 = LINE ( 'NONE', #227, #172 ) ;
#148 = EDGE_CURVE ( 'NONE', #87, #33, #56, .T. ) ;
#149 = AXIS2_PLACEMENT_3D ( 'NONE', #82, #199, #137 ) ;
#150 =( LENGTH_UNIT ( ) NAMED_UNIT ( * ) SI_UNIT ( .MILLI., .METRE. ) );
#151 = DIRECTION ( 'NONE',  ( 0.000000000000000000, 1.000000000000000000, 0.000000000000000000 ) ) ;
#152 = APPROVAL_ROLE ( '' ) ;
#153 = ORIENTED_EDGE ( 'NONE', *, *, #86, .F. ) ;
#154 = DATE_AND_TIME ( #216, #118 ) ;
#155 = AXIS2_PLACEMENT_3D ( 'NONE', #164, #3, #14 ) ;
#156 = APPROVAL_DATE_TIME ( #65, #146 ) ;
#157 = APPROVAL ( #190, 'UNSPECIFIED' ) ;
#158 = ORIENTED_EDGE ( 'NONE', *, *, #86, .T. ) ;
#159 = ADVANCED_FACE ( 'NONE', ( #228 ), #7, .F. ) ;
#160 = VERTEX_POINT ( 'NONE', #75 ) ;
#161 = VECTOR ( 'NONE', #38, 1000.000000000000000 ) ;
#162 = ORIENTED_EDGE ( 'NONE', *, *, #196, .F. ) ;
#163 = ORIENTED_EDGE ( 'NONE', *, *, #148, .T. ) ;
#164 = CARTESIAN_POINT ( 'NONE',  ( 0.000000000000000000, 0.000000000000000000, 0.000000000000000000 ) ) ;
#165 = CC_DESIGN_APPROVAL ( #157, ( #62 ) ) ;
#166 = EDGE_CURVE ( 'NONE', #63, #160, #168, .T. ) ;
#167 = PLANE ( 'NONE',  #107 ) ;
#168 = LINE ( 'NONE', #143, #101 ) ;
#169 = VECTOR ( 'NONE', #222, 1000.000000000000000 ) ;
#170 = LINE ( 'NONE', #8, #42 ) ;
#171 = PERSON_AND_ORGANIZATION_ROLE ( 'creator' ) ;
#172 = VECTOR ( 'NONE', #151, 1000.000000000000000 ) ;
#173 = DESIGN_CONTEXT ( 'detailed design', #124, 'design' ) ;
#174 = CC_DESIGN_PERSON_AND_ORGANIZATION_ASSIGNMENT ( #213, #229, ( #192 ) ) ;
#175 = PERSON_AND_ORGANIZATION ( #214, #83 ) ;
#176 = APPROVAL_PERSON_ORGANIZATION ( #175, #64, #152 ) ;
#177 = DIRECTION ( 'NONE',  ( -1.000000000000000000, -3.176603790057672925E-16, 0.000000000000000000 ) ) ;
#178 = EDGE_LOOP ( 'NONE', ( #221, #43, #212, #2 ) ) ;
#179 = AXIS2_PLACEMENT_3D ( 'NONE', #91, #128, #186 ) ;
#180 = DIRECTION ( 'NONE',  ( -1.000000000000000000, 0.000000000000000000, 0.000000000000000000 ) ) ;
#181 = CC_DESIGN_PERSON_AND_ORGANIZATION_ASSIGNMENT ( #133, #171, ( #109 ) ) ;
#182 = ORIENTED_EDGE ( 'NONE', *, *, #55, .F. ) ;
#183 = PLANE ( 'NONE',  #67 ) ;
#184 = FACE_OUTER_BOUND ( 'NONE', #116, .T. ) ;
#185 = EDGE_CURVE ( 'NONE', #36, #197, #54, .T. ) ;
#186 = DIRECTION ( 'NONE',  ( 1.000000000000000000, 3.176603790057672925E-16, 0.000000000000000000 ) ) ;
#187 =( GEOMETRIC_REPRESENTATION_CONTEXT ( 3 ) GLOBAL_UNCERTAINTY_ASSIGNED_CONTEXT ( ( #60 ) ) GLOBAL_UNIT_ASSIGNED_CONTEXT ( ( #150, #145, #125 ) ) REPRESENTATION_CONTEXT ( 'NONE', 'WORKASPACE' ) );
#188 = PLANE ( 'NONE',  #205 ) ;
#189 = DIRECTION ( 'NONE',  ( 0.000000000000000000, 0.000000000000000000, 1.000000000000000000 ) ) ;
#190 = APPROVAL_STATUS ( 'not_yet_approved' ) ;
#191 = PERSON_AND_ORGANIZATION ( #214, #83 ) ;
#192 = PRODUCT ( 'ITK DATAROW \X2\041f0430043d0435043b044c\X0\ \X2\043c043e0434\X0\. \X2\043a0440044b04480438\X0\ \X2\043f043e043b0438043a043e04400431\X0\. 800x1200', 'ITK DATAROW \X2\041f0430043d0435043b044c\X0\ \X2\043c043e0434\X0\. \X2\043a0440044b04480438\X0\ \X2\043f043e043b0438043a043e04400431\X0\. 800x1200', '', ( #108 ) ) ;
#193 = CALENDAR_DATE ( 2024, 18, 12 ) ;
#194 = PRODUCT_RELATED_PRODUCT_CATEGORY ( 'detail', '', ( #192 ) ) ;
#195 = VECTOR ( 'NONE', #102, 1000.000000000000000 ) ;
#196 = EDGE_CURVE ( 'NONE', #1, #20, #130, .T. ) ;
#197 = VERTEX_POINT ( 'NONE', #207 ) ;
#198 = CC_DESIGN_SECURITY_CLASSIFICATION ( #62, ( #109 ) ) ;
#199 = DIRECTION ( 'NONE',  ( -1.000000000000000000, 0.000000000000000000, 0.000000000000000000 ) ) ;
#200 = LINE ( 'NONE', #34, #35 ) ;
#201 = PRODUCT_DEFINITION ( 'UNKNOWN', '', #109, #173 ) ;
#202 = MANIFOLD_SOLID_BREP ( 'Áîáûøêà-Âûòÿíóòü1', #215 ) ;
#203 = EDGE_LOOP ( 'NONE', ( #52, #120, #233, #223 ) ) ;
#204 = DIRECTION ( 'NONE',  ( -0.000000000000000000, -0.000000000000000000, -1.000000000000000000 ) ) ;
#205 = AXIS2_PLACEMENT_3D ( 'NONE', #72, #225, #25 ) ;
#206 = CARTESIAN_POINT ( 'NONE',  ( -349.5000000000000000, -625.0000000000000000, 4.000000000000000000 ) ) ;
#207 = CARTESIAN_POINT ( 'NONE',  ( -349.5000000000000000, -625.0000000000000000, 0.000000000000000000 ) ) ;
#208 = DIRECTION ( 'NONE',  ( -0.000000000000000000, -0.000000000000000000, -1.000000000000000000 ) ) ;
#209 = APPROVAL_ROLE ( '' ) ;
#210 = CC_DESIGN_APPROVAL ( #146, ( #109 ) ) ;
#211 = APPROVAL_ROLE ( '' ) ;
#212 = ORIENTED_EDGE ( 'NONE', *, *, #93, .F. ) ;
#213 = PERSON_AND_ORGANIZATION ( #214, #83 ) ;
#214 = PERSON ( 'UNSPECIFIED', 'UNSPECIFIED', 'UNSPECIFIED', ('UNSPECIFIED'), ('UNSPECIFIED'), ('UNSPECIFIED') ) ;
#215 = CLOSED_SHELL ( 'NONE', ( #99, #159, #98, #231, #119, #139 ) ) ;
#216 = CALENDAR_DATE ( 2024, 18, 12 ) ;
#217 = APPROVAL_DATE_TIME ( #48, #157 ) ;
#218 = FACE_OUTER_BOUND ( 'NONE', #203, .T. ) ;
#219 = PLANE ( 'NONE',  #149 ) ;
#220 = CC_DESIGN_DATE_AND_TIME_ASSIGNMENT ( #131, #80, ( #201 ) ) ;
#221 = ORIENTED_EDGE ( 'NONE', *, *, #55, .T. ) ;
#222 = DIRECTION ( 'NONE',  ( 0.000000000000000000, 1.000000000000000000, 0.000000000000000000 ) ) ;
#223 = ORIENTED_EDGE ( 'NONE', *, *, #196, .T. ) ;
#224 = LOCAL_TIME ( 13, 21, 12.00000000000000000, #81 ) ;
#225 = DIRECTION ( 'NONE',  ( 0.000000000000000000, -0.000000000000000000, 1.000000000000000000 ) ) ;
#226 = VECTOR ( 'NONE', #177, 1000.000000000000000 ) ;
#227 = CARTESIAN_POINT ( 'NONE',  ( -349.5000000000000000, -625.0000000000000000, 4.000000000000000000 ) ) ;
#228 = FACE_OUTER_BOUND ( 'NONE', #178, .T. ) ;
#229 = PERSON_AND_ORGANIZATION_ROLE ( 'design_owner' ) ;
#230 = PERSON_AND_ORGANIZATION ( #214, #83 ) ;
#231 = ADVANCED_FACE ( 'NONE', ( #184 ), #167, .T. ) ;
#232 = SECURITY_CLASSIFICATION_LEVEL ( 'unclassified' ) ;
#233 = ORIENTED_EDGE ( 'NONE', *, *, #74, .F. ) ;
#234 = LINE ( 'NONE', #97, #29 ) ;
#235 = VECTOR ( 'NONE', #208, 1000.000000000000000 ) ;
#236 = ORIENTED_EDGE ( 'NONE', *, *, #237, .T. ) ;
#237 = EDGE_CURVE ( 'NONE', #197, #33, #170, .T. ) ;
ENDSEC;
END-ISO-10303-21;
