  0
SECTION
  2
HEADER
  9
$ACADVER
  1
AC1015
  9
$ACADMAINTVER
 70
     6
  9
$DWGCODEPAGE
  3
ANSI_1251
  9
$INSBASE
 10
0.0
 20
0.0
 30
0.0
  9
$EXTMIN
 10
0.0
 20
0.0
 30
0.0
  9
$EXTMAX
 10
841.0
 20
594.0
 30
0.0
  9
$LIMMIN
 10
0.0
 20
0.0
  9
$LIMMAX
 10
841.0
 20
594.0
  9
$ORTHOMODE
 70
     0
  9
$REGENMODE
 70
     1
  9
$FILLMODE
 70
     1
  9
$QTEXTMODE
 70
     0
  9
$MIRRTEXT
 70
     1
  9
$LTSCALE
 40
1.0
  9
$ATTMODE
 70
     1
  9
$TEXTSIZE
 40
3.5
  9
$TRACEWID
 40
1.0
  9
$TEXTSTYLE
  7
Standard
  9
$CLAYER
  8
0
  9
$CELTYPE
  6
ByLayer
  9
$CECOLOR
 62
   256
  9
$CELTSCALE
 40
1.0
  9
$DISPSILH
 70
     0
  9
$DIMSCALE
 40
1.0
  9
$DIMASZ
 40
3.5
  9
$DIMEXO
 40
0.01
  9
$DIMDLI
 40
3.75
  9
$DIMRND
 40
0.0
  9
$DIMDLE
 40
0.0
  9
$DIMEXE
 40
1.0
  9
$DIMTP
 40
0.0
  9
$DIMTM
 40
0.0
  9
$DIMTXT
 40
3.5
  9
$DIMCEN
 40
2.5
  9
$DIMTSZ
 40
0.0
  9
$DIMTOL
 70
     0
  9
$DIMLIM
 70
     0
  9
$DIMTIH
 70
     1
  9
$DIMTOH
 70
     1
  9
$DIMSE1
 70
     0
  9
$DIMSE2
 70
     0
  9
$DIMTAD
 70
     1
  9
$DIMZIN
 70
     0
  9
$DIMBLK
  1

  9
$DIMASO
 70
     1
  9
$DIMSHO
 70
     1
  9
$DIMPOST
  1

  9
$DIMAPOST
  1

  9
$DIMALT
 70
     0
  9
$DIMALTD
 70
     3
  9
$DIMALTF
 40
0.0393700787
  9
$DIMLFAC
 40
1.0
  9
$DIMTOFL
 70
     1
  9
$DIMTVP
 40
0.0
  9
$DIMTIX
 70
     0
  9
$DIMSOXD
 70
     0
  9
$DIMSAH
 70
     0
  9
$DIMBLK1
  1

  9
$DIMBLK2
  1

  9
$DIMSTYLE
  2
ISO-25
  9
$DIMCLRD
 70
     0
  9
$DIMCLRE
 70
     0
  9
$DIMCLRT
 70
     0
  9
$DIMTFAC
 40
1.0
  9
$DIMGAP
 40
3.0
  9
$DIMJUST
 70
     0
  9
$DIMSD1
 70
     0
  9
$DIMSD2
 70
     0
  9
$DIMTOLJ
 70
     0
  9
$DIMTZIN
 70
     0
  9
$DIMALTZ
 70
     0
  9
$DIMALTTZ
 70
     0
  9
$DIMUPT
 70
     0
  9
$DIMDEC
 70
     2
  9
$DIMTDEC
 70
     3
  9
$DIMALTU
 70
     2
  9
$DIMALTTD
 70
     3
  9
$DIMTXSTY
  7
Standard
  9
$DIMAUNIT
 70
     0
  9
$DIMADEC
 70
     2
  9
$DIMALTRND
 40
0.0
  9
$DIMAZIN
 70
     0
  9
$DIMDSEP
 70
    44
  9
$DIMATFIT
 70
     3
  9
$DIMFRAC
 70
     0
  9
$DIMLDRBLK
  1

  9
$DIMLUNIT
 70
     2
  9
$DIMLWD
 70
    -2
  9
$DIMLWE
 70
    -2
  9
$DIMTMOVE
 70
     0
  9
$LUNITS
 70
     2
  9
$LUPREC
 70
     2
  9
$SKETCHINC
 40
1.0
  9
$FILLETRAD
 40
10.0
  9
$AUNITS
 70
     0
  9
$AUPREC
 70
     2
  9
$MENU
  1
.
  9
$ELEVATION
 40
0.0
  9
$PELEVATION
 40
0.0
  9
$THICKNESS
 40
0.0
  9
$LIMCHECK
 70
     0
  9
$CHAMFERA
 40
0.0
  9
$CHAMFERB
 40
0.0
  9
$CHAMFERC
 40
0.0
  9
$CHAMFERD
 40
0.0
  9
$SKPOLY
 70
     0
  9
$TDCREATE
 40
2459732.590846389
  9
$TDUCREATE
 40
2459732.465846389
  9
$TDUPDATE
 40
2459732.590847975
  9
$TDUUPDATE
 40
2459732.465847975
  9
$TDINDWG
 40
0.0000000116
  9
$TDUSRTIMER
 40
0.0000000116
  9
$USRTIMER
 70
     1
  9
$ANGBASE
 50
0.0
  9
$ANGDIR
 70
     0
  9
$PDMODE
 70
     0
  9
$PDSIZE
 40
-1.0
  9
$PLINEWID
 40
0.0
  9
$SPLFRAME
 70
     0
  9
$SPLINETYPE
 70
     6
  9
$SPLINESEGS
 70
     8
  9
$HANDSEED
  5
453
  9
$SURFTAB1
 70
     6
  9
$SURFTAB2
 70
     6
  9
$SURFTYPE
 70
     6
  9
$SURFU
 70
     6
  9
$SURFV
 70
     6
  9
$UCSBASE
  2

  9
$UCSNAME
  2

  9
$UCSORG
 10
0.0
 20
0.0
 30
0.0
  9
$UCSXDIR
 10
1.0
 20
0.0
 30
0.0
  9
$UCSYDIR
 10
0.0
 20
1.0
 30
0.0
  9
$UCSORTHOREF
  2

  9
$UCSORTHOVIEW
 70
     0
  9
$UCSORGTOP
 10
0.0
 20
0.0
 30
0.0
  9
$UCSORGBOTTOM
 10
0.0
 20
0.0
 30
0.0
  9
$UCSORGLEFT
 10
0.0
 20
0.0
 30
0.0
  9
$UCSORGRIGHT
 10
0.0
 20
0.0
 30
0.0
  9
$UCSORGFRONT
 10
0.0
 20
0.0
 30
0.0
  9
$UCSORGBACK
 10
0.0
 20
0.0
 30
0.0
  9
$PUCSBASE
  2

  9
$PUCSNAME
  2

  9
$PUCSORG
 10
0.0
 20
0.0
 30
0.0
  9
$PUCSXDIR
 10
1.0
 20
0.0
 30
0.0
  9
$PUCSYDIR
 10
0.0
 20
1.0
 30
0.0
  9
$PUCSORTHOREF
  2

  9
$PUCSORTHOVIEW
 70
     0
  9
$PUCSORGTOP
 10
0.0
 20
0.0
 30
0.0
  9
$PUCSORGBOTTOM
 10
0.0
 20
0.0
 30
0.0
  9
$PUCSORGLEFT
 10
0.0
 20
0.0
 30
0.0
  9
$PUCSORGRIGHT
 10
0.0
 20
0.0
 30
0.0
  9
$PUCSORGFRONT
 10
0.0
 20
0.0
 30
0.0
  9
$PUCSORGBACK
 10
0.0
 20
0.0
 30
0.0
  9
$USERI1
 70
     0
  9
$USERI2
 70
     0
  9
$USERI3
 70
     0
  9
$USERI4
 70
     0
  9
$USERI5
 70
     0
  9
$USERR1
 40
0.0
  9
$USERR2
 40
0.0
  9
$USERR3
 40
0.0
  9
$USERR4
 40
0.0
  9
$USERR5
 40
0.0
  9
$WORLDVIEW
 70
     1
  9
$SHADEDGE
 70
     3
  9
$SHADEDIF
 70
    70
  9
$TILEMODE
 70
     1
  9
$MAXACTVP
 70
    64
  9
$PINSBASE
 10
0.0
 20
0.0
 30
0.0
  9
$PLIMCHECK
 70
     0
  9
$PEXTMIN
 10
1.0000000000E+20
 20
1.0000000000E+20
 30
1.0000000000E+20
  9
$PEXTMAX
 10
-1.0000000000E+20
 20
-1.0000000000E+20
 30
-1.0000000000E+20
  9
$PLIMMIN
 10
0.0
 20
0.0
  9
$PLIMMAX
 10
420.0
 20
297.0
  9
$UNITMODE
 70
     0
  9
$VISRETAIN
 70
     1
  9
$PLINEGEN
 70
     0
  9
$PSLTSCALE
 70
     1
  9
$TREEDEPTH
 70
  3020
  9
$CMLSTYLE
  2
Standard
  9
$CMLJUST
 70
     0
  9
$CMLSCALE
 40
20.0
  9
$PROXYGRAPHICS
 70
     1
  9
$MEASUREMENT
 70
     1
  9
$CELWEIGHT
370
    -1
  9
$ENDCAPS
280
     0
  9
$JOINSTYLE
280
     0
  9
$LWDISPLAY
290
     1
  9
$INSUNITS
 70
     4
  9
$HYPERLINKBASE
  1

  9
$STYLESHEET
  1

  9
$XEDIT
290
     1
  9
$CEPSNTYPE
380
     0
  9
$PSTYLEMODE
290
     1
  9
$FINGERPRINTGUID
  2
{D297F2D4-CB8A-42C4-BFBA-0A89FE7E0FEF}
  9
$VERSIONGUID
  2
{FAEB1C32-E019-11D5-929B-00C0DF256EC4}
  9
$EXTNAMES
290
     1
  9
$PSVPSCALE
 40
0.0
  9
$OLESTARTUP
290
     0
  0
ENDSEC
  0
SECTION
  2
CLASSES
  0
CLASS
  1
ACDBDICTIONARYWDFLT
  2
AcDbDictionaryWithDefault
  3
ObjectDBX Classes
 90
        0
280
     0
281
     0
  0
CLASS
  1
VISUALSTYLE
  2
AcDbVisualStyle
  3
ObjectDBX Classes
 90
     4095
280
     0
281
     0
  0
CLASS
  1
MATERIAL
  2
AcDbMaterial
  3
ObjectDBX Classes
 90
     1153
280
     0
281
     0
  0
CLASS
  1
SCALE
  2
AcDbScale
  3
ObjectDBX Classes
 90
     1153
280
     0
281
     0
  0
CLASS
  1
TABLESTYLE
  2
AcDbTableStyle
  3
ObjectDBX Classes
 90
     4095
280
     0
281
     0
  0
CLASS
  1
MLEADERSTYLE
  2
AcDbMLeaderStyle
  3
ACDB_MLEADERSTYLE_CLASS
 90
     4095
280
     0
281
     0
  0
CLASS
  1
SUN
  2
AcDbSun
  3
SCENEOE
 90
     1153
280
     0
281
     0
  0
CLASS
  1
ACDBPLACEHOLDER
  2
AcDbPlaceHolder
  3
ObjectDBX Classes
 90
        0
280
     0
281
     0
  0
CLASS
  1
LAYOUT
  2
AcDbLayout
  3
ObjectDBX Classes
 90
        0
280
     0
281
     0
  0
ENDSEC
  0
SECTION
  2
TABLES
  0
TABLE
  2
VPORT
  5
8
330
0
100
AcDbSymbolTable
 70
     1
  0
VPORT
  5
29
330
8
100
AcDbSymbolTableRecord
100
AcDbViewportTableRecord
  2
*Active
 70
     0
 10
0.0
 20
0.0
 11
1.0
 21
1.0
 12
420.5
 22
297.0
 13
0.0
 23
0.0
 14
10.0
 24
10.0
 15
10.0
 25
10.0
 16
0.0
 26
0.0
 36
1.0
 17
0.0
 27
0.0
 37
0.0
 40
594.0
 41
1.4158249158
 42
50.0
 43
0.0
 44
0.0
 50
0.0
 51
0.0
 71
     0
 72
  2000
 73
     1
 74
     3
 75
     0
 76
     0
 77
     0
 78
     0
281
     0
 65
     1
110
0.0
120
0.0
130
0.0
111
1.0
121
0.0
131
0.0
112
0.0
122
1.0
132
0.0
 79
     0
146
0.0
  0
ENDTAB
  0
TABLE
  2
LTYPE
  5
5
330
0
100
AcDbSymbolTable
 70
     6
  0
LTYPE
  5
14
330
5
100
AcDbSymbolTableRecord
100
AcDbLinetypeTableRecord
  2
ByBlock
 70
     0
  3

 72
    65
 73
     0
 40
0.0
  0
LTYPE
  5
15
330
5
100
AcDbSymbolTableRecord
100
AcDbLinetypeTableRecord
  2
ByLayer
 70
     0
  3

 72
    65
 73
     0
 40
0.0
  0
LTYPE
  5
16
330
5
100
AcDbSymbolTableRecord
100
AcDbLinetypeTableRecord
  2
Continuous
 70
     0
  3
Solid line
 72
    65
 73
     0
 40
0.0
  0
LTYPE
  5
6E
330
5
100
AcDbSymbolTableRecord
100
AcDbLinetypeTableRecord
  2
HIDDEN
 70
     0
  3
Hidden __ __ __ __ __ __ __ __ __ __ __ __ __ __
 72
    65
 73
     2
 40
1.905
 49
1.27
 74
     0
 49
-0.635
 74
     0
  0
LTYPE
  5
6F
330
5
100
AcDbSymbolTableRecord
100
AcDbLinetypeTableRecord
  2
PHANTOM
 70
     0
  3
Phantom ______  __  __  ______  __  __  ______
 72
    65
 73
     6
 40
12.7
 49
6.35
 74
     0
 49
-1.27
 74
     0
 49
1.27
 74
     0
 49
-1.27
 74
     0
 49
1.27
 74
     0
 49
-1.27
 74
     0
  0
LTYPE
  5
70
330
5
100
AcDbSymbolTableRecord
100
AcDbLinetypeTableRecord
  2
CENTER
 70
     0
  3
Center ____ _ ____ _ ____ _ ____ _ ____ _ ____
 72
    65
 73
     4
 40
10.16
 49
6.35
 74
     0
 49
-1.27
 74
     0
 49
1.27
 74
     0
 49
-1.27
 74
     0
  0
LTYPE
  5
71
330
5
100
AcDbSymbolTableRecord
100
AcDbLinetypeTableRecord
  2
CENTERX2
 70
     0
  3
Center (2x) ________  __  ________  __  _____
 72
    65
 73
     4
 40
20.32
 49
12.7
 74
     0
 49
-2.54
 74
     0
 49
2.54
 74
     0
 49
-2.54
 74
     0
  0
LTYPE
  5
72
330
5
100
AcDbSymbolTableRecord
100
AcDbLinetypeTableRecord
  2
DOT2
 70
     0
  3
Dot (.5x) ........................................
 72
    65
 73
     2
 40
0.635
 49
0.0
 74
     0
 49
-0.635
 74
     0
  0
ENDTAB
  0
TABLE
  2
LAYER
  5
2
330
0
100
AcDbSymbolTable
 70
     1
  0
LAYER
  5
10
330
2
100
AcDbSymbolTableRecord
100
AcDbLayerTableRecord
  2
0
 70
     0
 62
     7
  6
Continuous
370
    -3
390
F
  0
ENDTAB
  0
TABLE
  2
STYLE
  5
3
330
0
100
AcDbSymbolTable
 70
     1
  0
STYLE
  5
11
330
3
100
AcDbSymbolTableRecord
100
AcDbTextStyleTableRecord
  2
Standard
 70
     0
 40
0.0
 41
1.0
 50
0.0
 71
     0
 42
3.5
  3
txt
  4

  0
ENDTAB
  0
TABLE
  2
VIEW
  5
6
330
0
100
AcDbSymbolTable
 70
     0
  0
ENDTAB
  0
TABLE
  2
UCS
  5
7
330
0
100
AcDbSymbolTable
 70
     0
  0
ENDTAB
  0
TABLE
  2
APPID
  5
9
330
0
100
AcDbSymbolTable
 70
     1
  0
APPID
  5
12
330
9
100
AcDbSymbolTableRecord
100
AcDbRegAppTableRecord
  2
ACAD
 70
     0
  0
ENDTAB
  0
TABLE
  2
DIMSTYLE
  5
A
330
0
100
AcDbSymbolTable
 70
     1
100
AcDbDimStyleTable
  0
DIMSTYLE
105
27
330
A
100
AcDbSymbolTableRecord
100
AcDbDimStyleTableRecord
  2
ISO-25
 70
     0
 41
2.5
 42
0.625
 43
3.75
 44
1.25
 73
     0
 74
     0
 77
     1
 78
     8
140
2.5
141
2.5
143
0.0393700787
147
0.625
171
     3
172
     1
178
     0
271
     2
272
     2
274
     3
278
    44
283
     0
284
     8
340
11
  0
ENDTAB
  0
TABLE
  2
BLOCK_RECORD
  5
1
330
0
100
AcDbSymbolTable
 70
     1
  0
BLOCK_RECORD
  5
1F
330
1
100
AcDbSymbolTableRecord
100
AcDbBlockTableRecord
  2
*Model_Space
340
22
  0
BLOCK_RECORD
  5
1B
330
1
100
AcDbSymbolTableRecord
100
AcDbBlockTableRecord
  2
*Paper_Space
340
1E
  0
BLOCK_RECORD
  5
23
330
1
100
AcDbSymbolTableRecord
100
AcDbBlockTableRecord
  2
*Paper_Space0
340
26
  0
ENDTAB
  0
ENDSEC
  0
SECTION
  2
BLOCKS
  0
BLOCK
  5
20
330
1F
100
AcDbEntity
  8
0
100
AcDbBlockBegin
  2
*Model_Space
 70
     0
 10
0.0
 20
0.0
 30
0.0
  3
*Model_Space
  1

  0
ENDBLK
  5
21
330
1F
100
AcDbEntity
  8
0
100
AcDbBlockEnd
  0
BLOCK
  5
1C
330
1B
100
AcDbEntity
 67
     1
  8
0
100
AcDbBlockBegin
  2
*Paper_Space
 70
     0
 10
0.0
 20
0.0
 30
0.0
  3
*Paper_Space
  1

  0
ENDBLK
  5
1D
330
1B
100
AcDbEntity
 67
     1
  8
0
100
AcDbBlockEnd
  0
BLOCK
  5
24
330
23
100
AcDbEntity
  8
0
100
AcDbBlockBegin
  2
*Paper_Space0
 70
     0
 10
0.0
 20
0.0
 30
0.0
  3
*Paper_Space0
  1

  0
ENDBLK
  5
25
330
23
100
AcDbEntity
  8
0
100
AcDbBlockEnd
  0
ENDSEC
  0
SECTION
  2
ENTITIES
  0
ARC
  5
73
330
1F
100
AcDbEntity
  8
0
  6
Continuous
 62
     7
370
    25
100
AcDbCircle
 10
564.4433501725
 20
413.028893827
 30
0.0
 40
0.5
100
AcDbArc
 50
180.0
 51
0.0
  0
ARC
  5
74
330
1F
100
AcDbEntity
  8
0
  6
Continuous
 62
     7
370
    25
100
AcDbCircle
 10
564.4433501725
 20
424.6288938272
 30
0.0
 40
0.5000000000001137
100
AcDbArc
 50
0.0
 51
180.0
  0
LINE
  5
75
330
1F
100
AcDbEntity
  8
0
  6
Continuous
 62
     7
370
    25
100
AcDbLine
 10
559.9433501725
 20
413.8288938271
 30
0.0
 11
560.1539292275
 21
413.4641602049
 31
0.0
  0
LINE
  5
76
330
1F
100
AcDbEntity
  8
0
  6
Continuous
 62
     7
370
    25
100
AcDbLine
 10
574.4021001725
 20
421.8288938271
 30
0.0
 11
565.7433501725
 21
421.8288938271
 31
0.0
  0
LINE
  5
77
330
1F
100
AcDbEntity
  8
0
  6
Continuous
 62
     7
370
    25
100
AcDbLine
 10
565.7433501725
 20
415.8288938271
 30
0.0
 11
574.4021001725
 21
415.8288938271
 31
0.0
  0
LINE
  5
78
330
1F
100
AcDbEntity
  8
0
  6
Continuous
 62
     7
370
    25
100
AcDbLine
 10
574.4021001725
 20
415.8288938271
 30
0.0
 11
574.9433501725
 21
416.3701438271
 31
0.0
  0
LINE
  5
79
330
1F
100
AcDbEntity
  8
0
  6
Continuous
 62
     7
370
    25
100
AcDbLine
 10
574.9433501725
 20
421.2876438271
 30
0.0
 11
574.4021001725
 21
421.8288938271
 31
0.0
  0
LINE
  5
7A
330
1F
100
AcDbEntity
  8
0
  6
Continuous
 62
     7
370
    25
100
AcDbLine
 10
560.1539292275
 20
424.1936274493
 30
0.0
 11
559.9433501725
 21
423.8288938271
 31
0.0
  0
ARC
  5
7B
330
1F
100
AcDbEntity
  8
0
  6
Continuous
 62
     7
370
    25
100
AcDbCircle
 10
564.4433501725
 20
399.6288938272
 30
0.0
 40
0.5000000000000007
100
AcDbArc
 50
0.0
 51
113.5781784782
  0
LINE
  5
7C
330
1F
100
AcDbEntity
  8
0
  6
Continuous
 62
     7
370
    25
100
AcDbLine
 10
574.4021001725
 20
396.8288938271
 30
0.0
 11
565.7433501725
 21
396.8288938271
 31
0.0
  0
LINE
  5
7D
330
1F
100
AcDbEntity
  8
0
  6
Continuous
 62
     7
370
    25
100
AcDbLine
 10
574.4021001725
 20
390.8288938271
 30
0.0
 11
574.9433501725
 21
391.3701438271
 31
0.0
  0
LINE
  5
7E
330
1F
100
AcDbEntity
  8
0
  6
Continuous
 62
     7
370
    25
100
AcDbLine
 10
574.9433501725
 20
396.2876438271
 30
0.0
 11
574.4021001725
 21
396.8288938271
 31
0.0
  0
ARC
  5
7F
330
1F
100
AcDbEntity
  8
0
  6
Continuous
 62
     7
370
    25
100
AcDbCircle
 10
261.0433501725
 20
399.6288938272
 30
0.0
 40
0.5000000000000568
100
AcDbArc
 50
66.4218215219
 51
180.0
  0
LINE
  5
80
330
1F
100
AcDbEntity
  8
0
  6
Continuous
 62
     7
370
    25
100
AcDbLine
 10
259.7433501725
 20
396.8288938271
 30
0.0
 11
251.0846001725
 21
396.8288938271
 31
0.0
  0
LINE
  5
81
330
1F
100
AcDbEntity
  8
0
  6
Continuous
 62
     7
370
    25
100
AcDbLine
 10
251.0846001725
 20
396.8288938271
 30
0.0
 11
250.5433501725
 21
396.2876438271
 31
0.0
  0
LINE
  5
82
330
1F
100
AcDbEntity
  8
0
  6
Continuous
 62
     7
370
    25
100
AcDbLine
 10
250.5433501725
 20
391.3701438271
 30
0.0
 11
251.0846001725
 21
390.8288938271
 31
0.0
  0
ARC
  5
83
330
1F
100
AcDbEntity
  8
0
  6
Continuous
 62
     7
370
    25
100
AcDbCircle
 10
261.0433501725
 20
424.6288938272
 30
0.0
 40
0.5000000000000568
100
AcDbArc
 50
0.0
 51
180.0
  0
ARC
  5
84
330
1F
100
AcDbEntity
  8
0
  6
Continuous
 62
     7
370
    25
100
AcDbCircle
 10
261.0433501725
 20
413.028893827
 30
0.0
 40
0.5
100
AcDbArc
 50
180.0
 51
0.0
  0
LINE
  5
85
330
1F
100
AcDbEntity
  8
0
  6
Continuous
 62
     7
370
    25
100
AcDbLine
 10
251.0846001725
 20
421.8288938271
 30
0.0
 11
250.5433501725
 21
421.2876438271
 31
0.0
  0
LINE
  5
86
330
1F
100
AcDbEntity
  8
0
  6
Continuous
 62
     7
370
    25
100
AcDbLine
 10
250.5433501725
 20
416.3701438271
 30
0.0
 11
251.0846001725
 21
415.8288938271
 31
0.0
  0
LINE
  5
87
330
1F
100
AcDbEntity
  8
0
  6
Continuous
 62
     7
370
    25
100
AcDbLine
 10
251.0846001725
 20
415.8288938271
 30
0.0
 11
259.7433501725
 21
415.8288938271
 31
0.0
  0
LINE
  5
88
330
1F
100
AcDbEntity
  8
0
  6
Continuous
 62
     7
370
    25
100
AcDbLine
 10
259.7433501725
 20
421.8288938271
 30
0.0
 11
251.0846001725
 21
421.8288938271
 31
0.0
  0
SPLINE
  5
89
330
1F
100
AcDbEntity
  8
0
  6
Continuous
 62
     7
370
    25
100
AcDbSpline
210
0.0
220
0.0
230
1.0
 70
    24
 71
     3
 72
    16
 73
    12
 74
     0
 42
0.000000001
 43
0.00000001
 40
0.0
 40
0.0
 40
0.0
 40
0.0
 40
0.1658292928977489
 40
0.2550981074401226
 40
0.3462613343064169
 40
0.4374245611727097
 40
0.5266933757150837
 40
0.692522668612833
 40
0.8583519615105835
 40
0.9476207760529559
 40
0.9999999999999999
 40
0.9999999999999999
 40
0.9999999999999999
 40
0.9999999999999999
 10
563.9433501724776
 20
422.5545834517292
 30
0.0
 10
563.9433501724776
 20
421.9456756540543
 30
0.0
 10
563.9433501724776
 20
421.0089821177186
 30
0.0
 10
563.9433501724775
 20
419.5091834264827
 30
0.0
 10
563.9433501724776
 20
418.3172263466676
 30
0.0
 10
563.9433501724776
 20
417.1427980724613
 30
0.0
 10
563.9433501724776
 20
415.739184779174
 30
0.0
 10
563.9433501724776
 20
414.2718416983919
 30
0.0
 10
563.9433501724776
 20
413.3726543475711
 30
0.0
 10
563.9433501724776
 20
413.0448230204569
 30
0.0
 10
563.9433501724776
 20
413.0552134358971
 30
0.0
 10
563.9433501724776
 20
413.0590556486313
 30
0.0
  0
SPLINE
  5
8A
330
1F
100
AcDbEntity
  8
0
  6
Continuous
 62
     7
370
    25
100
AcDbSpline
210
0.0
220
0.0
230
1.0
 70
     8
 71
     3
 72
     8
 73
     4
 74
     0
 42
0.000000001
 43
0.00000001
 40
0.0
 40
0.0
 40
0.0
 40
0.0
 40
1.0
 40
1.0
 40
1.0
 40
1.0
 10
559.9433501724848
 20
419.6943883977126
 30
0.0
 10
559.9433501724848
 20
418.7239824618224
 30
0.0
 10
560.1176654728641
 20
417.7801361198913
 30
0.0
 10
560.3899321598761
 20
416.8512141652647
 30
0.0
  0
SPLINE
  5
8B
330
1F
100
AcDbEntity
  8
0
  6
Continuous
 62
     7
370
    25
100
AcDbSpline
210
0.0
220
0.0
230
1.0
 70
     8
 71
     3
 72
     8
 73
     4
 74
     0
 42
0.000000001
 43
0.00000001
 40
0.0
 40
0.0
 40
0.0
 40
0.0
 40
1.0
 40
1.0
 40
1.0
 40
1.0
 10
560.3899321598761
 20
422.5375626301606
 30
0.0
 10
560.1176654728647
 20
421.6086406755356
 30
0.0
 10
559.9433501724848
 20
420.664794333601
 30
0.0
 10
559.9433501724848
 20
419.6943883977126
 30
0.0
  0
LINE
  5
8C
330
1F
100
AcDbEntity
  8
0
  6
Continuous
 62
     7
370
    25
100
AcDbLine
 10
563.9433501725
 20
422.5375626302
 30
0.0
 11
560.3899321599
 21
422.5375626302
 31
0.0
  0
LINE
  5
8D
330
1F
100
AcDbEntity
  8
0
  6
Continuous
 62
     7
370
    25
100
AcDbLine
 10
563.9433501725
 20
416.8512141653
 30
0.0
 11
560.3899321599
 21
416.8512141653
 31
0.0
  0
LINE
  5
8E
330
1F
100
AcDbEntity
  8
0
  6
Continuous
 62
     7
370
    25
100
AcDbLine
 10
559.9433501725
 20
419.6943883977
 30
0.0
 11
559.9433501725
 21
414.9968797637
 31
0.0
  0
SPLINE
  5
8F
330
1F
100
AcDbEntity
  8
0
  6
Continuous
 62
     7
370
    25
100
AcDbSpline
210
0.0
220
0.0
230
1.0
 70
     8
 71
     3
 72
     8
 73
     4
 74
     0
 42
0.000000001
 43
0.00000001
 40
0.0
 40
0.0
 40
0.0
 40
0.0
 40
1.0
 40
1.0
 40
1.0
 40
1.0
 10
560.3899321598761
 20
416.8512141652583
 30
0.0
 10
560.1176654728647
 20
416.2453659843272
 30
0.0
 10
559.9433501724849
 20
415.6297840331282
 30
0.0
 10
559.9433501724849
 20
414.9968797637269
 30
0.0
  0
SPLINE
  5
90
330
1F
100
AcDbEntity
  8
0
  6
Continuous
 62
     7
370
    25
100
AcDbSpline
210
0.0
220
0.0
230
1.0
 70
     8
 71
     3
 72
     8
 73
     4
 74
     0
 42
0.000000001
 43
0.00000001
 40
0.0
 40
0.0
 40
0.0
 40
0.0
 40
1.0
 40
1.0
 40
1.0
 40
1.0
 10
559.9433501724849
 20
414.9968797637269
 30
0.0
 10
559.9433501724849
 20
414.3639754943244
 30
0.0
 10
560.1176654728642
 20
413.7483935431277
 30
0.0
 10
560.3899321598761
 20
413.1425453621955
 30
0.0
  0
LINE
  5
91
330
1F
100
AcDbEntity
  8
0
  6
Continuous
 62
     7
370
    25
100
AcDbLine
 10
563.9433501725
 20
413.1425453622
 30
0.0
 11
560.3899321599
 21
413.1425453622
 31
0.0
  0
LINE
  5
92
330
1F
100
AcDbEntity
  8
0
  6
Continuous
 62
     7
370
    25
100
AcDbLine
 10
559.9433501725
 20
423.5264024611
 30
0.0
 11
559.9433501725
 21
419.6943883977
 31
0.0
  0
SPLINE
  5
93
330
1F
100
AcDbEntity
  8
0
  6
Continuous
 62
     7
370
    25
100
AcDbSpline
210
0.0
220
0.0
230
1.0
 70
     8
 71
     3
 72
     8
 73
     4
 74
     0
 42
0.000000001
 43
0.00000001
 40
0.0
 40
0.0
 40
0.0
 40
0.0
 40
1.0
 40
1.0
 40
1.0
 40
1.0
 10
559.9433501724847
 20
423.5264024610821
 30
0.0
 10
559.9433501724847
 20
423.1889007945944
 30
0.0
 10
560.117665472864
 20
422.86063640386
 30
0.0
 10
560.389932159876
 20
422.5375626301656
 30
0.0
  0
SPLINE
  5
94
330
1F
100
AcDbEntity
  8
0
  6
Continuous
 62
     7
370
    25
100
AcDbSpline
210
0.0
220
0.0
230
1.0
 70
     8
 71
     3
 72
     8
 73
     4
 74
     0
 42
0.000000001
 43
0.00000001
 40
0.0
 40
0.0
 40
0.0
 40
0.0
 40
1.0
 40
1.0
 40
1.0
 40
1.0
 10
560.389932159876
 20
424.5152422919985
 30
0.0
 10
560.1176654728646
 20
424.1921685183047
 30
0.0
 10
559.9433501724847
 20
423.8639041275691
 30
0.0
 10
559.9433501724847
 20
423.5264024610821
 30
0.0
  0
LINE
  5
95
330
1F
100
AcDbEntity
  8
0
  6
Continuous
 62
     7
370
    25
100
AcDbLine
 10
563.9433501725
 20
424.515242292
 30
0.0
 11
560.3899321599
 21
424.515242292
 31
0.0
  0
LINE
  5
96
330
1F
100
AcDbEntity
  8
0
  6
Continuous
 62
     7
370
    25
100
AcDbLine
 10
560.3899321599
 20
413.1425453622
 30
0.0
 11
560.2259141247
 21
413.5057207047
 31
0.0
  0
LINE
  5
97
330
1F
100
AcDbEntity
  8
0
  6
Continuous
 62
     7
370
    25
100
AcDbLine
 10
559.9433501725
 20
414.9968797637
 30
0.0
 11
559.9433501725
 21
413.8288938271
 31
0.0
  0
LINE
  5
98
330
1F
100
AcDbEntity
  8
0
  6
Continuous
 62
     7
370
    25
100
AcDbLine
 10
574.4021001725
 20
415.8288938271
 30
0.0
 11
574.4021001725
 21
421.8288938271
 31
0.0
  0
LINE
  5
99
330
1F
100
AcDbEntity
  8
0
  6
Continuous
 62
     7
370
    25
100
AcDbLine
 10
574.9433501725
 20
416.9445009114
 30
0.0
 11
574.9433501725
 21
421.2876438271
 31
0.0
  0
LINE
  5
9A
330
1F
100
AcDbEntity
  8
0
  6
Continuous
 62
     7
370
    25
100
AcDbLine
 10
574.9433501725
 20
416.3701438271
 30
0.0
 11
574.9433501725
 21
416.9445009114
 31
0.0
  0
LINE
  5
9B
330
1F
100
AcDbEntity
  8
0
  6
Continuous
 62
     7
370
    25
100
AcDbLine
 10
559.9433501725
 20
423.8288938271
 30
0.0
 11
559.9433501725
 21
423.5264024611
 31
0.0
  0
CIRCLE
  5
9C
330
1F
100
AcDbEntity
  8
0
  6
Continuous
 62
     7
370
    25
100
AcDbCircle
 10
315.2433501725
 20
365.8288938271
 30
0.0
 40
0.5000000000000568
  0
SPLINE
  5
9D
330
1F
100
AcDbEntity
  8
0
  6
Continuous
 62
     7
370
    25
100
AcDbSpline
210
0.0
220
0.0
230
1.0
 70
     8
 71
     3
 72
    20
 73
    16
 74
     0
 42
0.000000001
 43
0.00000001
 40
0.0
 40
0.0
 40
0.0
 40
0.0
 40
0.125
 40
0.125
 40
0.25
 40
0.25
 40
0.375
 40
0.375
 40
0.5
 40
0.5
 40
0.75
 40
0.75
 40
0.875
 40
0.875
 40
1.0
 40
1.0
 40
1.0
 40
1.0
 10
607.8433501724775
 20
388.4288938270942
 30
0.0
 10
608.0017293601283
 20
388.4679345579487
 30
0.0
 10
608.1579750848198
 20
388.5064532621485
 30
0.0
 10
608.4659669342363
 20
388.5838600134563
 30
0.0
 10
608.6186110417077
 20
388.6230044314432
 30
0.0
 10
608.9076953308947
 20
388.7001551853583
 30
0.0
 10
609.0454998690788
 20
388.7384827670993
 30
0.0
 10
609.3071185447177
 20
388.8160290875759
 30
0.0
 10
609.4298648514002
 20
388.8550052952446
 30
0.0
 10
609.761189228348
 20
388.9705001516896
 30
0.0
 10
609.9402003523762
 20
389.0484125953597
 30
0.0
 10
610.1198154517571
 20
389.1638925207606
 30
0.0
 10
610.1660598006248
 20
389.2027583166256
 30
0.0
 10
610.227813106636
 20
389.280532650294
 30
0.0
 10
610.2433501724776
 20
389.3191424172488
 30
0.0
 10
610.2433501724776
 20
389.3581831489755
 30
0.0
  0
SPLINE
  5
9E
330
1F
100
AcDbEntity
  8
0
  6
Continuous
 62
     7
370
    25
100
AcDbSpline
210
0.0
220
0.0
230
1.0
 70
     8
 71
     3
 72
    14
 73
    10
 74
     0
 42
0.000000001
 43
0.00000001
 40
0.0
 40
0.0
 40
0.0
 40
0.0
 40
0.2499999999999999
 40
0.2499999999999999
 40
0.4999999999999999
 40
0.4999999999999999
 40
0.7499999999999998
 40
0.7499999999999998
 40
1.0
 40
1.0
 40
1.0
 40
1.0
 10
607.8433501724775
 20
388.4288938270942
 30
0.0
 10
607.9755355883365
 20
388.5070952421158
 30
0.0
 10
608.10351760687
 20
388.5828051894128
 30
0.0
 10
608.3461416318173
 20
388.7380856010598
 30
0.0
 10
608.4565838962274
 20
388.8150954506427
 30
0.0
 10
608.6425807934206
 20
388.9705189366702
 30
0.0
 10
608.7163817722588
 20
389.0474686535886
 30
0.0
 10
608.817200356654
 20
389.2028986328378
 30
0.0
 10
608.8433501724774
 20
389.2799817414104
 30
0.0
 10
608.8433501724775
 20
389.3581831489755
 30
0.0
  0
LINE
  5
9F
330
1F
100
AcDbEntity
  8
0
  6
Continuous
 62
     7
370
    25
100
AcDbLine
 10
610.2433501725
 20
389.358183149
 30
0.0
 11
608.8433501725
 21
389.358183149
 31
0.0
  0
SPLINE
  5
A0
330
1F
100
AcDbEntity
  8
0
  6
Continuous
 62
     7
370
    25
100
AcDbSpline
210
0.0
220
0.0
230
1.0
 70
     8
 71
     3
 72
    20
 73
    16
 74
     0
 42
0.000000001
 43
0.00000001
 40
0.0
 40
0.0
 40
0.0
 40
0.0
 40
0.1249999999999995
 40
0.1249999999999995
 40
0.2499999999999988
 40
0.2499999999999988
 40
0.3749999999999982
 40
0.3749999999999982
 40
0.4999999999999975
 40
0.4999999999999975
 40
0.7499999999999988
 40
0.7499999999999988
 40
0.8749999999999993
 40
0.8749999999999993
 40
1.0
 40
1.0
 40
1.0
 40
1.0
 10
610.2433501724776
 20
146.2996045052128
 30
0.0
 10
610.2433501724774
 20
146.3386452360674
 30
0.0
 10
610.2278136120026
 20
146.3771639402672
 30
0.0
 10
610.166495260042
 20
146.454570691575
 30
0.0
 10
610.1200715144553
 20
146.4937151095617
 30
0.0
 10
610.0001206443011
 20
146.5708658634769
 30
0.0
 10
609.9265160000177
 20
146.609193445218
 30
0.0
 10
609.751785633922
 20
146.6867397656945
 30
0.0
 10
609.6509350050205
 20
146.7257159733632
 30
0.0
 10
609.3196497250366
 20
146.8412108298082
 30
0.0
 10
609.0519695636526
 20
146.9191232734783
 30
0.0
 10
608.6192955375973
 20
147.0346031988792
 30
0.0
 10
608.4677774507461
 20
147.0734689947442
 30
0.0
 10
608.1583516933599
 20
147.1512433284127
 30
0.0
 10
608.0017293636662
 20
147.1898530953675
 30
0.0
 10
607.8433501724775
 20
147.2288938270941
 30
0.0
  0
LINE
  5
A1
330
1F
100
AcDbEntity
  8
0
  6
Continuous
 62
     7
370
    25
100
AcDbLine
 10
610.2433501725
 20
146.2996045052
 30
0.0
 11
608.8433501725
 21
146.2996045052
 31
0.0
  0
SPLINE
  5
A2
330
1F
100
AcDbEntity
  8
0
  6
Continuous
 62
     7
370
    25
100
AcDbSpline
210
0.0
220
0.0
230
1.0
 70
     8
 71
     3
 72
    14
 73
    10
 74
     0
 42
0.000000001
 43
0.00000001
 40
0.0
 40
0.0
 40
0.0
 40
0.0
 40
0.2499999999999998
 40
0.2499999999999998
 40
0.4999999999999999
 40
0.4999999999999999
 40
0.7499999999999999
 40
0.7499999999999999
 40
1.0
 40
1.0
 40
1.0
 40
1.0
 10
608.8433501724775
 20
146.2996045052128
 30
0.0
 10
608.8433501724775
 20
146.3778059202344
 30
0.0
 10
608.8177915077972
 20
146.4535158675313
 30
0.0
 10
608.7176634792005
 20
146.6087962791784
 30
0.0
 10
608.6440992998963
 20
146.6858061287614
 30
0.0
 10
608.4585616642045
 20
146.8412296147888
 30
0.0
 10
608.3483967432448
 20
146.9181793317072
 30
0.0
 10
608.1057849865556
 20
147.0736093109565
 30
0.0
 10
607.9755355757325
 20
147.1506924195291
 30
0.0
 10
607.8433501724775
 20
147.2288938270941
 30
0.0
  0
LINE
  5
A3
330
1F
100
AcDbEntity
  8
0
  6
Continuous
 62
     7
370
    25
100
AcDbLine
 10
610.2433501725
 20
146.2996045052
 30
0.0
 11
610.2433501725
 21
389.358183149
 31
0.0
  0
SPLINE
  5
A4
330
1F
100
AcDbEntity
  8
0
  6
Continuous
 62
     7
370
    25
100
AcDbSpline
210
0.0
220
0.0
230
1.0
 70
     8
 71
     3
 72
    20
 73
    16
 74
     0
 42
0.000000001
 43
0.00000001
 40
0.0
 40
0.0
 40
0.0
 40
0.0
 40
0.1249999999999968
 40
0.1249999999999968
 40
0.2499999999999933
 40
0.2499999999999933
 40
0.37499999999999
 40
0.37499999999999
 40
0.4999999999999865
 40
0.4999999999999865
 40
0.7499999999999944
 40
0.7499999999999944
 40
0.8749999999999972
 40
0.8749999999999972
 40
1.0
 40
1.0
 40
1.0
 40
1.0
 10
215.2433501724775
 20
389.3581831489755
 30
0.0
 10
215.2433501724774
 20
389.319142418121
 30
0.0
 10
215.2588867329524
 20
389.2806237139212
 30
0.0
 10
215.3202050849129
 20
389.2032169626133
 30
0.0
 10
215.3666288304998
 20
389.1640725446265
 30
0.0
 10
215.4865797006539
 20
389.0869217907114
 30
0.0
 10
215.5601843449373
 20
389.0485942089703
 30
0.0
 10
215.7349147110329
 20
388.9710478884938
 30
0.0
 10
215.8357653399343
 20
388.9320716808251
 30
0.0
 10
216.1670506199182
 20
388.8165768243801
 30
0.0
 10
216.4347307813023
 20
388.73866438071
 30
0.0
 10
216.8674048073576
 20
388.6231844553091
 30
0.0
 10
217.0189228942089
 20
388.584318659444
 30
0.0
 10
217.328348651595
 20
388.5065443257755
 30
0.0
 10
217.4849709812888
 20
388.4679345588208
 30
0.0
 10
217.6433501724775
 20
388.4288938270941
 30
0.0
  0
LINE
  5
A5
330
1F
100
AcDbEntity
  8
0
  6
Continuous
 62
     7
370
    25
100
AcDbLine
 10
215.2433501725
 20
389.358183149
 30
0.0
 11
216.6433501725
 21
389.358183149
 31
0.0
  0
SPLINE
  5
A6
330
1F
100
AcDbEntity
  8
0
  6
Continuous
 62
     7
370
    25
100
AcDbSpline
210
0.0
220
0.0
230
1.0
 70
     8
 71
     3
 72
    14
 73
    10
 74
     0
 42
0.000000001
 43
0.00000001
 40
0.0
 40
0.0
 40
0.0
 40
0.0
 40
0.2500000000000003
 40
0.2500000000000003
 40
0.5000000000000002
 40
0.5000000000000002
 40
0.7500000000000001
 40
0.7500000000000001
 40
1.0
 40
1.0
 40
1.0
 40
1.0
 10
216.6433501724775
 20
389.3581831489755
 30
0.0
 10
216.6433501724775
 20
389.2799817339538
 30
0.0
 10
216.6689088371577
 20
389.2042717866569
 30
0.0
 10
216.7690368657544
 20
389.0489913750099
 30
0.0
 10
216.8426010450588
 20
388.9719815254269
 30
0.0
 10
217.0281386807506
 20
388.8165580393994
 30
0.0
 10
217.1383036017102
 20
388.739608322481
 30
0.0
 10
217.3809153583995
 20
388.5841783432318
 30
0.0
 10
217.5111647692226
 20
388.5070952346591
 30
0.0
 10
217.6433501724775
 20
388.4288938270941
 30
0.0
  0
SPLINE
  5
A7
330
1F
100
AcDbEntity
  8
0
  6
Continuous
 62
     7
370
    25
100
AcDbSpline
210
0.0
220
0.0
230
1.0
 70
     8
 71
     3
 72
    20
 73
    16
 74
     0
 42
0.000000001
 43
0.00000001
 40
0.0
 40
0.0
 40
0.0
 40
0.0
 40
0.1250000000000038
 40
0.1250000000000038
 40
0.2500000000000076
 40
0.2500000000000076
 40
0.3750000000000114
 40
0.3750000000000114
 40
0.5000000000000152
 40
0.5000000000000152
 40
0.7500000000000102
 40
0.7500000000000102
 40
0.8750000000000052
 40
0.8750000000000052
 40
1.0
 40
1.0
 40
1.0
 40
1.0
 10
607.8433501724775
 20
147.2288938270942
 30
0.0
 10
607.882390903332
 20
147.0705146394435
 30
0.0
 10
607.9209096075318
 20
146.9142689147517
 30
0.0
 10
607.9983163588397
 20
146.6062770653351
 30
0.0
 10
608.0374607768265
 20
146.453632957864
 30
0.0
 10
608.1146115307416
 20
146.1645486686769
 30
0.0
 10
608.1529391124827
 20
146.0267441304929
 30
0.0
 10
608.2304854329592
 20
145.765125454854
 30
0.0
 10
608.2694616406279
 20
145.6423791481713
 30
0.0
 10
608.3849564970731
 20
145.3110547712236
 30
0.0
 10
608.4628689407431
 20
145.1320436471954
 30
0.0
 10
608.5783488661439
 20
144.9524285478145
 30
0.0
 10
608.617214662009
 20
144.9061841989468
 30
0.0
 10
608.6949889956775
 20
144.8444308929356
 30
0.0
 10
608.7335987626323
 20
144.8288938270941
 30
0.0
 10
608.7726394943589
 20
144.8288938270941
 30
0.0
  0
SPLINE
  5
A8
330
1F
100
AcDbEntity
  8
0
  6
Continuous
 62
     7
370
    25
100
AcDbSpline
210
0.0
220
0.0
230
1.0
 70
     8
 71
     3
 72
    14
 73
    10
 74
     0
 42
0.000000001
 43
0.00000001
 40
0.0
 40
0.0
 40
0.0
 40
0.0
 40
0.2500000000000001
 40
0.2500000000000001
 40
0.5000000000000001
 40
0.5000000000000001
 40
0.7500000000000002
 40
0.7500000000000002
 40
1.0
 40
1.0
 40
1.0
 40
1.0
 10
607.8433501724775
 20
147.2288938270941
 30
0.0
 10
607.9215515874992
 20
147.0967084112352
 30
0.0
 10
607.997261534796
 20
146.9687263927017
 30
0.0
 10
608.1525419464431
 20
146.7261023677543
 30
0.0
 10
608.2295517960262
 20
146.6156601033443
 30
0.0
 10
608.3849752820536
 20
146.429663206151
 30
0.0
 10
608.461924998972
 20
146.3558622273127
 30
0.0
 10
608.6173549782211
 20
146.2550436429175
 30
0.0
 10
608.6944380867938
 20
146.2288938270941
 30
0.0
 10
608.7726394943589
 20
146.2288938270941
 30
0.0
  0
LINE
  5
A9
330
1F
100
AcDbEntity
  8
0
  6
Continuous
 62
     7
370
    25
100
AcDbLine
 10
608.7726394944
 20
144.8288938271
 30
0.0
 11
608.7726394944
 21
146.2288938271
 31
0.0
  0
SPLINE
  5
AA
330
1F
100
AcDbEntity
  8
0
  6
Continuous
 62
     7
370
    25
100
AcDbSpline
210
0.0
220
0.0
230
1.0
 70
     8
 71
     3
 72
    20
 73
    16
 74
     0
 42
0.000000001
 43
0.00000001
 40
0.0
 40
0.0
 40
0.0
 40
0.0
 40
0.1249999999999996
 40
0.1249999999999996
 40
0.2499999999999993
 40
0.2499999999999993
 40
0.3749999999999989
 40
0.3749999999999989
 40
0.4999999999999986
 40
0.4999999999999986
 40
0.7500000000000004
 40
0.7500000000000004
 40
0.8750000000000001
 40
0.8750000000000001
 40
1.0
 40
1.0
 40
1.0
 40
1.0
 10
217.6433501724775
 20
147.2288938270941
 30
0.0
 10
217.4849709848268
 20
147.1898530962396
 30
0.0
 10
217.3287252601351
 20
147.1513343920398
 30
0.0
 10
217.0207334107185
 20
147.0739276407319
 30
0.0
 10
216.8680893032473
 20
147.0347832227451
 30
0.0
 10
216.5790050140602
 20
146.95763246883
 30
0.0
 10
216.4412004758762
 20
146.9193048870889
 30
0.0
 10
216.1795818002373
 20
146.8417585666124
 30
0.0
 10
216.0568354935547
 20
146.8027823589437
 30
0.0
 10
215.7255111166071
 20
146.6872875024987
 30
0.0
 10
215.5464999925787
 20
146.6093750588286
 30
0.0
 10
215.3668848931978
 20
146.4938951334277
 30
0.0
 10
215.3206405443301
 20
146.4550293375626
 30
0.0
 10
215.2588872383189
 20
146.3772550038941
 30
0.0
 10
215.2433501724774
 20
146.3386452369394
 30
0.0
 10
215.2433501724775
 20
146.2996045052127
 30
0.0
  0
SPLINE
  5
AB
330
1F
100
AcDbEntity
  8
0
  6
Continuous
 62
     7
370
    25
100
AcDbSpline
210
0.0
220
0.0
230
1.0
 70
     8
 71
     3
 72
    14
 73
    10
 74
     0
 42
0.000000001
 43
0.00000001
 40
0.0
 40
0.0
 40
0.0
 40
0.0
 40
0.25
 40
0.25
 40
0.5
 40
0.5
 40
0.75
 40
0.75
 40
1.0
 40
1.0
 40
1.0
 40
1.0
 10
217.6433501724775
 20
147.2288938270941
 30
0.0
 10
217.5111647566186
 20
147.1506924120725
 30
0.0
 10
217.383182738085
 20
147.0749824647756
 30
0.0
 10
217.1405587131377
 20
146.9197020531285
 30
0.0
 10
217.0301164487277
 20
146.8426922035455
 30
0.0
 10
216.8441195515344
 20
146.687268717518
 30
0.0
 10
216.770318572696
 20
146.6103190005996
 30
0.0
 10
216.6694999883009
 20
146.4548890213505
 30
0.0
 10
216.6433501724775
 20
146.3778059127778
 30
0.0
 10
216.6433501724775
 20
146.2996045052127
 30
0.0
  0
LINE
  5
AC
330
1F
100
AcDbEntity
  8
0
  6
Continuous
 62
     7
370
    25
100
AcDbLine
 10
215.2433501725
 20
146.2996045052
 30
0.0
 11
216.6433501725
 21
146.2996045052
 31
0.0
  0
LINE
  5
AD
330
1F
100
AcDbEntity
  8
0
  6
Continuous
 62
     7
370
    25
100
AcDbLine
 10
216.7140608506
 20
144.8288938271
 30
0.0
 11
608.7726394944
 21
144.8288938271
 31
0.0
  0
SPLINE
  5
AE
330
1F
100
AcDbEntity
  8
0
  6
Continuous
 62
     7
370
    25
100
AcDbSpline
210
0.0
220
0.0
230
1.0
 70
     8
 71
     3
 72
    20
 73
    16
 74
     0
 42
0.000000001
 43
0.00000001
 40
0.0
 40
0.0
 40
0.0
 40
0.0
 40
0.1250000000000006
 40
0.1250000000000006
 40
0.2500000000000012
 40
0.2500000000000012
 40
0.3750000000000018
 40
0.3750000000000018
 40
0.5000000000000024
 40
0.5000000000000024
 40
0.7500000000000039
 40
0.7500000000000039
 40
0.875000000000002
 40
0.875000000000002
 40
1.0
 40
1.0
 40
1.0
 40
1.0
 10
216.7140608505961
 20
144.8288938270941
 30
0.0
 10
216.7531015814506
 20
144.8288938270941
 30
0.0
 10
216.7916202856504
 20
144.844430387569
 30
0.0
 10
216.8690270369583
 20
144.9057487395296
 30
0.0
 10
216.908171454945
 20
144.9521724851164
 30
0.0
 10
216.9853222088603
 20
145.0721233552705
 30
0.0
 10
217.0236497906012
 20
145.1457279995539
 30
0.0
 10
217.1011961110778
 20
145.3204583656496
 30
0.0
 10
217.1401723187465
 20
145.4213089945511
 30
0.0
 10
217.2556671751916
 20
145.7525942745351
 30
0.0
 10
217.3335796188616
 20
146.0202744359189
 30
0.0
 10
217.4490595442625
 20
146.4529484619743
 30
0.0
 10
217.4879253401275
 20
146.6044665488254
 30
0.0
 10
217.565699673796
 20
146.9138923062116
 30
0.0
 10
217.6043094407508
 20
147.0705146359053
 30
0.0
 10
217.6433501724775
 20
147.228893827094
 30
0.0
  0
LINE
  5
AF
330
1F
100
AcDbEntity
  8
0
  6
Continuous
 62
     7
370
    25
100
AcDbLine
 10
215.2433501725
 20
389.358183149
 30
0.0
 11
215.2433501725
 21
146.2996045052
 31
0.0
  0
SPLINE
  5
B0
330
1F
100
AcDbEntity
  8
0
  6
Continuous
 62
     7
370
    25
100
AcDbSpline
210
0.0
220
0.0
230
1.0
 70
     8
 71
     3
 72
    20
 73
    16
 74
     0
 42
0.000000001
 43
0.00000001
 40
0.0
 40
0.0
 40
0.0
 40
0.0
 40
0.1250000000000012
 40
0.1250000000000012
 40
0.2500000000000024
 40
0.2500000000000024
 40
0.3750000000000036
 40
0.3750000000000036
 40
0.5000000000000048
 40
0.5000000000000048
 40
0.7500000000000049
 40
0.7500000000000049
 40
0.8750000000000023
 40
0.8750000000000023
 40
1.0
 40
1.0
 40
1.0
 40
1.0
 10
217.6433501724775
 20
388.428893827094
 30
0.0
 10
217.6043094416229
 20
388.5872730147448
 30
0.0
 10
217.5657907374232
 20
388.7435187394365
 30
0.0
 10
217.4883839861153
 20
389.0515105888531
 30
0.0
 10
217.4492395681286
 20
389.2041546963242
 30
0.0
 10
217.3720888142134
 20
389.4932389855113
 30
0.0
 10
217.3337612324723
 20
389.6310435236954
 30
0.0
 10
217.2562149119957
 20
389.8926621993343
 30
0.0
 10
217.217238704327
 20
390.0154085060169
 30
0.0
 10
217.1017438478819
 20
390.3467328829646
 30
0.0
 10
217.0238314042119
 20
390.5257440069928
 30
0.0
 10
216.9083514788111
 20
390.7053591063737
 30
0.0
 10
216.869485682946
 20
390.7516034552414
 30
0.0
 10
216.7917113492775
 20
390.8133567612527
 30
0.0
 10
216.7531015823227
 20
390.8288938270941
 30
0.0
 10
216.7140608505961
 20
390.8288938270941
 30
0.0
  0
LINE
  5
B1
330
1F
100
AcDbEntity
  8
0
  6
Continuous
 62
     7
370
    25
100
AcDbLine
 10
608.7726394944
 20
390.8288938271
 30
0.0
 11
216.7140608506
 21
390.8288938271
 31
0.0
  0
SPLINE
  5
B2
330
1F
100
AcDbEntity
  8
0
  6
Continuous
 62
     7
370
    25
100
AcDbSpline
210
0.0
220
0.0
230
1.0
 70
     8
 71
     3
 72
    20
 73
    16
 74
     0
 42
0.000000001
 43
0.00000001
 40
0.0
 40
0.0
 40
0.0
 40
0.0
 40
0.1249999999999986
 40
0.1249999999999986
 40
0.2499999999999974
 40
0.2499999999999974
 40
0.3749999999999962
 40
0.3749999999999962
 40
0.499999999999995
 40
0.499999999999995
 40
0.75
 40
0.75
 40
0.875
 40
0.875
 40
1.0
 40
1.0
 40
1.0
 40
1.0
 10
608.7726394943589
 20
390.8288938270941
 30
0.0
 10
608.7335987635045
 20
390.8288938270941
 30
0.0
 10
608.6950800593046
 20
390.8133572666193
 30
0.0
 10
608.6176733079967
 20
390.7520389146587
 30
0.0
 10
608.5785288900099
 20
390.7056151690718
 30
0.0
 10
608.5013781360948
 20
390.5856642989178
 30
0.0
 10
608.4630505543537
 20
390.5120596546343
 30
0.0
 10
608.3855042338772
 20
390.3373292885387
 30
0.0
 10
608.3465280262085
 20
390.2364786596371
 30
0.0
 10
608.2310331697634
 20
389.9051933796532
 30
0.0
 10
608.1531207260934
 20
389.6375132182694
 30
0.0
 10
608.0376408006925
 20
389.204839192214
 30
0.0
 10
607.9987750048275
 20
389.0533211053628
 30
0.0
 10
607.9210006711588
 20
388.7438953479767
 30
0.0
 10
607.8823909042042
 20
388.587273018283
 30
0.0
 10
607.8433501724775
 20
388.4288938270942
 30
0.0
  0
SPLINE
  5
B3
330
1F
100
AcDbEntity
  8
0
  6
Continuous
 62
     7
370
    25
100
AcDbSpline
210
0.0
220
0.0
230
1.0
 70
     8
 71
     3
 72
    14
 73
    10
 74
     0
 42
0.000000001
 43
0.00000001
 40
0.0
 40
0.0
 40
0.0
 40
0.0
 40
0.25
 40
0.25
 40
0.5
 40
0.5
 40
0.75
 40
0.75
 40
1.0
 40
1.0
 40
1.0
 40
1.0
 10
217.6433501724775
 20
388.4288938270941
 30
0.0
 10
217.5651487574559
 20
388.561079242953
 30
0.0
 10
217.4894388101589
 20
388.6890612614866
 30
0.0
 10
217.334158398512
 20
388.9316852864339
 30
0.0
 10
217.2571485489288
 20
389.042127550844
 30
0.0
 10
217.1017250629014
 20
389.2281244480373
 30
0.0
 10
217.024775345983
 20
389.3019254268755
 30
0.0
 10
216.8693453667339
 20
389.4027440112707
 30
0.0
 10
216.7922622581611
 20
389.4288938270941
 30
0.0
 10
216.7140608505961
 20
389.4288938270941
 30
0.0
  0
LINE
  5
B4
330
1F
100
AcDbEntity
  8
0
  6
Continuous
 62
     7
370
    25
100
AcDbLine
 10
216.7140608506
 20
390.8288938271
 30
0.0
 11
216.7140608506
 21
389.4288938271
 31
0.0
  0
LINE
  5
B5
330
1F
100
AcDbEntity
  8
0
  6
Continuous
 62
     7
370
    25
100
AcDbLine
 10
216.7140608506
 20
144.8288938271
 30
0.0
 11
216.7140608506
 21
146.2288938271
 31
0.0
  0
SPLINE
  5
B6
330
1F
100
AcDbEntity
  8
0
  6
Continuous
 62
     7
370
    25
100
AcDbSpline
210
0.0
220
0.0
230
1.0
 70
     8
 71
     3
 72
    14
 73
    10
 74
     0
 42
0.000000001
 43
0.00000001
 40
0.0
 40
0.0
 40
0.0
 40
0.0
 40
0.2500000000000003
 40
0.2500000000000003
 40
0.5000000000000002
 40
0.5000000000000002
 40
0.7500000000000001
 40
0.7500000000000001
 40
1.0
 40
1.0
 40
1.0
 40
1.0
 10
216.7140608505961
 20
146.2288938270941
 30
0.0
 10
216.7922622656177
 20
146.2288938270941
 30
0.0
 10
216.8679722129146
 20
146.2544524917744
 30
0.0
 10
217.0232526245616
 20
146.354580520371
 30
0.0
 10
217.1002624741446
 20
146.4281446996754
 30
0.0
 10
217.2556859601722
 20
146.6136823353673
 30
0.0
 10
217.3326356770906
 20
146.7238472563268
 30
0.0
 10
217.4880656563398
 20
146.9664590130161
 30
0.0
 10
217.5651487649125
 20
147.0967084238392
 30
0.0
 10
217.6433501724775
 20
147.2288938270941
 30
0.0
  0
LINE
  5
B7
330
1F
100
AcDbEntity
  8
0
  6
Continuous
 62
     7
370
    25
100
AcDbLine
 10
608.7726394944
 20
390.8288938271
 30
0.0
 11
608.7726394944
 21
389.4288938271
 31
0.0
  0
SPLINE
  5
B8
330
1F
100
AcDbEntity
  8
0
  6
Continuous
 62
     7
370
    25
100
AcDbSpline
210
0.0
220
0.0
230
1.0
 70
     8
 71
     3
 72
    14
 73
    10
 74
     0
 42
0.000000001
 43
0.00000001
 40
0.0
 40
0.0
 40
0.0
 40
0.0
 40
0.2500000000000003
 40
0.2500000000000003
 40
0.5000000000000002
 40
0.5000000000000002
 40
0.7500000000000001
 40
0.7500000000000001
 40
1.0
 40
1.0
 40
1.0
 40
1.0
 10
608.7726394943589
 20
389.4288938270941
 30
0.0
 10
608.6944380793374
 20
389.4288938270941
 30
0.0
 10
608.6187281320404
 20
389.403335162414
 30
0.0
 10
608.4634477203933
 20
389.3032071338173
 30
0.0
 10
608.3864378708104
 20
389.2296429545128
 30
0.0
 10
608.2310143847828
 20
389.0441053188209
 30
0.0
 10
608.1540646678644
 20
388.9339403978615
 30
0.0
 10
607.9986346886154
 20
388.691328641172
 30
0.0
 10
607.9215515800425
 20
388.561079230349
 30
0.0
 10
607.8433501724775
 20
388.4288938270942
 30
0.0
  0
CIRCLE
  5
B9
330
1F
100
AcDbEntity
  8
0
  6
Continuous
 62
     7
370
    25
100
AcDbCircle
 10
271.2433501725
 20
342.8288938271
 30
0.0
 40
5.50000000000004
  0
ARC
  5
BA
330
1F
100
AcDbEntity
  8
0
  6
Continuous
 62
     7
370
    25
100
AcDbCircle
 10
273.4233600741
 20
343.8858299419
 30
0.0
 40
0.5050994627335083
100
AcDbArc
 50
298.8005827702
 51
112.9304972368
  0
ARC
  5
BB
330
1F
100
AcDbEntity
  8
0
  6
Continuous
 62
     7
370
    25
100
AcDbCircle
 10
271.2433501725
 20
342.8288938271
 30
0.0
 40
2.500000000000008
100
AcDbArc
 50
37.506301084
 51
74.2247789229
  0
ARC
  5
BC
330
1F
100
AcDbEntity
  8
0
  6
Continuous
 62
     7
370
    25
100
AcDbCircle
 10
271.4180215977
 20
345.2453058398
 30
0.0
 40
0.5050994627349376
100
AcDbArc
 50
358.800582771
 51
172.930497236
  0
ARC
  5
BD
330
1F
100
AcDbEntity
  8
0
  6
Continuous
 62
     7
370
    25
100
AcDbCircle
 10
271.2433501725
 20
342.8288938271
 30
0.0
 40
2.499999999999935
100
AcDbArc
 50
97.5063010841
 51
134.2247789229
  0
ARC
  5
BE
330
1F
100
AcDbEntity
  8
0
  6
Continuous
 62
     7
370
    25
100
AcDbCircle
 10
269.2380116961
 20
344.188369725
 30
0.0
 40
0.5050994627351415
100
AcDbArc
 50
58.8005827697
 51
232.9304972372
  0
ARC
  5
BF
330
1F
100
AcDbEntity
  8
0
  6
Continuous
 62
     7
370
    25
100
AcDbCircle
 10
271.2433501725
 20
342.8288938271
 30
0.0
 40
2.499999999999955
100
AcDbArc
 50
157.5063010841
 51
194.2247789229
  0
ARC
  5
C0
330
1F
100
AcDbEntity
  8
0
  6
Continuous
 62
     7
370
    25
100
AcDbCircle
 10
269.0633402709
 20
341.7719577123
 30
0.0
 40
0.505099462733295
100
AcDbArc
 50
118.8005827707
 51
292.9304972361
  0
ARC
  5
C1
330
1F
100
AcDbEntity
  8
0
  6
Continuous
 62
     7
370
    25
100
AcDbCircle
 10
271.2433501725
 20
342.8288938271
 30
0.0
 40
2.499999999999933
100
AcDbArc
 50
217.506301084
 51
254.2247789229
  0
ARC
  5
C2
330
1F
100
AcDbEntity
  8
0
  6
Continuous
 62
     7
370
    25
100
AcDbCircle
 10
271.0686787473
 20
340.4124818144
 30
0.0
 40
0.5050994627365611
100
AcDbArc
 50
178.8005827716
 51
352.9304972354
  0
ARC
  5
C3
330
1F
100
AcDbEntity
  8
0
  6
Continuous
 62
     7
370
    25
100
AcDbCircle
 10
271.2433501725
 20
342.8288938271
 30
0.0
 40
2.500000000000021
100
AcDbArc
 50
277.5063010841
 51
314.2247789229
  0
ARC
  5
C4
330
1F
100
AcDbEntity
  8
0
  6
Continuous
 62
     7
370
    25
100
AcDbCircle
 10
273.2486886489
 20
341.4694179292
 30
0.0
 40
0.5050994627356081
100
AcDbArc
 50
238.8005827701
 51
52.9304972368
  0
ARC
  5
C5
330
1F
100
AcDbEntity
  8
0
  6
Continuous
 62
     7
370
    25
100
AcDbCircle
 10
271.2433501725
 20
342.8288938271
 30
0.0
 40
2.499999999999984
100
AcDbArc
 50
337.5063010841
 51
14.2247789229
  0
CIRCLE
  5
C6
330
1F
100
AcDbEntity
  8
0
  6
Continuous
 62
     7
370
    25
100
AcDbCircle
 10
554.2433501725
 20
342.8288938271
 30
0.0
 40
5.500000000000091
  0
ARC
  5
C7
330
1F
100
AcDbEntity
  8
0
  6
Continuous
 62
     7
370
    25
100
AcDbCircle
 10
554.27601703
 20
345.2513904728
 30
0.0
 40
0.5050994627334843
100
AcDbArc
 50
2.1624680629
 51
176.2923825295
  0
ARC
  5
C8
330
1F
100
AcDbEntity
  8
0
  6
Continuous
 62
     7
370
    25
100
AcDbCircle
 10
554.2433501725
 20
342.8288938271
 30
0.0
 40
2.50000000000002
100
AcDbArc
 50
100.8681863767
 51
137.5866642156
  0
ARC
  5
C9
330
1F
100
AcDbEntity
  8
0
  6
Continuous
 62
     7
370
    25
100
AcDbCircle
 10
552.1617399655
 20
344.0684324784
 30
0.0
 40
0.505099462734931
100
AcDbArc
 50
62.1624680637
 51
236.2923825287
  0
ARC
  5
CA
330
1F
100
AcDbEntity
  8
0
  6
Continuous
 62
     7
370
    25
100
AcDbCircle
 10
554.2433501725
 20
342.8288938271
 30
0.0
 40
2.499999999999925
100
AcDbArc
 50
160.8681863768
 51
197.5866642156
  0
ARC
  5
CB
330
1F
100
AcDbEntity
  8
0
  6
Continuous
 62
     7
370
    25
100
AcDbCircle
 10
552.129073108
 20
341.6459358327
 30
0.0
 40
0.5050994627351374
100
AcDbArc
 50
122.1624680624
 51
296.2923825299
  0
ARC
  5
CC
330
1F
100
AcDbEntity
  8
0
  6
Continuous
 62
     7
370
    25
100
AcDbCircle
 10
554.2433501725
 20
342.8288938271
 30
0.0
 40
2.499999999999965
100
AcDbArc
 50
220.8681863768
 51
257.5866642156
  0
ARC
  5
CD
330
1F
100
AcDbEntity
  8
0
  6
Continuous
 62
     7
370
    25
100
AcDbCircle
 10
554.210683315
 20
340.4063971814
 30
0.0
 40
0.5050994627333789
100
AcDbArc
 50
182.1624680634
 51
356.2923825288
  0
ARC
  5
CE
330
1F
100
AcDbEntity
  8
0
  6
Continuous
 62
     7
370
    25
100
AcDbCircle
 10
554.2433501725
 20
342.8288938271
 30
0.0
 40
2.499999999999967
100
AcDbArc
 50
280.8681863767
 51
317.5866642156
  0
ARC
  5
CF
330
1F
100
AcDbEntity
  8
0
  6
Continuous
 62
     7
370
    25
100
AcDbCircle
 10
556.3249603795
 20
341.5893551758
 30
0.0
 40
0.50509946273661
100
AcDbArc
 50
242.1624680643
 51
56.2923825281
  0
ARC
  5
D0
330
1F
100
AcDbEntity
  8
0
  6
Continuous
 62
     7
370
    25
100
AcDbCircle
 10
554.2433501725
 20
342.8288938271
 30
0.0
 40
2.499999999999874
100
AcDbArc
 50
340.8681863768
 51
17.5866642156
  0
ARC
  5
D1
330
1F
100
AcDbEntity
  8
0
  6
Continuous
 62
     7
370
    25
100
AcDbCircle
 10
556.357627237
 20
344.0118518215
 30
0.0
 40
0.5050994627355271
100
AcDbArc
 50
302.1624680628
 51
116.2923825295
  0
ARC
  5
D2
330
1F
100
AcDbEntity
  8
0
  6
Continuous
 62
     7
370
    25
100
AcDbCircle
 10
554.2433501725
 20
342.8288938271
 30
0.0
 40
2.499999999999937
100
AcDbArc
 50
40.8681863768
 51
77.5866642156
  0
CIRCLE
  5
D3
330
1F
100
AcDbEntity
  8
0
  6
Continuous
 62
     7
370
    25
100
AcDbCircle
 10
554.2433501725
 20
192.8288938271
 30
0.0
 40
5.500000000000113
  0
ARC
  5
D4
330
1F
100
AcDbEntity
  8
0
  6
Continuous
 62
     7
370
    25
100
AcDbCircle
 10
554.2433501725
 20
192.8288938271
 30
0.0
 40
2.500000000000021
100
AcDbArc
 50
214.8915298906
 51
251.6100077295
  0
ARC
  5
D5
330
1F
100
AcDbEntity
  8
0
  6
Continuous
 62
     7
370
    25
100
AcDbCircle
 10
554.2433501725
 20
192.8288938271
 30
0.0
 40
2.499999999999956
100
AcDbArc
 50
274.8915298907
 51
311.6100077294
  0
ARC
  5
D6
330
1F
100
AcDbEntity
  8
0
  6
Continuous
 62
     7
370
    25
100
AcDbCircle
 10
556.184580767
 20
191.3793487603
 30
0.0
 40
0.5050994627351528
100
AcDbArc
 50
236.1858115763
 51
50.3157260438
  0
ARC
  5
D7
330
1F
100
AcDbEntity
  8
0
  6
Continuous
 62
     7
370
    25
100
AcDbCircle
 10
554.2433501725
 20
192.8288938271
 30
0.0
 40
2.499999999999936
100
AcDbArc
 50
334.8915298906
 51
11.6100077295
  0
ARC
  5
D8
330
1F
100
AcDbEntity
  8
0
  6
Continuous
 62
     7
370
    25
100
AcDbCircle
 10
556.4693083215
 20
193.7852763032
 30
0.0
 40
0.5050994627332718
100
AcDbArc
 50
296.1858115773
 51
110.3157260427
  0
ARC
  5
D9
330
1F
100
AcDbEntity
  8
0
  6
Continuous
 62
     7
370
    25
100
AcDbCircle
 10
554.2433501725
 20
192.8288938271
 30
0.0
 40
2.499999999999961
100
AcDbArc
 50
94.8915298907
 51
131.6100077294
  0
ARC
  5
DA
330
1F
100
AcDbEntity
  8
0
  6
Continuous
 62
     7
370
    25
100
AcDbCircle
 10
554.2433501725
 20
192.8288938271
 30
0.0
 40
2.500000000000012
100
AcDbArc
 50
154.8915298906
 51
191.6100077295
  0
ARC
  5
DB
330
1F
100
AcDbEntity
  8
0
  6
Continuous
 62
     7
370
    25
100
AcDbCircle
 10
552.3021195779
 20
194.2784388939
 30
0.0
 40
0.505099462735536
100
AcDbArc
 50
56.1858115767
 51
230.3157260434
  0
ARC
  5
DC
330
1F
100
AcDbEntity
  8
0
  6
Continuous
 62
     7
370
    25
100
AcDbCircle
 10
554.2433501725
 20
192.8288938271
 30
0.0
 40
2.500000000000019
100
AcDbArc
 50
34.8915298906
 51
71.6100077295
  0
ARC
  5
DD
330
1F
100
AcDbEntity
  8
0
  6
Continuous
 62
     7
370
    25
100
AcDbCircle
 10
553.958622618
 20
190.4229662842
 30
0.0
 40
0.5050994627349299
100
AcDbArc
 50
176.1858115776
 51
350.3157260426
  0
ARC
  5
DE
330
1F
100
AcDbEntity
  8
0
  6
Continuous
 62
     7
370
    25
100
AcDbCircle
 10
552.0173920234
 20
191.872511351
 30
0.0
 40
0.5050994627335086
100
AcDbArc
 50
116.1858115767
 51
290.3157260433
  0
ARC
  5
DF
330
1F
100
AcDbEntity
  8
0
  6
Continuous
 62
     7
370
    25
100
AcDbCircle
 10
554.528077727
 20
195.23482137
 30
0.0
 40
0.5050994627366275
100
AcDbArc
 50
356.1858115782
 51
170.315726042
  0
ARC
  5
E0
330
1F
100
AcDbEntity
  8
0
  6
Continuous
 62
     7
370
    25
100
AcDbCircle
 10
273.4233600741
 20
193.8858299419
 30
0.0
 40
0.5050994627335043
100
AcDbArc
 50
298.8005827702
 51
112.9304972368
  0
ARC
  5
E1
330
1F
100
AcDbEntity
  8
0
  6
Continuous
 62
     7
370
    25
100
AcDbCircle
 10
271.2433501725
 20
192.8288938271
 30
0.0
 40
2.499999999999945
100
AcDbArc
 50
37.506301084
 51
74.2247789229
  0
ARC
  5
E2
330
1F
100
AcDbEntity
  8
0
  6
Continuous
 62
     7
370
    25
100
AcDbCircle
 10
271.4180215977
 20
195.2453058398
 30
0.0
 40
0.5050994627349068
100
AcDbArc
 50
358.800582771
 51
172.930497236
  0
ARC
  5
E3
330
1F
100
AcDbEntity
  8
0
  6
Continuous
 62
     7
370
    25
100
AcDbCircle
 10
271.2433501725
 20
192.8288938271
 30
0.0
 40
2.499999999999935
100
AcDbArc
 50
97.5063010841
 51
134.2247789229
  0
ARC
  5
E4
330
1F
100
AcDbEntity
  8
0
  6
Continuous
 62
     7
370
    25
100
AcDbCircle
 10
269.2380116961
 20
194.188369725
 30
0.0
 40
0.5050994627351981
100
AcDbArc
 50
58.8005827697
 51
232.9304972372
  0
ARC
  5
E5
330
1F
100
AcDbEntity
  8
0
  6
Continuous
 62
     7
370
    25
100
AcDbCircle
 10
271.2433501725
 20
192.8288938271
 30
0.0
 40
2.499999999999962
100
AcDbArc
 50
157.5063010841
 51
194.2247789229
  0
ARC
  5
E6
330
1F
100
AcDbEntity
  8
0
  6
Continuous
 62
     7
370
    25
100
AcDbCircle
 10
269.0633402709
 20
191.7719577123
 30
0.0
 40
0.5050994627332688
100
AcDbArc
 50
118.8005827707
 51
292.9304972361
  0
ARC
  5
E7
330
1F
100
AcDbEntity
  8
0
  6
Continuous
 62
     7
370
    25
100
AcDbCircle
 10
271.2433501725
 20
192.8288938271
 30
0.0
 40
2.49999999999995
100
AcDbArc
 50
217.506301084
 51
254.2247789229
  0
ARC
  5
E8
330
1F
100
AcDbEntity
  8
0
  6
Continuous
 62
     7
370
    25
100
AcDbCircle
 10
271.0686787473
 20
190.4124818144
 30
0.0
 40
0.5050994627365611
100
AcDbArc
 50
178.8005827716
 51
352.9304972354
  0
ARC
  5
E9
330
1F
100
AcDbEntity
  8
0
  6
Continuous
 62
     7
370
    25
100
AcDbCircle
 10
271.2433501725
 20
192.8288938271
 30
0.0
 40
2.499999999999961
100
AcDbArc
 50
277.5063010841
 51
314.2247789229
  0
ARC
  5
EA
330
1F
100
AcDbEntity
  8
0
  6
Continuous
 62
     7
370
    25
100
AcDbCircle
 10
273.2486886489
 20
191.4694179292
 30
0.0
 40
0.5050994627355058
100
AcDbArc
 50
238.8005827701
 51
52.9304972368
  0
ARC
  5
EB
330
1F
100
AcDbEntity
  8
0
  6
Continuous
 62
     7
370
    25
100
AcDbCircle
 10
271.2433501725
 20
192.8288938271
 30
0.0
 40
2.499999999999984
100
AcDbArc
 50
337.5063010841
 51
14.2247789229
  0
CIRCLE
  5
EC
330
1F
100
AcDbEntity
  8
0
  6
Continuous
 62
     7
370
    25
100
AcDbCircle
 10
271.2433501725
 20
192.8288938271
 30
0.0
 40
5.500000000000088
  0
LINE
  5
ED
330
1F
100
AcDbEntity
  8
0
  6
Continuous
 62
     7
370
    25
100
AcDbLine
 10
259.7433501725
 20
425.3288938271
 30
0.0
 11
260.5433501725
 21
425.3288938271
 31
0.0
  0
LINE
  5
EE
330
1F
100
AcDbEntity
  8
0
  6
Continuous
 62
     7
370
    25
100
AcDbLine
 10
260.5433501725
 20
425.3288938271
 30
0.0
 11
260.5433501725
 21
422.3288938271
 31
0.0
  0
LINE
  5
EF
330
1F
100
AcDbEntity
  8
0
  6
Continuous
 62
     7
370
    25
100
AcDbLine
 10
259.7433501725
 20
422.3288938271
 30
0.0
 11
259.7433501725
 21
425.3288938271
 31
0.0
  0
LINE
  5
F0
330
1F
100
AcDbEntity
  8
0
  6
Continuous
 62
     7
370
    25
100
AcDbLine
 10
259.7433501725
 20
405.3288938271
 30
0.0
 11
260.5433501725
 21
405.3288938271
 31
0.0
  0
LINE
  5
F1
330
1F
100
AcDbEntity
  8
0
  6
Continuous
 62
     7
370
    25
100
AcDbLine
 10
259.7433501725
 20
405.3288938271
 30
0.0
 11
259.7433501725
 21
422.3288938271
 31
0.0
  0
LINE
  5
F2
330
1F
100
AcDbEntity
  8
0
  6
Continuous
 62
     7
370
    25
100
AcDbLine
 10
260.5433501725
 20
405.3288938271
 30
0.0
 11
260.5433501725
 21
422.3288938271
 31
0.0
  0
LINE
  5
F3
330
1F
100
AcDbEntity
  8
0
  6
Continuous
 62
     7
370
    25
100
AcDbLine
 10
565.7433501725
 20
405.3288938271
 30
0.0
 11
564.9433501725
 21
405.3288938271
 31
0.0
  0
LINE
  5
F4
330
1F
100
AcDbEntity
  8
0
  6
Continuous
 62
     7
370
    25
100
AcDbLine
 10
565.7433501725
 20
422.3288938271
 30
0.0
 11
565.7433501725
 21
405.3288938271
 31
0.0
  0
LINE
  5
F5
330
1F
100
AcDbEntity
  8
0
  6
Continuous
 62
     7
370
    25
100
AcDbLine
 10
564.9433501725
 20
422.3288938271
 30
0.0
 11
564.9433501725
 21
405.3288938271
 31
0.0
  0
LINE
  5
F6
330
1F
100
AcDbEntity
  8
0
  6
Continuous
 62
     7
370
    25
100
AcDbLine
 10
564.9433501725
 20
425.3288938271
 30
0.0
 11
565.7433501725
 21
425.3288938271
 31
0.0
  0
LINE
  5
F7
330
1F
100
AcDbEntity
  8
0
  6
Continuous
 62
     7
370
    25
100
AcDbLine
 10
565.7433501725
 20
425.3288938271
 30
0.0
 11
565.7433501725
 21
422.3288938271
 31
0.0
  0
LINE
  5
F8
330
1F
100
AcDbEntity
  8
0
  6
Continuous
 62
     7
370
    25
100
AcDbLine
 10
564.9433501725
 20
422.3288938271
 30
0.0
 11
564.9433501725
 21
425.3288938271
 31
0.0
  0
LINE
  5
F9
330
1F
100
AcDbEntity
  8
0
  6
Continuous
 62
     7
370
    25
100
AcDbLine
 10
260.5433501725
 20
390.8288938271
 30
0.0
 11
260.5433501725
 21
402.1288938271
 31
0.0
  0
LINE
  5
FA
330
1F
100
AcDbEntity
  8
0
  6
Continuous
 62
     7
370
    25
100
AcDbLine
 10
260.5433501725
 20
403.8288938271
 30
0.0
 11
260.5433501725
 21
405.3288938271
 31
0.0
  0
LINE
  5
FB
330
1F
100
AcDbEntity
  8
0
  6
Continuous
 62
     7
370
    25
100
AcDbLine
 10
259.7433501725
 20
390.8288938271
 30
0.0
 11
259.7433501725
 21
405.3288938271
 31
0.0
  0
LINE
  5
FC
330
1F
100
AcDbEntity
  8
0
  6
Continuous
 62
     7
370
    25
100
AcDbLine
 10
565.7433501725
 20
405.3288938271
 30
0.0
 11
565.7433501725
 21
390.8288938271
 31
0.0
  0
LINE
  5
FD
330
1F
100
AcDbEntity
  8
0
  6
Continuous
 62
     7
370
    25
100
AcDbLine
 10
564.9433501725
 20
405.3288938271
 30
0.0
 11
564.9433501725
 21
403.8288938271
 31
0.0
  0
LINE
  5
FE
330
1F
100
AcDbEntity
  8
0
  6
Continuous
 62
     7
370
    25
100
AcDbLine
 10
564.9433501725
 20
402.1288938271
 30
0.0
 11
564.9433501725
 21
390.8288938271
 31
0.0
  0
LINE
  5
FF
330
1F
100
AcDbEntity
  8
0
  6
Continuous
 62
     7
370
    25
100
AcDbLine
 10
574.4021001725
 20
390.8288938271
 30
0.0
 11
574.4021001725
 21
396.8288938271
 31
0.0
  0
LINE
  5
100
330
1F
100
AcDbEntity
  8
0
  6
Continuous
 62
     7
370
    25
100
AcDbLine
 10
574.9433501725
 20
391.9445009114
 30
0.0
 11
574.9433501725
 21
396.2876438271
 31
0.0
  0
LINE
  5
101
330
1F
100
AcDbEntity
  8
0
  6
Continuous
 62
     7
370
    25
100
AcDbLine
 10
574.9433501725
 20
391.3701438271
 30
0.0
 11
574.9433501725
 21
391.9445009114
 31
0.0
  0
LINE
  5
102
330
1F
100
AcDbEntity
  8
0
  6
Continuous
 62
     7
370
    25
100
AcDbLine
 10
260.3224199399
 20
403.8288938271
 30
0.0
 11
565.164280405
 21
403.8288938271
 31
0.0
  0
LINE
  5
103
330
1F
100
AcDbEntity
  8
0
  6
Continuous
 62
     7
370
    25
100
AcDbLine
 10
260.3224199399
 20
402.1288938271
 30
0.0
 11
565.164280405
 21
402.1288938271
 31
0.0
  0
ELLIPSE
  5
104
330
1F
100
AcDbEntity
  8
0
  6
Continuous
 62
     7
370
    25
100
AcDbEllipse
 10
260.3224199399
 20
402.9788938271
 30
0.0
 11
0.0
 21
0.8500000000000227
 31
0.0
210
0.0
220
0.0
230
1.0
 40
0.0930232558
 41
0.0
 42
3.141592653589792
  0
ELLIPSE
  5
105
330
1F
100
AcDbEntity
  8
0
  6
Continuous
 62
     7
370
    25
100
AcDbEllipse
 10
565.164280405
 20
402.9788938271
 30
0.0
 11
0.0
 21
0.8500000000000227
 31
0.0
210
0.0
220
0.0
230
1.0
 40
0.0930232558
 41
3.141592653589792
 42
6.283185307179586
  0
LINE
  5
106
330
1F
100
AcDbEntity
  8
0
  6
Continuous
 62
     7
370
    25
100
AcDbLine
 10
564.2433501725
 20
402.0288938271
 30
0.0
 11
564.2433501725
 21
402.1288938271
 31
0.0
  0
LINE
  5
107
330
1F
100
AcDbEntity
  8
0
  6
Continuous
 62
     7
370
    25
100
AcDbLine
 10
261.2433501725
 20
402.1288938271
 30
0.0
 11
261.2433501725
 21
402.0288938271
 31
0.0
  0
LINE
  5
108
330
1F
100
AcDbEntity
  8
0
  6
Continuous
 62
     7
370
    25
100
AcDbLine
 10
564.2433501725
 20
390.8288938271
 30
0.0
 11
564.2433501725
 21
402.0288938271
 31
0.0
  0
LINE
  5
109
330
1F
100
AcDbEntity
  8
0
  6
Continuous
 62
     7
370
    25
100
AcDbLine
 10
261.2433501725
 20
402.0288938271
 30
0.0
 11
261.2433501725
 21
390.8288938271
 31
0.0
  0
LINE
  5
10A
330
1F
100
AcDbEntity
  8
0
  6
Continuous
 62
     7
370
    25
100
AcDbLine
 10
251.0846001725
 20
395.1252596734
 30
0.0
 11
251.0846001725
 21
390.8288938271
 31
0.0
  0
LINE
  5
10B
330
1F
100
AcDbEntity
  8
0
  6
Continuous
 62
     7
370
    25
100
AcDbLine
 10
251.0846001725
 20
396.8288938271
 30
0.0
 11
251.0846001725
 21
395.1252596734
 31
0.0
  0
LINE
  5
10C
330
1F
100
AcDbEntity
  8
0
  6
Continuous
 62
     7
370
    25
100
AcDbLine
 10
250.5433501725
 20
396.2876438271
 30
0.0
 11
250.5433501725
 21
391.3701438271
 31
0.0
  0
ARC
  5
10D
330
1F
100
AcDbEntity
  8
0
  6
Continuous
 62
     7
370
    25
100
AcDbCircle
 10
554.0688164876
 20
395.4051078377
 30
0.0
 40
12.03669752941416
100
AcDbArc
 50
186.2565722694
 51
191.9710500657
  0
ARC
  5
10E
330
1F
100
AcDbEntity
  8
0
  6
Continuous
 62
     7
370
    25
100
AcDbCircle
 10
542.6671361618
 20
403.6543601421
 30
0.0
 40
12.03669752933655
100
AcDbArc
 50
276.2565722693
 51
281.9710500657
  0
ARC
  5
10F
330
1F
100
AcDbEntity
  8
0
  6
Continuous
 62
     7
370
    25
100
AcDbCircle
 10
534.4178838575
 20
392.2526798165
 30
0.0
 40
12.03669752930869
100
AcDbArc
 50
6.2565722693
 51
11.9710500657
  0
ARC
  5
110
330
1F
100
AcDbEntity
  8
0
  6
Continuous
 62
     7
370
    25
100
AcDbCircle
 10
545.8195641831
 20
384.003427512
 30
0.0
 40
12.03669752936466
100
AcDbArc
 50
96.2565722694
 51
101.9710500657
  0
ARC
  5
111
330
1F
100
AcDbEntity
  8
0
  6
Continuous
 62
     7
370
    25
100
AcDbCircle
 10
544.2433501725
 20
393.8288938271
 30
0.0
 40
4.000000000000036
100
AcDbArc
 50
311.4096221093
 51
99.1138111675
  0
ARC
  5
112
330
1F
100
AcDbEntity
  8
0
  6
Continuous
 62
     7
370
    25
100
AcDbCircle
 10
544.2433501725
 20
393.8288938271
 30
0.0
 40
4.000000000000036
100
AcDbArc
 50
99.1138111675
 51
228.5903778907
  0
LINE
  5
113
330
1F
100
AcDbEntity
  8
0
  6
Continuous
 62
     7
370
    25
100
AcDbLine
 10
542.1038114087
 20
394.0933377069
 30
0.0
 11
543.5558871326
 21
394.326281572
 31
0.0
  0
LINE
  5
114
330
1F
100
AcDbEntity
  8
0
  6
Continuous
 62
     7
370
    25
100
AcDbLine
 10
542.2938867036
 20
392.9084869221
 30
0.0
 11
543.7459624275
 21
393.1414307872
 31
0.0
  0
LINE
  5
115
330
1F
100
AcDbEntity
  8
0
  6
Continuous
 62
     7
370
    25
100
AcDbLine
 10
543.7459624275
 20
393.1414307872
 30
0.0
 11
543.9789062927
 21
391.6893550633
 31
0.0
  0
LINE
  5
116
330
1F
100
AcDbEntity
  8
0
  6
Continuous
 62
     7
370
    25
100
AcDbLine
 10
544.5077940522
 20
395.9684325909
 30
0.0
 11
544.7407379174
 21
394.516356867
 31
0.0
  0
LINE
  5
117
330
1F
100
AcDbEntity
  8
0
  6
Continuous
 62
     7
370
    25
100
AcDbLine
 10
544.9308132123
 20
393.3315060821
 30
0.0
 11
546.3828889363
 21
393.5644499473
 31
0.0
  0
LINE
  5
118
330
1F
100
AcDbEntity
  8
0
  6
Continuous
 62
     7
370
    25
100
AcDbLine
 10
543.3229432674
 20
395.778357296
 30
0.0
 11
543.5558871326
 21
394.326281572
 31
0.0
  0
LINE
  5
119
330
1F
100
AcDbEntity
  8
0
  6
Continuous
 62
     7
370
    25
100
AcDbLine
 10
544.9308132123
 20
393.3315060821
 30
0.0
 11
545.1637570775
 21
391.8794303582
 31
0.0
  0
LINE
  5
11A
330
1F
100
AcDbEntity
  8
0
  6
Continuous
 62
     7
370
    25
100
AcDbLine
 10
544.7407379174
 20
394.516356867
 30
0.0
 11
546.1928136414
 21
394.7493007321
 31
0.0
  0
LINE
  5
11B
330
1F
100
AcDbEntity
  8
0
  6
Continuous
 62
     7
370
    25
100
AcDbLine
 10
544.8888442655
 20
394.5401162788
 30
0.0
 11
545.0789195604
 21
393.355265494
 31
0.0
  0
LINE
  5
11C
330
1F
100
AcDbEntity
  8
0
  6
Continuous
 62
     7
370
    25
100
AcDbLine
 10
544.7169785056
 20
394.6644632151
 30
0.0
 11
543.5321277208
 21
394.4743879201
 31
0.0
  0
LINE
  5
11D
330
1F
100
AcDbEntity
  8
0
  6
Continuous
 62
     7
370
    25
100
AcDbLine
 10
544.9545726242
 20
393.183399734
 30
0.0
 11
543.7697218394
 21
392.9933244391
 31
0.0
  0
LINE
  5
11E
330
1F
100
AcDbEntity
  8
0
  6
Continuous
 62
     7
370
    25
100
AcDbLine
 10
543.4077807845
 20
394.3025221602
 30
0.0
 11
543.5978560794
 21
393.1176713754
 31
0.0
  0
ARC
  5
11F
330
1F
100
AcDbEntity
  8
0
  6
Continuous
 62
     7
370
    25
100
AcDbCircle
 10
422.0688164875
 20
395.4051078377
 30
0.0
 40
12.03669752934636
100
AcDbArc
 50
186.2565722693
 51
191.9710500657
  0
ARC
  5
120
330
1F
100
AcDbEntity
  8
0
  6
Continuous
 62
     7
370
    25
100
AcDbCircle
 10
410.6671361618
 20
403.6543601421
 30
0.0
 40
12.03669752932262
100
AcDbArc
 50
276.2565722693
 51
281.9710500657
  0
LINE
  5
121
330
1F
100
AcDbEntity
  8
0
  6
Continuous
 62
     7
370
    25
100
AcDbLine
 10
412.9308132123
 20
393.3315060821
 30
0.0
 11
414.3828889363
 21
393.5644499473
 31
0.0
  0
ARC
  5
122
330
1F
100
AcDbEntity
  8
0
  6
Continuous
 62
     7
370
    25
100
AcDbCircle
 10
402.4178838575
 20
392.2526798165
 30
0.0
 40
12.03669752931121
100
AcDbArc
 50
6.2565722693
 51
11.9710500657
  0
ARC
  5
123
330
1F
100
AcDbEntity
  8
0
  6
Continuous
 62
     7
370
    25
100
AcDbCircle
 10
413.8195641831
 20
384.003427512
 30
0.0
 40
12.03669752935697
100
AcDbArc
 50
96.2565722694
 51
101.9710500657
  0
ARC
  5
124
330
1F
100
AcDbEntity
  8
0
  6
Continuous
 62
     7
370
    25
100
AcDbCircle
 10
412.2433501725
 20
393.8288938271
 30
0.0
 40
4.000000000000049
100
AcDbArc
 50
311.4096221093
 51
99.1138111675
  0
ARC
  5
125
330
1F
100
AcDbEntity
  8
0
  6
Continuous
 62
     7
370
    25
100
AcDbCircle
 10
412.2433501725
 20
393.8288938271
 30
0.0
 40
4.000000000000012
100
AcDbArc
 50
99.1138111675
 51
228.5903778907
  0
LINE
  5
126
330
1F
100
AcDbEntity
  8
0
  6
Continuous
 62
     7
370
    25
100
AcDbLine
 10
411.7459624275
 20
393.1414307872
 30
0.0
 11
411.9789062927
 21
391.6893550633
 31
0.0
  0
LINE
  5
127
330
1F
100
AcDbEntity
  8
0
  6
Continuous
 62
     7
370
    25
100
AcDbLine
 10
410.2938867036
 20
392.9084869221
 30
0.0
 11
411.7459624275
 21
393.1414307872
 31
0.0
  0
LINE
  5
128
330
1F
100
AcDbEntity
  8
0
  6
Continuous
 62
     7
370
    25
100
AcDbLine
 10
412.9308132123
 20
393.3315060821
 30
0.0
 11
413.1637570775
 21
391.8794303582
 31
0.0
  0
LINE
  5
129
330
1F
100
AcDbEntity
  8
0
  6
Continuous
 62
     7
370
    25
100
AcDbLine
 10
410.1038114087
 20
394.0933377069
 30
0.0
 11
411.5558871326
 21
394.326281572
 31
0.0
  0
LINE
  5
12A
330
1F
100
AcDbEntity
  8
0
  6
Continuous
 62
     7
370
    25
100
AcDbLine
 10
412.7407379174
 20
394.516356867
 30
0.0
 11
414.1928136414
 21
394.7493007321
 31
0.0
  0
LINE
  5
12B
330
1F
100
AcDbEntity
  8
0
  6
Continuous
 62
     7
370
    25
100
AcDbLine
 10
412.5077940522
 20
395.9684325909
 30
0.0
 11
412.7407379174
 21
394.516356867
 31
0.0
  0
LINE
  5
12C
330
1F
100
AcDbEntity
  8
0
  6
Continuous
 62
     7
370
    25
100
AcDbLine
 10
411.3229432674
 20
395.778357296
 30
0.0
 11
411.5558871326
 21
394.326281572
 31
0.0
  0
LINE
  5
12D
330
1F
100
AcDbEntity
  8
0
  6
Continuous
 62
     7
370
    25
100
AcDbLine
 10
412.8888442655
 20
394.5401162788
 30
0.0
 11
413.0789195604
 21
393.355265494
 31
0.0
  0
LINE
  5
12E
330
1F
100
AcDbEntity
  8
0
  6
Continuous
 62
     7
370
    25
100
AcDbLine
 10
412.9545726242
 20
393.183399734
 30
0.0
 11
411.7697218394
 21
392.9933244391
 31
0.0
  0
LINE
  5
12F
330
1F
100
AcDbEntity
  8
0
  6
Continuous
 62
     7
370
    25
100
AcDbLine
 10
412.7169785056
 20
394.6644632151
 30
0.0
 11
411.5321277208
 21
394.4743879201
 31
0.0
  0
LINE
  5
130
330
1F
100
AcDbEntity
  8
0
  6
Continuous
 62
     7
370
    25
100
AcDbLine
 10
411.4077807845
 20
394.3025221602
 30
0.0
 11
411.5978560794
 21
393.1176713754
 31
0.0
  0
ARC
  5
131
330
1F
100
AcDbEntity
  8
0
  6
Continuous
 62
     7
370
    25
100
AcDbCircle
 10
291.0688164875
 20
395.4051078377
 30
0.0
 40
12.03669752935401
100
AcDbArc
 50
186.2565722694
 51
191.9710500657
  0
ARC
  5
132
330
1F
100
AcDbEntity
  8
0
  6
Continuous
 62
     7
370
    25
100
AcDbCircle
 10
279.6671361618
 20
403.6543601421
 30
0.0
 40
12.03669752932635
100
AcDbArc
 50
276.2565722693
 51
281.9710500657
  0
LINE
  5
133
330
1F
100
AcDbEntity
  8
0
  6
Continuous
 62
     7
370
    25
100
AcDbLine
 10
281.9308132123
 20
393.3315060821
 30
0.0
 11
282.1637570775
 21
391.8794303582
 31
0.0
  0
ARC
  5
134
330
1F
100
AcDbEntity
  8
0
  6
Continuous
 62
     7
370
    25
100
AcDbCircle
 10
271.4178838575
 20
392.2526798165
 30
0.0
 40
12.03669752932599
100
AcDbArc
 50
6.2565722693
 51
11.9710500657
  0
LINE
  5
135
330
1F
100
AcDbEntity
  8
0
  6
Continuous
 62
     7
370
    25
100
AcDbLine
 10
281.7407379174
 20
394.516356867
 30
0.0
 11
283.1928136414
 21
394.7493007321
 31
0.0
  0
ARC
  5
136
330
1F
100
AcDbEntity
  8
0
  6
Continuous
 62
     7
370
    25
100
AcDbCircle
 10
282.8195641831
 20
384.003427512
 30
0.0
 40
12.03669752935123
100
AcDbArc
 50
96.2565722694
 51
101.9710500657
  0
ARC
  5
137
330
1F
100
AcDbEntity
  8
0
  6
Continuous
 62
     7
370
    25
100
AcDbCircle
 10
281.2433501725
 20
393.8288938271
 30
0.0
 40
4.000000000000012
100
AcDbArc
 50
311.4096221093
 51
99.1138111675
  0
ARC
  5
138
330
1F
100
AcDbEntity
  8
0
  6
Continuous
 62
     7
370
    25
100
AcDbCircle
 10
281.2433501725
 20
393.8288938271
 30
0.0
 40
4.000000000000012
100
AcDbArc
 50
99.1138111675
 51
228.5903778907
  0
LINE
  5
139
330
1F
100
AcDbEntity
  8
0
  6
Continuous
 62
     7
370
    25
100
AcDbLine
 10
279.1038114087
 20
394.0933377069
 30
0.0
 11
280.5558871326
 21
394.326281572
 31
0.0
  0
LINE
  5
13A
330
1F
100
AcDbEntity
  8
0
  6
Continuous
 62
     7
370
    25
100
AcDbLine
 10
279.2938867036
 20
392.9084869221
 30
0.0
 11
280.7459624275
 21
393.1414307872
 31
0.0
  0
LINE
  5
13B
330
1F
100
AcDbEntity
  8
0
  6
Continuous
 62
     7
370
    25
100
AcDbLine
 10
281.9308132123
 20
393.3315060821
 30
0.0
 11
283.3828889363
 21
393.5644499473
 31
0.0
  0
LINE
  5
13C
330
1F
100
AcDbEntity
  8
0
  6
Continuous
 62
     7
370
    25
100
AcDbLine
 10
281.5077940522
 20
395.9684325909
 30
0.0
 11
281.7407379174
 21
394.516356867
 31
0.0
  0
LINE
  5
13D
330
1F
100
AcDbEntity
  8
0
  6
Continuous
 62
     7
370
    25
100
AcDbLine
 10
280.7459624275
 20
393.1414307872
 30
0.0
 11
280.9789062927
 21
391.6893550633
 31
0.0
  0
LINE
  5
13E
330
1F
100
AcDbEntity
  8
0
  6
Continuous
 62
     7
370
    25
100
AcDbLine
 10
280.3229432674
 20
395.778357296
 30
0.0
 11
280.5558871326
 21
394.326281572
 31
0.0
  0
LINE
  5
13F
330
1F
100
AcDbEntity
  8
0
  6
Continuous
 62
     7
370
    25
100
AcDbLine
 10
281.8888442655
 20
394.5401162788
 30
0.0
 11
282.0789195604
 21
393.355265494
 31
0.0
  0
LINE
  5
140
330
1F
100
AcDbEntity
  8
0
  6
Continuous
 62
     7
370
    25
100
AcDbLine
 10
281.9545726242
 20
393.183399734
 30
0.0
 11
280.7697218394
 21
392.9933244391
 31
0.0
  0
LINE
  5
141
330
1F
100
AcDbEntity
  8
0
  6
Continuous
 62
     7
370
    25
100
AcDbLine
 10
281.7169785056
 20
394.6644632151
 30
0.0
 11
280.5321277208
 21
394.4743879201
 31
0.0
  0
LINE
  5
142
330
1F
100
AcDbEntity
  8
0
  6
Continuous
 62
     7
370
    25
100
AcDbLine
 10
280.4077807845
 20
394.3025221602
 30
0.0
 11
280.5978560794
 21
393.1176713754
 31
0.0
  0
SPLINE
  5
143
330
1F
100
AcDbEntity
  8
0
  6
Continuous
 62
     7
370
    25
100
AcDbSpline
210
0.0
220
0.0
230
1.0
 70
    24
 71
     3
 72
    18
 73
    14
 74
     0
 42
0.000000001
 43
0.00000001
 40
0.0
 40
0.0
 40
0.0
 40
0.0
 40
0.1395442450004755
 40
0.2146633576115607
 40
0.2913766055701594
 40
0.3680898535287577
 40
0.4432089661398432
 40
0.582753211140318
 40
0.7222974561407931
 40
0.7974165687518795
 40
0.874129816710477
 40
0.9508430646690749
 40
1.0
 40
1.0
 40
1.0
 40
1.0
 10
261.5433501724781
 20
413.5983657703271
 30
0.0
 10
261.5433501724781
 20
413.9834966622527
 30
0.0
 10
261.543350172478
 20
414.5759502627607
 30
0.0
 10
261.5433501724781
 20
415.8118644441456
 30
0.0
 10
261.5433501724781
 20
416.8878940565005
 30
0.0
 10
261.5433501724781
 20
418.0514221770494
 30
0.0
 10
261.5433501724781
 20
419.5718693680676
 30
0.0
 10
261.5433501724781
 20
421.3960593660743
 30
0.0
 10
261.5433501724781
 20
422.9112943206667
 30
0.0
 10
261.5433501724781
 20
423.8290416190966
 30
0.0
 10
261.5433501724781
 20
424.3326584374503
 30
0.0
 10
261.5433501724781
 20
424.6047955621902
 30
0.0
 10
261.5433501724781
 20
424.6028877193043
 30
0.0
 10
261.5433501724781
 20
424.6021426364982
 30
0.0
  0
SPLINE
  5
144
330
1F
100
AcDbEntity
  8
0
  6
Continuous
 62
     7
370
    25
100
AcDbSpline
210
0.0
220
0.0
230
1.0
 70
     8
 71
     3
 72
     8
 73
     4
 74
     0
 42
0.000000001
 43
0.00000001
 40
0.0
 40
0.0
 40
0.0
 40
0.0
 40
1.0
 40
1.0
 40
1.0
 40
1.0
 10
265.543350172471
 20
416.0042244159611
 30
0.0
 10
265.543350172471
 20
416.8172139876663
 30
0.0
 10
265.3690348720917
 20
417.6079523837341
 30
0.0
 10
265.0967681850797
 20
418.3861873822109
 30
0.0
  0
SPLINE
  5
145
330
1F
100
AcDbEntity
  8
0
  6
Continuous
 62
     7
370
    25
100
AcDbSpline
210
0.0
220
0.0
230
1.0
 70
     8
 71
     3
 72
     8
 73
     4
 74
     0
 42
0.000000001
 43
0.00000001
 40
0.0
 40
0.0
 40
0.0
 40
0.0
 40
1.0
 40
1.0
 40
1.0
 40
1.0
 10
265.0967681850797
 20
413.6222614497113
 30
0.0
 10
265.369034872091
 20
414.4004964481862
 30
0.0
 10
265.543350172471
 20
415.191234844258
 30
0.0
 10
265.543350172471
 20
416.0042244159611
 30
0.0
  0
LINE
  5
146
330
1F
100
AcDbEntity
  8
0
  6
Continuous
 62
     7
370
    25
100
AcDbLine
 10
261.5433501725
 20
413.6222614497
 30
0.0
 11
265.0967681851
 21
413.6222614497
 31
0.0
  0
LINE
  5
147
330
1F
100
AcDbEntity
  8
0
  6
Continuous
 62
     7
370
    25
100
AcDbLine
 10
265.0967681851
 20
418.3861873822
 30
0.0
 11
261.5433501725
 21
418.3861873822
 31
0.0
  0
SPLINE
  5
148
330
1F
100
AcDbEntity
  8
0
  6
Continuous
 62
     7
370
    25
100
AcDbSpline
210
0.0
220
0.0
230
1.0
 70
     8
 71
     3
 72
     8
 73
     4
 74
     0
 42
0.000000001
 43
0.00000001
 40
0.0
 40
0.0
 40
0.0
 40
0.0
 40
1.0
 40
1.0
 40
1.0
 40
1.0
 10
265.5433501724709
 20
420.9895035709076
 30
0.0
 10
265.5433501724709
 20
421.8780433774634
 30
0.0
 10
265.3690348720916
 20
422.7422642308825
 30
0.0
 10
265.0967681850797
 20
423.5928197595975
 30
0.0
  0
SPLINE
  5
149
330
1F
100
AcDbEntity
  8
0
  6
Continuous
 62
     7
370
    25
100
AcDbSpline
210
0.0
220
0.0
230
1.0
 70
     8
 71
     3
 72
     8
 73
     4
 74
     0
 42
0.000000001
 43
0.00000001
 40
0.0
 40
0.0
 40
0.0
 40
0.0
 40
1.0
 40
1.0
 40
1.0
 40
1.0
 10
265.0967681850797
 20
418.3861873822175
 30
0.0
 10
265.3690348720911
 20
419.2367429109314
 30
0.0
 10
265.5433501724709
 20
420.1009637643531
 30
0.0
 10
265.5433501724709
 20
420.9895035709076
 30
0.0
  0
LINE
  5
14A
330
1F
100
AcDbEntity
  8
0
  6
Continuous
 62
     7
370
    25
100
AcDbLine
 10
261.5433501725
 20
423.5928197596
 30
0.0
 11
265.0967681851
 21
423.5928197596
 31
0.0
  0
LINE
  5
14B
330
1F
100
AcDbEntity
  8
0
  6
Continuous
 62
     7
370
    25
100
AcDbLine
 10
265.5433501725
 20
416.004224416
 30
0.0
 11
265.5433501725
 21
420.9895035709
 31
0.0
  0
SPLINE
  5
14C
330
1F
100
AcDbEntity
  8
0
  6
Continuous
 62
     7
370
    25
100
AcDbSpline
210
0.0
220
0.0
230
1.0
 70
     8
 71
     3
 72
     8
 73
     4
 74
     0
 42
0.000000001
 43
0.00000001
 40
0.0
 40
0.0
 40
0.0
 40
0.0
 40
1.0
 40
1.0
 40
1.0
 40
1.0
 10
265.0967681850798
 20
423.5928197596013
 30
0.0
 10
265.3690348720912
 20
423.6651402898401
 30
0.0
 10
265.5433501724711
 20
423.7386227471906
 30
0.0
 10
265.5433501724711
 20
423.8141729820417
 30
0.0
  0
LINE
  5
14D
330
1F
100
AcDbEntity
  8
0
  6
Continuous
 62
     7
370
    25
100
AcDbLine
 10
265.5433501725
 20
420.9895035709
 30
0.0
 11
265.5433501725
 21
423.814172982
 31
0.0
  0
SPLINE
  5
14E
330
1F
100
AcDbEntity
  8
0
  6
Continuous
 62
     7
370
    25
100
AcDbSpline
210
0.0
220
0.0
230
1.0
 70
     8
 71
     3
 72
     8
 73
     4
 74
     0
 42
0.000000001
 43
0.00000001
 40
0.0
 40
0.0
 40
0.0
 40
0.0
 40
1.0
 40
1.0
 40
1.0
 40
1.0
 10
265.5433501724711
 20
413.843614672149
 30
0.0
 10
265.5433501724711
 20
413.7680644372978
 30
0.0
 10
265.3690348720916
 20
413.6945819799475
 30
0.0
 10
265.0967681850797
 20
413.6222614497086
 30
0.0
  0
LINE
  5
14F
330
1F
100
AcDbEntity
  8
0
  6
Continuous
 62
     7
370
    25
100
AcDbLine
 10
265.5433501725
 20
416.004224416
 30
0.0
 11
265.5433501725
 21
413.8362213333
 31
0.0
  0
SPLINE
  5
150
330
1F
100
AcDbEntity
  8
0
  6
Continuous
 62
     7
370
    25
100
AcDbSpline
210
0.0
220
0.0
230
1.0
 70
     8
 71
     3
 72
     8
 73
     4
 74
     0
 42
0.000000001
 43
0.00000001
 40
0.0
 40
0.0
 40
0.0
 40
0.0
 40
1.0
 40
1.0
 40
1.0
 40
1.0
 10
265.5433501724711
 20
423.8141729820417
 30
0.0
 10
265.5433501724711
 20
423.889723216893
 30
0.0
 10
265.3690348720916
 20
423.9632056742433
 30
0.0
 10
265.0967681850797
 20
424.0355262044822
 30
0.0
  0
LINE
  5
151
330
1F
100
AcDbEntity
  8
0
  6
Continuous
 62
     7
370
    25
100
AcDbLine
 10
261.5433501725
 20
424.0355262045
 30
0.0
 11
265.0967681851
 21
424.0355262045
 31
0.0
  0
LINE
  5
152
330
1F
100
AcDbEntity
  8
0
  6
Continuous
 62
     7
370
    25
100
AcDbLine
 10
250.5433501725
 20
421.2876438271
 30
0.0
 11
250.5433501725
 21
416.3701438271
 31
0.0
  0
LINE
  5
153
330
1F
100
AcDbEntity
  8
0
  6
Continuous
 62
     7
370
    25
100
AcDbLine
 10
251.0846001725
 20
420.1252596734
 30
0.0
 11
251.0846001725
 21
415.8288938271
 31
0.0
  0
LINE
  5
154
330
1F
100
AcDbEntity
  8
0
  6
Continuous
 62
     7
370
    25
100
AcDbLine
 10
251.0846001725
 20
421.8288938271
 30
0.0
 11
251.0846001725
 21
420.1252596734
 31
0.0
  0
LINE
  5
155
330
1F
100
AcDbEntity
  8
0
  6
Continuous
 62
     7
370
    25
100
AcDbLine
 10
692.1159052359
 20
390.050267155
 30
0.0
 11
692.4788430142
 21
390.6788938271
 31
0.0
  0
LINE
  5
156
330
1F
100
AcDbEntity
  8
0
  6
Continuous
 62
     7
370
    25
100
AcDbLine
 10
692.4788430142
 20
396.9788938271
 30
0.0
 11
692.1159052359
 21
397.6075204992
 31
0.0
  0
LINE
  5
157
330
1F
100
AcDbEntity
  8
0
  6
Continuous
 62
     7
370
    25
100
AcDbLine
 10
694.1788430142
 20
389.8288938271
 30
0.0
 11
696.1788430142
 21
389.8288938271
 31
0.0
  0
LINE
  5
158
330
1F
100
AcDbEntity
  8
0
  6
Continuous
 62
     7
370
    25
100
AcDbLine
 10
696.1788430142
 20
397.8288938271
 30
0.0
 11
694.1788430142
 21
397.8288938271
 31
0.0
  0
ARC
  5
159
330
1F
100
AcDbEntity
  8
0
  6
Continuous
 62
     7
370
    25
100
AcDbCircle
 10
689.250639784
 20
393.8288938271
 30
0.0
 40
7.999999999999967
100
AcDbArc
 50
330.0
 51
344.7252520003
  0
ARC
  5
15A
330
1F
100
AcDbEntity
  8
0
  6
Continuous
 62
     7
370
    25
100
AcDbCircle
 10
689.250639784
 20
393.8288938271
 30
0.0
 40
7.999999999999939
100
AcDbArc
 50
15.2747479997
 51
30.0
  0
LINE
  5
15B
330
1F
100
AcDbEntity
  8
0
  6
Continuous
 62
     7
370
    25
100
AcDbLine
 10
692.4788430142
 20
391.8288938271
 30
0.0
 11
692.5788430142
 21
391.8288938271
 31
0.0
  0
LINE
  5
15C
330
1F
100
AcDbEntity
  8
0
  6
Continuous
 62
     7
370
    25
100
AcDbLine
 10
692.5788430142
 20
395.8288938271
 30
0.0
 11
692.4788430142
 21
395.8288938271
 31
0.0
  0
LINE
  5
15D
330
1F
100
AcDbEntity
  8
0
  6
Continuous
 62
     7
370
    25
100
AcDbLine
 10
709.0788430142
 20
146.2996045052
 30
0.0
 11
699.4788430142
 21
146.2996045052
 31
0.0
  0
LINE
  5
15E
330
1F
100
AcDbEntity
  8
0
  6
Continuous
 62
     7
370
    25
100
AcDbLine
 10
699.4788430142
 20
389.358183149
 30
0.0
 11
699.4788430142
 21
146.2996045052
 31
0.0
  0
LINE
  5
15F
330
1F
100
AcDbEntity
  8
0
  6
Continuous
 62
     7
370
    25
100
AcDbLine
 10
709.0788430142
 20
389.358183149
 30
0.0
 11
699.4788430142
 21
389.358183149
 31
0.0
  0
LINE
  5
160
330
1F
100
AcDbEntity
  8
0
  6
Continuous
 62
     7
370
    25
100
AcDbLine
 10
711.4788430142
 20
388.4288938271
 30
0.0
 11
711.4788430142
 21
147.2288938271
 31
0.0
  0
SPLINE
  5
161
330
1F
100
AcDbEntity
  8
0
  6
Continuous
 62
     7
370
    25
100
AcDbSpline
210
0.0
220
0.0
230
1.0
 70
     8
 71
     3
 72
    20
 73
    16
 74
     0
 42
0.000000001
 43
0.00000001
 40
0.0
 40
0.0
 40
0.0
 40
0.0
 40
0.1249999999999996
 40
0.1249999999999996
 40
0.2499999999999993
 40
0.2499999999999993
 40
0.3749999999999989
 40
0.3749999999999989
 40
0.4999999999999986
 40
0.4999999999999986
 40
0.7500000000000004
 40
0.7500000000000004
 40
0.8750000000000001
 40
0.8750000000000001
 40
1.0
 40
1.0
 40
1.0
 40
1.0
 10
711.478843014232
 20
147.2288938270941
 30
0.0
 10
711.478843014232
 20
147.1898530962396
 30
0.0
 10
711.4633064537572
 20
147.1513343920398
 30
0.0
 10
711.4019881017965
 20
147.0739276407319
 30
0.0
 10
711.3555643562098
 20
147.0347832227451
 30
0.0
 10
711.2356134860557
 20
146.95763246883
 30
0.0
 10
711.1620088417723
 20
146.9193048870889
 30
0.0
 10
710.9872784756767
 20
146.8417585666124
 30
0.0
 10
710.8864278467751
 20
146.8027823589437
 30
0.0
 10
710.5551425667911
 20
146.6872875024987
 30
0.0
 10
710.2874624054072
 20
146.6093750588286
 30
0.0
 10
709.8547883793518
 20
146.4938951334277
 30
0.0
 10
709.7032702925006
 20
146.4550293375626
 30
0.0
 10
709.3938445351146
 20
146.3772550038941
 30
0.0
 10
709.2372222054208
 20
146.3386452369394
 30
0.0
 10
709.0788430142321
 20
146.2996045052127
 30
0.0
  0
SPLINE
  5
162
330
1F
100
AcDbEntity
  8
0
  6
Continuous
 62
     7
370
    25
100
AcDbSpline
210
0.0
220
0.0
230
1.0
 70
     8
 71
     3
 72
    20
 73
    16
 74
     0
 42
0.000000001
 43
0.00000001
 40
0.0
 40
0.0
 40
0.0
 40
0.0
 40
0.1249999999999968
 40
0.1249999999999968
 40
0.2499999999999933
 40
0.2499999999999933
 40
0.37499999999999
 40
0.37499999999999
 40
0.4999999999999865
 40
0.4999999999999865
 40
0.7499999999999944
 40
0.7499999999999944
 40
0.8749999999999972
 40
0.8749999999999972
 40
1.0
 40
1.0
 40
1.0
 40
1.0
 10
709.0788430142321
 20
389.3581831489755
 30
0.0
 10
709.2372222018828
 20
389.319142418121
 30
0.0
 10
709.3934679265744
 20
389.2806237139212
 30
0.0
 10
709.7014597759911
 20
389.2032169626133
 30
0.0
 10
709.8541038834621
 20
389.1640725446265
 30
0.0
 10
710.1431881726492
 20
389.0869217907114
 30
0.0
 10
710.2809927108333
 20
389.0485942089703
 30
0.0
 10
710.5426113864722
 20
388.9710478884938
 30
0.0
 10
710.6653576931549
 20
388.9320716808251
 30
0.0
 10
710.9966820701026
 20
388.8165768243801
 30
0.0
 10
711.1756931941308
 20
388.73866438071
 30
0.0
 10
711.3553082935117
 20
388.6231844553091
 30
0.0
 10
711.4015526423793
 20
388.584318659444
 30
0.0
 10
711.4633059483906
 20
388.5065443257755
 30
0.0
 10
711.478843014232
 20
388.4679345588208
 30
0.0
 10
711.478843014232
 20
388.4288938270941
 30
0.0
  0
SPLINE
  5
163
330
1F
100
AcDbEntity
  8
0
  6
Continuous
 62
     7
370
    25
100
AcDbSpline
210
0.0
220
0.0
230
1.0
 70
     8
 71
     3
 72
    20
 73
    16
 74
     0
 42
0.000000001
 43
0.00000001
 40
0.0
 40
0.0
 40
0.0
 40
0.0
 40
0.1250000000000006
 40
0.1250000000000006
 40
0.2500000000000012
 40
0.2500000000000012
 40
0.3750000000000018
 40
0.3750000000000018
 40
0.5000000000000024
 40
0.5000000000000024
 40
0.7500000000000039
 40
0.7500000000000039
 40
0.875000000000002
 40
0.875000000000002
 40
1.0
 40
1.0
 40
1.0
 40
1.0
 10
709.0788430142321
 20
144.8288938270941
 30
0.0
 10
709.2372222018828
 20
144.8288938270941
 30
0.0
 10
709.3934679265744
 20
144.844430387569
 30
0.0
 10
709.7014597759911
 20
144.9057487395296
 30
0.0
 10
709.8541038834621
 20
144.9521724851164
 30
0.0
 10
710.1431881726492
 20
145.0721233552705
 30
0.0
 10
710.2809927108333
 20
145.1457279995539
 30
0.0
 10
710.5426113864722
 20
145.3204583656496
 30
0.0
 10
710.6653576931549
 20
145.4213089945511
 30
0.0
 10
710.9966820701025
 20
145.7525942745351
 30
0.0
 10
711.1756931941308
 20
146.0202744359189
 30
0.0
 10
711.3553082935117
 20
146.4529484619743
 30
0.0
 10
711.4015526423793
 20
146.6044665488254
 30
0.0
 10
711.4633059483906
 20
146.9138923062116
 30
0.0
 10
711.478843014232
 20
147.0705146359053
 30
0.0
 10
711.478843014232
 20
147.228893827094
 30
0.0
  0
LINE
  5
164
330
1F
100
AcDbEntity
  8
0
  6
Continuous
 62
     7
370
    25
100
AcDbLine
 10
709.0788430142
 20
144.8288938271
 30
0.0
 11
709.0788430142
 21
146.2288938271
 31
0.0
  0
SPLINE
  5
165
330
1F
100
AcDbEntity
  8
0
  6
Continuous
 62
     7
370
    25
100
AcDbSpline
210
0.0
220
0.0
230
1.0
 70
     8
 71
     3
 72
     9
 73
     5
 74
     0
 42
0.000000001
 43
0.00000001
 40
0.0
 40
0.0
 40
0.0
 40
0.0
 40
0.7329379507269074
 40
1.0
 40
1.0
 40
1.0
 40
1.0
 10
709.0788430142321
 20
146.2288938270941
 30
0.0
 10
709.2302316558879
 20
146.2406484766119
 30
0.0
 10
709.4367820760233
 20
146.2566861909997
 30
0.0
 10
709.592142418142
 20
146.3850234974936
 30
0.0
 10
709.6336332694839
 20
146.419297521564
 30
0.0
  0
SPLINE
  5
166
330
1F
100
AcDbEntity
  8
0
  6
Continuous
 62
     7
370
    25
100
AcDbSpline
210
0.0
220
0.0
230
1.0
 70
     8
 71
     3
 72
     9
 73
     5
 74
     0
 42
0.000000001
 43
0.00000001
 40
0.0
 40
0.0
 40
0.0
 40
0.0
 40
0.4825784287293041
 40
1.0
 40
1.0
 40
1.0
 40
1.0
 10
709.6913827534102
 20
389.2050640590405
 30
0.0
 10
709.6032484120938
 20
389.2688722521019
 30
0.0
 10
709.4206162510408
 20
389.4010957193411
 30
0.0
 10
709.1953833669961
 20
389.4194150237976
 30
0.0
 10
709.0788430142321
 20
389.4288938270941
 30
0.0
  0
LINE
  5
167
330
1F
100
AcDbEntity
  8
0
  6
Continuous
 62
     7
370
    25
100
AcDbLine
 10
709.0788430142
 20
390.8288938271
 30
0.0
 11
709.0788430142
 21
389.4288938271
 31
0.0
  0
SPLINE
  5
168
330
1F
100
AcDbEntity
  8
0
  6
Continuous
 62
     7
370
    25
100
AcDbSpline
210
0.0
220
0.0
230
1.0
 70
     8
 71
     3
 72
    20
 73
    16
 74
     0
 42
0.000000001
 43
0.00000001
 40
0.0
 40
0.0
 40
0.0
 40
0.0
 40
0.1250000000000012
 40
0.1250000000000012
 40
0.2500000000000024
 40
0.2500000000000024
 40
0.3750000000000036
 40
0.3750000000000036
 40
0.5000000000000048
 40
0.5000000000000048
 40
0.7500000000000049
 40
0.7500000000000049
 40
0.8750000000000023
 40
0.8750000000000023
 40
1.0
 40
1.0
 40
1.0
 40
1.0
 10
711.478843014232
 20
388.428893827094
 30
0.0
 10
711.478843014232
 20
388.5872730147448
 30
0.0
 10
711.4633064537572
 20
388.7435187394365
 30
0.0
 10
711.4019881017965
 20
389.0515105888531
 30
0.0
 10
711.3555643562098
 20
389.2041546963242
 30
0.0
 10
711.2356134860557
 20
389.4932389855113
 30
0.0
 10
711.1620088417723
 20
389.6310435236954
 30
0.0
 10
710.9872784756767
 20
389.8926621993343
 30
0.0
 10
710.8864278467751
 20
390.0154085060169
 30
0.0
 10
710.5551425667911
 20
390.3467328829646
 30
0.0
 10
710.2874624054073
 20
390.5257440069928
 30
0.0
 10
709.8547883793519
 20
390.7053591063737
 30
0.0
 10
709.7032702925006
 20
390.7516034552414
 30
0.0
 10
709.3938445351146
 20
390.8133567612527
 30
0.0
 10
709.2372222054208
 20
390.8288938270941
 30
0.0
 10
709.0788430142321
 20
390.8288938270941
 30
0.0
  0
LINE
  5
169
330
1F
100
AcDbEntity
  8
0
  6
Continuous
 62
     7
370
    25
100
AcDbLine
 10
709.0788430142
 20
389.4288938271
 30
0.0
 11
699.4788430142
 21
389.4288938271
 31
0.0
  0
LINE
  5
16A
330
1F
100
AcDbEntity
  8
0
  6
Continuous
 62
     7
370
    25
100
AcDbLine
 10
699.4788430142
 20
390.8288938271
 30
0.0
 11
699.4788430142
 21
389.4288938271
 31
0.0
  0
LINE
  5
16B
330
1F
100
AcDbEntity
  8
0
  6
Continuous
 62
     7
370
    25
100
AcDbLine
 10
709.0788430142
 20
390.8288938271
 30
0.0
 11
699.4788430142
 21
390.8288938271
 31
0.0
  0
LINE
  5
16C
330
1F
100
AcDbEntity
  8
0
  6
Continuous
 62
     7
370
    25
100
AcDbLine
 10
699.4788430142
 20
144.8288938271
 30
0.0
 11
699.4788430142
 21
146.2288938271
 31
0.0
  0
LINE
  5
16D
330
1F
100
AcDbEntity
  8
0
  6
Continuous
 62
     7
370
    25
100
AcDbLine
 10
709.0788430142
 20
146.2288938271
 30
0.0
 11
699.4788430142
 21
146.2288938271
 31
0.0
  0
LINE
  5
16E
330
1F
100
AcDbEntity
  8
0
  6
Continuous
 62
     7
370
    25
100
AcDbLine
 10
709.0788430142
 20
144.8288938271
 30
0.0
 11
699.4788430142
 21
144.8288938271
 31
0.0
  0
LINE
  5
16F
330
1F
100
AcDbEntity
  8
0
  6
Continuous
 62
     7
370
    25
100
AcDbLine
 10
691.3788430142
 20
405.3288938271
 30
0.0
 11
695.3788430142
 21
405.3288938271
 31
0.0
  0
LINE
  5
170
330
1F
100
AcDbEntity
  8
0
  6
Continuous
 62
     7
370
    25
100
AcDbLine
 10
691.3788430142
 20
388.1288938271
 30
0.0
 11
691.3788430142
 21
405.3288938271
 31
0.0
  0
LINE
  5
171
330
1F
100
AcDbEntity
  8
0
  6
Continuous
 62
     7
370
    25
100
AcDbLine
 10
672.3788430142
 20
422.3288938271
 30
0.0
 11
672.3788430142
 21
388.1288938271
 31
0.0
  0
ARC
  5
172
330
1F
100
AcDbEntity
  8
0
  6
Continuous
 62
     7
370
    25
100
AcDbCircle
 10
675.3788430142
 20
422.3288938271
 30
0.0
 40
3.0
100
AcDbArc
 50
90.0
 51
180.0
  0
LINE
  5
173
330
1F
100
AcDbEntity
  8
0
  6
Continuous
 62
     7
370
    25
100
AcDbLine
 10
692.3788430142
 20
425.3288938271
 30
0.0
 11
675.3788430142
 21
425.3288938271
 31
0.0
  0
ARC
  5
174
330
1F
100
AcDbEntity
  8
0
  6
Continuous
 62
     7
370
    25
100
AcDbCircle
 10
692.3788430142
 20
422.3288938271
 30
0.0
 40
3.0
100
AcDbArc
 50
0.0
 51
90.0
  0
LINE
  5
175
330
1F
100
AcDbEntity
  8
0
  6
Continuous
 62
     7
370
    25
100
AcDbLine
 10
695.3788430142
 20
405.3288938271
 30
0.0
 11
695.3788430142
 21
422.3288938271
 31
0.0
  0
CIRCLE
  5
176
330
1F
100
AcDbEntity
  8
0
  6
Continuous
 62
     7
370
    25
100
AcDbCircle
 10
680.8788430142
 20
418.8288938271
 30
0.0
 40
3.250000000000114
  0
CIRCLE
  5
177
330
1F
100
AcDbEntity
  8
0
  6
Continuous
 62
     7
370
    25
100
AcDbCircle
 10
680.8788430142
 20
393.8288938271
 30
0.0
 40
3.250000000000171
  0
LINE
  5
178
330
1F
100
AcDbEntity
  8
0
  6
Continuous
 62
     7
370
    25
100
AcDbLine
 10
691.3788430142
 20
388.1288938271
 30
0.0
 11
691.3788430142
 21
386.3288938271
 31
0.0
  0
LINE
  5
179
330
1F
100
AcDbEntity
  8
0
  6
Continuous
 62
     7
370
    25
100
AcDbLine
 10
691.3788430142
 20
386.3288938271
 30
0.0
 11
672.3788430142
 21
386.3288938271
 31
0.0
  0
LINE
  5
17A
330
1F
100
AcDbEntity
  8
0
  6
Continuous
 62
     7
370
    25
100
AcDbLine
 10
672.3788430142
 20
386.3288938271
 30
0.0
 11
672.3788430142
 21
388.1288938271
 31
0.0
  0
LINE
  5
17B
330
1F
100
AcDbEntity
  8
0
  6
Continuous
 62
     7
370
    25
100
AcDbLine
 10
691.3788430142
 20
387.1288938271
 30
0.0
 11
691.5788430142
 21
387.1288938271
 31
0.0
  0
LINE
  5
17C
330
1F
100
AcDbEntity
  8
0
  6
Continuous
 62
     7
370
    25
100
AcDbLine
 10
691.3788430142
 20
386.3288938271
 30
0.0
 11
691.5788430142
 21
386.3288938271
 31
0.0
  0
ARC
  5
17D
330
1F
100
AcDbEntity
  8
0
  6
Continuous
 62
     7
370
    25
100
AcDbCircle
 10
691.5788430142
 20
388.1288938271
 30
0.0
 40
1.0
100
AcDbArc
 50
270.0
 51
0.0
  0
ARC
  5
17E
330
1F
100
AcDbEntity
  8
0
  6
Continuous
 62
     7
370
    25
100
AcDbCircle
 10
691.5788430142
 20
388.1288938271
 30
0.0
 40
1.799999999999955
100
AcDbArc
 50
270.0
 51
0.0
  0
LINE
  5
17F
330
1F
100
AcDbEntity
  8
0
  6
Continuous
 62
     7
370
    25
100
AcDbLine
 10
693.3788430142
 20
398.3288938271
 30
0.0
 11
692.5788430142
 21
398.3288938271
 31
0.0
  0
LINE
  5
180
330
1F
100
AcDbEntity
  8
0
  6
Continuous
 62
     7
370
    25
100
AcDbLine
 10
692.5788430142
 20
398.3288938271
 30
0.0
 11
692.5788430142
 21
388.1288938271
 31
0.0
  0
LINE
  5
181
330
1F
100
AcDbEntity
  8
0
  6
Continuous
 62
     7
370
    25
100
AcDbLine
 10
651.3788430142
 20
387.1288938271
 30
0.0
 11
672.3788430142
 21
387.1288938271
 31
0.0
  0
LINE
  5
182
330
1F
100
AcDbEntity
  8
0
  6
Continuous
 62
     7
370
    25
100
AcDbLine
 10
651.3788430142
 20
386.3288938271
 30
0.0
 11
672.3788430142
 21
386.3288938271
 31
0.0
  0
LINE
  5
183
330
1F
100
AcDbEntity
  8
0
  6
Continuous
 62
     7
370
    25
100
AcDbLine
 10
648.3788430142
 20
386.3288938271
 30
0.0
 11
648.3788430142
 21
387.1288938271
 31
0.0
  0
LINE
  5
184
330
1F
100
AcDbEntity
  8
0
  6
Continuous
 62
     7
370
    25
100
AcDbLine
 10
648.3788430142
 20
387.1288938271
 30
0.0
 11
651.3788430142
 21
387.1288938271
 31
0.0
  0
LINE
  5
185
330
1F
100
AcDbEntity
  8
0
  6
Continuous
 62
     7
370
    25
100
AcDbLine
 10
651.3788430142
 20
386.3288938271
 30
0.0
 11
648.3788430142
 21
386.3288938271
 31
0.0
  0
LINE
  5
186
330
1F
100
AcDbEntity
  8
0
  6
Continuous
 62
     7
370
    25
100
AcDbLine
 10
652.4742296224
 20
390.5288938271
 30
0.0
 11
649.4742296224
 21
390.5288938271
 31
0.0
  0
LINE
  5
187
330
1F
100
AcDbEntity
  8
0
  6
Continuous
 62
     7
370
    25
100
AcDbLine
 10
649.4742296224
 20
390.5288938271
 30
0.0
 11
649.4742296224
 21
391.3288938271
 31
0.0
  0
LINE
  5
188
330
1F
100
AcDbEntity
  8
0
  6
Continuous
 62
     7
370
    25
100
AcDbLine
 10
649.4742296224
 20
391.3288938271
 30
0.0
 11
652.4742296224
 21
391.3288938271
 31
0.0
  0
LINE
  5
189
330
1F
100
AcDbEntity
  8
0
  6
Continuous
 62
     7
370
    25
100
AcDbLine
 10
652.4742296224
 20
390.5288938271
 30
0.0
 11
658.9919210761
 21
390.5288938271
 31
0.0
  0
LINE
  5
18A
330
1F
100
AcDbEntity
  8
0
  6
Continuous
 62
     7
370
    25
100
AcDbLine
 10
652.4742296224
 20
391.3288938271
 30
0.0
 11
658.9919210761
 21
391.3288938271
 31
0.0
  0
LINE
  5
18B
330
1F
100
AcDbEntity
  8
0
  6
Continuous
 62
     7
370
    25
100
AcDbLine
 10
666.5167922067
 20
387.2628684233
 30
0.0
 11
659.8919210761
 21
391.0877395539
 31
0.0
  0
LINE
  5
18C
330
1F
100
AcDbEntity
  8
0
  6
Continuous
 62
     7
370
    25
100
AcDbLine
 10
665.1488430142
 20
387.1288938271
 30
0.0
 11
659.4919210761
 21
390.3949192309
 31
0.0
  0
ARC
  5
18D
330
1F
100
AcDbEntity
  8
0
  6
Continuous
 62
     7
370
    25
100
AcDbCircle
 10
658.9919210761
 20
389.5288938271
 30
0.0
 40
1.0
100
AcDbArc
 50
60.0
 51
90.0
  0
ARC
  5
18E
330
1F
100
AcDbEntity
  8
0
  6
Continuous
 62
     7
370
    25
100
AcDbCircle
 10
658.9919210761
 20
389.5288938271
 30
0.0
 40
1.800000000000018
100
AcDbArc
 50
60.0
 51
90.0
  0
ARC
  5
18F
330
1F
100
AcDbEntity
  8
0
  6
Continuous
 62
     7
370
    25
100
AcDbCircle
 10
667.0167922067
 20
388.1288938271
 30
0.0
 40
1.00000000000004
100
AcDbArc
 50
240.0
 51
270.0
  0
LINE
  5
190
330
1F
100
AcDbEntity
  8
0
  6
Continuous
 62
     7
370
    25
100
AcDbLine
 10
691.3788430142
 20
395.269723149
 30
0.0
 11
691.9641630288
 21
395.269723149
 31
0.0
  0
SPLINE
  5
191
330
1F
100
AcDbEntity
  8
0
  6
Continuous
 62
     7
370
    25
100
AcDbSpline
210
0.0
220
0.0
230
1.0
 70
     8
 71
     3
 72
    14
 73
    10
 74
     0
 42
0.000000001
 43
0.00000001
 40
0.0
 40
0.0
 40
0.0
 40
0.0
 40
0.25
 40
0.25
 40
0.5
 40
0.5
 40
0.75
 40
0.75
 40
1.0
 40
1.0
 40
1.0
 40
1.0
 10
691.9641630288461
 20
395.2697231489647
 30
0.0
 10
692.0590376381567
 20
394.9452169196761
 30
0.0
 10
692.1386425630325
 20
394.6127576972817
 30
0.0
 10
692.2474791779267
 20
393.9461877823736
 30
0.0
 10
692.2768027836172
 20
393.6111115250982
 30
0.0
 10
692.2767380018716
 20
392.9367680548705
 30
0.0
 10
692.2465818085452
 20
392.5949886341916
 30
0.0
 10
692.1369966071795
 20
391.9285747145869
 30
0.0
 10
692.0584536333773
 20
391.6018006686342
 30
0.0
 10
691.9641630288461
 20
391.2792919515378
 30
0.0
  0
LINE
  5
192
330
1F
100
AcDbEntity
  8
0
  6
Continuous
 62
     7
370
    25
100
AcDbLine
 10
691.3788430142
 20
391.2792919515
 30
0.0
 11
691.9641630288
 21
391.2792919515
 31
0.0
  0
SPLINE
  5
193
330
1F
100
AcDbEntity
  8
0
  6
Continuous
 62
     7
370
    25
100
AcDbSpline
210
0.0
220
0.0
230
1.0
 70
     8
 71
     3
 72
    12
 73
     8
 74
     0
 42
0.000000001
 43
0.00000001
 40
0.0
 40
0.0
 40
0.0
 40
0.0
 40
0.4999999999999925
 40
0.4999999999999925
 40
0.7499999999999962
 40
0.7499999999999962
 40
1.0
 40
1.0
 40
1.0
 40
1.0
 10
691.9641630288471
 20
389.8384626296673
 30
0.0
 10
692.1546573182707
 20
390.0737224221103
 30
0.0
 10
692.276331731333
 20
390.3125071149608
 30
0.0
 10
692.2769879218642
 20
390.6799986475178
 30
0.0
 10
692.2471539200699
 20
390.8023708421672
 30
0.0
 10
692.1382240499623
 20
391.0427545273267
 30
0.0
 10
692.0595288628994
 20
391.1615154743882
 30
0.0
 10
691.9641630288465
 20
391.2792919515378
 30
0.0
  0
SPLINE
  5
194
330
1F
100
AcDbEntity
  8
0
  6
Continuous
 62
     7
370
    25
100
AcDbSpline
210
0.0
220
0.0
230
1.0
 70
     8
 71
     3
 72
    12
 73
     8
 74
     0
 42
0.000000001
 43
0.00000001
 40
0.0
 40
0.0
 40
0.0
 40
0.0
 40
0.5000000000000142
 40
0.5000000000000142
 40
0.7500000000000071
 40
0.7500000000000071
 40
1.0
 40
1.0
 40
1.0
 40
1.0
 10
691.9641630288471
 20
395.2697231489646
 30
0.0
 10
692.1546573182707
 20
395.6860242326192
 30
0.0
 10
692.276331731333
 20
396.1085627606076
 30
0.0
 10
692.2769879218642
 20
396.7588529000684
 30
0.0
 10
692.2471539200699
 20
396.9753951179828
 30
0.0
 10
692.1382240499623
 20
397.4007631232232
 30
0.0
 10
692.0595288628994
 20
397.6109151022083
 30
0.0
 10
691.9641630288465
 20
397.8193250245211
 30
0.0
  0
LINE
  5
195
330
1F
100
AcDbEntity
  8
0
  6
Continuous
 62
     7
370
    25
100
AcDbLine
 10
691.9641630288
 20
397.8193250245
 30
0.0
 11
692.0620380661
 21
397.5764202742
 31
0.0
  0
LINE
  5
196
330
1F
100
AcDbEntity
  8
0
  6
Continuous
 62
     7
370
    25
100
AcDbLine
 10
692.4788430142
 20
393.3299461779
 30
0.0
 11
692.4788430142
 21
390.6788938271
 31
0.0
  0
LINE
  5
197
330
1F
100
AcDbEntity
  8
0
  6
Continuous
 62
     7
370
    25
100
AcDbLine
 10
692.4788430142
 20
396.9788938271
 30
0.0
 11
692.4788430142
 21
393.3299461779
 31
0.0
  0
LINE
  5
198
330
1F
100
AcDbEntity
  8
0
  6
Continuous
 62
     7
370
    25
100
AcDbLine
 10
691.3788430142
 20
397.8193250245
 30
0.0
 11
691.9641630288
 21
397.8193250245
 31
0.0
  0
LINE
  5
199
330
1F
100
AcDbEntity
  8
0
  6
Continuous
 62
     7
370
    25
100
AcDbLine
 10
691.3788430142
 20
389.8384626297
 30
0.0
 11
691.9641630288
 21
389.8384626297
 31
0.0
  0
LINE
  5
19A
330
1F
100
AcDbEntity
  8
0
  6
Continuous
 62
     7
370
    25
100
AcDbLine
 10
699.9288430142
 20
402.1288938271
 30
0.0
 11
705.0788430142
 21
402.1288938271
 31
0.0
  0
LINE
  5
19B
330
1F
100
AcDbEntity
  8
0
  6
Continuous
 62
     7
370
    25
100
AcDbLine
 10
699.9288430142
 20
402.9288938271
 30
0.0
 11
699.9288430142
 21
402.1288938271
 31
0.0
  0
LINE
  5
19C
330
1F
100
AcDbEntity
  8
0
  6
Continuous
 62
     7
370
    25
100
AcDbLine
 10
699.9288430142
 20
402.9288938271
 30
0.0
 11
705.0788430142
 21
402.9288938271
 31
0.0
  0
LINE
  5
19D
330
1F
100
AcDbEntity
  8
0
  6
Continuous
 62
     7
370
    25
100
AcDbLine
 10
705.0788430142
 20
402.9288938271
 30
0.0
 11
705.0788430142
 21
403.0288938271
 31
0.0
  0
LINE
  5
19E
330
1F
100
AcDbEntity
  8
0
  6
Continuous
 62
     7
370
    25
100
AcDbLine
 10
695.1788430142
 20
403.0288938271
 30
0.0
 11
705.0788430142
 21
403.0288938271
 31
0.0
  0
LINE
  5
19F
330
1F
100
AcDbEntity
  8
0
  6
Continuous
 62
     7
370
    25
100
AcDbLine
 10
695.1788430142
 20
403.0288938271
 30
0.0
 11
695.1788430142
 21
403.8288938271
 31
0.0
  0
LINE
  5
1A0
330
1F
100
AcDbEntity
  8
0
  6
Continuous
 62
     7
370
    25
100
AcDbLine
 10
705.0788430142
 20
403.8288938271
 30
0.0
 11
695.1788430142
 21
403.8288938271
 31
0.0
  0
ARC
  5
1A1
330
1F
100
AcDbEntity
  8
0
  6
Continuous
 62
     7
370
    25
100
AcDbCircle
 10
705.0788430142
 20
402.9788938271
 30
0.0
 40
0.8500000000000227
100
AcDbArc
 50
270.0
 51
90.0
  0
LINE
  5
1A2
330
1F
100
AcDbEntity
  8
0
  6
Continuous
 62
     7
370
    25
100
AcDbLine
 10
695.1788430142
 20
383.8288938271
 30
0.0
 11
695.1788430142
 21
384.6288938271
 31
0.0
  0
LINE
  5
1A3
330
1F
100
AcDbEntity
  8
0
  6
Continuous
 62
     7
370
    25
100
AcDbLine
 10
699.4788430142
 20
384.6288938271
 30
0.0
 11
695.1788430142
 21
384.6288938271
 31
0.0
  0
LINE
  5
1A4
330
1F
100
AcDbEntity
  8
0
  6
Continuous
 62
     7
370
    25
100
AcDbLine
 10
699.4788430142
 20
383.8288938271
 30
0.0
 11
695.1788430142
 21
383.8288938271
 31
0.0
  0
ARC
  5
1A5
330
1F
100
AcDbEntity
  8
0
  6
Continuous
 62
     7
370
    25
100
AcDbCircle
 10
695.1788430142
 20
402.0288938271
 30
0.0
 40
1.0
100
AcDbArc
 50
90.0
 51
180.0
  0
LINE
  5
1A6
330
1F
100
AcDbEntity
  8
0
  6
Continuous
 62
     7
370
    25
100
AcDbLine
 10
694.1788430142
 20
402.0288938271
 30
0.0
 11
694.1788430142
 21
385.6288938271
 31
0.0
  0
LINE
  5
1A7
330
1F
100
AcDbEntity
  8
0
  6
Continuous
 62
     7
370
    25
100
AcDbLine
 10
693.3788430142
 20
385.6288938271
 30
0.0
 11
693.3788430142
 21
402.0288938271
 31
0.0
  0
ARC
  5
1A8
330
1F
100
AcDbEntity
  8
0
  6
Continuous
 62
     7
370
    25
100
AcDbCircle
 10
695.1788430142
 20
385.6288938271
 30
0.0
 40
1.000000000000057
100
AcDbArc
 50
180.0
 51
270.0
  0
ARC
  5
1A9
330
1F
100
AcDbEntity
  8
0
  6
Continuous
 62
     7
370
    25
100
AcDbCircle
 10
695.1788430142
 20
385.6288938271
 30
0.0
 40
1.800000000000125
100
AcDbArc
 50
180.0
 51
270.0
  0
ARC
  5
1AA
330
1F
100
AcDbEntity
  8
0
  6
Continuous
 62
     7
370
    25
100
AcDbCircle
 10
695.1788430142
 20
402.0288938271
 30
0.0
 40
1.799999999999955
100
AcDbArc
 50
90.0
 51
180.0
  0
CIRCLE
  5
1AB
330
1F
100
AcDbEntity
  8
0
  6
Continuous
 62
     7
370
    25
100
AcDbCircle
 10
680.8788430142
 20
393.8288938271
 30
0.0
 40
2.458750000016702
  0
CIRCLE
  5
1AC
330
1F
100
AcDbEntity
  8
0
  6
Continuous
 62
     7
370
    25
100
AcDbCircle
 10
680.8788430142
 20
393.8288938271
 30
0.0
 40
3.000000000000015
  0
LINE
  5
1AD
330
1F
100
AcDbEntity
  8
0
  6
Continuous
 62
     7
370
    25
100
AcDbLine
 10
696.1788430142
 20
397.7783964431
 30
0.0
 11
696.1788430142
 21
397.8288938271
 31
0.0
  0
LINE
  5
1AE
330
1F
100
AcDbEntity
  8
0
  6
Continuous
 62
     7
370
    25
100
AcDbLine
 10
696.1788430142
 20
389.8288938271
 30
0.0
 11
696.1788430142
 21
397.7783964431
 31
0.0
  0
ARC
  5
1AF
330
1F
100
AcDbEntity
  8
0
  6
Continuous
 62
     7
370
    25
100
AcDbCircle
 10
689.4418631165
 20
393.7329558072
 30
0.0
 40
7.786288415108666
100
AcDbArc
 50
4.3702527065
 51
15.2299003794
  0
ARC
  5
1B0
330
1F
100
AcDbEntity
  8
0
  6
Continuous
 62
     7
370
    25
100
AcDbCircle
 10
696.6811195801
 20
394.6394094095
 30
0.0
 40
0.6107675350089548
100
AcDbArc
 50
296.6101963367
 51
329.1575418587
  0
ARC
  5
1B1
330
1F
100
AcDbEntity
  8
0
  6
Continuous
 62
     7
370
    25
100
AcDbCircle
 10
687.8750574386
 20
393.5009123145
 30
0.0
 40
9.098942710247332
100
AcDbArc
 50
356.2668736478
 51
3.7331263522
  0
ARC
  5
1B2
330
1F
100
AcDbEntity
  8
0
  6
Continuous
 62
     7
370
    25
100
AcDbCircle
 10
696.6811195801
 20
393.4545586247
 30
0.0
 40
0.6107675350083894
100
AcDbArc
 50
296.6101963367
 51
329.1575418587
  0
ARC
  5
1B3
330
1F
100
AcDbEntity
  8
0
  6
Continuous
 62
     7
370
    25
100
AcDbCircle
 10
689.4418631165
 20
393.734756552
 30
0.0
 40
7.78628841510867
100
AcDbArc
 50
344.7700996206
 51
355.6297472935
  0
ARC
  5
1B4
330
1F
100
AcDbEntity
  8
0
  6
Continuous
 62
     7
370
    25
100
AcDbCircle
 10
696.8216092356
 20
391.7632914503
 30
0.0
 40
0.1522432420641707
100
AcDbArc
 50
330.9451665857
 51
359.1449116565
  0
LWPOLYLINE
  5
1B5
330
1F
100
AcDbEntity
  8
0
  6
Continuous
 62
     7
370
    25
100
AcDbPolyline
 90
        3
 70
   128
 43
0.0
 10
697.2055125045
 20
393.3315060821
 10
697.1892876558
 20
393.1478077533
 10
697.1886455128
 20
393.1414307872
  0
ARC
  5
1B6
330
1F
100
AcDbEntity
  8
0
  6
Continuous
 62
     7
370
    25
100
AcDbCircle
 10
696.6811195801
 20
393.0183782446
 30
0.0
 40
0.6107675350088674
100
AcDbArc
 50
30.8424581413
 51
63.3898036633
  0
ARC
  5
1B7
330
1F
100
AcDbEntity
  8
0
  6
Continuous
 62
     7
370
    25
100
AcDbCircle
 10
687.7981856582
 20
394.159891196
 30
0.0
 40
9.175815044047692
100
AcDbArc
 50
357.9327321274
 51
359.6562101037
  0
ARC
  5
1B8
330
1F
100
AcDbEntity
  8
0
  6
Continuous
 62
     7
370
    25
100
AcDbCircle
 10
689.4418631165
 20
393.9230311022
 30
0.0
 40
7.786288415107866
100
AcDbArc
 50
4.3702527064
 51
15.2299003794
  0
ARC
  5
1B9
330
1F
100
AcDbEntity
  8
0
  6
Continuous
 62
     7
370
    25
100
AcDbCircle
 10
696.7335714492
 20
395.8733949434
 30
0.0
 40
0.2406805056720968
100
AcDbArc
 50
336.7420981705
 51
23.2579018295
  0
LINE
  5
1BA
330
1F
100
AcDbEntity
  8
0
  6
Continuous
 62
     7
370
    25
100
AcDbLine
 10
697.2055125045
 20
393.1414307872
 30
0.0
 11
696.9669568466
 21
393.1414307872
 31
0.0
  0
LINE
  5
1BB
330
1F
100
AcDbEntity
  8
0
  6
Continuous
 62
     7
370
    25
100
AcDbLine
 10
697.2055125045
 20
394.516356867
 30
0.0
 11
697.1886455128
 21
394.516356867
 31
0.0
  0
LINE
  5
1BC
330
1F
100
AcDbEntity
  8
0
  6
Continuous
 62
     7
370
    25
100
AcDbLine
 10
697.2055125045
 20
393.3315060821
 30
0.0
 11
696.9724621881
 21
393.3315060821
 31
0.0
  0
ARC
  5
1BD
330
1F
100
AcDbEntity
  8
0
  6
Continuous
 62
     7
370
    25
100
AcDbCircle
 10
674.920354125
 20
330.0843670035
 30
0.0
 40
1.942508566655083
100
AcDbArc
 50
181.8362067977
 51
271.7254354149
  0
LINE
  5
1BE
330
1F
100
AcDbEntity
  8
0
  6
Continuous
 62
     7
370
    25
100
AcDbLine
 10
672.9788430142
 20
330.0221244276
 30
0.0
 11
672.9788430142
 21
335.1632006645
 31
0.0
  0
LINE
  5
1BF
330
1F
100
AcDbEntity
  8
0
  6
Continuous
 62
     7
370
    25
100
AcDbLine
 10
688.9788430142
 20
335.1632006645
 30
0.0
 11
688.9788430142
 21
330.0221244276
 31
0.0
  0
ARC
  5
1C0
330
1F
100
AcDbEntity
  8
0
  6
Continuous
 62
     7
370
    25
100
AcDbCircle
 10
687.0373319035
 20
330.0843670035
 30
0.0
 40
1.942508566655243
100
AcDbArc
 50
268.2745645851
 51
358.1637932023
  0
LINE
  5
1C1
330
1F
100
AcDbEntity
  8
0
  6
Continuous
 62
     7
370
    25
100
AcDbLine
 10
686.9788430142
 20
328.142739186
 30
0.0
 11
674.9788430142
 21
328.142739186
 31
0.0
  0
LINE
  5
1C2
330
1F
100
AcDbEntity
  8
0
  6
Continuous
 62
     7
370
    25
100
AcDbLine
 10
672.9788430142
 20
329.338084141
 30
0.0
 11
672.9788430142
 21
330.0221244276
 31
0.0
  0
ARC
  5
1C3
330
1F
100
AcDbEntity
  8
0
  6
Continuous
 62
     7
370
    25
100
AcDbCircle
 10
674.920354125
 20
329.4003267168
 30
0.0
 40
1.942508566655246
100
AcDbArc
 50
181.8362067977
 51
271.7254354149
  0
LINE
  5
1C4
330
1F
100
AcDbEntity
  8
0
  6
Continuous
 62
     7
370
    25
100
AcDbLine
 10
686.9788430142
 20
327.4586988994
 30
0.0
 11
674.9788430142
 21
327.4586988994
 31
0.0
  0
LINE
  5
1C5
330
1F
100
AcDbEntity
  8
0
  6
Continuous
 62
     7
370
    25
100
AcDbLine
 10
688.9788430142
 20
330.0221244276
 30
0.0
 11
688.9788430142
 21
329.338084141
 31
0.0
  0
ARC
  5
1C6
330
1F
100
AcDbEntity
  8
0
  6
Continuous
 62
     7
370
    25
100
AcDbCircle
 10
687.0373319035
 20
329.4003267168
 30
0.0
 40
1.942508566655357
100
AcDbArc
 50
268.2745645851
 51
358.1637932023
  0
LINE
  5
1C7
330
1F
100
AcDbEntity
  8
0
  6
Continuous
 62
     7
370
    25
100
AcDbLine
 10
688.9788430142
 20
335.1632006645
 30
0.0
 11
688.9788430142
 21
335.5052208078
 31
0.0
  0
LINE
  5
1C8
330
1F
100
AcDbEntity
  8
0
  6
Continuous
 62
     7
370
    25
100
AcDbLine
 10
672.9788430142
 20
335.5052208078
 30
0.0
 11
672.9788430142
 21
335.1632006645
 31
0.0
  0
LINE
  5
1C9
330
1F
100
AcDbEntity
  8
0
  6
Continuous
 62
     7
370
    25
100
AcDbLine
 10
688.9788430142
 20
335.3288938271
 30
0.0
 11
699.4788430142
 21
335.3288938271
 31
0.0
  0
LINE
  5
1CA
330
1F
100
AcDbEntity
  8
0
  6
Continuous
 62
     7
370
    25
100
AcDbLine
 10
672.9788430142
 20
348.3288938271
 30
0.0
 11
672.9788430142
 21
335.5052208078
 31
0.0
  0
ARC
  5
1CB
330
1F
100
AcDbEntity
  8
0
  6
Continuous
 62
     7
370
    25
100
AcDbCircle
 10
674.9788430142
 20
348.3288938271
 30
0.0
 40
2.0
100
AcDbArc
 50
90.0
 51
180.0
  0
LINE
  5
1CC
330
1F
100
AcDbEntity
  8
0
  6
Continuous
 62
     7
370
    25
100
AcDbLine
 10
699.4788430142
 20
350.3288938271
 30
0.0
 11
674.9788430142
 21
350.3288938271
 31
0.0
  0
CIRCLE
  5
1CD
330
1F
100
AcDbEntity
  8
0
  6
Continuous
 62
     7
370
    25
100
AcDbCircle
 10
680.8788430142
 20
342.8288938271
 30
0.0
 40
3.5
  0
CIRCLE
  5
1CE
330
1F
100
AcDbEntity
  8
0
  6
Continuous
 62
     7
370
    25
100
AcDbCircle
 10
680.8788430142
 20
192.8288938271
 30
0.0
 40
2.458750000016599
  0
CIRCLE
  5
1CF
330
1F
100
AcDbEntity
  8
0
  6
Continuous
 62
     7
370
    25
100
AcDbCircle
 10
680.8788430142
 20
192.8288938271
 30
0.0
 40
3.000000000000015
  0
LINE
  5
1D0
330
1F
100
AcDbEntity
  8
0
  6
Continuous
 62
     7
370
    25
100
AcDbLine
 10
674.9788430142
 20
208.1990887548
 30
0.0
 11
686.9788430142
 21
208.1990887548
 31
0.0
  0
LINE
  5
1D1
330
1F
100
AcDbEntity
  8
0
  6
Continuous
 62
     7
370
    25
100
AcDbLine
 10
674.9788430142
 20
207.5150484681
 30
0.0
 11
686.9788430142
 21
207.5150484681
 31
0.0
  0
LINE
  5
1D2
330
1F
100
AcDbEntity
  8
0
  6
Continuous
 62
     7
370
    25
100
AcDbLine
 10
672.9788430142
 20
200.4945869897
 30
0.0
 11
672.9788430142
 21
205.6356632266
 31
0.0
  0
ARC
  5
1D3
330
1F
100
AcDbEntity
  8
0
  6
Continuous
 62
     7
370
    25
100
AcDbCircle
 10
674.920354125
 20
205.5734206507
 30
0.0
 40
1.942508566655193
100
AcDbArc
 50
88.2745645851
 51
178.1637932023
  0
ARC
  5
1D4
330
1F
100
AcDbEntity
  8
0
  6
Continuous
 62
     7
370
    25
100
AcDbCircle
 10
687.0373319035
 20
205.5734206507
 30
0.0
 40
1.942508566655328
100
AcDbArc
 50
1.8362067977
 51
91.7254354149
  0
LINE
  5
1D5
330
1F
100
AcDbEntity
  8
0
  6
Continuous
 62
     7
370
    25
100
AcDbLine
 10
688.9788430142
 20
205.6356632266
 30
0.0
 11
688.9788430142
 21
200.4945869897
 31
0.0
  0
LINE
  5
1D6
330
1F
100
AcDbEntity
  8
0
  6
Continuous
 62
     7
370
    25
100
AcDbLine
 10
672.9788430142
 20
205.6356632266
 30
0.0
 11
672.9788430142
 21
206.3197035132
 31
0.0
  0
ARC
  5
1D7
330
1F
100
AcDbEntity
  8
0
  6
Continuous
 62
     7
370
    25
100
AcDbCircle
 10
674.920354125
 20
206.2574609374
 30
0.0
 40
1.942508566655164
100
AcDbArc
 50
88.2745645851
 51
178.1637932023
  0
LINE
  5
1D8
330
1F
100
AcDbEntity
  8
0
  6
Continuous
 62
     7
370
    25
100
AcDbLine
 10
688.9788430142
 20
206.3197035132
 30
0.0
 11
688.9788430142
 21
205.6356632266
 31
0.0
  0
ARC
  5
1D9
330
1F
100
AcDbEntity
  8
0
  6
Continuous
 62
     7
370
    25
100
AcDbCircle
 10
687.0373319035
 20
206.2574609374
 30
0.0
 40
1.942508566655474
100
AcDbArc
 50
1.8362067977
 51
91.7254354149
  0
LINE
  5
1DA
330
1F
100
AcDbEntity
  8
0
  6
Continuous
 62
     7
370
    25
100
AcDbLine
 10
688.9788430142
 20
200.1525668464
 30
0.0
 11
688.9788430142
 21
200.4945869897
 31
0.0
  0
LINE
  5
1DB
330
1F
100
AcDbEntity
  8
0
  6
Continuous
 62
     7
370
    25
100
AcDbLine
 10
672.9788430142
 20
200.4945869897
 30
0.0
 11
672.9788430142
 21
200.1525668464
 31
0.0
  0
LINE
  5
1DC
330
1F
100
AcDbEntity
  8
0
  6
Continuous
 62
     7
370
    25
100
AcDbLine
 10
699.4788430142
 20
200.3288938271
 30
0.0
 11
688.9788430142
 21
200.3288938271
 31
0.0
  0
LINE
  5
1DD
330
1F
100
AcDbEntity
  8
0
  6
Continuous
 62
     7
370
    25
100
AcDbLine
 10
674.9788430142
 20
185.3288938271
 30
0.0
 11
699.4788430142
 21
185.3288938271
 31
0.0
  0
CIRCLE
  5
1DE
330
1F
100
AcDbEntity
  8
0
  6
Continuous
 62
     7
370
    25
100
AcDbCircle
 10
680.8788430142
 20
192.8288938271
 30
0.0
 40
3.5
  0
ARC
  5
1DF
330
1F
100
AcDbEntity
  8
0
  6
Continuous
 62
     7
370
    25
100
AcDbCircle
 10
674.9788430142
 20
187.3288938271
 30
0.0
 40
2.0
100
AcDbArc
 50
180.0
 51
270.0
  0
LINE
  5
1E0
330
1F
100
AcDbEntity
  8
0
  6
Continuous
 62
     7
370
    25
100
AcDbLine
 10
672.9788430142
 20
200.1525668464
 30
0.0
 11
672.9788430142
 21
187.3288938271
 31
0.0
  0
CIRCLE
  5
1E1
330
1F
100
AcDbEntity
  8
0
  6
Continuous
 62
     7
370
    25
100
AcDbCircle
 10
680.8788430142
 20
418.8288938271
 30
0.0
 40
2.458750000016599
  0
CIRCLE
  5
1E2
330
1F
100
AcDbEntity
  8
0
  6
Continuous
 62
     7
370
    25
100
AcDbCircle
 10
680.8788430142
 20
418.8288938271
 30
0.0
 40
2.99999999999999
  0
CIRCLE
  5
1E3
330
1F
100
AcDbEntity
  8
0
  6
Continuous
 62
     7
370
    25
100
AcDbCircle
 10
680.8788430142
 20
342.8288938271
 30
0.0
 40
2.458750000016599
  0
CIRCLE
  5
1E4
330
1F
100
AcDbEntity
  8
0
  6
Continuous
 62
     7
370
    25
100
AcDbCircle
 10
680.8788430142
 20
342.8288938271
 30
0.0
 40
3.000000000000039
  0
ARC
  5
1E5
330
1F
100
AcDbEntity
  8
0
  6
Continuous
 62
     7
370
    25
100
AcDbCircle
 10
564.2433501725
 20
504.6642175452
 30
0.0
 40
0.5
100
AcDbArc
 50
180.0
 51
0.0
  0
ARC
  5
1E6
330
1F
100
AcDbEntity
  8
0
  6
Continuous
 62
     7
370
    25
100
AcDbCircle
 10
564.2433501725
 20
516.2642175453
 30
0.0
 40
0.5000000000001137
100
AcDbArc
 50
0.0
 51
180.0
  0
LINE
  5
1E7
330
1F
100
AcDbEntity
  8
0
  6
Continuous
 62
     7
370
    25
100
AcDbLine
 10
559.9709316097
 20
515.8584001573
 30
0.0
 11
559.7433501725
 21
515.4642175452
 31
0.0
  0
LINE
  5
1E8
330
1F
100
AcDbEntity
  8
0
  6
Continuous
 62
     7
370
    25
100
AcDbLine
 10
574.2021001725
 20
507.4642175452
 30
0.0
 11
574.7433501725
 21
508.0054675452
 31
0.0
  0
LINE
  5
1E9
330
1F
100
AcDbEntity
  8
0
  6
Continuous
 62
     7
370
    25
100
AcDbLine
 10
574.7433501725
 20
512.9229675453
 30
0.0
 11
574.2021001725
 21
513.4642175453
 31
0.0
  0
LINE
  5
1EA
330
1F
100
AcDbEntity
  8
0
  6
Continuous
 62
     7
370
    25
100
AcDbLine
 10
574.2021001725
 20
513.4642175453
 30
0.0
 11
566.7433501725
 21
513.4642175453
 31
0.0
  0
LINE
  5
1EB
330
1F
100
AcDbEntity
  8
0
  6
Continuous
 62
     7
370
    25
100
AcDbLine
 10
566.7433501725
 20
507.4642175453
 30
0.0
 11
574.2021001725
 21
507.4642175453
 31
0.0
  0
LINE
  5
1EC
330
1F
100
AcDbEntity
  8
0
  6
Continuous
 62
     7
370
    25
100
AcDbLine
 10
559.7433501725
 20
505.4642175453
 30
0.0
 11
559.9709316097
 21
505.0700349332
 31
0.0
  0
LINE
  5
1ED
330
1F
100
AcDbEntity
  8
0
  6
Continuous
 62
     7
370
    25
100
AcDbLine
 10
551.3748974581
 20
524.5642175453
 30
0.0
 11
551.8748974581
 21
524.0642175453
 31
0.0
  0
LINE
  5
1EE
330
1F
100
AcDbEntity
  8
0
  6
Continuous
 62
     7
370
    25
100
AcDbLine
 10
551.3748974581
 20
528.5642175453
 30
0.0
 11
551.3748974581
 21
524.5642175453
 31
0.0
  0
LINE
  5
1EF
330
1F
100
AcDbEntity
  8
0
  6
Continuous
 62
     7
370
    25
100
AcDbLine
 10
557.1547342479
 20
524.5642175453
 30
0.0
 11
557.1547342479
 21
528.5642175453
 31
0.0
  0
LINE
  5
1F0
330
1F
100
AcDbEntity
  8
0
  6
Continuous
 62
     7
370
    25
100
AcDbLine
 10
556.6547342479
 20
524.0642175453
 30
0.0
 11
557.1547342479
 21
524.5642175453
 31
0.0
  0
LINE
  5
1F1
330
1F
100
AcDbEntity
  8
0
  6
Continuous
 62
     7
370
    25
100
AcDbLine
 10
551.4312394199
 20
524.5642175453
 30
0.0
 11
551.9312394199
 21
524.0642175453
 31
0.0
  0
LINE
  5
1F2
330
1F
100
AcDbEntity
  8
0
  6
Continuous
 62
     7
370
    25
100
AcDbLine
 10
551.4312394199
 20
528.5642175453
 30
0.0
 11
551.4312394199
 21
524.5642175453
 31
0.0
  0
LINE
  5
1F3
330
1F
100
AcDbEntity
  8
0
  6
Continuous
 62
     7
370
    25
100
AcDbLine
 10
273.5812351183
 20
524.0642175453
 30
0.0
 11
274.0812351183
 21
524.5642175453
 31
0.0
  0
LINE
  5
1F4
330
1F
100
AcDbEntity
  8
0
  6
Continuous
 62
     7
370
    25
100
AcDbLine
 10
274.0812351183
 20
524.5642175453
 30
0.0
 11
274.0812351183
 21
528.5642175453
 31
0.0
  0
LINE
  5
1F5
330
1F
100
AcDbEntity
  8
0
  6
Continuous
 62
     7
370
    25
100
AcDbLine
 10
268.351690434
 20
528.5642175453
 30
0.0
 11
268.351690434
 21
524.5642175453
 31
0.0
  0
LINE
  5
1F6
330
1F
100
AcDbEntity
  8
0
  6
Continuous
 62
     7
370
    25
100
AcDbLine
 10
268.351690434
 20
524.5642175453
 30
0.0
 11
268.851690434
 21
524.0642175453
 31
0.0
  0
LINE
  5
1F7
330
1F
100
AcDbEntity
  8
0
  6
Continuous
 62
     7
370
    25
100
AcDbLine
 10
574.4021001725
 20
513.4642175453
 30
0.0
 11
574.2021001725
 21
513.4642175453
 31
0.0
  0
LINE
  5
1F8
330
1F
100
AcDbEntity
  8
0
  6
Continuous
 62
     7
370
    25
100
AcDbLine
 10
574.2021001725
 20
507.4642175453
 30
0.0
 11
574.4021001725
 21
507.4642175453
 31
0.0
  0
LINE
  5
1F9
330
1F
100
AcDbEntity
  8
0
  6
Continuous
 62
     7
370
    25
100
AcDbLine
 10
574.4021001725
 20
507.4642175452
 30
0.0
 11
574.9433501725
 21
508.0054675452
 31
0.0
  0
LINE
  5
1FA
330
1F
100
AcDbEntity
  8
0
  6
Continuous
 62
     7
370
    25
100
AcDbLine
 10
574.9433501725
 20
512.9229675453
 30
0.0
 11
574.4021001725
 21
513.4642175453
 31
0.0
  0
LINE
  5
1FB
330
1F
100
AcDbEntity
  8
0
  6
Continuous
 62
     7
370
    25
100
AcDbLine
 10
251.0846001725
 20
513.4642175453
 30
0.0
 11
250.5433501725
 21
512.9229675453
 31
0.0
  0
LINE
  5
1FC
330
1F
100
AcDbEntity
  8
0
  6
Continuous
 62
     7
370
    25
100
AcDbLine
 10
250.5433501725
 20
508.0054675452
 30
0.0
 11
251.0846001725
 21
507.4642175452
 31
0.0
  0
LINE
  5
1FD
330
1F
100
AcDbEntity
  8
0
  6
Continuous
 62
     7
370
    25
100
AcDbLine
 10
251.0846001725
 20
507.4642175453
 30
0.0
 11
251.2846001725
 21
507.4642175453
 31
0.0
  0
LINE
  5
1FE
330
1F
100
AcDbEntity
  8
0
  6
Continuous
 62
     7
370
    25
100
AcDbLine
 10
251.2846001725
 20
513.4642175453
 30
0.0
 11
251.0846001725
 21
513.4642175453
 31
0.0
  0
ARC
  5
1FF
330
1F
100
AcDbEntity
  8
0
  6
Continuous
 62
     7
370
    25
100
AcDbCircle
 10
261.2433501725
 20
516.2642175453
 30
0.0
 40
0.5000000000000568
100
AcDbArc
 50
0.0
 51
180.0
  0
ARC
  5
200
330
1F
100
AcDbEntity
  8
0
  6
Continuous
 62
     7
370
    25
100
AcDbCircle
 10
261.2433501725
 20
504.6642175452
 30
0.0
 40
0.5000000000000568
100
AcDbArc
 50
180.0
 51
0.0
  0
LINE
  5
201
330
1F
100
AcDbEntity
  8
0
  6
Continuous
 62
     7
370
    25
100
AcDbLine
 10
251.2846001725
 20
513.4642175453
 30
0.0
 11
250.7433501725
 21
512.9229675453
 31
0.0
  0
LINE
  5
202
330
1F
100
AcDbEntity
  8
0
  6
Continuous
 62
     7
370
    25
100
AcDbLine
 10
250.7433501725
 20
508.0054675452
 30
0.0
 11
251.2846001725
 21
507.4642175452
 31
0.0
  0
LINE
  5
203
330
1F
100
AcDbEntity
  8
0
  6
Continuous
 62
     7
370
    25
100
AcDbLine
 10
251.2846001725
 20
507.4642175453
 30
0.0
 11
258.7433501725
 21
507.4642175453
 31
0.0
  0
LINE
  5
204
330
1F
100
AcDbEntity
  8
0
  6
Continuous
 62
     7
370
    25
100
AcDbLine
 10
258.7433501725
 20
513.4642175453
 30
0.0
 11
251.2846001725
 21
513.4642175453
 31
0.0
  0
LINE
  5
205
330
1F
100
AcDbEntity
  8
0
  6
Continuous
 62
     7
370
    25
100
AcDbLine
 10
265.7433501725
 20
515.4642175452
 30
0.0
 11
265.4138670767
 21
516.0348990073
 31
0.0
  0
LINE
  5
206
330
1F
100
AcDbEntity
  8
0
  6
Continuous
 62
     7
370
    25
100
AcDbLine
 10
265.4138670767
 20
504.8935360832
 30
0.0
 11
265.7433501725
 21
505.4642175453
 31
0.0
  0
LINE
  5
207
330
1F
100
AcDbEntity
  8
0
  6
Continuous
 62
     7
370
    25
100
AcDbLine
 10
258.2433501725
 20
533.6642175453
 30
0.0
 11
261.1827378638
 21
533.6642175453
 31
0.0
  0
LINE
  5
208
330
1F
100
AcDbEntity
  8
0
  6
Continuous
 62
     7
370
    25
100
AcDbLine
 10
564.3039624811
 20
533.6642175453
 30
0.0
 11
567.2433501725
 21
533.6642175453
 31
0.0
  0
LINE
  5
209
330
1F
100
AcDbEntity
  8
0
  6
Continuous
 62
     7
370
    25
100
AcDbLine
 10
252.2433501725
 20
533.6642175453
 30
0.0
 11
258.2433501725
 21
533.6642175453
 31
0.0
  0
LINE
  5
20A
330
1F
100
AcDbEntity
  8
0
  6
Continuous
 62
     7
370
    25
100
AcDbLine
 10
567.2433501725
 20
533.6642175453
 30
0.0
 11
573.2433501725
 21
533.6642175453
 31
0.0
  0
SPLINE
  5
20B
330
1F
100
AcDbEntity
  8
0
  6
Continuous
 62
     7
370
    25
100
AcDbSpline
210
0.0
220
0.0
230
1.0
 70
    24
 71
     3
 72
    19
 73
    15
 74
     0
 42
0.000000001
 43
0.00000001
 40
0.0
 40
0.0
 40
0.0
 40
0.0
 40
0.1260638187928846
 40
0.1939261817305607
 40
0.263228681375984
 40
0.3325311810214077
 40
0.4003935439590839
 40
0.5264573627519689
 40
0.6525211815448536
 40
0.7203835444825298
 40
0.7896860441279533
 40
0.8589885437733766
 40
0.9268509067110526
 40
1.0
 40
1.0
 40
1.0
 40
1.0
 10
563.7433501724774
 20
516.1916059006325
 30
0.0
 10
563.7433501724774
 20
516.0000179896961
 30
0.0
 10
563.7433501724774
 20
515.7052949487048
 30
0.0
 10
563.7433501724776
 20
514.7780404258642
 30
0.0
 10
563.7433501724774
 20
513.8924843853316
 30
0.0
 10
563.7433501724776
 20
512.8560831757965
 30
0.0
 10
563.7433501724774
 20
511.412129803147
 30
0.0
 10
563.7433501724776
 20
509.5273022204384
 30
0.0
 10
563.7433501724774
 20
507.7542920186117
 30
0.0
 10
563.7433501724776
 20
506.5319883968716
 30
0.0
 10
563.7433501724776
 20
505.7313016816535
 30
0.0
 10
563.7433501724776
 20
505.1458110988805
 30
0.0
 10
563.7433501724776
 20
504.7179249603275
 30
0.0
 10
563.7433501724776
 20
504.7484372122302
 30
0.0
 10
563.7433501724776
 20
504.7642653131562
 30
0.0
  0
SPLINE
  5
20C
330
1F
100
AcDbEntity
  8
0
  6
Continuous
 62
     7
370
    25
100
AcDbSpline
210
0.0
220
0.0
230
1.0
 70
     8
 71
     3
 72
     8
 73
     4
 74
     0
 42
0.000000001
 43
0.00000001
 40
0.0
 40
0.0
 40
0.0
 40
0.0
 40
1.0
 40
1.0
 40
1.0
 40
1.0
 10
559.7433501724846
 20
509.6755197531963
 30
0.0
 10
559.7433501724846
 20
508.7025754374167
 30
0.0
 10
559.9176654728641
 20
507.7562601899642
 30
0.0
 10
560.189932159876
 20
506.8249083689062
 30
0.0
  0
SPLINE
  5
20D
330
1F
100
AcDbEntity
  8
0
  6
Continuous
 62
     7
370
    25
100
AcDbSpline
210
0.0
220
0.0
230
1.0
 70
     8
 71
     3
 72
     8
 73
     4
 74
     0
 42
0.000000001
 43
0.00000001
 40
0.0
 40
0.0
 40
0.0
 40
0.0
 40
1.0
 40
1.0
 40
1.0
 40
1.0
 10
560.189932159876
 20
512.5261311374867
 30
0.0
 10
559.9176654728645
 20
511.5947793164303
 30
0.0
 10
559.7433501724846
 20
510.6484640689742
 30
0.0
 10
559.7433501724846
 20
509.6755197531963
 30
0.0
  0
LINE
  5
20E
330
1F
100
AcDbEntity
  8
0
  6
Continuous
 62
     7
370
    25
100
AcDbLine
 10
563.7433501725
 20
512.5261311375
 30
0.0
 11
560.1899321599
 21
512.5261311375
 31
0.0
  0
LINE
  5
20F
330
1F
100
AcDbEntity
  8
0
  6
Continuous
 62
     7
370
    25
100
AcDbLine
 10
563.7433501725
 20
506.8249083689
 30
0.0
 11
560.1899321599
 21
506.8249083689
 31
0.0
  0
LINE
  5
210
330
1F
100
AcDbEntity
  8
0
  6
Continuous
 62
     7
370
    25
100
AcDbLine
 10
559.7433501725
 20
514.3457857257
 30
0.0
 11
559.7433501725
 21
509.6755197532
 31
0.0
  0
SPLINE
  5
211
330
1F
100
AcDbEntity
  8
0
  6
Continuous
 62
     7
370
    25
100
AcDbSpline
210
0.0
220
0.0
230
1.0
 70
     8
 71
     3
 72
     8
 73
     4
 74
     0
 42
0.000000001
 43
0.00000001
 40
0.0
 40
0.0
 40
0.0
 40
0.0
 40
1.0
 40
1.0
 40
1.0
 40
1.0
 10
559.7433501724846
 20
514.345785725666
 30
0.0
 10
559.7433501724846
 20
513.7247180494468
 30
0.0
 10
559.9176654728641
 20
513.1206487289583
 30
0.0
 10
560.189932159876
 20
512.526131137493
 30
0.0
  0
SPLINE
  5
212
330
1F
100
AcDbEntity
  8
0
  6
Continuous
 62
     7
370
    25
100
AcDbSpline
210
0.0
220
0.0
230
1.0
 70
     8
 71
     3
 72
     8
 73
     4
 74
     0
 42
0.000000001
 43
0.00000001
 40
0.0
 40
0.0
 40
0.0
 40
0.0
 40
1.0
 40
1.0
 40
1.0
 40
1.0
 10
560.189932159876
 20
516.1654403138391
 30
0.0
 10
559.9176654728645
 20
515.5709227223749
 30
0.0
 10
559.7433501724846
 20
514.9668534018842
 30
0.0
 10
559.7433501724846
 20
514.345785725666
 30
0.0
  0
LINE
  5
213
330
1F
100
AcDbEntity
  8
0
  6
Continuous
 62
     7
370
    25
100
AcDbLine
 10
563.7433501725
 20
516.1654403138
 30
0.0
 11
560.1899321599
 21
516.1654403138
 31
0.0
  0
LINE
  5
214
330
1F
100
AcDbEntity
  8
0
  6
Continuous
 62
     7
370
    25
100
AcDbLine
 10
559.7433501725
 20
509.6755197532
 30
0.0
 11
559.7433501725
 21
505.7939515728
 31
0.0
  0
SPLINE
  5
215
330
1F
100
AcDbEntity
  8
0
  6
Continuous
 62
     7
370
    25
100
AcDbSpline
210
0.0
220
0.0
230
1.0
 70
     8
 71
     3
 72
     8
 73
     4
 74
     0
 42
0.000000001
 43
0.00000001
 40
0.0
 40
0.0
 40
0.0
 40
0.0
 40
1.0
 40
1.0
 40
1.0
 40
1.0
 10
560.1899321598759
 20
506.824908368901
 30
0.0
 10
559.9176654728644
 20
506.4880741393088
 30
0.0
 10
559.7433501724846
 20
506.1458282123433
 30
0.0
 10
559.7433501724846
 20
505.7939515727835
 30
0.0
  0
SPLINE
  5
216
330
1F
100
AcDbEntity
  8
0
  6
Continuous
 62
     7
370
    25
100
AcDbSpline
210
0.0
220
0.0
230
1.0
 70
     8
 71
     3
 72
     8
 73
     4
 74
     0
 42
0.000000001
 43
0.00000001
 40
0.0
 40
0.0
 40
0.0
 40
0.0
 40
1.0
 40
1.0
 40
1.0
 40
1.0
 10
559.7433501724846
 20
505.7939515727835
 30
0.0
 10
559.7433501724846
 20
505.442074933223
 30
0.0
 10
559.917665472864
 20
505.0998290062589
 30
0.0
 10
560.1899321598759
 20
504.7629947766659
 30
0.0
  0
LINE
  5
217
330
1F
100
AcDbEntity
  8
0
  6
Continuous
 62
     7
370
    25
100
AcDbLine
 10
563.7433501725
 20
504.7629947767
 30
0.0
 11
560.1899321599
 21
504.7629947767
 31
0.0
  0
LINE
  5
218
330
1F
100
AcDbEntity
  8
0
  6
Continuous
 62
     7
370
    25
100
AcDbLine
 10
560.0397259296
 20
515.8186817382
 30
0.0
 11
560.1899321599
 21
516.1654403138
 31
0.0
  0
LINE
  5
219
330
1F
100
AcDbEntity
  8
0
  6
Continuous
 62
     7
370
    25
100
AcDbLine
 10
559.7433501725
 20
515.4642175452
 30
0.0
 11
559.7433501725
 21
514.3457857257
 31
0.0
  0
LINE
  5
21A
330
1F
100
AcDbEntity
  8
0
  6
Continuous
 62
     7
370
    25
100
AcDbLine
 10
574.7433501725
 20
510.076375406
 30
0.0
 11
574.7433501725
 21
512.9229675453
 31
0.0
  0
LINE
  5
21B
330
1F
100
AcDbEntity
  8
0
  6
Continuous
 62
     7
370
    25
100
AcDbLine
 10
574.7433501725
 20
508.0054675452
 30
0.0
 11
574.7433501725
 21
510.076375406
 31
0.0
  0
LINE
  5
21C
330
1F
100
AcDbEntity
  8
0
  6
Continuous
 62
     7
370
    25
100
AcDbLine
 10
574.2021001725
 20
507.4642175452
 30
0.0
 11
574.2021001725
 21
513.4642175453
 31
0.0
  0
LINE
  5
21D
330
1F
100
AcDbEntity
  8
0
  6
Continuous
 62
     7
370
    25
100
AcDbLine
 10
559.7433501725
 20
505.7939515728
 30
0.0
 11
559.7433501725
 21
505.4642175453
 31
0.0
  0
LINE
  5
21E
330
1F
100
AcDbEntity
  8
0
  6
Continuous
 62
     7
370
    25
100
AcDbLine
 10
266.4933501725
 20
528.5642175453
 30
0.0
 11
266.4933501725
 21
529.0642175453
 31
0.0
  0
LINE
  5
21F
330
1F
100
AcDbEntity
  8
0
  6
Continuous
 62
     7
370
    25
100
AcDbLine
 10
275.9933501725
 20
529.0642175453
 30
0.0
 11
275.9933501725
 21
528.5642175453
 31
0.0
  0
LINE
  5
220
330
1F
100
AcDbEntity
  8
0
  6
Continuous
 62
     7
370
    25
100
AcDbLine
 10
275.9933501725
 20
528.5642175453
 30
0.0
 11
266.4933501725
 21
528.5642175453
 31
0.0
  0
LINE
  5
221
330
1F
100
AcDbEntity
  8
0
  6
Continuous
 62
     7
370
    25
100
AcDbLine
 10
266.4933501725
 20
528.5642175453
 30
0.0
 11
265.7299501725
 21
528.5642175453
 31
0.0
  0
ARC
  5
222
330
1F
100
AcDbEntity
  8
0
  6
Continuous
 62
     7
370
    25
100
AcDbCircle
 10
265.7299501725
 20
529.8008175453
 30
0.0
 40
1.236600000000089
100
AcDbArc
 50
216.5600911006
 51
270.0
  0
ARC
  5
223
330
1F
100
AcDbEntity
  8
0
  6
Continuous
 62
     7
370
    25
100
AcDbCircle
 10
276.7567501725
 20
529.8008175453
 30
0.0
 40
1.236599999999997
100
AcDbArc
 50
270.0
 51
323.4399088994
  0
LINE
  5
224
330
1F
100
AcDbEntity
  8
0
  6
Continuous
 62
     7
370
    25
100
AcDbLine
 10
276.7567501725
 20
528.5642175453
 30
0.0
 11
275.9933501725
 21
528.5642175453
 31
0.0
  0
ARC
  5
225
330
1F
100
AcDbEntity
  8
0
  6
Continuous
 62
     7
370
    25
100
AcDbCircle
 10
258.2433501725
 20
533.0642175453
 30
0.0
 40
3.0
100
AcDbArc
 50
0.0
 51
90.0
  0
LINE
  5
226
330
1F
100
AcDbEntity
  8
0
  6
Continuous
 62
     7
370
    25
100
AcDbLine
 10
246.2433501725
 20
536.0642175453
 30
0.0
 11
258.2433501725
 21
536.0642175453
 31
0.0
  0
ARC
  5
227
330
1F
100
AcDbEntity
  8
0
  6
Continuous
 62
     7
370
    25
100
AcDbCircle
 10
246.2433501725
 20
533.0642175453
 30
0.0
 40
3.0
100
AcDbArc
 50
90.0
 51
180.0
  0
LINE
  5
228
330
1F
100
AcDbEntity
  8
0
  6
Continuous
 62
     7
370
    25
100
AcDbLine
 10
243.2433501725
 20
532.0642175453
 30
0.0
 11
243.2433501725
 21
533.0642175453
 31
0.0
  0
ARC
  5
229
330
1F
100
AcDbEntity
  8
0
  6
Continuous
 62
     7
370
    25
100
AcDbCircle
 10
240.2433501725
 20
532.0642175453
 30
0.0
 40
3.0
100
AcDbArc
 50
270.0
 51
0.0
  0
LINE
  5
22A
330
1F
100
AcDbEntity
  8
0
  6
Continuous
 62
     7
370
    25
100
AcDbLine
 10
216.7140608506
 20
529.0642175453
 30
0.0
 11
240.2433501725
 21
529.0642175453
 31
0.0
  0
LINE
  5
22B
330
1F
100
AcDbEntity
  8
0
  6
Continuous
 62
     7
370
    25
100
AcDbLine
 10
608.7726394944
 20
538.6642175453
 30
0.0
 11
608.7726394944
 21
529.0642175453
 31
0.0
  0
LINE
  5
22C
330
1F
100
AcDbEntity
  8
0
  6
Continuous
 62
     7
370
    25
100
AcDbLine
 10
585.2433501725
 20
529.0642175453
 30
0.0
 11
608.7726394944
 21
529.0642175453
 31
0.0
  0
ARC
  5
22D
330
1F
100
AcDbEntity
  8
0
  6
Continuous
 62
     7
370
    25
100
AcDbCircle
 10
585.2433501725
 20
532.0642175453
 30
0.0
 40
3.0
100
AcDbArc
 50
180.0
 51
270.0
  0
LINE
  5
22E
330
1F
100
AcDbEntity
  8
0
  6
Continuous
 62
     7
370
    25
100
AcDbLine
 10
582.2433501725
 20
532.0642175453
 30
0.0
 11
582.2433501725
 21
533.0642175453
 31
0.0
  0
ARC
  5
22F
330
1F
100
AcDbEntity
  8
0
  6
Continuous
 62
     7
370
    25
100
AcDbCircle
 10
579.2433501725
 20
533.0642175453
 30
0.0
 40
3.0
100
AcDbArc
 50
0.0
 51
90.0
  0
LINE
  5
230
330
1F
100
AcDbEntity
  8
0
  6
Continuous
 62
     7
370
    25
100
AcDbLine
 10
579.2433501725
 20
536.0642175453
 30
0.0
 11
567.2433501725
 21
536.0642175453
 31
0.0
  0
ARC
  5
231
330
1F
100
AcDbEntity
  8
0
  6
Continuous
 62
     7
370
    25
100
AcDbCircle
 10
567.2433501725
 20
533.0642175453
 30
0.0
 40
3.000000000000114
100
AcDbArc
 50
90.0
 51
180.0
  0
LINE
  5
232
330
1F
100
AcDbEntity
  8
0
  6
Continuous
 62
     7
370
    25
100
AcDbLine
 10
564.2433501725
 20
532.0642175453
 30
0.0
 11
564.2433501725
 21
533.0642175453
 31
0.0
  0
ARC
  5
233
330
1F
100
AcDbEntity
  8
0
  6
Continuous
 62
     7
370
    25
100
AcDbCircle
 10
561.2433501725
 20
532.0642175453
 30
0.0
 40
3.0
100
AcDbArc
 50
270.0
 51
0.0
  0
LINE
  5
234
330
1F
100
AcDbEntity
  8
0
  6
Continuous
 62
     7
370
    25
100
AcDbLine
 10
264.2433501725
 20
529.0642175453
 30
0.0
 11
561.2433501725
 21
529.0642175453
 31
0.0
  0
ARC
  5
235
330
1F
100
AcDbEntity
  8
0
  6
Continuous
 62
     7
370
    25
100
AcDbCircle
 10
264.2433501725
 20
532.0642175453
 30
0.0
 40
3.0
100
AcDbArc
 50
180.0
 51
270.0
  0
LINE
  5
236
330
1F
100
AcDbEntity
  8
0
  6
Continuous
 62
     7
370
    25
100
AcDbLine
 10
261.2433501725
 20
532.0642175453
 30
0.0
 11
261.2433501725
 21
533.0642175453
 31
0.0
  0
LINE
  5
237
330
1F
100
AcDbEntity
  8
0
  6
Continuous
 62
     7
370
    25
100
AcDbLine
 10
216.7140608506
 20
538.6642175453
 30
0.0
 11
216.7140608506
 21
529.0642175453
 31
0.0
  0
SPLINE
  5
238
330
1F
100
AcDbEntity
  8
0
  6
Continuous
 62
     7
370
    25
100
AcDbSpline
210
0.0
220
0.0
230
1.0
 70
     8
 71
     3
 72
    20
 73
    16
 74
     0
 42
0.000000001
 43
0.00000001
 40
0.0
 40
0.0
 40
0.0
 40
0.0
 40
0.1250000000000038
 40
0.1250000000000038
 40
0.2500000000000076
 40
0.2500000000000076
 40
0.3750000000000114
 40
0.3750000000000114
 40
0.5000000000000152
 40
0.5000000000000152
 40
0.7500000000000102
 40
0.7500000000000102
 40
0.8750000000000052
 40
0.8750000000000052
 40
1.0
 40
1.0
 40
1.0
 40
1.0
 10
607.8433501724775
 20
541.064217545253
 30
0.0
 10
607.882390903332
 20
541.064217545253
 30
0.0
 10
607.9209096075318
 20
541.0486809847781
 30
0.0
 10
607.9983163588397
 20
540.9873626328175
 30
0.0
 10
608.0374607768265
 20
540.9409388872307
 30
0.0
 10
608.1146115307416
 20
540.8209880170766
 30
0.0
 10
608.1529391124827
 20
540.7473833727931
 30
0.0
 10
608.2304854329592
 20
540.5726530066976
 30
0.0
 10
608.2694616406279
 20
540.471802377796
 30
0.0
 10
608.3849564970731
 20
540.1405170978121
 30
0.0
 10
608.4628689407431
 20
539.8728369364281
 30
0.0
 10
608.5783488661439
 20
539.4401629103728
 30
0.0
 10
608.617214662009
 20
539.2886448235217
 30
0.0
 10
608.6949889956775
 20
538.9792190661356
 30
0.0
 10
608.7335987626323
 20
538.8225967364417
 30
0.0
 10
608.7726394943589
 20
538.6642175452531
 30
0.0
  0
SPLINE
  5
239
330
1F
100
AcDbEntity
  8
0
  6
Continuous
 62
     7
370
    25
100
AcDbSpline
210
0.0
220
0.0
230
1.0
 70
     8
 71
     3
 72
    20
 73
    16
 74
     0
 42
0.000000001
 43
0.00000001
 40
0.0
 40
0.0
 40
0.0
 40
0.0
 40
0.1250000000000006
 40
0.1250000000000006
 40
0.2500000000000012
 40
0.2500000000000012
 40
0.3750000000000018
 40
0.3750000000000018
 40
0.5000000000000024
 40
0.5000000000000024
 40
0.7500000000000039
 40
0.7500000000000039
 40
0.875000000000002
 40
0.875000000000002
 40
1.0
 40
1.0
 40
1.0
 40
1.0
 10
216.7140608505961
 20
538.6642175452531
 30
0.0
 10
216.7531015814506
 20
538.8225967329037
 30
0.0
 10
216.7916202856504
 20
538.9788424575954
 30
0.0
 10
216.8690270369583
 20
539.286834307012
 30
0.0
 10
216.908171454945
 20
539.4394784144831
 30
0.0
 10
216.9853222088603
 20
539.7285627036701
 30
0.0
 10
217.0236497906012
 20
539.8663672418542
 30
0.0
 10
217.1011961110778
 20
540.1279859174931
 30
0.0
 10
217.1401723187465
 20
540.2507322241757
 30
0.0
 10
217.2556671751916
 20
540.5820566011234
 30
0.0
 10
217.3335796188616
 20
540.7610677251517
 30
0.0
 10
217.4490595442625
 20
540.9406828245326
 30
0.0
 10
217.4879253401275
 20
540.9869271734003
 30
0.0
 10
217.565699673796
 20
541.0486804794116
 30
0.0
 10
217.6043094407508
 20
541.064217545253
 30
0.0
 10
217.6433501724775
 20
541.064217545253
 30
0.0
  0
LINE
  5
23A
330
1F
100
AcDbEntity
  8
0
  6
Continuous
 62
     7
370
    25
100
AcDbLine
 10
217.6433501725
 20
541.0642175453
 30
0.0
 11
607.8433501725
 21
541.0642175453
 31
0.0
  0
SPLINE
  5
23B
330
1F
100
AcDbEntity
  8
0
  6
Continuous
 62
     7
370
    25
100
AcDbSpline
210
0.0
220
0.0
230
1.0
 70
     8
 71
     3
 72
    20
 73
    16
 74
     0
 42
0.000000001
 43
0.00000001
 40
0.0
 40
0.0
 40
0.0
 40
0.0
 40
0.1249999999999996
 40
0.1249999999999996
 40
0.2499999999999993
 40
0.2499999999999993
 40
0.3749999999999989
 40
0.3749999999999989
 40
0.4999999999999986
 40
0.4999999999999986
 40
0.7500000000000004
 40
0.7500000000000004
 40
0.8750000000000001
 40
0.8750000000000001
 40
1.0
 40
1.0
 40
1.0
 40
1.0
 10
217.6433501724775
 20
541.064217545253
 30
0.0
 10
217.4849709848268
 20
541.064217545253
 30
0.0
 10
217.3287252601351
 20
541.0486809847781
 30
0.0
 10
217.0207334107185
 20
540.9873626328175
 30
0.0
 10
216.8680893032473
 20
540.9409388872307
 30
0.0
 10
216.5790050140602
 20
540.8209880170766
 30
0.0
 10
216.4412004758762
 20
540.7473833727931
 30
0.0
 10
216.1795818002373
 20
540.5726530066976
 30
0.0
 10
216.0568354935547
 20
540.471802377796
 30
0.0
 10
215.7255111166071
 20
540.1405170978121
 30
0.0
 10
215.5464999925787
 20
539.8728369364281
 30
0.0
 10
215.3668848931978
 20
539.4401629103728
 30
0.0
 10
215.3206405443301
 20
539.2886448235217
 30
0.0
 10
215.2588872383189
 20
538.9792190661356
 30
0.0
 10
215.2433501724774
 20
538.8225967364417
 30
0.0
 10
215.2433501724775
 20
538.664217545253
 30
0.0
  0
SPLINE
  5
23C
330
1F
100
AcDbEntity
  8
0
  6
Continuous
 62
     7
370
    25
100
AcDbSpline
210
0.0
220
0.0
230
1.0
 70
     8
 71
     3
 72
     9
 73
     5
 74
     0
 42
0.000000001
 43
0.00000001
 40
0.0
 40
0.0
 40
0.0
 40
0.0
 40
0.4825784287291909
 40
0.9999999999999999
 40
0.9999999999999999
 40
0.9999999999999999
 40
0.9999999999999999
 10
216.867179940531
 20
539.2767572844309
 30
0.0
 10
216.8033717474697
 20
539.1886229431146
 30
0.0
 10
216.6711482802306
 20
539.0059907820615
 30
0.0
 10
216.652828975774
 20
538.7807578980172
 30
0.0
 10
216.6433501724775
 20
538.664217545253
 30
0.0
  0
LINE
  5
23D
330
1F
100
AcDbEntity
  8
0
  6
Continuous
 62
     7
370
    25
100
AcDbLine
 10
215.2433501725
 20
538.6642175453
 30
0.0
 11
216.6433501725
 21
538.6642175453
 31
0.0
  0
SPLINE
  5
23E
330
1F
100
AcDbEntity
  8
0
  6
Continuous
 62
     7
370
    25
100
AcDbSpline
210
0.0
220
0.0
230
1.0
 70
     8
 71
     3
 72
    20
 73
    16
 74
     0
 42
0.000000001
 43
0.00000001
 40
0.0
 40
0.0
 40
0.0
 40
0.0
 40
0.1249999999999995
 40
0.1249999999999995
 40
0.2499999999999988
 40
0.2499999999999988
 40
0.3749999999999982
 40
0.3749999999999982
 40
0.4999999999999975
 40
0.4999999999999975
 40
0.7499999999999988
 40
0.7499999999999988
 40
0.8749999999999993
 40
0.8749999999999993
 40
1.0
 40
1.0
 40
1.0
 40
1.0
 10
610.2433501724776
 20
538.664217545253
 30
0.0
 10
610.2433501724774
 20
538.8225967329037
 30
0.0
 10
610.2278136120026
 20
538.9788424575954
 30
0.0
 10
610.166495260042
 20
539.286834307012
 30
0.0
 10
610.1200715144553
 20
539.4394784144831
 30
0.0
 10
610.0001206443011
 20
539.7285627036701
 30
0.0
 10
609.9265160000177
 20
539.8663672418542
 30
0.0
 10
609.751785633922
 20
540.1279859174932
 30
0.0
 10
609.6509350050205
 20
540.2507322241759
 30
0.0
 10
609.3196497250366
 20
540.5820566011234
 30
0.0
 10
609.0519695636526
 20
540.7610677251517
 30
0.0
 10
608.6192955375973
 20
540.9406828245327
 30
0.0
 10
608.4677774507461
 20
540.9869271734003
 30
0.0
 10
608.1583516933599
 20
541.0486804794116
 30
0.0
 10
608.0017293636662
 20
541.064217545253
 30
0.0
 10
607.8433501724775
 20
541.064217545253
 30
0.0
  0
LINE
  5
23F
330
1F
100
AcDbEntity
  8
0
  6
Continuous
 62
     7
370
    25
100
AcDbLine
 10
610.2433501725
 20
538.6642175453
 30
0.0
 11
608.8433501725
 21
538.6642175453
 31
0.0
  0
SPLINE
  5
240
330
1F
100
AcDbEntity
  8
0
  6
Continuous
 62
     7
370
    25
100
AcDbSpline
210
0.0
220
0.0
230
1.0
 70
     8
 71
     3
 72
     9
 73
     5
 74
     0
 42
0.000000001
 43
0.00000001
 40
0.0
 40
0.0
 40
0.0
 40
0.0
 40
0.6784508005730034
 40
1.0
 40
1.0
 40
1.0
 40
1.0
 10
608.8433501724775
 20
538.664217545253
 30
0.0
 10
608.8301006020131
 20
538.8149247497063
 30
0.0
 10
608.8105714475729
 20
539.0370590656007
 30
0.0
 10
608.669723793934
 20
539.2038921704898
 30
0.0
 10
608.6244343436651
 20
539.2575372218049
 30
0.0
  0
LINE
  5
241
330
1F
100
AcDbEntity
  8
0
  6
Continuous
 62
     7
370
    25
100
AcDbLine
 10
215.2433501725
 20
529.0642175453
 30
0.0
 11
216.6433501725
 21
529.0642175453
 31
0.0
  0
LINE
  5
242
330
1F
100
AcDbEntity
  8
0
  6
Continuous
 62
     7
370
    25
100
AcDbLine
 10
215.2433501725
 20
538.6642175453
 30
0.0
 11
215.2433501725
 21
529.0642175453
 31
0.0
  0
LINE
  5
243
330
1F
100
AcDbEntity
  8
0
  6
Continuous
 62
     7
370
    25
100
AcDbLine
 10
216.6433501725
 20
538.6642175453
 30
0.0
 11
216.6433501725
 21
529.0642175453
 31
0.0
  0
LINE
  5
244
330
1F
100
AcDbEntity
  8
0
  6
Continuous
 62
     7
370
    25
100
AcDbLine
 10
608.8433501725
 20
538.6642175453
 30
0.0
 11
608.8433501725
 21
529.0642175453
 31
0.0
  0
LINE
  5
245
330
1F
100
AcDbEntity
  8
0
  6
Continuous
 62
     7
370
    25
100
AcDbLine
 10
610.2433501725
 20
529.0642175453
 30
0.0
 11
608.8433501725
 21
529.0642175453
 31
0.0
  0
LINE
  5
246
330
1F
100
AcDbEntity
  8
0
  6
Continuous
 62
     7
370
    25
100
AcDbLine
 10
610.2433501725
 20
538.6642175453
 30
0.0
 11
610.2433501725
 21
529.0642175453
 31
0.0
  0
LINE
  5
247
330
1F
100
AcDbEntity
  8
0
  6
Continuous
 62
     7
370
    25
100
AcDbLine
 10
551.3748974581
 20
524.5642175453
 30
0.0
 11
551.4312394199
 21
524.5642175453
 31
0.0
  0
LINE
  5
248
330
1F
100
AcDbEntity
  8
0
  6
Continuous
 62
     7
370
    25
100
AcDbLine
 10
551.9312394199
 20
524.0642175453
 30
0.0
 11
551.8748974581
 21
524.0642175453
 31
0.0
  0
LINE
  5
249
330
1F
100
AcDbEntity
  8
0
  6
Continuous
 62
     7
370
    25
100
AcDbLine
 10
552.3213086987
 20
524.5642175453
 30
0.0
 11
555.7682983547
 21
524.5642175453
 31
0.0
  0
LINE
  5
24A
330
1F
100
AcDbEntity
  8
0
  6
Continuous
 62
     7
370
    25
100
AcDbLine
 10
555.3622429784
 20
524.0642175453
 30
0.0
 11
552.7770007364
 21
524.0642175453
 31
0.0
  0
LINE
  5
24B
330
1F
100
AcDbEntity
  8
0
  6
Continuous
 62
     7
370
    25
100
AcDbLine
 10
555.7682983547
 20
524.5642175453
 30
0.0
 11
556.778955753
 21
524.5642175453
 31
0.0
  0
LINE
  5
24C
330
1F
100
AcDbEntity
  8
0
  6
Continuous
 62
     7
370
    25
100
AcDbLine
 10
556.3729003767
 20
524.0642175453
 30
0.0
 11
555.3622429784
 21
524.0642175453
 31
0.0
  0
LINE
  5
24D
330
1F
100
AcDbEntity
  8
0
  6
Continuous
 62
     7
370
    25
100
AcDbLine
 10
551.6084712691
 20
524.5642175453
 30
0.0
 11
552.3213086987
 21
524.5642175453
 31
0.0
  0
LINE
  5
24E
330
1F
100
AcDbEntity
  8
0
  6
Continuous
 62
     7
370
    25
100
AcDbLine
 10
552.7770007364
 20
524.0642175453
 30
0.0
 11
552.0641633068
 21
524.0642175453
 31
0.0
  0
LINE
  5
24F
330
1F
100
AcDbEntity
  8
0
  6
Continuous
 62
     7
370
    25
100
AcDbLine
 10
556.778955753
 20
524.5642175453
 30
0.0
 11
557.1547342479
 21
524.5642175453
 31
0.0
  0
LINE
  5
250
330
1F
100
AcDbEntity
  8
0
  6
Continuous
 62
     7
370
    25
100
AcDbLine
 10
556.6547342479
 20
524.0642175453
 30
0.0
 11
556.3729003767
 21
524.0642175453
 31
0.0
  0
LINE
  5
251
330
1F
100
AcDbEntity
  8
0
  6
Continuous
 62
     7
370
    25
100
AcDbLine
 10
551.4312394199
 20
524.5642175453
 30
0.0
 11
551.6084712691
 21
524.5642175453
 31
0.0
  0
LINE
  5
252
330
1F
100
AcDbEntity
  8
0
  6
Continuous
 62
     7
370
    25
100
AcDbLine
 10
552.0641633068
 20
524.0642175453
 30
0.0
 11
551.9312394199
 21
524.0642175453
 31
0.0
  0
LINE
  5
253
330
1F
100
AcDbEntity
  8
0
  6
Continuous
 62
     7
370
    25
100
AcDbLine
 10
273.5812351183
 20
524.0642175453
 30
0.0
 11
272.0005729294
 21
524.0642175453
 31
0.0
  0
LINE
  5
254
330
1F
100
AcDbEntity
  8
0
  6
Continuous
 62
     7
370
    25
100
AcDbLine
 10
271.9736855331
 20
524.5642175453
 30
0.0
 11
274.0812351183
 21
524.5642175453
 31
0.0
  0
LINE
  5
255
330
1F
100
AcDbEntity
  8
0
  6
Continuous
 62
     7
370
    25
100
AcDbLine
 10
272.0005729294
 20
524.0642175453
 30
0.0
 11
270.2710282451
 21
524.0642175453
 31
0.0
  0
LINE
  5
256
330
1F
100
AcDbEntity
  8
0
  6
Continuous
 62
     7
370
    25
100
AcDbLine
 10
270.2441408488
 20
524.5642175453
 30
0.0
 11
271.9736855331
 21
524.5642175453
 31
0.0
  0
LINE
  5
257
330
1F
100
AcDbEntity
  8
0
  6
Continuous
 62
     7
370
    25
100
AcDbLine
 10
268.351690434
 20
524.5642175453
 30
0.0
 11
270.2441408488
 21
524.5642175453
 31
0.0
  0
LINE
  5
258
330
1F
100
AcDbEntity
  8
0
  6
Continuous
 62
     7
370
    25
100
AcDbLine
 10
270.2710282451
 20
524.0642175453
 30
0.0
 11
268.851690434
 21
524.0642175453
 31
0.0
  0
ARC
  5
259
330
1F
100
AcDbEntity
  8
0
  6
Continuous
 62
     7
370
    25
100
AcDbCircle
 10
493.7433501725
 20
480.9642175453
 30
0.0
 40
3.000000000000057
100
AcDbArc
 50
180.0
 51
270.0
  0
LINE
  5
25A
330
1F
100
AcDbEntity
  8
0
  6
Continuous
 62
     7
370
    25
100
AcDbLine
 10
490.7433501725
 20
480.9642175453
 30
0.0
 11
490.7433501725
 21
497.0942175453
 31
0.0
  0
LINE
  5
25B
330
1F
100
AcDbEntity
  8
0
  6
Continuous
 62
     7
370
    25
100
AcDbLine
 10
490.7433501725
 20
497.0942175453
 30
0.0
 11
488.2433501725
 21
497.0942175453
 31
0.0
  0
LINE
  5
25C
330
1F
100
AcDbEntity
  8
0
  6
Continuous
 62
     7
370
    25
100
AcDbLine
 10
488.2433501725
 20
496.6021667377
 30
0.0
 11
488.2433501725
 21
497.0942175453
 31
0.0
  0
LINE
  5
25D
330
1F
100
AcDbEntity
  8
0
  6
Continuous
 62
     7
370
    25
100
AcDbLine
 10
338.2433501725
 20
496.6021667377
 30
0.0
 11
338.2433501725
 21
497.0942175453
 31
0.0
  0
LINE
  5
25E
330
1F
100
AcDbEntity
  8
0
  6
Continuous
 62
     7
370
    25
100
AcDbLine
 10
338.2433501725
 20
497.0942175453
 30
0.0
 11
335.7433501725
 21
497.0942175453
 31
0.0
  0
LINE
  5
25F
330
1F
100
AcDbEntity
  8
0
  6
Continuous
 62
     7
370
    25
100
AcDbLine
 10
335.7433501725
 20
497.0942175453
 30
0.0
 11
335.7433501725
 21
480.9642175453
 31
0.0
  0
ARC
  5
260
330
1F
100
AcDbEntity
  8
0
  6
Continuous
 62
     7
370
    25
100
AcDbCircle
 10
332.7433501725
 20
480.9642175453
 30
0.0
 40
3.000000000000057
100
AcDbArc
 50
270.0
 51
0.0
  0
LINE
  5
261
330
1F
100
AcDbEntity
  8
0
  6
Continuous
 62
     7
370
    25
100
AcDbLine
 10
332.7433501725
 20
477.9642175453
 30
0.0
 11
267.7433501725
 21
477.9642175453
 31
0.0
  0
ARC
  5
262
330
1F
100
AcDbEntity
  8
0
  6
Continuous
 62
     7
370
    25
100
AcDbCircle
 10
267.7433501725
 20
480.9642175453
 30
0.0
 40
3.000000000000057
100
AcDbArc
 50
180.0
 51
270.0
  0
LINE
  5
263
330
1F
100
AcDbEntity
  8
0
  6
Continuous
 62
     7
370
    25
100
AcDbLine
 10
264.7433501725
 20
480.9642175453
 30
0.0
 11
264.7433501725
 21
501.9642175453
 31
0.0
  0
LINE
  5
264
330
1F
100
AcDbEntity
  8
0
  6
Continuous
 62
     7
370
    25
100
AcDbLine
 10
264.7433501725
 20
501.9642175453
 30
0.0
 11
261.5433501725
 21
501.9642175453
 31
0.0
  0
LINE
  5
265
330
1F
100
AcDbEntity
  8
0
  6
Continuous
 62
     7
370
    25
100
AcDbLine
 10
261.5433501725
 20
520.9642175453
 30
0.0
 11
262.7433501725
 21
520.9642175453
 31
0.0
  0
LINE
  5
266
330
1F
100
AcDbEntity
  8
0
  6
Continuous
 62
     7
370
    25
100
AcDbLine
 10
262.7433501725
 20
520.9642175453
 30
0.0
 11
262.7433501725
 21
521.1642175453
 31
0.0
  0
LINE
  5
267
330
1F
100
AcDbEntity
  8
0
  6
Continuous
 62
     7
370
    25
100
AcDbLine
 10
562.7433501725
 20
521.1642175453
 30
0.0
 11
562.7433501725
 21
520.9642175453
 31
0.0
  0
LINE
  5
268
330
1F
100
AcDbEntity
  8
0
  6
Continuous
 62
     7
370
    25
100
AcDbLine
 10
562.7433501725
 20
520.9642175453
 30
0.0
 11
563.9433501725
 21
520.9642175453
 31
0.0
  0
LINE
  5
269
330
1F
100
AcDbEntity
  8
0
  6
Continuous
 62
     7
370
    25
100
AcDbLine
 10
563.9433501725
 20
501.9642175453
 30
0.0
 11
560.7433501725
 21
501.9642175453
 31
0.0
  0
LINE
  5
26A
330
1F
100
AcDbEntity
  8
0
  6
Continuous
 62
     7
370
    25
100
AcDbLine
 10
560.7433501725
 20
501.9642175453
 30
0.0
 11
560.7433501725
 21
480.9642175453
 31
0.0
  0
ARC
  5
26B
330
1F
100
AcDbEntity
  8
0
  6
Continuous
 62
     7
370
    25
100
AcDbCircle
 10
557.7433501725
 20
480.9642175453
 30
0.0
 40
3.000000000000114
100
AcDbArc
 50
270.0
 51
0.0
  0
LINE
  5
26C
330
1F
100
AcDbEntity
  8
0
  6
Continuous
 62
     7
370
    25
100
AcDbLine
 10
557.7433501725
 20
477.9642175453
 30
0.0
 11
493.7433501725
 21
477.9642175453
 31
0.0
  0
LINE
  5
26D
330
1F
100
AcDbEntity
  8
0
  6
Continuous
 62
     7
370
    25
100
AcDbLine
 10
338.2433501725
 20
495.7021667377
 30
0.0
 11
338.2433501725
 21
496.6021667377
 31
0.0
  0
LINE
  5
26E
330
1F
100
AcDbEntity
  8
0
  6
Continuous
 62
     7
370
    25
100
AcDbLine
 10
488.2433501725
 20
496.6021667377
 30
0.0
 11
488.2433501725
 21
495.7021667377
 31
0.0
  0
LINE
  5
26F
330
1F
100
AcDbEntity
  8
0
  6
Continuous
 62
     7
370
    25
100
AcDbLine
 10
563.9433501725
 20
520.9642175453
 30
0.0
 11
564.7433501725
 21
520.9642175453
 31
0.0
  0
LINE
  5
270
330
1F
100
AcDbEntity
  8
0
  6
Continuous
 62
     7
370
    25
100
AcDbLine
 10
565.7433501725
 20
501.9642175453
 30
0.0
 11
565.7433501725
 21
502.5642175453
 31
0.0
  0
LINE
  5
271
330
1F
100
AcDbEntity
  8
0
  6
Continuous
 62
     7
370
    25
100
AcDbLine
 10
565.7433501725
 20
501.9642175453
 30
0.0
 11
563.9433501725
 21
501.9642175453
 31
0.0
  0
LINE
  5
272
330
1F
100
AcDbEntity
  8
0
  6
Continuous
 62
     7
370
    25
100
AcDbLine
 10
259.7433501725
 20
501.9642175453
 30
0.0
 11
259.7433501725
 21
502.5642175453
 31
0.0
  0
LINE
  5
273
330
1F
100
AcDbEntity
  8
0
  6
Continuous
 62
     7
370
    25
100
AcDbLine
 10
260.7433501725
 20
520.9642175453
 30
0.0
 11
261.5433501725
 21
520.9642175453
 31
0.0
  0
LINE
  5
274
330
1F
100
AcDbEntity
  8
0
  6
Continuous
 62
     7
370
    25
100
AcDbLine
 10
261.5433501725
 20
501.9642175453
 30
0.0
 11
259.7433501725
 21
501.9642175453
 31
0.0
  0
LINE
  5
275
330
1F
100
AcDbEntity
  8
0
  6
Continuous
 62
     7
370
    25
100
AcDbLine
 10
262.7433501725
 20
521.1642175453
 30
0.0
 11
262.7433501725
 21
522.9642175453
 31
0.0
  0
LINE
  5
276
330
1F
100
AcDbEntity
  8
0
  6
Continuous
 62
     7
370
    25
100
AcDbLine
 10
562.7433501725
 20
522.9642175453
 30
0.0
 11
562.7433501725
 21
521.1642175453
 31
0.0
  0
LINE
  5
277
330
1F
100
AcDbEntity
  8
0
  6
Continuous
 62
     7
370
    25
100
AcDbLine
 10
338.2433501725
 20
495.7021667377
 30
0.0
 11
338.2433501725
 21
489.0772956071
 31
0.0
  0
LINE
  5
278
330
1F
100
AcDbEntity
  8
0
  6
Continuous
 62
     7
370
    25
100
AcDbLine
 10
488.2433501725
 20
489.0772956071
 30
0.0
 11
488.2433501725
 21
495.7021667377
 31
0.0
  0
LINE
  5
279
330
1F
100
AcDbEntity
  8
0
  6
Continuous
 62
     7
370
    25
100
AcDbLine
 10
338.2433501725
 20
489.0772956071
 30
0.0
 11
338.2433501725
 21
488.5772956071
 31
0.0
  0
LINE
  5
27A
330
1F
100
AcDbEntity
  8
0
  6
Continuous
 62
     7
370
    25
100
AcDbLine
 10
488.2433501725
 20
488.5772956071
 30
0.0
 11
488.2433501725
 21
489.0772956071
 31
0.0
  0
ARC
  5
27B
330
1F
100
AcDbEntity
  8
0
  6
Continuous
 62
     7
370
    25
100
AcDbCircle
 10
341.2433501725
 20
482.0596041535
 30
0.0
 40
3.0
100
AcDbArc
 50
180.0
 51
270.0
  0
LINE
  5
27C
330
1F
100
AcDbEntity
  8
0
  6
Continuous
 62
     7
370
    25
100
AcDbLine
 10
338.2433501725
 20
482.0596041535
 30
0.0
 11
338.2433501725
 21
488.5772956071
 31
0.0
  0
LINE
  5
27D
330
1F
100
AcDbEntity
  8
0
  6
Continuous
 62
     7
370
    25
100
AcDbLine
 10
488.2433501725
 20
488.5772956071
 30
0.0
 11
488.2433501725
 21
482.0596041535
 31
0.0
  0
ARC
  5
27E
330
1F
100
AcDbEntity
  8
0
  6
Continuous
 62
     7
370
    25
100
AcDbCircle
 10
485.2433501725
 20
482.0596041535
 30
0.0
 40
3.0
100
AcDbArc
 50
270.0
 51
0.0
  0
LINE
  5
27F
330
1F
100
AcDbEntity
  8
0
  6
Continuous
 62
     7
370
    25
100
AcDbLine
 10
485.2433501725
 20
479.0596041535
 30
0.0
 11
341.2433501725
 21
479.0596041535
 31
0.0
  0
LINE
  5
280
330
1F
100
AcDbEntity
  8
0
  6
Continuous
 62
     7
370
    25
100
AcDbLine
 10
574.4021001725
 20
507.4642175453
 30
0.0
 11
574.4021001725
 21
507.6642175452
 31
0.0
  0
LINE
  5
281
330
1F
100
AcDbEntity
  8
0
  6
Continuous
 62
     7
370
    25
100
AcDbLine
 10
574.4021001725
 20
513.2642175453
 30
0.0
 11
574.4021001725
 21
513.4642175453
 31
0.0
  0
LINE
  5
282
330
1F
100
AcDbEntity
  8
0
  6
Continuous
 62
     7
370
    25
100
AcDbLine
 10
574.9433501725
 20
512.0436208826
 30
0.0
 11
574.9433501725
 21
512.9229675453
 31
0.0
  0
LINE
  5
283
330
1F
100
AcDbEntity
  8
0
  6
Continuous
 62
     7
370
    25
100
AcDbLine
 10
574.9433501725
 20
508.0054675452
 30
0.0
 11
574.9433501725
 21
512.0436208826
 31
0.0
  0
LINE
  5
284
330
1F
100
AcDbEntity
  8
0
  6
Continuous
 62
     7
370
    25
100
AcDbLine
 10
564.2433501725
 20
524.7642175453
 30
0.0
 11
564.2433501725
 21
522.9642175453
 31
0.0
  0
LINE
  5
285
330
1F
100
AcDbEntity
  8
0
  6
Continuous
 62
     7
370
    25
100
AcDbLine
 10
564.2433501725
 20
522.9642175453
 30
0.0
 11
261.2433501725
 21
522.9642175453
 31
0.0
  0
LINE
  5
286
330
1F
100
AcDbEntity
  8
0
  6
Continuous
 62
     7
370
    25
100
AcDbLine
 10
261.2433501725
 20
522.9642175453
 30
0.0
 11
261.2433501725
 21
524.7642175453
 31
0.0
  0
LINE
  5
287
330
1F
100
AcDbEntity
  8
0
  6
Continuous
 62
     7
370
    25
100
AcDbLine
 10
564.2433501725
 20
524.7642175453
 30
0.0
 11
564.7433501725
 21
530.1392175453
 31
0.0
  0
LINE
  5
288
330
1F
100
AcDbEntity
  8
0
  6
Continuous
 62
     7
370
    25
100
AcDbLine
 10
260.7433501725
 20
530.1392175453
 30
0.0
 11
261.2433501725
 21
524.7642175453
 31
0.0
  0
LINE
  5
289
330
1F
100
AcDbEntity
  8
0
  6
Continuous
 62
     7
370
    25
100
AcDbLine
 10
250.5433501725
 20
508.246879468
 30
0.0
 11
250.5433501725
 21
508.0054675452
 31
0.0
  0
LINE
  5
28A
330
1F
100
AcDbEntity
  8
0
  6
Continuous
 62
     7
370
    25
100
AcDbLine
 10
250.5433501725
 20
512.9229675453
 30
0.0
 11
250.5433501725
 21
508.246879468
 31
0.0
  0
LINE
  5
28B
330
1F
100
AcDbEntity
  8
0
  6
Continuous
 62
     7
370
    25
100
AcDbLine
 10
251.0846001725
 20
513.4642175453
 30
0.0
 11
251.0846001725
 21
513.2642175453
 31
0.0
  0
LINE
  5
28C
330
1F
100
AcDbEntity
  8
0
  6
Continuous
 62
     7
370
    25
100
AcDbLine
 10
251.0846001725
 20
507.6642175452
 30
0.0
 11
251.0846001725
 21
507.4642175452
 31
0.0
  0
SPLINE
  5
28D
330
1F
100
AcDbEntity
  8
0
  6
Continuous
 62
     7
370
    25
100
AcDbSpline
210
0.0
220
0.0
230
1.0
 70
    24
 71
     3
 72
    15
 73
    11
 74
     0
 42
0.000000001
 43
0.00000001
 40
0.0
 40
0.0
 40
0.0
 40
0.0
 40
0.0346967497918684
 40
0.2211884951269666
 40
0.4076802404620656
 40
0.5080720152630801
 40
0.6105942475634835
 40
0.7131164798638866
 40
0.8135082546649015
 40
0.9999999999999999
 40
0.9999999999999999
 40
0.9999999999999999
 40
0.9999999999999999
 10
261.7433501724773
 20
504.6909687358502
 30
0.0
 10
261.7433501724773
 20
504.6842476322187
 30
0.0
 10
261.7433501724774
 20
504.6414012328659
 30
0.0
 10
261.7433501724773
 20
505.1294421956244
 30
0.0
 10
261.7433501724773
 20
506.225353253093
 30
0.0
 10
261.7433501724773
 20
507.4442503855404
 30
0.0
 10
261.7433501724773
 20
508.5244256133974
 30
0.0
 10
261.7433501724774
 20
509.6849025158631
 30
0.0
 10
261.7433501724773
 20
511.2154774109782
 30
0.0
 10
261.7433501724773
 20
512.2791032996283
 30
0.0
 10
261.7433501724774
 20
512.9705248503114
 30
0.0
  0
SPLINE
  5
28E
330
1F
100
AcDbEntity
  8
0
  6
Continuous
 62
     7
370
    25
100
AcDbSpline
210
0.0
220
0.0
230
1.0
 70
    24
 71
     3
 72
    12
 73
     8
 74
     0
 42
0.000000001
 43
0.00000001
 40
0.0
 40
0.0
 40
0.0
 40
0.0
 40
0.3344405486782639
 40
0.5144757571369881
 40
0.698331571026538
 40
0.8821873849160893
 40
1.0
 40
1.0
 40
1.0
 40
1.0
 10
261.7433501724774
 20
512.9705248503114
 30
0.0
 10
261.7433501724774
 20
513.5946703858133
 30
0.0
 10
261.7433501724774
 20
514.5548044012909
 30
0.0
 10
261.7433501724773
 20
515.4627153075861
 30
0.0
 10
261.7433501724774
 20
515.9684326455023
 30
0.0
 10
261.7433501724774
 20
516.2400523796406
 30
0.0
 10
261.7433501724774
 20
516.2381926481808
 30
0.0
 10
261.7433501724774
 20
516.2374663546558
 30
0.0
  0
SPLINE
  5
28F
330
1F
100
AcDbEntity
  8
0
  6
Continuous
 62
     7
370
    25
100
AcDbSpline
210
0.0
220
0.0
230
1.0
 70
     8
 71
     3
 72
     8
 73
     4
 74
     0
 42
0.000000001
 43
0.00000001
 40
0.0
 40
0.0
 40
0.0
 40
0.0
 40
1.0
 40
1.0
 40
1.0
 40
1.0
 10
265.7433501724703
 20
510.0808225175665
 30
0.0
 10
265.7433501724703
 20
511.0632009621393
 30
0.0
 10
265.5690348720909
 20
512.018692130329
 30
0.0
 10
265.296768185079
 20
512.9590747796566
 30
0.0
  0
SPLINE
  5
290
330
1F
100
AcDbEntity
  8
0
  6
Continuous
 62
     7
370
    25
100
AcDbSpline
210
0.0
220
0.0
230
1.0
 70
     8
 71
     3
 72
     8
 73
     4
 74
     0
 42
0.000000001
 43
0.00000001
 40
0.0
 40
0.0
 40
0.0
 40
0.0
 40
1.0
 40
1.0
 40
1.0
 40
1.0
 10
265.296768185079
 20
507.2025702554765
 30
0.0
 10
265.5690348720904
 20
508.1429529048023
 30
0.0
 10
265.7433501724703
 20
509.0984440729956
 30
0.0
 10
265.7433501724703
 20
510.0808225175665
 30
0.0
  0
LINE
  5
291
330
1F
100
AcDbEntity
  8
0
  6
Continuous
 62
     7
370
    25
100
AcDbLine
 10
261.7433501725
 20
507.2025702555
 30
0.0
 11
265.2967681851
 21
507.2025702555
 31
0.0
  0
LINE
  5
292
330
1F
100
AcDbEntity
  8
0
  6
Continuous
 62
     7
370
    25
100
AcDbLine
 10
261.7433501725
 20
512.9590747797
 30
0.0
 11
265.2967681851
 21
512.9590747797
 31
0.0
  0
LINE
  5
293
330
1F
100
AcDbEntity
  8
0
  6
Continuous
 62
     7
370
    25
100
AcDbLine
 10
265.7433501725
 20
510.0808225176
 30
0.0
 11
265.7433501725
 21
514.5898984245
 31
0.0
  0
SPLINE
  5
294
330
1F
100
AcDbEntity
  8
0
  6
Continuous
 62
     7
370
    25
100
AcDbSpline
210
0.0
220
0.0
230
1.0
 70
     8
 71
     3
 72
     8
 73
     4
 74
     0
 42
0.000000001
 43
0.00000001
 40
0.0
 40
0.0
 40
0.0
 40
0.0
 40
1.0
 40
1.0
 40
1.0
 40
1.0
 10
265.2967681850789
 20
512.9590747796627
 30
0.0
 10
265.5690348720903
 20
513.4918975207275
 30
0.0
 10
265.7433501724702
 20
514.0332807796221
 30
0.0
 10
265.7433501724702
 20
514.5898984245506
 30
0.0
  0
LINE
  5
295
330
1F
100
AcDbEntity
  8
0
  6
Continuous
 62
     7
370
    25
100
AcDbLine
 10
265.7433501725
 20
505.9551416383
 30
0.0
 11
265.7433501725
 21
510.0808225176
 31
0.0
  0
SPLINE
  5
296
330
1F
100
AcDbEntity
  8
0
  6
Continuous
 62
     7
370
    25
100
AcDbSpline
210
0.0
220
0.0
230
1.0
 70
     8
 71
     3
 72
     8
 73
     4
 74
     0
 42
0.000000001
 43
0.00000001
 40
0.0
 40
0.0
 40
0.0
 40
0.0
 40
1.0
 40
1.0
 40
1.0
 40
1.0
 10
265.7433501724702
 20
505.955141638269
 30
0.0
 10
265.7433501724702
 20
506.3809024379123
 30
0.0
 10
265.5690348720908
 20
506.7950103472093
 30
0.0
 10
265.296768185079
 20
507.202570255471
 30
0.0
  0
SPLINE
  5
297
330
1F
100
AcDbEntity
  8
0
  6
Continuous
 62
     7
370
    25
100
AcDbSpline
210
0.0
220
0.0
230
1.0
 70
     8
 71
     3
 72
     8
 73
     4
 74
     0
 42
0.000000001
 43
0.00000001
 40
0.0
 40
0.0
 40
0.0
 40
0.0
 40
1.0
 40
1.0
 40
1.0
 40
1.0
 10
265.7433501724702
 20
514.5898984245506
 30
0.0
 10
265.7433501724702
 20
515.1465160694804
 30
0.0
 10
265.569034872091
 20
515.6878993283723
 30
0.0
 10
265.296768185079
 20
516.2207220694385
 30
0.0
  0
LINE
  5
298
330
1F
100
AcDbEntity
  8
0
  6
Continuous
 62
     7
370
    25
100
AcDbLine
 10
265.2967681851
 20
516.2207220694
 30
0.0
 11
261.7433501725
 21
516.2207220694
 31
0.0
  0
SPLINE
  5
299
330
1F
100
AcDbEntity
  8
0
  6
Continuous
 62
     7
370
    25
100
AcDbSpline
210
0.0
220
0.0
230
1.0
 70
     8
 71
     3
 72
     8
 73
     4
 74
     0
 42
0.000000001
 43
0.00000001
 40
0.0
 40
0.0
 40
0.0
 40
0.0
 40
1.0
 40
1.0
 40
1.0
 40
1.0
 10
265.2967681850789
 20
504.707713021067
 30
0.0
 10
265.5690348720902
 20
505.1152729293279
 30
0.0
 10
265.7433501724702
 20
505.5293808386265
 30
0.0
 10
265.7433501724702
 20
505.955141638269
 30
0.0
  0
LINE
  5
29A
330
1F
100
AcDbEntity
  8
0
  6
Continuous
 62
     7
370
    25
100
AcDbLine
 10
261.7433501725
 20
504.7077130211
 30
0.0
 11
265.2967681851
 21
504.7077130211
 31
0.0
  0
LINE
  5
29B
330
1F
100
AcDbEntity
  8
0
  6
Continuous
 62
     7
370
    25
100
AcDbLine
 10
250.7433501725
 20
508.246879468
 30
0.0
 11
250.7433501725
 21
508.0054675452
 31
0.0
  0
LINE
  5
29C
330
1F
100
AcDbEntity
  8
0
  6
Continuous
 62
     7
370
    25
100
AcDbLine
 10
250.7433501725
 20
512.9229675453
 30
0.0
 11
250.7433501725
 21
508.246879468
 31
0.0
  0
LINE
  5
29D
330
1F
100
AcDbEntity
  8
0
  6
Continuous
 62
     7
370
    25
100
AcDbLine
 10
251.2846001725
 20
513.4642175453
 30
0.0
 11
251.2846001725
 21
507.4642175452
 31
0.0
  0
LINE
  5
29E
330
1F
100
AcDbEntity
  8
0
  6
Continuous
 62
     7
370
    25
100
AcDbLine
 10
265.2967681851
 20
516.2207220694
 30
0.0
 11
265.3719559406
 21
516.0107016016
 31
0.0
  0
LINE
  5
29F
330
1F
100
AcDbEntity
  8
0
  6
Continuous
 62
     7
370
    25
100
AcDbLine
 10
265.7433501725
 20
514.5898984245
 30
0.0
 11
265.7433501725
 21
515.4642175452
 31
0.0
  0
LINE
  5
2A0
330
1F
100
AcDbEntity
  8
0
  6
Continuous
 62
     7
370
    25
100
AcDbLine
 10
265.7433501725
 20
505.4642175453
 30
0.0
 11
265.7433501725
 21
505.9551416383
 31
0.0
  0
LINE
  5
2A1
330
1F
100
AcDbEntity
  8
0
  6
Continuous
 62
     7
370
    25
100
AcDbLine
 10
260.7433501725
 20
504.5642175453
 30
0.0
 11
260.7433501725
 21
502.5642175453
 31
0.0
  0
LINE
  5
2A2
330
1F
100
AcDbEntity
  8
0
  6
Continuous
 62
     7
370
    25
100
AcDbLine
 10
260.7433501725
 20
502.5642175453
 30
0.0
 11
258.7433501725
 21
502.5642175453
 31
0.0
  0
LINE
  5
2A3
330
1F
100
AcDbEntity
  8
0
  6
Continuous
 62
     7
370
    25
100
AcDbLine
 10
258.7433501725
 20
502.5642175453
 30
0.0
 11
258.7433501725
 21
504.5642175453
 31
0.0
  0
LINE
  5
2A4
330
1F
100
AcDbEntity
  8
0
  6
Continuous
 62
     7
370
    25
100
AcDbLine
 10
258.7433501725
 20
504.5642175453
 30
0.0
 11
258.7433501725
 21
533.5642175453
 31
0.0
  0
LINE
  5
2A5
330
1F
100
AcDbEntity
  8
0
  6
Continuous
 62
     7
370
    25
100
AcDbLine
 10
260.7433501725
 20
504.5642175453
 30
0.0
 11
260.7433501725
 21
533.5642175453
 31
0.0
  0
LINE
  5
2A6
330
1F
100
AcDbEntity
  8
0
  6
Continuous
 62
     7
370
    25
100
AcDbLine
 10
258.7450173024
 20
533.6642175453
 30
0.0
 11
258.7433501725
 21
533.5642175453
 31
0.0
  0
LINE
  5
2A7
330
1F
100
AcDbEntity
  8
0
  6
Continuous
 62
     7
370
    25
100
AcDbLine
 10
260.7483627354
 20
533.6642175453
 30
0.0
 11
260.7433501725
 21
533.5642175453
 31
0.0
  0
LINE
  5
2A8
330
1F
100
AcDbEntity
  8
0
  6
Continuous
 62
     7
370
    25
100
AcDbLine
 10
258.7433501725
 20
518.5642175453
 30
0.0
 11
258.6830427933
 21
518.5642175453
 31
0.0
  0
LINE
  5
2A9
330
1F
100
AcDbEntity
  8
0
  6
Continuous
 62
     7
370
    25
100
AcDbLine
 10
258.6830427933
 20
502.5642175453
 30
0.0
 11
258.7433501725
 21
502.5642175453
 31
0.0
  0
LWPOLYLINE
  5
2AA
330
1F
100
AcDbEntity
  8
0
  6
Continuous
 62
     7
370
    25
100
AcDbPolyline
 90
        9
 70
   128
 43
0.0
 10
256.1278037843
 20
504.5642175453
 10
256.1409474266
 20
504.1740369012
 10
256.1798732507
 20
503.7988506805
 10
256.243085359
 20
503.4530770792
 10
256.3281545457
 20
503.1500039829
 10
256.4318116495
 20
502.9012783206
 10
256.5500731862
 20
502.7164584802
 10
256.6783944312
 20
502.6026469844
 10
256.811844071
 20
502.5642175453
  0
LINE
  5
2AB
330
1F
100
AcDbEntity
  8
0
  6
Continuous
 62
     7
370
    25
100
AcDbLine
 10
256.1278037843
 20
504.5642175453
 30
0.0
 11
256.1278037843
 21
507.4642175453
 31
0.0
  0
LINE
  5
2AC
330
1F
100
AcDbEntity
  8
0
  6
Continuous
 62
     7
370
    25
100
AcDbLine
 10
256.1278037843
 20
513.4642175453
 30
0.0
 11
256.1278037843
 21
516.5642175453
 31
0.0
  0
LWPOLYLINE
  5
2AD
330
1F
100
AcDbEntity
  8
0
  6
Continuous
 62
     7
370
    25
100
AcDbPolyline
 90
        9
 70
   128
 43
0.0
 10
256.811844071
 20
518.5642175453
 10
256.6783944312
 20
518.5257881061
 10
256.5500731862
 20
518.4119766103
 10
256.4318116495
 20
518.2271567699
 10
256.3281545457
 20
517.9784311076
 10
256.243085359
 20
517.6753580113
 10
256.1798732507
 20
517.32958441
 10
256.1409474266
 20
516.9543981893
 10
256.1278037843
 20
516.5642175453
  0
LINE
  5
2AE
330
1F
100
AcDbEntity
  8
0
  6
Continuous
 62
     7
370
    25
100
AcDbLine
 10
256.811844071
 20
518.5642175453
 30
0.0
 11
258.6830427933
 21
518.5642175453
 31
0.0
  0
LINE
  5
2AF
330
1F
100
AcDbEntity
  8
0
  6
Continuous
 62
     7
370
    25
100
AcDbLine
 10
258.6830427933
 20
502.5642175453
 30
0.0
 11
256.811844071
 21
502.5642175453
 31
0.0
  0
LINE
  5
2B0
330
1F
100
AcDbEntity
  8
0
  6
Continuous
 62
     7
370
    25
100
AcDbLine
 10
566.7433501725
 20
502.5642175453
 30
0.0
 11
564.7433501725
 21
502.5642175453
 31
0.0
  0
LINE
  5
2B1
330
1F
100
AcDbEntity
  8
0
  6
Continuous
 62
     7
370
    25
100
AcDbLine
 10
564.7433501725
 20
502.5642175453
 30
0.0
 11
564.7433501725
 21
504.5642175453
 31
0.0
  0
LINE
  5
2B2
330
1F
100
AcDbEntity
  8
0
  6
Continuous
 62
     7
370
    25
100
AcDbLine
 10
566.7433501725
 20
504.5642175453
 30
0.0
 11
566.7433501725
 21
502.5642175453
 31
0.0
  0
LINE
  5
2B3
330
1F
100
AcDbEntity
  8
0
  6
Continuous
 62
     7
370
    25
100
AcDbLine
 10
564.7433501725
 20
533.5642175453
 30
0.0
 11
564.7433501725
 21
504.5642175453
 31
0.0
  0
LINE
  5
2B4
330
1F
100
AcDbEntity
  8
0
  6
Continuous
 62
     7
370
    25
100
AcDbLine
 10
566.7433501725
 20
533.5642175453
 30
0.0
 11
566.7433501725
 21
504.5642175453
 31
0.0
  0
LINE
  5
2B5
330
1F
100
AcDbEntity
  8
0
  6
Continuous
 62
     7
370
    25
100
AcDbLine
 10
566.7433501725
 20
533.5642175453
 30
0.0
 11
566.7416830426
 21
533.6642175453
 31
0.0
  0
LINE
  5
2B6
330
1F
100
AcDbEntity
  8
0
  6
Continuous
 62
     7
370
    25
100
AcDbLine
 10
564.7433501725
 20
533.5642175453
 30
0.0
 11
564.7383376096
 21
533.6642175453
 31
0.0
  0
LINE
  5
2B7
330
1F
100
AcDbEntity
  8
0
  6
Continuous
 62
     7
370
    25
100
AcDbLine
 10
566.8036575517
 20
518.5642175453
 30
0.0
 11
566.7433501725
 21
518.5642175453
 31
0.0
  0
LINE
  5
2B8
330
1F
100
AcDbEntity
  8
0
  6
Continuous
 62
     7
370
    25
100
AcDbLine
 10
566.7433501725
 20
502.5642175453
 30
0.0
 11
566.8036575517
 21
502.5642175453
 31
0.0
  0
LWPOLYLINE
  5
2B9
330
1F
100
AcDbEntity
  8
0
  6
Continuous
 62
     7
370
    25
100
AcDbPolyline
 90
        9
 70
   128
 43
0.0
 10
568.674856274
 20
502.5642175453
 10
568.8083059138
 20
502.6026469844
 10
568.9366271588
 20
502.7164584802
 10
569.0548886955
 20
502.9012783206
 10
569.1585457993
 20
503.1500039829
 10
569.2436149859
 20
503.4530770792
 10
569.3068270943
 20
503.7988506805
 10
569.3457529184
 20
504.1740369012
 10
569.3588965607
 20
504.5642175453
  0
LINE
  5
2BA
330
1F
100
AcDbEntity
  8
0
  6
Continuous
 62
     7
370
    25
100
AcDbLine
 10
566.8036575517
 20
518.5642175453
 30
0.0
 11
568.674856274
 21
518.5642175453
 31
0.0
  0
LWPOLYLINE
  5
2BB
330
1F
100
AcDbEntity
  8
0
  6
Continuous
 62
     7
370
    25
100
AcDbPolyline
 90
        9
 70
   128
 43
0.0
 10
569.3588965607
 20
516.5642175453
 10
569.3457529184
 20
516.9543981893
 10
569.3068270943
 20
517.32958441
 10
569.2436149859
 20
517.6753580113
 10
569.1585457993
 20
517.9784311076
 10
569.0548886955
 20
518.2271567699
 10
568.9366271588
 20
518.4119766103
 10
568.8083059138
 20
518.5257881061
 10
568.674856274
 20
518.5642175453
  0
LINE
  5
2BC
330
1F
100
AcDbEntity
  8
0
  6
Continuous
 62
     7
370
    25
100
AcDbLine
 10
569.3588965607
 20
516.5642175453
 30
0.0
 11
569.3588965607
 21
513.4642175453
 31
0.0
  0
LINE
  5
2BD
330
1F
100
AcDbEntity
  8
0
  6
Continuous
 62
     7
370
    25
100
AcDbLine
 10
569.3588965607
 20
507.4642175453
 30
0.0
 11
569.3588965607
 21
504.5642175453
 31
0.0
  0
LINE
  5
2BE
330
1F
100
AcDbEntity
  8
0
  6
Continuous
 62
     7
370
    25
100
AcDbLine
 10
568.674856274
 20
502.5642175453
 30
0.0
 11
566.8036575517
 21
502.5642175453
 31
0.0
  0
LINE
  5
2BF
330
1F
100
AcDbEntity
  8
0
  6
Continuous
 62
     7
370
    25
100
AcDbLine
 10
549.4933501725
 20
528.5642175453
 30
0.0
 11
549.4933501725
 21
529.0642175453
 31
0.0
  0
LINE
  5
2C0
330
1F
100
AcDbEntity
  8
0
  6
Continuous
 62
     7
370
    25
100
AcDbLine
 10
558.9933501725
 20
529.0642175453
 30
0.0
 11
558.9933501725
 21
528.5642175453
 31
0.0
  0
LINE
  5
2C1
330
1F
100
AcDbEntity
  8
0
  6
Continuous
 62
     7
370
    25
100
AcDbLine
 10
558.9933501725
 20
528.5642175453
 30
0.0
 11
549.4933501725
 21
528.5642175453
 31
0.0
  0
LINE
  5
2C2
330
1F
100
AcDbEntity
  8
0
  6
Continuous
 62
     7
370
    25
100
AcDbLine
 10
549.4933501725
 20
528.5642175453
 30
0.0
 11
548.7299501725
 21
528.5642175453
 31
0.0
  0
ARC
  5
2C3
330
1F
100
AcDbEntity
  8
0
  6
Continuous
 62
     7
370
    25
100
AcDbCircle
 10
548.7299501725
 20
529.8008175453
 30
0.0
 40
1.236599999999954
100
AcDbArc
 50
216.5600911006
 51
270.0
  0
ARC
  5
2C4
330
1F
100
AcDbEntity
  8
0
  6
Continuous
 62
     7
370
    25
100
AcDbCircle
 10
559.7567501725
 20
529.8008175453
 30
0.0
 40
1.236600000000067
100
AcDbArc
 50
270.0
 51
323.4399088994
  0
LINE
  5
2C5
330
1F
100
AcDbEntity
  8
0
  6
Continuous
 62
     7
370
    25
100
AcDbLine
 10
559.7567501725
 20
528.5642175453
 30
0.0
 11
558.9933501725
 21
528.5642175453
 31
0.0
  0
ARC
  5
2C6
330
1F
100
AcDbEntity
  8
0
  6
Continuous
 62
     7
370
    25
100
AcDbCircle
 10
252.2433501725
 20
539.6642175453
 30
0.0
 40
6.000000000000045
100
AcDbArc
 50
216.8698976459
 51
270.0
  0
ARC
  5
2C7
330
1F
100
AcDbEntity
  8
0
  6
Continuous
 62
     7
370
    25
100
AcDbCircle
 10
573.2433501725
 20
539.6642175453
 30
0.0
 40
6.0
100
AcDbArc
 50
270.0
 51
323.1301023541
  0
ARC
  5
2C8
330
1F
100
AcDbEntity
  8
0
  6
Continuous
 62
     7
370
    25
100
AcDbCircle
 10
564.4433501725
 20
34.9761944286
 30
0.0
 40
0.5
100
AcDbArc
 50
180.0
 51
0.0
  0
ARC
  5
2C9
330
1F
100
AcDbEntity
  8
0
  6
Continuous
 62
     7
370
    25
100
AcDbCircle
 10
564.4433501725
 20
46.5761944288
 30
0.0
 40
0.5000000000001137
100
AcDbArc
 50
0.0
 51
180.0
  0
LINE
  5
2CA
330
1F
100
AcDbEntity
  8
0
  6
Continuous
 62
     7
370
    25
100
AcDbLine
 10
574.4021001725
 20
43.7761944287
 30
0.0
 11
565.7433501725
 21
43.7761944287
 31
0.0
  0
LINE
  5
2CB
330
1F
100
AcDbEntity
  8
0
  6
Continuous
 62
     7
370
    25
100
AcDbLine
 10
565.7433501725
 20
37.7761944287
 30
0.0
 11
574.4021001725
 21
37.7761944287
 31
0.0
  0
LINE
  5
2CC
330
1F
100
AcDbEntity
  8
0
  6
Continuous
 62
     7
370
    25
100
AcDbLine
 10
574.4021001725
 20
37.7761944287
 30
0.0
 11
574.9433501725
 21
38.3174444287
 31
0.0
  0
LINE
  5
2CD
330
1F
100
AcDbEntity
  8
0
  6
Continuous
 62
     7
370
    25
100
AcDbLine
 10
574.9433501725
 20
43.2349444288
 30
0.0
 11
574.4021001725
 21
43.7761944287
 31
0.0
  0
LINE
  5
2CE
330
1F
100
AcDbEntity
  8
0
  6
Continuous
 62
     7
370
    25
100
AcDbLine
 10
540.6628118775
 20
29.4247658292
 30
0.0
 11
541.0933501725
 21
29.1761944287
 31
0.0
  0
LINE
  5
2CF
330
1F
100
AcDbEntity
  8
0
  6
Continuous
 62
     7
370
    25
100
AcDbLine
 10
547.3933501725
 20
29.1761944287
 30
0.0
 11
547.7885647581
 21
29.4043716761
 31
0.0
  0
LINE
  5
2D0
330
1F
100
AcDbEntity
  8
0
  6
Continuous
 62
     7
370
    25
100
AcDbLine
 10
547.7885647581
 20
32.1480171814
 30
0.0
 11
547.3933501725
 21
32.3761944287
 31
0.0
  0
LINE
  5
2D1
330
1F
100
AcDbEntity
  8
0
  6
Continuous
 62
     7
370
    25
100
AcDbLine
 10
541.0933501725
 20
32.3761944287
 30
0.0
 11
540.6628118775
 21
32.1276230283
 31
0.0
  0
LINE
  5
2D2
330
1F
100
AcDbEntity
  8
0
  6
Continuous
 62
     7
370
    25
100
AcDbLine
 10
415.7885647581
 20
32.1480171814
 30
0.0
 11
415.3933501725
 21
32.3761944287
 31
0.0
  0
LINE
  5
2D3
330
1F
100
AcDbEntity
  8
0
  6
Continuous
 62
     7
370
    25
100
AcDbLine
 10
409.0933501725
 20
32.3761944287
 30
0.0
 11
408.6628118775
 21
32.1276230283
 31
0.0
  0
LINE
  5
2D4
330
1F
100
AcDbEntity
  8
0
  6
Continuous
 62
     7
370
    25
100
AcDbLine
 10
408.6628118775
 20
29.4247658292
 30
0.0
 11
409.0933501725
 21
29.1761944287
 31
0.0
  0
LINE
  5
2D5
330
1F
100
AcDbEntity
  8
0
  6
Continuous
 62
     7
370
    25
100
AcDbLine
 10
415.3933501725
 20
29.1761944287
 30
0.0
 11
415.7885647581
 21
29.4043716761
 31
0.0
  0
LINE
  5
2D6
330
1F
100
AcDbEntity
  8
0
  6
Continuous
 62
     7
370
    25
100
AcDbLine
 10
284.7885647581
 20
32.1480171814
 30
0.0
 11
284.3933501725
 21
32.3761944287
 31
0.0
  0
LINE
  5
2D7
330
1F
100
AcDbEntity
  8
0
  6
Continuous
 62
     7
370
    25
100
AcDbLine
 10
278.0933501725
 20
32.3761944287
 30
0.0
 11
277.6628118775
 21
32.1276230283
 31
0.0
  0
LINE
  5
2D8
330
1F
100
AcDbEntity
  8
0
  6
Continuous
 62
     7
370
    25
100
AcDbLine
 10
277.6628118775
 20
29.4247658292
 30
0.0
 11
278.0933501725
 21
29.1761944287
 31
0.0
  0
LINE
  5
2D9
330
1F
100
AcDbEntity
  8
0
  6
Continuous
 62
     7
370
    25
100
AcDbLine
 10
284.3933501725
 20
29.1761944287
 30
0.0
 11
284.7885647581
 21
29.4043716761
 31
0.0
  0
LINE
  5
2DA
330
1F
100
AcDbEntity
  8
0
  6
Continuous
 62
     7
370
    25
100
AcDbLine
 10
260.2433501725
 20
15.7261944287
 30
0.0
 11
565.2433501725
 21
15.7261944287
 31
0.0
  0
LINE
  5
2DB
330
1F
100
AcDbEntity
  8
0
  6
Continuous
 62
     7
370
    25
100
AcDbLine
 10
542.2433501725
 20
37.4761944287
 30
0.0
 11
542.2433501725
 21
32.3761944287
 31
0.0
  0
LINE
  5
2DC
330
1F
100
AcDbEntity
  8
0
  6
Continuous
 62
     7
370
    25
100
AcDbLine
 10
542.2433501725
 20
29.1761944287
 30
0.0
 11
542.2433501725
 21
29.0761944287
 31
0.0
  0
LINE
  5
2DD
330
1F
100
AcDbEntity
  8
0
  6
Continuous
 62
     7
370
    25
100
AcDbLine
 10
546.2433501725
 20
29.0761944287
 30
0.0
 11
546.2433501725
 21
29.1761944287
 31
0.0
  0
LINE
  5
2DE
330
1F
100
AcDbEntity
  8
0
  6
Continuous
 62
     7
370
    25
100
AcDbLine
 10
546.2433501725
 20
32.3761944287
 30
0.0
 11
546.2433501725
 21
37.4761944287
 31
0.0
  0
LINE
  5
2DF
330
1F
100
AcDbEntity
  8
0
  6
Continuous
 62
     7
370
    25
100
AcDbLine
 10
410.2433501725
 20
37.4761944287
 30
0.0
 11
410.2433501725
 21
32.3761944287
 31
0.0
  0
LINE
  5
2E0
330
1F
100
AcDbEntity
  8
0
  6
Continuous
 62
     7
370
    25
100
AcDbLine
 10
410.2433501725
 20
29.1761944287
 30
0.0
 11
410.2433501725
 21
29.0761944287
 31
0.0
  0
LINE
  5
2E1
330
1F
100
AcDbEntity
  8
0
  6
Continuous
 62
     7
370
    25
100
AcDbLine
 10
414.2433501725
 20
29.0761944287
 30
0.0
 11
414.2433501725
 21
29.1761944287
 31
0.0
  0
LINE
  5
2E2
330
1F
100
AcDbEntity
  8
0
  6
Continuous
 62
     7
370
    25
100
AcDbLine
 10
414.2433501725
 20
32.3761944287
 30
0.0
 11
414.2433501725
 21
37.4761944287
 31
0.0
  0
LINE
  5
2E3
330
1F
100
AcDbEntity
  8
0
  6
Continuous
 62
     7
370
    25
100
AcDbLine
 10
279.2433501725
 20
37.4761944287
 30
0.0
 11
279.2433501725
 21
32.3761944287
 31
0.0
  0
LINE
  5
2E4
330
1F
100
AcDbEntity
  8
0
  6
Continuous
 62
     7
370
    25
100
AcDbLine
 10
279.2433501725
 20
29.1761944287
 30
0.0
 11
279.2433501725
 21
29.0761944287
 31
0.0
  0
LINE
  5
2E5
330
1F
100
AcDbEntity
  8
0
  6
Continuous
 62
     7
370
    25
100
AcDbLine
 10
283.2433501725
 20
29.0761944287
 30
0.0
 11
283.2433501725
 21
29.1761944287
 31
0.0
  0
LINE
  5
2E6
330
1F
100
AcDbEntity
  8
0
  6
Continuous
 62
     7
370
    25
100
AcDbLine
 10
283.2433501725
 20
32.3761944287
 30
0.0
 11
283.2433501725
 21
37.4761944287
 31
0.0
  0
ARC
  5
2E7
330
1F
100
AcDbEntity
  8
0
  6
Continuous
 62
     7
370
    25
100
AcDbCircle
 10
261.0433501725
 20
46.5761944288
 30
0.0
 40
0.5
100
AcDbArc
 50
0.0
 51
180.0
  0
ARC
  5
2E8
330
1F
100
AcDbEntity
  8
0
  6
Continuous
 62
     7
370
    25
100
AcDbCircle
 10
261.0433501725
 20
34.9761944286
 30
0.0
 40
0.5000000000000568
100
AcDbArc
 50
180.0
 51
0.0
  0
LINE
  5
2E9
330
1F
100
AcDbEntity
  8
0
  6
Continuous
 62
     7
370
    25
100
AcDbLine
 10
251.0846001725
 20
43.7761944287
 30
0.0
 11
250.5433501725
 21
43.2349444288
 31
0.0
  0
LINE
  5
2EA
330
1F
100
AcDbEntity
  8
0
  6
Continuous
 62
     7
370
    25
100
AcDbLine
 10
250.5433501725
 20
38.3174444287
 30
0.0
 11
251.0846001725
 21
37.7761944287
 31
0.0
  0
LINE
  5
2EB
330
1F
100
AcDbEntity
  8
0
  6
Continuous
 62
     7
370
    25
100
AcDbLine
 10
251.0846001725
 20
37.7761944287
 30
0.0
 11
259.7433501725
 21
37.7761944287
 31
0.0
  0
LINE
  5
2EC
330
1F
100
AcDbEntity
  8
0
  6
Continuous
 62
     7
370
    25
100
AcDbLine
 10
259.7433501725
 20
43.7761944287
 30
0.0
 11
251.0846001725
 21
43.7761944287
 31
0.0
  0
LINE
  5
2ED
330
1F
100
AcDbEntity
  8
0
  6
Continuous
 62
     7
370
    25
100
AcDbLine
 10
265.5433501725
 20
45.7761944287
 30
0.0
 11
265.2138670767
 21
46.3468758908
 31
0.0
  0
LINE
  5
2EE
330
1F
100
AcDbEntity
  8
0
  6
Continuous
 62
     7
370
    25
100
AcDbLine
 10
265.2138670767
 20
35.2055129666
 30
0.0
 11
265.5433501725
 21
35.7761944287
 31
0.0
  0
LINE
  5
2EF
330
1F
100
AcDbEntity
  8
0
  6
Continuous
 62
     7
370
    25
100
AcDbLine
 10
258.2433501725
 20
17.5761944287
 30
0.0
 11
252.2433501725
 21
17.5761944287
 31
0.0
  0
LINE
  5
2F0
330
1F
100
AcDbEntity
  8
0
  6
Continuous
 62
     7
370
    25
100
AcDbLine
 10
567.2433501725
 20
17.5761944287
 30
0.0
 11
565.0712571492
 21
17.5761944287
 31
0.0
  0
LINE
  5
2F1
330
1F
100
AcDbEntity
  8
0
  6
Continuous
 62
     7
370
    25
100
AcDbLine
 10
260.4154431957
 20
17.5761944287
 30
0.0
 11
258.2433501725
 21
17.5761944287
 31
0.0
  0
LINE
  5
2F2
330
1F
100
AcDbEntity
  8
0
  6
Continuous
 62
     7
370
    25
100
AcDbLine
 10
573.2433501725
 20
17.5761944287
 30
0.0
 11
567.2433501725
 21
17.5761944287
 31
0.0
  0
SPLINE
  5
2F3
330
1F
100
AcDbEntity
  8
0
  6
Continuous
 62
     7
370
    25
100
AcDbSpline
210
0.0
220
0.0
230
1.0
 70
    24
 71
     3
 72
     9
 73
     5
 74
     0
 42
0.000000001
 43
0.00000001
 40
0.0
 40
0.0
 40
0.0
 40
0.0
 40
0.5153941859637938
 40
1.0
 40
1.0
 40
1.0
 40
1.0
 10
564.9433501724776
 20
46.45120442873672
 30
0.0
 10
564.9433501724776
 20
46.49494627679245
 30
0.0
 10
564.9433501724776
 20
46.57981694325897
 30
0.0
 10
564.9433501724776
 20
46.55706050801556
 30
0.0
 10
564.9433501724776
 20
46.54603260718986
 30
0.0
  0
SPLINE
  5
2F4
330
1F
100
AcDbEntity
  8
0
  6
Continuous
 62
     7
370
    25
100
AcDbSpline
210
0.0
220
0.0
230
1.0
 70
    24
 71
     3
 72
    17
 73
    13
 74
     0
 42
0.000000001
 43
0.00000001
 40
0.0
 40
0.0
 40
0.0
 40
0.0
 40
0.0359921626376355
 40
0.1205930661280419
 40
0.2034359252874597
 40
0.3573281084250891
 40
0.5112202915627195
 40
0.5940631507221364
 40
0.6786640542125442
 40
0.7632649577029517
 40
0.8461078168623679
 40
1.0
 40
1.0
 40
1.0
 40
1.0
 10
563.9433501724776
 20
46.5460326072008
 30
0.0
 10
563.9433501724776
 20
46.55318399424208
 30
0.0
 10
563.9433501724775
 20
46.5771449798338
 30
0.0
 10
563.9433501724775
 20
46.35914005359817
 30
0.0
 10
563.9433501724776
 20
45.78735295651108
 30
0.0
 10
563.9433501724775
 20
44.59033638042076
 30
0.0
 10
563.9433501724776
 20
42.94427962054368
 30
0.0
 10
563.9433501724775
 20
41.45908926832987
 30
0.0
 10
563.9433501724775
 20
40.26306114395564
 30
0.0
 10
563.9433501724775
 20
39.09329573116624
 30
0.0
 10
563.9433501724776
 20
37.67134855058243
 30
0.0
 10
563.9433501724776
 20
36.85908127072226
 30
0.0
 10
563.9433501724775
 20
36.33105811126073
 30
0.0
  0
SPLINE
  5
2F5
330
1F
100
AcDbEntity
  8
0
  6
Continuous
 62
     7
370
    25
100
AcDbSpline
210
0.0
220
0.0
230
1.0
 70
     8
 71
     3
 72
     8
 73
     4
 74
     0
 42
0.000000001
 43
0.00000001
 40
0.0
 40
0.0
 40
0.0
 40
0.0
 40
1.0
 40
1.0
 40
1.0
 40
1.0
 10
559.9433501724848
 20
43.98799582641535
 30
0.0
 10
559.9433501724848
 20
43.23287502010741
 30
0.0
 10
560.1176654728641
 20
42.49842154616397
 30
0.0
 10
560.389932159876
 20
41.77558147539364
 30
0.0
  0
SPLINE
  5
2F6
330
1F
100
AcDbEntity
  8
0
  6
Continuous
 62
     7
370
    25
100
AcDbSpline
210
0.0
220
0.0
230
1.0
 70
     8
 71
     3
 72
     8
 73
     4
 74
     0
 42
0.000000001
 43
0.00000001
 40
0.0
 40
0.0
 40
0.0
 40
0.0
 40
1.0
 40
1.0
 40
1.0
 40
1.0
 10
560.3899321598761
 20
46.20041017743715
 30
0.0
 10
560.1176654728646
 20
45.47757010666787
 30
0.0
 10
559.9433501724848
 20
44.74311663272218
 30
0.0
 10
559.9433501724848
 20
43.98799582641536
 30
0.0
  0
LINE
  5
2F7
330
1F
100
AcDbEntity
  8
0
  6
Continuous
 62
     7
370
    25
100
AcDbLine
 10
560.3899321599
 20
46.2004101774
 30
0.0
 11
563.9433501725
 21
46.2004101774
 31
0.0
  0
LINE
  5
2F8
330
1F
100
AcDbEntity
  8
0
  6
Continuous
 62
     7
370
    25
100
AcDbLine
 10
563.9433501725
 20
41.7755814754
 30
0.0
 11
560.3899321599
 21
41.7755814754
 31
0.0
  0
SPLINE
  5
2F9
330
1F
100
AcDbEntity
  8
0
  6
Continuous
 62
     7
370
    25
100
AcDbSpline
210
0.0
220
0.0
230
1.0
 70
     8
 71
     3
 72
     8
 73
     4
 74
     0
 42
0.000000001
 43
0.00000001
 40
0.0
 40
0.0
 40
0.0
 40
0.0
 40
1.0
 40
1.0
 40
1.0
 40
1.0
 10
559.9433501724847
 20
39.06347360103836
 30
0.0
 10
559.9433501724847
 20
38.13780202241806
 30
0.0
 10
560.117665472864
 20
37.23746567759876
 30
0.0
 10
560.389932159876
 20
36.35136572668958
 30
0.0
  0
SPLINE
  5
2FA
330
1F
100
AcDbEntity
  8
0
  6
Continuous
 62
     7
370
    25
100
AcDbSpline
210
0.0
220
0.0
230
1.0
 70
     8
 71
     3
 72
     8
 73
     4
 74
     0
 42
0.000000001
 43
0.00000001
 40
0.0
 40
0.0
 40
0.0
 40
0.0
 40
1.0
 40
1.0
 40
1.0
 40
1.0
 10
560.389932159876
 20
41.77558147538704
 30
0.0
 10
560.1176654728646
 20
40.88948152447952
 30
0.0
 10
559.9433501724847
 20
39.98914517965689
 30
0.0
 10
559.9433501724847
 20
39.06347360103836
 30
0.0
  0
LINE
  5
2FB
330
1F
100
AcDbEntity
  8
0
  6
Continuous
 62
     7
370
    25
100
AcDbLine
 10
563.9433501725
 20
36.3513657267
 30
0.0
 11
560.3899321599
 21
36.3513657267
 31
0.0
  0
LINE
  5
2FC
330
1F
100
AcDbEntity
  8
0
  6
Continuous
 62
     7
370
    25
100
AcDbLine
 10
559.9433501725
 20
43.9879958264
 30
0.0
 11
559.9433501725
 21
39.063473601
 31
0.0
  0
SPLINE
  5
2FD
330
1F
100
AcDbEntity
  8
0
  6
Continuous
 62
     7
370
    25
100
AcDbSpline
210
0.0
220
0.0
230
1.0
 70
     8
 71
     3
 72
     8
 73
     4
 74
     0
 42
0.000000001
 43
0.00000001
 40
0.0
 40
0.0
 40
0.0
 40
0.0
 40
1.0
 40
1.0
 40
1.0
 40
1.0
 10
560.3899321598761
 20
36.35136572668517
 30
0.0
 10
560.1176654728647
 20
36.18810584654675
 30
0.0
 10
559.9433501724848
 20
36.02222297567034
 30
0.0
 10
559.9433501724848
 20
35.85167220335845
 30
0.0
  0
LINE
  5
2FE
330
1F
100
AcDbEntity
  8
0
  6
Continuous
 62
     7
370
    25
100
AcDbLine
 10
559.9433501725
 20
39.063473601
 30
0.0
 11
559.9433501725
 21
35.8516722034
 31
0.0
  0
SPLINE
  5
2FF
330
1F
100
AcDbEntity
  8
0
  6
Continuous
 62
     7
370
    25
100
AcDbSpline
210
0.0
220
0.0
230
1.0
 70
     8
 71
     3
 72
     8
 73
     4
 74
     0
 42
0.000000001
 43
0.00000001
 40
0.0
 40
0.0
 40
0.0
 40
0.0
 40
1.0
 40
1.0
 40
1.0
 40
1.0
 10
559.9433501724848
 20
45.70071665411274
 30
0.0
 10
559.9433501724848
 20
45.87126742642505
 30
0.0
 10
560.1176654728639
 20
46.03715029730063
 30
0.0
 10
560.3899321598761
 20
46.20041017743945
 30
0.0
  0
LINE
  5
300
330
1F
100
AcDbEntity
  8
0
  6
Continuous
 62
     7
370
    25
100
AcDbLine
 10
559.9433501725
 20
43.9879958264
 30
0.0
 11
559.9433501725
 21
45.7715563945
 31
0.0
  0
SPLINE
  5
301
330
1F
100
AcDbEntity
  8
0
  6
Continuous
 62
     7
370
    25
100
AcDbSpline
210
0.0
220
0.0
230
1.0
 70
     8
 71
     3
 72
     8
 73
     4
 74
     0
 42
0.000000001
 43
0.00000001
 40
0.0
 40
0.0
 40
0.0
 40
0.0
 40
1.0
 40
1.0
 40
1.0
 40
1.0
 10
559.9433501724848
 20
35.85167220335845
 30
0.0
 10
559.9433501724848
 20
35.68112143104626
 30
0.0
 10
560.1176654728641
 20
35.51523856017046
 30
0.0
 10
560.3899321598761
 20
35.35197868003174
 30
0.0
  0
LINE
  5
302
330
1F
100
AcDbEntity
  8
0
  6
Continuous
 62
     7
370
    25
100
AcDbLine
 10
563.9433501725
 20
35.35197868
 30
0.0
 11
560.3899321599
 21
35.35197868
 31
0.0
  0
LINE
  5
303
330
1F
100
AcDbEntity
  8
0
  6
Continuous
 62
     7
370
    25
100
AcDbLine
 10
574.4021001725
 20
42.7032752673
 30
0.0
 11
574.4021001725
 21
43.7761944287
 31
0.0
  0
LINE
  5
304
330
1F
100
AcDbEntity
  8
0
  6
Continuous
 62
     7
370
    25
100
AcDbLine
 10
574.4021001725
 20
37.7761944287
 30
0.0
 11
574.4021001725
 21
42.7032752673
 31
0.0
  0
LINE
  5
305
330
1F
100
AcDbEntity
  8
0
  6
Continuous
 62
     7
370
    25
100
AcDbLine
 10
574.9433501725
 20
38.3174444287
 30
0.0
 11
574.9433501725
 21
43.2349444288
 31
0.0
  0
ARC
  5
306
330
1F
100
AcDbEntity
  8
0
  6
Continuous
 62
     7
370
    25
100
AcDbCircle
 10
567.2433501725
 20
18.1761944287
 30
0.0
 40
3.000000000000004
100
AcDbArc
 50
227.6305369016
 51
270.0
  0
LINE
  5
307
330
1F
100
AcDbEntity
  8
0
  6
Continuous
 62
     7
370
    25
100
AcDbLine
 10
579.2433501725
 20
15.1761944287
 30
0.0
 11
567.2433501725
 21
15.1761944287
 31
0.0
  0
ARC
  5
308
330
1F
100
AcDbEntity
  8
0
  6
Continuous
 62
     7
370
    25
100
AcDbCircle
 10
579.2433501725
 20
18.1761944287
 30
0.0
 40
3.000000000000114
100
AcDbArc
 50
270.0
 51
0.0
  0
LINE
  5
309
330
1F
100
AcDbEntity
  8
0
  6
Continuous
 62
     7
370
    25
100
AcDbLine
 10
582.2433501725
 20
19.1761944287
 30
0.0
 11
582.2433501725
 21
18.1761944287
 31
0.0
  0
ARC
  5
30A
330
1F
100
AcDbEntity
  8
0
  6
Continuous
 62
     7
370
    25
100
AcDbCircle
 10
585.2433501725
 20
19.1761944287
 30
0.0
 40
3.0
100
AcDbArc
 50
90.0
 51
180.0
  0
LINE
  5
30B
330
1F
100
AcDbEntity
  8
0
  6
Continuous
 62
     7
370
    25
100
AcDbLine
 10
608.7726394944
 20
22.1761944287
 30
0.0
 11
585.2433501725
 21
22.1761944287
 31
0.0
  0
LINE
  5
30C
330
1F
100
AcDbEntity
  8
0
  6
Continuous
 62
     7
370
    25
100
AcDbLine
 10
608.7726394944
 20
12.5761944287
 30
0.0
 11
608.7726394944
 21
22.1761944287
 31
0.0
  0
LINE
  5
30D
330
1F
100
AcDbEntity
  8
0
  6
Continuous
 62
     7
370
    25
100
AcDbLine
 10
216.7140608506
 20
12.5761944287
 30
0.0
 11
216.7140608506
 21
22.1761944287
 31
0.0
  0
LINE
  5
30E
330
1F
100
AcDbEntity
  8
0
  6
Continuous
 62
     7
370
    25
100
AcDbLine
 10
240.2433501725
 20
22.1761944287
 30
0.0
 11
216.7140608506
 21
22.1761944287
 31
0.0
  0
ARC
  5
30F
330
1F
100
AcDbEntity
  8
0
  6
Continuous
 62
     7
370
    25
100
AcDbCircle
 10
240.2433501725
 20
19.1761944287
 30
0.0
 40
3.0
100
AcDbArc
 50
0.0
 51
90.0
  0
LINE
  5
310
330
1F
100
AcDbEntity
  8
0
  6
Continuous
 62
     7
370
    25
100
AcDbLine
 10
243.2433501725
 20
19.1761944287
 30
0.0
 11
243.2433501725
 21
18.1761944287
 31
0.0
  0
ARC
  5
311
330
1F
100
AcDbEntity
  8
0
  6
Continuous
 62
     7
370
    25
100
AcDbCircle
 10
246.2433501725
 20
18.1761944287
 30
0.0
 40
3.000000000000004
100
AcDbArc
 50
180.0
 51
270.0
  0
LINE
  5
312
330
1F
100
AcDbEntity
  8
0
  6
Continuous
 62
     7
370
    25
100
AcDbLine
 10
246.2433501725
 20
15.1761944287
 30
0.0
 11
258.2433501725
 21
15.1761944287
 31
0.0
  0
ARC
  5
313
330
1F
100
AcDbEntity
  8
0
  6
Continuous
 62
     7
370
    25
100
AcDbCircle
 10
258.2433501725
 20
18.1761944287
 30
0.0
 40
3.000000000000029
100
AcDbArc
 50
270.0
 51
312.3694630984
  0
SPLINE
  5
314
330
1F
100
AcDbEntity
  8
0
  6
Continuous
 62
     7
370
    25
100
AcDbSpline
210
0.0
220
0.0
230
1.0
 70
     8
 71
     3
 72
    20
 73
    16
 74
     0
 42
0.000000001
 43
0.00000001
 40
0.0
 40
0.0
 40
0.0
 40
0.0
 40
0.1250000000000012
 40
0.1250000000000012
 40
0.2500000000000024
 40
0.2500000000000024
 40
0.3750000000000036
 40
0.3750000000000036
 40
0.5000000000000048
 40
0.5000000000000048
 40
0.7500000000000049
 40
0.7500000000000049
 40
0.8750000000000023
 40
0.8750000000000023
 40
1.0
 40
1.0
 40
1.0
 40
1.0
 10
217.6433501724775
 20
10.17619442873673
 30
0.0
 10
217.6043094416229
 20
10.17619442873673
 30
0.0
 10
217.5657907374232
 20
10.19173098921157
 30
0.0
 10
217.4883839861153
 20
10.25304934117217
 30
0.0
 10
217.4492395681286
 20
10.29947308675898
 30
0.0
 10
217.3720888142134
 20
10.4194239569131
 30
0.0
 10
217.3337612324723
 20
10.4930286011965
 30
0.0
 10
217.2562149119957
 20
10.66775896729214
 30
0.0
 10
217.217238704327
 20
10.76860959619369
 30
0.0
 10
217.1017438478819
 20
11.09989487617763
 30
0.0
 10
217.0238314042119
 20
11.36757503756151
 30
0.0
 10
216.9083514788111
 20
11.80024906361692
 30
0.0
 10
216.869485682946
 20
11.95176715046805
 30
0.0
 10
216.7917113492775
 20
12.26119290785417
 30
0.0
 10
216.7531015823227
 20
12.41781523754794
 30
0.0
 10
216.7140608505961
 20
12.57619442873668
 30
0.0
  0
SPLINE
  5
315
330
1F
100
AcDbEntity
  8
0
  6
Continuous
 62
     7
370
    25
100
AcDbSpline
210
0.0
220
0.0
230
1.0
 70
     8
 71
     3
 72
    20
 73
    16
 74
     0
 42
0.000000001
 43
0.00000001
 40
0.0
 40
0.0
 40
0.0
 40
0.0
 40
0.1249999999999986
 40
0.1249999999999986
 40
0.2499999999999974
 40
0.2499999999999974
 40
0.3749999999999962
 40
0.3749999999999962
 40
0.499999999999995
 40
0.499999999999995
 40
0.75
 40
0.75
 40
0.875
 40
0.875
 40
1.0
 40
1.0
 40
1.0
 40
1.0
 10
608.7726394943589
 20
12.57619442873671
 30
0.0
 10
608.7335987635045
 20
12.41781524108601
 30
0.0
 10
608.6950800593046
 20
12.26156951639434
 30
0.0
 10
608.6176733079967
 20
11.95357766697772
 30
0.0
 10
608.5785288900099
 20
11.8009335595066
 30
0.0
 10
608.5013781360948
 20
11.51184927031954
 30
0.0
 10
608.4630505543537
 20
11.3740447321355
 30
0.0
 10
608.3855042338772
 20
11.11242605649659
 30
0.0
 10
608.3465280262085
 20
10.98967974981394
 30
0.0
 10
608.2310331697634
 20
10.65835537286626
 30
0.0
 10
608.1531207260934
 20
10.479344248838
 30
0.0
 10
608.0376408006925
 20
10.29972914945711
 30
0.0
 10
607.9987750048275
 20
10.2534848005894
 30
0.0
 10
607.9210006711588
 20
10.19173149457818
 30
0.0
 10
607.8823909042042
 20
10.17619442873673
 30
0.0
 10
607.8433501724775
 20
10.17619442873673
 30
0.0
  0
LINE
  5
316
330
1F
100
AcDbEntity
  8
0
  6
Continuous
 62
     7
370
    25
100
AcDbLine
 10
607.8433501725
 20
10.1761944287
 30
0.0
 11
217.6433501725
 21
10.1761944287
 31
0.0
  0
SPLINE
  5
317
330
1F
100
AcDbEntity
  8
0
  6
Continuous
 62
     7
370
    25
100
AcDbSpline
210
0.0
220
0.0
230
1.0
 70
     8
 71
     3
 72
    20
 73
    16
 74
     0
 42
0.000000001
 43
0.00000001
 40
0.0
 40
0.0
 40
0.0
 40
0.0
 40
0.125
 40
0.125
 40
0.25
 40
0.25
 40
0.375
 40
0.375
 40
0.5
 40
0.5
 40
0.75
 40
0.75
 40
0.875
 40
0.875
 40
1.0
 40
1.0
 40
1.0
 40
1.0
 10
607.8433501724775
 20
10.17619442873671
 30
0.0
 10
608.0017293601283
 20
10.17619442873671
 30
0.0
 10
608.1579750848198
 20
10.19173098921157
 30
0.0
 10
608.4659669342363
 20
10.25304934117217
 30
0.0
 10
608.6186110417077
 20
10.29947308675897
 30
0.0
 10
608.9076953308947
 20
10.4194239569131
 30
0.0
 10
609.0454998690788
 20
10.49302860119652
 30
0.0
 10
609.3071185447177
 20
10.66775896729216
 30
0.0
 10
609.4298648514002
 20
10.76860959619372
 30
0.0
 10
609.761189228348
 20
11.09989487617766
 30
0.0
 10
609.9402003523762
 20
11.36757503756154
 30
0.0
 10
610.1198154517571
 20
11.80024906361695
 30
0.0
 10
610.1660598006248
 20
11.95176715046806
 30
0.0
 10
610.227813106636
 20
12.26119290785419
 30
0.0
 10
610.2433501724776
 20
12.41781523754796
 30
0.0
 10
610.2433501724776
 20
12.5761944287367
 30
0.0
  0
SPLINE
  5
318
330
1F
100
AcDbEntity
  8
0
  6
Continuous
 62
     7
370
    25
100
AcDbSpline
210
0.0
220
0.0
230
1.0
 70
     8
 71
     3
 72
     9
 73
     5
 74
     0
 42
0.000000001
 43
0.00000001
 40
0.0
 40
0.0
 40
0.0
 40
0.0
 40
0.4825784287292034
 40
1.0
 40
1.0
 40
1.0
 40
1.0
 10
608.619520404424
 20
11.9636546895587
 30
0.0
 10
608.6833285974853
 20
12.05178903087507
 30
0.0
 10
608.8155520647244
 20
12.23442119192807
 30
0.0
 10
608.833871369181
 20
12.45965407597255
 30
0.0
 10
608.8433501724775
 20
12.5761944287367
 30
0.0
  0
LINE
  5
319
330
1F
100
AcDbEntity
  8
0
  6
Continuous
 62
     7
370
    25
100
AcDbLine
 10
610.2433501725
 20
12.5761944287
 30
0.0
 11
608.8433501725
 21
12.5761944287
 31
0.0
  0
SPLINE
  5
31A
330
1F
100
AcDbEntity
  8
0
  6
Continuous
 62
     7
370
    25
100
AcDbSpline
210
0.0
220
0.0
230
1.0
 70
     8
 71
     3
 72
    20
 73
    16
 74
     0
 42
0.000000001
 43
0.00000001
 40
0.0
 40
0.0
 40
0.0
 40
0.0
 40
0.1249999999999968
 40
0.1249999999999968
 40
0.2499999999999933
 40
0.2499999999999933
 40
0.37499999999999
 40
0.37499999999999
 40
0.4999999999999865
 40
0.4999999999999865
 40
0.7499999999999944
 40
0.7499999999999944
 40
0.8749999999999972
 40
0.8749999999999972
 40
1.0
 40
1.0
 40
1.0
 40
1.0
 10
215.2433501724775
 20
12.5761944287367
 30
0.0
 10
215.2433501724774
 20
12.417815241086
 30
0.0
 10
215.2588867329524
 20
12.26156951639433
 30
0.0
 10
215.3202050849129
 20
11.95357766697771
 30
0.0
 10
215.3666288304998
 20
11.80093355950657
 30
0.0
 10
215.4865797006539
 20
11.51184927031951
 30
0.0
 10
215.5601843449373
 20
11.37404473213545
 30
0.0
 10
215.7349147110329
 20
11.11242605649655
 30
0.0
 10
215.8357653399343
 20
10.98967974981387
 30
0.0
 10
216.1670506199182
 20
10.65835537286618
 30
0.0
 10
216.4347307813023
 20
10.47934424883795
 30
0.0
 10
216.8674048073576
 20
10.29972914945706
 30
0.0
 10
217.0189228942089
 20
10.25348480058937
 30
0.0
 10
217.328348651595
 20
10.19173149457816
 30
0.0
 10
217.4849709812888
 20
10.17619442873671
 30
0.0
 10
217.6433501724775
 20
10.17619442873671
 30
0.0
  0
LINE
  5
31B
330
1F
100
AcDbEntity
  8
0
  6
Continuous
 62
     7
370
    25
100
AcDbLine
 10
215.2433501725
 20
12.5761944287
 30
0.0
 11
216.6433501725
 21
12.5761944287
 31
0.0
  0
SPLINE
  5
31C
330
1F
100
AcDbEntity
  8
0
  6
Continuous
 62
     7
370
    25
100
AcDbSpline
210
0.0
220
0.0
230
1.0
 70
     8
 71
     3
 72
     9
 73
     5
 74
     0
 42
0.000000001
 43
0.00000001
 40
0.0
 40
0.0
 40
0.0
 40
0.0
 40
0.678450800572998
 40
0.9999999999999999
 40
0.9999999999999999
 40
0.9999999999999999
 40
0.9999999999999999
 10
216.6433501724775
 20
12.5761944287367
 30
0.0
 10
216.6565997429419
 20
12.42548722428341
 30
0.0
 10
216.6761288973821
 20
12.20335290838901
 30
0.0
 10
216.816976551021
 20
12.03651980349985
 30
0.0
 10
216.8622660012898
 20
11.98287475218481
 30
0.0
  0
LINE
  5
31D
330
1F
100
AcDbEntity
  8
0
  6
Continuous
 62
     7
370
    25
100
AcDbLine
 10
610.2433501725
 20
22.1761944287
 30
0.0
 11
608.8433501725
 21
22.1761944287
 31
0.0
  0
LINE
  5
31E
330
1F
100
AcDbEntity
  8
0
  6
Continuous
 62
     7
370
    25
100
AcDbLine
 10
608.8433501725
 20
12.5761944287
 30
0.0
 11
608.8433501725
 21
22.1761944287
 31
0.0
  0
LINE
  5
31F
330
1F
100
AcDbEntity
  8
0
  6
Continuous
 62
     7
370
    25
100
AcDbLine
 10
610.2433501725
 20
12.5761944287
 30
0.0
 11
610.2433501725
 21
22.1761944287
 31
0.0
  0
LINE
  5
320
330
1F
100
AcDbEntity
  8
0
  6
Continuous
 62
     7
370
    25
100
AcDbLine
 10
215.2433501725
 20
12.5761944287
 30
0.0
 11
215.2433501725
 21
22.1761944287
 31
0.0
  0
LINE
  5
321
330
1F
100
AcDbEntity
  8
0
  6
Continuous
 62
     7
370
    25
100
AcDbLine
 10
216.6433501725
 20
12.5761944287
 30
0.0
 11
216.6433501725
 21
22.1761944287
 31
0.0
  0
LINE
  5
322
330
1F
100
AcDbEntity
  8
0
  6
Continuous
 62
     7
370
    25
100
AcDbLine
 10
215.2433501725
 20
22.1761944287
 30
0.0
 11
216.6433501725
 21
22.1761944287
 31
0.0
  0
LINE
  5
323
330
1F
100
AcDbEntity
  8
0
  6
Continuous
 62
     7
370
    25
100
AcDbLine
 10
565.7433501725
 20
46.2761944287
 30
0.0
 11
565.7433501725
 21
29.2761944287
 31
0.0
  0
LINE
  5
324
330
1F
100
AcDbEntity
  8
0
  6
Continuous
 62
     7
370
    25
100
AcDbLine
 10
564.9433501725
 20
46.2761944287
 30
0.0
 11
564.9433501725
 21
29.2761944287
 31
0.0
  0
LINE
  5
325
330
1F
100
AcDbEntity
  8
0
  6
Continuous
 62
     7
370
    25
100
AcDbLine
 10
564.9433501725
 20
49.2761944287
 30
0.0
 11
565.7433501725
 21
49.2761944287
 31
0.0
  0
LINE
  5
326
330
1F
100
AcDbEntity
  8
0
  6
Continuous
 62
     7
370
    25
100
AcDbLine
 10
565.7433501725
 20
49.2761944287
 30
0.0
 11
565.7433501725
 21
46.2761944287
 31
0.0
  0
LINE
  5
327
330
1F
100
AcDbEntity
  8
0
  6
Continuous
 62
     7
370
    25
100
AcDbLine
 10
564.9433501725
 20
46.2761944287
 30
0.0
 11
564.9433501725
 21
49.2761944287
 31
0.0
  0
LINE
  5
328
330
1F
100
AcDbEntity
  8
0
  6
Continuous
 62
     7
370
    25
100
AcDbLine
 10
260.5433501725
 20
29.2761944287
 30
0.0
 11
260.5433501725
 21
46.2761944287
 31
0.0
  0
LINE
  5
329
330
1F
100
AcDbEntity
  8
0
  6
Continuous
 62
     7
370
    25
100
AcDbLine
 10
259.7433501725
 20
29.2761944287
 30
0.0
 11
259.7433501725
 21
46.2761944287
 31
0.0
  0
LINE
  5
32A
330
1F
100
AcDbEntity
  8
0
  6
Continuous
 62
     7
370
    25
100
AcDbLine
 10
259.7433501725
 20
49.2761944287
 30
0.0
 11
260.5433501725
 21
49.2761944287
 31
0.0
  0
LINE
  5
32B
330
1F
100
AcDbEntity
  8
0
  6
Continuous
 62
     7
370
    25
100
AcDbLine
 10
260.5433501725
 20
49.2761944287
 30
0.0
 11
260.5433501725
 21
46.2761944287
 31
0.0
  0
LINE
  5
32C
330
1F
100
AcDbEntity
  8
0
  6
Continuous
 62
     7
370
    25
100
AcDbLine
 10
259.7433501725
 20
46.2761944287
 30
0.0
 11
259.7433501725
 21
49.2761944287
 31
0.0
  0
LINE
  5
32D
330
1F
100
AcDbEntity
  8
0
  6
Continuous
 62
     7
370
    25
100
AcDbLine
 10
565.7433501725
 20
26.2761944287
 30
0.0
 11
564.9433501725
 21
26.2761944287
 31
0.0
  0
LINE
  5
32E
330
1F
100
AcDbEntity
  8
0
  6
Continuous
 62
     7
370
    25
100
AcDbLine
 10
565.7433501725
 20
29.2761944287
 30
0.0
 11
565.7433501725
 21
26.2761944287
 31
0.0
  0
LINE
  5
32F
330
1F
100
AcDbEntity
  8
0
  6
Continuous
 62
     7
370
    25
100
AcDbLine
 10
564.9433501725
 20
26.2761944287
 30
0.0
 11
564.9433501725
 21
29.2761944287
 31
0.0
  0
LINE
  5
330
330
1F
100
AcDbEntity
  8
0
  6
Continuous
 62
     7
370
    25
100
AcDbLine
 10
260.5433501725
 20
26.2761944287
 30
0.0
 11
259.7433501725
 21
26.2761944287
 31
0.0
  0
LINE
  5
331
330
1F
100
AcDbEntity
  8
0
  6
Continuous
 62
     7
370
    25
100
AcDbLine
 10
260.5433501725
 20
29.2761944287
 30
0.0
 11
260.5433501725
 21
26.2761944287
 31
0.0
  0
LINE
  5
332
330
1F
100
AcDbEntity
  8
0
  6
Continuous
 62
     7
370
    25
100
AcDbLine
 10
259.7433501725
 20
26.2761944287
 30
0.0
 11
259.7433501725
 21
29.2761944287
 31
0.0
  0
LINE
  5
333
330
1F
100
AcDbEntity
  8
0
  6
Continuous
 62
     7
370
    25
100
AcDbLine
 10
562.7433501725
 20
28.2761944287
 30
0.0
 11
562.7433501725
 21
29.0761944287
 31
0.0
  0
LINE
  5
334
330
1F
100
AcDbEntity
  8
0
  6
Continuous
 62
     7
370
    25
100
AcDbLine
 10
262.7433501725
 20
28.2761944287
 30
0.0
 11
262.7433501725
 21
29.0761944287
 31
0.0
  0
LINE
  5
335
330
1F
100
AcDbEntity
  8
0
  6
Continuous
 62
     7
370
    25
100
AcDbLine
 10
562.7433501725
 20
29.0761944287
 30
0.0
 11
262.7433501725
 21
29.0761944287
 31
0.0
  0
LINE
  5
336
330
1F
100
AcDbEntity
  8
0
  6
Continuous
 62
     7
370
    25
100
AcDbLine
 10
338.2433501725
 20
69.1808078205
 30
0.0
 11
338.2433501725
 21
62.6631163669
 31
0.0
  0
LINE
  5
337
330
1F
100
AcDbEntity
  8
0
  6
Continuous
 62
     7
370
    25
100
AcDbLine
 10
488.2433501725
 20
62.6631163669
 30
0.0
 11
488.2433501725
 21
69.1808078205
 31
0.0
  0
LINE
  5
338
330
1F
100
AcDbEntity
  8
0
  6
Continuous
 62
     7
370
    25
100
AcDbLine
 10
485.2433501725
 20
72.1808078205
 30
0.0
 11
341.2433501725
 21
72.1808078205
 31
0.0
  0
ARC
  5
339
330
1F
100
AcDbEntity
  8
0
  6
Continuous
 62
     7
370
    25
100
AcDbCircle
 10
341.2433501725
 20
69.1808078205
 30
0.0
 40
3.0
100
AcDbArc
 50
90.0
 51
180.0
  0
ARC
  5
33A
330
1F
100
AcDbEntity
  8
0
  6
Continuous
 62
     7
370
    25
100
AcDbCircle
 10
485.2433501725
 20
69.1808078205
 30
0.0
 40
3.0
100
AcDbArc
 50
0.0
 51
90.0
  0
LINE
  5
33B
330
1F
100
AcDbEntity
  8
0
  6
Continuous
 62
     7
370
    25
100
AcDbLine
 10
338.2433501725
 20
61.7631163669
 30
0.0
 11
338.2433501725
 21
62.6631163669
 31
0.0
  0
LINE
  5
33C
330
1F
100
AcDbEntity
  8
0
  6
Continuous
 62
     7
370
    25
100
AcDbLine
 10
488.2433501725
 20
62.6631163669
 30
0.0
 11
488.2433501725
 21
61.7631163669
 31
0.0
  0
LINE
  5
33D
330
1F
100
AcDbEntity
  8
0
  6
Continuous
 62
     7
370
    25
100
AcDbLine
 10
488.2433501725
 20
61.7631163669
 30
0.0
 11
488.2433501725
 21
55.1382452363
 31
0.0
  0
LINE
  5
33E
330
1F
100
AcDbEntity
  8
0
  6
Continuous
 62
     7
370
    25
100
AcDbLine
 10
338.2433501725
 20
55.1382452363
 30
0.0
 11
338.2433501725
 21
61.7631163669
 31
0.0
  0
LINE
  5
33F
330
1F
100
AcDbEntity
  8
0
  6
Continuous
 62
     7
370
    25
100
AcDbLine
 10
564.9433501725
 20
49.2761944287
 30
0.0
 11
563.9433501725
 21
49.2761944287
 31
0.0
  0
LINE
  5
340
330
1F
100
AcDbEntity
  8
0
  6
Continuous
 62
     7
370
    25
100
AcDbLine
 10
563.9433501725
 20
30.2761944287
 30
0.0
 11
564.9433501725
 21
30.2761944287
 31
0.0
  0
LINE
  5
341
330
1F
100
AcDbEntity
  8
0
  6
Continuous
 62
     7
370
    25
100
AcDbLine
 10
260.5433501725
 20
30.2761944287
 30
0.0
 11
261.5433501725
 21
30.2761944287
 31
0.0
  0
LINE
  5
342
330
1F
100
AcDbEntity
  8
0
  6
Continuous
 62
     7
370
    25
100
AcDbLine
 10
261.5433501725
 20
49.2761944287
 30
0.0
 11
260.5433501725
 21
49.2761944287
 31
0.0
  0
LINE
  5
343
330
1F
100
AcDbEntity
  8
0
  6
Continuous
 62
     7
370
    25
100
AcDbLine
 10
262.7433501725
 20
30.0761944287
 30
0.0
 11
262.7433501725
 21
29.0761944287
 31
0.0
  0
LINE
  5
344
330
1F
100
AcDbEntity
  8
0
  6
Continuous
 62
     7
370
    25
100
AcDbLine
 10
562.7433501725
 20
29.0761944287
 30
0.0
 11
562.7433501725
 21
30.0761944287
 31
0.0
  0
LINE
  5
345
330
1F
100
AcDbEntity
  8
0
  6
Continuous
 62
     7
370
    25
100
AcDbLine
 10
338.2433501725
 20
55.1382452363
 30
0.0
 11
338.2433501725
 21
54.6382452363
 31
0.0
  0
LINE
  5
346
330
1F
100
AcDbEntity
  8
0
  6
Continuous
 62
     7
370
    25
100
AcDbLine
 10
488.2433501725
 20
54.6382452363
 30
0.0
 11
488.2433501725
 21
55.1382452363
 31
0.0
  0
LINE
  5
347
330
1F
100
AcDbEntity
  8
0
  6
Continuous
 62
     7
370
    25
100
AcDbLine
 10
563.9433501725
 20
49.2761944287
 30
0.0
 11
560.7433501725
 21
49.2761944287
 31
0.0
  0
LINE
  5
348
330
1F
100
AcDbEntity
  8
0
  6
Continuous
 62
     7
370
    25
100
AcDbLine
 10
562.7433501725
 20
30.2761944287
 30
0.0
 11
563.9433501725
 21
30.2761944287
 31
0.0
  0
LINE
  5
349
330
1F
100
AcDbEntity
  8
0
  6
Continuous
 62
     7
370
    25
100
AcDbLine
 10
562.7433501725
 20
30.0761944287
 30
0.0
 11
562.7433501725
 21
30.2761944287
 31
0.0
  0
LINE
  5
34A
330
1F
100
AcDbEntity
  8
0
  6
Continuous
 62
     7
370
    25
100
AcDbLine
 10
262.7433501725
 20
30.2761944287
 30
0.0
 11
262.7433501725
 21
30.0761944287
 31
0.0
  0
LINE
  5
34B
330
1F
100
AcDbEntity
  8
0
  6
Continuous
 62
     7
370
    25
100
AcDbLine
 10
261.5433501725
 20
30.2761944287
 30
0.0
 11
262.7433501725
 21
30.2761944287
 31
0.0
  0
LINE
  5
34C
330
1F
100
AcDbEntity
  8
0
  6
Continuous
 62
     7
370
    25
100
AcDbLine
 10
264.7433501725
 20
49.2761944287
 30
0.0
 11
261.5433501725
 21
49.2761944287
 31
0.0
  0
LINE
  5
34D
330
1F
100
AcDbEntity
  8
0
  6
Continuous
 62
     7
370
    25
100
AcDbLine
 10
264.7433501725
 20
70.2761944287
 30
0.0
 11
264.7433501725
 21
49.2761944287
 31
0.0
  0
ARC
  5
34E
330
1F
100
AcDbEntity
  8
0
  6
Continuous
 62
     7
370
    25
100
AcDbCircle
 10
267.7433501725
 20
70.2761944287
 30
0.0
 40
3.0
100
AcDbArc
 50
90.0
 51
180.0
  0
LINE
  5
34F
330
1F
100
AcDbEntity
  8
0
  6
Continuous
 62
     7
370
    25
100
AcDbLine
 10
332.7433501725
 20
73.2761944287
 30
0.0
 11
267.7433501725
 21
73.2761944287
 31
0.0
  0
ARC
  5
350
330
1F
100
AcDbEntity
  8
0
  6
Continuous
 62
     7
370
    25
100
AcDbCircle
 10
332.7433501725
 20
70.2761944287
 30
0.0
 40
3.0
100
AcDbArc
 50
0.0
 51
90.0
  0
LINE
  5
351
330
1F
100
AcDbEntity
  8
0
  6
Continuous
 62
     7
370
    25
100
AcDbLine
 10
335.7433501725
 20
70.2761944287
 30
0.0
 11
335.7433501725
 21
54.1461944287
 31
0.0
  0
LINE
  5
352
330
1F
100
AcDbEntity
  8
0
  6
Continuous
 62
     7
370
    25
100
AcDbLine
 10
335.7433501725
 20
54.1461944287
 30
0.0
 11
338.2433501725
 21
54.1461944287
 31
0.0
  0
LINE
  5
353
330
1F
100
AcDbEntity
  8
0
  6
Continuous
 62
     7
370
    25
100
AcDbLine
 10
338.2433501725
 20
54.6382452363
 30
0.0
 11
338.2433501725
 21
54.1461944287
 31
0.0
  0
LINE
  5
354
330
1F
100
AcDbEntity
  8
0
  6
Continuous
 62
     7
370
    25
100
AcDbLine
 10
488.2433501725
 20
54.6382452363
 30
0.0
 11
488.2433501725
 21
54.1461944287
 31
0.0
  0
LINE
  5
355
330
1F
100
AcDbEntity
  8
0
  6
Continuous
 62
     7
370
    25
100
AcDbLine
 10
488.2433501725
 20
54.1461944287
 30
0.0
 11
490.7433501725
 21
54.1461944287
 31
0.0
  0
LINE
  5
356
330
1F
100
AcDbEntity
  8
0
  6
Continuous
 62
     7
370
    25
100
AcDbLine
 10
490.7433501725
 20
54.1461944287
 30
0.0
 11
490.7433501725
 21
70.2761944287
 31
0.0
  0
ARC
  5
357
330
1F
100
AcDbEntity
  8
0
  6
Continuous
 62
     7
370
    25
100
AcDbCircle
 10
493.7433501725
 20
70.2761944287
 30
0.0
 40
3.0
100
AcDbArc
 50
90.0
 51
180.0
  0
LINE
  5
358
330
1F
100
AcDbEntity
  8
0
  6
Continuous
 62
     7
370
    25
100
AcDbLine
 10
557.7433501725
 20
73.2761944287
 30
0.0
 11
493.7433501725
 21
73.2761944287
 31
0.0
  0
ARC
  5
359
330
1F
100
AcDbEntity
  8
0
  6
Continuous
 62
     7
370
    25
100
AcDbCircle
 10
557.7433501725
 20
70.2761944287
 30
0.0
 40
3.000000000000114
100
AcDbArc
 50
0.0
 51
90.0
  0
LINE
  5
35A
330
1F
100
AcDbEntity
  8
0
  6
Continuous
 62
     7
370
    25
100
AcDbLine
 10
560.7433501725
 20
49.2761944287
 30
0.0
 11
560.7433501725
 21
70.2761944287
 31
0.0
  0
SPLINE
  5
35B
330
1F
100
AcDbEntity
  8
0
  6
Continuous
 62
     7
370
    25
100
AcDbSpline
210
0.0
220
0.0
230
1.0
 70
     8
 71
     3
 72
     9
 73
     5
 74
     0
 42
0.000000001
 43
0.00000001
 40
0.0
 40
0.0
 40
0.0
 40
0.0
 40
0.6277651913045489
 40
0.9999999999999999
 40
0.9999999999999999
 40
0.9999999999999999
 40
0.9999999999999999
 10
540.698408133843
 20
29.48642035368202
 30
0.0
 10
540.6491010337015
 20
29.4914479531575
 30
0.0
 10
540.5705571755448
 20
29.49945667926262
 30
0.0
 10
540.4954265509541
 20
29.63895010534912
 30
0.0
 10
540.4674603172823
 20
29.69087441412271
 30
0.0
  0
SPLINE
  5
35C
330
1F
100
AcDbEntity
  8
0
  6
Continuous
 62
     7
370
    25
100
AcDbSpline
210
0.0
220
0.0
230
1.0
 70
     8
 71
     3
 72
    12
 73
     8
 74
     0
 42
0.000000001
 43
0.00000001
 40
0.0
 40
0.0
 40
0.0
 40
0.0
 40
0.5000000000000142
 40
0.5000000000000142
 40
0.7500000000000071
 40
0.7500000000000071
 40
1.0
 40
1.0
 40
1.0
 40
1.0
 10
540.4674603172822
 20
29.69087441412171
 30
0.0
 10
540.9794664689871
 20
29.5003801246982
 30
0.0
 10
541.4991440152553
 20
29.37870571163583
 30
0.0
 10
542.2989318728179
 20
29.37804952110459
 30
0.0
 10
542.5652558196658
 20
29.40788352289898
 30
0.0
 10
543.0884133226672
 20
29.51681339300658
 30
0.0
 10
543.3468779538157
 20
29.59550858006945
 30
0.0
 10
543.6032000401377
 20
29.6908744141222
 30
0.0
  0
SPLINE
  5
35D
330
1F
100
AcDbEntity
  8
0
  6
Continuous
 62
     7
370
    25
100
AcDbSpline
210
0.0
220
0.0
230
1.0
 70
     8
 71
     3
 72
    12
 73
     8
 74
     0
 42
0.000000001
 43
0.00000001
 40
0.0
 40
0.0
 40
0.0
 40
0.0
 40
0.4999999999999942
 40
0.4999999999999942
 40
0.7499999999999971
 40
0.7499999999999971
 40
1.0
 40
1.0
 40
1.0
 40
1.0
 10
543.6032000401375
 20
29.69087441412172
 30
0.0
 10
544.2197304300578
 20
29.50038012469819
 30
0.0
 10
544.8454983025075
 20
29.37870571163582
 30
0.0
 10
545.8085600118924
 20
29.37804952110459
 30
0.0
 10
546.1292530470221
 20
29.40788352289898
 30
0.0
 10
546.759211297018
 20
29.51681339300658
 30
0.0
 10
547.0704405650489
 20
29.59550858006945
 30
0.0
 10
547.3790898953337
 20
29.6908744141222
 30
0.0
  0
SPLINE
  5
35E
330
1F
100
AcDbEntity
  8
0
  6
Continuous
 62
     7
370
    25
100
AcDbSpline
210
0.0
220
0.0
230
1.0
 70
     8
 71
     3
 72
    14
 73
    10
 74
     0
 42
0.000000001
 43
0.00000001
 40
0.0
 40
0.0
 40
0.0
 40
0.0
 40
0.25
 40
0.25
 40
0.5
 40
0.5
 40
0.75
 40
0.75
 40
1.0
 40
1.0
 40
1.0
 40
1.0
 10
547.3790898953335
 20
29.69087441412269
 30
0.0
 10
547.4311476042243
 20
29.59599980481208
 30
0.0
 10
547.4844811425525
 20
29.51639487993633
 30
0.0
 10
547.5914131501804
 20
29.4075582650421
 30
0.0
 10
547.6451665166281
 20
29.37823465935161
 30
0.0
 10
547.7533455680518
 20
29.3782994410972
 30
0.0
 10
547.8081742646398
 20
29.40845563442355
 30
0.0
 10
547.9150812472997
 20
29.51804083578928
 30
0.0
 10
547.967502762272
 20
29.59658380959144
 30
0.0
 10
548.0192400276741
 20
29.6908744141227
 30
0.0
  0
LINE
  5
35F
330
1F
100
AcDbEntity
  8
0
  6
Continuous
 62
     7
370
    25
100
AcDbLine
 10
547.3933501725
 20
29.1761944287
 30
0.0
 11
541.0933501725
 21
29.1761944287
 31
0.0
  0
SPLINE
  5
360
330
1F
100
AcDbEntity
  8
0
  6
Continuous
 62
     7
370
    25
100
AcDbSpline
210
0.0
220
0.0
230
1.0
 70
     8
 71
     3
 72
    12
 73
     8
 74
     0
 42
0.000000001
 43
0.00000001
 40
0.0
 40
0.0
 40
0.0
 40
0.0
 40
0.5000000000000131
 40
0.5000000000000131
 40
0.7500000000000066
 40
0.7500000000000066
 40
1.0
 40
1.0
 40
1.0
 40
1.0
 10
547.3790898953337
 20
31.86151444335168
 30
0.0
 10
546.7625595054134
 20
32.05200873277519
 30
0.0
 10
546.1367916329635
 20
32.17368314583756
 30
0.0
 10
545.1737299235787
 20
32.1743393363688
 30
0.0
 10
544.8530368884491
 20
32.1445053345744
 30
0.0
 10
544.2230786384531
 20
32.03557546446682
 30
0.0
 10
543.9118493704221
 20
31.95688027740395
 30
0.0
 10
543.6032000401375
 20
31.86151444335119
 30
0.0
  0
LINE
  5
361
330
1F
100
AcDbEntity
  8
0
  6
Continuous
 62
     7
370
    25
100
AcDbLine
 10
547.3790898953
 20
31.8615144434
 30
0.0
 11
547.3790898953
 21
29.6908744141
 31
0.0
  0
LINE
  5
362
330
1F
100
AcDbEntity
  8
0
  6
Continuous
 62
     7
370
    25
100
AcDbLine
 10
543.6032000401
 20
31.8615144434
 30
0.0
 11
543.6032000401
 21
29.6908744141
 31
0.0
  0
SPLINE
  5
363
330
1F
100
AcDbEntity
  8
0
  6
Continuous
 62
     7
370
    25
100
AcDbSpline
210
0.0
220
0.0
230
1.0
 70
     8
 71
     3
 72
    14
 73
    10
 74
     0
 42
0.000000001
 43
0.00000001
 40
0.0
 40
0.0
 40
0.0
 40
0.0
 40
0.25
 40
0.25
 40
0.5
 40
0.5
 40
0.75
 40
0.75
 40
1.0
 40
1.0
 40
1.0
 40
1.0
 10
547.3790898953335
 20
31.8615144433507
 30
0.0
 10
547.4311476042243
 20
31.95638905266131
 30
0.0
 10
547.4844811425525
 20
32.03599397753706
 30
0.0
 10
547.5914131501804
 20
32.14483059243128
 30
0.0
 10
547.6451665166281
 20
32.17415419812179
 30
0.0
 10
547.7533455680518
 20
32.17408941637618
 30
0.0
 10
547.8081742646398
 20
32.14393322304983
 30
0.0
 10
547.9150812472997
 20
32.03434802168412
 30
0.0
 10
547.967502762272
 20
31.95580504788195
 30
0.0
 10
548.0192400276741
 20
31.86151444335069
 30
0.0
  0
SPLINE
  5
364
330
1F
100
AcDbEntity
  8
0
  6
Continuous
 62
     7
370
    25
100
AcDbSpline
210
0.0
220
0.0
230
1.0
 70
     8
 71
     3
 72
    12
 73
     8
 74
     0
 42
0.000000001
 43
0.00000001
 40
0.0
 40
0.0
 40
0.0
 40
0.0
 40
0.4999999999999984
 40
0.4999999999999984
 40
0.7499999999999992
 40
0.7499999999999992
 40
1.0
 40
1.0
 40
1.0
 40
1.0
 10
543.6032000401377
 20
31.86151444335168
 30
0.0
 10
543.0911938884328
 20
32.0520087327752
 30
0.0
 10
542.5715163421645
 20
32.17368314583756
 30
0.0
 10
541.771728484602
 20
32.1743393363688
 30
0.0
 10
541.5054045377541
 20
32.1445053345744
 30
0.0
 10
540.9822470347526
 20
32.03557546446682
 30
0.0
 10
540.7237824036043
 20
31.95688027740394
 30
0.0
 10
540.4674603172822
 20
31.8615144433512
 30
0.0
  0
SPLINE
  5
365
330
1F
100
AcDbEntity
  8
0
  6
Continuous
 62
     7
370
    25
100
AcDbSpline
210
0.0
220
0.0
230
1.0
 70
     8
 71
     3
 72
     9
 73
     5
 74
     0
 42
0.000000001
 43
0.00000001
 40
0.0
 40
0.0
 40
0.0
 40
0.0
 40
0.3722348086954365
 40
1.0
 40
1.0
 40
1.0
 40
1.0
 10
540.4674603172823
 20
31.86151444335068
 30
0.0
 10
540.4954265509541
 20
31.91343875212427
 30
0.0
 10
540.5705571755449
 20
32.05293217821078
 30
0.0
 10
540.6491010337015
 20
32.0609409043159
 30
0.0
 10
540.698408133843
 20
32.06596850379137
 30
0.0
  0
LINE
  5
366
330
1F
100
AcDbEntity
  8
0
  6
Continuous
 62
     7
370
    25
100
AcDbLine
 10
547.3933501725
 20
32.3761944287
 30
0.0
 11
541.0933501725
 21
32.3761944287
 31
0.0
  0
LINE
  5
367
330
1F
100
AcDbEntity
  8
0
  6
Continuous
 62
     7
370
    25
100
AcDbLine
 10
540.4674603173
 20
31.8615144434
 30
0.0
 11
540.4674603173
 21
29.6908744141
 31
0.0
  0
LINE
  5
368
330
1F
100
AcDbEntity
  8
0
  6
Continuous
 62
     7
370
    25
100
AcDbLine
 10
548.0192400277
 20
31.8615144434
 30
0.0
 11
548.0192400277
 21
29.6908744141
 31
0.0
  0
SPLINE
  5
369
330
1F
100
AcDbEntity
  8
0
  6
Continuous
 62
     7
370
    25
100
AcDbSpline
210
0.0
220
0.0
230
1.0
 70
     8
 71
     3
 72
    12
 73
     8
 74
     0
 42
0.000000001
 43
0.00000001
 40
0.0
 40
0.0
 40
0.0
 40
0.0
 40
0.5000000000000037
 40
0.5000000000000037
 40
0.7500000000000018
 40
0.7500000000000018
 40
1.0
 40
1.0
 40
1.0
 40
1.0
 10
415.3790898953336
 20
31.86151444335168
 30
0.0
 10
414.7625595054134
 20
32.05200873277519
 30
0.0
 10
414.1367916329636
 20
32.17368314583755
 30
0.0
 10
413.1737299235787
 20
32.1743393363688
 30
0.0
 10
412.853036888449
 20
32.14450533457441
 30
0.0
 10
412.223078638453
 20
32.03557546446681
 30
0.0
 10
411.9118493704221
 20
31.95688027740394
 30
0.0
 10
411.6032000401375
 20
31.86151444335119
 30
0.0
  0
LINE
  5
36A
330
1F
100
AcDbEntity
  8
0
  6
Continuous
 62
     7
370
    25
100
AcDbLine
 10
415.3790898953
 20
31.8615144434
 30
0.0
 11
415.3790898953
 21
29.6908744141
 31
0.0
  0
SPLINE
  5
36B
330
1F
100
AcDbEntity
  8
0
  6
Continuous
 62
     7
370
    25
100
AcDbSpline
210
0.0
220
0.0
230
1.0
 70
     8
 71
     3
 72
    12
 73
     8
 74
     0
 42
0.000000001
 43
0.00000001
 40
0.0
 40
0.0
 40
0.0
 40
0.0
 40
0.5000000000000038
 40
0.5000000000000038
 40
0.7500000000000019
 40
0.7500000000000019
 40
1.0
 40
1.0
 40
1.0
 40
1.0
 10
411.6032000401374
 20
29.69087441412172
 30
0.0
 10
412.2197304300577
 20
29.5003801246982
 30
0.0
 10
412.8454983025075
 20
29.37870571163582
 30
0.0
 10
413.8085600118924
 20
29.37804952110459
 30
0.0
 10
414.1292530470221
 20
29.40788352289899
 30
0.0
 10
414.7592112970181
 20
29.51681339300658
 30
0.0
 10
415.070440565049
 20
29.59550858006945
 30
0.0
 10
415.3790898953335
 20
29.6908744141222
 30
0.0
  0
LINE
  5
36C
330
1F
100
AcDbEntity
  8
0
  6
Continuous
 62
     7
370
    25
100
AcDbLine
 10
411.6032000401
 20
31.8615144434
 30
0.0
 11
411.6032000401
 21
29.6908744141
 31
0.0
  0
SPLINE
  5
36D
330
1F
100
AcDbEntity
  8
0
  6
Continuous
 62
     7
370
    25
100
AcDbSpline
210
0.0
220
0.0
230
1.0
 70
     8
 71
     3
 72
    14
 73
    10
 74
     0
 42
0.000000001
 43
0.00000001
 40
0.0
 40
0.0
 40
0.0
 40
0.0
 40
0.25
 40
0.25
 40
0.5
 40
0.5
 40
0.75
 40
0.75
 40
1.0
 40
1.0
 40
1.0
 40
1.0
 10
415.3790898953335
 20
31.8615144433507
 30
0.0
 10
415.4311476042243
 20
31.9563890526613
 30
0.0
 10
415.4844811425525
 20
32.03599397753706
 30
0.0
 10
415.5914131501805
 20
32.14483059243128
 30
0.0
 10
415.6451665166281
 20
32.17415419812178
 30
0.0
 10
415.7533455680518
 20
32.17408941637618
 30
0.0
 10
415.8081742646397
 20
32.14393322304983
 30
0.0
 10
415.9150812472996
 20
32.03434802168412
 30
0.0
 10
415.967502762272
 20
31.95580504788194
 30
0.0
 10
416.0192400276741
 20
31.86151444335068
 30
0.0
  0
SPLINE
  5
36E
330
1F
100
AcDbEntity
  8
0
  6
Continuous
 62
     7
370
    25
100
AcDbSpline
210
0.0
220
0.0
230
1.0
 70
     8
 71
     3
 72
    12
 73
     8
 74
     0
 42
0.000000001
 43
0.00000001
 40
0.0
 40
0.0
 40
0.0
 40
0.0
 40
0.5000000000000064
 40
0.5000000000000064
 40
0.7500000000000032
 40
0.7500000000000032
 40
1.0
 40
1.0
 40
1.0
 40
1.0
 10
411.6032000401377
 20
31.86151444335168
 30
0.0
 10
411.0911938884328
 20
32.05200873277519
 30
0.0
 10
410.5715163421646
 20
32.17368314583756
 30
0.0
 10
409.771728484602
 20
32.1743393363688
 30
0.0
 10
409.505404537754
 20
32.1445053345744
 30
0.0
 10
408.9822470347526
 20
32.03557546446682
 30
0.0
 10
408.7237824036042
 20
31.95688027740394
 30
0.0
 10
408.4674603172822
 20
31.86151444335118
 30
0.0
  0
SPLINE
  5
36F
330
1F
100
AcDbEntity
  8
0
  6
Continuous
 62
     7
370
    25
100
AcDbSpline
210
0.0
220
0.0
230
1.0
 70
     8
 71
     3
 72
     9
 73
     5
 74
     0
 42
0.000000001
 43
0.00000001
 40
0.0
 40
0.0
 40
0.0
 40
0.0
 40
0.3722348086954369
 40
1.0
 40
1.0
 40
1.0
 40
1.0
 10
408.4674603172822
 20
31.86151444335068
 30
0.0
 10
408.495426550954
 20
31.91343875212426
 30
0.0
 10
408.5705571755449
 20
32.05293217821077
 30
0.0
 10
408.6491010337015
 20
32.0609409043159
 30
0.0
 10
408.698408133843
 20
32.06596850379137
 30
0.0
  0
LINE
  5
370
330
1F
100
AcDbEntity
  8
0
  6
Continuous
 62
     7
370
    25
100
AcDbLine
 10
415.3933501725
 20
32.3761944287
 30
0.0
 11
409.0933501725
 21
32.3761944287
 31
0.0
  0
SPLINE
  5
371
330
1F
100
AcDbEntity
  8
0
  6
Continuous
 62
     7
370
    25
100
AcDbSpline
210
0.0
220
0.0
230
1.0
 70
     8
 71
     3
 72
     9
 73
     5
 74
     0
 42
0.000000001
 43
0.00000001
 40
0.0
 40
0.0
 40
0.0
 40
0.0
 40
0.6277651913045492
 40
1.0
 40
1.0
 40
1.0
 40
1.0
 10
408.698408133843
 20
29.48642035368202
 30
0.0
 10
408.6491010337015
 20
29.4914479531575
 30
0.0
 10
408.5705571755449
 20
29.49945667926262
 30
0.0
 10
408.495426550954
 20
29.63895010534912
 30
0.0
 10
408.4674603172822
 20
29.69087441412271
 30
0.0
  0
SPLINE
  5
372
330
1F
100
AcDbEntity
  8
0
  6
Continuous
 62
     7
370
    25
100
AcDbSpline
210
0.0
220
0.0
230
1.0
 70
     8
 71
     3
 72
    12
 73
     8
 74
     0
 42
0.000000001
 43
0.00000001
 40
0.0
 40
0.0
 40
0.0
 40
0.0
 40
0.5000000000000064
 40
0.5000000000000064
 40
0.7500000000000033
 40
0.7500000000000033
 40
1.0
 40
1.0
 40
1.0
 40
1.0
 10
408.4674603172821
 20
29.69087441412172
 30
0.0
 10
408.979466468987
 20
29.50038012469819
 30
0.0
 10
409.4991440152554
 20
29.37870571163582
 30
0.0
 10
410.2989318728178
 20
29.3780495211046
 30
0.0
 10
410.5652558196659
 20
29.40788352289898
 30
0.0
 10
411.0884133226673
 20
29.51681339300657
 30
0.0
 10
411.3468779538156
 20
29.59550858006944
 30
0.0
 10
411.6032000401377
 20
29.6908744141222
 30
0.0
  0
SPLINE
  5
373
330
1F
100
AcDbEntity
  8
0
  6
Continuous
 62
     7
370
    25
100
AcDbSpline
210
0.0
220
0.0
230
1.0
 70
     8
 71
     3
 72
    14
 73
    10
 74
     0
 42
0.000000001
 43
0.00000001
 40
0.0
 40
0.0
 40
0.0
 40
0.0
 40
0.25
 40
0.25
 40
0.5
 40
0.5
 40
0.75
 40
0.75
 40
1.0
 40
1.0
 40
1.0
 40
1.0
 10
415.3790898953335
 20
29.6908744141227
 30
0.0
 10
415.4311476042243
 20
29.59599980481209
 30
0.0
 10
415.4844811425525
 20
29.51639487993633
 30
0.0
 10
415.5914131501805
 20
29.40755826504209
 30
0.0
 10
415.6451665166281
 20
29.37823465935161
 30
0.0
 10
415.7533455680518
 20
29.37829944109721
 30
0.0
 10
415.8081742646397
 20
29.40845563442356
 30
0.0
 10
415.9150812472996
 20
29.51804083578928
 30
0.0
 10
415.967502762272
 20
29.59658380959145
 30
0.0
 10
416.0192400276741
 20
29.6908744141227
 30
0.0
  0
LINE
  5
374
330
1F
100
AcDbEntity
  8
0
  6
Continuous
 62
     7
370
    25
100
AcDbLine
 10
415.3933501725
 20
29.1761944287
 30
0.0
 11
409.0933501725
 21
29.1761944287
 31
0.0
  0
LINE
  5
375
330
1F
100
AcDbEntity
  8
0
  6
Continuous
 62
     7
370
    25
100
AcDbLine
 10
408.4674603173
 20
31.8615144434
 30
0.0
 11
408.4674603173
 21
29.6908744141
 31
0.0
  0
LINE
  5
376
330
1F
100
AcDbEntity
  8
0
  6
Continuous
 62
     7
370
    25
100
AcDbLine
 10
416.0192400277
 20
31.8615144434
 30
0.0
 11
416.0192400277
 21
29.6908744141
 31
0.0
  0
SPLINE
  5
377
330
1F
100
AcDbEntity
  8
0
  6
Continuous
 62
     7
370
    25
100
AcDbSpline
210
0.0
220
0.0
230
1.0
 70
     8
 71
     3
 72
    14
 73
    10
 74
     0
 42
0.000000001
 43
0.00000001
 40
0.0
 40
0.0
 40
0.0
 40
0.0
 40
0.25
 40
0.25
 40
0.5
 40
0.5
 40
0.75
 40
0.75
 40
1.0
 40
1.0
 40
1.0
 40
1.0
 10
284.3790898953335
 20
31.86151444335065
 30
0.0
 10
284.4311476042243
 20
31.95638905266127
 30
0.0
 10
284.4844811425525
 20
32.03599397753703
 30
0.0
 10
284.5914131501805
 20
32.14483059243124
 30
0.0
 10
284.6451665166281
 20
32.17415419812176
 30
0.0
 10
284.7533455680519
 20
32.17408941637615
 30
0.0
 10
284.8081742646398
 20
32.14393322304979
 30
0.0
 10
284.9150812472996
 20
32.03434802168407
 30
0.0
 10
284.967502762272
 20
31.95580504788191
 30
0.0
 10
285.0192400276741
 20
31.86151444335065
 30
0.0
  0
SPLINE
  5
378
330
1F
100
AcDbEntity
  8
0
  6
Continuous
 62
     7
370
    25
100
AcDbSpline
210
0.0
220
0.0
230
1.0
 70
     8
 71
     3
 72
    12
 73
     8
 74
     0
 42
0.000000001
 43
0.00000001
 40
0.0
 40
0.0
 40
0.0
 40
0.0
 40
0.5000000000000131
 40
0.5000000000000131
 40
0.7500000000000066
 40
0.7500000000000066
 40
1.0
 40
1.0
 40
1.0
 40
1.0
 10
284.3790898953337
 20
31.86151444335163
 30
0.0
 10
283.7625595054134
 20
32.05200873277516
 30
0.0
 10
283.1367916329637
 20
32.17368314583751
 30
0.0
 10
282.1737299235788
 20
32.17433933636875
 30
0.0
 10
281.853036888449
 20
32.14450533457436
 30
0.0
 10
281.2230786384531
 20
32.03557546446678
 30
0.0
 10
280.9118493704221
 20
31.9568802774039
 30
0.0
 10
280.6032000401375
 20
31.86151444335115
 30
0.0
  0
SPLINE
  5
379
330
1F
100
AcDbEntity
  8
0
  6
Continuous
 62
     7
370
    25
100
AcDbSpline
210
0.0
220
0.0
230
1.0
 70
     8
 71
     3
 72
    12
 73
     8
 74
     0
 42
0.000000001
 43
0.00000001
 40
0.0
 40
0.0
 40
0.0
 40
0.0
 40
0.4999999999999984
 40
0.4999999999999984
 40
0.7499999999999992
 40
0.7499999999999992
 40
1.0
 40
1.0
 40
1.0
 40
1.0
 10
280.6032000401377
 20
31.86151444335164
 30
0.0
 10
280.0911938884328
 20
32.05200873277516
 30
0.0
 10
279.5715163421646
 20
32.17368314583751
 30
0.0
 10
278.7717284846021
 20
32.17433933636876
 30
0.0
 10
278.505404537754
 20
32.14450533457436
 30
0.0
 10
277.9822470347526
 20
32.03557546446677
 30
0.0
 10
277.7237824036043
 20
31.9568802774039
 30
0.0
 10
277.4674603172822
 20
31.86151444335115
 30
0.0
  0
SPLINE
  5
37A
330
1F
100
AcDbEntity
  8
0
  6
Continuous
 62
     7
370
    25
100
AcDbSpline
210
0.0
220
0.0
230
1.0
 70
     8
 71
     3
 72
     9
 73
     5
 74
     0
 42
0.000000001
 43
0.00000001
 40
0.0
 40
0.0
 40
0.0
 40
0.0
 40
0.3722348086954365
 40
1.0
 40
1.0
 40
1.0
 40
1.0
 10
277.4674603172822
 20
31.86151444335064
 30
0.0
 10
277.495426550954
 20
31.91343875212423
 30
0.0
 10
277.5705571755449
 20
32.05293217821075
 30
0.0
 10
277.6491010337015
 20
32.06094090431586
 30
0.0
 10
277.698408133843
 20
32.06596850379134
 30
0.0
  0
LINE
  5
37B
330
1F
100
AcDbEntity
  8
0
  6
Continuous
 62
     7
370
    25
100
AcDbLine
 10
284.3933501725
 20
32.3761944287
 30
0.0
 11
278.0933501725
 21
32.3761944287
 31
0.0
  0
SPLINE
  5
37C
330
1F
100
AcDbEntity
  8
0
  6
Continuous
 62
     7
370
    25
100
AcDbSpline
210
0.0
220
0.0
230
1.0
 70
     8
 71
     3
 72
     9
 73
     5
 74
     0
 42
0.000000001
 43
0.00000001
 40
0.0
 40
0.0
 40
0.0
 40
0.0
 40
0.6277651913045501
 40
1.0
 40
1.0
 40
1.0
 40
1.0
 10
277.698408133843
 20
29.48642035368198
 30
0.0
 10
277.6491010337014
 20
29.49144795315747
 30
0.0
 10
277.5705571755448
 20
29.49945667926259
 30
0.0
 10
277.4954265509541
 20
29.63895010534909
 30
0.0
 10
277.4674603172823
 20
29.69087441412267
 30
0.0
  0
SPLINE
  5
37D
330
1F
100
AcDbEntity
  8
0
  6
Continuous
 62
     7
370
    25
100
AcDbSpline
210
0.0
220
0.0
230
1.0
 70
     8
 71
     3
 72
    12
 73
     8
 74
     0
 42
0.000000001
 43
0.00000001
 40
0.0
 40
0.0
 40
0.0
 40
0.0
 40
0.5000000000000142
 40
0.5000000000000142
 40
0.7500000000000071
 40
0.7500000000000071
 40
1.0
 40
1.0
 40
1.0
 40
1.0
 10
277.4674603172822
 20
29.69087441412167
 30
0.0
 10
277.979466468987
 20
29.50038012469815
 30
0.0
 10
278.4991440152554
 20
29.37870571163578
 30
0.0
 10
279.2989318728178
 20
29.37804952110454
 30
0.0
 10
279.5652558196659
 20
29.40788352289894
 30
0.0
 10
280.0884133226673
 20
29.51681339300653
 30
0.0
 10
280.3468779538156
 20
29.59550858006941
 30
0.0
 10
280.6032000401377
 20
29.69087441412216
 30
0.0
  0
SPLINE
  5
37E
330
1F
100
AcDbEntity
  8
0
  6
Continuous
 62
     7
370
    25
100
AcDbSpline
210
0.0
220
0.0
230
1.0
 70
     8
 71
     3
 72
    12
 73
     8
 74
     0
 42
0.000000001
 43
0.00000001
 40
0.0
 40
0.0
 40
0.0
 40
0.0
 40
0.4999999999999942
 40
0.4999999999999942
 40
0.7499999999999971
 40
0.7499999999999971
 40
1.0
 40
1.0
 40
1.0
 40
1.0
 10
280.6032000401375
 20
29.69087441412168
 30
0.0
 10
281.2197304300578
 20
29.50038012469815
 30
0.0
 10
281.8454983025075
 20
29.37870571163578
 30
0.0
 10
282.8085600118925
 20
29.37804952110454
 30
0.0
 10
283.1292530470221
 20
29.40788352289894
 30
0.0
 10
283.7592112970181
 20
29.51681339300653
 30
0.0
 10
284.070440565049
 20
29.59550858006941
 30
0.0
 10
284.3790898953336
 20
29.69087441412216
 30
0.0
  0
SPLINE
  5
37F
330
1F
100
AcDbEntity
  8
0
  6
Continuous
 62
     7
370
    25
100
AcDbSpline
210
0.0
220
0.0
230
1.0
 70
     8
 71
     3
 72
    14
 73
    10
 74
     0
 42
0.000000001
 43
0.00000001
 40
0.0
 40
0.0
 40
0.0
 40
0.0
 40
0.25
 40
0.25
 40
0.5
 40
0.5
 40
0.75
 40
0.75
 40
1.0
 40
1.0
 40
1.0
 40
1.0
 10
284.3790898953335
 20
29.69087441412266
 30
0.0
 10
284.4311476042243
 20
29.59599980481204
 30
0.0
 10
284.4844811425525
 20
29.5163948799363
 30
0.0
 10
284.5914131501805
 20
29.40755826504206
 30
0.0
 10
284.6451665166281
 20
29.37823465935156
 30
0.0
 10
284.7533455680519
 20
29.37829944109716
 30
0.0
 10
284.8081742646398
 20
29.40845563442352
 30
0.0
 10
284.9150812472996
 20
29.51804083578924
 30
0.0
 10
284.967502762272
 20
29.59658380959141
 30
0.0
 10
285.0192400276741
 20
29.69087441412266
 30
0.0
  0
LINE
  5
380
330
1F
100
AcDbEntity
  8
0
  6
Continuous
 62
     7
370
    25
100
AcDbLine
 10
284.3933501725
 20
29.1761944287
 30
0.0
 11
278.0933501725
 21
29.1761944287
 31
0.0
  0
LINE
  5
381
330
1F
100
AcDbEntity
  8
0
  6
Continuous
 62
     7
370
    25
100
AcDbLine
 10
284.3790898953
 20
31.8615144434
 30
0.0
 11
284.3790898953
 21
29.6908744141
 31
0.0
  0
LINE
  5
382
330
1F
100
AcDbEntity
  8
0
  6
Continuous
 62
     7
370
    25
100
AcDbLine
 10
280.6032000401
 20
31.8615144434
 30
0.0
 11
280.6032000401
 21
29.6908744141
 31
0.0
  0
LINE
  5
383
330
1F
100
AcDbEntity
  8
0
  6
Continuous
 62
     7
370
    25
100
AcDbLine
 10
277.4674603173
 20
31.8615144434
 30
0.0
 11
277.4674603173
 21
29.6908744141
 31
0.0
  0
LINE
  5
384
330
1F
100
AcDbEntity
  8
0
  6
Continuous
 62
     7
370
    25
100
AcDbLine
 10
285.0192400277
 20
31.8615144434
 30
0.0
 11
285.0192400277
 21
29.6908744141
 31
0.0
  0
LINE
  5
385
330
1F
100
AcDbEntity
  8
0
  6
Continuous
 62
     7
370
    25
100
AcDbLine
 10
564.2433501725
 20
26.4761944287
 30
0.0
 11
565.164280405
 21
16.5761944287
 31
0.0
  0
LINE
  5
386
330
1F
100
AcDbEntity
  8
0
  6
Continuous
 62
     7
370
    25
100
AcDbLine
 10
260.3224199399
 20
16.5761944287
 30
0.0
 11
261.2433501725
 21
26.4761944287
 31
0.0
  0
LINE
  5
387
330
1F
100
AcDbEntity
  8
0
  6
Continuous
 62
     7
370
    25
100
AcDbLine
 10
261.2433501725
 20
28.2761944287
 30
0.0
 11
564.2433501725
 21
28.2761944287
 31
0.0
  0
LINE
  5
388
330
1F
100
AcDbEntity
  8
0
  6
Continuous
 62
     7
370
    25
100
AcDbLine
 10
261.2433501725
 20
26.4761944287
 30
0.0
 11
261.2433501725
 21
28.2761944287
 31
0.0
  0
LINE
  5
389
330
1F
100
AcDbEntity
  8
0
  6
Continuous
 62
     7
370
    25
100
AcDbLine
 10
564.2433501725
 20
28.2761944287
 30
0.0
 11
564.2433501725
 21
26.4761944287
 31
0.0
  0
LINE
  5
38A
330
1F
100
AcDbEntity
  8
0
  6
Continuous
 62
     7
370
    25
100
AcDbLine
 10
260.2433501725
 20
15.7261944287
 30
0.0
 11
260.3224199399
 21
16.5761944287
 31
0.0
  0
LINE
  5
38B
330
1F
100
AcDbEntity
  8
0
  6
Continuous
 62
     7
370
    25
100
AcDbLine
 10
565.164280405
 20
16.5761944287
 30
0.0
 11
565.2433501725
 21
15.7261944287
 31
0.0
  0
LINE
  5
38C
330
1F
100
AcDbEntity
  8
0
  6
Continuous
 62
     7
370
    25
100
AcDbLine
 10
543.9265580143
 20
37.4761944287
 30
0.0
 11
546.2433501725
 21
37.4761944287
 31
0.0
  0
LINE
  5
38D
330
1F
100
AcDbEntity
  8
0
  6
Continuous
 62
     7
370
    25
100
AcDbLine
 10
542.2433501725
 20
37.4761944287
 30
0.0
 11
543.9265580143
 21
37.4761944287
 31
0.0
  0
LINE
  5
38E
330
1F
100
AcDbEntity
  8
0
  6
Continuous
 62
     7
370
    25
100
AcDbLine
 10
411.9265580143
 20
37.4761944287
 30
0.0
 11
414.2433501725
 21
37.4761944287
 31
0.0
  0
LINE
  5
38F
330
1F
100
AcDbEntity
  8
0
  6
Continuous
 62
     7
370
    25
100
AcDbLine
 10
410.2433501725
 20
37.4761944287
 30
0.0
 11
411.9265580143
 21
37.4761944287
 31
0.0
  0
LINE
  5
390
330
1F
100
AcDbEntity
  8
0
  6
Continuous
 62
     7
370
    25
100
AcDbLine
 10
280.9265580143
 20
37.4761944287
 30
0.0
 11
283.2433501725
 21
37.4761944287
 31
0.0
  0
LINE
  5
391
330
1F
100
AcDbEntity
  8
0
  6
Continuous
 62
     7
370
    25
100
AcDbLine
 10
279.2433501725
 20
37.4761944287
 30
0.0
 11
280.9265580143
 21
37.4761944287
 31
0.0
  0
LINE
  5
392
330
1F
100
AcDbEntity
  8
0
  6
Continuous
 62
     7
370
    25
100
AcDbLine
 10
565.7433501725
 20
48.6761944287
 30
0.0
 11
566.7433501725
 21
48.6761944287
 31
0.0
  0
LINE
  5
393
330
1F
100
AcDbEntity
  8
0
  6
Continuous
 62
     7
370
    25
100
AcDbLine
 10
566.7433501725
 20
48.6761944287
 30
0.0
 11
566.7433501725
 21
46.6761944287
 31
0.0
  0
LINE
  5
394
330
1F
100
AcDbEntity
  8
0
  6
Continuous
 62
     7
370
    25
100
AcDbLine
 10
564.7433501725
 20
30.2761944287
 30
0.0
 11
564.7433501725
 21
21.1011944287
 31
0.0
  0
LINE
  5
395
330
1F
100
AcDbEntity
  8
0
  6
Continuous
 62
     7
370
    25
100
AcDbLine
 10
566.7433501725
 20
46.6761944287
 30
0.0
 11
566.7433501725
 21
43.7761944287
 31
0.0
  0
LINE
  5
396
330
1F
100
AcDbEntity
  8
0
  6
Continuous
 62
     7
370
    25
100
AcDbLine
 10
566.7433501725
 20
37.7761944287
 30
0.0
 11
566.7433501725
 21
17.6761944287
 31
0.0
  0
LINE
  5
397
330
1F
100
AcDbEntity
  8
0
  6
Continuous
 62
     7
370
    25
100
AcDbLine
 10
566.7416830426
 20
17.5761944287
 30
0.0
 11
566.7433501725
 21
17.6761944287
 31
0.0
  0
LINE
  5
398
330
1F
100
AcDbEntity
  8
0
  6
Continuous
 62
     7
370
    25
100
AcDbLine
 10
566.8036575517
 20
48.6761944287
 30
0.0
 11
566.7433501725
 21
48.6761944287
 31
0.0
  0
LINE
  5
399
330
1F
100
AcDbEntity
  8
0
  6
Continuous
 62
     7
370
    25
100
AcDbLine
 10
566.7433501725
 20
32.6761944287
 30
0.0
 11
566.8036575517
 21
32.6761944287
 31
0.0
  0
LINE
  5
39A
330
1F
100
AcDbEntity
  8
0
  6
Continuous
 62
     7
370
    25
100
AcDbLine
 10
566.8036575517
 20
48.6761944287
 30
0.0
 11
568.674856274
 21
48.6761944287
 31
0.0
  0
LWPOLYLINE
  5
39B
330
1F
100
AcDbEntity
  8
0
  6
Continuous
 62
     7
370
    25
100
AcDbPolyline
 90
        9
 70
   128
 43
0.0
 10
569.3588965607
 20
46.6761944287
 10
569.3457529184
 20
47.0663750728
 10
569.3068270943
 20
47.4415612935
 10
569.2436149859
 20
47.7873348948
 10
569.1585457993
 20
48.0904079911
 10
569.0548886955
 20
48.3391336533
 10
568.9366271588
 20
48.5239534938
 10
568.8083059138
 20
48.6377649895
 10
568.674856274
 20
48.6761944287
  0
LINE
  5
39C
330
1F
100
AcDbEntity
  8
0
  6
Continuous
 62
     7
370
    25
100
AcDbLine
 10
569.3588965607
 20
46.6761944287
 30
0.0
 11
569.3588965607
 21
43.7761944287
 31
0.0
  0
LINE
  5
39D
330
1F
100
AcDbEntity
  8
0
  6
Continuous
 62
     7
370
    25
100
AcDbLine
 10
569.3588965607
 20
37.7761944287
 30
0.0
 11
569.3588965607
 21
34.6761944287
 31
0.0
  0
LWPOLYLINE
  5
39E
330
1F
100
AcDbEntity
  8
0
  6
Continuous
 62
     7
370
    25
100
AcDbPolyline
 90
        9
 70
   128
 43
0.0
 10
568.674856274
 20
32.6761944287
 10
568.8083059138
 20
32.7146238679
 10
568.9366271588
 20
32.8284353637
 10
569.0548886955
 20
33.0132552041
 10
569.1585457993
 20
33.2619808664
 10
569.2436149859
 20
33.5650539627
 10
569.3068270943
 20
33.910827564
 10
569.3457529184
 20
34.2860137847
 10
569.3588965607
 20
34.6761944287
  0
LINE
  5
39F
330
1F
100
AcDbEntity
  8
0
  6
Continuous
 62
     7
370
    25
100
AcDbLine
 10
568.674856274
 20
32.6761944287
 30
0.0
 11
566.8036575517
 21
32.6761944287
 31
0.0
  0
LINE
  5
3A0
330
1F
100
AcDbEntity
  8
0
  6
Continuous
 62
     7
370
    25
100
AcDbLine
 10
258.7433501725
 20
48.6761944287
 30
0.0
 11
259.7433501725
 21
48.6761944287
 31
0.0
  0
LINE
  5
3A1
330
1F
100
AcDbEntity
  8
0
  6
Continuous
 62
     7
370
    25
100
AcDbLine
 10
258.7433501725
 20
46.6761944287
 30
0.0
 11
258.7433501725
 21
48.6761944287
 31
0.0
  0
LINE
  5
3A2
330
1F
100
AcDbEntity
  8
0
  6
Continuous
 62
     7
370
    25
100
AcDbLine
 10
260.7433501725
 20
21.1011944287
 30
0.0
 11
260.7433501725
 21
30.2761944287
 31
0.0
  0
LINE
  5
3A3
330
1F
100
AcDbEntity
  8
0
  6
Continuous
 62
     7
370
    25
100
AcDbLine
 10
258.7433501725
 20
17.6761944287
 30
0.0
 11
258.7433501725
 21
37.7761944287
 31
0.0
  0
LINE
  5
3A4
330
1F
100
AcDbEntity
  8
0
  6
Continuous
 62
     7
370
    25
100
AcDbLine
 10
258.7433501725
 20
43.7761944287
 30
0.0
 11
258.7433501725
 21
46.6761944287
 31
0.0
  0
LINE
  5
3A5
330
1F
100
AcDbEntity
  8
0
  6
Continuous
 62
     7
370
    25
100
AcDbLine
 10
258.7433501725
 20
17.6761944287
 30
0.0
 11
258.7450173024
 21
17.5761944287
 31
0.0
  0
LINE
  5
3A6
330
1F
100
AcDbEntity
  8
0
  6
Continuous
 62
     7
370
    25
100
AcDbLine
 10
258.6830427933
 20
32.6761944287
 30
0.0
 11
258.7433501725
 21
32.6761944287
 31
0.0
  0
LINE
  5
3A7
330
1F
100
AcDbEntity
  8
0
  6
Continuous
 62
     7
370
    25
100
AcDbLine
 10
258.7433501725
 20
48.6761944287
 30
0.0
 11
258.6830427933
 21
48.6761944287
 31
0.0
  0
LWPOLYLINE
  5
3A8
330
1F
100
AcDbEntity
  8
0
  6
Continuous
 62
     7
370
    25
100
AcDbPolyline
 90
        9
 70
   128
 43
0.0
 10
256.811844071
 20
48.6761944287
 10
256.6783944312
 20
48.6377649895
 10
256.5500731862
 20
48.5239534938
 10
256.4318116495
 20
48.3391336533
 10
256.3281545457
 20
48.0904079911
 10
256.243085359
 20
47.7873348948
 10
256.1798732507
 20
47.4415612935
 10
256.1409474266
 20
47.0663750728
 10
256.1278037843
 20
46.6761944287
  0
LINE
  5
3A9
330
1F
100
AcDbEntity
  8
0
  6
Continuous
 62
     7
370
    25
100
AcDbLine
 10
256.811844071
 20
48.6761944287
 30
0.0
 11
258.6830427933
 21
48.6761944287
 31
0.0
  0
LINE
  5
3AA
330
1F
100
AcDbEntity
  8
0
  6
Continuous
 62
     7
370
    25
100
AcDbLine
 10
258.6830427933
 20
32.6761944287
 30
0.0
 11
256.811844071
 21
32.6761944287
 31
0.0
  0
LWPOLYLINE
  5
3AB
330
1F
100
AcDbEntity
  8
0
  6
Continuous
 62
     7
370
    25
100
AcDbPolyline
 90
        9
 70
   128
 43
0.0
 10
256.1278037843
 20
34.6761944287
 10
256.1409474266
 20
34.2860137847
 10
256.1798732507
 20
33.910827564
 10
256.243085359
 20
33.5650539627
 10
256.3281545457
 20
33.2619808664
 10
256.4318116495
 20
33.0132552041
 10
256.5500731862
 20
32.8284353637
 10
256.6783944312
 20
32.7146238679
 10
256.811844071
 20
32.6761944287
  0
LINE
  5
3AC
330
1F
100
AcDbEntity
  8
0
  6
Continuous
 62
     7
370
    25
100
AcDbLine
 10
256.1278037843
 20
34.6761944287
 30
0.0
 11
256.1278037843
 21
37.7761944287
 31
0.0
  0
LINE
  5
3AD
330
1F
100
AcDbEntity
  8
0
  6
Continuous
 62
     7
370
    25
100
AcDbLine
 10
256.1278037843
 20
43.7761944287
 30
0.0
 11
256.1278037843
 21
46.6761944287
 31
0.0
  0
SPLINE
  5
3AE
330
1F
100
AcDbEntity
  8
0
  6
Continuous
 62
     7
370
    25
100
AcDbSpline
210
0.0
220
0.0
230
1.0
 70
    24
 71
     3
 72
     9
 73
     5
 74
     0
 42
0.000000001
 43
0.00000001
 40
0.0
 40
0.0
 40
0.0
 40
0.0
 40
0.705910271237034
 40
1.0
 40
1.0
 40
1.0
 40
1.0
 10
260.5433501724781
 20
46.54944323812787
 30
0.0
 10
260.5433501724781
 20
46.55969600742436
 30
0.0
 10
260.543350172478
 20
46.57422018948298
 30
0.0
 10
260.5433501724781
 20
46.47916823287412
 30
0.0
 10
260.5433501724781
 20
46.45121442873665
 30
0.0
  0
SPLINE
  5
3AF
330
1F
100
AcDbEntity
  8
0
  6
Continuous
 62
     7
370
    25
100
AcDbSpline
210
0.0
220
0.0
230
1.0
 70
    24
 71
     3
 72
    12
 73
     8
 74
     0
 42
0.000000001
 43
0.00000001
 40
0.0
 40
0.0
 40
0.0
 40
0.0
 40
0.3344405486782615
 40
0.5144757571369828
 40
0.6983315710265335
 40
0.8821873849160835
 40
0.9999999999999999
 40
0.9999999999999999
 40
0.9999999999999999
 40
0.9999999999999999
 10
261.5433501724781
 20
43.2825017337944
 30
0.0
 10
261.5433501724781
 20
43.90664726929624
 30
0.0
 10
261.5433501724781
 20
44.86678128477382
 30
0.0
 10
261.5433501724781
 20
45.7746921910691
 30
0.0
 10
261.5433501724781
 20
46.28040952898526
 30
0.0
 10
261.543350172478
 20
46.55202926312345
 30
0.0
 10
261.5433501724781
 20
46.55016953166369
 30
0.0
 10
261.5433501724781
 20
46.54944323813881
 30
0.0
  0
SPLINE
  5
3B0
330
1F
100
AcDbEntity
  8
0
  6
Continuous
 62
     7
370
    25
100
AcDbSpline
210
0.0
220
0.0
230
1.0
 70
    24
 71
     3
 72
    15
 73
    11
 74
     0
 42
0.000000001
 43
0.00000001
 40
0.0
 40
0.0
 40
0.0
 40
0.0
 40
0.034696749791865
 40
0.2211884951269639
 40
0.4076802404620633
 40
0.5080720152630784
 40
0.6105942475634817
 40
0.7131164798638854
 40
0.8135082546649
 40
1.0
 40
1.0
 40
1.0
 40
1.0
 10
261.5433501724781
 20
35.0029456193331
 30
0.0
 10
261.5433501724781
 20
34.99622451570168
 30
0.0
 10
261.5433501724781
 20
34.95337811634888
 30
0.0
 10
261.5433501724781
 20
35.44141907910738
 30
0.0
 10
261.5433501724781
 20
36.53733013657594
 30
0.0
 10
261.5433501724782
 20
37.75622726902341
 30
0.0
 10
261.5433501724781
 20
38.83640249688039
 30
0.0
 10
261.5433501724781
 20
39.99687939934607
 30
0.0
 10
261.5433501724781
 20
41.52745429446119
 30
0.0
 10
261.5433501724781
 20
42.59108018311126
 30
0.0
 10
261.5433501724781
 20
43.2825017337944
 30
0.0
  0
LINE
  5
3B1
330
1F
100
AcDbEntity
  8
0
  6
Continuous
 62
     7
370
    25
100
AcDbLine
 10
265.5433501725
 20
40.392799401
 30
0.0
 11
265.5433501725
 21
44.901875308
 31
0.0
  0
SPLINE
  5
3B2
330
1F
100
AcDbEntity
  8
0
  6
Continuous
 62
     7
370
    25
100
AcDbSpline
210
0.0
220
0.0
230
1.0
 70
     8
 71
     3
 72
     8
 73
     4
 74
     0
 42
0.000000001
 43
0.00000001
 40
0.0
 40
0.0
 40
0.0
 40
0.0
 40
1.0
 40
1.0
 40
1.0
 40
1.0
 10
265.5433501724711
 20
40.39279940104949
 30
0.0
 10
265.5433501724711
 20
41.37517784562227
 30
0.0
 10
265.3690348720916
 20
42.330669013812
 30
0.0
 10
265.0967681850797
 20
43.27105166313957
 30
0.0
  0
SPLINE
  5
3B3
330
1F
100
AcDbEntity
  8
0
  6
Continuous
 62
     7
370
    25
100
AcDbSpline
210
0.0
220
0.0
230
1.0
 70
     8
 71
     3
 72
     8
 73
     4
 74
     0
 42
0.000000001
 43
0.00000001
 40
0.0
 40
0.0
 40
0.0
 40
0.0
 40
1.0
 40
1.0
 40
1.0
 40
1.0
 10
265.0967681850797
 20
43.2710516631457
 30
0.0
 10
265.369034872091
 20
43.80387440421054
 30
0.0
 10
265.5433501724709
 20
44.34525766310513
 30
0.0
 10
265.5433501724709
 20
44.90187530803357
 30
0.0
  0
SPLINE
  5
3B4
330
1F
100
AcDbEntity
  8
0
  6
Continuous
 62
     7
370
    25
100
AcDbSpline
210
0.0
220
0.0
230
1.0
 70
     8
 71
     3
 72
     8
 73
     4
 74
     0
 42
0.000000001
 43
0.00000001
 40
0.0
 40
0.0
 40
0.0
 40
0.0
 40
1.0
 40
1.0
 40
1.0
 40
1.0
 10
265.0967681850798
 20
37.51454713895951
 30
0.0
 10
265.3690348720912
 20
38.4549297882853
 30
0.0
 10
265.5433501724711
 20
39.41042095647857
 30
0.0
 10
265.5433501724711
 20
40.39279940104949
 30
0.0
  0
LINE
  5
3B5
330
1F
100
AcDbEntity
  8
0
  6
Continuous
 62
     7
370
    25
100
AcDbLine
 10
261.5433501725
 20
37.514547139
 30
0.0
 11
265.0967681851
 21
37.514547139
 31
0.0
  0
LINE
  5
3B6
330
1F
100
AcDbEntity
  8
0
  6
Continuous
 62
     7
370
    25
100
AcDbLine
 10
261.5433501725
 20
43.2710516631
 30
0.0
 11
265.0967681851
 21
43.2710516631
 31
0.0
  0
LINE
  5
3B7
330
1F
100
AcDbEntity
  8
0
  6
Continuous
 62
     7
370
    25
100
AcDbLine
 10
265.5433501725
 20
36.2671185218
 30
0.0
 11
265.5433501725
 21
40.392799401
 31
0.0
  0
SPLINE
  5
3B8
330
1F
100
AcDbEntity
  8
0
  6
Continuous
 62
     7
370
    25
100
AcDbSpline
210
0.0
220
0.0
230
1.0
 70
     8
 71
     3
 72
     8
 73
     4
 74
     0
 42
0.000000001
 43
0.00000001
 40
0.0
 40
0.0
 40
0.0
 40
0.0
 40
1.0
 40
1.0
 40
1.0
 40
1.0
 10
265.5433501724709
 20
36.26711852175197
 30
0.0
 10
265.5433501724709
 20
36.6928793213952
 30
0.0
 10
265.3690348720916
 20
37.10698723069225
 30
0.0
 10
265.0967681850797
 20
37.51454713895392
 30
0.0
  0
SPLINE
  5
3B9
330
1F
100
AcDbEntity
  8
0
  6
Continuous
 62
     7
370
    25
100
AcDbSpline
210
0.0
220
0.0
230
1.0
 70
     8
 71
     3
 72
     8
 73
     4
 74
     0
 42
0.000000001
 43
0.00000001
 40
0.0
 40
0.0
 40
0.0
 40
0.0
 40
1.0
 40
1.0
 40
1.0
 40
1.0
 10
265.5433501724709
 20
44.90187530803357
 30
0.0
 10
265.5433501724709
 20
45.45849295296302
 30
0.0
 10
265.3690348720915
 20
45.99987621185564
 30
0.0
 10
265.0967681850796
 20
46.53269895292145
 30
0.0
  0
LINE
  5
3BA
330
1F
100
AcDbEntity
  8
0
  6
Continuous
 62
     7
370
    25
100
AcDbLine
 10
261.5433501725
 20
46.5326989529
 30
0.0
 11
265.0967681851
 21
46.5326989529
 31
0.0
  0
SPLINE
  5
3BB
330
1F
100
AcDbEntity
  8
0
  6
Continuous
 62
     7
370
    25
100
AcDbSpline
210
0.0
220
0.0
230
1.0
 70
     8
 71
     3
 72
     8
 73
     4
 74
     0
 42
0.000000001
 43
0.00000001
 40
0.0
 40
0.0
 40
0.0
 40
0.0
 40
1.0
 40
1.0
 40
1.0
 40
1.0
 10
265.0967681850797
 20
35.01968990454998
 30
0.0
 10
265.3690348720911
 20
35.42724981281103
 30
0.0
 10
265.5433501724709
 20
35.84135772210939
 30
0.0
 10
265.5433501724709
 20
36.26711852175197
 30
0.0
  0
LINE
  5
3BC
330
1F
100
AcDbEntity
  8
0
  6
Continuous
 62
     7
370
    25
100
AcDbLine
 10
265.0967681851
 20
35.0196899045
 30
0.0
 11
261.5433501725
 21
35.0196899045
 31
0.0
  0
LINE
  5
3BD
330
1F
100
AcDbEntity
  8
0
  6
Continuous
 62
     7
370
    25
100
AcDbLine
 10
250.5433501725
 20
43.2349444288
 30
0.0
 11
250.5433501725
 21
38.3174444287
 31
0.0
  0
LINE
  5
3BE
330
1F
100
AcDbEntity
  8
0
  6
Continuous
 62
     7
370
    25
100
AcDbLine
 10
251.0846001725
 20
38.0707488845
 30
0.0
 11
251.0846001725
 21
37.7761944287
 31
0.0
  0
LINE
  5
3BF
330
1F
100
AcDbEntity
  8
0
  6
Continuous
 62
     7
370
    25
100
AcDbLine
 10
251.0846001725
 20
43.7761944287
 30
0.0
 11
251.0846001725
 21
38.0707488845
 31
0.0
  0
LINE
  5
3C0
330
1F
100
AcDbEntity
  8
0
  6
Continuous
 62
     7
370
    25
100
AcDbLine
 10
265.0967681851
 20
46.5326989529
 30
0.0
 11
265.1719559406
 21
46.3226784851
 31
0.0
  0
LINE
  5
3C1
330
1F
100
AcDbEntity
  8
0
  6
Continuous
 62
     7
370
    25
100
AcDbLine
 10
265.5433501725
 20
44.901875308
 30
0.0
 11
265.5433501725
 21
45.7761944287
 31
0.0
  0
LINE
  5
3C2
330
1F
100
AcDbEntity
  8
0
  6
Continuous
 62
     7
370
    25
100
AcDbLine
 10
265.5433501725
 20
35.7761944287
 30
0.0
 11
265.5433501725
 21
36.2671185218
 31
0.0
  0
ARC
  5
3C3
330
1F
100
AcDbEntity
  8
0
  6
Continuous
 62
     7
370
    25
100
AcDbCircle
 10
252.2433501725
 20
11.5761944287
 30
0.0
 40
6.00000000000002
100
AcDbArc
 50
90.0
 51
143.1301023541
  0
ARC
  5
3C4
330
1F
100
AcDbEntity
  8
0
  6
Continuous
 62
     7
370
    25
100
AcDbCircle
 10
573.2433501725
 20
11.5761944287
 30
0.0
 40
5.999999999999977
100
AcDbArc
 50
36.8698976459
 51
90.0
  0
LINE
  5
3C5
330
1F
100
AcDbEntity
  8
0
  6
Continuous
 62
     7
370
    25
100
AcDbLine
 10
113.350046052
 20
397.6075204992
 30
0.0
 11
112.9871082737
 21
396.9788938271
 31
0.0
  0
LINE
  5
3C6
330
1F
100
AcDbEntity
  8
0
  6
Continuous
 62
     7
370
    25
100
AcDbLine
 10
112.9871082737
 20
390.6788938271
 30
0.0
 11
113.350046052
 21
390.050267155
 31
0.0
  0
LINE
  5
3C7
330
1F
100
AcDbEntity
  8
0
  6
Continuous
 62
     7
370
    25
100
AcDbLine
 10
111.2871082737
 20
397.8288938271
 30
0.0
 11
109.2871082737
 21
397.8288938271
 31
0.0
  0
LINE
  5
3C8
330
1F
100
AcDbEntity
  8
0
  6
Continuous
 62
     7
370
    25
100
AcDbLine
 10
109.2871082737
 20
389.8288938271
 30
0.0
 11
111.2871082737
 21
389.8288938271
 31
0.0
  0
ARC
  5
3C9
330
1F
100
AcDbEntity
  8
0
  6
Continuous
 62
     7
370
    25
100
AcDbCircle
 10
116.2153115039
 20
393.8288938271
 30
0.0
 40
8.000000000000016
100
AcDbArc
 50
195.2747479997
 51
210.0
  0
ARC
  5
3CA
330
1F
100
AcDbEntity
  8
0
  6
Continuous
 62
     7
370
    25
100
AcDbCircle
 10
116.2153115039
 20
393.8288938271
 30
0.0
 40
8.000000000000016
100
AcDbArc
 50
150.0
 51
164.7252520003
  0
LINE
  5
3CB
330
1F
100
AcDbEntity
  8
0
  6
Continuous
 62
     7
370
    25
100
AcDbLine
 10
112.9871082737
 20
395.8288938271
 30
0.0
 11
112.8871082737
 21
395.8288938271
 31
0.0
  0
LINE
  5
3CC
330
1F
100
AcDbEntity
  8
0
  6
Continuous
 62
     7
370
    25
100
AcDbLine
 10
112.8871082737
 20
391.8288938271
 30
0.0
 11
112.9871082737
 21
391.8288938271
 31
0.0
  0
CIRCLE
  5
3CD
330
1F
100
AcDbEntity
  8
0
  6
Continuous
 62
     7
370
    25
100
AcDbCircle
 10
124.5871082737
 20
192.8288938271
 30
0.0
 40
2.458750000016591
  0
CIRCLE
  5
3CE
330
1F
100
AcDbEntity
  8
0
  6
Continuous
 62
     7
370
    25
100
AcDbCircle
 10
124.5871082737
 20
192.8288938271
 30
0.0
 40
3.000000000000025
  0
CIRCLE
  5
3CF
330
1F
100
AcDbEntity
  8
0
  6
Continuous
 62
     7
370
    25
100
AcDbCircle
 10
124.5871082736
 20
418.8288938271
 30
0.0
 40
2.458750000016551
  0
CIRCLE
  5
3D0
330
1F
100
AcDbEntity
  8
0
  6
Continuous
 62
     7
370
    25
100
AcDbCircle
 10
124.5871082736
 20
418.8288938271
 30
0.0
 40
3.000000000000047
  0
LINE
  5
3D1
330
1F
100
AcDbEntity
  8
0
  6
Continuous
 62
     7
370
    25
100
AcDbLine
 10
105.9871082737
 20
146.2996045052
 30
0.0
 11
105.9871082737
 21
389.358183149
 31
0.0
  0
LINE
  5
3D2
330
1F
100
AcDbEntity
  8
0
  6
Continuous
 62
     7
370
    25
100
AcDbLine
 10
96.3871082737
 20
146.2996045052
 30
0.0
 11
105.9871082737
 21
146.2996045052
 31
0.0
  0
LINE
  5
3D3
330
1F
100
AcDbEntity
  8
0
  6
Continuous
 62
     7
370
    25
100
AcDbLine
 10
96.3871082737
 20
389.358183149
 30
0.0
 11
105.9871082737
 21
389.358183149
 31
0.0
  0
LINE
  5
3D4
330
1F
100
AcDbEntity
  8
0
  6
Continuous
 62
     7
370
    25
100
AcDbLine
 10
93.9871082737
 20
147.2288938271
 30
0.0
 11
93.9871082737
 21
388.4288938271
 31
0.0
  0
SPLINE
  5
3D5
330
1F
100
AcDbEntity
  8
0
  6
Continuous
 62
     7
370
    25
100
AcDbSpline
210
0.0
220
0.0
230
1.0
 70
     8
 71
     3
 72
    20
 73
    16
 74
     0
 42
0.000000001
 43
0.00000001
 40
0.0
 40
0.0
 40
0.0
 40
0.0
 40
0.125
 40
0.125
 40
0.25
 40
0.25
 40
0.375
 40
0.375
 40
0.5
 40
0.5
 40
0.75
 40
0.75
 40
0.875
 40
0.875
 40
1.0
 40
1.0
 40
1.0
 40
1.0
 10
93.98710827365015
 20
388.4288938270942
 30
0.0
 10
93.98710827365015
 20
388.4679345579487
 30
0.0
 10
94.00264483412502
 20
388.5064532621485
 30
0.0
 10
94.0639631860856
 20
388.5838600134563
 30
0.0
 10
94.11038693167241
 20
388.6230044314432
 30
0.0
 10
94.23033780182655
 20
388.7001551853583
 30
0.0
 10
94.30394244610996
 20
388.7384827670993
 30
0.0
 10
94.47867281220559
 20
388.8160290875759
 30
0.0
 10
94.57952344110716
 20
388.8550052952446
 30
0.0
 10
94.91080872109109
 20
388.9705001516896
 30
0.0
 10
95.17848888247498
 20
389.0484125953597
 30
0.0
 10
95.61116290853039
 20
389.1638925207606
 30
0.0
 10
95.7626809953815
 20
389.2027583166256
 30
0.0
 10
96.07210675276762
 20
389.280532650294
 30
0.0
 10
96.2287290824614
 20
389.3191424172488
 30
0.0
 10
96.38710827365014
 20
389.3581831489755
 30
0.0
  0
SPLINE
  5
3D6
330
1F
100
AcDbEntity
  8
0
  6
Continuous
 62
     7
370
    25
100
AcDbSpline
210
0.0
220
0.0
230
1.0
 70
     8
 71
     3
 72
    20
 73
    16
 74
     0
 42
0.000000001
 43
0.00000001
 40
0.0
 40
0.0
 40
0.0
 40
0.0
 40
0.1249999999999995
 40
0.1249999999999995
 40
0.2499999999999988
 40
0.2499999999999988
 40
0.3749999999999982
 40
0.3749999999999982
 40
0.4999999999999975
 40
0.4999999999999975
 40
0.7499999999999988
 40
0.7499999999999988
 40
0.8749999999999993
 40
0.8749999999999993
 40
1.0
 40
1.0
 40
1.0
 40
1.0
 10
96.38710827365014
 20
146.2996045052128
 30
0.0
 10
96.22872908599945
 20
146.3386452360674
 30
0.0
 10
96.07248336130777
 20
146.3771639402672
 30
0.0
 10
95.76449151189115
 20
146.454570691575
 30
0.0
 10
95.61184740442
 20
146.4937151095617
 30
0.0
 10
95.32276311523295
 20
146.5708658634769
 30
0.0
 10
95.18495857704887
 20
146.609193445218
 30
0.0
 10
94.92333990140997
 20
146.6867397656945
 30
0.0
 10
94.80059359472733
 20
146.7257159733632
 30
0.0
 10
94.46926921777964
 20
146.8412108298082
 30
0.0
 10
94.29025809375139
 20
146.9191232734783
 30
0.0
 10
94.11064299437052
 20
147.0346031988792
 30
0.0
 10
94.0643986455028
 20
147.0734689947442
 30
0.0
 10
94.0026453394916
 20
147.1512433284127
 30
0.0
 10
93.98710827365015
 20
147.1898530953675
 30
0.0
 10
93.98710827365015
 20
147.2288938270941
 30
0.0
  0
SPLINE
  5
3D7
330
1F
100
AcDbEntity
  8
0
  6
Continuous
 62
     7
370
    25
100
AcDbSpline
210
0.0
220
0.0
230
1.0
 70
     8
 71
     3
 72
    20
 73
    16
 74
     0
 42
0.000000001
 43
0.00000001
 40
0.0
 40
0.0
 40
0.0
 40
0.0
 40
0.1250000000000038
 40
0.1250000000000038
 40
0.2500000000000076
 40
0.2500000000000076
 40
0.3750000000000114
 40
0.3750000000000114
 40
0.5000000000000152
 40
0.5000000000000152
 40
0.7500000000000102
 40
0.7500000000000102
 40
0.8750000000000052
 40
0.8750000000000052
 40
1.0
 40
1.0
 40
1.0
 40
1.0
 10
93.98710827365016
 20
147.2288938270942
 30
0.0
 10
93.98710827365016
 20
147.0705146394435
 30
0.0
 10
94.00264483412501
 20
146.9142689147517
 30
0.0
 10
94.06396318608559
 20
146.6062770653351
 30
0.0
 10
94.1103869316724
 20
146.453632957864
 30
0.0
 10
94.23033780182654
 20
146.1645486686769
 30
0.0
 10
94.30394244610994
 20
146.0267441304929
 30
0.0
 10
94.47867281220557
 20
145.765125454854
 30
0.0
 10
94.57952344110711
 20
145.6423791481713
 30
0.0
 10
94.91080872109106
 20
145.3110547712236
 30
0.0
 10
95.17848888247494
 20
145.1320436471954
 30
0.0
 10
95.61116290853035
 20
144.9524285478145
 30
0.0
 10
95.76268099538149
 20
144.9061841989468
 30
0.0
 10
96.0721067527676
 20
144.8444308929356
 30
0.0
 10
96.22872908246138
 20
144.8288938270941
 30
0.0
 10
96.38710827365013
 20
144.8288938270941
 30
0.0
  0
SPLINE
  5
3D8
330
1F
100
AcDbEntity
  8
0
  6
Continuous
 62
     7
370
    25
100
AcDbSpline
210
0.0
220
0.0
230
1.0
 70
     8
 71
     3
 72
     9
 73
     5
 74
     0
 42
0.000000001
 43
0.00000001
 40
0.0
 40
0.0
 40
0.0
 40
0.0
 40
0.4258694941526559
 40
0.9999999999999999
 40
0.9999999999999999
 40
0.9999999999999999
 40
0.9999999999999999
 10
95.8307168466408
 20
146.4189723897715
 30
0.0
 10
95.90112102324574
 20
146.369050764927
 30
0.0
 10
96.06643968910838
 20
146.2518279407284
 30
0.0
 10
96.27015125136487
 20
146.2372585555669
 30
0.0
 10
96.38710827365013
 20
146.2288938270941
 30
0.0
  0
LINE
  5
3D9
330
1F
100
AcDbEntity
  8
0
  6
Continuous
 62
     7
370
    25
100
AcDbLine
 10
96.3871082737
 20
144.8288938271
 30
0.0
 11
96.3871082737
 21
146.2288938271
 31
0.0
  0
SPLINE
  5
3DA
330
1F
100
AcDbEntity
  8
0
  6
Continuous
 62
     7
370
    25
100
AcDbSpline
210
0.0
220
0.0
230
1.0
 70
     8
 71
     3
 72
    20
 73
    16
 74
     0
 42
0.000000001
 43
0.00000001
 40
0.0
 40
0.0
 40
0.0
 40
0.0
 40
0.1249999999999986
 40
0.1249999999999986
 40
0.2499999999999974
 40
0.2499999999999974
 40
0.3749999999999962
 40
0.3749999999999962
 40
0.499999999999995
 40
0.499999999999995
 40
0.75
 40
0.75
 40
0.875
 40
0.875
 40
1.0
 40
1.0
 40
1.0
 40
1.0
 10
96.38710827365014
 20
390.8288938270941
 30
0.0
 10
96.22872908599945
 20
390.8288938270941
 30
0.0
 10
96.07248336130777
 20
390.8133572666193
 30
0.0
 10
95.76449151189117
 20
390.7520389146587
 30
0.0
 10
95.61184740442003
 20
390.7056151690718
 30
0.0
 10
95.32276311523297
 20
390.5856642989178
 30
0.0
 10
95.18495857704893
 20
390.5120596546343
 30
0.0
 10
94.92333990141003
 20
390.3373292885387
 30
0.0
 10
94.80059359472737
 20
390.2364786596371
 30
0.0
 10
94.46926921777971
 20
389.9051933796532
 30
0.0
 10
94.29025809375143
 20
389.6375132182694
 30
0.0
 10
94.11064299437055
 20
389.204839192214
 30
0.0
 10
94.06439864550283
 20
389.0533211053628
 30
0.0
 10
94.00264533949162
 20
388.7438953479767
 30
0.0
 10
93.98710827365016
 20
388.587273018283
 30
0.0
 10
93.98710827365016
 20
388.4288938270942
 30
0.0
  0
LINE
  5
3DB
330
1F
100
AcDbEntity
  8
0
  6
Continuous
 62
     7
370
    25
100
AcDbLine
 10
96.3871082737
 20
390.8288938271
 30
0.0
 11
96.3871082737
 21
389.4288938271
 31
0.0
  0
SPLINE
  5
3DC
330
1F
100
AcDbEntity
  8
0
  6
Continuous
 62
     7
370
    25
100
AcDbSpline
210
0.0
220
0.0
230
1.0
 70
     8
 71
     3
 72
     9
 73
     5
 74
     0
 42
0.000000001
 43
0.00000001
 40
0.0
 40
0.0
 40
0.0
 40
0.0
 40
0.7584558214377476
 40
1.0
 40
1.0
 40
1.0
 40
1.0
 10
96.38710827365013
 20
389.4288938270941
 30
0.0
 10
96.23540049571389
 20
389.4178392912607
 30
0.0
 10
96.0353785911438
 20
389.4032642355739
 30
0.0
 10
95.88482449975237
 20
389.2801678519741
 30
0.0
 10
95.84845903541806
 20
389.2504346371135
 30
0.0
  0
LINE
  5
3DD
330
1F
100
AcDbEntity
  8
0
  6
Continuous
 62
     7
370
    25
100
AcDbLine
 10
96.3871082737
 20
390.8288938271
 30
0.0
 11
105.9871082737
 21
390.8288938271
 31
0.0
  0
LINE
  5
3DE
330
1F
100
AcDbEntity
  8
0
  6
Continuous
 62
     7
370
    25
100
AcDbLine
 10
105.9871082737
 20
390.8288938271
 30
0.0
 11
105.9871082737
 21
389.4288938271
 31
0.0
  0
LINE
  5
3DF
330
1F
100
AcDbEntity
  8
0
  6
Continuous
 62
     7
370
    25
100
AcDbLine
 10
96.3871082737
 20
389.4288938271
 30
0.0
 11
105.9871082737
 21
389.4288938271
 31
0.0
  0
LINE
  5
3E0
330
1F
100
AcDbEntity
  8
0
  6
Continuous
 62
     7
370
    25
100
AcDbLine
 10
105.9871082737
 20
144.8288938271
 30
0.0
 11
105.9871082737
 21
146.2288938271
 31
0.0
  0
LINE
  5
3E1
330
1F
100
AcDbEntity
  8
0
  6
Continuous
 62
     7
370
    25
100
AcDbLine
 10
96.3871082737
 20
144.8288938271
 30
0.0
 11
105.9871082737
 21
144.8288938271
 31
0.0
  0
LINE
  5
3E2
330
1F
100
AcDbEntity
  8
0
  6
Continuous
 62
     7
370
    25
100
AcDbLine
 10
96.3871082737
 20
146.2288938271
 30
0.0
 11
105.9871082737
 21
146.2288938271
 31
0.0
  0
LINE
  5
3E3
330
1F
100
AcDbEntity
  8
0
  6
Continuous
 62
     7
370
    25
100
AcDbLine
 10
114.0871082737
 20
405.3288938271
 30
0.0
 11
114.0871082737
 21
388.1288938271
 31
0.0
  0
LINE
  5
3E4
330
1F
100
AcDbEntity
  8
0
  6
Continuous
 62
     7
370
    25
100
AcDbLine
 10
110.0871082737
 20
405.3288938271
 30
0.0
 11
114.0871082737
 21
405.3288938271
 31
0.0
  0
LINE
  5
3E5
330
1F
100
AcDbEntity
  8
0
  6
Continuous
 62
     7
370
    25
100
AcDbLine
 10
110.0871082737
 20
422.3288938271
 30
0.0
 11
110.0871082737
 21
405.3288938271
 31
0.0
  0
ARC
  5
3E6
330
1F
100
AcDbEntity
  8
0
  6
Continuous
 62
     7
370
    25
100
AcDbCircle
 10
113.0871082737
 20
422.3288938271
 30
0.0
 40
3.0
100
AcDbArc
 50
90.0
 51
180.0
  0
LINE
  5
3E7
330
1F
100
AcDbEntity
  8
0
  6
Continuous
 62
     7
370
    25
100
AcDbLine
 10
130.0871082737
 20
425.3288938271
 30
0.0
 11
113.0871082737
 21
425.3288938271
 31
0.0
  0
ARC
  5
3E8
330
1F
100
AcDbEntity
  8
0
  6
Continuous
 62
     7
370
    25
100
AcDbCircle
 10
130.0871082737
 20
422.3288938271
 30
0.0
 40
3.0
100
AcDbArc
 50
0.0
 51
90.0
  0
LINE
  5
3E9
330
1F
100
AcDbEntity
  8
0
  6
Continuous
 62
     7
370
    25
100
AcDbLine
 10
133.0871082737
 20
388.1288938271
 30
0.0
 11
133.0871082737
 21
422.3288938271
 31
0.0
  0
CIRCLE
  5
3EA
330
1F
100
AcDbEntity
  8
0
  6
Continuous
 62
     7
370
    25
100
AcDbCircle
 10
124.5871082737
 20
418.8288938271
 30
0.0
 40
3.250000000000057
  0
CIRCLE
  5
3EB
330
1F
100
AcDbEntity
  8
0
  6
Continuous
 62
     7
370
    25
100
AcDbCircle
 10
124.5871082737
 20
393.8288938271
 30
0.0
 40
3.250000000000114
  0
LINE
  5
3EC
330
1F
100
AcDbEntity
  8
0
  6
Continuous
 62
     7
370
    25
100
AcDbLine
 10
114.0871082737
 20
386.3288938271
 30
0.0
 11
114.0871082737
 21
388.1288938271
 31
0.0
  0
LINE
  5
3ED
330
1F
100
AcDbEntity
  8
0
  6
Continuous
 62
     7
370
    25
100
AcDbLine
 10
133.0871082737
 20
386.3288938271
 30
0.0
 11
114.0871082737
 21
386.3288938271
 31
0.0
  0
LINE
  5
3EE
330
1F
100
AcDbEntity
  8
0
  6
Continuous
 62
     7
370
    25
100
AcDbLine
 10
133.0871082737
 20
388.1288938271
 30
0.0
 11
133.0871082737
 21
386.3288938271
 31
0.0
  0
LINE
  5
3EF
330
1F
100
AcDbEntity
  8
0
  6
Continuous
 62
     7
370
    25
100
AcDbLine
 10
113.8871082737
 20
387.1288938271
 30
0.0
 11
114.0871082737
 21
387.1288938271
 31
0.0
  0
LINE
  5
3F0
330
1F
100
AcDbEntity
  8
0
  6
Continuous
 62
     7
370
    25
100
AcDbLine
 10
113.8871082737
 20
386.3288938271
 30
0.0
 11
114.0871082737
 21
386.3288938271
 31
0.0
  0
ARC
  5
3F1
330
1F
100
AcDbEntity
  8
0
  6
Continuous
 62
     7
370
    25
100
AcDbCircle
 10
113.8871082737
 20
388.1288938271
 30
0.0
 40
1.800000000000011
100
AcDbArc
 50
180.0
 51
270.0
  0
ARC
  5
3F2
330
1F
100
AcDbEntity
  8
0
  6
Continuous
 62
     7
370
    25
100
AcDbCircle
 10
113.8871082737
 20
388.1288938271
 30
0.0
 40
1.0
100
AcDbArc
 50
180.0
 51
270.0
  0
LINE
  5
3F3
330
1F
100
AcDbEntity
  8
0
  6
Continuous
 62
     7
370
    25
100
AcDbLine
 10
112.8871082737
 20
388.1288938271
 30
0.0
 11
112.8871082737
 21
398.3288938271
 31
0.0
  0
LINE
  5
3F4
330
1F
100
AcDbEntity
  8
0
  6
Continuous
 62
     7
370
    25
100
AcDbLine
 10
112.0871082737
 20
398.3288938271
 30
0.0
 11
112.8871082737
 21
398.3288938271
 31
0.0
  0
LINE
  5
3F5
330
1F
100
AcDbEntity
  8
0
  6
Continuous
 62
     7
370
    25
100
AcDbLine
 10
157.0871082737
 20
387.1288938271
 30
0.0
 11
157.0871082737
 21
386.3288938271
 31
0.0
  0
LINE
  5
3F6
330
1F
100
AcDbEntity
  8
0
  6
Continuous
 62
     7
370
    25
100
AcDbLine
 10
154.0871082737
 20
387.1288938271
 30
0.0
 11
157.0871082737
 21
387.1288938271
 31
0.0
  0
LINE
  5
3F7
330
1F
100
AcDbEntity
  8
0
  6
Continuous
 62
     7
370
    25
100
AcDbLine
 10
157.0871082737
 20
386.3288938271
 30
0.0
 11
154.0871082737
 21
386.3288938271
 31
0.0
  0
LINE
  5
3F8
330
1F
100
AcDbEntity
  8
0
  6
Continuous
 62
     7
370
    25
100
AcDbLine
 10
133.0871082737
 20
387.1288938271
 30
0.0
 11
154.0871082737
 21
387.1288938271
 31
0.0
  0
LINE
  5
3F9
330
1F
100
AcDbEntity
  8
0
  6
Continuous
 62
     7
370
    25
100
AcDbLine
 10
133.0871082737
 20
386.3288938271
 30
0.0
 11
154.0871082737
 21
386.3288938271
 31
0.0
  0
LINE
  5
3FA
330
1F
100
AcDbEntity
  8
0
  6
Continuous
 62
     7
370
    25
100
AcDbLine
 10
155.9917216654
 20
391.3288938271
 30
0.0
 11
155.9917216654
 21
390.5288938271
 31
0.0
  0
LINE
  5
3FB
330
1F
100
AcDbEntity
  8
0
  6
Continuous
 62
     7
370
    25
100
AcDbLine
 10
155.9917216654
 20
390.5288938271
 30
0.0
 11
152.9917216654
 21
390.5288938271
 31
0.0
  0
LINE
  5
3FC
330
1F
100
AcDbEntity
  8
0
  6
Continuous
 62
     7
370
    25
100
AcDbLine
 10
152.9917216654
 20
391.3288938271
 30
0.0
 11
155.9917216654
 21
391.3288938271
 31
0.0
  0
LINE
  5
3FD
330
1F
100
AcDbEntity
  8
0
  6
Continuous
 62
     7
370
    25
100
AcDbLine
 10
146.4740302118
 20
391.3288938271
 30
0.0
 11
152.9917216654
 21
391.3288938271
 31
0.0
  0
LINE
  5
3FE
330
1F
100
AcDbEntity
  8
0
  6
Continuous
 62
     7
370
    25
100
AcDbLine
 10
146.4740302118
 20
390.5288938271
 30
0.0
 11
152.9917216654
 21
390.5288938271
 31
0.0
  0
LINE
  5
3FF
330
1F
100
AcDbEntity
  8
0
  6
Continuous
 62
     7
370
    25
100
AcDbLine
 10
145.9740302118
 20
390.3949192309
 30
0.0
 11
140.3171082737
 21
387.1288938271
 31
0.0
  0
LINE
  5
400
330
1F
100
AcDbEntity
  8
0
  6
Continuous
 62
     7
370
    25
100
AcDbLine
 10
145.5740302118
 20
391.0877395539
 30
0.0
 11
138.9491590812
 21
387.2628684233
 31
0.0
  0
ARC
  5
401
330
1F
100
AcDbEntity
  8
0
  6
Continuous
 62
     7
370
    25
100
AcDbCircle
 10
146.4740302118
 20
389.5288938271
 30
0.0
 40
1.800000000000068
100
AcDbArc
 50
90.0
 51
120.0
  0
ARC
  5
402
330
1F
100
AcDbEntity
  8
0
  6
Continuous
 62
     7
370
    25
100
AcDbCircle
 10
146.4740302118
 20
389.5288938271
 30
0.0
 40
1.0
100
AcDbArc
 50
90.0
 51
120.0
  0
ARC
  5
403
330
1F
100
AcDbEntity
  8
0
  6
Continuous
 62
     7
370
    25
100
AcDbCircle
 10
138.4491590812
 20
388.1288938271
 30
0.0
 40
1.000000000000019
100
AcDbArc
 50
270.0
 51
300.0
  0
CIRCLE
  5
404
330
1F
100
AcDbEntity
  8
0
  6
Continuous
 62
     7
370
    25
100
AcDbCircle
 10
124.5871082736
 20
393.8288938271
 30
0.0
 40
2.458750000016604
  0
CIRCLE
  5
405
330
1F
100
AcDbEntity
  8
0
  6
Continuous
 62
     7
370
    25
100
AcDbCircle
 10
124.5871082736
 20
393.8288938271
 30
0.0
 40
2.999999999999994
  0
LINE
  5
406
330
1F
100
AcDbEntity
  8
0
  6
Continuous
 62
     7
370
    25
100
AcDbLine
 10
114.0871082737
 20
392.3880645052
 30
0.0
 11
113.501788259
 21
392.3880645052
 31
0.0
  0
SPLINE
  5
407
330
1F
100
AcDbEntity
  8
0
  6
Continuous
 62
     7
370
    25
100
AcDbSpline
210
0.0
220
0.0
230
1.0
 70
     8
 71
     3
 72
    14
 73
    10
 74
     0
 42
0.000000001
 43
0.00000001
 40
0.0
 40
0.0
 40
0.0
 40
0.0
 40
0.25
 40
0.25
 40
0.5
 40
0.5
 40
0.75
 40
0.75
 40
1.0
 40
1.0
 40
1.0
 40
1.0
 10
113.5017882590361
 20
396.3784957026506
 30
0.0
 10
113.4069136497255
 20
396.0539894733619
 30
0.0
 10
113.3273087248498
 20
395.7215302509676
 30
0.0
 10
113.2184721099555
 20
395.0549603360594
 30
0.0
 10
113.189148504265
 20
394.7198840787841
 30
0.0
 10
113.1892132860106
 20
394.0455406085566
 30
0.0
 10
113.219369479337
 20
393.7037611878777
 30
0.0
 10
113.3289546807027
 20
393.0373472682728
 30
0.0
 10
113.4074976545049
 20
392.7105732223201
 30
0.0
 10
113.5017882590361
 20
392.3880645052237
 30
0.0
  0
LINE
  5
408
330
1F
100
AcDbEntity
  8
0
  6
Continuous
 62
     7
370
    25
100
AcDbLine
 10
114.0871082737
 20
396.3784957027
 30
0.0
 11
113.501788259
 21
396.3784957027
 31
0.0
  0
SPLINE
  5
409
330
1F
100
AcDbEntity
  8
0
  6
Continuous
 62
     7
370
    25
100
AcDbSpline
210
0.0
220
0.0
230
1.0
 70
     8
 71
     3
 72
    12
 73
     8
 74
     0
 42
0.000000001
 43
0.00000001
 40
0.0
 40
0.0
 40
0.0
 40
0.0
 40
0.5000000000000078
 40
0.5000000000000078
 40
0.7500000000000039
 40
0.7500000000000039
 40
1.0
 40
1.0
 40
1.0
 40
1.0
 10
113.5017882590352
 20
392.3880645052238
 30
0.0
 10
113.3112939696116
 20
391.9717634215693
 30
0.0
 10
113.1896195565493
 20
391.5492248935808
 30
0.0
 10
113.188963366018
 20
390.89893475412
 30
0.0
 10
113.2187973678124
 20
390.6823925362056
 30
0.0
 10
113.32772723792
 20
390.2570245309653
 30
0.0
 10
113.4064224249829
 20
390.0468725519801
 30
0.0
 10
113.5017882590356
 20
389.8384626296673
 30
0.0
  0
LINE
  5
40A
330
1F
100
AcDbEntity
  8
0
  6
Continuous
 62
     7
370
    25
100
AcDbLine
 10
113.501788259
 20
389.8384626297
 30
0.0
 11
113.4039132218
 21
390.08136738
 31
0.0
  0
SPLINE
  5
40B
330
1F
100
AcDbEntity
  8
0
  6
Continuous
 62
     7
370
    25
100
AcDbSpline
210
0.0
220
0.0
230
1.0
 70
     8
 71
     3
 72
    12
 73
     8
 74
     0
 42
0.000000001
 43
0.00000001
 40
0.0
 40
0.0
 40
0.0
 40
0.0
 40
0.4999999999999942
 40
0.4999999999999942
 40
0.7499999999999971
 40
0.7499999999999971
 40
1.0
 40
1.0
 40
1.0
 40
1.0
 10
113.5017882590352
 20
397.8193250245211
 30
0.0
 10
113.3112939696116
 20
397.5840652320781
 30
0.0
 10
113.1896195565493
 20
397.3452805392276
 30
0.0
 10
113.188963366018
 20
396.9777890066705
 30
0.0
 10
113.2187973678124
 20
396.8554168120212
 30
0.0
 10
113.32772723792
 20
396.6150331268616
 30
0.0
 10
113.4064224249829
 20
396.4962721798001
 30
0.0
 10
113.5017882590356
 20
396.3784957026505
 30
0.0
  0
LINE
  5
40C
330
1F
100
AcDbEntity
  8
0
  6
Continuous
 62
     7
370
    25
100
AcDbLine
 10
112.9871082737
 20
390.6788938271
 30
0.0
 11
112.9871082737
 21
396.9788938271
 31
0.0
  0
LINE
  5
40D
330
1F
100
AcDbEntity
  8
0
  6
Continuous
 62
     7
370
    25
100
AcDbLine
 10
114.0871082737
 20
389.8384626297
 30
0.0
 11
113.501788259
 21
389.8384626297
 31
0.0
  0
LINE
  5
40E
330
1F
100
AcDbEntity
  8
0
  6
Continuous
 62
     7
370
    25
100
AcDbLine
 10
114.0871082737
 20
397.8193250245
 30
0.0
 11
113.501788259
 21
397.8193250245
 31
0.0
  0
LINE
  5
40F
330
1F
100
AcDbEntity
  8
0
  6
Continuous
 62
     7
370
    25
100
AcDbLine
 10
110.2871082737
 20
384.6288938271
 30
0.0
 11
105.9871082737
 21
384.6288938271
 31
0.0
  0
LINE
  5
410
330
1F
100
AcDbEntity
  8
0
  6
Continuous
 62
     7
370
    25
100
AcDbLine
 10
110.2871082737
 20
383.8288938271
 30
0.0
 11
110.2871082737
 21
384.6288938271
 31
0.0
  0
LINE
  5
411
330
1F
100
AcDbEntity
  8
0
  6
Continuous
 62
     7
370
    25
100
AcDbLine
 10
110.2871082737
 20
383.8288938271
 30
0.0
 11
105.9871082737
 21
383.8288938271
 31
0.0
  0
LINE
  5
412
330
1F
100
AcDbEntity
  8
0
  6
Continuous
 62
     7
370
    25
100
AcDbLine
 10
110.2871082737
 20
403.8288938271
 30
0.0
 11
100.3871082737
 21
403.8288938271
 31
0.0
  0
LINE
  5
413
330
1F
100
AcDbEntity
  8
0
  6
Continuous
 62
     7
370
    25
100
AcDbLine
 10
110.2871082737
 20
403.0288938271
 30
0.0
 11
110.2871082737
 21
403.8288938271
 31
0.0
  0
LINE
  5
414
330
1F
100
AcDbEntity
  8
0
  6
Continuous
 62
     7
370
    25
100
AcDbLine
 10
100.3871082737
 20
403.0288938271
 30
0.0
 11
110.2871082737
 21
403.0288938271
 31
0.0
  0
LINE
  5
415
330
1F
100
AcDbEntity
  8
0
  6
Continuous
 62
     7
370
    25
100
AcDbLine
 10
100.3871082737
 20
403.0288938271
 30
0.0
 11
100.3871082737
 21
402.9288938271
 31
0.0
  0
LINE
  5
416
330
1F
100
AcDbEntity
  8
0
  6
Continuous
 62
     7
370
    25
100
AcDbLine
 10
100.3871082737
 20
402.9288938271
 30
0.0
 11
105.5371082737
 21
402.9288938271
 31
0.0
  0
LINE
  5
417
330
1F
100
AcDbEntity
  8
0
  6
Continuous
 62
     7
370
    25
100
AcDbLine
 10
105.5371082737
 20
402.1288938271
 30
0.0
 11
105.5371082737
 21
402.9288938271
 31
0.0
  0
LINE
  5
418
330
1F
100
AcDbEntity
  8
0
  6
Continuous
 62
     7
370
    25
100
AcDbLine
 10
100.3871082737
 20
402.1288938271
 30
0.0
 11
105.5371082737
 21
402.1288938271
 31
0.0
  0
ARC
  5
419
330
1F
100
AcDbEntity
  8
0
  6
Continuous
 62
     7
370
    25
100
AcDbCircle
 10
100.3871082737
 20
402.9788938271
 30
0.0
 40
0.8500000000000227
100
AcDbArc
 50
90.0
 51
270.0
  0
ARC
  5
41A
330
1F
100
AcDbEntity
  8
0
  6
Continuous
 62
     7
370
    25
100
AcDbCircle
 10
110.2871082737
 20
385.6288938271
 30
0.0
 40
1.800000000000068
100
AcDbArc
 50
270.0
 51
0.0
  0
ARC
  5
41B
330
1F
100
AcDbEntity
  8
0
  6
Continuous
 62
     7
370
    25
100
AcDbCircle
 10
110.2871082737
 20
402.0288938271
 30
0.0
 40
1.0
100
AcDbArc
 50
0.0
 51
90.0
  0
ARC
  5
41C
330
1F
100
AcDbEntity
  8
0
  6
Continuous
 62
     7
370
    25
100
AcDbCircle
 10
110.2871082737
 20
385.6288938271
 30
0.0
 40
1.000000000000014
100
AcDbArc
 50
270.0
 51
0.0
  0
LINE
  5
41D
330
1F
100
AcDbEntity
  8
0
  6
Continuous
 62
     7
370
    25
100
AcDbLine
 10
112.0871082737
 20
385.6288938271
 30
0.0
 11
112.0871082737
 21
402.0288938271
 31
0.0
  0
LINE
  5
41E
330
1F
100
AcDbEntity
  8
0
  6
Continuous
 62
     7
370
    25
100
AcDbLine
 10
111.2871082737
 20
385.6288938271
 30
0.0
 11
111.2871082737
 21
402.0288938271
 31
0.0
  0
ARC
  5
41F
330
1F
100
AcDbEntity
  8
0
  6
Continuous
 62
     7
370
    25
100
AcDbCircle
 10
110.2871082737
 20
402.0288938271
 30
0.0
 40
1.800000000000026
100
AcDbArc
 50
0.0
 51
90.0
  0
LINE
  5
420
330
1F
100
AcDbEntity
  8
0
  6
Continuous
 62
     7
370
    25
100
AcDbLine
 10
109.2871082737
 20
397.8288938271
 30
0.0
 11
109.2871082737
 21
389.8288938271
 31
0.0
  0
LWPOLYLINE
  5
421
330
1F
100
AcDbEntity
  8
0
  6
Continuous
 62
     7
370
    25
100
AcDbPolyline
 90
        3
 70
   128
 43
0.0
 10
108.2810641572
 20
394.5526752315
 10
108.2766636321
 20
394.5099799009
 10
108.2604387834
 20
394.326281572
  0
ARC
  5
422
330
1F
100
AcDbEntity
  8
0
  6
Continuous
 62
     7
370
    25
100
AcDbCircle
 10
108.7848317078
 20
394.6394094095
 30
0.0
 40
0.6107675350084729
100
AcDbArc
 50
210.8424581413
 51
243.3898036633
  0
ARC
  5
423
330
1F
100
AcDbEntity
  8
0
  6
Continuous
 62
     7
370
    25
100
AcDbCircle
 10
117.6677656291
 20
393.4978964582
 30
0.0
 40
9.17581504347445
100
AcDbArc
 50
177.9327321271
 51
179.6562101058
  0
ARC
  5
424
330
1F
100
AcDbEntity
  8
0
  6
Continuous
 62
     7
370
    25
100
AcDbCircle
 10
116.0240881714
 20
393.734756552
 30
0.0
 40
7.786288415097009
100
AcDbArc
 50
184.3702527064
 51
195.2299003794
  0
ARC
  5
425
330
1F
100
AcDbEntity
  8
0
  6
Continuous
 62
     7
370
    25
100
AcDbCircle
 10
108.7323798387
 20
391.7843927108
 30
0.0
 40
0.2406805056721491
100
AcDbArc
 50
156.7420981705
 51
203.2579018295
  0
ARC
  5
426
330
1F
100
AcDbEntity
  8
0
  6
Continuous
 62
     7
370
    25
100
AcDbCircle
 10
116.0240881714
 20
393.9248318469
 30
0.0
 40
7.786288415096046
100
AcDbArc
 50
184.3702527064
 51
195.2299003794
  0
ARC
  5
427
330
1F
100
AcDbEntity
  8
0
  6
Continuous
 62
     7
370
    25
100
AcDbCircle
 10
108.7848317078
 20
393.0183782446
 30
0.0
 40
0.6107675350074596
100
AcDbArc
 50
116.6101963366
 51
149.1575418587
  0
ARC
  5
428
330
1F
100
AcDbEntity
  8
0
  6
Continuous
 62
     7
370
    25
100
AcDbCircle
 10
117.5908938493
 20
394.1568753397
 30
0.0
 40
9.09894271024711
100
AcDbArc
 50
176.2668736478
 51
183.7331263522
  0
ARC
  5
429
330
1F
100
AcDbEntity
  8
0
  6
Continuous
 62
     7
370
    25
100
AcDbCircle
 10
108.7848317078
 20
394.2032290294
 30
0.0
 40
0.6107675350080953
100
AcDbArc
 50
116.6101963367
 51
149.1575418587
  0
ARC
  5
42A
330
1F
100
AcDbEntity
  8
0
  6
Continuous
 62
     7
370
    25
100
AcDbCircle
 10
116.0240881714
 20
393.9230311022
 30
0.0
 40
7.786288415096056
100
AcDbArc
 50
164.7700996206
 51
175.6297472936
  0
ARC
  5
42B
330
1F
100
AcDbEntity
  8
0
  6
Continuous
 62
     7
370
    25
100
AcDbCircle
 10
108.6443420523
 20
395.8944962039
 30
0.0
 40
0.1522432420610967
100
AcDbArc
 50
150.9451665855
 51
179.1449116558
  0
LINE
  5
42C
330
1F
100
AcDbEntity
  8
0
  6
Continuous
 62
     7
370
    25
100
AcDbLine
 10
108.2604387834
 20
394.516356867
 30
0.0
 11
108.4989944413
 21
394.516356867
 31
0.0
  0
LINE
  5
42D
330
1F
100
AcDbEntity
  8
0
  6
Continuous
 62
     7
370
    25
100
AcDbLine
 10
108.2604387834
 20
393.1414307872
 30
0.0
 11
108.2773057751
 21
393.1414307872
 31
0.0
  0
LINE
  5
42E
330
1F
100
AcDbEntity
  8
0
  6
Continuous
 62
     7
370
    25
100
AcDbLine
 10
108.2604387834
 20
394.326281572
 30
0.0
 11
108.4934890998
 21
394.326281572
 31
0.0
  0
LINE
  5
42F
330
1F
100
AcDbEntity
  8
0
  6
Continuous
 62
     7
370
    25
100
AcDbLine
 10
132.4871082737
 20
335.1632006645
 30
0.0
 11
132.4871082737
 21
330.0221244276
 31
0.0
  0
ARC
  5
430
330
1F
100
AcDbEntity
  8
0
  6
Continuous
 62
     7
370
    25
100
AcDbCircle
 10
130.5455971629
 20
330.0843670035
 30
0.0
 40
1.942508566655189
100
AcDbArc
 50
268.2745645851
 51
358.1637932023
  0
LINE
  5
431
330
1F
100
AcDbEntity
  8
0
  6
Continuous
 62
     7
370
    25
100
AcDbLine
 10
130.4871082737
 20
328.142739186
 30
0.0
 11
118.4871082737
 21
328.142739186
 31
0.0
  0
ARC
  5
432
330
1F
100
AcDbEntity
  8
0
  6
Continuous
 62
     7
370
    25
100
AcDbCircle
 10
118.4286193844
 20
330.0843670035
 30
0.0
 40
1.94250856665514
100
AcDbArc
 50
181.8362067977
 51
271.7254354149
  0
LINE
  5
433
330
1F
100
AcDbEntity
  8
0
  6
Continuous
 62
     7
370
    25
100
AcDbLine
 10
116.4871082737
 20
330.0221244276
 30
0.0
 11
116.4871082737
 21
335.1632006645
 31
0.0
  0
LINE
  5
434
330
1F
100
AcDbEntity
  8
0
  6
Continuous
 62
     7
370
    25
100
AcDbLine
 10
130.4871082737
 20
327.4586988994
 30
0.0
 11
118.4871082737
 21
327.4586988994
 31
0.0
  0
LINE
  5
435
330
1F
100
AcDbEntity
  8
0
  6
Continuous
 62
     7
370
    25
100
AcDbLine
 10
132.4871082737
 20
330.0221244276
 30
0.0
 11
132.4871082737
 21
329.338084141
 31
0.0
  0
ARC
  5
436
330
1F
100
AcDbEntity
  8
0
  6
Continuous
 62
     7
370
    25
100
AcDbCircle
 10
130.5455971629
 20
329.4003267168
 30
0.0
 40
1.942508566655303
100
AcDbArc
 50
268.2745645851
 51
358.1637932023
  0
LINE
  5
437
330
1F
100
AcDbEntity
  8
0
  6
Continuous
 62
     7
370
    25
100
AcDbLine
 10
116.4871082737
 20
329.338084141
 30
0.0
 11
116.4871082737
 21
330.0221244276
 31
0.0
  0
ARC
  5
438
330
1F
100
AcDbEntity
  8
0
  6
Continuous
 62
     7
370
    25
100
AcDbCircle
 10
118.4286193844
 20
329.4003267168
 30
0.0
 40
1.942508566655273
100
AcDbArc
 50
181.8362067977
 51
271.7254354149
  0
LINE
  5
439
330
1F
100
AcDbEntity
  8
0
  6
Continuous
 62
     7
370
    25
100
AcDbLine
 10
132.4871082737
 20
335.1632006645
 30
0.0
 11
132.4871082737
 21
335.5052208078
 31
0.0
  0
LINE
  5
43A
330
1F
100
AcDbEntity
  8
0
  6
Continuous
 62
     7
370
    25
100
AcDbLine
 10
116.4871082737
 20
335.5052208078
 30
0.0
 11
116.4871082737
 21
335.1632006645
 31
0.0
  0
LINE
  5
43B
330
1F
100
AcDbEntity
  8
0
  6
Continuous
 62
     7
370
    25
100
AcDbLine
 10
105.9871082737
 20
335.3288938271
 30
0.0
 11
116.4871082737
 21
335.3288938271
 31
0.0
  0
CIRCLE
  5
43C
330
1F
100
AcDbEntity
  8
0
  6
Continuous
 62
     7
370
    25
100
AcDbCircle
 10
124.5871082737
 20
342.8288938271
 30
0.0
 40
3.499999999999972
  0
LINE
  5
43D
330
1F
100
AcDbEntity
  8
0
  6
Continuous
 62
     7
370
    25
100
AcDbLine
 10
132.4871082737
 20
335.5052208078
 30
0.0
 11
132.4871082737
 21
348.3288938271
 31
0.0
  0
LINE
  5
43E
330
1F
100
AcDbEntity
  8
0
  6
Continuous
 62
     7
370
    25
100
AcDbLine
 10
130.4871082737
 20
350.3288938271
 30
0.0
 11
105.9871082737
 21
350.3288938271
 31
0.0
  0
ARC
  5
43F
330
1F
100
AcDbEntity
  8
0
  6
Continuous
 62
     7
370
    25
100
AcDbCircle
 10
130.4871082737
 20
348.3288938271
 30
0.0
 40
2.000000000000028
100
AcDbArc
 50
0.0
 51
90.0
  0
ARC
  5
440
330
1F
100
AcDbEntity
  8
0
  6
Continuous
 62
     7
370
    25
100
AcDbCircle
 10
130.5455971629
 20
205.5734206507
 30
0.0
 40
1.942508566655301
100
AcDbArc
 50
1.8362067977
 51
91.7254354149
  0
LINE
  5
441
330
1F
100
AcDbEntity
  8
0
  6
Continuous
 62
     7
370
    25
100
AcDbLine
 10
132.4871082737
 20
205.6356632266
 30
0.0
 11
132.4871082737
 21
200.4945869897
 31
0.0
  0
LINE
  5
442
330
1F
100
AcDbEntity
  8
0
  6
Continuous
 62
     7
370
    25
100
AcDbLine
 10
116.4871082737
 20
200.4945869897
 30
0.0
 11
116.4871082737
 21
205.6356632266
 31
0.0
  0
ARC
  5
443
330
1F
100
AcDbEntity
  8
0
  6
Continuous
 62
     7
370
    25
100
AcDbCircle
 10
118.4286193844
 20
205.5734206507
 30
0.0
 40
1.942508566655271
100
AcDbArc
 50
88.2745645851
 51
178.1637932023
  0
LINE
  5
444
330
1F
100
AcDbEntity
  8
0
  6
Continuous
 62
     7
370
    25
100
AcDbLine
 10
118.4871082737
 20
207.5150484681
 30
0.0
 11
130.4871082737
 21
207.5150484681
 31
0.0
  0
LINE
  5
445
330
1F
100
AcDbEntity
  8
0
  6
Continuous
 62
     7
370
    25
100
AcDbLine
 10
132.4871082737
 20
206.3197035132
 30
0.0
 11
132.4871082737
 21
205.6356632266
 31
0.0
  0
ARC
  5
446
330
1F
100
AcDbEntity
  8
0
  6
Continuous
 62
     7
370
    25
100
AcDbCircle
 10
130.5455971629
 20
206.2574609374
 30
0.0
 40
1.942508566655301
100
AcDbArc
 50
1.8362067977
 51
91.7254354149
  0
LINE
  5
447
330
1F
100
AcDbEntity
  8
0
  6
Continuous
 62
     7
370
    25
100
AcDbLine
 10
118.4871082737
 20
208.1990887548
 30
0.0
 11
130.4871082737
 21
208.1990887548
 31
0.0
  0
LINE
  5
448
330
1F
100
AcDbEntity
  8
0
  6
Continuous
 62
     7
370
    25
100
AcDbLine
 10
116.4871082737
 20
205.6356632266
 30
0.0
 11
116.4871082737
 21
206.3197035132
 31
0.0
  0
ARC
  5
449
330
1F
100
AcDbEntity
  8
0
  6
Continuous
 62
     7
370
    25
100
AcDbCircle
 10
118.4286193844
 20
206.2574609374
 30
0.0
 40
1.942508566655244
100
AcDbArc
 50
88.2745645851
 51
178.1637932023
  0
LINE
  5
44A
330
1F
100
AcDbEntity
  8
0
  6
Continuous
 62
     7
370
    25
100
AcDbLine
 10
116.4871082737
 20
200.4945869897
 30
0.0
 11
116.4871082737
 21
200.1525668464
 31
0.0
  0
LINE
  5
44B
330
1F
100
AcDbEntity
  8
0
  6
Continuous
 62
     7
370
    25
100
AcDbLine
 10
132.4871082737
 20
200.1525668464
 30
0.0
 11
132.4871082737
 21
200.4945869897
 31
0.0
  0
LINE
  5
44C
330
1F
100
AcDbEntity
  8
0
  6
Continuous
 62
     7
370
    25
100
AcDbLine
 10
116.4871082737
 20
200.3288938271
 30
0.0
 11
105.9871082737
 21
200.3288938271
 31
0.0
  0
ARC
  5
44D
330
1F
100
AcDbEntity
  8
0
  6
Continuous
 62
     7
370
    25
100
AcDbCircle
 10
130.4871082737
 20
187.3288938271
 30
0.0
 40
2.000000000000028
100
AcDbArc
 50
270.0
 51
0.0
  0
CIRCLE
  5
44E
330
1F
100
AcDbEntity
  8
0
  6
Continuous
 62
     7
370
    25
100
AcDbCircle
 10
124.5871082737
 20
192.8288938271
 30
0.0
 40
3.5
  0
LINE
  5
44F
330
1F
100
AcDbEntity
  8
0
  6
Continuous
 62
     7
370
    25
100
AcDbLine
 10
132.4871082737
 20
187.3288938271
 30
0.0
 11
132.4871082737
 21
200.1525668464
 31
0.0
  0
LINE
  5
450
330
1F
100
AcDbEntity
  8
0
  6
Continuous
 62
     7
370
    25
100
AcDbLine
 10
105.9871082737
 20
185.3288938271
 30
0.0
 11
130.4871082737
 21
185.3288938271
 31
0.0
  0
CIRCLE
  5
451
330
1F
100
AcDbEntity
  8
0
  6
Continuous
 62
     7
370
    25
100
AcDbCircle
 10
124.5871082737
 20
342.8288938271
 30
0.0
 40
2.458750000016589
  0
CIRCLE
  5
452
330
1F
100
AcDbEntity
  8
0
  6
Continuous
 62
     7
370
    25
100
AcDbCircle
 10
124.5871082737
 20
342.8288938271
 30
0.0
 40
2.999999999999997
  0
ENDSEC
  0
SECTION
  2
OBJECTS
  0
DICTIONARY
  5
C
330
0
100
AcDbDictionary
281
     1
  3
ACAD_GROUP
350
D
  3
ACAD_LAYOUT
350
1A
  3
ACAD_MLINESTYLE
350
17
  3
ACAD_PLOTSETTINGS
350
19
  3
ACAD_PLOTSTYLENAME
350
E
  3
ACAD_SCALELIST
350
47
  0
DICTIONARY
  5
D
102
{ACAD_REACTORS
330
C
102
}
330
C
100
AcDbDictionary
281
     1
  0
DICTIONARY
  5
1A
102
{ACAD_REACTORS
330
C
102
}
330
C
100
AcDbDictionary
281
     1
  3
Layout1
350
1E
  3
Layout2
350
26
  3
Model
350
22
  0
DICTIONARY
  5
17
102
{ACAD_REACTORS
330
C
102
}
330
C
100
AcDbDictionary
281
     1
  3
Standard
350
18
  0
DICTIONARY
  5
19
102
{ACAD_REACTORS
330
C
102
}
330
C
100
AcDbDictionary
281
     1
  0
ACDBDICTIONARYWDFLT
  5
E
102
{ACAD_REACTORS
330
C
102
}
330
C
100
AcDbDictionary
281
     1
  3
Normal
350
F
100
AcDbDictionaryWithDefault
340
F
  0
DICTIONARY
  5
47
102
{ACAD_REACTORS
330
C
102
}
330
C
100
AcDbDictionary
281
     1
  3
A0
350
48
  3
A1
350
49
  3
A2
350
4A
  3
A3
350
4B
  3
A4
350
4C
  3
A5
350
4D
  3
A6
350
4E
  3
A7
350
4F
  3
A8
350
50
  3
A9
350
51
  3
B0
350
52
  3
B1
350
53
  3
B2
350
54
  3
B3
350
55
  3
B4
350
56
  3
B5
350
57
  3
B6
350
58
  3
B7
350
59
  3
B8
350
5A
  3
B9
350
5B
  3
C0
350
5C
  3
C1
350
5D
  3
C2
350
5E
  3
C3
350
5F
  3
C4
350
60
  3
C5
350
61
  3
C6
350
62
  3
C7
350
63
  3
C8
350
64
  3
C9
350
65
  3
D0
350
66
  3
D1
350
67
  3
D2
350
68
  0
LAYOUT
  5
1E
102
{ACAD_REACTORS
330
1A
102
}
330
1A
100
AcDbPlotSettings
  1

  2
none_device
  4

  6

 40
0.0
 41
0.0
 42
0.0
 43
0.0
 44
0.0
 45
0.0
 46
0.0
 47
0.0
 48
0.0
 49
0.0
140
0.0
141
0.0
142
1.0
143
1.0
 70
   688
 72
     1
 73
     0
 74
     5
  7

 75
    16
147
1.0
148
0.0
149
0.0
100
AcDbLayout
  1
Layout1
 70
     1
 71
     1
 10
0.0
 20
0.0
 11
420.0
 21
297.0
 12
0.0
 22
0.0
 32
0.0
 14
1.0000000000E+20
 24
1.0000000000E+20
 34
1.0000000000E+20
 15
-1.0000000000E+20
 25
-1.0000000000E+20
 35
-1.0000000000E+20
146
0.0
 13
0.0
 23
0.0
 33
0.0
 16
1.0
 26
0.0
 36
0.0
 17
0.0
 27
1.0
 37
0.0
 76
     0
330
1B
  0
LAYOUT
  5
26
102
{ACAD_REACTORS
330
1A
102
}
330
1A
100
AcDbPlotSettings
  1

  2
none_device
  4

  6

 40
0.0
 41
0.0
 42
0.0
 43
0.0
 44
0.0
 45
0.0
 46
0.0
 47
0.0
 48
0.0
 49
0.0
140
0.0
141
0.0
142
1.0
143
1.0
 70
   688
 72
     1
 73
     0
 74
     5
  7

 75
    16
147
1.0
148
0.0
149
0.0
100
AcDbLayout
  1
Layout2
 70
     1
 71
     2
 10
0.0
 20
0.0
 11
0.0
 21
0.0
 12
0.0
 22
0.0
 32
0.0
 14
0.0
 24
0.0
 34
0.0
 15
0.0
 25
0.0
 35
0.0
146
0.0
 13
0.0
 23
0.0
 33
0.0
 16
1.0
 26
0.0
 36
0.0
 17
0.0
 27
1.0
 37
0.0
 76
     0
330
23
  0
LAYOUT
  5
22
102
{ACAD_REACTORS
330
1A
102
}
330
1A
100
AcDbPlotSettings
  1

  2
none_device
  4
Letter_(8.50_x_11.00_Inches)
  6

 40
6.35
 41
6.35
 42
6.35000508
 43
6.35000508
 44
215.9
 45
279.4
 46
0.0
 47
0.0
 48
0.0
 49
0.0
140
0.0
141
0.0
142
1.0
143
1.0
 70
  1712
 72
     1
 73
     0
 74
     0
  7

 75
     0
147
1.0
148
0.0
149
0.0
100
AcDbLayout
  1
Model
 70
     1
 71
     0
 10
0.0
 20
0.0
 11
841.0
 21
594.0
 12
0.0
 22
0.0
 32
0.0
 14
0.0
 24
0.0
 34
0.0
 15
841.0
 25
594.0
 35
0.0
146
0.0
 13
0.0
 23
0.0
 33
0.0
 16
1.0
 26
0.0
 36
0.0
 17
0.0
 27
1.0
 37
0.0
 76
     0
330
1F
331
29
  0
MLINESTYLE
  5
18
102
{ACAD_REACTORS
330
17
102
}
330
17
100
AcDbMlineStyle
  2
Standard
 70
     0
  3

 62
   256
 51
90.0
 52
90.0
 71
     2
 49
0.5
 62
   256
  6
BYLAYER
 49
-0.5
 62
   256
  6
BYLAYER
  0
ACDBPLACEHOLDER
  5
F
102
{ACAD_REACTORS
330
E
102
}
330
E
  0
SCALE
  5
48
102
{ACAD_REACTORS
330
47
102
}
330
47
100
AcDbScale
 70
     0
300
1:1
140
1.0
141
1.0
290
     1
  0
SCALE
  5
49
102
{ACAD_REACTORS
330
47
102
}
330
47
100
AcDbScale
 70
     0
300
1:2
140
1.0
141
2.0
290
     0
  0
SCALE
  5
4A
102
{ACAD_REACTORS
330
47
102
}
330
47
100
AcDbScale
 70
     0
300
1:4
140
1.0
141
4.0
290
     0
  0
SCALE
  5
4B
102
{ACAD_REACTORS
330
47
102
}
330
47
100
AcDbScale
 70
     0
300
1:5
140
1.0
141
5.0
290
     0
  0
SCALE
  5
4C
102
{ACAD_REACTORS
330
47
102
}
330
47
100
AcDbScale
 70
     0
300
1:8
140
1.0
141
8.0
290
     0
  0
SCALE
  5
4D
102
{ACAD_REACTORS
330
47
102
}
330
47
100
AcDbScale
 70
     0
300
1:10
140
1.0
141
10.0
290
     0
  0
SCALE
  5
4E
102
{ACAD_REACTORS
330
47
102
}
330
47
100
AcDbScale
 70
     0
300
1:16
140
1.0
141
16.0
290
     0
  0
SCALE
  5
4F
102
{ACAD_REACTORS
330
47
102
}
330
47
100
AcDbScale
 70
     0
300
1:20
140
1.0
141
20.0
290
     0
  0
SCALE
  5
50
102
{ACAD_REACTORS
330
47
102
}
330
47
100
AcDbScale
 70
     0
300
1:30
140
1.0
141
30.0
290
     0
  0
SCALE
  5
51
102
{ACAD_REACTORS
330
47
102
}
330
47
100
AcDbScale
 70
     0
300
1:40
140
1.0
141
40.0
290
     0
  0
SCALE
  5
52
102
{ACAD_REACTORS
330
47
102
}
330
47
100
AcDbScale
 70
     0
300
1:50
140
1.0
141
50.0
290
     0
  0
SCALE
  5
53
102
{ACAD_REACTORS
330
47
102
}
330
47
100
AcDbScale
 70
     0
300
1:100
140
1.0
141
100.0
290
     0
  0
SCALE
  5
54
102
{ACAD_REACTORS
330
47
102
}
330
47
100
AcDbScale
 70
     0
300
2:1
140
2.0
141
1.0
290
     0
  0
SCALE
  5
55
102
{ACAD_REACTORS
330
47
102
}
330
47
100
AcDbScale
 70
     0
300
4:1
140
4.0
141
1.0
290
     0
  0
SCALE
  5
56
102
{ACAD_REACTORS
330
47
102
}
330
47
100
AcDbScale
 70
     0
300
8:1
140
8.0
141
1.0
290
     0
  0
SCALE
  5
57
102
{ACAD_REACTORS
330
47
102
}
330
47
100
AcDbScale
 70
     0
300
10:1
140
10.0
141
1.0
290
     0
  0
SCALE
  5
58
102
{ACAD_REACTORS
330
47
102
}
330
47
100
AcDbScale
 70
     0
300
100:1
140
100.0
141
1.0
290
     0
  0
SCALE
  5
59
102
{ACAD_REACTORS
330
47
102
}
330
47
100
AcDbScale
 70
     0
300
1/128" = 1'-0"
140
0.0078125
141
12.0
290
     0
  0
SCALE
  5
5A
102
{ACAD_REACTORS
330
47
102
}
330
47
100
AcDbScale
 70
     0
300
1/64" = 1'-0"
140
0.015625
141
12.0
290
     0
  0
SCALE
  5
5B
102
{ACAD_REACTORS
330
47
102
}
330
47
100
AcDbScale
 70
     0
300
1/32" = 1'-0"
140
0.03125
141
12.0
290
     0
  0
SCALE
  5
5C
102
{ACAD_REACTORS
330
47
102
}
330
47
100
AcDbScale
 70
     0
300
1/16" = 1'-0"
140
0.0625
141
12.0
290
     0
  0
SCALE
  5
5D
102
{ACAD_REACTORS
330
47
102
}
330
47
100
AcDbScale
 70
     0
300
3/32" = 1'-0"
140
0.09375
141
12.0
290
     0
  0
SCALE
  5
5E
102
{ACAD_REACTORS
330
47
102
}
330
47
100
AcDbScale
 70
     0
300
1/8" = 1'-0"
140
0.125
141
12.0
290
     0
  0
SCALE
  5
5F
102
{ACAD_REACTORS
330
47
102
}
330
47
100
AcDbScale
 70
     0
300
3/16" = 1'-0"
140
0.1875
141
12.0
290
     0
  0
SCALE
  5
60
102
{ACAD_REACTORS
330
47
102
}
330
47
100
AcDbScale
 70
     0
300
1/4" = 1'-0"
140
0.25
141
12.0
290
     0
  0
SCALE
  5
61
102
{ACAD_REACTORS
330
47
102
}
330
47
100
AcDbScale
 70
     0
300
3/8" = 1'-0"
140
0.375
141
12.0
290
     0
  0
SCALE
  5
62
102
{ACAD_REACTORS
330
47
102
}
330
47
100
AcDbScale
 70
     0
300
1/2" = 1'-0"
140
0.5
141
12.0
290
     0
  0
SCALE
  5
63
102
{ACAD_REACTORS
330
47
102
}
330
47
100
AcDbScale
 70
     0
300
3/4" = 1'-0"
140
0.75
141
12.0
290
     0
  0
SCALE
  5
64
102
{ACAD_REACTORS
330
47
102
}
330
47
100
AcDbScale
 70
     0
300
1" = 1'-0"
140
1.0
141
12.0
290
     0
  0
SCALE
  5
65
102
{ACAD_REACTORS
330
47
102
}
330
47
100
AcDbScale
 70
     0
300
1-1/2" = 1'-0"
140
1.5
141
12.0
290
     0
  0
SCALE
  5
66
102
{ACAD_REACTORS
330
47
102
}
330
47
100
AcDbScale
 70
     0
300
3" = 1'-0"
140
3.0
141
12.0
290
     0
  0
SCALE
  5
67
102
{ACAD_REACTORS
330
47
102
}
330
47
100
AcDbScale
 70
     0
300
6" = 1'-0"
140
6.0
141
12.0
290
     0
  0
SCALE
  5
68
102
{ACAD_REACTORS
330
47
102
}
330
47
100
AcDbScale
 70
     0
300
1'-0" = 1'-0"
140
12.0
141
12.0
290
     0
  0
ENDSEC
  0
EOF
