ISO-10303-21;
HEADER;
FILE_DESCRIPTION (( 'STEP AP203' ),
    '1' );
FILE_NAME ('CTR10-016-K41-074I-D2 Òðóáà ãëàäêàÿ æåñòêàÿ ÏÂÕ d16 ÈÝÊ ñåðàÿ (74ì),2ì.STEP',
    '2016-04-27T08:19:36',
    ( '' ),
    ( '' ),
    'SwSTEP 2.0',
    'SolidWorks 2014',
    '' );
FILE_SCHEMA (( 'CONFIG_CONTROL_DESIGN' ));
ENDSEC;

DATA;
#1 = PRODUCT_DEFINITION ( 'UNKNOWN', '', #49, #126 ) ;
#2 = CARTESIAN_POINT ( 'NONE',  ( 0.0000000000000000000, 0.0000000000000000000, 0.0000000000000000000 ) ) ;
#3 = AXIS2_PLACEMENT_3D ( 'NONE', #34, #165, #86 ) ;
#4 = DIRECTION ( 'NONE',  ( 0.0000000000000000000, 0.0000000000000000000, 1.000000000000000000 ) ) ;
#5 = CIRCLE ( 'NONE', #33, 7.250000000000002700 ) ;
#6 = DIRECTION ( 'NONE',  ( -1.000000000000000000, -0.0000000000000000000, -0.0000000000000000000 ) ) ;
#7 = APPROVAL_PERSON_ORGANIZATION ( #45, #121, #157 ) ;
#8 = EDGE_LOOP ( 'NONE', ( #149 ) ) ;
#9 = EDGE_LOOP ( 'NONE', ( #88 ) ) ;
#10 = APPROVAL ( #137, 'UNSPECIFIED' ) ;
#11 = AXIS2_PLACEMENT_3D ( 'NONE', #130, #47, #142 ) ;
#12 = COORDINATED_UNIVERSAL_TIME_OFFSET ( 3, 0, .AHEAD. ) ;
#13 = DIRECTION ( 'NONE',  ( 1.000000000000000000, 0.0000000000000000000, 0.0000000000000000000 ) ) ;
#14 = ORIENTED_EDGE ( 'NONE', *, *, #40, .T. ) ;
#15 = CALENDAR_DATE ( 2016, 27, 4 ) ;
#16 = AXIS2_PLACEMENT_3D ( 'NONE', #80, #32, #4 ) ;
#17 = DIRECTION ( 'NONE',  ( 0.0000000000000000000, 0.0000000000000000000, -1.000000000000000000 ) ) ;
#18 = DATE_AND_TIME ( #54, #87 ) ;
#19 = CARTESIAN_POINT ( 'NONE',  ( 2000.000000000000000, 0.0000000000000000000, 0.0000000000000000000 ) ) ;
#20 = APPROVAL_ROLE ( '' ) ;
#21 = CC_DESIGN_APPROVAL ( #10, ( #1 ) ) ;
#22 = PERSON_AND_ORGANIZATION ( #106, #169 ) ;
#23 = AXIS2_PLACEMENT_3D ( 'NONE', #103, #164, #84 ) ;
#24 = PERSON_AND_ORGANIZATION ( #106, #169 ) ;
#25 = CARTESIAN_POINT ( 'NONE',  ( 0.0000000000000000000, 0.0000000000000000000, 0.0000000000000000000 ) ) ;
#26 = AXIS2_PLACEMENT_3D ( 'NONE', #128, #44, #140 ) ;
#27 = PERSON_AND_ORGANIZATION_ROLE ( 'design_owner' ) ;
#28 = CYLINDRICAL_SURFACE ( 'NONE', #135, 7.250000000000002700 ) ;
#29 = CARTESIAN_POINT ( 'NONE',  ( 2000.000000000000000, 0.0000000000000000000, 0.0000000000000000000 ) ) ;
#30 = CC_DESIGN_PERSON_AND_ORGANIZATION_ASSIGNMENT ( #24, #151, ( #1 ) ) ;
#31 = COORDINATED_UNIVERSAL_TIME_OFFSET ( 3, 0, .AHEAD. ) ;
#32 = DIRECTION ( 'NONE',  ( -1.000000000000000000, -0.0000000000000000000, -0.0000000000000000000 ) ) ;
#33 = AXIS2_PLACEMENT_3D ( 'NONE', #2, #94, #17 ) ;
#34 = CARTESIAN_POINT ( 'NONE',  ( 0.0000000000000000000, 0.0000000000000000000, 0.0000000000000000000 ) ) ;
#35 = AXIS2_PLACEMENT_3D ( 'NONE', #29, #153, #71 ) ;
#36 = PERSON_AND_ORGANIZATION_ROLE ( 'design_supplier' ) ;
#37 = EDGE_CURVE ( 'NONE', #99, #99, #76, .T. ) ;
#38 = FACE_OUTER_BOUND ( 'NONE', #125, .T. ) ;
#39 = CC_DESIGN_DATE_AND_TIME_ASSIGNMENT ( #59, #69, ( #1 ) ) ;
#40 = EDGE_CURVE ( 'NONE', #134, #134, #5, .T. ) ;
#41 = APPLICATION_PROTOCOL_DEFINITION ( 'international standard', 'config_control_design', 1994, #127 ) ;
#42 = CIRCLE ( 'NONE', #23, 7.250000000000002700 ) ;
#43 = EDGE_CURVE ( 'NONE', #93, #93, #147, .T. ) ;
#44 = DIRECTION ( 'NONE',  ( 1.000000000000000000, 0.0000000000000000000, 0.0000000000000000000 ) ) ;
#45 = PERSON_AND_ORGANIZATION ( #106, #169 ) ;
#46 = ORIENTED_EDGE ( 'NONE', *, *, #51, .T. ) ;
#47 = DIRECTION ( 'NONE',  ( 1.000000000000000000, 0.0000000000000000000, 0.0000000000000000000 ) ) ;
#48 = PERSON_AND_ORGANIZATION_ROLE ( 'classification_officer' ) ;
#49 = PRODUCT_DEFINITION_FORMATION_WITH_SPECIFIED_SOURCE ( 'ANY', '', #96, .NOT_KNOWN. ) ;
#50 = PERSON_AND_ORGANIZATION ( #106, #169 ) ;
#51 = EDGE_CURVE ( 'NONE', #61, #61, #42, .T. ) ;
#52 = EDGE_LOOP ( 'NONE', ( #14 ) ) ;
#53 = LOCAL_TIME ( 11, 19, 36.00000000000000000, #85 ) ;
#54 = CALENDAR_DATE ( 2016, 27, 4 ) ;
#55 =( LENGTH_UNIT ( ) NAMED_UNIT ( * ) SI_UNIT ( .MILLI., .METRE. ) );
#56 = APPROVAL_ROLE ( '' ) ;
#57 = ORIENTED_EDGE ( 'NONE', *, *, #43, .T. ) ;
#58 = APPROVAL ( #100, 'UNSPECIFIED' ) ;
#59 = DATE_AND_TIME ( #91, #132 ) ;
#60 = DIRECTION ( 'NONE',  ( 0.0000000000000000000, 0.0000000000000000000, 1.000000000000000000 ) ) ;
#61 = VERTEX_POINT ( 'NONE', #98 ) ;
#62 = APPROVAL_STATUS ( 'not_yet_approved' ) ;
#63 = APPROVAL_DATE_TIME ( #95, #10 ) ;
#64 = SHAPE_DEFINITION_REPRESENTATION ( #146, #112 ) ;
#65 = APPROVAL_PERSON_ORGANIZATION ( #101, #10, #56 ) ;
#66 = CC_DESIGN_APPROVAL ( #58, ( #49 ) ) ;
#67 =( NAMED_UNIT ( * ) SI_UNIT ( $, .STERADIAN. ) SOLID_ANGLE_UNIT ( ) );
#68 = CARTESIAN_POINT ( 'NONE',  ( 2000.000000000000000, 0.0000000000000000000, -8.000000000000000000 ) ) ;
#69 = DATE_TIME_ROLE ( 'creation_date' ) ;
#70 = FACE_BOUND ( 'NONE', #8, .T. ) ;
#71 = DIRECTION ( 'NONE',  ( 0.0000000000000000000, 0.0000000000000000000, -1.000000000000000000 ) ) ;
#72 = CARTESIAN_POINT ( 'NONE',  ( 0.0000000000000000000, 0.0000000000000000000, -7.250000000000002700 ) ) ;
#73 = FACE_OUTER_BOUND ( 'NONE', #120, .T. ) ;
#74 = CC_DESIGN_PERSON_AND_ORGANIZATION_ASSIGNMENT ( #123, #115, ( #49 ) ) ;
#75 = EDGE_LOOP ( 'NONE', ( #46 ) ) ;
#76 = CIRCLE ( 'NONE', #35, 8.000000000000000000 ) ;
#77 = DATE_AND_TIME ( #116, #154 ) ;
#78 = APPLICATION_PROTOCOL_DEFINITION ( 'international standard', 'config_control_design', 1994, #92 ) ;
#79 = ORIENTED_EDGE ( 'NONE', *, *, #37, .F. ) ;
#80 = CARTESIAN_POINT ( 'NONE',  ( 2000.000000000000000, 0.0000000000000000000, 0.0000000000000000000 ) ) ;
#81 = CC_DESIGN_PERSON_AND_ORGANIZATION_ASSIGNMENT ( #82, #36, ( #49 ) ) ;
#82 = PERSON_AND_ORGANIZATION ( #106, #169 ) ;
#83 = ORIENTED_EDGE ( 'NONE', *, *, #40, .F. ) ;
#84 = DIRECTION ( 'NONE',  ( 0.0000000000000000000, 0.0000000000000000000, -1.000000000000000000 ) ) ;
#85 = COORDINATED_UNIVERSAL_TIME_OFFSET ( 3, 0, .AHEAD. ) ;
#86 = DIRECTION ( 'NONE',  ( 0.0000000000000000000, 0.0000000000000000000, -1.000000000000000000 ) ) ;
#87 = LOCAL_TIME ( 11, 19, 36.00000000000000000, #129 ) ;
#88 = ORIENTED_EDGE ( 'NONE', *, *, #43, .F. ) ;
#89 = ADVANCED_FACE ( 'NONE', ( #38, #73 ), #104, .T. ) ;
#90 = SECURITY_CLASSIFICATION ( '', '', #131 ) ;
#91 = CALENDAR_DATE ( 2016, 27, 4 ) ;
#92 = APPLICATION_CONTEXT ( 'configuration controlled 3d designs of mechanical parts and assemblies' ) ;
#93 = VERTEX_POINT ( 'NONE', #110 ) ;
#94 = DIRECTION ( 'NONE',  ( 1.000000000000000000, 0.0000000000000000000, 0.0000000000000000000 ) ) ;
#95 = DATE_AND_TIME ( #136, #167 ) ;
#96 = PRODUCT ( 'CTR10-016-K41-074I-D2 Òðóáà ãëàäêàÿ æåñòêàÿ ÏÂÕ d16 ÈÝÊ ñåðàÿ (74ì),2ì', 'CTR10-016-K41-074I-D2 Òðóáà ãëàäêàÿ æåñòêàÿ ÏÂÕ d16 ÈÝÊ ñåðàÿ (74ì),2ì', '', ( #107 ) ) ;
#97 = PLANE ( 'NONE',  #3 ) ;
#98 = CARTESIAN_POINT ( 'NONE',  ( 2000.000000000000000, 0.0000000000000000000, -7.250000000000002700 ) ) ;
#99 = VERTEX_POINT ( 'NONE', #68 ) ;
#100 = APPROVAL_STATUS ( 'not_yet_approved' ) ;
#101 = PERSON_AND_ORGANIZATION ( #106, #169 ) ;
#102 = CC_DESIGN_PERSON_AND_ORGANIZATION_ASSIGNMENT ( #50, #48, ( #90 ) ) ;
#103 = CARTESIAN_POINT ( 'NONE',  ( 2000.000000000000000, 0.0000000000000000000, 0.0000000000000000000 ) ) ;
#104 = CYLINDRICAL_SURFACE ( 'NONE', #16, 8.000000000000000000 ) ;
#105 = ADVANCED_FACE ( 'NONE', ( #114, #70 ), #113, .T. ) ;
#106 = PERSON ( 'UNSPECIFIED', 'UNSPECIFIED', 'UNSPECIFIED', ('UNSPECIFIED'), ('UNSPECIFIED'), ('UNSPECIFIED') ) ;
#107 = MECHANICAL_CONTEXT ( 'NONE', #92, 'mechanical' ) ;
#108 =( GEOMETRIC_REPRESENTATION_CONTEXT ( 3 ) GLOBAL_UNCERTAINTY_ASSIGNED_CONTEXT ( ( #144 ) ) GLOBAL_UNIT_ASSIGNED_CONTEXT ( ( #55, #150, #67 ) ) REPRESENTATION_CONTEXT ( 'NONE', 'WORKASPACE' ) );
#109 = FACE_OUTER_BOUND ( 'NONE', #9, .T. ) ;
#110 = CARTESIAN_POINT ( 'NONE',  ( 0.0000000000000000000, 0.0000000000000000000, -8.000000000000000000 ) ) ;
#111 = CC_DESIGN_DATE_AND_TIME_ASSIGNMENT ( #77, #145, ( #90 ) ) ;
#112 = ADVANCED_BREP_SHAPE_REPRESENTATION ( 'CTR10-016-K41-074I-D2 T¨ºñð óûðôúð  öõ¸ªúð  ¦T- d16 L¦¦ ¸õ¨ð  (74ü),2ü', ( #122, #161 ), #108 ) ;
#113 = PLANE ( 'NONE',  #11 ) ;
#114 = FACE_OUTER_BOUND ( 'NONE', #117, .T. ) ;
#115 = PERSON_AND_ORGANIZATION_ROLE ( 'creator' ) ;
#116 = CALENDAR_DATE ( 2016, 27, 4 ) ;
#117 = EDGE_LOOP ( 'NONE', ( #152 ) ) ;
#118 = APPROVAL_DATE_TIME ( #156, #121 ) ;
#119 = ADVANCED_FACE ( 'NONE', ( #109, #168 ), #97, .F. ) ;
#120 = EDGE_LOOP ( 'NONE', ( #57 ) ) ;
#121 = APPROVAL ( #62, 'UNSPECIFIED' ) ;
#122 = MANIFOLD_SOLID_BREP ( 'Áîáûøêà-Âûòÿíóòü1', #159 ) ;
#123 = PERSON_AND_ORGANIZATION ( #106, #169 ) ;
#124 = DIRECTION ( 'NONE',  ( 0.0000000000000000000, 0.0000000000000000000, 1.000000000000000000 ) ) ;
#125 = EDGE_LOOP ( 'NONE', ( #79 ) ) ;
#126 = DESIGN_CONTEXT ( 'detailed design', #127, 'design' ) ;
#127 = APPLICATION_CONTEXT ( 'configuration controlled 3d designs of mechanical parts and assemblies' ) ;
#128 = CARTESIAN_POINT ( 'NONE',  ( 0.0000000000000000000, 0.0000000000000000000, 0.0000000000000000000 ) ) ;
#129 = COORDINATED_UNIVERSAL_TIME_OFFSET ( 3, 0, .AHEAD. ) ;
#130 = CARTESIAN_POINT ( 'NONE',  ( 2000.000000000000000, 0.0000000000000000000, 0.0000000000000000000 ) ) ;
#131 = SECURITY_CLASSIFICATION_LEVEL ( 'unclassified' ) ;
#132 = LOCAL_TIME ( 11, 19, 36.00000000000000000, #163 ) ;
#133 = CC_DESIGN_APPROVAL ( #121, ( #90 ) ) ;
#134 = VERTEX_POINT ( 'NONE', #72 ) ;
#135 = AXIS2_PLACEMENT_3D ( 'NONE', #19, #6, #60 ) ;
#136 = CALENDAR_DATE ( 2016, 27, 4 ) ;
#137 = APPROVAL_STATUS ( 'not_yet_approved' ) ;
#138 = FACE_OUTER_BOUND ( 'NONE', #75, .T. ) ;
#139 = PERSON_AND_ORGANIZATION ( #106, #169 ) ;
#140 = DIRECTION ( 'NONE',  ( 0.0000000000000000000, 0.0000000000000000000, -1.000000000000000000 ) ) ;
#141 = CC_DESIGN_SECURITY_CLASSIFICATION ( #90, ( #49 ) ) ;
#142 = DIRECTION ( 'NONE',  ( 0.0000000000000000000, 0.0000000000000000000, -1.000000000000000000 ) ) ;
#143 = FACE_OUTER_BOUND ( 'NONE', #155, .T. ) ;
#144 = UNCERTAINTY_MEASURE_WITH_UNIT (LENGTH_MEASURE( 1.000000000000000100E-005 ), #55, 'distance_accuracy_value', 'NONE');
#145 = DATE_TIME_ROLE ( 'classification_date' ) ;
#146 = PRODUCT_DEFINITION_SHAPE ( 'NONE', 'NONE',  #1 ) ;
#147 = CIRCLE ( 'NONE', #26, 8.000000000000000000 ) ;
#148 = PRODUCT_RELATED_PRODUCT_CATEGORY ( 'detail', '', ( #96 ) ) ;
#149 = ORIENTED_EDGE ( 'NONE', *, *, #51, .F. ) ;
#150 =( NAMED_UNIT ( * ) PLANE_ANGLE_UNIT ( ) SI_UNIT ( $, .RADIAN. ) );
#151 = PERSON_AND_ORGANIZATION_ROLE ( 'creator' ) ;
#152 = ORIENTED_EDGE ( 'NONE', *, *, #37, .T. ) ;
#153 = DIRECTION ( 'NONE',  ( 1.000000000000000000, 0.0000000000000000000, 0.0000000000000000000 ) ) ;
#154 = LOCAL_TIME ( 11, 19, 36.00000000000000000, #12 ) ;
#155 = EDGE_LOOP ( 'NONE', ( #83 ) ) ;
#156 = DATE_AND_TIME ( #15, #53 ) ;
#157 = APPROVAL_ROLE ( '' ) ;
#158 = APPROVAL_DATE_TIME ( #18, #58 ) ;
#159 = CLOSED_SHELL ( 'NONE', ( #105, #119, #89, #160 ) ) ;
#160 = ADVANCED_FACE ( 'NONE', ( #138, #143 ), #28, .F. ) ;
#161 = AXIS2_PLACEMENT_3D ( 'NONE', #25, #124, #13 ) ;
#162 = APPROVAL_PERSON_ORGANIZATION ( #22, #58, #20 ) ;
#163 = COORDINATED_UNIVERSAL_TIME_OFFSET ( 3, 0, .AHEAD. ) ;
#164 = DIRECTION ( 'NONE',  ( 1.000000000000000000, 0.0000000000000000000, 0.0000000000000000000 ) ) ;
#165 = DIRECTION ( 'NONE',  ( 1.000000000000000000, 0.0000000000000000000, 0.0000000000000000000 ) ) ;
#166 = CC_DESIGN_PERSON_AND_ORGANIZATION_ASSIGNMENT ( #139, #27, ( #96 ) ) ;
#167 = LOCAL_TIME ( 11, 19, 36.00000000000000000, #31 ) ;
#168 = FACE_BOUND ( 'NONE', #52, .T. ) ;
#169 = ORGANIZATION ( 'UNSPECIFIED', 'UNSPECIFIED', '' ) ;
ENDSEC;
END-ISO-10303-21;
