ISO-10303-21;
HEADER;
/* Generated by software containing ST-Developer
 * from STEP Tools, Inc. (www.steptools.com) 
 */
/* OPTION: using custom schema-name function */

FILE_DESCRIPTION(
/* description */ (''),
/* implementation_level */ '2;1');

FILE_NAME(
/* name */ 'b-41F-M\X2\6807793A677F\X0\.stp',
/* time_stamp */ '2023-06-21T08:34:06+08:00',
/* author */ (''),
/* organization */ (''),
/* preprocessor_version */ 'ST-DEVELOPER v16.7',
/* originating_system */ 'SIEMENS PLM Software NX 1942',
/* authorisation */ '');

FILE_SCHEMA (('AUTOMOTIVE_DESIGN { 1 0 10303 214 3 1 1 1 }'));
ENDSEC;

DATA;
#10=SHAPE_REPRESENTATION_RELATIONSHIP('None',
'relationship between b-41F-M\X2\6807793A677F\X0\-None and b-41F-M\X2\6807793A677F\X0\-
None',#22,#11);
#11=ADVANCED_BREP_SHAPE_REPRESENTATION('b-41F-M\X2\6807793A677F\X0\-No
ne',(#32),#809);
#12=SHAPE_DEFINITION_REPRESENTATION(#13,#22);
#13=PRODUCT_DEFINITION_SHAPE('','',#14);
#14=PRODUCT_DEFINITION(' ','',#16,#15);
#15=PRODUCT_DEFINITION_CONTEXT('part definition',#21,'design');
#16=PRODUCT_DEFINITION_FORMATION_WITH_SPECIFIED_SOURCE(' ',' ',#18,
 .NOT_KNOWN.);
#17=PRODUCT_RELATED_PRODUCT_CATEGORY('part','',(#18));
#18=PRODUCT('b-41F-M\X2\6807793A677F\X0\','b-41F-M\X2\6807793A677F\X0\',
' ',(#19));
#19=PRODUCT_CONTEXT(' ',#21,'mechanical');
#20=APPLICATION_PROTOCOL_DEFINITION('international standard',
'automotive_design',2010,#21);
#21=APPLICATION_CONTEXT(
'core data for automotive mechanical design processes');
#22=SHAPE_REPRESENTATION('b-41F-M\X2\6807793A677F\X0\-None',(#508),#809);
#23=PRESENTATION_LAYER_ASSIGNMENT('3','Layer 3',(#32));
#24=STYLED_ITEM('',(#25),#32);
#25=PRESENTATION_STYLE_ASSIGNMENT((#26));
#26=SURFACE_STYLE_USAGE(.BOTH.,#27);
#27=SURFACE_SIDE_STYLE('',(#28));
#28=SURFACE_STYLE_FILL_AREA(#29);
#29=FILL_AREA_STYLE('',(#30));
#30=FILL_AREA_STYLE_COLOUR('',#31);
#31=DRAUGHTING_PRE_DEFINED_COLOUR('white');
#32=MANIFOLD_SOLID_BREP('',#33);
#33=CLOSED_SHELL('',(#63,#64,#65,#66,#67,#68,#69,#70,#71,#72,#73,#74,#75,
#76,#77,#78,#79,#80,#81,#82,#83,#84,#85,#86,#87,#88));
#34=CYLINDRICAL_SURFACE('',#539,0.3);
#35=CYLINDRICAL_SURFACE('',#540,0.3);
#36=CYLINDRICAL_SURFACE('',#541,0.3);
#37=CYLINDRICAL_SURFACE('',#542,0.3);
#38=FACE_OUTER_BOUND('',#125,.T.);
#39=FACE_OUTER_BOUND('',#126,.T.);
#40=FACE_OUTER_BOUND('',#127,.T.);
#41=FACE_OUTER_BOUND('',#128,.T.);
#42=FACE_OUTER_BOUND('',#129,.T.);
#43=FACE_OUTER_BOUND('',#130,.T.);
#44=FACE_OUTER_BOUND('',#131,.T.);
#45=FACE_OUTER_BOUND('',#132,.T.);
#46=FACE_OUTER_BOUND('',#133,.T.);
#47=FACE_OUTER_BOUND('',#134,.T.);
#48=FACE_OUTER_BOUND('',#135,.T.);
#49=FACE_OUTER_BOUND('',#136,.T.);
#50=FACE_OUTER_BOUND('',#137,.T.);
#51=FACE_OUTER_BOUND('',#138,.T.);
#52=FACE_OUTER_BOUND('',#139,.T.);
#53=FACE_OUTER_BOUND('',#140,.T.);
#54=FACE_OUTER_BOUND('',#141,.T.);
#55=FACE_OUTER_BOUND('',#142,.T.);
#56=FACE_OUTER_BOUND('',#143,.T.);
#57=FACE_OUTER_BOUND('',#144,.T.);
#58=FACE_OUTER_BOUND('',#145,.T.);
#59=FACE_OUTER_BOUND('',#146,.T.);
#60=FACE_OUTER_BOUND('',#147,.T.);
#61=FACE_OUTER_BOUND('',#148,.T.);
#62=FACE_OUTER_BOUND('',#149,.T.);
#63=ADVANCED_FACE('',(#119,#120,#121),#89,.T.);
#64=ADVANCED_FACE('',(#38),#90,.T.);
#65=ADVANCED_FACE('',(#39),#91,.T.);
#66=ADVANCED_FACE('',(#40),#92,.T.);
#67=ADVANCED_FACE('',(#41),#93,.T.);
#68=ADVANCED_FACE('',(#42),#94,.T.);
#69=ADVANCED_FACE('',(#43),#95,.T.);
#70=ADVANCED_FACE('',(#44),#96,.T.);
#71=ADVANCED_FACE('',(#45),#97,.T.);
#72=ADVANCED_FACE('',(#46),#98,.T.);
#73=ADVANCED_FACE('',(#47),#99,.T.);
#74=ADVANCED_FACE('',(#48),#100,.T.);
#75=ADVANCED_FACE('',(#49),#101,.T.);
#76=ADVANCED_FACE('',(#50),#102,.F.);
#77=ADVANCED_FACE('',(#51),#103,.T.);
#78=ADVANCED_FACE('',(#52),#104,.T.);
#79=ADVANCED_FACE('',(#53),#105,.T.);
#80=ADVANCED_FACE('',(#54),#106,.T.);
#81=ADVANCED_FACE('',(#55),#107,.T.);
#82=ADVANCED_FACE('',(#56),#108,.T.);
#83=ADVANCED_FACE('',(#57),#109,.T.);
#84=ADVANCED_FACE('',(#58),#110,.F.);
#85=ADVANCED_FACE('',(#59),#34,.T.);
#86=ADVANCED_FACE('',(#60),#35,.T.);
#87=ADVANCED_FACE('',(#61),#36,.T.);
#88=ADVANCED_FACE('',(#62),#37,.T.);
#89=PLANE('',#513);
#90=PLANE('',#514);
#91=PLANE('',#515);
#92=PLANE('',#516);
#93=PLANE('',#521);
#94=PLANE('',#522);
#95=PLANE('',#523);
#96=PLANE('',#524);
#97=PLANE('',#525);
#98=PLANE('',#526);
#99=PLANE('',#527);
#100=PLANE('',#528);
#101=PLANE('',#529);
#102=PLANE('',#530);
#103=PLANE('',#531);
#104=PLANE('',#532);
#105=PLANE('',#533);
#106=PLANE('',#534);
#107=PLANE('',#535);
#108=PLANE('',#536);
#109=PLANE('',#537);
#110=PLANE('',#538);
#111=CIRCLE('',#509,0.3);
#112=CIRCLE('',#510,0.3);
#113=CIRCLE('',#511,0.3);
#114=CIRCLE('',#512,0.3);
#115=CIRCLE('',#517,0.3);
#116=CIRCLE('',#518,0.3);
#117=CIRCLE('',#519,0.3);
#118=CIRCLE('',#520,0.3);
#119=FACE_BOUND('',#122,.T.);
#120=FACE_BOUND('',#123,.T.);
#121=FACE_BOUND('',#124,.T.);
#122=EDGE_LOOP('',(#150,#151,#152,#153));
#123=EDGE_LOOP('',(#154,#155,#156,#157));
#124=EDGE_LOOP('',(#158,#159,#160,#161,#162,#163,#164,#165));
#125=EDGE_LOOP('',(#166,#167,#168,#169));
#126=EDGE_LOOP('',(#170,#171,#172,#173));
#127=EDGE_LOOP('',(#174,#175,#176,#177));
#128=EDGE_LOOP('',(#178,#179,#180,#181,#182,#183,#184,#185));
#129=EDGE_LOOP('',(#186,#187,#188,#189));
#130=EDGE_LOOP('',(#190,#191,#192,#193,#194,#195,#196));
#131=EDGE_LOOP('',(#197,#198,#199,#200));
#132=EDGE_LOOP('',(#201,#202,#203,#204,#205,#206,#207));
#133=EDGE_LOOP('',(#208,#209,#210,#211));
#134=EDGE_LOOP('',(#212,#213,#214,#215));
#135=EDGE_LOOP('',(#216,#217,#218,#219));
#136=EDGE_LOOP('',(#220,#221,#222,#223));
#137=EDGE_LOOP('',(#224,#225,#226,#227));
#138=EDGE_LOOP('',(#228,#229,#230,#231,#232,#233,#234));
#139=EDGE_LOOP('',(#235,#236,#237,#238));
#140=EDGE_LOOP('',(#239,#240,#241,#242,#243,#244,#245));
#141=EDGE_LOOP('',(#246,#247,#248,#249));
#142=EDGE_LOOP('',(#250,#251,#252,#253));
#143=EDGE_LOOP('',(#254,#255,#256,#257));
#144=EDGE_LOOP('',(#258,#259,#260,#261));
#145=EDGE_LOOP('',(#262,#263,#264,#265));
#146=EDGE_LOOP('',(#266,#267,#268,#269));
#147=EDGE_LOOP('',(#270,#271,#272,#273));
#148=EDGE_LOOP('',(#274,#275,#276,#277));
#149=EDGE_LOOP('',(#278,#279,#280,#281));
#150=ORIENTED_EDGE('',*,*,#326,.F.);
#151=ORIENTED_EDGE('',*,*,#327,.T.);
#152=ORIENTED_EDGE('',*,*,#328,.T.);
#153=ORIENTED_EDGE('',*,*,#329,.F.);
#154=ORIENTED_EDGE('',*,*,#330,.T.);
#155=ORIENTED_EDGE('',*,*,#331,.T.);
#156=ORIENTED_EDGE('',*,*,#332,.F.);
#157=ORIENTED_EDGE('',*,*,#333,.F.);
#158=ORIENTED_EDGE('',*,*,#334,.F.);
#159=ORIENTED_EDGE('',*,*,#335,.T.);
#160=ORIENTED_EDGE('',*,*,#336,.F.);
#161=ORIENTED_EDGE('',*,*,#337,.T.);
#162=ORIENTED_EDGE('',*,*,#338,.F.);
#163=ORIENTED_EDGE('',*,*,#339,.T.);
#164=ORIENTED_EDGE('',*,*,#340,.F.);
#165=ORIENTED_EDGE('',*,*,#341,.T.);
#166=ORIENTED_EDGE('',*,*,#336,.T.);
#167=ORIENTED_EDGE('',*,*,#342,.T.);
#168=ORIENTED_EDGE('',*,*,#343,.T.);
#169=ORIENTED_EDGE('',*,*,#344,.T.);
#170=ORIENTED_EDGE('',*,*,#345,.T.);
#171=ORIENTED_EDGE('',*,*,#346,.T.);
#172=ORIENTED_EDGE('',*,*,#334,.T.);
#173=ORIENTED_EDGE('',*,*,#347,.T.);
#174=ORIENTED_EDGE('',*,*,#340,.T.);
#175=ORIENTED_EDGE('',*,*,#348,.T.);
#176=ORIENTED_EDGE('',*,*,#349,.T.);
#177=ORIENTED_EDGE('',*,*,#350,.T.);
#178=ORIENTED_EDGE('',*,*,#343,.F.);
#179=ORIENTED_EDGE('',*,*,#351,.T.);
#180=ORIENTED_EDGE('',*,*,#345,.F.);
#181=ORIENTED_EDGE('',*,*,#352,.T.);
#182=ORIENTED_EDGE('',*,*,#349,.F.);
#183=ORIENTED_EDGE('',*,*,#353,.T.);
#184=ORIENTED_EDGE('',*,*,#354,.F.);
#185=ORIENTED_EDGE('',*,*,#355,.T.);
#186=ORIENTED_EDGE('',*,*,#338,.T.);
#187=ORIENTED_EDGE('',*,*,#356,.T.);
#188=ORIENTED_EDGE('',*,*,#354,.T.);
#189=ORIENTED_EDGE('',*,*,#357,.T.);
#190=ORIENTED_EDGE('',*,*,#358,.T.);
#191=ORIENTED_EDGE('',*,*,#359,.T.);
#192=ORIENTED_EDGE('',*,*,#360,.F.);
#193=ORIENTED_EDGE('',*,*,#361,.F.);
#194=ORIENTED_EDGE('',*,*,#362,.F.);
#195=ORIENTED_EDGE('',*,*,#330,.F.);
#196=ORIENTED_EDGE('',*,*,#363,.T.);
#197=ORIENTED_EDGE('',*,*,#364,.F.);
#198=ORIENTED_EDGE('',*,*,#365,.F.);
#199=ORIENTED_EDGE('',*,*,#331,.F.);
#200=ORIENTED_EDGE('',*,*,#362,.T.);
#201=ORIENTED_EDGE('',*,*,#366,.T.);
#202=ORIENTED_EDGE('',*,*,#367,.T.);
#203=ORIENTED_EDGE('',*,*,#368,.F.);
#204=ORIENTED_EDGE('',*,*,#369,.F.);
#205=ORIENTED_EDGE('',*,*,#332,.T.);
#206=ORIENTED_EDGE('',*,*,#365,.T.);
#207=ORIENTED_EDGE('',*,*,#370,.T.);
#208=ORIENTED_EDGE('',*,*,#363,.F.);
#209=ORIENTED_EDGE('',*,*,#333,.T.);
#210=ORIENTED_EDGE('',*,*,#369,.T.);
#211=ORIENTED_EDGE('',*,*,#371,.F.);
#212=ORIENTED_EDGE('',*,*,#368,.T.);
#213=ORIENTED_EDGE('',*,*,#372,.T.);
#214=ORIENTED_EDGE('',*,*,#358,.F.);
#215=ORIENTED_EDGE('',*,*,#371,.T.);
#216=ORIENTED_EDGE('',*,*,#370,.F.);
#217=ORIENTED_EDGE('',*,*,#364,.T.);
#218=ORIENTED_EDGE('',*,*,#361,.T.);
#219=ORIENTED_EDGE('',*,*,#373,.F.);
#220=ORIENTED_EDGE('',*,*,#360,.T.);
#221=ORIENTED_EDGE('',*,*,#374,.T.);
#222=ORIENTED_EDGE('',*,*,#366,.F.);
#223=ORIENTED_EDGE('',*,*,#373,.T.);
#224=ORIENTED_EDGE('',*,*,#367,.F.);
#225=ORIENTED_EDGE('',*,*,#374,.F.);
#226=ORIENTED_EDGE('',*,*,#359,.F.);
#227=ORIENTED_EDGE('',*,*,#372,.F.);
#228=ORIENTED_EDGE('',*,*,#375,.T.);
#229=ORIENTED_EDGE('',*,*,#376,.T.);
#230=ORIENTED_EDGE('',*,*,#377,.F.);
#231=ORIENTED_EDGE('',*,*,#378,.F.);
#232=ORIENTED_EDGE('',*,*,#326,.T.);
#233=ORIENTED_EDGE('',*,*,#379,.T.);
#234=ORIENTED_EDGE('',*,*,#380,.T.);
#235=ORIENTED_EDGE('',*,*,#381,.T.);
#236=ORIENTED_EDGE('',*,*,#379,.F.);
#237=ORIENTED_EDGE('',*,*,#329,.T.);
#238=ORIENTED_EDGE('',*,*,#382,.T.);
#239=ORIENTED_EDGE('',*,*,#383,.T.);
#240=ORIENTED_EDGE('',*,*,#384,.T.);
#241=ORIENTED_EDGE('',*,*,#385,.F.);
#242=ORIENTED_EDGE('',*,*,#386,.F.);
#243=ORIENTED_EDGE('',*,*,#382,.F.);
#244=ORIENTED_EDGE('',*,*,#328,.F.);
#245=ORIENTED_EDGE('',*,*,#387,.T.);
#246=ORIENTED_EDGE('',*,*,#378,.T.);
#247=ORIENTED_EDGE('',*,*,#388,.T.);
#248=ORIENTED_EDGE('',*,*,#387,.F.);
#249=ORIENTED_EDGE('',*,*,#327,.F.);
#250=ORIENTED_EDGE('',*,*,#377,.T.);
#251=ORIENTED_EDGE('',*,*,#389,.T.);
#252=ORIENTED_EDGE('',*,*,#383,.F.);
#253=ORIENTED_EDGE('',*,*,#388,.F.);
#254=ORIENTED_EDGE('',*,*,#386,.T.);
#255=ORIENTED_EDGE('',*,*,#390,.T.);
#256=ORIENTED_EDGE('',*,*,#380,.F.);
#257=ORIENTED_EDGE('',*,*,#381,.F.);
#258=ORIENTED_EDGE('',*,*,#385,.T.);
#259=ORIENTED_EDGE('',*,*,#391,.T.);
#260=ORIENTED_EDGE('',*,*,#375,.F.);
#261=ORIENTED_EDGE('',*,*,#390,.F.);
#262=ORIENTED_EDGE('',*,*,#384,.F.);
#263=ORIENTED_EDGE('',*,*,#389,.F.);
#264=ORIENTED_EDGE('',*,*,#376,.F.);
#265=ORIENTED_EDGE('',*,*,#391,.F.);
#266=ORIENTED_EDGE('',*,*,#351,.F.);
#267=ORIENTED_EDGE('',*,*,#342,.F.);
#268=ORIENTED_EDGE('',*,*,#335,.F.);
#269=ORIENTED_EDGE('',*,*,#346,.F.);
#270=ORIENTED_EDGE('',*,*,#355,.F.);
#271=ORIENTED_EDGE('',*,*,#356,.F.);
#272=ORIENTED_EDGE('',*,*,#337,.F.);
#273=ORIENTED_EDGE('',*,*,#344,.F.);
#274=ORIENTED_EDGE('',*,*,#353,.F.);
#275=ORIENTED_EDGE('',*,*,#348,.F.);
#276=ORIENTED_EDGE('',*,*,#339,.F.);
#277=ORIENTED_EDGE('',*,*,#357,.F.);
#278=ORIENTED_EDGE('',*,*,#352,.F.);
#279=ORIENTED_EDGE('',*,*,#347,.F.);
#280=ORIENTED_EDGE('',*,*,#341,.F.);
#281=ORIENTED_EDGE('',*,*,#350,.F.);
#282=VERTEX_POINT('',#673);
#283=VERTEX_POINT('',#674);
#284=VERTEX_POINT('',#676);
#285=VERTEX_POINT('',#678);
#286=VERTEX_POINT('',#681);
#287=VERTEX_POINT('',#682);
#288=VERTEX_POINT('',#684);
#289=VERTEX_POINT('',#686);
#290=VERTEX_POINT('',#689);
#291=VERTEX_POINT('',#690);
#292=VERTEX_POINT('',#692);
#293=VERTEX_POINT('',#694);
#294=VERTEX_POINT('',#696);
#295=VERTEX_POINT('',#698);
#296=VERTEX_POINT('',#700);
#297=VERTEX_POINT('',#702);
#298=VERTEX_POINT('',#706);
#299=VERTEX_POINT('',#708);
#300=VERTEX_POINT('',#712);
#301=VERTEX_POINT('',#713);
#302=VERTEX_POINT('',#718);
#303=VERTEX_POINT('',#720);
#304=VERTEX_POINT('',#726);
#305=VERTEX_POINT('',#728);
#306=VERTEX_POINT('',#735);
#307=VERTEX_POINT('',#736);
#308=VERTEX_POINT('',#738);
#309=VERTEX_POINT('',#740);
#310=VERTEX_POINT('',#742);
#311=VERTEX_POINT('',#747);
#312=VERTEX_POINT('',#751);
#313=VERTEX_POINT('',#752);
#314=VERTEX_POINT('',#754);
#315=VERTEX_POINT('',#756);
#316=VERTEX_POINT('',#770);
#317=VERTEX_POINT('',#771);
#318=VERTEX_POINT('',#773);
#319=VERTEX_POINT('',#775);
#320=VERTEX_POINT('',#778);
#321=VERTEX_POINT('',#782);
#322=VERTEX_POINT('',#786);
#323=VERTEX_POINT('',#787);
#324=VERTEX_POINT('',#789);
#325=VERTEX_POINT('',#791);
#326=EDGE_CURVE('',#282,#283,#392,.T.);
#327=EDGE_CURVE('',#282,#284,#393,.T.);
#328=EDGE_CURVE('',#284,#285,#394,.T.);
#329=EDGE_CURVE('',#283,#285,#395,.T.);
#330=EDGE_CURVE('',#286,#287,#396,.T.);
#331=EDGE_CURVE('',#287,#288,#397,.T.);
#332=EDGE_CURVE('',#289,#288,#398,.T.);
#333=EDGE_CURVE('',#286,#289,#399,.T.);
#334=EDGE_CURVE('',#290,#291,#400,.T.);
#335=EDGE_CURVE('',#290,#292,#111,.T.);
#336=EDGE_CURVE('',#293,#292,#401,.T.);
#337=EDGE_CURVE('',#293,#294,#112,.T.);
#338=EDGE_CURVE('',#295,#294,#402,.T.);
#339=EDGE_CURVE('',#295,#296,#113,.T.);
#340=EDGE_CURVE('',#297,#296,#403,.T.);
#341=EDGE_CURVE('',#297,#291,#114,.T.);
#342=EDGE_CURVE('',#292,#298,#404,.T.);
#343=EDGE_CURVE('',#298,#299,#405,.T.);
#344=EDGE_CURVE('',#299,#293,#406,.T.);
#345=EDGE_CURVE('',#300,#301,#407,.T.);
#346=EDGE_CURVE('',#301,#290,#408,.T.);
#347=EDGE_CURVE('',#291,#300,#409,.T.);
#348=EDGE_CURVE('',#296,#302,#410,.T.);
#349=EDGE_CURVE('',#302,#303,#411,.T.);
#350=EDGE_CURVE('',#303,#297,#412,.T.);
#351=EDGE_CURVE('',#298,#301,#115,.T.);
#352=EDGE_CURVE('',#300,#303,#116,.T.);
#353=EDGE_CURVE('',#302,#304,#117,.T.);
#354=EDGE_CURVE('',#305,#304,#413,.T.);
#355=EDGE_CURVE('',#305,#299,#118,.T.);
#356=EDGE_CURVE('',#294,#305,#414,.T.);
#357=EDGE_CURVE('',#304,#295,#415,.T.);
#358=EDGE_CURVE('',#306,#307,#416,.T.);
#359=EDGE_CURVE('',#307,#308,#417,.T.);
#360=EDGE_CURVE('',#309,#308,#418,.T.);
#361=EDGE_CURVE('',#310,#309,#419,.T.);
#362=EDGE_CURVE('',#287,#310,#420,.T.);
#363=EDGE_CURVE('',#286,#306,#421,.T.);
#364=EDGE_CURVE('',#311,#310,#422,.T.);
#365=EDGE_CURVE('',#288,#311,#423,.T.);
#366=EDGE_CURVE('',#312,#313,#424,.T.);
#367=EDGE_CURVE('',#313,#314,#425,.T.);
#368=EDGE_CURVE('',#315,#314,#426,.T.);
#369=EDGE_CURVE('',#289,#315,#427,.T.);
#370=EDGE_CURVE('',#311,#312,#428,.T.);
#371=EDGE_CURVE('',#306,#315,#429,.T.);
#372=EDGE_CURVE('',#314,#307,#430,.T.);
#373=EDGE_CURVE('',#312,#309,#431,.T.);
#374=EDGE_CURVE('',#308,#313,#432,.T.);
#375=EDGE_CURVE('',#316,#317,#433,.T.);
#376=EDGE_CURVE('',#317,#318,#434,.T.);
#377=EDGE_CURVE('',#319,#318,#435,.T.);
#378=EDGE_CURVE('',#282,#319,#436,.T.);
#379=EDGE_CURVE('',#283,#320,#437,.T.);
#380=EDGE_CURVE('',#320,#316,#438,.T.);
#381=EDGE_CURVE('',#321,#320,#439,.T.);
#382=EDGE_CURVE('',#285,#321,#440,.T.);
#383=EDGE_CURVE('',#322,#323,#441,.T.);
#384=EDGE_CURVE('',#323,#324,#442,.T.);
#385=EDGE_CURVE('',#325,#324,#443,.T.);
#386=EDGE_CURVE('',#321,#325,#444,.T.);
#387=EDGE_CURVE('',#284,#322,#445,.T.);
#388=EDGE_CURVE('',#319,#322,#446,.T.);
#389=EDGE_CURVE('',#318,#323,#447,.T.);
#390=EDGE_CURVE('',#325,#316,#448,.T.);
#391=EDGE_CURVE('',#324,#317,#449,.T.);
#392=LINE('',#672,#450);
#393=LINE('',#675,#451);
#394=LINE('',#677,#452);
#395=LINE('',#679,#453);
#396=LINE('',#680,#454);
#397=LINE('',#683,#455);
#398=LINE('',#685,#456);
#399=LINE('',#687,#457);
#400=LINE('',#688,#458);
#401=LINE('',#693,#459);
#402=LINE('',#697,#460);
#403=LINE('',#701,#461);
#404=LINE('',#705,#462);
#405=LINE('',#707,#463);
#406=LINE('',#709,#464);
#407=LINE('',#711,#465);
#408=LINE('',#714,#466);
#409=LINE('',#715,#467);
#410=LINE('',#717,#468);
#411=LINE('',#719,#469);
#412=LINE('',#721,#470);
#413=LINE('',#727,#471);
#414=LINE('',#731,#472);
#415=LINE('',#732,#473);
#416=LINE('',#734,#474);
#417=LINE('',#737,#475);
#418=LINE('',#739,#476);
#419=LINE('',#741,#477);
#420=LINE('',#743,#478);
#421=LINE('',#744,#479);
#422=LINE('',#746,#480);
#423=LINE('',#748,#481);
#424=LINE('',#750,#482);
#425=LINE('',#753,#483);
#426=LINE('',#755,#484);
#427=LINE('',#757,#485);
#428=LINE('',#758,#486);
#429=LINE('',#760,#487);
#430=LINE('',#762,#488);
#431=LINE('',#764,#489);
#432=LINE('',#766,#490);
#433=LINE('',#769,#491);
#434=LINE('',#772,#492);
#435=LINE('',#774,#493);
#436=LINE('',#776,#494);
#437=LINE('',#777,#495);
#438=LINE('',#779,#496);
#439=LINE('',#781,#497);
#440=LINE('',#783,#498);
#441=LINE('',#785,#499);
#442=LINE('',#788,#500);
#443=LINE('',#790,#501);
#444=LINE('',#792,#502);
#445=LINE('',#793,#503);
#446=LINE('',#795,#504);
#447=LINE('',#797,#505);
#448=LINE('',#799,#506);
#449=LINE('',#801,#507);
#450=VECTOR('',#545,1.);
#451=VECTOR('',#546,1.);
#452=VECTOR('',#547,1.);
#453=VECTOR('',#548,1.);
#454=VECTOR('',#549,1.);
#455=VECTOR('',#550,1.);
#456=VECTOR('',#551,1.);
#457=VECTOR('',#552,1.);
#458=VECTOR('',#553,1.);
#459=VECTOR('',#556,1.);
#460=VECTOR('',#559,1.);
#461=VECTOR('',#562,1.);
#462=VECTOR('',#567,1.);
#463=VECTOR('',#568,1.);
#464=VECTOR('',#569,1.);
#465=VECTOR('',#572,1.);
#466=VECTOR('',#573,1.);
#467=VECTOR('',#574,1.);
#468=VECTOR('',#577,1.);
#469=VECTOR('',#578,1.);
#470=VECTOR('',#579,1.);
#471=VECTOR('',#588,1.);
#472=VECTOR('',#593,1.);
#473=VECTOR('',#594,1.);
#474=VECTOR('',#597,1.);
#475=VECTOR('',#598,1.);
#476=VECTOR('',#599,1.);
#477=VECTOR('',#600,1.);
#478=VECTOR('',#601,1.);
#479=VECTOR('',#602,1.);
#480=VECTOR('',#605,1.);
#481=VECTOR('',#606,1.);
#482=VECTOR('',#609,1.);
#483=VECTOR('',#610,1.);
#484=VECTOR('',#611,1.);
#485=VECTOR('',#612,1.);
#486=VECTOR('',#613,1.);
#487=VECTOR('',#616,1.);
#488=VECTOR('',#619,1.);
#489=VECTOR('',#622,1.);
#490=VECTOR('',#625,1.);
#491=VECTOR('',#630,1.);
#492=VECTOR('',#631,1.);
#493=VECTOR('',#632,1.);
#494=VECTOR('',#633,1.);
#495=VECTOR('',#634,1.);
#496=VECTOR('',#635,1.);
#497=VECTOR('',#638,1.);
#498=VECTOR('',#639,1.);
#499=VECTOR('',#642,1.);
#500=VECTOR('',#643,1.);
#501=VECTOR('',#644,1.);
#502=VECTOR('',#645,1.);
#503=VECTOR('',#646,1.);
#504=VECTOR('',#649,1.);
#505=VECTOR('',#652,1.);
#506=VECTOR('',#655,1.);
#507=VECTOR('',#658,1.);
#508=AXIS2_PLACEMENT_3D('',#671,#543,#544);
#509=AXIS2_PLACEMENT_3D('',#691,#554,#555);
#510=AXIS2_PLACEMENT_3D('',#695,#557,#558);
#511=AXIS2_PLACEMENT_3D('',#699,#560,#561);
#512=AXIS2_PLACEMENT_3D('',#703,#563,#564);
#513=AXIS2_PLACEMENT_3D('',#704,#565,#566);
#514=AXIS2_PLACEMENT_3D('',#710,#570,#571);
#515=AXIS2_PLACEMENT_3D('',#716,#575,#576);
#516=AXIS2_PLACEMENT_3D('',#722,#580,#581);
#517=AXIS2_PLACEMENT_3D('',#723,#582,#583);
#518=AXIS2_PLACEMENT_3D('',#724,#584,#585);
#519=AXIS2_PLACEMENT_3D('',#725,#586,#587);
#520=AXIS2_PLACEMENT_3D('',#729,#589,#590);
#521=AXIS2_PLACEMENT_3D('',#730,#591,#592);
#522=AXIS2_PLACEMENT_3D('',#733,#595,#596);
#523=AXIS2_PLACEMENT_3D('',#745,#603,#604);
#524=AXIS2_PLACEMENT_3D('',#749,#607,#608);
#525=AXIS2_PLACEMENT_3D('',#759,#614,#615);
#526=AXIS2_PLACEMENT_3D('',#761,#617,#618);
#527=AXIS2_PLACEMENT_3D('',#763,#620,#621);
#528=AXIS2_PLACEMENT_3D('',#765,#623,#624);
#529=AXIS2_PLACEMENT_3D('',#767,#626,#627);
#530=AXIS2_PLACEMENT_3D('',#768,#628,#629);
#531=AXIS2_PLACEMENT_3D('',#780,#636,#637);
#532=AXIS2_PLACEMENT_3D('',#784,#640,#641);
#533=AXIS2_PLACEMENT_3D('',#794,#647,#648);
#534=AXIS2_PLACEMENT_3D('',#796,#650,#651);
#535=AXIS2_PLACEMENT_3D('',#798,#653,#654);
#536=AXIS2_PLACEMENT_3D('',#800,#656,#657);
#537=AXIS2_PLACEMENT_3D('',#802,#659,#660);
#538=AXIS2_PLACEMENT_3D('',#803,#661,#662);
#539=AXIS2_PLACEMENT_3D('',#804,#663,#664);
#540=AXIS2_PLACEMENT_3D('',#805,#665,#666);
#541=AXIS2_PLACEMENT_3D('',#806,#667,#668);
#542=AXIS2_PLACEMENT_3D('',#807,#669,#670);
#543=DIRECTION('',(0.,0.,1.));
#544=DIRECTION('',(1.,0.,0.));
#545=DIRECTION('',(1.,0.,0.));
#546=DIRECTION('',(0.,1.,0.));
#547=DIRECTION('',(1.,0.,0.));
#548=DIRECTION('',(0.,1.,0.));
#549=DIRECTION('',(-1.,0.,0.));
#550=DIRECTION('',(0.,1.,0.));
#551=DIRECTION('',(-1.,0.,0.));
#552=DIRECTION('',(0.,1.,0.));
#553=DIRECTION('',(0.,1.,0.));
#554=DIRECTION('',(0.,0.,1.));
#555=DIRECTION('',(1.,0.,0.));
#556=DIRECTION('',(-1.,0.,0.));
#557=DIRECTION('',(0.,0.,1.));
#558=DIRECTION('',(1.,0.,0.));
#559=DIRECTION('',(0.,-1.,0.));
#560=DIRECTION('',(0.,0.,1.));
#561=DIRECTION('',(1.,0.,0.));
#562=DIRECTION('',(1.,0.,0.));
#563=DIRECTION('',(0.,0.,1.));
#564=DIRECTION('',(1.,0.,0.));
#565=DIRECTION('',(0.,0.,1.));
#566=DIRECTION('',(1.,0.,0.));
#567=DIRECTION('',(0.,0.,-1.));
#568=DIRECTION('',(1.,0.,0.));
#569=DIRECTION('',(0.,0.,1.));
#570=DIRECTION('',(0.,-1.,0.));
#571=DIRECTION('',(0.,0.,-1.));
#572=DIRECTION('',(0.,-1.,0.));
#573=DIRECTION('',(0.,0.,1.));
#574=DIRECTION('',(0.,0.,-1.));
#575=DIRECTION('',(-1.,0.,0.));
#576=DIRECTION('',(0.,0.,1.));
#577=DIRECTION('',(0.,0.,-1.));
#578=DIRECTION('',(-1.,0.,0.));
#579=DIRECTION('',(0.,0.,1.));
#580=DIRECTION('',(0.,1.,0.));
#581=DIRECTION('',(0.,0.,1.));
#582=DIRECTION('',(0.,0.,-1.));
#583=DIRECTION('',(-1.,0.,0.));
#584=DIRECTION('',(0.,0.,-1.));
#585=DIRECTION('',(-1.,0.,0.));
#586=DIRECTION('',(0.,0.,-1.));
#587=DIRECTION('',(-1.,0.,0.));
#588=DIRECTION('',(0.,1.,0.));
#589=DIRECTION('',(0.,0.,-1.));
#590=DIRECTION('',(-1.,0.,0.));
#591=DIRECTION('',(0.,0.,-1.));
#592=DIRECTION('',(-1.,0.,0.));
#593=DIRECTION('',(0.,0.,-1.));
#594=DIRECTION('',(0.,0.,1.));
#595=DIRECTION('',(1.,0.,0.));
#596=DIRECTION('',(0.,0.,-1.));
#597=DIRECTION('',(-1.,0.,0.));
#598=DIRECTION('',(-0.707106781186548,0.,-0.707106781186548));
#599=DIRECTION('',(0.,0.,1.));
#600=DIRECTION('',(-1.,0.,0.));
#601=DIRECTION('',(0.,0.,1.));
#602=DIRECTION('',(0.,0.,1.));
#603=DIRECTION('',(0.,-1.,0.));
#604=DIRECTION('',(0.,0.,-1.));
#605=DIRECTION('',(0.,-1.,0.));
#606=DIRECTION('',(0.,0.,1.));
#607=DIRECTION('',(-1.,0.,0.));
#608=DIRECTION('',(0.,0.,1.));
#609=DIRECTION('',(0.,0.,1.));
#610=DIRECTION('',(0.707106781186548,0.,0.707106781186548));
#611=DIRECTION('',(-1.,0.,0.));
#612=DIRECTION('',(0.,0.,1.));
#613=DIRECTION('',(-1.,0.,0.));
#614=DIRECTION('',(0.,1.,0.));
#615=DIRECTION('',(0.,0.,1.));
#616=DIRECTION('',(0.,1.,0.));
#617=DIRECTION('',(1.,0.,0.));
#618=DIRECTION('',(0.,0.,-1.));
#619=DIRECTION('',(0.,-1.,0.));
#620=DIRECTION('',(0.,0.,1.));
#621=DIRECTION('',(1.,0.,0.));
#622=DIRECTION('',(0.,-1.,0.));
#623=DIRECTION('',(0.,0.,-1.));
#624=DIRECTION('',(-1.,0.,0.));
#625=DIRECTION('',(0.,1.,0.));
#626=DIRECTION('',(-1.,0.,0.));
#627=DIRECTION('',(0.,0.,1.));
#628=DIRECTION('',(0.707106781186547,0.,-0.707106781186547));
#629=DIRECTION('',(-0.707106781186548,0.,-0.707106781186548));
#630=DIRECTION('',(0.,0.,1.));
#631=DIRECTION('',(-0.707106781186548,0.,0.707106781186548));
#632=DIRECTION('',(1.,0.,0.));
#633=DIRECTION('',(0.,0.,1.));
#634=DIRECTION('',(0.,0.,1.));
#635=DIRECTION('',(1.,0.,0.));
#636=DIRECTION('',(0.,-1.,0.));
#637=DIRECTION('',(0.,0.,-1.));
#638=DIRECTION('',(0.,-1.,0.));
#639=DIRECTION('',(0.,0.,1.));
#640=DIRECTION('',(1.,0.,0.));
#641=DIRECTION('',(0.,0.,1.));
#642=DIRECTION('',(1.,0.,0.));
#643=DIRECTION('',(0.707106781186548,0.,-0.707106781186548));
#644=DIRECTION('',(0.,0.,1.));
#645=DIRECTION('',(1.,0.,0.));
#646=DIRECTION('',(0.,0.,1.));
#647=DIRECTION('',(0.,1.,0.));
#648=DIRECTION('',(0.,0.,1.));
#649=DIRECTION('',(0.,1.,0.));
#650=DIRECTION('',(-1.,0.,0.));
#651=DIRECTION('',(0.,0.,-1.));
#652=DIRECTION('',(0.,1.,0.));
#653=DIRECTION('',(0.,0.,1.));
#654=DIRECTION('',(-1.,0.,0.));
#655=DIRECTION('',(0.,-1.,0.));
#656=DIRECTION('',(0.,0.,-1.));
#657=DIRECTION('',(1.,0.,0.));
#658=DIRECTION('',(0.,-1.,0.));
#659=DIRECTION('',(1.,0.,0.));
#660=DIRECTION('',(0.,0.,1.));
#661=DIRECTION('',(-0.707106781186547,0.,-0.707106781186547));
#662=DIRECTION('',(-0.707106781186548,0.,0.707106781186548));
#663=DIRECTION('',(0.,0.,1.));
#664=DIRECTION('',(1.,0.,0.));
#665=DIRECTION('',(0.,0.,1.));
#666=DIRECTION('',(1.,0.,0.));
#667=DIRECTION('',(0.,0.,1.));
#668=DIRECTION('',(1.,0.,0.));
#669=DIRECTION('',(0.,0.,1.));
#670=DIRECTION('',(1.,0.,0.));
#671=CARTESIAN_POINT('',(0.,0.,0.));
#672=CARTESIAN_POINT('',(6.9,0.6,1.));
#673=CARTESIAN_POINT('',(6.9,0.6,1.));
#674=CARTESIAN_POINT('',(7.6,0.6,1.));
#675=CARTESIAN_POINT('',(6.9,0.6,1.));
#676=CARTESIAN_POINT('',(6.9,5.4,1.));
#677=CARTESIAN_POINT('',(6.9,5.4,1.));
#678=CARTESIAN_POINT('',(7.6,5.4,1.));
#679=CARTESIAN_POINT('',(7.6,0.6,1.));
#680=CARTESIAN_POINT('',(3.1,0.6,1.));
#681=CARTESIAN_POINT('',(3.1,0.6,1.));
#682=CARTESIAN_POINT('',(2.4,0.6,1.));
#683=CARTESIAN_POINT('',(2.4,0.6,1.));
#684=CARTESIAN_POINT('',(2.4,5.4,1.));
#685=CARTESIAN_POINT('',(3.1,5.4,1.));
#686=CARTESIAN_POINT('',(3.1,5.4,1.));
#687=CARTESIAN_POINT('',(3.1,0.6,1.));
#688=CARTESIAN_POINT('',(0.,3.,1.));
#689=CARTESIAN_POINT('',(0.,0.3,1.));
#690=CARTESIAN_POINT('',(0.,5.7,1.));
#691=CARTESIAN_POINT('',(0.3,0.3,1.));
#692=CARTESIAN_POINT('',(0.3,0.,1.));
#693=CARTESIAN_POINT('',(5.,0.,1.));
#694=CARTESIAN_POINT('',(9.7,0.,1.));
#695=CARTESIAN_POINT('',(9.7,0.3,1.));
#696=CARTESIAN_POINT('',(10.,0.3,1.));
#697=CARTESIAN_POINT('',(10.,3.,1.));
#698=CARTESIAN_POINT('',(10.,5.7,1.));
#699=CARTESIAN_POINT('',(9.7,5.7,1.));
#700=CARTESIAN_POINT('',(9.7,6.,1.));
#701=CARTESIAN_POINT('',(5.,6.,1.));
#702=CARTESIAN_POINT('',(0.3,6.,1.));
#703=CARTESIAN_POINT('',(0.3,5.7,1.));
#704=CARTESIAN_POINT('',(5.,3.,1.));
#705=CARTESIAN_POINT('',(0.3,0.,0.));
#706=CARTESIAN_POINT('',(0.3,0.,0.));
#707=CARTESIAN_POINT('',(5.,0.,0.));
#708=CARTESIAN_POINT('',(9.7,0.,0.));
#709=CARTESIAN_POINT('',(9.7,0.,0.));
#710=CARTESIAN_POINT('',(5.,0.,0.));
#711=CARTESIAN_POINT('',(0.,3.,0.));
#712=CARTESIAN_POINT('',(0.,5.7,0.));
#713=CARTESIAN_POINT('',(0.,0.3,0.));
#714=CARTESIAN_POINT('',(0.,0.3,0.));
#715=CARTESIAN_POINT('',(0.,5.7,0.));
#716=CARTESIAN_POINT('',(0.,3.,0.));
#717=CARTESIAN_POINT('',(9.7,6.,0.));
#718=CARTESIAN_POINT('',(9.7,6.,0.));
#719=CARTESIAN_POINT('',(5.,6.,0.));
#720=CARTESIAN_POINT('',(0.3,6.,0.));
#721=CARTESIAN_POINT('',(0.3,6.,0.));
#722=CARTESIAN_POINT('',(5.,6.,0.));
#723=CARTESIAN_POINT('',(0.3,0.3,0.));
#724=CARTESIAN_POINT('',(0.3,5.7,0.));
#725=CARTESIAN_POINT('',(9.7,5.7,0.));
#726=CARTESIAN_POINT('',(10.,5.7,0.));
#727=CARTESIAN_POINT('',(10.,3.,0.));
#728=CARTESIAN_POINT('',(10.,0.3,0.));
#729=CARTESIAN_POINT('',(9.7,0.3,0.));
#730=CARTESIAN_POINT('',(5.,3.,0.));
#731=CARTESIAN_POINT('',(10.,0.3,0.));
#732=CARTESIAN_POINT('',(10.,5.7,0.));
#733=CARTESIAN_POINT('',(10.,3.,0.));
#734=CARTESIAN_POINT('',(3.1,0.6,4.3));
#735=CARTESIAN_POINT('',(3.1,0.6,4.3));
#736=CARTESIAN_POINT('',(2.4,0.6,4.3));
#737=CARTESIAN_POINT('',(1.1,0.6,3.));
#738=CARTESIAN_POINT('',(1.8,0.600000000000001,3.7));
#739=CARTESIAN_POINT('',(1.8,0.600000000000001,3.3));
#740=CARTESIAN_POINT('',(1.8,0.600000000000001,3.3));
#741=CARTESIAN_POINT('',(1.8,0.600000000000001,3.3));
#742=CARTESIAN_POINT('',(2.4,0.6,3.3));
#743=CARTESIAN_POINT('',(2.4,0.6,4.3));
#744=CARTESIAN_POINT('',(3.1,0.6,4.3));
#745=CARTESIAN_POINT('',(3.1,0.6,1.));
#746=CARTESIAN_POINT('',(2.4,5.4,3.3));
#747=CARTESIAN_POINT('',(2.4,5.4,3.3));
#748=CARTESIAN_POINT('',(2.4,5.4,4.3));
#749=CARTESIAN_POINT('',(2.4,0.6,1.));
#750=CARTESIAN_POINT('',(1.8,5.4,3.3));
#751=CARTESIAN_POINT('',(1.8,5.4,3.3));
#752=CARTESIAN_POINT('',(1.8,5.4,3.7));
#753=CARTESIAN_POINT('',(0.75,5.4,2.65));
#754=CARTESIAN_POINT('',(2.4,5.4,4.3));
#755=CARTESIAN_POINT('',(3.1,5.4,4.3));
#756=CARTESIAN_POINT('',(3.1,5.4,4.3));
#757=CARTESIAN_POINT('',(3.1,5.4,4.3));
#758=CARTESIAN_POINT('',(1.8,5.4,3.3));
#759=CARTESIAN_POINT('',(2.4,5.4,1.));
#760=CARTESIAN_POINT('',(3.1,0.6,4.3));
#761=CARTESIAN_POINT('',(3.1,5.4,1.));
#762=CARTESIAN_POINT('',(2.4,0.6,4.3));
#763=CARTESIAN_POINT('',(3.1,0.6,4.3));
#764=CARTESIAN_POINT('',(1.8,5.4,3.3));
#765=CARTESIAN_POINT('',(2.4,0.600000000000001,3.3));
#766=CARTESIAN_POINT('',(1.8,5.4,3.7));
#767=CARTESIAN_POINT('',(1.8,5.4,3.3));
#768=CARTESIAN_POINT('',(2.4,0.6,4.3));
#769=CARTESIAN_POINT('',(8.2,0.600000000000001,3.3));
#770=CARTESIAN_POINT('',(8.2,0.600000000000001,3.3));
#771=CARTESIAN_POINT('',(8.2,0.600000000000001,3.7));
#772=CARTESIAN_POINT('',(8.9,0.6,3.));
#773=CARTESIAN_POINT('',(7.6,0.6,4.3));
#774=CARTESIAN_POINT('',(6.9,0.6,4.3));
#775=CARTESIAN_POINT('',(6.9,0.6,4.3));
#776=CARTESIAN_POINT('',(6.9,0.6,4.3));
#777=CARTESIAN_POINT('',(7.6,0.6,4.3));
#778=CARTESIAN_POINT('',(7.6,0.600000000000001,3.3));
#779=CARTESIAN_POINT('',(8.2,0.600000000000001,3.3));
#780=CARTESIAN_POINT('',(6.9,0.6,1.));
#781=CARTESIAN_POINT('',(7.6,5.4,3.3));
#782=CARTESIAN_POINT('',(7.6,5.4,3.3));
#783=CARTESIAN_POINT('',(7.6,5.4,4.3));
#784=CARTESIAN_POINT('',(7.6,0.6,1.));
#785=CARTESIAN_POINT('',(6.9,5.4,4.3));
#786=CARTESIAN_POINT('',(6.9,5.4,4.3));
#787=CARTESIAN_POINT('',(7.6,5.4,4.3));
#788=CARTESIAN_POINT('',(9.25,5.4,2.65));
#789=CARTESIAN_POINT('',(8.2,5.4,3.7));
#790=CARTESIAN_POINT('',(8.2,5.4,3.3));
#791=CARTESIAN_POINT('',(8.2,5.4,3.3));
#792=CARTESIAN_POINT('',(8.2,5.4,3.3));
#793=CARTESIAN_POINT('',(6.9,5.4,4.3));
#794=CARTESIAN_POINT('',(7.6,5.4,1.));
#795=CARTESIAN_POINT('',(6.9,0.6,4.3));
#796=CARTESIAN_POINT('',(6.9,5.4,1.));
#797=CARTESIAN_POINT('',(7.6,0.6,4.3));
#798=CARTESIAN_POINT('',(6.9,0.6,4.3));
#799=CARTESIAN_POINT('',(8.2,5.4,3.3));
#800=CARTESIAN_POINT('',(7.6,0.600000000000001,3.3));
#801=CARTESIAN_POINT('',(8.2,5.4,3.7));
#802=CARTESIAN_POINT('',(8.2,5.4,3.3));
#803=CARTESIAN_POINT('',(8.2,5.4,3.7));
#804=CARTESIAN_POINT('',(0.3,0.3,0.));
#805=CARTESIAN_POINT('',(9.7,0.3,0.));
#806=CARTESIAN_POINT('',(9.7,5.7,0.));
#807=CARTESIAN_POINT('',(0.3,5.7,0.));
#808=MECHANICAL_DESIGN_GEOMETRIC_PRESENTATION_REPRESENTATION('',(#24),#809);
#809=(
GEOMETRIC_REPRESENTATION_CONTEXT(3)
GLOBAL_UNCERTAINTY_ASSIGNED_CONTEXT((#810))
GLOBAL_UNIT_ASSIGNED_CONTEXT((#816,#812,#811))
REPRESENTATION_CONTEXT('b-41F-M\X2\6807793A677F\X0\',
'TOP_LEVEL_ASSEMBLY_PART')
);
#810=UNCERTAINTY_MEASURE_WITH_UNIT(LENGTH_MEASURE(2.E-5),#816,
'DISTANCE_ACCURACY_VALUE','Maximum Tolerance applied to model');
#811=(
NAMED_UNIT(*)
SI_UNIT($,.STERADIAN.)
SOLID_ANGLE_UNIT()
);
#812=(
CONVERSION_BASED_UNIT('DEGREE',#814)
NAMED_UNIT(#813)
PLANE_ANGLE_UNIT()
);
#813=DIMENSIONAL_EXPONENTS(0.,0.,0.,0.,0.,0.,0.);
#814=PLANE_ANGLE_MEASURE_WITH_UNIT(PLANE_ANGLE_MEASURE(0.0174532925),#815);
#815=(
NAMED_UNIT(*)
PLANE_ANGLE_UNIT()
SI_UNIT($,.RADIAN.)
);
#816=(
LENGTH_UNIT()
NAMED_UNIT(*)
SI_UNIT(.MILLI.,.METRE.)
);
ENDSEC;
END-ISO-10303-21;
