  0
SECTION
  2
HEADER
  9
$ACADVER
  1
AC1015
  9
$ACADMAINTVER
 70
     6
  9
$DWGCODEPAGE
  3
ANSI_1251
  9
$INSBASE
 10
0.0
 20
0.0
 30
0.0
  9
$EXTMIN
 10
0.0
 20
0.0
 30
0.0
  9
$EXTMAX
 10
431.8
 20
279.4
 30
0.0
  9
$LIMMIN
 10
0.0
 20
0.0
  9
$LIMMAX
 10
431.8
 20
279.4
  9
$ORTHOMODE
 70
     0
  9
$REGENMODE
 70
     1
  9
$FILLMODE
 70
     1
  9
$QTEXTMODE
 70
     0
  9
$MIRRTEXT
 70
     1
  9
$LTSCALE
 40
1.0
  9
$ATTMODE
 70
     1
  9
$TEXTSIZE
 40
3.5
  9
$TRACEWID
 40
1.0
  9
$TEXTSTYLE
  7
STANDARD
  9
$CLAYER
  8
0
  9
$CELTYPE
  6
ByLayer
  9
$CECOLOR
 62
   256
  9
$CELTSCALE
 40
1.0
  9
$DISPSILH
 70
     0
  9
$DIMSCALE
 40
1.0
  9
$DIMASZ
 40
5.0
  9
$DIMEXO
 40
0.0
  9
$DIMDLI
 40
3.75
  9
$DIMRND
 40
0.0
  9
$DIMDLE
 40
0.0
  9
$DIMEXE
 40
1.0
  9
$DIMTP
 40
0.0
  9
$DIMTM
 40
0.0
  9
$DIMTXT
 40
3.5
  9
$DIMCEN
 40
2.5
  9
$DIMTSZ
 40
0.0
  9
$DIMTOL
 70
     0
  9
$DIMLIM
 70
     0
  9
$DIMTIH
 70
     1
  9
$DIMTOH
 70
     1
  9
$DIMSE1
 70
     0
  9
$DIMSE2
 70
     0
  9
$DIMTAD
 70
     1
  9
$DIMZIN
 70
     0
  9
$DIMBLK
  1

  9
$DIMASO
 70
     1
  9
$DIMSHO
 70
     1
  9
$DIMPOST
  1

  9
$DIMAPOST
  1

  9
$DIMALT
 70
     0
  9
$DIMALTD
 70
     3
  9
$DIMALTF
 40
0.0393700787
  9
$DIMLFAC
 40
1.0
  9
$DIMTOFL
 70
     1
  9
$DIMTVP
 40
0.0
  9
$DIMTIX
 70
     0
  9
$DIMSOXD
 70
     0
  9
$DIMSAH
 70
     0
  9
$DIMBLK1
  1

  9
$DIMBLK2
  1

  9
$DIMSTYLE
  2
ISO-25
  9
$DIMCLRD
 70
     0
  9
$DIMCLRE
 70
     0
  9
$DIMCLRT
 70
     0
  9
$DIMTFAC
 40
1.0
  9
$DIMGAP
 40
1.5
  9
$DIMJUST
 70
     0
  9
$DIMSD1
 70
     0
  9
$DIMSD2
 70
     0
  9
$DIMTOLJ
 70
     0
  9
$DIMTZIN
 70
     0
  9
$DIMALTZ
 70
     0
  9
$DIMALTTZ
 70
     0
  9
$DIMUPT
 70
     0
  9
$DIMDEC
 70
     1
  9
$DIMTDEC
 70
     3
  9
$DIMALTU
 70
     2
  9
$DIMALTTD
 70
     3
  9
$DIMTXSTY
  7
STANDARD
  9
$DIMAUNIT
 70
     0
  9
$DIMADEC
 70
     2
  9
$DIMALTRND
 40
0.0
  9
$DIMAZIN
 70
     0
  9
$DIMDSEP
 70
    44
  9
$DIMATFIT
 70
     3
  9
$DIMFRAC
 70
     0
  9
$DIMLDRBLK
  1

  9
$DIMLUNIT
 70
     2
  9
$DIMLWD
 70
    -2
  9
$DIMLWE
 70
    -2
  9
$DIMTMOVE
 70
     0
  9
$LUNITS
 70
     2
  9
$LUPREC
 70
     1
  9
$SKETCHINC
 40
1.0
  9
$FILLETRAD
 40
0.0
  9
$AUNITS
 70
     0
  9
$AUPREC
 70
     2
  9
$MENU
  1
.
  9
$ELEVATION
 40
0.0
  9
$PELEVATION
 40
0.0
  9
$THICKNESS
 40
0.0
  9
$LIMCHECK
 70
     0
  9
$CHAMFERA
 40
0.0
  9
$CHAMFERB
 40
0.0
  9
$CHAMFERC
 40
0.0
  9
$CHAMFERD
 40
0.0
  9
$SKPOLY
 70
     0
  9
$TDCREATE
 40
2460934.625845324
  9
$TDUCREATE
 40
2460934.500845324
  9
$TDUPDATE
 40
2460934.625846134
  9
$TDUUPDATE
 40
2460934.500846134
  9
$TDINDWG
 40
0.0000000116
  9
$TDUSRTIMER
 40
0.0000000116
  9
$USRTIMER
 70
     1
  9
$ANGBASE
 50
0.0
  9
$ANGDIR
 70
     0
  9
$PDMODE
 70
     0
  9
$PDSIZE
 40
-1.0
  9
$PLINEWID
 40
0.0
  9
$SPLFRAME
 70
     0
  9
$SPLINETYPE
 70
     6
  9
$SPLINESEGS
 70
     8
  9
$HANDSEED
  5
2E2
  9
$SURFTAB1
 70
     6
  9
$SURFTAB2
 70
     6
  9
$SURFTYPE
 70
     6
  9
$SURFU
 70
     6
  9
$SURFV
 70
     6
  9
$UCSBASE
  2

  9
$UCSNAME
  2

  9
$UCSORG
 10
0.0
 20
0.0
 30
0.0
  9
$UCSXDIR
 10
1.0
 20
0.0
 30
0.0
  9
$UCSYDIR
 10
0.0
 20
1.0
 30
0.0
  9
$UCSORTHOREF
  2

  9
$UCSORTHOVIEW
 70
     0
  9
$UCSORGTOP
 10
0.0
 20
0.0
 30
0.0
  9
$UCSORGBOTTOM
 10
0.0
 20
0.0
 30
0.0
  9
$UCSORGLEFT
 10
0.0
 20
0.0
 30
0.0
  9
$UCSORGRIGHT
 10
0.0
 20
0.0
 30
0.0
  9
$UCSORGFRONT
 10
0.0
 20
0.0
 30
0.0
  9
$UCSORGBACK
 10
0.0
 20
0.0
 30
0.0
  9
$PUCSBASE
  2

  9
$PUCSNAME
  2

  9
$PUCSORG
 10
0.0
 20
0.0
 30
0.0
  9
$PUCSXDIR
 10
1.0
 20
0.0
 30
0.0
  9
$PUCSYDIR
 10
0.0
 20
1.0
 30
0.0
  9
$PUCSORTHOREF
  2

  9
$PUCSORTHOVIEW
 70
     0
  9
$PUCSORGTOP
 10
0.0
 20
0.0
 30
0.0
  9
$PUCSORGBOTTOM
 10
0.0
 20
0.0
 30
0.0
  9
$PUCSORGLEFT
 10
0.0
 20
0.0
 30
0.0
  9
$PUCSORGRIGHT
 10
0.0
 20
0.0
 30
0.0
  9
$PUCSORGFRONT
 10
0.0
 20
0.0
 30
0.0
  9
$PUCSORGBACK
 10
0.0
 20
0.0
 30
0.0
  9
$USERI1
 70
     0
  9
$USERI2
 70
     0
  9
$USERI3
 70
     0
  9
$USERI4
 70
     0
  9
$USERI5
 70
     0
  9
$USERR1
 40
0.0
  9
$USERR2
 40
0.0
  9
$USERR3
 40
0.0
  9
$USERR4
 40
0.0
  9
$USERR5
 40
0.0
  9
$WORLDVIEW
 70
     1
  9
$SHADEDGE
 70
     3
  9
$SHADEDIF
 70
    70
  9
$TILEMODE
 70
     1
  9
$MAXACTVP
 70
    64
  9
$PINSBASE
 10
0.0
 20
0.0
 30
0.0
  9
$PLIMCHECK
 70
     0
  9
$PEXTMIN
 10
1.0000000000E+20
 20
1.0000000000E+20
 30
1.0000000000E+20
  9
$PEXTMAX
 10
-1.0000000000E+20
 20
-1.0000000000E+20
 30
-1.0000000000E+20
  9
$PLIMMIN
 10
0.0
 20
0.0
  9
$PLIMMAX
 10
420.0
 20
297.0
  9
$UNITMODE
 70
     0
  9
$VISRETAIN
 70
     1
  9
$PLINEGEN
 70
     0
  9
$PSLTSCALE
 70
     1
  9
$TREEDEPTH
 70
  3020
  9
$CMLSTYLE
  2
Standard
  9
$CMLJUST
 70
     0
  9
$CMLSCALE
 40
20.0
  9
$PROXYGRAPHICS
 70
     1
  9
$MEASUREMENT
 70
     1
  9
$CELWEIGHT
370
    -1
  9
$ENDCAPS
280
     0
  9
$JOINSTYLE
280
     0
  9
$LWDISPLAY
290
     1
  9
$INSUNITS
 70
     4
  9
$HYPERLINKBASE
  1

  9
$STYLESHEET
  1

  9
$XEDIT
290
     1
  9
$CEPSNTYPE
380
     0
  9
$PSTYLEMODE
290
     1
  9
$FINGERPRINTGUID
  2
{acf349e8-9593-47ad-9ec2-d3ed7bc9b7f1}
  9
$VERSIONGUID
  2
{FAEB1C32-E019-11D5-929B-00C0DF256EC4}
  9
$EXTNAMES
290
     1
  9
$PSVPSCALE
 40
0.0
  9
$OLESTARTUP
290
     0
  0
ENDSEC
  0
SECTION
  2
CLASSES
  0
CLASS
  1
ACDBDICTIONARYWDFLT
  2
AcDbDictionaryWithDefault
  3
ObjectDBX Classes
 90
        0
280
     0
281
     0
  0
CLASS
  1
VISUALSTYLE
  2
AcDbVisualStyle
  3
ObjectDBX Classes
 90
     4095
280
     0
281
     0
  0
CLASS
  1
MATERIAL
  2
AcDbMaterial
  3
ObjectDBX Classes
 90
     1153
280
     0
281
     0
  0
CLASS
  1
SCALE
  2
AcDbScale
  3
ObjectDBX Classes
 90
     1153
280
     0
281
     0
  0
CLASS
  1
TABLESTYLE
  2
AcDbTableStyle
  3
ObjectDBX Classes
 90
     4095
280
     0
281
     0
  0
CLASS
  1
MLEADERSTYLE
  2
AcDbMLeaderStyle
  3
ACDB_MLEADERSTYLE_CLASS
 90
     4095
280
     0
281
     0
  0
CLASS
  1
SUN
  2
AcDbSun
  3
SCENEOE
 90
     1153
280
     0
281
     0
  0
CLASS
  1
ACDBPLACEHOLDER
  2
AcDbPlaceHolder
  3
ObjectDBX Classes
 90
        0
280
     0
281
     0
  0
CLASS
  1
LAYOUT
  2
AcDbLayout
  3
ObjectDBX Classes
 90
        0
280
     0
281
     0
  0
ENDSEC
  0
SECTION
  2
TABLES
  0
TABLE
  2
VPORT
  5
8
330
0
100
AcDbSymbolTable
 70
     1
  0
VPORT
  5
29
330
8
100
AcDbSymbolTableRecord
100
AcDbViewportTableRecord
  2
*Active
 70
     0
 10
0.0
 20
0.0
 11
1.0
 21
1.0
 12
215.9
 22
139.7
 13
0.0
 23
0.0
 14
10.0
 24
10.0
 15
10.0
 25
10.0
 16
0.0
 26
0.0
 36
1.0
 17
0.0
 27
0.0
 37
0.0
 40
279.4
 41
1.5454545455
 42
50.0
 43
0.0
 44
0.0
 50
0.0
 51
0.0
 71
     0
 72
  2000
 73
     1
 74
     3
 75
     0
 76
     0
 77
     0
 78
     0
281
     0
 65
     1
110
0.0
120
0.0
130
0.0
111
1.0
121
0.0
131
0.0
112
0.0
122
1.0
132
0.0
 79
     0
146
0.0
  0
ENDTAB
  0
TABLE
  2
LTYPE
  5
5
330
0
100
AcDbSymbolTable
 70
     8
  0
LTYPE
  5
14
330
5
100
AcDbSymbolTableRecord
100
AcDbLinetypeTableRecord
  2
ByBlock
 70
     0
  3

 72
    65
 73
     0
 40
0.0
  0
LTYPE
  5
15
330
5
100
AcDbSymbolTableRecord
100
AcDbLinetypeTableRecord
  2
ByLayer
 70
     0
  3

 72
    65
 73
     0
 40
0.0
  0
LTYPE
  5
16
330
5
100
AcDbSymbolTableRecord
100
AcDbLinetypeTableRecord
  2
Continuous
 70
     0
  3
Solid line
 72
    65
 73
     0
 40
0.0
  0
LTYPE
  5
5E
330
5
100
AcDbSymbolTableRecord
100
AcDbLinetypeTableRecord
  2
SLD-Сплошная
 70
     0
  3
SolidWorks Line Style
 72
    65
 73
     0
 40
0.0
  0
LTYPE
  5
5F
330
5
100
AcDbSymbolTableRecord
100
AcDbLinetypeTableRecord
  2
SLD-Штриховая
 70
     0
  3
SolidWorks Line Style
 72
    65
 73
     2
 40
1.905
 49
1.27
 74
     0
 49
-0.635
 74
     0
  0
LTYPE
  5
60
330
5
100
AcDbSymbolTableRecord
100
AcDbLinetypeTableRecord
  2
SLD-Штрихпункт.-с-двумя-точками
 70
     0
  3
SolidWorks Line Style
 72
    65
 73
     6
 40
12.7
 49
6.35
 74
     0
 49
-1.27
 74
     0
 49
1.27
 74
     0
 49
-1.27
 74
     0
 49
1.27
 74
     0
 49
-1.27
 74
     0
  0
LTYPE
  5
61
330
5
100
AcDbSymbolTableRecord
100
AcDbLinetypeTableRecord
  2
SLD-Штрихпункт.-утолщ.
 70
     0
  3
SolidWorks Line Style
 72
    65
 73
     4
 40
10.16
 49
6.35
 74
     0
 49
-1.27
 74
     0
 49
1.27
 74
     0
 49
-1.27
 74
     0
  0
LTYPE
  5
62
330
5
100
AcDbSymbolTableRecord
100
AcDbLinetypeTableRecord
  2
SLD-Осевая
 70
     0
  3
SolidWorks Line Style
 72
    65
 73
     4
 40
19.05
 49
15.24
 74
     0
 49
-1.27
 74
     0
 49
1.27
 74
     0
 49
-1.27
 74
     0
  0
LTYPE
  5
63
330
5
100
AcDbSymbolTableRecord
100
AcDbLinetypeTableRecord
  2
SLD-Сшитая
 70
     0
  3
SolidWorks Line Style
 72
    65
 73
     2
 40
0.635
 49
0.0
 74
     0
 49
-0.635
 74
     0
  0
LTYPE
  5
64
330
5
100
AcDbSymbolTableRecord
100
AcDbLinetypeTableRecord
  2
SLD-Тонкая-Толстая
 70
     0
  3
SolidWorks Line Style
 72
    65
 73
     2
 40
5.080508
 49
0.000508
 74
     0
 49
-5.08
 74
     0
  0
ENDTAB
  0
TABLE
  2
LAYER
  5
2
330
0
100
AcDbSymbolTable
 70
     3
  0
LAYER
  5
10
330
2
100
AcDbSymbolTableRecord
100
AcDbLayerTableRecord
  2
0
 70
     0
 62
     7
  6
Continuous
370
    -3
390
F
  0
LAYER
  5
65
330
2
100
AcDbSymbolTableRecord
100
AcDbLayerTableRecord
  2
ВОДЯНОЙ_ЗНАК
 70
     0
 62
    11
  6
SLD-Сплошная
370
    -3
390
F
  0
LAYER
  5
66
330
2
100
AcDbSymbolTableRecord
100
AcDbLayerTableRecord
  2
ОСНОВНОЙ
 70
     0
 62
     7
  6
SLD-Сплошная
370
    -3
390
F
  0
ENDTAB
  0
TABLE
  2
STYLE
  5
3
330
0
100
AcDbSymbolTable
 70
     1
  0
STYLE
  5
11
330
3
100
AcDbSymbolTableRecord
100
AcDbTextStyleTableRecord
  2
STANDARD
 70
     0
 40
0.0
 41
1.0
 50
0.0
 71
     0
 42
3.5
  3
GOST-TYPE-A.TTF
  4

1001
ACAD
1000
GOST TYPE A
1071
 16777250
  0
ENDTAB
  0
TABLE
  2
VIEW
  5
6
330
0
100
AcDbSymbolTable
 70
     0
  0
ENDTAB
  0
TABLE
  2
UCS
  5
7
330
0
100
AcDbSymbolTable
 70
     0
  0
ENDTAB
  0
TABLE
  2
APPID
  5
9
330
0
100
AcDbSymbolTable
 70
     1
  0
APPID
  5
12
330
9
100
AcDbSymbolTableRecord
100
AcDbRegAppTableRecord
  2
ACAD
 70
     0
  0
ENDTAB
  0
TABLE
  2
DIMSTYLE
  5
A
330
0
100
AcDbSymbolTable
 70
     1
100
AcDbDimStyleTable
  0
DIMSTYLE
105
27
330
A
100
AcDbSymbolTableRecord
100
AcDbDimStyleTableRecord
  2
ISO-25
 70
     0
 41
2.5
 42
0.625
 43
3.75
 44
1.25
 73
     0
 74
     0
 77
     1
 78
     8
140
2.5
141
2.5
143
0.0393700787
147
0.625
171
     3
172
     1
178
     0
271
     2
272
     2
274
     3
278
    44
283
     0
284
     8
340
11
  0
ENDTAB
  0
TABLE
  2
BLOCK_RECORD
  5
1
330
0
100
AcDbSymbolTable
 70
     1
  0
BLOCK_RECORD
  5
1F
330
1
100
AcDbSymbolTableRecord
100
AcDbBlockTableRecord
  2
*Model_Space
340
22
  0
BLOCK_RECORD
  5
1B
330
1
100
AcDbSymbolTableRecord
100
AcDbBlockTableRecord
  2
*Paper_Space
340
1E
  0
BLOCK_RECORD
  5
23
330
1
100
AcDbSymbolTableRecord
100
AcDbBlockTableRecord
  2
*Paper_Space0
340
26
  0
ENDTAB
  0
ENDSEC
  0
SECTION
  2
BLOCKS
  0
BLOCK
  5
20
330
1F
100
AcDbEntity
  8
0
100
AcDbBlockBegin
  2
*Model_Space
 70
     0
 10
0.0
 20
0.0
 30
0.0
  3
*Model_Space
  1

  0
ENDBLK
  5
21
330
1F
100
AcDbEntity
  8
0
100
AcDbBlockEnd
  0
BLOCK
  5
1C
330
1B
100
AcDbEntity
 67
     1
  8
0
100
AcDbBlockBegin
  2
*Paper_Space
 70
     0
 10
0.0
 20
0.0
 30
0.0
  3
*Paper_Space
  1

  0
ENDBLK
  5
1D
330
1B
100
AcDbEntity
 67
     1
  8
0
100
AcDbBlockEnd
  0
BLOCK
  5
24
330
23
100
AcDbEntity
  8
0
100
AcDbBlockBegin
  2
*Paper_Space0
 70
     0
 10
0.0
 20
0.0
 30
0.0
  3
*Paper_Space0
  1

  0
ENDBLK
  5
25
330
23
100
AcDbEntity
  8
0
100
AcDbBlockEnd
  0
ENDSEC
  0
SECTION
  2
ENTITIES
  0
LINE
  5
67
330
1F
100
AcDbEntity
  8
0
  6
SLD-Сплошная
 62
     7
370
    25
100
AcDbLine
 10
214.9697898237
 20
191.6323932468
 30
0.0
 11
211.3958642665
 21
192.5900237136
 31
0.0
  0
LINE
  5
68
330
1F
100
AcDbEntity
  8
0
  6
SLD-Сплошная
 62
     7
370
    25
100
AcDbLine
 10
179.1230412022
 20
194.8187882727
 30
0.0
 11
165.5517833428
 21
198.4551958563
 31
0.0
  0
LINE
  5
69
330
1F
100
AcDbEntity
  8
0
  6
SLD-Сплошная
 62
     7
370
    25
100
AcDbLine
 10
161.9446405993
 20
133.9922722395
 30
0.0
 11
162.7656775517
 21
133.7722760512
 31
0.0
  0
LINE
  5
6A
330
1F
100
AcDbEntity
  8
0
  6
SLD-Сплошная
 62
     7
370
    25
100
AcDbLine
 10
209.7911861868
 20
186.6012835907
 30
0.0
 11
202.2086684505
 21
188.6330130947
 31
0.0
  0
LINE
  5
6B
330
1F
100
AcDbEntity
  8
0
  6
SLD-Сплошная
 62
     7
370
    25
100
AcDbLine
 10
185.8513048
 20
127.5865008732
 30
0.0
 11
193.4338225364
 21
125.5547713692
 31
0.0
  0
LINE
  5
6C
330
1F
100
AcDbEntity
  8
0
  6
SLD-Сплошная
 62
     7
370
    25
100
AcDbLine
 10
201.9886722621
 20
187.8119761424
 30
0.0
 11
178.9030450138
 21
193.9977513203
 31
0.0
  0
LINE
  5
6D
330
1F
100
AcDbEntity
  8
0
  6
SLD-Сплошная
 62
     7
370
    25
100
AcDbLine
 10
162.98567374
 20
134.5933130035
 30
0.0
 11
186.0713009883
 21
128.4075378256
 31
0.0
  0
LINE
  5
6E
330
1F
100
AcDbEntity
  8
0
  6
SLD-Сплошная
 62
     7
370
    25
100
AcDbLine
 10
190.120938759
 20
113.1909207927
 30
0.0
 11
193.6948643163
 21
112.2332903258
 31
0.0
  0
LINE
  5
6F
330
1F
100
AcDbEntity
  8
0
  6
SLD-Сплошная
 62
     7
370
    25
100
AcDbLine
 10
147.5120958992
 20
131.130165764
 30
0.0
 11
160.2623168062
 21
127.7137543686
 31
0.0
  0
LINE
  5
70
330
1F
100
AcDbEntity
  8
0
  6
SLD-Сплошная
 62
     7
370
    25
100
AcDbLine
 10
301.7896711061
 20
152.2371360372
 30
0.0
 11
301.790834584
 21
152.2657131855
 31
0.0
  0
LINE
  5
71
330
1F
100
AcDbEntity
  8
0
  6
SLD-Сплошная
 62
     7
370
    25
100
AcDbLine
 10
301.7890643309
 20
152.2307728894
 30
0.0
 11
301.7914772702
 21
152.2576667568
 31
0.0
  0
SPLINE
  5
72
330
1F
100
AcDbEntity
  8
0
  6
SLD-Сплошная
 62
     7
370
    25
100
AcDbSpline
210
0.0
220
0.0
230
1.0
 70
     8
 71
     3
 72
    13
 73
     9
 74
     0
 42
0.00000001
 43
0.00000001
 40
0.0
 40
0.0
 40
0.0
 40
0.0
 40
0.1652109362467749
 40
0.303855215535373
 40
0.4999732069759841
 40
0.6961460105488296
 40
0.8347311856070982
 40
0.9999999999999999
 40
0.9999999999999999
 40
0.9999999999999999
 40
0.9999999999999999
 10
301.7912607668267
 20
152.2604506328655
 30
0.0
 10
301.7211552302383
 20
152.6572193103076
 30
0.0
 10
301.5922174406812
 20
153.3869544885031
 30
0.0
 10
300.9500989808504
 20
154.4363535322435
 30
0.0
 10
299.9564095300551
 20
155.2946646127129
 30
0.0
 10
298.7116411826617
 20
155.7134434408848
 30
0.0
 10
297.4813954286765
 20
155.72942629096
 30
0.0
 10
296.7877724018233
 20
155.4688473557199
 30
0.0
 10
296.4105048349545
 20
155.3271162178115
 30
0.0
  0
ARC
  5
73
330
1F
100
AcDbEntity
  8
0
  6
SLD-Сплошная
 62
     7
370
    25
100
AcDbCircle
 10
129.5996218919
 20
-126.9734109256
 30
0.0
 40
328.045
100
AcDbArc
 50
69.0199940367
 51
75.0
  0
ARC
  5
74
330
1F
100
AcDbEntity
  8
0
  6
SLD-Сплошная
 62
     7
370
    25
100
AcDbCircle
 10
129.5996218919
 20
-126.9734109256
 30
0.0
 40
328.045
100
AcDbArc
 50
59.402177154
 51
65.2064472393
  0
ARC
  5
75
330
1F
100
AcDbEntity
  8
0
  6
SLD-Сплошная
 62
     7
370
    25
100
AcDbCircle
 10
129.5996218919
 20
-126.9734109256
 30
0.0
 40
328.045
100
AcDbArc
 50
58.102448518
 51
58.3366285323
  0
LINE
  5
76
330
1F
100
AcDbEntity
  8
0
  6
SLD-Сплошная
 62
     7
370
    25
100
AcDbLine
 10
296.9381235393
 20
111.1701016083
 30
0.0
 11
302.9381235393
 21
111.1701016083
 31
0.0
  0
LINE
  5
77
330
1F
100
AcDbEntity
  8
0
  6
SLD-Сплошная
 62
     7
370
    25
100
AcDbLine
 10
302.9381235393
 20
111.1701016083
 30
0.0
 11
302.9381235393
 21
104.1701016083
 31
0.0
  0
LINE
  5
78
330
1F
100
AcDbEntity
  8
0
  6
SLD-Сплошная
 62
     7
370
    25
100
AcDbLine
 10
302.9381235393
 20
104.1701016083
 30
0.0
 11
296.9381235393
 21
104.1701016083
 31
0.0
  0
LINE
  5
79
330
1F
100
AcDbEntity
  8
0
  6
SLD-Сплошная
 62
     7
370
    25
100
AcDbLine
 10
183.2741362748
 20
104.1701016083
 30
0.0
 11
296.9381235393
 21
104.1701016083
 31
0.0
  0
LINE
  5
7A
330
1F
100
AcDbEntity
  8
0
  6
SLD-Сплошная
 62
     7
370
    25
100
AcDbLine
 10
185.1497806218
 20
111.1701016083
 30
0.0
 11
296.9381235393
 21
111.1701016083
 31
0.0
  0
SPLINE
  5
7B
330
1F
100
AcDbEntity
  8
0
  6
SLD-Сплошная
 62
     7
370
    25
100
AcDbSpline
210
0.0
220
0.0
230
1.0
 70
    24
 71
     3
 72
    22
 73
    18
 74
     0
 42
0.00000001
 43
0.00000001
 40
0.0
 40
0.0
 40
0.0
 40
0.0
 40
0.125
 40
0.125
 40
0.25
 40
0.25
 40
0.375
 40
0.375
 40
0.5
 40
0.5
 40
0.625
 40
0.625
 40
0.75
 40
0.75
 40
0.875
 40
0.875
 40
1.0
 40
1.0
 40
1.0
 40
1.0
 10
183.2741362747616
 20
104.1701016082997
 30
0.0
 10
182.9081108709772
 20
104.1701016082997
 30
0.0
 10
182.5283974114146
 20
104.1701016082997
 30
0.0
 10
181.7592909715846
 20
104.1701016082999
 30
0.0
 10
181.369976186936
 20
104.1701016082998
 30
0.0
 10
180.6053401432547
 20
104.1701016082998
 30
0.0
 10
180.2301738713996
 20
104.1701016082999
 30
0.0
 10
179.519939997711
 20
104.1701016082999
 30
0.0
 10
179.1850568021895
 20
104.1701016082999
 30
0.0
 10
178.5786060565071
 20
104.1701016082999
 30
0.0
 10
178.3071750332572
 20
104.1701016082999
 30
0.0
 10
177.842839325768
 20
104.1701016082999
 30
0.0
 10
177.6499664077302
 20
104.1701016082998
 30
0.0
 10
177.3472539708262
 20
104.1701016082998
 30
0.0
 10
177.2373430284062
 20
104.1701016082998
 30
0.0
 10
177.0950180092245
 20
104.1701016082997
 30
0.0
 10
177.0624791923011
 20
104.1701016082997
 30
0.0
 10
177.0624791923011
 20
104.1701016082997
 30
0.0
  0
LINE
  5
7C
330
1F
100
AcDbEntity
  8
0
  6
SLD-Сплошная
 62
     7
370
    25
100
AcDbLine
 10
177.0624791923
 20
104.1701016083
 30
0.0
 11
178.9381235393
 21
111.1701016083
 31
0.0
  0
SPLINE
  5
7D
330
1F
100
AcDbEntity
  8
0
  6
SLD-Сплошная
 62
     7
370
    25
100
AcDbSpline
210
0.0
220
0.0
230
1.0
 70
    24
 71
     3
 72
    22
 73
    18
 74
     0
 42
0.00000001
 43
0.00000001
 40
0.0
 40
0.0
 40
0.0
 40
0.0
 40
0.125
 40
0.125
 40
0.25
 40
0.25
 40
0.375
 40
0.375
 40
0.5
 40
0.5
 40
0.625
 40
0.625
 40
0.75
 40
0.75
 40
0.875
 40
0.875
 40
1.0
 40
1.0
 40
1.0
 40
1.0
 10
178.938123539319
 20
111.1701016082997
 30
0.0
 10
178.938123539319
 20
111.1701016082997
 30
0.0
 10
178.9706623562424
 20
111.1701016082997
 30
0.0
 10
179.1129873754241
 20
111.1701016082999
 30
0.0
 10
179.2228983178442
 20
111.1701016082998
 30
0.0
 10
179.5256107547481
 20
111.1701016082999
 30
0.0
 10
179.7184836727859
 20
111.1701016082998
 30
0.0
 10
180.1828193802751
 20
111.1701016082999
 30
0.0
 10
180.454250403525
 20
111.1701016082999
 30
0.0
 10
181.0607011492074
 20
111.1701016082999
 30
0.0
 10
181.3955843447289
 20
111.1701016082999
 30
0.0
 10
182.1058182184176
 20
111.1701016082999
 30
0.0
 10
182.4809844902726
 20
111.1701016082998
 30
0.0
 10
183.2456205339539
 20
111.1701016082998
 30
0.0
 10
183.6349353186025
 20
111.1701016082998
 30
0.0
 10
184.4040417584325
 20
111.1701016082998
 30
0.0
 10
184.7837552179951
 20
111.1701016082998
 30
0.0
 10
185.1497806217795
 20
111.1701016082997
 30
0.0
  0
LINE
  5
7E
330
1F
100
AcDbEntity
  8
0
  6
SLD-Сплошная
 62
     7
370
    25
100
AcDbLine
 10
205.1864299189
 20
155.120397013
 30
0.0
 11
202.2033790174
 21
143.9874994873
 31
0.0
  0
LINE
  5
7F
330
1F
100
AcDbEntity
  8
0
  6
SLD-Сплошная
 62
     7
370
    25
100
AcDbLine
 10
195.695070988
 20
119.69816325
 30
0.0
 11
192.1211454307
 21
120.6557937169
 31
0.0
  0
LINE
  5
80
330
1F
100
AcDbEntity
  8
0
  6
SLD-Сплошная
 62
     7
370
    25
100
AcDbLine
 10
201.6125043616
 20
156.0780274799
 30
0.0
 11
192.1211454307
 21
120.6557937169
 31
0.0
  0
LINE
  5
81
330
1F
100
AcDbEntity
  8
0
  6
SLD-Сплошная
 62
     7
370
    25
100
AcDbLine
 10
214.9697898237
 20
191.6323932468
 30
0.0
 11
205.1864299189
 21
155.120397013
 31
0.0
  0
LINE
  5
82
330
1F
100
AcDbEntity
  8
0
  6
SLD-Сплошная
 62
     7
370
    25
100
AcDbLine
 10
211.3958642665
 20
192.5900237136
 30
0.0
 11
201.6125043616
 21
156.0780274799
 31
0.0
  0
SPLINE
  5
83
330
1F
100
AcDbEntity
  8
0
  6
SLD-Сплошная
 62
     7
370
    25
100
AcDbSpline
210
0.0
220
0.0
230
1.0
 70
     8
 71
     3
 72
    29
 73
    25
 74
     0
 42
0.00000001
 43
0.00000001
 40
0.0
 40
0.0
 40
0.0
 40
0.0
 40
0.0386076270487414
 40
0.0771658373174169
 40
0.1156810387437232
 40
0.1541596607523209
 40
0.1926081511183457
 40
0.2310329727852513
 40
0.2694406006447389
 40
0.307837518286547
 40
0.3462302147263178
 40
0.3846251811197673
 40
0.4230289074714658
 40
0.4614478793463836
 40
0.4998885745928189
 40
0.5623785519579582
 40
0.6249944899358509
 40
0.690649355564408
 40
0.7499204893782148
 40
0.799986390113827
 40
0.8499883708352866
 40
0.8999653321452351
 40
0.9499562330506365
 40
1.0
 40
1.0
 40
1.0
 40
1.0
 10
200.8935514104541
 20
139.0991563089292
 30
0.0
 10
201.0777615782506
 20
139.2990977613169
 30
0.0
 10
201.4459461295168
 20
139.6987247461217
 30
0.0
 10
202.0076153004787
 20
140.2887469846339
 30
0.0
 10
202.5756696756415
 20
140.8713322245817
 30
0.0
 10
203.1508099391357
 20
141.4458392000228
 30
0.0
 10
203.7328476830646
 20
142.0124396352169
 30
0.0
 10
204.3218322575975
 20
142.5710877791291
 30
0.0
 10
204.9177492701588
 20
143.1217961124911
 30
0.0
 10
205.520601288675
 20
143.664561552751
 30
0.0
 10
206.1303861523232
 20
144.1993852569327
 30
0.0
 10
206.7471030746487
 20
144.7262671446684
 30
0.0
 10
207.3707498786651
 20
145.2452080254816
 30
0.0
 10
208.0013279309659
 20
145.756206571529
 30
0.0
 10
208.771605596764
 20
146.3640492330621
 30
0.0
 10
209.6877036969627
 20
147.0619533156652
 30
0.0
 10
210.7729687610683
 20
147.8534602269257
 30
0.0
 10
211.8566495228315
 20
148.6081903383999
 30
0.0
 10
212.8887128508532
 20
149.2815078580801
 30
0.0
 10
213.8481483966956
 20
149.8630839276826
 30
0.0
 10
214.7660376191494
 20
150.3861137935182
 30
0.0
 10
215.6979646995853
 20
150.8823889825479
 30
0.0
 10
216.6427071907104
 20
151.3545557233384
 30
0.0
 10
217.2832808337237
 20
151.6469268239861
 30
0.0
 10
217.603736919522
 20
151.7931896300443
 30
0.0
  0
SPLINE
  5
84
330
1F
100
AcDbEntity
  8
0
  6
SLD-Сплошная
 62
     7
370
    25
100
AcDbSpline
210
0.0
220
0.0
230
1.0
 70
     8
 71
     3
 72
    27
 73
    23
 74
     0
 42
0.00000001
 43
0.00000001
 40
0.0
 40
0.0
 40
0.0
 40
0.0
 40
0.0215125926146828
 40
0.0447515670737832
 40
0.0697345712407743
 40
0.0964806295028238
 40
0.1250061613773498
 40
0.1729973849096876
 40
0.2497608359144906
 40
0.3205147884022692
 40
0.3749802654125108
 40
0.4399774473173551
 40
0.4993540803869714
 40
0.6324857298221421
 40
0.74944969417762
 40
0.7901967999810936
 40
0.8292735952183856
 40
0.8666795052786823
 40
0.9024241421802508
 40
0.936531543901413
 40
0.9690449044975142
 40
1.0
 40
1.0
 40
1.0
 40
1.0
 10
228.6016102829176
 20
148.8463183438624
 30
0.0
 10
228.5303838995625
 20
148.865385135056
 30
0.0
 10
228.382215227881
 20
148.9050488241454
 30
0.0
 10
228.1467780821137
 20
148.9680039775615
 30
0.0
 10
227.890430693469
 20
149.0366572484962
 30
0.0
 10
227.6122682829927
 20
149.1112843858496
 30
0.0
 10
227.2498239924803
 20
149.2086592458949
 30
0.0
 10
226.7029190479727
 20
149.3544006831593
 30
0.0
 10
225.9920181436135
 20
149.5456341743662
 30
0.0
 10
225.2439481891851
 20
149.746342562598
 30
0.0
 10
224.5305741885042
 20
149.9370215878803
 30
0.0
 10
223.8532888539232
 20
150.1187906351762
 30
0.0
 10
222.8701144773597
 20
150.3818089090848
 30
0.0
 10
221.6767503381607
 20
150.7033956078498
 30
0.0
 10
220.5577237698251
 20
151.0015313902554
 30
0.0
 10
219.8145496881986
 20
151.2008414149821
 30
0.0
 10
219.3774817534596
 20
151.3179814939489
 30
0.0
 10
218.9663660448442
 20
151.4281785469379
 30
0.0
 10
218.5822738351391
 20
151.5311114882257
 30
0.0
 10
218.2269407370742
 20
151.6263420671953
 30
0.0
 10
217.8998008235613
 20
151.7139986239559
 30
0.0
 10
217.7007962470829
 20
151.7672282558443
 30
0.0
 10
217.6037369195209
 20
151.7931896300443
 30
0.0
  0
SPLINE
  5
85
330
1F
100
AcDbEntity
  8
0
  6
SLD-Сплошная
 62
     7
370
    25
100
AcDbSpline
210
0.0
220
0.0
230
1.0
 70
     8
 71
     3
 72
    34
 73
    30
 74
     0
 42
0.00000001
 43
0.00000001
 40
0.0
 40
0.0
 40
0.0
 40
0.0
 40
0.013947165297729
 40
0.0278739744643295
 40
0.0417851547570146
 40
0.0556854493784022
 40
0.0695796126795849
 40
0.0834724053064447
 40
0.0973685893135856
 40
0.1112729232711617
 40
0.1251901573894532
 40
0.1877625997721918
 40
0.2503482463742945
 40
0.2816630136829994
 40
0.3129693991877701
 40
0.3442534169801438
 40
0.3590283212405659
 40
0.3754885848667541
 40
0.4380101113938218
 40
0.5004832191216593
 40
0.562902231656185
 40
0.6254763669470139
 40
0.6880629756902307
 40
0.7505161849062475
 40
0.8127988012261711
 40
0.8752152467664556
 40
0.8891050429297427
 40
0.9306999610623548
 40
0.9999999999999999
 40
0.9999999999999999
 40
0.9999999999999999
 40
0.9999999999999999
 10
228.6016102829181
 20
148.8463183438625
 30
0.0
 10
228.406710590836
 20
148.8177625392338
 30
0.0
 10
228.0171956661734
 20
148.7606926076716
 30
0.0
 10
227.4353010596567
 20
148.6615394875831
 30
0.0
 10
226.855794594152
 20
148.5525521175225
 30
0.0
 10
226.2788093270641
 20
148.4327555813715
 30
0.0
 10
225.7043138591355
 20
148.3024098004463
 30
0.0
 10
225.1323200042135
 20
148.1614439456161
 30
0.0
 10
224.5628303883162
 20
148.0098772538853
 30
0.0
 10
223.9958406397686
 20
147.8476993943322
 30
0.0
 10
222.7739072730201
 20
147.4736863954977
 30
0.0
 10
220.9225829565107
 20
146.8028752417707
 30
0.0
 10
218.9095480311198
 20
145.8764242162537
 30
0.0
 10
217.3490800051851
 20
145.0372761632719
 30
0.0
 10
216.2055663223982
 20
144.3599593059838
 30
0.0
 10
215.2875121790655
 20
143.7629810995015
 30
0.0
 10
214.5606270043572
 20
143.2586048285872
 30
0.0
 10
213.4795952363962
 20
142.4893436052088
 30
0.0
 10
211.8815650598848
 20
141.2821973579687
 30
0.0
 10
209.8422945165985
 20
139.584453050517
 30
0.0
 10
207.8839609747414
 20
137.792623621139
 30
0.0
 10
206.0104211767291
 20
135.9099453240924
 30
0.0
 10
204.2257904772254
 20
133.9420296172948
 30
0.0
 10
202.5383713812558
 20
131.8954778913034
 30
0.0
 10
200.949092856287
 20
129.7747247994925
 30
0.0
 10
199.8503265952985
 20
128.1486631039838
 30
0.0
 10
198.9489270527963
 20
126.7441399389125
 30
0.0
 10
197.9914434322577
 20
125.2598095207139
 30
0.0
 10
197.1416853904547
 20
123.9399695138207
 30
0.0
 10
196.6106579484473
 20
123.1151803053157
 30
0.0
  0
SPLINE
  5
86
330
1F
100
AcDbEntity
  8
0
  6
SLD-Сплошная
 62
     7
370
    25
100
AcDbSpline
210
0.0
220
0.0
230
1.0
 70
     8
 71
     3
 72
    36
 73
    32
 74
     0
 42
0.00000001
 43
0.00000001
 40
0.0
 40
0.0
 40
0.0
 40
0.0
 40
0.0141581473034112
 40
0.028868206271221
 40
0.0441393177331787
 40
0.0599762153172234
 40
0.0763826665364048
 40
0.0933643497641059
 40
0.1109256736505205
 40
0.1290699643445851
 40
0.1477996316438135
 40
0.1671163171469101
 40
0.1870210271685354
 40
0.2075142528452728
 40
0.2285960795420174
 40
0.2502662873732684
 40
0.3065175776838193
 40
0.3669110098472785
 40
0.4314314782283004
 40
0.5000608205765626
 40
0.5608689902227021
 40
0.624881431895081
 40
0.6560730712135056
 40
0.6872709529793004
 40
0.7497146255485453
 40
0.8159194891526118
 40
0.8749183224063939
 40
0.9095426686630046
 40
0.9419198721602368
 40
0.9720656008376805
 40
1.0
 40
1.0
 40
1.0
 40
1.0
 10
200.8935514104544
 20
139.0991563089289
 30
0.0
 10
200.8756325452866
 20
139.0323376809198
 30
0.0
 10
200.8390963033105
 20
138.8960957069672
 30
0.0
 10
200.781627902323
 20
138.6821604266982
 30
0.0
 10
200.7210945896438
 20
138.4564937329718
 30
0.0
 10
200.657398962969
 20
138.2186947560971
 30
0.0
 10
200.5905321723566
 20
137.969056423092
 30
0.0
 10
200.5205358050987
 20
137.7076875211847
 30
0.0
 10
200.4474349158949
 20
137.4347285642343
 30
0.0
 10
200.3712611968631
 20
137.1503081525973
 30
0.0
 10
200.2920471723221
 20
136.8545597796084
 30
0.0
 10
200.2098274692453
 20
136.5476167684641
 30
0.0
 10
200.1246372873461
 20
136.229613315417
 30
0.0
 10
200.0365147277252
 20
135.9006838748279
 30
0.0
 10
199.9454899906941
 20
135.5609626247923
 30
0.0
 10
199.8025441538819
 20
135.0273751593978
 30
0.0
 10
199.6015285905565
 20
134.2781622088767
 30
0.0
 10
199.3371195542486
 20
133.2928213869961
 30
0.0
 10
199.0547060444232
 20
132.2378823383911
 30
0.0
 10
198.771913185957
 20
131.1805117334304
 30
0.0
 10
198.4893566392318
 20
130.127550256495
 30
0.0
 10
198.2625319244718
 20
129.2798688777056
 30
0.0
 10
198.0787919911664
 20
128.594474118147
 30
0.0
 10
197.8978026987254
 20
127.9184497157517
 30
0.0
 10
197.6663584819649
 20
127.0553448841449
 30
0.0
 10
197.3964985356422
 20
126.0476159793007
 30
0.0
 10
197.1682154801214
 20
125.1961619339186
 30
0.0
 10
196.9900607912357
 20
124.5309144582796
 30
0.0
 10
196.8540157278676
 20
124.0225300072117
 30
0.0
 10
196.7282316122935
 20
123.5535946111159
 30
0.0
 10
196.6488416108069
 20
123.257561373298
 30
0.0
 10
196.610657948451
 20
123.1151803053132
 30
0.0
  0
SPLINE
  5
87
330
1F
100
AcDbEntity
  8
0
  6
SLD-Сплошная
 62
     7
370
    25
100
AcDbSpline
210
0.0
220
0.0
230
1.0
 70
     8
 71
     3
 72
     8
 73
     4
 74
     0
 42
0.00000001
 43
0.00000001
 40
0.0
 40
0.0
 40
0.0
 40
0.0
 40
1.0
 40
1.0
 40
1.0
 40
1.0
 10
203.2647071865864
 20
146.789319146567
 30
0.0
 10
203.1682148941416
 20
146.8155730670912
 30
0.0
 10
203.0716718001357
 20
146.841641180279
 30
0.0
 10
202.9750790281502
 20
146.8675231355272
 30
0.0
  0
LINE
  5
88
330
1F
100
AcDbEntity
  8
0
  6
SLD-Сплошная
 62
     7
370
    25
100
AcDbLine
 10
205.4762076668
 20
155.0427512995
 30
0.0
 11
217.6037369195
 21
151.79318963
 31
0.0
  0
LINE
  5
89
330
1F
100
AcDbEntity
  8
0
  6
SLD-Сплошная
 62
     7
370
    25
100
AcDbLine
 10
200.8935514105
 20
139.0991563089
 30
0.0
 11
202.2033790174
 21
143.9874994873
 31
0.0
  0
LINE
  5
8A
330
1F
100
AcDbEntity
  8
0
  6
SLD-Сплошная
 62
     7
370
    25
100
AcDbLine
 10
302.9381235393
 20
128.9279096487
 30
0.0
 11
228.6016102829
 21
148.8463183439
 31
0.0
  0
LINE
  5
8B
330
1F
100
AcDbEntity
  8
0
  6
SLD-Сплошная
 62
     7
370
    25
100
AcDbLine
 10
193.4099837581
 20
111.1701016083
 30
0.0
 11
196.6106579484
 21
123.1151803053
 31
0.0
  0
SPLINE
  5
8C
330
1F
100
AcDbEntity
  8
0
  6
SLD-Сплошная
 62
     7
370
    25
100
AcDbSpline
210
0.0
220
0.0
230
1.0
 70
    24
 71
     3
 72
     8
 73
     4
 74
     0
 42
0.00000001
 43
0.00000001
 40
0.0
 40
0.0
 40
0.0
 40
0.0
 40
1.0
 40
1.0
 40
1.0
 40
1.0
 10
302.9381235393192
 20
111.1701016082992
 30
0.0
 10
302.9381235393189
 20
117.0746805510694
 30
0.0
 10
302.9381235393189
 20
122.9942724920271
 30
0.0
 10
302.9381235393192
 20
128.9279096486638
 30
0.0
  0
LINE
  5
8D
330
1F
100
AcDbEntity
  8
0
  6
SLD-Сплошная
 62
     7
370
    25
100
AcDbLine
 10
205.1864299189
 20
155.120397013
 30
0.0
 11
205.4762076668
 21
155.0427512995
 31
0.0
  0
LINE
  5
8E
330
1F
100
AcDbEntity
  8
0
  6
SLD-Сплошная
 62
     7
370
    25
100
AcDbLine
 10
161.9815811664
 20
134.1301363126
 30
0.0
 11
149.2313602594
 21
137.5465477079
 31
0.0
  0
LINE
  5
8F
330
1F
100
AcDbEntity
  8
0
  6
SLD-Сплошная
 62
     7
370
    25
100
AcDbLine
 10
179.1230412022
 20
194.8187882727
 30
0.0
 11
162.7656775517
 21
133.7722760512
 31
0.0
  0
LINE
  5
90
330
1F
100
AcDbEntity
  8
0
  6
SLD-Сплошная
 62
     7
370
    25
100
AcDbLine
 10
165.5517833428
 20
198.4551958563
 30
0.0
 11
157.3731015176
 21
167.9319397456
 31
0.0
  0
LINE
  5
91
330
1F
100
AcDbEntity
  8
0
  6
SLD-Сплошная
 62
     7
370
    25
100
AcDbLine
 10
157.3731015176
 20
167.9319397456
 30
0.0
 11
149.2313602594
 21
137.5465477079
 31
0.0
  0
LINE
  5
92
330
1F
100
AcDbEntity
  8
0
  6
SLD-Сплошная
 62
     7
370
    25
100
AcDbLine
 10
202.2086684505
 20
188.6330130947
 30
0.0
 11
185.8513048
 21
127.5865008732
 31
0.0
  0
LINE
  5
93
330
1F
100
AcDbEntity
  8
0
  6
SLD-Сплошная
 62
     7
370
    25
100
AcDbLine
 10
177.1995232629
 20
163.7610146637
 30
0.0
 11
174.384911337
 21
153.2567399528
 31
0.0
  0
LINE
  5
94
330
1F
100
AcDbEntity
  8
0
  6
SLD-Сплошная
 62
     7
370
    25
100
AcDbLine
 10
180.2244269642
 20
162.9504941598
 30
0.0
 11
177.1995232629
 21
163.7610146637
 31
0.0
  0
LINE
  5
95
330
1F
100
AcDbEntity
  8
0
  6
SLD-Сплошная
 62
     7
370
    25
100
AcDbLine
 10
174.384911337
 20
153.2567399528
 30
0.0
 11
177.4098150383
 21
152.4462194488
 31
0.0
  0
LINE
  5
96
330
1F
100
AcDbEntity
  8
0
  6
SLD-Сплошная
 62
     7
370
    25
100
AcDbLine
 10
180.2244269642
 20
162.9504941598
 30
0.0
 11
177.4098150383
 21
152.4462194488
 31
0.0
  0
LINE
  5
97
330
1F
100
AcDbEntity
  8
0
  6
SLD-Сплошная
 62
     7
370
    25
100
AcDbLine
 10
184.2576441067
 20
161.8697968836
 30
0.0
 11
181.2327404054
 21
162.6803173875
 31
0.0
  0
LINE
  5
98
330
1F
100
AcDbEntity
  8
0
  6
SLD-Сплошная
 62
     7
370
    25
100
AcDbLine
 10
183.3631629005
 20
154.4982938106
 30
0.0
 11
182.3548494593
 21
154.7684705829
 31
0.0
  0
LINE
  5
99
330
1F
100
AcDbEntity
  8
0
  6
SLD-Сплошная
 62
     7
370
    25
100
AcDbLine
 10
185.2659575479
 20
161.5996201113
 30
0.0
 11
183.3631629005
 21
154.4982938106
 31
0.0
  0
LINE
  5
9A
330
1F
100
AcDbEntity
  8
0
  6
SLD-Сплошная
 62
     7
370
    25
100
AcDbLine
 10
188.2908612493
 20
160.7890996073
 30
0.0
 11
185.2659575479
 21
161.5996201113
 31
0.0
  0
LINE
  5
9B
330
1F
100
AcDbEntity
  8
0
  6
SLD-Сплошная
 62
     7
370
    25
100
AcDbLine
 10
178.4181284795
 20
152.1760426765
 30
0.0
 11
185.4762493234
 21
150.2848248963
 31
0.0
  0
LINE
  5
9C
330
1F
100
AcDbEntity
  8
0
  6
SLD-Сплошная
 62
     7
370
    25
100
AcDbLine
 10
181.2327404054
 20
162.6803173875
 30
0.0
 11
178.4181284795
 21
152.1760426765
 31
0.0
  0
LINE
  5
9D
330
1F
100
AcDbEntity
  8
0
  6
SLD-Сплошная
 62
     7
370
    25
100
AcDbLine
 10
184.2576441067
 20
161.8697968836
 30
0.0
 11
182.3548494593
 21
154.7684705829
 31
0.0
  0
LINE
  5
9E
330
1F
100
AcDbEntity
  8
0
  6
SLD-Сплошная
 62
     7
370
    25
100
AcDbLine
 10
188.2908612493
 20
160.7890996073
 30
0.0
 11
185.4762493234
 21
150.2848248963
 31
0.0
  0
LINE
  5
9F
330
1F
100
AcDbEntity
  8
0
  6
SLD-Сплошная
 62
     7
370
    25
100
AcDbLine
 10
167.2438074235
 20
147.2264944682
 30
0.0
 11
188.6455039813
 21
141.4919271589
 31
0.0
  0
LINE
  5
A0
330
1F
100
AcDbEntity
  8
0
  6
SLD-Сплошная
 62
     7
370
    25
100
AcDbLine
 10
197.6853890724
 20
175.2292376136
 30
0.0
 11
176.2836925146
 21
180.9638049229
 31
0.0
  0
LINE
  5
A1
330
1F
100
AcDbEntity
  8
0
  6
SLD-Сплошная
 62
     7
370
    25
100
AcDbLine
 10
176.2836925146
 20
180.9638049229
 30
0.0
 11
167.2438074235
 21
147.2264944682
 31
0.0
  0
LINE
  5
A2
330
1F
100
AcDbEntity
  8
0
  6
SLD-Сплошная
 62
     7
370
    25
100
AcDbLine
 10
197.6853890724
 20
175.2292376136
 30
0.0
 11
188.6455039813
 21
141.4919271589
 31
0.0
  0
LINE
  5
A3
330
1F
100
AcDbEntity
  8
0
  6
SLD-Сплошная
 62
     7
370
    25
100
AcDbLine
 10
178.4063271354
 20
168.2648680307
 30
0.0
 11
177.4693048689
 21
164.7678533246
 31
0.0
  0
LINE
  5
A4
330
1F
100
AcDbEntity
  8
0
  6
SLD-Сплошная
 62
     7
370
    25
100
AcDbLine
 10
183.8103923822
 20
166.816853112
 30
0.0
 11
178.4063271354
 21
168.2648680307
 31
0.0
  0
LINE
  5
A5
330
1F
100
AcDbEntity
  8
0
  6
SLD-Сплошная
 62
     7
370
    25
100
AcDbLine
 10
183.841566717
 20
166.9331973135
 30
0.0
 11
183.8103923822
 21
166.816853112
 31
0.0
  0
SPLINE
  5
A6
330
1F
100
AcDbEntity
  8
0
  6
SLD-Сплошная
 62
     7
370
    25
100
AcDbSpline
210
0.0
220
0.0
230
1.0
 70
     8
 71
     3
 72
     8
 73
     4
 74
     0
 42
0.00000001
 43
0.00000001
 40
0.0
 40
0.0
 40
0.0
 40
0.0
 40
1.0
 40
1.0
 40
1.0
 40
1.0
 10
179.604239756553
 20
172.7355387960278
 30
0.0
 10
181.0260800906425
 20
170.8346192458704
 30
0.0
 10
182.4366075154578
 20
168.8953443747759
 30
0.0
 10
183.841566717027
 20
166.9331973134652
 30
0.0
  0
LINE
  5
A7
330
1F
100
AcDbEntity
  8
0
  6
SLD-Сплошная
 62
     7
370
    25
100
AcDbLine
 10
180.5711857747
 20
176.3442304638
 30
0.0
 11
179.6042397566
 21
172.735538796
 31
0.0
  0
SPLINE
  5
A8
330
1F
100
AcDbEntity
  8
0
  6
SLD-Сплошная
 62
     7
370
    25
100
AcDbSpline
210
0.0
220
0.0
230
1.0
 70
     8
 71
     3
 72
     8
 73
     4
 74
     0
 42
0.00000001
 43
0.00000001
 40
0.0
 40
0.0
 40
0.0
 40
0.0
 40
1.0
 40
1.0
 40
1.0
 40
1.0
 10
184.9735576231848
 20
170.5914299034728
 30
0.0
 10
183.518154119958
 20
172.5535547813516
 30
0.0
 10
182.0527150227186
 20
174.476467869467
 30
0.0
 10
180.5711857746712
 20
176.3442304638214
 30
0.0
  0
SPLINE
  5
A9
330
1F
100
AcDbEntity
  8
0
  6
SLD-Сплошная
 62
     7
370
    25
100
AcDbSpline
210
0.0
220
0.0
230
1.0
 70
     8
 71
     3
 72
     8
 73
     4
 74
     0
 42
0.00000001
 43
0.00000001
 40
0.0
 40
0.0
 40
0.0
 40
0.0
 40
1.0
 40
1.0
 40
1.0
 40
1.0
 10
191.6625237610729
 20
173.3723154073844
 30
0.0
 10
189.4456001649331
 20
172.4955500444821
 30
0.0
 10
187.2150367514692
 20
171.5629782640752
 30
0.0
 10
184.9735576231848
 20
170.5914299034728
 30
0.0
  0
LINE
  5
AA
330
1F
100
AcDbEntity
  8
0
  6
SLD-Сплошная
 62
     7
370
    25
100
AcDbLine
 10
191.6625237611
 20
173.3723154074
 30
0.0
 11
190.695577743
 21
169.7636237396
 31
0.0
  0
SPLINE
  5
AB
330
1F
100
AcDbEntity
  8
0
  6
SLD-Сплошная
 62
     7
370
    25
100
AcDbSpline
210
0.0
220
0.0
230
1.0
 70
     8
 71
     3
 72
     8
 73
     4
 74
     0
 42
0.00000001
 43
0.00000001
 40
0.0
 40
0.0
 40
0.0
 40
0.0
 40
1.0
 40
1.0
 40
1.0
 40
1.0
 10
184.1247742097619
 20
166.8573120944982
 30
0.0
 10
186.3225779504028
 20
167.8541016268044
 30
0.0
 10
188.5137683036622
 20
168.8282993650573
 30
0.0
 10
190.6955777429547
 20
169.7636237395907
 30
0.0
  0
LINE
  5
AC
330
1F
100
AcDbEntity
  8
0
  6
SLD-Сплошная
 62
     7
370
    25
100
AcDbLine
 10
184.1247742098
 20
166.8573120945
 30
0.0
 11
184.0935998749
 21
166.740967893
 31
0.0
  0
LINE
  5
AD
330
1F
100
AcDbEntity
  8
0
  6
SLD-Сплошная
 62
     7
370
    25
100
AcDbLine
 10
189.4976651218
 20
165.2929529743
 30
0.0
 11
184.0935998749
 21
166.740967893
 31
0.0
  0
LINE
  5
AE
330
1F
100
AcDbEntity
  8
0
  6
SLD-Сплошная
 62
     7
370
    25
100
AcDbLine
 10
189.4976651218
 20
165.2929529743
 30
0.0
 11
188.5606428553
 21
161.7959382682
 31
0.0
  0
LINE
  5
AF
330
1F
100
AcDbEntity
  8
0
  6
SLD-Сплошная
 62
     7
370
    25
100
AcDbLine
 10
177.4693048689
 20
164.7678533246
 30
0.0
 11
188.5606428553
 21
161.7959382682
 31
0.0
  0
LINE
  5
B0
330
1F
100
AcDbEntity
  8
0
  6
SLD-Сплошная
 62
     7
370
    25
100
AcDbLine
 10
173.2674166604
 20
149.0861930424
 30
0.0
 11
176.2923203617
 21
148.2756725385
 31
0.0
  0
LINE
  5
B1
330
1F
100
AcDbEntity
  8
0
  6
SLD-Сплошная
 62
     7
370
    25
100
AcDbLine
 10
174.1304589425
 20
152.3071106885
 30
0.0
 11
173.2674166604
 21
149.0861930424
 31
0.0
  0
LINE
  5
B2
330
1F
100
AcDbEntity
  8
0
  6
SLD-Сплошная
 62
     7
370
    25
100
AcDbLine
 10
177.1553626438
 20
151.4965901846
 30
0.0
 11
174.1304589425
 21
152.3071106885
 31
0.0
  0
LINE
  5
B3
330
1F
100
AcDbEntity
  8
0
  6
SLD-Сплошная
 62
     7
370
    25
100
AcDbLine
 10
177.1553626438
 20
151.4965901846
 30
0.0
 11
176.2923203617
 21
148.2756725385
 31
0.0
  0
LINE
  5
B4
330
1F
100
AcDbEntity
  8
0
  6
SLD-Сплошная
 62
     7
370
    25
100
AcDbLine
 10
177.3006338029
 20
148.0054957662
 30
0.0
 11
184.3587546468
 21
146.114277986
 31
0.0
  0
LINE
  5
B5
330
1F
100
AcDbEntity
  8
0
  6
SLD-Сплошная
 62
     7
370
    25
100
AcDbLine
 10
185.2217969289
 20
149.3351956321
 30
0.0
 11
178.1636760851
 21
151.2264134123
 31
0.0
  0
LINE
  5
B6
330
1F
100
AcDbEntity
  8
0
  6
SLD-Сплошная
 62
     7
370
    25
100
AcDbLine
 10
185.2217969289
 20
149.3351956321
 30
0.0
 11
184.3587546468
 21
146.114277986
 31
0.0
  0
LINE
  5
B7
330
1F
100
AcDbEntity
  8
0
  6
SLD-Сплошная
 62
     7
370
    25
100
AcDbLine
 10
178.1636760851
 20
151.2264134123
 30
0.0
 11
177.3006338029
 21
148.0054957662
 31
0.0
  0
LINE
  5
B8
330
1F
100
AcDbEntity
  8
0
  6
SLD-Сплошная
 62
     7
370
    25
100
AcDbLine
 10
190.120938759
 20
113.1909207927
 30
0.0
 11
192.1211454307
 21
120.6557937169
 31
0.0
  0
LINE
  5
B9
330
1F
100
AcDbEntity
  8
0
  6
SLD-Сплошная
 62
     7
370
    25
100
AcDbLine
 10
161.0387739415
 20
130.6115318475
 30
0.0
 11
161.9815811664
 21
134.1301363126
 31
0.0
  0
LINE
  5
BA
330
1F
100
AcDbEntity
  8
0
  6
SLD-Сплошная
 62
     7
370
    25
100
AcDbLine
 10
148.2885530345
 20
134.0279432429
 30
0.0
 11
149.2313602594
 21
137.5465477079
 31
0.0
  0
LINE
  5
BB
330
1F
100
AcDbEntity
  8
0
  6
SLD-Сплошная
 62
     7
370
    25
100
AcDbLine
 10
160.2623168062
 20
127.7137543686
 30
0.0
 11
161.0387739415
 21
130.6115318475
 31
0.0
  0
LINE
  5
BC
330
1F
100
AcDbEntity
  8
0
  6
SLD-Сплошная
 62
     7
370
    25
100
AcDbLine
 10
147.5120958992
 20
131.130165764
 30
0.0
 11
148.2885530345
 21
134.0279432429
 31
0.0
  0
SPLINE
  5
BD
330
1F
100
AcDbEntity
  8
0
  6
SLD-Сплошная
 62
     7
370
    25
100
AcDbSpline
210
0.0
220
0.0
230
1.0
 70
     8
 71
     3
 72
    42
 73
    38
 74
     0
 42
0.00000001
 43
0.00000001
 40
0.0
 40
0.0
 40
0.0
 40
0.0
 40
0.035097039049909
 40
0.070032120736425
 40
0.0792287858588364
 40
0.0884036633657534
 40
0.0975612299196345
 40
0.1067105226586278
 40
0.1140544364996153
 40
0.1250001427755954
 40
0.1431019402638381
 40
0.1611093252084136
 40
0.1790232098252689
 40
0.1968444935377897
 40
0.2145740600831224
 40
0.2322127747144594
 40
0.249761481505952
 40
0.3340136483888334
 40
0.4176015580723574
 40
0.4993279893186175
 40
0.5305308930823501
 40
0.5617382374818911
 40
0.5930017448500319
 40
0.6242154979307064
 40
0.6555787645945407
 40
0.6868292204186652
 40
0.7181241326773418
 40
0.749463420285351
 40
0.7806733617562995
 40
0.8120320097007692
 40
0.8431563288698373
 40
0.8744560975583964
 40
0.9062084114405168
 40
0.9375526052446607
 40
0.9684756859258159
 40
0.9989656042953555
 40
1.0
 40
1.0
 40
1.0
 40
1.0
 10
228.5997804984463
 20
148.8468086331378
 30
0.0
 10
229.7621899722592
 20
148.9937141584705
 30
0.0
 10
232.081644912588
 20
149.2868473048969
 30
0.0
 10
234.7272587462894
 20
149.236131851477
 30
0.0
 10
236.4938502567047
 20
149.08875997527
 30
0.0
 10
237.4034640390769
 20
148.9844384623699
 30
0.0
 10
238.3076914175734
 20
148.8529455317782
 30
0.0
 10
239.1477684258076
 20
148.7061297391662
 30
0.0
 10
240.0407993221809
 20
148.5205957201794
 30
0.0
 10
241.2210360632292
 20
148.2567893724878
 30
0.0
 10
242.7450781352053
 20
147.9101534980616
 30
0.0
 10
244.4903530402827
 20
147.4976864657059
 30
0.0
 10
246.2223943995924
 20
147.0747870755073
 30
0.0
 10
247.941123197118
 20
146.6412010704184
 30
0.0
 10
249.6465953885899
 20
146.1972989338637
 30
0.0
 10
251.3388376034931
 20
145.7432763677555
 30
0.0
 10
255.1481016738755
 20
144.6911320604096
 30
0.0
 10
261.0131459799686
 20
142.9327796166351
 30
0.0
 10
268.7905459501878
 20
140.302277853085
 30
0.0
 10
274.7996063975803
 20
137.9985776704762
 30
0.0
 10
279.1657931002808
 20
136.2596187409059
 30
0.0
 10
281.9353597343885
 20
134.9733788056242
 30
0.0
 10
284.9109056590551
 20
134.2512117796181
 30
0.0
 10
287.9704550866392
 20
134.2284870948576
 30
0.0
 10
290.9484086265057
 20
134.8661519318721
 30
0.0
 10
293.700982671115
 20
136.1016927486876
 30
0.0
 10
296.0942805504607
 20
137.8317894177714
 30
0.0
 10
298.0350462702706
 20
139.9111495887643
 30
0.0
 10
299.4694917700286
 20
142.1840936365545
 30
0.0
 10
300.4171691471771
 20
144.4799172742055
 30
0.0
 10
300.8435941230554
 20
146.7171767323949
 30
0.0
 10
301.1677013925815
 20
148.6532612708081
 30
0.0
 10
301.4401763946125
 20
150.2060547841065
 30
0.0
 10
301.6393976895209
 20
151.3571010942106
 30
0.0
 10
301.7538490483186
 20
152.0173647387868
 30
0.0
 10
301.8015671855258
 20
152.2980461932628
 30
0.0
 10
301.7913630506709
 20
152.2389603563485
 30
0.0
 10
301.7910282261529
 20
152.2370215945482
 30
0.0
  0
SPLINE
  5
BE
330
1F
100
AcDbEntity
  8
0
  6
SLD-Сплошная
 62
     7
370
    25
100
AcDbSpline
210
0.0
220
0.0
230
1.0
 70
    24
 71
     3
 72
    26
 73
    22
 74
     0
 42
0.00000001
 43
0.00000001
 40
0.0
 40
0.0
 40
0.0
 40
0.0
 40
0.0302695357741142
 40
0.0607588632402881
 40
0.091492268878972
 40
0.1224934655400311
 40
0.15378555729076
 40
0.1853910102586868
 40
0.2173316293499389
 40
0.2496285406265686
 40
0.375661589759713
 40
0.4986923020532945
 40
0.6271864366339961
 40
0.7488665067065683
 40
0.7890533417098173
 40
0.827563490979503
 40
0.8645237493852138
 40
0.9000774977320196
 40
0.9343857555870602
 40
0.9676276464483737
 40
1.0
 40
1.0
 40
1.0
 40
1.0
 10
228.5997804984455
 20
148.8468086331341
 30
0.0
 10
228.4986861019584
 20
148.8738967950321
 30
0.0
 10
228.2957632472324
 20
148.9282698100817
 30
0.0
 10
227.9840632018409
 20
149.0117895855251
 30
0.0
 10
227.6657574062513
 20
149.0970793663996
 30
0.0
 10
227.340378648058
 20
149.1842643418916
 30
0.0
 10
227.0080535794942
 20
149.273310575638
 30
0.0
 10
226.6687517815193
 20
149.3642262183957
 30
0.0
 10
226.3224697435635
 20
149.4570122108194
 30
0.0
 10
225.6289873995664
 20
149.6428302448586
 30
0.0
 10
224.5824817215874
 20
149.9232405961477
 30
0.0
 10
223.1468063865986
 20
150.3079286427513
 30
0.0
 10
221.7104815455532
 20
150.6927907239781
 30
0.0
 10
220.5953455791077
 20
150.9915905056381
 30
0.0
 10
219.839506555642
 20
151.1941169615837
 30
0.0
 10
219.4084529208255
 20
151.3096174349272
 30
0.0
 10
219.0016733540361
 20
151.4186136913459
 30
0.0
 10
218.6190037206194
 20
151.5211497105878
 30
0.0
 10
218.2609729548643
 20
151.6170837651374
 30
0.0
 10
217.9258067680293
 20
151.7068912742301
 30
0.0
 10
217.7196439173717
 20
151.7621324435731
 30
0.0
 10
217.6179285543372
 20
151.7893869929561
 30
0.0
  0
SPLINE
  5
BF
330
1F
100
AcDbEntity
  8
0
  6
SLD-Сплошная
 62
     7
370
    25
100
AcDbSpline
210
0.0
220
0.0
230
1.0
 70
     8
 71
     3
 72
    44
 73
    40
 74
     0
 42
0.00000001
 43
0.00000001
 40
0.0
 40
0.0
 40
0.0
 40
0.0
 40
0.008683274811992
 40
0.0285904732817605
 40
0.0491261534860337
 40
0.0809225668710566
 40
0.1122248047033493
 40
0.1436317577287192
 40
0.1748498361715952
 40
0.1910992771466309
 40
0.206233886558236
 40
0.2223894074640509
 40
0.2376796646749235
 40
0.2534525906117481
 40
0.2690557574628819
 40
0.2848158965846931
 40
0.3004974821869226
 40
0.3162359345557273
 40
0.3319878943166946
 40
0.3375688674567945
 40
0.3431705647510457
 40
0.3482291950886809
 40
0.3489484462801368
 40
0.3513146043491077
 40
0.3557996152144378
 40
0.3637796850742585
 40
0.4047263660178669
 40
0.4472787915917037
 40
0.4914461873965729
 40
0.5540672056151014
 40
0.6191072349469713
 40
0.6823169455389949
 40
0.7467693100758377
 40
0.7892125608076475
 40
0.831241926207021
 40
0.8735596257779867
 40
0.9157284015372485
 40
0.9575372253546298
 40
1.0
 40
1.0
 40
1.0
 40
1.0
 10
296.5643368430287
 20
155.373311930187
 30
0.0
 10
296.5654269319734
 20
155.3798871308943
 30
0.0
 10
296.5690161491202
 20
155.4015365781611
 30
0.0
 10
296.5359257901312
 20
155.2253902885217
 30
0.0
 10
296.4580889244683
 20
154.7883999279777
 30
0.0
 10
296.2961844995885
 20
153.9267373241845
 30
0.0
 10
296.0392424893109
 20
152.5123317425195
 30
0.0
 10
295.6937164150813
 20
150.7021159683584
 30
0.0
 10
295.3870695223483
 20
148.8517527840929
 30
0.0
 10
295.0152764977124
 20
147.2630389092282
 30
0.0
 10
294.5731385341926
 20
146.048929591175
 30
0.0
 10
293.9825526088342
 20
144.8688791079055
 30
0.0
 10
293.2027044127039
 20
143.7188992568237
 30
0.0
 10
292.2416452950199
 20
142.672038234028
 30
0.0
 10
291.0804104706502
 20
141.7534010202803
 30
0.0
 10
289.7392223304864
 20
141.0443356442306
 30
0.0
 10
288.2596296804856
 20
140.5675877774504
 30
0.0
 10
286.6860241513072
 20
140.3866692945487
 30
0.0
 10
285.4249370728521
 20
140.488511397877
 30
0.0
 10
284.5237115069175
 20
140.6848934547662
 30
0.0
 10
283.9873451365475
 20
140.842733108948
 30
0.0
 10
283.617440694714
 20
140.976987514131
 30
0.0
 10
283.3568976810259
 20
141.0855435834142
 30
0.0
 10
283.114844178119
 20
141.1869404507928
 30
0.0
 10
282.6407875458072
 20
141.3864444688295
 30
0.0
 10
280.9305798860471
 20
142.0990579437112
 30
0.0
 10
277.9851333401649
 20
143.290594823173
 30
0.0
 10
273.8367935805222
 20
144.8805103561611
 30
0.0
 10
268.9408897996526
 20
146.6512111137152
 30
0.0
 10
263.249920356923
 20
148.5627794638992
 30
0.0
 10
256.8570338547248
 20
150.5135776876446
 30
0.0
 10
250.3377080177907
 20
152.3169323476199
 30
0.0
 10
244.5258377600152
 20
153.7236094399607
 30
0.0
 10
239.4110800745844
 20
154.9150528006778
 30
0.0
 10
234.9636000644081
 20
155.3799994700857
 30
0.0
 10
230.5077559161178
 20
155.2933277102792
 30
0.0
 10
226.0980410856426
 20
154.6653873119048
 30
0.0
 10
221.7742749560755
 20
153.5061082171791
 30
0.0
 10
219.0105262867187
 20
152.3645801681421
 30
0.0
 10
217.6179285543378
 20
151.789386992958
 30
0.0
  0
SPLINE
  5
C0
330
1F
100
AcDbEntity
  8
0
  6
SLD-Сплошная
 62
     7
370
    25
100
AcDbSpline
210
0.0
220
0.0
230
1.0
 70
     8
 71
     3
 72
    16
 73
    12
 74
     0
 42
0.00000001
 43
0.00000001
 40
0.0
 40
0.0
 40
0.0
 40
0.0
 40
0.2500000000000015
 40
0.2500000000000015
 40
0.3750000000000022
 40
0.4375000000000017
 40
0.468750000000001
 40
0.468750000000001
 40
0.5000000000000002
 40
0.5000000000000002
 40
1.0
 40
1.0
 40
1.0
 40
1.0
 10
246.8354369393256
 20
179.2672838897316
 30
0.0
 10
248.5691060366903
 20
178.6028882263793
 30
0.0
 10
250.2972931580562
 20
177.9236388415147
 30
0.0
 10
252.8813385003523
 20
176.8824506491453
 30
0.0
 10
254.171302211003
 20
176.356277683984
 30
0.0
 10
255.6726526390005
 20
175.7326352205754
 30
0.0
 10
256.3153150359549
 20
175.4632640354147
 30
0.0
 10
256.7435846844201
 20
175.2832173384775
 30
0.0
 10
256.9510211752195
 20
175.1957481501871
 30
0.0
 10
260.5115320566854
 20
173.6900895128134
 30
0.0
 10
263.8339495389043
 20
172.2190549943533
 30
0.0
 10
267.1278772351026
 20
170.6943810638652
 30
0.0
  0
LINE
  5
C1
330
1F
100
AcDbEntity
  8
0
  6
SLD-Сплошная
 62
     7
370
    25
100
AcDbLine
 10
238.5099136067
 20
167.4379353717
 30
0.0
 11
236.0711702819
 21
158.3364213769
 31
0.0
  0
SPLINE
  5
C2
330
1F
100
AcDbEntity
  8
0
  6
SLD-Сплошная
 62
     7
370
    25
100
AcDbSpline
210
0.0
220
0.0
230
1.0
 70
    24
 71
     3
 72
    13
 73
     9
 74
     0
 42
0.00000001
 43
0.00000001
 40
0.0
 40
0.0
 40
0.0
 40
0.0
 40
0.4999999999999954
 40
0.4999999999999954
 40
0.6249999999999953
 40
0.6249999999999953
 40
0.7499999999999951
 40
1.0
 40
1.0
 40
1.0
 40
1.0
 10
236.071170281887
 20
158.3364213768746
 30
0.0
 10
237.688021075
 20
157.9031875125782
 30
0.0
 10
239.3055147962152
 20
157.4697813762162
 30
0.0
 10
241.3281954015183
 20
156.9278057414793
 30
0.0
 10
241.7281112891066
 20
156.8206486023596
 30
0.0
 10
242.5295414181538
 20
156.6059060464914
 30
0.0
 10
243.7311496662525
 20
156.2839360867948
 30
0.0
 10
244.931146900573
 20
155.9623977969391
 30
0.0
 10
245.7304285447776
 20
155.7482309258492
 30
0.0
  0
LINE
  5
C3
330
1F
100
AcDbEntity
  8
0
  6
SLD-Сплошная
 62
     7
370
    25
100
AcDbLine
 10
245.7304285448
 20
155.7482309258
 30
0.0
 11
247.6989244262
 21
163.0947575699
 31
0.0
  0
SPLINE
  5
C4
330
1F
100
AcDbEntity
  8
0
  6
SLD-Сплошная
 62
     7
370
    25
100
AcDbSpline
210
0.0
220
0.0
230
1.0
 70
     8
 71
     3
 72
    31
 73
    27
 74
     0
 42
0.00000001
 43
0.00000001
 40
0.0
 40
0.0
 40
0.0
 40
0.0
 40
0.0190231735141689
 40
0.0376104423268096
 40
0.0557634849842362
 40
0.0734841034365577
 40
0.090774234844297
 40
0.1076359647485423
 40
0.1240715417837008
 40
0.188958050301159
 40
0.2485839807617207
 40
0.342194920080742
 40
0.4246003028259004
 40
0.4987103978614322
 40
0.558923975798815
 40
0.6187587807513197
 40
0.6812595188414402
 40
0.7491129654548001
 40
0.77817897908397
 40
0.8086822052496342
 40
0.8407145086854707
 40
0.8743552298248091
 40
0.9036044639408064
 40
0.9342760700327937
 40
0.9663993996373778
 40
1.0
 40
1.0
 40
1.0
 40
1.0
 10
247.698924426224
 20
163.0947575698968
 30
0.0
 10
247.725648459028
 20
163.1978874959149
 30
0.0
 10
247.7784841593262
 20
163.4017841870628
 30
0.0
 10
247.8449947947192
 20
163.7047215766053
 30
0.0
 10
247.9012467578367
 20
164.000936404775
 30
0.0
 10
247.946718745242
 20
164.2904013578327
 30
0.0
 10
247.9819175651018
 20
164.5730200831395
 30
0.0
 10
248.0070964973971
 20
164.8487291396655
 30
0.0
 10
248.0379249933059
 20
165.383682536907
 30
0.0
 10
248.0162317770246
 20
166.1515388573828
 30
0.0
 10
247.7998859757733
 20
167.3271173842564
 30
0.0
 10
247.28093985627
 20
168.5666050266212
 30
0.0
 10
246.3089735940428
 20
169.7675960009569
 30
0.0
 10
245.1260168885022
 20
170.6140974964788
 30
0.0
 10
243.8861600201024
 20
171.1051821360774
 30
0.0
 10
242.6898645353114
 20
171.2756880192199
 30
0.0
 10
241.5476479337631
 20
171.1347533568067
 30
0.0
 10
240.7489510421031
 20
170.7774605704132
 30
0.0
 10
240.2118300709718
 20
170.3885724330255
 30
0.0
 10
239.8666471535757
 20
170.0689781274554
 30
0.0
 10
239.5472433298743
 20
169.6958188564036
 30
0.0
 10
239.2731354358388
 20
169.2941097811847
 30
0.0
 10
239.038339443691
 20
168.8713753119322
 30
0.0
 10
238.8384216663023
 20
168.4333431664277
 30
0.0
 10
238.6579389130735
 20
167.9550025065996
 30
0.0
 10
238.559989244079
 20
167.6128545593849
 30
0.0
 10
238.5099136067095
 20
167.4379353717314
 30
0.0
  0
LINE
  5
C5
330
1F
100
AcDbEntity
  8
0
  6
SLD-Сплошная
 62
     7
370
    25
100
AcDbLine
 10
217.6179285543
 20
151.789386993
 30
0.0
 11
205.1864299189
 21
155.120397013
 31
0.0
  0
SPLINE
  5
C6
330
1F
100
AcDbEntity
  8
0
  6
SLD-Сплошная
 62
     7
370
    25
100
AcDbSpline
210
0.0
220
0.0
230
1.0
 70
    24
 71
     3
 72
    19
 73
    15
 74
     0
 42
0.00000001
 43
0.00000001
 40
0.0
 40
0.0
 40
0.0
 40
0.0
 40
0.0614144030417456
 40
0.1241532504075476
 40
0.1865992702152282
 40
0.2492021401193455
 40
0.3116067336697489
 40
0.3742315826617549
 40
0.4368253512858548
 40
0.4996668767381723
 40
0.6243972453582046
 40
0.7494392716898882
 40
0.8746117985083643
 40
1.0
 40
1.0
 40
1.0
 40
1.0
 10
302.9381235393199
 20
151.5333476909847
 30
0.0
 10
302.9381235393199
 20
151.5127497771084
 30
0.0
 10
302.9381235393198
 20
151.4711097410141
 30
0.0
 10
302.9381235393198
 20
151.1150361733752
 30
0.0
 10
302.9381235393198
 20
150.5500272252689
 30
0.0
 10
302.9381235393198
 20
149.7622067759897
 30
0.0
 10
302.9381235393198
 20
148.7698554936247
 30
0.0
 10
302.9381235393198
 20
147.5821318735286
 30
0.0
 10
302.9381235393198
 20
146.213924319035
 30
0.0
 10
302.9381235393198
 20
144.177384750346
 30
0.0
 10
302.9381235393197
 20
141.2681299068428
 30
0.0
 10
302.9381235393198
 20
137.3624076492891
 30
0.0
 10
302.9381235393197
 20
133.1851772765926
 30
0.0
 10
302.9381235393197
 20
130.3478129621701
 30
0.0
 10
302.9381235393197
 20
128.9279096486642
 30
0.0
  0
LINE
  5
C7
330
1F
100
AcDbEntity
  8
0
  6
SLD-Сплошная
 62
     7
370
    25
100
AcDbLine
 10
302.9381235393
 20
128.9279096487
 30
0.0
 11
228.5997804984
 21
148.8468086331
 31
0.0
  0
LINE
  5
C8
330
1F
100
AcDbEntity
  8
0
  6
SLD-Сплошная
 62
     7
370
    25
100
AcDbLine
 10
267.1278772351
 20
170.6943810639
 30
0.0
 11
270.7319480554
 21
184.1449564793
 31
0.0
  0
LINE
  5
C9
330
1F
100
AcDbEntity
  8
0
  6
SLD-Сплошная
 62
     7
370
    25
100
AcDbLine
 10
270.7319480554
 20
184.1449564793
 30
0.0
 11
268.3171334897
 21
184.7920040921
 31
0.0
  0
LINE
  5
CA
330
1F
100
AcDbEntity
  8
0
  6
SLD-Сплошная
 62
     7
370
    25
100
AcDbLine
 10
268.3171334897
 20
184.7920040921
 30
0.0
 11
246.8354369393
 21
179.2672838897
 31
0.0
  0
SPLINE
  5
CB
330
1F
100
AcDbEntity
  8
0
  6
SLD-Сплошная
 62
     7
370
    25
100
AcDbSpline
210
0.0
220
0.0
230
1.0
 70
     8
 71
     3
 72
    16
 73
    12
 74
     0
 42
0.00000001
 43
0.00000001
 40
0.0
 40
0.0
 40
0.0
 40
0.0
 40
0.1133751419098954
 40
0.2241787738986817
 40
0.3563019259380122
 40
0.4699627276974974
 40
0.5660710148833489
 40
0.6527824719924343
 40
0.7537118216460494
 40
0.8706207503147386
 40
1.0
 40
1.0
 40
1.0
 40
1.0
 10
39.1140165352997
 20
150.9792210405402
 30
0.0
 10
39.05118250077272
 20
150.5026065927258
 30
0.0
 10
38.92693959723967
 20
149.5601879925501
 30
0.0
 10
38.79306863758614
 20
147.7274421175738
 30
0.0
 10
38.69883297123921
 20
145.6396216434945
 30
0.0
 10
38.6402268855155
 20
143.508338471854
 30
0.0
 10
38.60644763318879
 20
141.5913722565918
 30
0.0
 10
38.58448671985182
 20
139.7197823541057
 30
0.0
 10
38.56855379349008
 20
137.6088571103458
 30
0.0
 10
38.55849456337609
 20
135.0976810522386
 30
0.0
 10
38.55760548882336
 20
133.2013158308154
 30
0.0
 10
38.55713844327005
 20
132.2051238450013
 30
0.0
  0
SPLINE
  5
CC
330
1F
100
AcDbEntity
  8
0
  6
SLD-Сплошная
 62
     7
370
    25
100
AcDbSpline
210
0.0
220
0.0
230
1.0
 70
     8
 71
     3
 72
    17
 73
    13
 74
     0
 42
0.00000001
 43
0.00000001
 40
0.0
 40
0.0
 40
0.0
 40
0.0
 40
0.1003848611921329
 40
0.2736246728053011
 40
0.4263533797630453
 40
0.558979889162893
 40
0.6715031126696026
 40
0.7517811466154677
 40
0.8164739951086425
 40
0.8788510420711431
 40
0.9538602505481617
 40
1.0
 40
1.0
 40
1.0
 40
1.0
 10
113.4560672732386
 20
132.0763644802447
 30
0.0
 10
113.4564265119478
 20
132.8813715579352
 30
0.0
 10
113.4574057091407
 20
135.0756247114799
 30
0.0
 10
113.4440431994423
 20
138.196155919748
 30
0.0
 10
113.4133616962527
 20
141.3596717229446
 30
0.0
 10
113.3667081324022
 20
143.8966756727504
 30
0.0
 10
113.3120355546744
 20
145.8370026267224
 30
0.0
 10
113.2552908543294
 20
147.2689306215498
 30
0.0
 10
113.2002802725793
 20
148.3098505606455
 30
0.0
 10
113.1313065668833
 20
149.2816425258582
 30
0.0
 10
113.0538297854595
 20
150.1499728086257
 30
0.0
 10
112.9770549328687
 20
150.6550013189044
 30
0.0
 10
112.9478151232714
 20
150.8473421308161
 30
0.0
  0
SPLINE
  5
CD
330
1F
100
AcDbEntity
  8
0
  6
SLD-Сплошная
 62
     7
370
    25
100
AcDbSpline
210
0.0
220
0.0
230
1.0
 70
     8
 71
     3
 72
    15
 73
    11
 74
     0
 42
0.00000001
 43
0.00000001
 40
0.0
 40
0.0
 40
0.0
 40
0.0
 40
0.0304243821302564
 40
0.161343174136914
 40
0.2938366711254705
 40
0.4279501619542407
 40
0.5637329575972659
 40
0.7567321710501105
 40
0.9532686075628005
 40
1.0
 40
1.0
 40
1.0
 40
1.0
 10
104.042548550153
 20
137.8911551796931
 30
0.0
 10
104.1039145780695
 20
137.9902625933396
 30
0.0
 10
104.4293440210022
 20
138.5158379239998
 30
0.0
 10
104.9720101182989
 20
139.4200136994662
 30
0.0
 10
105.6736934956885
 20
140.6026491446608
 30
0.0
 10
106.3320169419887
 20
141.7349507908433
 30
0.0
 10
107.0390979262146
 20
142.9700336876337
 30
0.0
 10
107.7630798196531
 20
144.2637173965205
 30
0.0
 10
108.3175263010903
 20
145.2719479571361
 30
0.0
 10
108.5718974773761
 20
145.7630514944455
 30
0.0
 10
108.6207618065191
 20
145.8573917622416
 30
0.0
  0
SPLINE
  5
CE
330
1F
100
AcDbEntity
  8
0
  6
SLD-Сплошная
 62
     7
370
    25
100
AcDbSpline
210
0.0
220
0.0
230
1.0
 70
     8
 71
     3
 72
    12
 73
     8
 74
     0
 42
0.00000001
 43
0.00000001
 40
0.0
 40
0.0
 40
0.0
 40
0.0
 40
0.2531100388930177
 40
0.5380259518628289
 40
0.7349290133845279
 40
0.9175902809920334
 40
1.0
 40
1.0
 40
1.0
 40
1.0
 10
112.9048840037969
 20
150.9246027571102
 30
0.0
 10
112.8267396027271
 20
151.350658549635
 30
0.0
 10
112.6606311545905
 20
152.2563084176624
 30
0.0
 10
112.2071138511249
 20
153.347152740229
 30
0.0
 10
111.6071131446801
 20
154.2310541804375
 30
0.0
 10
111.0893241967877
 20
154.7899575394013
 30
0.0
 10
110.6856473124324
 20
155.0348171274044
 30
0.0
 10
110.5601454646651
 20
155.1109431874512
 30
0.0
  0
SPLINE
  5
CF
330
1F
100
AcDbEntity
  8
0
  6
SLD-Сплошная
 62
     7
370
    25
100
AcDbSpline
210
0.0
220
0.0
230
1.0
 70
     8
 71
     3
 72
    35
 73
    31
 74
     0
 42
0.00000001
 43
0.00000001
 40
0.0
 40
0.0
 40
0.0
 40
0.0
 40
0.0084286045733603
 40
0.0247973124258681
 40
0.0400089829521084
 40
0.0542819973740899
 40
0.068733756011954
 40
0.0985748737445586
 40
0.1295098219075032
 40
0.1614662942818025
 40
0.1943714951939363
 40
0.2292244141555502
 40
0.277245110061609
 40
0.3237829559382915
 40
0.3688463706956273
 40
0.4333708489231652
 40
0.4961671988856625
 40
0.5596262427180465
 40
0.6241441824075515
 40
0.6674795875178924
 40
0.7116150586642751
 40
0.7573844102612437
 40
0.7924083655031492
 40
0.8242855125032106
 40
0.8560885897112958
 40
0.8881630557319093
 40
0.9206938412990143
 40
0.955273740215718
 40
0.9910157802974613
 40
1.0
 40
1.0
 40
1.0
 40
1.0
 10
99.73088070632663
 20
140.7583728403691
 30
0.0
 10
99.73934693498387
 20
140.7607725146294
 30
0.0
 10
99.76425493906143
 20
140.7678324581628
 30
0.0
 10
99.63961876260049
 20
140.9144100094283
 30
0.0
 10
99.39668833645274
 20
141.2088320340516
 30
0.0
 10
99.03647283305229
 20
141.6557936000346
 30
0.0
 10
98.52179444311246
 20
142.3261545913678
 30
0.0
 10
97.76724676266788
 20
143.3298377046006
 30
0.0
 10
96.69543172301293
 20
144.7159758163731
 30
0.0
 10
95.44075079339854
 20
146.2294938507487
 30
0.0
 10
94.00423494271628
 20
147.8157355735216
 30
0.0
 10
92.21110984140071
 20
149.6137196073147
 30
0.0
 10
89.98805146042488
 20
151.3848512386164
 30
0.0
 10
87.36100377931034
 20
152.9755054360353
 30
0.0
 10
84.22417627556841
 20
154.3786497285953
 30
0.0
 10
80.55405626883963
 20
155.4036278357058
 30
0.0
 10
76.35777078494237
 20
155.8216970311687
 30
0.0
 10
72.1505777026579
 20
155.5242184327485
 30
0.0
 10
68.4759719047425
 20
154.6077369810808
 30
0.0
 10
65.38126983577334
 20
153.336308814004
 30
0.0
 10
62.82325173725501
 20
151.9060577173413
 30
0.0
 10
60.60360207364413
 20
150.2925994208614
 30
0.0
 10
58.78685244540707
 20
148.617201235541
 30
0.0
 10
57.30964408972439
 20
147.0589182491163
 30
0.0
 10
55.9831940494534
 20
145.532138054881
 30
0.0
 10
54.76758638405904
 20
144.0145569163235
 30
0.0
 10
53.67581635768087
 20
142.5806414335879
 30
0.0
 10
52.89335999679384
 20
141.5087389546001
 30
0.0
 10
52.48839083350001
 20
140.9653589378559
 30
0.0
 10
52.50510751189341
 20
140.9253796084305
 30
0.0
 10
52.50846541197512
 20
140.917348910562
 30
0.0
  0
SPLINE
  5
D0
330
1F
100
AcDbEntity
  8
0
  6
SLD-Сплошная
 62
     7
370
    25
100
AcDbSpline
210
0.0
220
0.0
230
1.0
 70
     8
 71
     3
 72
    12
 73
     8
 74
     0
 42
0.00000001
 43
0.00000001
 40
0.0
 40
0.0
 40
0.0
 40
0.0
 40
0.0399394971903927
 40
0.2117295481902867
 40
0.404975301415725
 40
0.6954682756976015
 40
0.9999999999999999
 40
0.9999999999999999
 40
0.9999999999999999
 40
0.9999999999999999
 10
41.44825569979421
 20
155.116486823813
 30
0.0
 10
41.38644977815739
 20
155.0813681181598
 30
0.0
 10
41.05880068930526
 20
154.8951948259541
 30
0.0
 10
40.59843982254835
 20
154.4370967267281
 30
0.0
 10
39.96552638063458
 20
153.6196512556161
 30
0.0
 10
39.43162235761042
 20
152.4871638664916
 30
0.0
 10
39.22209889966901
 20
151.4731920487218
 30
0.0
 10
39.11486546871976
 20
150.9542445381494
 30
0.0
  0
SPLINE
  5
D1
330
1F
100
AcDbEntity
  8
0
  6
SLD-Сплошная
 62
     7
370
    25
100
AcDbSpline
210
0.0
220
0.0
230
1.0
 70
     8
 71
     3
 72
     8
 73
     4
 74
     0
 42
0.00000001
 43
0.00000001
 40
0.0
 40
0.0
 40
0.0
 40
0.0
 40
1.0
 40
1.0
 40
1.0
 40
1.0
 10
94.4793122027808
 20
111.1701016082992
 30
0.0
 10
94.99999050230795
 20
117.0746805510689
 30
0.0
 10
95.50940062601204
 20
122.9942724920263
 30
0.0
 10
96.00745929142882
 20
128.9279096486638
 30
0.0
  0
LWPOLYLINE
  5
D2
330
1F
100
AcDbEntity
  8
0
  6
SLD-Сплошная
 62
     7
370
    25
100
AcDbPolyline
 90
       10
 70
   128
 43
0.0
 10
111.1105714522
 20
148.8463183439
 10
110.3491988499
 20
146.5942114968
 10
109.356426154
 20
144.3481495035
 10
108.1329572159
 20
142.1097247663
 10
106.6796594446
 20
139.8805242725
 10
104.9975631922
 20
137.6621284701
 10
103.0878610231
 20
135.4561101466
 10
100.9519068687
 20
133.2640333142
 10
98.5912150675
 20
131.0874521008
 10
96.0074592914
 20
128.9279096487
  0
SPLINE
  5
D3
330
1F
100
AcDbEntity
  8
0
  6
SLD-Сплошная
 62
     7
370
    25
100
AcDbSpline
210
0.0
220
0.0
230
1.0
 70
     8
 71
     3
 72
    32
 73
    28
 74
     0
 42
0.00000001
 43
0.00000001
 40
0.0
 40
0.0
 40
0.0
 40
0.0
 40
0.069385361939282
 40
0.1111105938749776
 40
0.1251756946435003
 40
0.1564965893857291
 40
0.1877724758756937
 40
0.2190205278741825
 40
0.2502579650488538
 40
0.3126748129069638
 40
0.3752424975983841
 40
0.4377875694097574
 40
0.5001926011612823
 40
0.5626988671525878
 40
0.6252701500558032
 40
0.6418086018107003
 40
0.6565361236576073
 40
0.687827500663796
 40
0.7190903691692694
 40
0.7503764138627493
 40
0.8128539450718114
 40
0.8753298876836689
 40
0.9002658409967441
 40
0.9251734200656889
 40
0.9500800411573663
 40
0.975013123697908
 40
1.0
 40
1.0
 40
1.0
 40
1.0
 10
112.0074592914296
 20
123.1151803052945
 30
0.0
 10
112.0072318407043
 20
123.9409798443803
 30
0.0
 10
112.006867611356
 20
125.2633780368088
 30
0.0
 10
112.0048618533316
 20
126.7524260192357
 30
0.0
 10
112.0031162633438
 20
127.7900613920845
 30
0.0
 10
112.0012109153287
 20
128.6958488154209
 30
0.0
 10
111.9981087390431
 20
129.7860387465225
 30
0.0
 10
111.994130516139
 20
130.8574846934711
 30
0.0
 10
111.9874905190668
 20
132.2597513065867
 30
0.0
 10
111.9763463574735
 20
133.9656584211584
 30
0.0
 10
111.9573134554113
 20
135.9317607956947
 30
0.0
 10
111.9314581890398
 20
137.8128479845407
 30
0.0
 10
111.8975368498766
 20
139.6035935008308
 30
0.0
 10
111.8542474053872
 20
141.3009344858067
 30
0.0
 10
111.813425188014
 20
142.5085370354437
 30
0.0
 10
111.7826071434617
 20
143.2778942758641
 30
0.0
 10
111.7610180514692
 20
143.7819959942478
 30
0.0
 10
111.7319861598117
 20
144.3772537110136
 30
0.0
 10
111.6925557953938
 20
145.0529833429218
 30
0.0
 10
111.6341178188983
 20
145.8893908048187
 30
0.0
 10
111.5493513261621
 20
146.8126950739773
 30
0.0
 10
111.4514378903394
 20
147.5341494303154
 30
0.0
 10
111.3687377199544
 20
147.9867599710769
 30
0.0
 10
111.3100762214032
 20
148.254415023164
 30
0.0
 10
111.2476219176245
 20
148.4873018439381
 30
0.0
 10
111.1815853286296
 20
148.688556585207
 30
0.0
 10
111.1342597437128
 20
148.7936933258469
 30
0.0
 10
111.1105714522228
 20
148.8463183438574
 30
0.0
  0
LINE
  5
D4
330
1F
100
AcDbEntity
  8
0
  6
SLD-Сплошная
 62
     7
370
    25
100
AcDbLine
 10
112.0074592914
 20
111.1701016083
 30
0.0
 11
112.0074592914
 21
123.1151803053
 31
0.0
  0
ARC
  5
D5
330
1F
100
AcDbEntity
  8
0
  6
SLD-Сплошная
 62
     7
370
    25
100
AcDbCircle
 10
89.9879691698
 20
155.1212064173
 30
0.0
 40
22.01949271293813
100
AcDbArc
 50
356.4131919537
 51
359.7958555766
  0
LINE
  5
D6
330
1F
100
AcDbEntity
  8
0
  6
SLD-Сплошная
 62
     7
370
    25
100
AcDbLine
 10
112.8541169766
 20
150.9980900141
 30
0.0
 11
112.8699432092
 21
150.8374385739
 31
0.0
  0
LINE
  5
D7
330
1F
100
AcDbEntity
  8
0
  6
SLD-Сплошная
 62
     7
370
    25
100
AcDbLine
 10
96.0074592914
 20
128.9279096487
 30
0.0
 11
92.015269885
 21
128.9279096487
 31
0.0
  0
LINE
  5
D8
330
1F
100
AcDbEntity
  8
0
  6
SLD-Сплошная
 62
     7
370
    25
100
AcDbLine
 10
59.9996486978
 20
128.9279096487
 30
0.0
 11
56.0074592914
 21
128.9279096487
 31
0.0
  0
LWPOLYLINE
  5
D9
330
1F
100
AcDbEntity
  8
0
  6
SLD-Сплошная
 62
     7
370
    25
100
AcDbPolyline
 90
       10
 70
   128
 43
0.0
 10
56.0074592914
 20
128.9279096487
 10
53.4237035153
 20
131.0874521008
 10
51.0630117141
 20
133.2640333142
 10
48.9270575598
 20
135.4561101466
 10
47.0173553906
 20
137.6621284701
 10
45.3352591382
 20
139.8805242725
 10
43.8819613669
 20
142.1097247663
 10
42.6584924288
 20
144.3481495035
 10
41.665719733
 20
146.5942114968
 10
40.9043471306
 20
148.8463183439
  0
SPLINE
  5
DA
330
1F
100
AcDbEntity
  8
0
  6
SLD-Сплошная
 62
     7
370
    25
100
AcDbSpline
210
0.0
220
0.0
230
1.0
 70
     8
 71
     3
 72
     9
 73
     5
 74
     0
 42
0.00000001
 43
0.00000001
 40
0.0
 40
0.0
 40
0.0
 40
0.0
 40
0.6246468122826261
 40
1.0
 40
1.0
 40
1.0
 40
1.0
 10
40.30609611978117
 20
149.1983412296233
 30
0.0
 10
40.07499100913489
 20
149.3137231579075
 30
0.0
 10
39.70501375782737
 20
149.4984386259374
 30
0.0
 10
39.57096898546056
 20
149.7027517192568
 30
0.0
 10
39.52065485285575
 20
149.7794412901267
 30
0.0
  0
ARC
  5
DB
330
1F
100
AcDbEntity
  8
0
  6
SLD-Сплошная
 62
     7
370
    25
100
AcDbCircle
 10
62.0263380331
 20
155.1211925399
 30
0.0
 40
22.01888128743256
100
AcDbArc
 50
180.2041139811
 51
183.5463516236
  0
LINE
  5
DC
330
1F
100
AcDbEntity
  8
0
  6
SLD-Сплошная
 62
     7
370
    25
100
AcDbLine
 10
40.0075964678
 20
155.120397013
 30
0.0
 11
40.0075964678
 21
155.0427512995
 31
0.0
  0
SPLINE
  5
DD
330
1F
100
AcDbEntity
  8
0
  6
SLD-Сплошная
 62
     7
370
    25
100
AcDbSpline
210
0.0
220
0.0
230
1.0
 70
     8
 71
     3
 72
     8
 73
     4
 74
     0
 42
0.00000001
 43
0.00000001
 40
0.0
 40
0.0
 40
0.0
 40
0.0
 40
1.0
 40
1.0
 40
1.0
 40
1.0
 10
57.53560638007682
 20
111.1701016082992
 30
0.0
 10
57.01492808055017
 20
117.0746805510694
 30
0.0
 10
56.50551795684611
 20
122.9942724920271
 30
0.0
 10
56.00745929142881
 20
128.9279096486638
 30
0.0
  0
LINE
  5
DE
330
1F
100
AcDbEntity
  8
0
  6
SLD-Сплошная
 62
     7
370
    25
100
AcDbLine
 10
40.0074592914
 20
111.1701016083
 30
0.0
 11
40.0074592914
 21
123.1151803053
 31
0.0
  0
SPLINE
  5
DF
330
1F
100
AcDbEntity
  8
0
  6
SLD-Сплошная
 62
     7
370
    25
100
AcDbSpline
210
0.0
220
0.0
230
1.0
 70
     8
 71
     3
 72
    34
 73
    30
 74
     0
 42
0.00000001
 43
0.00000001
 40
0.0
 40
0.0
 40
0.0
 40
0.0
 40
0.013947165297729
 40
0.0278739744643295
 40
0.0417851547570146
 40
0.0556854493784022
 40
0.0695796126795849
 40
0.0834724053064447
 40
0.0973685893135856
 40
0.1112729232711617
 40
0.1251901573894532
 40
0.1877625997721918
 40
0.2503482463742945
 40
0.2816630136829994
 40
0.3129693991877701
 40
0.3442534169801438
 40
0.3590283212405659
 40
0.3754885848667541
 40
0.4380101113938218
 40
0.5004832191216593
 40
0.562902231656185
 40
0.6254763669470139
 40
0.6880629756902307
 40
0.7505161849062475
 40
0.8127988012261711
 40
0.8752152467664556
 40
0.8891050429297427
 40
0.9306999610623548
 40
0.9999999999999999
 40
0.9999999999999999
 40
0.9999999999999999
 40
0.9999999999999999
 10
40.90434713063274
 20
148.8463183438625
 30
0.0
 10
40.89103255601448
 20
148.8177625392338
 30
0.0
 10
40.86442283963196
 20
148.7606926076716
 30
0.0
 10
40.82606673334402
 20
148.6615394875831
 30
0.0
 10
40.7888639812917
 20
148.5525521175225
 30
0.0
 10
40.75289980105696
 20
148.4327555813715
 30
0.0
 10
40.71811959045404
 20
148.3024098004463
 30
0.0
 10
40.68450644085056
 20
148.1614439456161
 30
0.0
 10
40.65203374051157
 20
148.0098772538853
 30
0.0
 10
40.62067747064585
 20
147.8476993943322
 30
0.0
 10
40.55516418137314
 20
147.4736863954977
 30
0.0
 10
40.4644545881539
 20
146.8028752417707
 30
0.0
 10
40.37973969636127
 20
145.8764242162537
 30
0.0
 10
40.32136105141876
 20
145.0372761632719
 30
0.0
 10
40.28200812477559
 20
144.3599593059838
 30
0.0
 10
40.2530328844766
 20
143.7629810995015
 30
0.0
 10
40.23151620449298
 20
143.2586048285872
 30
0.0
 10
40.20079953970485
 20
142.4893436052088
 30
0.0
 10
40.1601255172892
 20
141.2821973579687
 30
0.0
 10
40.11696159352029
 20
139.584453050517
 30
0.0
 10
40.08313315200612
 20
137.792623621139
 30
0.0
 10
40.05735259908735
 20
135.9099453240924
 30
0.0
 10
40.03838274534471
 20
133.9420296172948
 30
0.0
 10
40.02508274378216
 20
131.8954778913034
 30
0.0
 10
40.01630369818396
 20
129.7747247994925
 30
0.0
 10
40.0124013868014
 20
128.1486631039838
 30
0.0
 10
40.0100454489164
 20
126.7441399389125
 30
0.0
 10
40.00804905734481
 20
125.2598095207139
 30
0.0
 10
40.00768610572275
 20
123.9399695138207
 30
0.0
 10
40.0074592914274
 20
123.1151803053157
 30
0.0
  0
LINE
  5
E0
330
1F
100
AcDbEntity
  8
0
  6
SLD-Сплошная
 62
     7
370
    25
100
AcDbLine
 10
114.0074592914
 20
111.1701016083
 30
0.0
 11
94.4793122028
 21
111.1701016083
 31
0.0
  0
LINE
  5
E1
330
1F
100
AcDbEntity
  8
0
  6
SLD-Сплошная
 62
     7
370
    25
100
AcDbLine
 10
114.0074592914
 20
104.1701016083
 30
0.0
 11
38.0074592914
 21
104.1701016083
 31
0.0
  0
LINE
  5
E2
330
1F
100
AcDbEntity
  8
0
  6
SLD-Сплошная
 62
     7
370
    25
100
AcDbLine
 10
57.5356063801
 20
111.1701016083
 30
0.0
 11
38.0074592914
 21
111.1701016083
 31
0.0
  0
ARC
  5
E3
330
1F
100
AcDbEntity
  8
0
  6
SLD-Сплошная
 62
     7
370
    25
100
AcDbCircle
 10
76.0074592914
 20
124.9279096487
 30
0.0
 40
12.60000000000011
100
AcDbArc
 50
90.0
 51
270.0
  0
ARC
  5
E4
330
1F
100
AcDbEntity
  8
0
  6
SLD-Сплошная
 62
     7
370
    25
100
AcDbCircle
 10
76.0074592914
 20
124.9279096487
 30
0.0
 40
12.60000000000011
100
AcDbArc
 50
270.0
 51
90.0
  0
ARC
  5
E5
330
1F
100
AcDbEntity
  8
0
  6
SLD-Сплошная
 62
     7
370
    25
100
AcDbCircle
 10
76.0074592914
 20
124.9279096487
 30
0.0
 40
16.49999999999989
100
AcDbArc
 50
14.0296654013
 51
165.9703345987
  0
LINE
  5
E6
330
1F
100
AcDbEntity
  8
0
  6
SLD-Сплошная
 62
     7
370
    25
100
AcDbLine
 10
114.0074592914
 20
111.1701016083
 30
0.0
 11
120.0074592914
 21
111.1701016083
 31
0.0
  0
LINE
  5
E7
330
1F
100
AcDbEntity
  8
0
  6
SLD-Сплошная
 62
     7
370
    25
100
AcDbLine
 10
120.0074592914
 20
111.1701016083
 30
0.0
 11
120.0074592914
 21
104.1701016083
 31
0.0
  0
LINE
  5
E8
330
1F
100
AcDbEntity
  8
0
  6
SLD-Сплошная
 62
     7
370
    25
100
AcDbLine
 10
120.0074592914
 20
104.1701016083
 30
0.0
 11
114.0074592914
 21
104.1701016083
 31
0.0
  0
LINE
  5
E9
330
1F
100
AcDbEntity
  8
0
  6
SLD-Сплошная
 62
     7
370
    25
100
AcDbLine
 10
32.0074592914
 20
104.1701016083
 30
0.0
 11
32.0074592914
 21
111.1701016083
 31
0.0
  0
LINE
  5
EA
330
1F
100
AcDbEntity
  8
0
  6
SLD-Сплошная
 62
     7
370
    25
100
AcDbLine
 10
32.0074592914
 20
111.1701016083
 30
0.0
 11
38.0074592914
 21
111.1701016083
 31
0.0
  0
LINE
  5
EB
330
1F
100
AcDbEntity
  8
0
  6
SLD-Сплошная
 62
     7
370
    25
100
AcDbLine
 10
38.0074592914
 20
104.1701016083
 30
0.0
 11
32.0074592914
 21
104.1701016083
 31
0.0
  0
SPLINE
  5
EC
330
1F
100
AcDbEntity
  8
0
  6
SLD-Сплошная
 62
     7
370
    25
100
AcDbSpline
210
0.0
220
0.0
230
1.0
 70
     8
 71
     3
 72
    42
 73
    38
 74
     0
 42
0.00000001
 43
0.00000001
 40
0.0
 40
0.0
 40
0.0
 40
0.0
 40
0.0624999999999988
 40
0.0624999999999988
 40
0.1249999999999976
 40
0.1249999999999976
 40
0.1874999999999964
 40
0.1874999999999964
 40
0.2499999999999952
 40
0.2499999999999952
 40
0.3124999999999939
 40
0.3124999999999939
 40
0.3437499999999943
 40
0.3437499999999943
 40
0.3749999999999947
 40
0.3749999999999947
 40
0.4374999999999968
 40
0.4374999999999968
 40
0.4999999999999988
 40
0.4999999999999988
 40
0.5625000000000008
 40
0.5625000000000008
 40
0.6250000000000028
 40
0.6250000000000028
 40
0.6562500000000033
 40
0.6562500000000033
 40
0.6875000000000038
 40
0.6875000000000038
 40
0.750000000000003
 40
0.750000000000003
 40
0.8125000000000023
 40
0.8125000000000023
 40
0.8750000000000016
 40
0.8750000000000016
 40
0.9375000000000008
 40
0.9375000000000008
 40
1.0
 40
1.0
 40
1.0
 40
1.0
 10
76.00745929142883
 20
136.6279096486638
 30
0.0
 10
76.73870929142888
 20
136.6279096486638
 30
0.0
 10
77.48871837731613
 20
136.5587771964316
 30
0.0
 10
78.98551615974972
 20
136.2682088370578
 30
0.0
 10
79.7320468579048
 20
136.0466432902126
 30
0.0
 10
81.1754721395225
 20
135.4536131184561
 30
0.0
 10
81.87206001047504
 20
135.0821870115269
 30
0.0
 10
83.17261335120443
 20
134.210337006606
 30
0.0
 10
83.77634476598864
 20
133.7101196985158
 30
0.0
 10
84.86021217708878
 20
132.616313983894
 30
0.0
 10
85.34027368847718
 20
132.0230133427566
 30
0.0
 10
85.95711953512638
 20
131.0949382106948
 30
0.0
 10
86.14430304972345
 20
130.781991619396
 30
0.0
 10
86.49270587056368
 20
130.1322810107854
 30
0.0
 10
86.65360477604159
 20
129.795297242511
 30
0.0
 10
87.0901452938179
 20
128.753033652609
 30
0.0
 10
87.31919331233028
 20
128.0160678782523
 30
0.0
 10
87.62793577930061
 20
126.4952558150907
 30
0.0
 10
87.70745929142895
 20
125.7116610365249
 30
0.0
 10
87.70745929142879
 20
124.1441582608028
 30
0.0
 10
87.62793577930061
 20
123.360563482237
 30
0.0
 10
87.31919331233026
 20
121.8397514190754
 30
0.0
 10
87.09014529381798
 20
121.1027856447187
 30
0.0
 10
86.65360477604167
 20
120.0605220548166
 30
0.0
 10
86.49270587056363
 20
119.7235382865422
 30
0.0
 10
86.14430304972339
 20
119.0738276779315
 30
0.0
 10
85.95711953512635
 20
118.7608810866328
 30
0.0
 10
85.34027368847715
 20
117.832805954571
 30
0.0
 10
84.8602121770887
 20
117.2395053134336
 30
0.0
 10
83.77634476598861
 20
116.1456995988117
 30
0.0
 10
83.1726133512044
 20
115.6454822907216
 30
0.0
 10
81.8720600104751
 20
114.7736322858008
 30
0.0
 10
81.17547213952243
 20
114.4022061788716
 30
0.0
 10
79.73204685790475
 20
113.8091760071151
 30
0.0
 10
78.9855161597497
 20
113.5876104602698
 30
0.0
 10
77.48871837731616
 20
113.297042100896
 30
0.0
 10
76.73870929142882
 20
113.2279096486638
 30
0.0
 10
76.00745929142883
 20
113.2279096486637
 30
0.0
  0
SPLINE
  5
ED
330
1F
100
AcDbEntity
  8
0
  6
SLD-Сплошная
 62
     7
370
    25
100
AcDbSpline
210
0.0
220
0.0
230
1.0
 70
     8
 71
     3
 72
    42
 73
    38
 74
     0
 42
0.00000001
 43
0.00000001
 40
0.0
 40
0.0
 40
0.0
 40
0.0
 40
0.0624999999999991
 40
0.0624999999999991
 40
0.1249999999999982
 40
0.1249999999999982
 40
0.1874999999999973
 40
0.1874999999999973
 40
0.2499999999999964
 40
0.2499999999999964
 40
0.3124999999999956
 40
0.3124999999999956
 40
0.3437499999999961
 40
0.3437499999999961
 40
0.3749999999999966
 40
0.3749999999999966
 40
0.4374999999999967
 40
0.4374999999999967
 40
0.4999999999999969
 40
0.4999999999999969
 40
0.5624999999999971
 40
0.5624999999999971
 40
0.6249999999999973
 40
0.6249999999999973
 40
0.6562499999999968
 40
0.6562499999999968
 40
0.6874999999999962
 40
0.6874999999999962
 40
0.749999999999997
 40
0.749999999999997
 40
0.8124999999999978
 40
0.8124999999999978
 40
0.8749999999999986
 40
0.8749999999999986
 40
0.9374999999999993
 40
0.9374999999999993
 40
1.0
 40
1.0
 40
1.0
 40
1.0
 10
76.00745929142883
 20
113.2279096486637
 30
0.0
 10
75.27620929142884
 20
113.2279096486637
 30
0.0
 10
74.52620020554151
 20
113.297042100896
 30
0.0
 10
73.02940242310795
 20
113.5876104602698
 30
0.0
 10
72.28287172495284
 20
113.8091760071149
 30
0.0
 10
70.83944644333526
 20
114.4022061788716
 30
0.0
 10
70.1428585723826
 20
114.7736322858007
 30
0.0
 10
68.8423052316533
 20
115.6454822907216
 30
0.0
 10
68.23857381686906
 20
116.1456995988117
 30
0.0
 10
67.15470640576893
 20
117.2395053134335
 30
0.0
 10
66.67464489438046
 20
117.8328059545709
 30
0.0
 10
66.05779904773127
 20
118.7608810866327
 30
0.0
 10
65.87061553313426
 20
119.0738276779314
 30
0.0
 10
65.52221271229402
 20
119.7235382865422
 30
0.0
 10
65.36131380681609
 20
120.0605220548165
 30
0.0
 10
64.92477328903962
 20
121.1027856447187
 30
0.0
 10
64.69572527052739
 20
121.8397514190753
 30
0.0
 10
64.38698280355706
 20
123.360563482237
 30
0.0
 10
64.30745929142878
 20
124.1441582608028
 30
0.0
 10
64.30745929142881
 20
125.7116610365249
 30
0.0
 10
64.38698280355698
 20
126.4952558150909
 30
0.0
 10
64.69572527052733
 20
128.0160678782524
 30
0.0
 10
64.92477328903968
 20
128.753033652609
 30
0.0
 10
65.36131380681614
 20
129.7952972425111
 30
0.0
 10
65.52221271229405
 20
130.1322810107854
 30
0.0
 10
65.87061553313428
 20
130.7819916193961
 30
0.0
 10
66.05779904773132
 20
131.0949382106948
 30
0.0
 10
66.6746448943806
 20
132.0230133427565
 30
0.0
 10
67.154706405769
 20
132.6163139838941
 30
0.0
 10
68.23857381686926
 20
133.7101196985158
 30
0.0
 10
68.84230523165347
 20
134.210337006606
 30
0.0
 10
70.14285857238269
 20
135.0821870115268
 30
0.0
 10
70.83944644333529
 20
135.453613118456
 30
0.0
 10
72.28287172495293
 20
136.0466432902126
 30
0.0
 10
73.02940242310804
 20
136.2682088370577
 30
0.0
 10
74.52620020554149
 20
136.5587771964317
 30
0.0
 10
75.27620929142881
 20
136.6279096486638
 30
0.0
 10
76.00745929142883
 20
136.6279096486638
 30
0.0
  0
LINE
  5
EE
330
1F
100
AcDbEntity
  8
0
  6
SLD-Сплошная
 62
     7
370
    25
100
AcDbLine
 10
76.0074592914
 20
113.2279096487
 30
0.0
 11
76.0074592914
 21
112.4279096487
 31
0.0
  0
ARC
  5
EF
330
1F
100
AcDbEntity
  8
0
  6
SLD-Сплошная
 62
     7
370
    25
100
AcDbCircle
 10
76.0074592914
 20
124.9279096487
 30
0.0
 40
12.50000000000009
100
AcDbArc
 50
90.0
 51
270.0
  0
ARC
  5
F0
330
1F
100
AcDbEntity
  8
0
  6
SLD-Сплошная
 62
     7
370
    25
100
AcDbCircle
 10
76.0074592914
 20
124.9279096487
 30
0.0
 40
12.50000000000009
100
AcDbArc
 50
270.0
 51
90.0
  0
SPLINE
  5
F1
330
1F
100
AcDbEntity
  8
0
  6
SLD-Сплошная
 62
     7
370
    25
100
AcDbSpline
210
0.0
220
0.0
230
1.0
 70
     8
 71
     3
 72
    11
 73
     7
 74
     0
 42
0.00000001
 43
0.00000001
 40
0.0
 40
0.0
 40
0.0
 40
0.0
 40
0.1155263808739009
 40
0.4131716347433708
 40
0.7080748910644162
 40
1.0
 40
1.0
 40
1.0
 40
1.0
 10
38.56464927857719
 20
132.2052550714066
 30
0.0
 10
38.56562211312231
 20
131.8494475668359
 30
0.0
 10
38.56910138457789
 20
130.5769281024037
 30
0.0
 10
38.76976964804307
 20
128.4038162960995
 30
0.0
 10
39.15319989809804
 20
125.6973663782847
 30
0.0
 10
39.7236712054852
 20
123.9729919359738
 30
0.0
 10
40.00745929142882
 20
123.1151803053154
 30
0.0
  0
SPLINE
  5
F2
330
1F
100
AcDbEntity
  8
0
  6
SLD-Сплошная
 62
     7
370
    25
100
AcDbSpline
210
0.0
220
0.0
230
1.0
 70
     8
 71
     3
 72
    12
 73
     8
 74
     0
 42
0.00000001
 43
0.00000001
 40
0.0
 40
0.0
 40
0.0
 40
0.0
 40
0.2254339231748087
 40
0.449209426653567
 40
0.6721677923591101
 40
0.895269307674537
 40
1.0
 40
1.0
 40
1.0
 40
1.0
 10
112.0074592914288
 20
123.1151803052946
 30
0.0
 10
112.2325453491314
 20
123.7651551561111
 30
0.0
 10
112.681061603936
 20
125.0603232743898
 30
0.0
 10
113.0603497758423
 20
127.0739390808921
 30
0.0
 10
113.3099488331765
 20
129.0927283771557
 30
0.0
 10
113.4522609524291
 20
130.7624730201706
 30
0.0
 10
113.4398500171582
 20
131.7581997206279
 30
0.0
 10
113.4358851661977
 20
132.0762988709716
 30
0.0
  0
LINE
  5
F3
330
1F
100
AcDbEntity
  8
0
  6
SLD-Сплошная
 62
     7
370
    25
100
AcDbLine
 10
40.0075964678
 20
153.5696589351
 30
0.0
 11
40.0075964678
 21
155.0427512995
 31
0.0
  0
LINE
  5
F4
330
1F
100
AcDbEntity
  8
0
  6
SLD-Сплошная
 62
     7
370
    25
100
AcDbLine
 10
112.0073221151
 20
155.0427512995
 30
0.0
 11
112.0073221151
 21
153.5954139084
 31
0.0
  0
LINE
  5
F5
330
1F
100
AcDbEntity
  8
0
  6
SLD-Сплошная
 62
     7
370
    25
100
AcDbLine
 10
113.8074592914
 20
156.0780274799
 30
0.0
 11
113.8074592914
 21
155.120397013
 31
0.0
  0
LWPOLYLINE
  5
F6
330
1F
100
AcDbEntity
  8
0
  6
SLD-Сплошная
 62
     7
370
    25
100
AcDbPolyline
 90
       41
 70
   128
 43
0.0
 10
113.8074592914
 20
155.120397013
 10
113.6909345065
 20
157.9850952208
 10
113.3420785659
 20
160.8321316114
 10
112.7630422825
 20
163.6439532589
 10
111.9573956074
 20
166.4032243478
 10
110.9301056204
 20
169.0929330543
 10
109.6875059057
 20
171.6964964297
 10
108.237257504
 20
174.1978626401
 10
106.5883016788
 20
176.581609931
 10
104.7508047911
 20
178.8330417077
 10
102.7360956203
 20
180.9382771446
 10
100.5565955183
 20
182.8843367651
 10
98.2257418281
 20
184.6592224647
 10
95.7579050377
 20
186.2519914827
 10
93.1683001816
 20
187.6528238684
 10
90.4728930348
 20
188.8530830245
 10
87.6883016788
 20
189.8453689541
 10
84.8316940452
 20
190.6235638844
 10
81.9206820699
 20
191.1828699849
 10
78.9732131099
 20
191.5198389476
 10
76.0074592914
 20
191.6323932468
 10
73.0417054729
 20
191.5198389476
 10
70.0942365129
 20
191.1828699849
 10
67.1832245377
 20
190.6235638844
 10
64.3266169041
 20
189.8453689541
 10
61.542025548
 20
188.8530830245
 10
58.8466184013
 20
187.6528238684
 10
56.2570135452
 20
186.2519914827
 10
53.7891767548
 20
184.6592224647
 10
51.4583230645
 20
182.8843367651
 10
49.2788229626
 20
180.9382771446
 10
47.2641137917
 20
178.8330417077
 10
45.4266169041
 20
176.581609931
 10
43.7776610788
 20
174.1978626401
 10
42.3274126771
 20
171.6964964297
 10
41.0848129625
 20
169.0929330543
 10
40.0575229755
 20
166.4032243478
 10
39.2518763004
 20
163.6439532589
 10
38.6728400169
 20
160.8321316114
 10
38.3239840763
 20
157.9850952208
 10
38.2074592914
 20
155.120397013
  0
LINE
  5
F7
330
1F
100
AcDbEntity
  8
0
  6
SLD-Сплошная
 62
     7
370
    25
100
AcDbLine
 10
38.2074592914
 20
156.0780274799
 30
0.0
 11
38.2074592914
 21
155.120397013
 31
0.0
  0
LWPOLYLINE
  5
F8
330
1F
100
AcDbEntity
  8
0
  6
SLD-Сплошная
 62
     7
370
    25
100
AcDbPolyline
 90
       41
 70
   128
 43
0.0
 10
113.8074592914
 20
156.0780274799
 10
113.6909345065
 20
158.9427256876
 10
113.3420785659
 20
161.7897620783
 10
112.7630422825
 20
164.6015837258
 10
111.9573956074
 20
167.3608548147
 10
110.9301056204
 20
170.0505635211
 10
109.6875059057
 20
172.6541268966
 10
108.237257504
 20
175.155493107
 10
106.5883016788
 20
177.5392403979
 10
104.7508047911
 20
179.7906721746
 10
102.7360956203
 20
181.8959076114
 10
100.5565955183
 20
183.841967232
 10
98.2257418281
 20
185.6168529316
 10
95.7579050377
 20
187.2096219495
 10
93.1683001816
 20
188.6104543353
 10
90.4728930348
 20
189.8107134914
 10
87.6883016788
 20
190.8029994209
 10
84.8316940452
 20
191.5811943513
 10
81.9206820699
 20
192.1405004518
 10
78.9732131099
 20
192.4774694145
 10
76.0074592914
 20
192.5900237136
 10
73.0417054729
 20
192.4774694145
 10
70.0942365129
 20
192.1405004518
 10
67.1832245377
 20
191.5811943513
 10
64.3266169041
 20
190.8029994209
 10
61.542025548
 20
189.8107134914
 10
58.8466184013
 20
188.6104543353
 10
56.2570135452
 20
187.2096219495
 10
53.7891767548
 20
185.6168529316
 10
51.4583230645
 20
183.841967232
 10
49.2788229626
 20
181.8959076114
 10
47.2641137917
 20
179.7906721746
 10
45.4266169041
 20
177.5392403979
 10
43.7776610788
 20
175.155493107
 10
42.3274126771
 20
172.6541268966
 10
41.0848129625
 20
170.0505635211
 10
40.0575229755
 20
167.3608548147
 10
39.2518763004
 20
164.6015837258
 10
38.6728400169
 20
161.7897620783
 10
38.3239840763
 20
158.9427256876
 10
38.2074592914
 20
156.0780274799
  0
ARC
  5
F9
330
1F
100
AcDbEntity
  8
0
  6
SLD-Сплошная
 62
     7
370
    25
100
AcDbCircle
 10
73.515283148
 20
155.1222302193
 30
0.0
 40
35.30782390416411
100
AcDbArc
 50
180.002974836
 51
190.6038924337
  0
ARC
  5
FA
330
1F
100
AcDbEntity
  8
0
  6
SLD-Сплошная
 62
     7
370
    25
100
AcDbCircle
 10
78.5032551979
 20
155.1219204453
 30
0.0
 40
35.30420412639544
100
AcDbArc
 50
349.524016488
 51
359.9975275964
  0
ARC
  5
FB
330
1F
100
AcDbEntity
  8
0
  6
SLD-Сплошная
 62
     7
370
    25
100
AcDbCircle
 10
76.0074592914
 20
162.4454233284
 30
0.0
 40
31.56314599521949
100
AcDbArc
 50
52.908067182
 51
127.0919328181
  0
ARC
  5
FC
330
1F
100
AcDbEntity
  8
0
  6
SLD-Сплошная
 62
     7
370
    25
100
AcDbCircle
 10
76.0074592914
 20
162.5489527937
 30
0.0
 40
32.2946654055001
100
AcDbArc
 50
43.096724585
 51
136.9032754152
  0
ARC
  5
FD
330
1F
100
AcDbEntity
  8
0
  6
SLD-Сплошная
 62
     7
370
    25
100
AcDbCircle
 10
76.0074592914
 20
166.5845939234
 30
0.0
 40
31.95836113252389
100
AcDbArc
 50
22.7407699196
 51
157.2592300803
  0
LWPOLYLINE
  5
FE
330
1F
100
AcDbEntity
  8
0
  6
SLD-Сплошная
 62
     7
370
    25
100
AcDbPolyline
 90
       10
 70
   128
 43
0.0
 10
96.0074592914
 20
128.9279096487
 10
98.5913559301
 20
131.0875756332
 10
100.9521630782
 20
133.2642822327
 10
103.0882067914
 20
135.4564860404
 10
104.997972495
 20
137.6626326611
 10
106.6801060584
 20
139.8811578135
 10
108.1334147549
 20
142.1104884391
 10
109.3568681071
 20
144.3490438177
 10
110.3495986183
 20
146.5952366884
 10
111.1109023869
 20
148.8474743747
  0
SPLINE
  5
FF
330
1F
100
AcDbEntity
  8
0
  6
SLD-Сплошная
 62
     7
370
    25
100
AcDbSpline
210
0.0
220
0.0
230
1.0
 70
     8
 71
     3
 72
    49
 73
    45
 74
     0
 42
0.00000001
 43
0.00000001
 40
0.0
 40
0.0
 40
0.0
 40
0.0
 40
0.006944615030843
 40
0.01387766405038
 40
0.0208024311887208
 40
0.0277222123677345
 40
0.0346403106355306
 40
0.0415600314501719
 40
0.0484846779461694
 40
0.0554175462175803
 40
0.0623619206512631
 40
0.0936185531370974
 40
0.1248353146846092
 40
0.1560202563943831
 40
0.1871294206654231
 40
0.2184919593064338
 40
0.2497537147647341
 40
0.2809329330110832
 40
0.3120058442848809
 40
0.3433405003085357
 40
0.3745803582288578
 40
0.4058689085669439
 40
0.4370945337102235
 40
0.4682781956902554
 40
0.4994443757880366
 40
0.5307552315557582
 40
0.5620990320859667
 40
0.5932965384307243
 40
0.6245724057646023
 40
0.655749215899606
 40
0.687036063800956
 40
0.7183073842118762
 40
0.7497024818506178
 40
0.7808421591478967
 40
0.8120979866694432
 40
0.843325989764852
 40
0.8746467834392766
 40
0.9059246643828719
 40
0.9372590014876854
 40
0.9498239930903403
 40
0.9623609777410713
 40
0.9748895559391384
 40
0.9874293676032765
 40
1.0
 40
1.0
 40
1.0
 40
1.0
 10
96.00745929142904
 20
128.9279096486643
 30
0.0
 10
96.0196116157844
 20
129.0844032573519
 30
0.0
 10
96.04389602522778
 20
129.3971298401434
 30
0.0
 10
96.06738189746252
 20
129.8667649201534
 30
0.0
 10
96.08133686657145
 20
130.3361908969845
 30
0.0
 10
96.0848395984073
 20
130.8054848762962
 30
0.0
 10
96.07813663241984
 20
131.2746256394214
 30
0.0
 10
96.06116162312381
 20
131.7436191540665
 30
0.0
 10
96.03393364680254
 20
132.2124608242118
 30
0.0
 10
95.99644291883008
 20
132.681161169894
 30
0.0
 10
95.8930480264942
 20
133.696025185198
 30
0.0
 10
95.6407381539241
 20
135.2475098407098
 30
0.0
 10
95.09418870277594
 20
137.2959858323223
 30
0.0
 10
94.35017740509579
 20
139.2779493703103
 30
0.0
 10
93.40959950360345
 20
141.1782001493269
 30
0.0
 10
92.28284550124954
 20
142.9765629702506
 30
0.0
 10
90.97622073056752
 20
144.6508696262091
 30
0.0
 10
89.5101924956711
 20
146.1785577668988
 30
0.0
 10
87.89136091465805
 20
147.54589884909
 30
0.0
 10
86.13765568056748
 20
148.7380847459169
 30
0.0
 10
84.26188477200189
 20
149.7376646786566
 30
0.0
 10
82.2926145716783
 20
150.5311170785658
 30
0.0
 10
80.24980668269806
 20
151.1049321900108
 30
0.0
 10
78.15980624219848
 20
151.4550917966386
 30
0.0
 10
76.04206815379916
 20
151.57395291712
 30
0.0
 10
73.92024308519302
 20
151.4626369964627
 30
0.0
 10
71.82293673868323
 20
151.1179356401777
 30
0.0
 10
69.77590175982313
 20
150.5492503855105
 30
0.0
 10
67.80651101169526
 20
149.7624114826471
 30
0.0
 10
65.9302182280295
 20
148.7698113257183
 30
0.0
 10
64.17110204620471
 20
147.5821031390148
 30
0.0
 10
62.54192089880723
 20
146.2140835730781
 30
0.0
 10
61.06796030549891
 20
144.6847603387246
 30
0.0
 10
59.75820500209436
 20
143.0133162933562
 30
0.0
 10
58.62857296507767
 20
141.2197321461406
 30
0.0
 10
57.68210841282509
 20
139.3186248321018
 30
0.0
 10
56.93185430328229
 20
137.3313458627312
 30
0.0
 10
56.38049285730781
 20
135.277677389026
 30
0.0
 10
56.10505611431182
 20
133.5979013051555
 30
0.0
 10
55.98534356358081
 20
132.3277630341352
 30
0.0
 10
55.93884294619583
 20
131.4782707055703
 30
0.0
 10
55.92667174362925
 20
130.6282524361868
 30
0.0
 10
55.94580846351182
 20
129.7774335138594
 30
0.0
 10
55.98689220663333
 20
129.2113158892911
 30
0.0
 10
56.00745929142919
 20
128.9279096486644
 30
0.0
  0
LWPOLYLINE
  5
100
330
1F
100
AcDbEntity
  8
0
  6
SLD-Сплошная
 62
     7
370
    25
100
AcDbPolyline
 90
       10
 70
   128
 43
0.0
 10
56.0074592914
 20
128.9279096487
 10
53.4236437734
 20
131.0875044927
 10
51.0629030516
 20
133.2641388841
 10
48.9269109136
 20
135.4562695685
 10
47.017181798
 20
137.6623423047
 10
45.3350697206
 20
139.8807929663
 10
43.8817673148
 20
142.1100486508
 10
42.6583049857
 20
144.348528795
 10
41.6655501796
 20
146.5946462952
 10
40.904206769
 20
148.8468086331
  0
SPLINE
  5
101
330
1F
100
AcDbEntity
  8
0
  6
SLD-Сплошная
 62
     7
370
    25
100
AcDbSpline
210
0.0
220
0.0
230
1.0
 70
     8
 71
     3
 72
    61
 73
    57
 74
     0
 42
0.00000001
 43
0.00000001
 40
0.0
 40
0.0
 40
0.0
 40
0.0
 40
0.023145483226571
 40
0.0461841602512712
 40
0.0522490951886164
 40
0.0582996618230329
 40
0.0643388123840718
 40
0.0703725066032399
 40
0.0752156056003447
 40
0.0824339826450124
 40
0.0943715950897292
 40
0.1062469451896733
 40
0.1180606345249059
 40
0.1298132562391637
 40
0.1415053931315617
 40
0.1531376158115811
 40
0.164710480921738
 40
0.2202723507597307
 40
0.2753961621665266
 40
0.3292923823259513
 40
0.3498697958409998
 40
0.3704501378270646
 40
0.3910675176682554
 40
0.4116520859943676
 40
0.4323352542088136
 40
0.4529440269338121
 40
0.4735821173929584
 40
0.4942494721128928
 40
0.5148315267925161
 40
0.5355116490949856
 40
0.5560372383403261
 40
0.5766785314746674
 40
0.5976182650891856
 40
0.6182888553037207
 40
0.6386817335804833
 40
0.6587889538277003
 40
0.6788590725779415
 40
0.6992583205352862
 40
0.7199786747241328
 40
0.7410113862238652
 40
0.754617668617997
 40
0.7684794568108815
 40
0.782186219878309
 40
0.7965138299436194
 40
0.8101966212133043
 40
0.823421355555672
 40
0.8440386793605668
 40
0.864695942384524
 40
0.8853543753324871
 40
0.9059527728157558
 40
0.9266590856416765
 40
0.9369149483559008
 40
0.9472836151023135
 40
0.9681592182953133
 40
0.9890516476816207
 40
1.0
 40
1.0
 40
1.0
 40
1.0
 10
40.9042067690028
 20
148.8468086331378
 30
0.0
 10
40.9931493292344
 20
148.9937141584705
 30
0.0
 10
41.17062401899055
 20
149.2868473048969
 30
0.0
 10
41.43969153636559
 20
149.236131851477
 30
0.0
 10
41.62731388653615
 20
149.08875997527
 30
0.0
 10
41.72628048980298
 20
148.98443846237
 30
0.0
 10
41.8264425930481
 20
148.8529455317782
 30
0.0
 10
41.92108553687507
 20
148.7061297391662
 30
0.0
 10
42.02277865577469
 20
148.5205957201794
 30
0.0
 10
42.15982403804214
 20
148.2567893724879
 30
0.0
 10
42.34370204930568
 20
147.9101534980616
 30
0.0
 10
42.56375046039388
 20
147.4976864657059
 30
0.0
 10
42.79154384132111
 20
147.0747870755073
 30
0.0
 10
43.02684600951273
 20
146.6412010704184
 30
0.0
 10
43.26948247257073
 20
146.1972989338637
 30
0.0
 10
43.51928168809402
 20
145.7432763677554
 30
0.0
 10
44.10192303065141
 20
144.6911320604108
 30
0.0
 10
45.09030644402579
 20
142.9327796166099
 30
0.0
 10
46.60761391074056
 20
140.3022778531736
 30
0.0
 10
47.95251788815463
 20
137.9985776702385
 30
0.0
 10
49.02329713883213
 20
136.2596187412126
 30
0.0
 10
49.74603090630303
 20
134.9733788044431
 30
0.0
 10
50.52595738719934
 20
134.2512117840414
 30
0.0
 10
51.32927852261485
 20
134.2284870783441
 30
0.0
 10
52.17425551672894
 20
134.8661519937395
 30
0.0
 10
53.1215412156098
 20
136.101692518617
 30
0.0
 10
54.24788542343856
 20
137.8317902783757
 30
0.0
 10
55.62259157241623
 20
139.9111463776144
 30
0.0
 10
57.28097885411362
 20
142.1841055890957
 30
0.0
 10
59.22145216731128
 20
144.4798725657073
 30
0.0
 10
61.39513296957569
 20
146.7173425687753
 30
0.0
 10
63.87207048615748
 20
148.6526345175342
 30
0.0
 10
66.61930858099623
 20
150.20841820393
 30
0.0
 10
69.55499797290862
 20
151.3484603166945
 30
0.0
 10
72.58573602420141
 20
152.0489552086215
 30
0.0
 10
75.6560857836476
 20
152.3141617409349
 30
0.0
 10
78.733871399398
 20
152.147761730178
 30
0.0
 10
81.78706555183129
 20
151.5443733821423
 30
0.0
 10
84.76591923146113
 20
150.4962402902672
 30
0.0
 10
87.251922648764
 20
149.187760160462
 30
0.0
 10
89.26798840651678
 20
147.7936920206597
 30
0.0
 10
90.8529573178499
 20
146.447799408746
 30
0.0
 10
92.3350600658699
 20
144.9486831361027
 30
0.0
 10
93.70714567576915
 20
143.4163413980652
 30
0.0
 10
94.9406626135556
 20
141.8832096423632
 30
0.0
 10
96.22217657736194
 20
140.1491626347337
 30
0.0
 10
97.48706912821453
 20
138.2690816978343
 30
0.0
 10
98.66324158113585
 20
136.4430281683832
 30
0.0
 10
99.64317565836458
 20
135.0917589031635
 30
0.0
 10
100.505082146916
 20
134.3107823276248
 30
0.0
 10
101.1803523339425
 20
134.211718483943
 30
0.0
 10
101.7076904571362
 20
134.4688654242778
 30
0.0
 10
102.2288871415616
 20
134.9499676273291
 30
0.0
 10
102.843379489509
 20
136.0096746640285
 30
0.0
 10
103.4565280637602
 20
137.00294063222
 30
0.0
 10
103.7826222885534
 20
137.5583297265611
 30
0.0
 10
103.894748758787
 20
137.7492985141691
 30
0.0
  0
SPLINE
  5
102
330
1F
100
AcDbEntity
  8
0
  6
SLD-Сплошная
 62
     7
370
    25
100
AcDbSpline
210
0.0
220
0.0
230
1.0
 70
     8
 71
     3
 72
    12
 73
     8
 74
     0
 42
0.00000001
 43
0.00000001
 40
0.0
 40
0.0
 40
0.0
 40
0.0
 40
0.0518120788789067
 40
0.4615072502514457
 40
0.641624238025299
 40
0.8205174338044426
 40
1.0
 40
1.0
 40
1.0
 40
1.0
 10
108.4722971654216
 20
145.7060522794337
 30
0.0
 10
108.5346242894802
 20
145.8173163426631
 30
0.0
 10
109.0897925101497
 20
146.8083819973113
 30
0.0
 10
109.6834573865625
 20
147.9614615809426
 30
0.0
 10
110.3448960190491
 20
149.1440031261806
 30
0.0
 10
110.786948107491
 20
149.3400083820718
 30
0.0
 10
111.002799300355
 20
149.0118322789233
 30
0.0
 10
111.1109023868978
 20
148.8474743747152
 30
0.0
  0
ARC
  5
103
330
1F
100
AcDbEntity
  8
0
  6
SLD-Сплошная
 62
     7
370
    25
100
AcDbCircle
 10
76.0074592914
 20
124.9279096487
 30
0.0
 40
16.50000000000001
100
AcDbArc
 50
14.0296654013
 51
90.0
  0
ARC
  5
104
330
1F
100
AcDbEntity
  8
0
  6
SLD-Сплошная
 62
     7
370
    25
100
AcDbCircle
 10
76.0074592914
 20
124.9279096487
 30
0.0
 40
16.50000000000001
100
AcDbArc
 50
90.0
 51
165.9703345987
  0
SPLINE
  5
105
330
1F
100
AcDbEntity
  8
0
  6
SLD-Сплошная
 62
     7
370
    25
100
AcDbSpline
210
0.0
220
0.0
230
1.0
 70
     8
 71
     3
 72
    23
 73
    19
 74
     0
 42
0.00000001
 43
0.00000001
 40
0.0
 40
0.0
 40
0.0
 40
0.0
 40
0.0057025302781291
 40
0.0755411810672626
 40
0.1449657525682074
 40
0.2146676933547833
 40
0.3548390522705184
 40
0.4949228534230958
 40
0.6328902239782017
 40
0.6936794534563961
 40
0.7527469812995883
 40
0.8101013375261158
 40
0.8431714364031034
 40
0.8778653870836618
 40
0.9122272905562797
 40
0.9466840216510923
 40
0.9736051616263091
 40
1.0
 40
1.0
 40
1.0
 40
1.0
 10
110.5624491014102
 20
155.1158981379824
 30
0.0
 10
110.5475136797917
 20
155.1339559500053
 30
0.0
 10
110.3496647717163
 20
155.3731670337126
 30
0.0
 10
109.9159115180899
 20
155.356655060975
 30
0.0
 10
109.3261892774786
 20
155.0363722208196
 30
0.0
 10
108.6234617743741
 20
153.7826599426985
 30
0.0
 10
107.6400517448616
 20
152.072209382804
 30
0.0
 10
106.3073962263128
 20
149.7197148909859
 30
0.0
 10
105.1070371588194
 20
147.590443307237
 30
0.0
 10
104.1285345611529
 20
145.8489907542005
 30
0.0
 10
103.4292912262633
 20
144.6007039051325
 30
0.0
 10
102.8160769618748
 20
143.5099762290774
 30
0.0
 10
102.290291413481
 20
142.5626607455236
 30
0.0
 10
101.8446694675451
 20
141.7982149355421
 30
0.0
 10
101.4107312117432
 20
140.9118832150934
 30
0.0
 10
100.8963352575698
 20
140.4349770573275
 30
0.0
 10
100.3275002246702
 20
140.4029694415216
 30
0.0
 10
99.92177993387183
 20
140.6325441609599
 30
0.0
 10
99.72092229546425
 20
140.7461984124979
 30
0.0
  0
SPLINE
  5
106
330
1F
100
AcDbEntity
  8
0
  6
SLD-Сплошная
 62
     7
370
    25
100
AcDbSpline
210
0.0
220
0.0
230
1.0
 70
     8
 71
     3
 72
    28
 73
    24
 74
     0
 42
0.00000001
 43
0.00000001
 40
0.0
 40
0.0
 40
0.0
 40
0.0
 40
0.017395075942796
 40
0.0440542730674375
 40
0.0707363502200425
 40
0.0801899012810196
 40
0.0896785567663589
 40
0.0982473169081766
 40
0.0994656488537726
 40
0.103473658848058
 40
0.1110707710648849
 40
0.1245881265504246
 40
0.193947274025378
 40
0.2660263752560094
 40
0.3408410573894277
 40
0.4469141343167682
 40
0.5570847484482809
 40
0.6641550051276719
 40
0.7733301801113756
 40
0.845224351237925
 40
0.9164174464005962
 40
0.988098947750745
 40
1.0
 40
1.0
 40
1.0
 40
1.0
 10
52.50581884661882
 20
140.9218484615234
 30
0.0
 10
52.36268041662298
 20
140.8098751614218
 30
0.0
 10
52.00017211242136
 20
140.5262947760785
 30
0.0
 10
51.50124833978143
 20
140.3933373910227
 30
0.0
 10
51.10681698312075
 20
140.4879438581344
 30
0.0
 10
50.85388296803306
 20
140.6849802647431
 30
0.0
 10
50.71199847306463
 20
140.8427112277728
 30
0.0
 10
50.61960762172493
 20
140.9769881197795
 30
0.0
 10
50.55742945935088
 20
141.0855434007151
 30
0.0
 10
50.49991742271115
 20
141.1869405862909
 30
0.0
 10
50.38811471490018
 20
141.3864443848795
 30
0.0
 10
49.98775839628658
 20
142.0990581364154
 30
0.0
 10
49.32026798687286
 20
143.2905939470678
 30
0.0
 10
48.42955794279977
 20
144.8805134394524
 30
0.0
 10
47.43606233165634
 20
146.651197134078
 30
0.0
 10
46.36106083298305
 20
148.5628575154401
 30
0.0
 10
45.25679534337507
 20
150.5132810231643
 30
0.0
 10
44.23748911808273
 20
152.318011558141
 30
0.0
 10
43.41707459870944
 20
153.7200857295265
 30
0.0
 10
42.78031358067247
 20
154.923285179811
 30
0.0
 10
42.17679566700907
 20
155.3491011853498
 30
0.0
 10
41.7101503644817
 20
155.3927246146719
 30
0.0
 10
41.48776067296433
 20
155.1345496129653
 30
0.0
 10
41.45609531668526
 20
155.0977889009215
 30
0.0
  0
SPLINE
  5
107
330
1F
100
AcDbEntity
  8
0
  6
SLD-Сплошная
 62
     7
370
    25
100
AcDbSpline
210
0.0
220
0.0
230
1.0
 70
     8
 71
     3
 72
     9
 73
     5
 74
     0
 42
0.00000001
 43
0.00000001
 40
0.0
 40
0.0
 40
0.0
 40
0.0
 40
0.8133333513687363
 40
1.0
 40
1.0
 40
1.0
 40
1.0
 10
40.90420676899981
 20
148.846808633134
 30
0.0
 10
40.42689506741412
 20
149.0751223853087
 30
0.0
 10
39.84003643093692
 20
149.355836008807
 30
0.0
 10
39.61088025460738
 20
149.6662840748329
 30
0.0
 10
39.56810443915882
 20
149.724234374892
 30
0.0
  0
SPLINE
  5
108
330
1F
100
AcDbEntity
  8
0
  6
SLD-Сплошная
 62
     7
370
    25
100
AcDbSpline
210
0.0
220
0.0
230
1.0
 70
     8
 71
     3
 72
     9
 73
     5
 74
     0
 42
0.00000001
 43
0.00000001
 40
0.0
 40
0.0
 40
0.0
 40
0.0
 40
0.1582000219815239
 40
0.9999999999999999
 40
0.9999999999999999
 40
0.9999999999999999
 40
0.9999999999999999
 10
39.19266599411691
 20
150.1850674455403
 30
0.0
 10
39.15774939366379
 20
150.2243460748108
 30
0.0
 10
38.93703766419748
 20
150.4726306753973
 30
0.0
 10
39.05935033976146
 20
150.7289843179217
 30
0.0
 10
39.16231314736257
 20
150.9447828085638
 30
0.0
  0
SPLINE
  5
109
330
1F
100
AcDbEntity
  8
0
  6
SLD-Сплошная
 62
     7
370
    25
100
AcDbSpline
210
0.0
220
0.0
230
1.0
 70
     8
 71
     3
 72
     9
 73
     5
 74
     0
 42
0.00000001
 43
0.00000001
 40
0.0
 40
0.0
 40
0.0
 40
0.0
 40
0.8448877107205393
 40
1.0
 40
1.0
 40
1.0
 40
1.0
 10
112.8558814614194
 20
150.9157982339496
 30
0.0
 10
112.9542773123242
 20
150.7101807889171
 30
0.0
 10
113.0707375823177
 20
150.4668141942518
 30
0.0
 10
112.8620434852688
 20
150.2310673033011
 30
0.0
 10
112.8296724661164
 20
150.1945000633552
 30
0.0
  0
SPLINE
  5
10A
330
1F
100
AcDbEntity
  8
0
  6
SLD-Сплошная
 62
     7
370
    25
100
AcDbSpline
210
0.0
220
0.0
230
1.0
 70
     8
 71
     3
 72
     9
 73
     5
 74
     0
 42
0.00000001
 43
0.00000001
 40
0.0
 40
0.0
 40
0.0
 40
0.0
 40
0.1681193721876612
 40
1.0
 40
1.0
 40
1.0
 40
1.0
 10
112.4325473428545
 20
149.7057761104796
 30
0.0
 10
112.3945626055818
 20
149.6546800002504
 30
0.0
 10
112.1686235196904
 20
149.3507524423238
 30
0.0
 10
111.5912271999017
 20
149.0760194384547
 30
0.0
 10
111.1109023868993
 20
148.8474743747152
 30
0.0
  0
LWPOLYLINE
  5
10B
330
1F
100
AcDbEntity
  8
0
  6
SLD-Сплошная
 62
     7
370
    25
100
AcDbPolyline
 90
       40
 70
   128
 43
0.0
 10
112.0074592914
 20
155.120397013
 10
111.8907223843
 20
157.9184875406
 10
111.5412687464
 20
160.6984313773
 10
110.9613647188
 20
163.4421995208
 10
110.1547712015
 20
166.1319975816
 10
109.1267192631
 20
168.7503811873
 10
107.8838762149
 20
171.2803691153
 10
106.434302371
 20
173.7055534232
 10
104.787398774
 20
176.01020586
 10
102.9538462256
 20
178.1793798704
 10
100.9455360178
 20
180.1990075284
 10
98.7754928129
 20
182.0559907739
 10
96.4577901738
 20
183.7382863577
 10
94.0074592914
 20
185.2349839476
 10
91.4403915019
 20
186.5363768853
 10
88.773235225
 20
187.6340251382
 10
86.0232879924
 20
188.5208100362
 10
83.2083842674
 20
189.190980439
 10
80.3467797806
 20
189.6401900342
 10
77.4570331354
 20
189.8655255254
 10
74.5578854475
 20
189.8655255254
 10
71.6681388022
 20
189.6401900342
 10
68.8065343155
 20
189.190980439
 10
65.9916305904
 20
188.5208100362
 10
63.2416833579
 20
187.6340251382
 10
60.5745270809
 20
186.5363768853
 10
58.0074592914
 20
185.2349839476
 10
55.5571284091
 20
183.7382863577
 10
53.23942577
 20
182.0559907739
 10
51.0693825651
 20
180.1990075284
 10
49.0610723573
 20
178.1793798704
 10
47.2275198089
 20
176.01020586
 10
45.5806162119
 20
173.7055534232
 10
44.1310423679
 20
171.2803691153
 10
42.8881993197
 20
168.7503811873
 10
41.8601473813
 20
166.1319975816
 10
41.0535538641
 20
163.4421995208
 10
40.4736498365
 20
160.6984313773
 10
40.1241961986
 20
157.9184875406
 10
40.0074592914
 20
155.120397013
  0
ARC
  5
10C
330
1F
100
AcDbEntity
  8
0
  6
SLD-Сплошная
 62
     7
370
    25
100
AcDbCircle
 10
76.0074592914
 20
138.5190619526
 30
0.0
 40
32.3148752111135
100
AcDbArc
 50
84.67318982
 51
95.32681018
  0
ARC
  5
10D
330
1F
100
AcDbEntity
  8
0
  6
SLD-Сплошная
 62
     7
370
    25
100
AcDbCircle
 10
74.3953097974
 20
147.3848677243
 30
0.0
 40
33.14278468075125
100
AcDbArc
 50
142.7675041092
 51
160.7047874302
  0
SPLINE
  5
10E
330
1F
100
AcDbEntity
  8
0
  6
SLD-Сплошная
 62
     7
370
    25
100
AcDbSpline
210
0.0
220
0.0
230
1.0
 70
     8
 71
     3
 72
    13
 73
     9
 74
     0
 42
0.00000001
 43
0.00000001
 40
0.0
 40
0.0
 40
0.0
 40
0.0
 40
0.4999999999999954
 40
0.4999999999999954
 40
0.6249999999999953
 40
0.6249999999999953
 40
0.7499999999999951
 40
1.0
 40
1.0
 40
1.0
 40
1.0
 10
43.11420289575082
 20
158.3364213768746
 30
0.0
 10
43.27099090187433
 20
157.9031875125782
 30
0.0
 10
43.44163513328039
 20
157.4697813762162
 30
0.0
 10
43.67247177458486
 20
156.9278057414793
 30
0.0
 10
43.71897612302883
 20
156.8206486023596
 30
0.0
 10
43.81387460673031
 20
156.6059060464914
 30
0.0
 10
43.95873282928581
 20
156.2839360867948
 30
0.0
 10
44.11112337211781
 20
155.9623977969391
 30
0.0
 10
44.21606713051432
 20
155.7482309258492
 30
0.0
  0
ARC
  5
10F
330
1F
100
AcDbEntity
  8
0
  6
SLD-Сплошная
 62
     7
370
    25
100
AcDbCircle
 10
74.3993784556
 20
144.8228345158
 30
0.0
 40
32.09979079780955
100
AcDbArc
 50
145.3039741523
 51
160.1013590531
  0
SPLINE
  5
110
330
1F
100
AcDbEntity
  8
0
  6
SLD-Сплошная
 62
     7
370
    25
100
AcDbSpline
210
0.0
220
0.0
230
1.0
 70
     8
 71
     3
 72
    31
 73
    27
 74
     0
 42
0.00000001
 43
0.00000001
 40
0.0
 40
0.0
 40
0.0
 40
0.0
 40
0.0190231735141689
 40
0.0376104423268096
 40
0.0557634849842362
 40
0.0734841034365577
 40
0.090774234844297
 40
0.1076359647485423
 40
0.1240715417837008
 40
0.188958050301159
 40
0.2485839807617207
 40
0.342194920080742
 40
0.4246003028259004
 40
0.4987103978614322
 40
0.558923975798815
 40
0.6187587807513197
 40
0.6812595188414402
 40
0.7491129654548001
 40
0.77817897908397
 40
0.8086822052496342
 40
0.8407145086854707
 40
0.8743552298248091
 40
0.9036044639408064
 40
0.9342760700327937
 40
0.9663993996373778
 40
1.0
 40
1.0
 40
1.0
 40
1.0
 10
48.00745929142883
 20
163.0947575698968
 30
0.0
 10
48.07901925317226
 20
163.1978874959149
 30
0.0
 10
48.22049942271675
 20
163.4017841870628
 30
0.0
 10
48.43349509293299
 20
163.7047215766053
 30
0.0
 10
48.64348787713823
 20
164.000936404775
 30
0.0
 10
48.85037539956963
 20
164.2904013578327
 30
0.0
 10
49.05376779310089
 20
164.5730200831395
 30
0.0
 10
49.25339155365568
 20
164.8487291396655
 30
0.0
 10
49.64273638405533
 20
165.383682536907
 30
0.0
 10
50.2078155651722
 20
166.1515388573828
 30
0.0
 10
51.07101338680204
 20
167.3271173842564
 30
0.0
 10
51.95444130014826
 20
168.5666050266212
 30
0.0
 10
52.69487783025598
 20
169.7675960009569
 30
0.0
 10
53.03618051230424
 20
170.6140974964788
 30
0.0
 10
53.00128636996082
 20
171.1051821360774
 30
0.0
 10
52.66326616995262
 20
171.2756880192199
 30
0.0
 10
52.05139386881191
 20
171.1347533568067
 30
0.0
 10
51.40192852957723
 20
170.7774605704132
 30
0.0
 10
50.85386272923889
 20
170.3885724330255
 30
0.0
 10
50.45165225139692
 20
170.0689781274554
 30
0.0
 10
50.02660804438688
 20
169.6958188564036
 30
0.0
 10
49.60894290451362
 20
169.2941097811847
 30
0.0
 10
49.20264925938686
 20
168.8713753119322
 30
0.0
 10
48.8100818033618
 20
168.4333431664277
 30
0.0
 10
48.40737254466976
 20
167.9550025065996
 30
0.0
 10
48.14274636862159
 20
167.6128545593849
 30
0.0
 10
48.00745929142883
 20
167.4379353717314
 30
0.0
  0
SPLINE
  5
111
330
1F
100
AcDbEntity
  8
0
  6
SLD-Сплошная
 62
     7
370
    25
100
AcDbSpline
210
0.0
220
0.0
230
1.0
 70
     8
 71
     3
 72
    38
 73
    34
 74
     0
 42
0.00000001
 43
0.00000001
 40
0.0
 40
0.0
 40
0.0
 40
0.0
 40
0.0188257975951232
 40
0.0377817256869163
 40
0.0568911827004873
 40
0.0761770082645867
 40
0.0956614218002108
 40
0.1153659709391386
 40
0.1353114898722682
 40
0.1555180674414072
 40
0.1760050245459975
 40
0.1967909002445268
 40
0.2178934457901596
 40
0.239329625749693
 40
0.2611156253092835
 40
0.2832668628630644
 40
0.3057980070044082
 40
0.3287229970866783
 40
0.3520550665839663
 40
0.3758067685562466
 40
0.3999900026024443
 40
0.4246160427649506
 40
0.4496955659270143
 40
0.4752386803179081
 40
0.5012549538084452
 40
0.5594898645984551
 40
0.6204223986571776
 40
0.684125895083916
 40
0.7506645310403789
 40
0.8088347243429748
 40
0.8697643342786237
 40
0.9334787057340325
 40
1.0
 40
1.0
 40
1.0
 40
1.0
 10
99.00745929142882
 20
170.8124000805271
 30
0.0
 10
99.00820904269061
 20
170.7858096171871
 30
0.0
 10
99.00971372775699
 20
170.7324448879255
 30
0.0
 10
99.02180921900869
 20
170.6439520513875
 30
0.0
 10
99.0410890569603
 20
170.5491006897476
 30
0.0
 10
99.0682563105626
 20
170.4473616725667
 30
0.0
 10
99.10308697098128
 20
170.3389803539481
 30
0.0
 10
99.14559321891089
 20
170.223991590679
 30
0.0
 10
99.19570758867724
 20
170.1024870262458
 30
0.0
 10
99.25336893458511
 20
169.9745422166084
 30
0.0
 10
99.31849909971407
 20
169.8402363078522
 30
0.0
 10
99.39100938520056
 20
169.6996465013286
 30
0.0
 10
99.47079890809934
 20
169.5528494031832
 30
0.0
 10
99.55775519498178
 20
169.3999204978458
 30
0.0
 10
99.65175418401104
 20
169.2409341389625
 30
0.0
 10
99.75266040947905
 20
169.075963402311
 30
0.0
 10
99.86032715694974
 20
168.9050799803302
 30
0.0
 10
99.97459664893971
 20
168.7283540663803
 30
0.0
 10
100.0953002397663
 20
168.5458542513036
 30
0.0
 10
100.2222586462387
 20
168.357647392809
 30
0.0
 10
100.3552821285766
 20
168.1637985952443
 30
0.0
 10
100.4941709462116
 20
167.9643707757108
 30
0.0
 10
100.6387148448121
 20
167.7594258253455
 30
0.0
 10
100.7886963441546
 20
167.5490196613734
 30
0.0
 10
101.0069732170839
 20
167.2454821560265
 30
0.0
 10
101.3018076800879
 20
166.8400487960588
 30
0.0
 10
101.6799075362049
 20
166.3247006682846
 30
0.0
 10
102.0787478459415
 20
165.7826492150845
 30
0.0
 10
102.472087566527
 20
165.2465221156493
 30
0.0
 10
102.8571048336614
 20
164.7175193603073
 30
0.0
 10
103.232190108447
 20
164.1966677579054
 30
0.0
 10
103.619259987384
 20
163.6527121671901
 30
0.0
 10
103.8762135142026
 20
163.2833956844316
 30
0.0
 10
104.0074592914288
 20
163.0947575698968
 30
0.0
  0
ARC
  5
112
330
1F
100
AcDbEntity
  8
0
  6
SLD-Сплошная
 62
     7
370
    25
100
AcDbCircle
 10
77.6155401273
 20
144.8228345158
 30
0.0
 40
32.09979079782993
100
AcDbArc
 50
19.8986409469
 51
34.6960258477
  0
SPLINE
  5
113
330
1F
100
AcDbEntity
  8
0
  6
SLD-Сплошная
 62
     7
370
    25
100
AcDbSpline
210
0.0
220
0.0
230
1.0
 70
     8
 71
     3
 72
    13
 73
     9
 74
     0
 42
0.00000001
 43
0.00000001
 40
0.0
 40
0.0
 40
0.0
 40
0.0
 40
0.4999999999999946
 40
0.4999999999999946
 40
0.6249999999999952
 40
0.6249999999999952
 40
0.7499999999999958
 40
1.0
 40
1.0
 40
1.0
 40
1.0
 10
108.9007156871043
 20
158.3364213768746
 30
0.0
 10
108.7439276809838
 20
157.9031875125792
 30
0.0
 10
108.5732834495778
 20
157.4697813762183
 30
0.0
 10
108.3424468082743
 20
156.9278057414823
 30
0.0
 10
108.2959424598304
 20
156.820648602363
 30
0.0
 10
108.2010439761294
 20
156.6059060464951
 30
0.0
 10
108.0561857535743
 20
156.2839360867991
 30
0.0
 10
107.9037952107423
 20
155.962397796944
 30
0.0
 10
107.7988514523438
 20
155.748230925855
 30
0.0
  0
ARC
  5
114
330
1F
100
AcDbEntity
  8
0
  6
SLD-Сплошная
 62
     7
370
    25
100
AcDbCircle
 10
77.6196087855
 20
147.3848677243
 30
0.0
 40
33.14278468075033
100
AcDbArc
 50
19.2952125698
 51
37.2324958908
  0
SPLINE
  5
115
330
1F
100
AcDbEntity
  8
0
  6
SLD-Сплошная
 62
     7
370
    25
100
AcDbSpline
210
0.0
220
0.0
230
1.0
 70
     8
 71
     3
 72
    30
 73
    26
 74
     0
 42
0.00000001
 43
0.00000001
 40
0.0
 40
0.0
 40
0.0
 40
0.0
 40
0.0381218873689504
 40
0.0753397260764838
 40
0.1116610560672449
 40
0.1470939896125669
 40
0.1816472647162339
 40
0.2153303039930628
 40
0.2481532795371667
 40
0.3150401521742218
 40
0.3788874091441156
 40
0.4398275527645171
 40
0.4980129493668157
 40
0.5452258474677057
 40
0.5909349211261872
 40
0.6352714664405837
 40
0.6783793224999866
 40
0.7204149434117746
 40
0.7615470204864254
 40
0.8019555625412864
 40
0.8418303784639618
 40
0.8813689645025724
 40
0.9207738727507805
 40
0.9602497130720687
 40
1.0
 40
1.0
 40
1.0
 40
1.0
 10
104.0074592914288
 20
167.4379353717314
 30
0.0
 10
103.9342433872442
 20
167.5334271723679
 30
0.0
 10
103.7895478711925
 20
167.7221462153911
 30
0.0
 10
103.5704927255807
 20
167.9950502205477
 30
0.0
 10
103.3537638860064
 20
168.2561693915149
 30
0.0
 10
103.1394168786564
 20
168.5051037985994
 30
0.0
 10
102.9279187245161
 20
168.7420262424323
 30
0.0
 10
102.7196044685367
 20
168.9669723741258
 30
0.0
 10
102.4422479435616
 20
169.2555160682056
 30
0.0
 10
102.0983077747735
 20
169.5928239240573
 30
0.0
 10
101.6926175885772
 20
169.9585204269356
 30
0.0
 10
101.3064760055344
 20
170.2763533148042
 30
0.0
 10
100.9602249160126
 20
170.5338782519018
 30
0.0
 10
100.6533033951358
 20
170.738562171348
 30
0.0
 10
100.3836480652912
 20
170.8984145766038
 30
0.0
 10
100.1339390642472
 20
171.026437025698
 30
0.0
 10
99.9057333165352
 20
171.122991525591
 30
0.0
 10
99.70048916581433
 20
171.1884723938276
 30
0.0
 10
99.51955505603125
 20
171.2232989037516
 30
0.0
 10
99.36413693446242
 20
171.2279354576275
 30
0.0
 10
99.2353702599591
 20
171.2028204235954
 30
0.0
 10
99.13400014787128
 20
171.1486275244379
 30
0.0
 10
99.0615088442991
 20
171.0652995106798
 30
0.0
 10
99.0158707731594
 20
170.9556370963241
 30
0.0
 10
99.01026958634812
 20
170.8602558888905
 30
0.0
 10
99.00745929142882
 20
170.8124000805271
 30
0.0
  0
ARC
  5
116
330
1F
100
AcDbEntity
  8
0
  6
SLD-Сплошная
 62
     7
370
    25
100
AcDbCircle
 10
62.0224419512
 20
155.1210327279
 30
0.0
 40
22.01498266894691
100
AcDbArc
 50
180.0016544997
 51
183.5354497342
  0
ARC
  5
117
330
1F
100
AcDbEntity
  8
0
  6
SLD-Сплошная
 62
     7
370
    25
100
AcDbCircle
 10
89.9919044689
 20
155.1210440208
 30
0.0
 40
22.01555483206373
100
AcDbArc
 50
356.4253116057
 51
359.9983161535
  0
LINE
  5
118
330
1F
100
AcDbEntity
  8
0
  6
SLD-Сплошная
 62
     7
370
    25
100
AcDbLine
 10
79.0074592914
 20
184.1449564793
 30
0.0
 11
73.0074592914
 21
184.1449564793
 31
0.0
  0
LINE
  5
119
330
1F
100
AcDbEntity
  8
0
  6
SLD-Сплошная
 62
     7
370
    25
100
AcDbLine
 10
73.0074592914
 20
184.1449564793
 30
0.0
 11
73.0074592914
 21
184.7920040921
 31
0.0
  0
LINE
  5
11A
330
1F
100
AcDbEntity
  8
0
  6
SLD-Сплошная
 62
     7
370
    25
100
AcDbLine
 10
79.0074592914
 20
184.7920040921
 30
0.0
 11
73.0074592914
 21
184.7920040921
 31
0.0
  0
LINE
  5
11B
330
1F
100
AcDbEntity
  8
0
  6
SLD-Сплошная
 62
     7
370
    25
100
AcDbLine
 10
79.0074592914
 20
184.1449564793
 30
0.0
 11
79.0074592914
 21
184.7920040921
 31
0.0
  0
LINE
  5
11C
330
1F
100
AcDbEntity
  8
0
  6
SLD-Сплошная
 62
     7
370
    25
100
AcDbLine
 10
73.0074592914
 20
170.6943810639
 30
0.0
 11
73.0074592914
 21
184.1449564793
 31
0.0
  0
LINE
  5
11D
330
1F
100
AcDbEntity
  8
0
  6
SLD-Сплошная
 62
     7
370
    25
100
AcDbLine
 10
79.0074592914
 20
170.6943810639
 30
0.0
 11
79.0074592914
 21
184.1449564793
 31
0.0
  0
LINE
  5
11E
330
1F
100
AcDbEntity
  8
0
  6
SLD-Сплошная
 62
     7
370
    25
100
AcDbLine
 10
106.7325014857
 20
158.3364213769
 30
0.0
 11
108.9007156871
 21
158.3364213769
 31
0.0
  0
LWPOLYLINE
  5
11F
330
1F
100
AcDbEntity
  8
0
  6
SLD-Сплошная
 62
     7
370
    25
100
AcDbPolyline
 90
        3
 70
   128
 43
0.0
 10
107.3780808719
 20
156.7983062957
 10
107.3881996834
 20
156.807870608
 10
107.5074592914
 20
157.0423261514
  0
LWPOLYLINE
  5
120
330
1F
100
AcDbEntity
  8
0
  6
SLD-Сплошная
 62
     7
370
    25
100
AcDbPolyline
 90
        3
 70
   128
 43
0.0
 10
107.5074592914
 20
157.0423261514
 10
107.3881996834
 20
157.2767816947
 10
107.1263691284
 20
157.4533843668
  0
LINE
  5
121
330
1F
100
AcDbEntity
  8
0
  6
SLD-Сплошная
 62
     7
370
    25
100
AcDbLine
 10
43.1142028958
 20
158.3364213769
 30
0.0
 11
45.2824170972
 21
158.3364213769
 31
0.0
  0
LWPOLYLINE
  5
122
330
1F
100
AcDbEntity
  8
0
  6
SLD-Сплошная
 62
     7
370
    25
100
AcDbPolyline
 90
        3
 70
   128
 43
0.0
 10
44.5074592914
 20
157.0423261514
 10
44.6267188994
 20
156.807870608
 10
44.636837711
 20
156.7983062957
  0
LWPOLYLINE
  5
123
330
1F
100
AcDbEntity
  8
0
  6
SLD-Сплошная
 62
     7
370
    25
100
AcDbPolyline
 90
        3
 70
   128
 43
0.0
 10
44.8885494545
 20
157.4533843668
 10
44.6267188994
 20
157.2767816947
 10
44.5074592914
 20
157.0423261514
  0
LINE
  5
124
330
1F
100
AcDbEntity
  8
0
  6
SLD-Сплошная
 62
     7
370
    25
100
AcDbLine
 10
410.1039376457
 20
164.2955321619
 30
0.0
 11
410.1039376457
 21
165.0922634558
 31
0.0
  0
SPLINE
  5
125
330
1F
100
AcDbEntity
  8
0
  6
SLD-Сплошная
 62
     7
370
    25
100
AcDbSpline
210
0.0
220
0.0
230
1.0
 70
     8
 71
     3
 72
    22
 73
    18
 74
     0
 42
0.00000001
 43
0.00000001
 40
0.0
 40
0.0
 40
0.0
 40
0.0
 40
0.0517857857604819
 40
0.122749011113043
 40
0.1936878842464554
 40
0.2646769515231455
 40
0.335839662356383
 40
0.4072595235969999
 40
0.4789691093313875
 40
0.550949480584794
 40
0.6231298006427923
 40
0.6953861765402699
 40
0.7675956584826803
 40
0.8396368131955071
 40
0.9114174949028597
 40
0.9789165313238116
 40
1.0
 40
1.0
 40
1.0
 40
1.0
 10
382.5039376457138
 20
152.5462941513118
 30
0.0
 10
382.4934400811455
 20
152.7600817831965
 30
0.0
 10
382.4685574680707
 20
153.26682740879
 30
0.0
 10
382.2369530870578
 20
154.0419376624679
 30
0.0
 10
381.8090899393496
 20
154.8176594242855
 30
0.0
 10
381.2143002069792
 20
155.4798834247377
 30
0.0
 10
380.4856715227655
 20
155.9966076989475
 30
0.0
 10
379.6568731958263
 20
156.3424921408059
 30
0.0
 10
378.7680926720317
 20
156.4994348508919
 30
0.0
 10
377.8629985950669
 20
156.4578575649171
 30
0.0
 10
376.987519579524
 20
156.2178898676044
 30
0.0
 10
376.1871471229237
 20
155.7902151059833
 30
0.0
 10
375.5043643831087
 20
155.1961460708147
 30
0.0
 10
374.9746256283956
 20
154.4665402321796
 30
0.0
 10
374.6340914764494
 20
153.6555563697794
 30
0.0
 10
374.513431913752
 20
152.9986021129608
 30
0.0
 10
374.5057629347793
 20
152.6332511208558
 30
0.0
 10
374.5039376457138
 20
152.5462941513118
 30
0.0
  0
SPLINE
  5
126
330
1F
100
AcDbEntity
  8
0
  6
SLD-Сплошная
 62
     7
370
    25
100
AcDbSpline
210
0.0
220
0.0
230
1.0
 70
     8
 71
     3
 72
    19
 73
    15
 74
     0
 42
0.00000001
 43
0.00000001
 40
0.0
 40
0.0
 40
0.0
 40
0.0
 40
0.0722867026388217
 40
0.1617212492224212
 40
0.2509878358776774
 40
0.3403704505510916
 40
0.430112431605395
 40
0.5203620118041058
 40
0.6111443602496779
 40
0.7023402585513148
 40
0.7937066843338676
 40
0.8849719210302291
 40
0.9758801194410028
 40
1.0
 40
1.0
 40
1.0
 40
1.0
 10
395.8950778685406
 20
162.7825789688833
 30
0.0
 10
395.8817705932831
 20
162.9886986860246
 30
0.0
 10
395.8519992923408
 20
163.4498338177792
 30
0.0
 10
395.5702756386693
 20
164.1205314479993
 30
0.0
 10
395.116518778025
 20
164.7418934020624
 30
0.0
 10
394.5124140927946
 20
165.2269371080065
 30
0.0
 10
393.8033720094814
 20
165.5453934212152
 30
0.0
 10
393.0318551812967
 20
165.6753062618688
 30
0.0
 10
392.2482764865564
 20
165.6054523796883
 30
0.0
 10
391.5057474128453
 20
165.3373437910499
 30
0.0
 10
390.8561517072672
 20
164.8870055050837
 30
0.0
 10
390.3485667059078
 20
164.285019917914
 30
0.0
 10
390.0929485354193
 20
163.7471648626279
 30
0.0
 10
390.009920847948
 20
163.4306990490669
 30
0.0
 10
389.9925110300771
 20
163.3643403156823
 30
0.0
  0
SPLINE
  5
127
330
1F
100
AcDbEntity
  8
0
  6
SLD-Сплошная
 62
     7
370
    25
100
AcDbSpline
210
0.0
220
0.0
230
1.0
 70
     8
 71
     3
 72
    19
 73
    15
 74
     0
 42
0.00000001
 43
0.00000001
 40
0.0
 40
0.0
 40
0.0
 40
0.0
 40
0.0731363248922027
 40
0.1612452875919851
 40
0.2494349280013349
 40
0.3379343169177986
 40
0.426913096405187
 40
0.5164232742581393
 40
0.6063835980402454
 40
0.6965642818410076
 40
0.786704039079562
 40
0.8765399479759036
 40
0.9658888603652733
 40
1.0
 40
1.0
 40
1.0
 40
1.0
 10
367.0153642613506
 20
163.3643403156823
 30
0.0
 10
366.953265535325
 20
163.5665184496359
 30
0.0
 10
366.8163550882681
 20
164.0122650933483
 30
0.0
 10
366.407909496725
 20
164.6185531944358
 30
0.0
 10
365.835834242541
 20
165.1361995213429
 30
0.0
 10
365.145031110788
 20
165.492374429837
 30
0.0
 10
364.3830421834038
 20
165.6640843438841
 30
0.0
 10
363.5976492158239
 20
165.6373824247622
 30
0.0
 10
362.8415465317202
 20
165.4109257073621
 30
0.0
 10
362.168829875275
 20
164.9975554360174
 30
0.0
 10
361.6235176488861
 20
164.4247739092465
 30
0.0
 10
361.261160565262
 20
163.7335137645073
 30
0.0
 10
361.0891422418517
 20
163.1275858004919
 30
0.0
 10
361.1128553682409
 20
162.7717668058506
 30
0.0
 10
361.1194071374341
 20
162.6734565329169
 30
0.0
  0
LINE
  5
128
330
1F
100
AcDbEntity
  8
0
  6
SLD-Сплошная
 62
     7
370
    25
100
AcDbLine
 10
389.9124438676
 20
162.6851608605
 30
0.0
 11
389.9124438676
 21
152.7982733376
 31
0.0
  0
LINE
  5
129
330
1F
100
AcDbEntity
  8
0
  6
SLD-Сплошная
 62
     7
370
    25
100
AcDbLine
 10
367.0954314238
 20
152.7982733376
 30
0.0
 11
367.0954314238
 21
162.6851608605
 31
0.0
  0
LINE
  5
12A
330
1F
100
AcDbEntity
  8
0
  6
SLD-Сплошная
 62
     7
370
    25
100
AcDbLine
 10
395.9124438676
 20
152.7982733376
 30
0.0
 11
395.9124438676
 21
162.6851608605
 31
0.0
  0
LINE
  5
12B
330
1F
100
AcDbEntity
  8
0
  6
SLD-Сплошная
 62
     7
370
    25
100
AcDbLine
 10
361.0954314238
 20
162.6851608605
 30
0.0
 11
361.0954314238
 21
152.7982733376
 31
0.0
  0
SPLINE
  5
12C
330
1F
100
AcDbEntity
  8
0
  6
SLD-Сплошная
 62
     7
370
    25
100
AcDbSpline
210
0.0
220
0.0
230
1.0
 70
     8
 71
     3
 72
    20
 73
    16
 74
     0
 42
0.00000001
 43
0.00000001
 40
0.0
 40
0.0
 40
0.0
 40
0.0
 40
0.0680843979902354
 40
0.1499708090258163
 40
0.2317398863029153
 40
0.3135880492109827
 40
0.3957449053043329
 40
0.4783572461723152
 40
0.5614608124351669
 40
0.6449633011036764
 40
0.7286465683168546
 40
0.8122645824725694
 40
0.8955777223684296
 40
0.9784279335095937
 40
0.9999999999999999
 40
0.9999999999999999
 40
0.9999999999999999
 40
0.9999999999999999
 10
372.5989910734828
 20
179.0462201122455
 30
0.0
 10
372.5854832663889
 20
179.2579171490858
 30
0.0
 10
372.5557293606802
 20
179.7242262715937
 30
0.0
 10
372.2976041791204
 20
180.4086295224608
 30
0.0
 10
371.8595213411004
 20
181.0419660790516
 30
0.0
 10
371.2697769083102
 20
181.5433473168562
 30
0.0
 10
370.5700342719087
 20
181.8809308455486
 30
0.0
 10
369.8029097735316
 20
182.0318787183213
 30
0.0
 10
369.0181380155159
 20
181.9836905104472
 30
0.0
 10
368.2685081077339
 20
181.7364015208559
 30
0.0
 10
367.6069408835331
 20
181.3044653277514
 30
0.0
 10
367.0805455211768
 20
180.7168463622363
 30
0.0
 10
366.7290317731703
 20
180.015827420362
 30
0.0
 10
366.6074020792134
 20
179.4372535544818
 30
0.0
 10
366.6004311601482
 20
179.1131707319315
 30
0.0
 10
366.5989910734828
 20
179.0462201122455
 30
0.0
  0
SPLINE
  5
12D
330
1F
100
AcDbEntity
  8
0
  6
SLD-Сплошная
 62
     7
370
    25
100
AcDbSpline
210
0.0
220
0.0
230
1.0
 70
     8
 71
     3
 72
    20
 73
    16
 74
     0
 42
0.00000001
 43
0.00000001
 40
0.0
 40
0.0
 40
0.0
 40
0.0
 40
0.0680843979902354
 40
0.1499708090258163
 40
0.2317398863029153
 40
0.3135880492109827
 40
0.3957449053043329
 40
0.4783572461723152
 40
0.5614608124351669
 40
0.6449633011036764
 40
0.7286465683168546
 40
0.8122645824725694
 40
0.8955777223684296
 40
0.9784279335095937
 40
0.9999999999999999
 40
0.9999999999999999
 40
0.9999999999999999
 40
0.9999999999999999
 10
390.4088842179448
 20
179.0462201122456
 30
0.0
 10
390.3953764108509
 20
179.2579171490859
 30
0.0
 10
390.3656225051421
 20
179.7242262715938
 30
0.0
 10
390.1074973235824
 20
180.408629522461
 30
0.0
 10
389.6694144855625
 20
181.0419660790517
 30
0.0
 10
389.0796700527722
 20
181.5433473168563
 30
0.0
 10
388.3799274163707
 20
181.8809308455488
 30
0.0
 10
387.6128029179935
 20
182.0318787183214
 30
0.0
 10
386.8280311599779
 20
181.9836905104473
 30
0.0
 10
386.0784012521959
 20
181.736401520856
 30
0.0
 10
385.416834027995
 20
181.3044653277515
 30
0.0
 10
384.8904386656388
 20
180.7168463622364
 30
0.0
 10
384.5389249176322
 20
180.0158274203621
 30
0.0
 10
384.4172952236754
 20
179.4372535544819
 30
0.0
 10
384.4103243046101
 20
179.1131707319316
 30
0.0
 10
384.4088842179448
 20
179.0462201122456
 30
0.0
  0
LINE
  5
12E
330
1F
100
AcDbEntity
  8
0
  6
SLD-Сплошная
 62
     7
370
    25
100
AcDbLine
 10
410.1039376457
 20
157.3276921027
 30
0.0
 11
410.1039376457
 21
158.109756984
 31
0.0
  0
SPLINE
  5
12F
330
1F
100
AcDbEntity
  8
0
  6
SLD-Сплошная
 62
     7
370
    25
100
AcDbSpline
210
0.0
220
0.0
230
1.0
 70
     8
 71
     3
 72
    15
 73
    11
 74
     0
 42
0.00000001
 43
0.00000001
 40
0.0
 40
0.0
 40
0.0
 40
0.0
 40
0.1557820364838526
 40
0.2965488985228423
 40
0.4180751839842233
 40
0.5224820916436514
 40
0.6382034668812433
 40
0.7750593476314677
 40
0.9341452423280447
 40
1.0
 40
1.0
 40
1.0
 40
1.0
 10
415.9542584938731
 20
132.2051238450012
 30
0.0
 10
415.9537922344176
 20
133.2013202934754
 30
0.0
 10
415.952904656292
 20
135.0976940100818
 30
0.0
 10
415.9428354878755
 20
137.6088136486655
 30
0.0
 10
415.926933225493
 20
139.7199129711598
 30
0.0
 10
415.9048731427835
 20
141.5909398913021
 30
0.0
 10
415.8715156313294
 20
143.5103003202065
 30
0.0
 10
415.810906522314
 20
145.630212372756
 30
0.0
 10
415.7385955092579
 20
147.4297928193068
 30
0.0
 10
415.6630955782772
 20
148.3639893071685
 30
0.0
 10
415.6409918384389
 20
148.637489373423
 30
0.0
  0
SPLINE
  5
130
330
1F
100
AcDbEntity
  8
0
  6
SLD-Сплошная
 62
     7
370
    25
100
AcDbSpline
210
0.0
220
0.0
230
1.0
 70
     8
 71
     3
 72
    16
 73
    12
 74
     0
 42
0.00000001
 43
0.00000001
 40
0.0
 40
0.0
 40
0.0
 40
0.0
 40
0.0326884082800793
 40
0.1095571689816807
 40
0.2049444200412887
 40
0.3180814455742579
 40
0.4487876351259759
 40
0.5970075053534918
 40
0.7629212943761633
 40
0.947023585408917
 40
1.0
 40
1.0
 40
1.0
 40
1.0
 10
341.3423876061603
 20
148.7132962122145
 30
0.0
 10
341.3327352150473
 20
148.5810163943046
 30
0.0
 10
341.3003846449249
 20
148.1376726181425
 30
0.0
 10
341.2567672126602
 20
147.2676381428584
 30
0.0
 10
341.2029309785517
 20
145.9338094489031
 30
0.0
 10
341.1540105438021
 20
144.2405808495983
 30
0.0
 10
341.1114379622522
 20
142.1683089488721
 30
0.0
 10
341.0795363838116
 20
139.6644803033124
 30
0.0
 10
341.0600714753943
 20
136.6632871352701
 30
0.0
 10
341.0530933419387
 20
134.1261178536917
 30
0.0
 10
341.0542800736559
 20
132.5113887500812
 30
0.0
 10
341.054545254754
 20
132.1505695098207
 30
0.0
  0
LINE
  5
131
330
1F
100
AcDbEntity
  8
0
  6
SLD-Сплошная
 62
     7
370
    25
100
AcDbLine
 10
398.8303481738
 20
153.1725072065
 30
0.0
 11
398.558619086
 21
154.1006149087
 31
0.0
  0
LINE
  5
132
330
1F
100
AcDbEntity
  8
0
  6
SLD-Сплошная
 62
     7
370
    25
100
AcDbLine
 10
358.4492562054
 20
154.1006149087
 30
0.0
 11
358.1775271176
 21
153.1725072065
 31
0.0
  0
LINE
  5
133
330
1F
100
AcDbEntity
  8
0
  6
SLD-Сплошная
 62
     7
370
    25
100
AcDbLine
 10
387.2662686491
 20
154.1006149087
 30
0.0
 11
386.9945395614
 21
153.1725072065
 31
0.0
  0
LINE
  5
134
330
1F
100
AcDbEntity
  8
0
  6
SLD-Сплошная
 62
     7
370
    25
100
AcDbLine
 10
370.01333573
 20
153.1725072065
 30
0.0
 11
369.7416066423
 21
154.1006149087
 31
0.0
  0
LINE
  5
135
330
1F
100
AcDbEntity
  8
0
  6
SLD-Сплошная
 62
     7
370
    25
100
AcDbLine
 10
381.7627089995
 20
170.4616741604
 30
0.0
 11
381.4909799118
 21
169.5335664582
 31
0.0
  0
LINE
  5
136
330
1F
100
AcDbEntity
  8
0
  6
SLD-Сплошная
 62
     7
370
    25
100
AcDbLine
 10
375.5168953797
 20
169.5335664582
 30
0.0
 11
375.2451662919
 21
170.4616741604
 31
0.0
  0
LINE
  5
137
330
1F
100
AcDbEntity
  8
0
  6
SLD-Сплошная
 62
     7
370
    25
100
AcDbLine
 10
393.3267885241
 20
169.5335664582
 30
0.0
 11
393.0550594364
 21
170.4616741604
 31
0.0
  0
LINE
  5
138
330
1F
100
AcDbEntity
  8
0
  6
SLD-Сплошная
 62
     7
370
    25
100
AcDbLine
 10
363.952815855
 20
170.4616741604
 30
0.0
 11
363.6810867673
 21
169.5335664582
 31
0.0
  0
ARC
  5
139
330
1F
100
AcDbEntity
  8
0
  6
SLD-Сплошная
 62
     7
370
    25
100
AcDbCircle
 10
378.5039376457
 20
130.6908066476
 30
0.0
 40
3.001047232873248
100
AcDbArc
 50
181.5136848982
 51
358.4863151018
  0
LINE
  5
13A
330
1F
100
AcDbEntity
  8
0
  6
SLD-Сплошная
 62
     7
370
    25
100
AcDbLine
 10
375.5039376457
 20
130.6115318475
 30
0.0
 11
375.5039376457
 21
134.0279432429
 31
0.0
  0
ARC
  5
13B
330
1F
100
AcDbEntity
  8
0
  6
SLD-Сплошная
 62
     7
370
    25
100
AcDbCircle
 10
378.5039376457
 20
134.107218043
 30
0.0
 40
3.001047232873245
100
AcDbArc
 50
181.5136848982
 51
358.4863151018
  0
LINE
  5
13C
330
1F
100
AcDbEntity
  8
0
  6
SLD-Сплошная
 62
     7
370
    25
100
AcDbLine
 10
381.5039376457
 20
130.6115318475
 30
0.0
 11
381.5039376457
 21
134.0279432429
 31
0.0
  0
LWPOLYLINE
  5
13D
330
1F
100
AcDbEntity
  8
0
  6
SLD-Сплошная
 62
     7
370
    25
100
AcDbPolyline
 90
       38
 70
   128
 43
0.0
 10
346.9039376457
 20
167.9319397456
 10
347.0177770078
 20
170.5204926981
 10
347.3584748787
 20
173.0903950672
 10
347.9235765226
 20
175.6231306476
 10
348.7090103691
 20
178.1004510212
 10
349.7091173494
 20
180.5045070381
 10
350.9166916698
 20
182.8179774195
 10
352.3230327296
 20
185.0241935584
 10
353.9180078093
 20
187.107259617
 10
355.6901250768
 20
189.0521670564
 10
357.6266163866
 20
190.8449027741
 10
359.7135292745
 20
192.4725500681
 10
361.9358274853
 20
193.9233817024
 10
364.2774993095
 20
195.1869444018
 10
366.7216729479
 20
196.2541341681
 10
369.2507380734
 20
197.1172618746
 10
371.8464727138
 20
197.7701086664
 10
374.4901745417
 20
198.2079707674
 10
377.1627956247
 20
198.427693371
 10
379.8450796667
 20
198.427693371
 10
382.5177007497
 20
198.2079707674
 10
385.1614025776
 20
197.7701086664
 10
387.7571372181
 20
197.1172618746
 10
390.2862023436
 20
196.2541341681
 10
392.730375982
 20
195.1869444018
 10
395.0720478061
 20
193.9233817024
 10
397.2943460169
 20
192.4725500681
 10
399.3812589048
 20
190.8449027741
 10
401.3177502147
 20
189.0521670564
 10
403.0898674822
 20
187.107259617
 10
404.6848425618
 20
185.0241935584
 10
406.0911836216
 20
182.8179774195
 10
407.298757942
 20
180.5045070381
 10
408.2988649223
 20
178.1004510212
 10
409.0842987688
 20
175.6231306476
 10
409.6494004127
 20
173.0903950672
 10
409.9900982837
 20
170.5204926981
 10
410.1039376457
 20
167.9319397456
  0
ARC
  5
13E
330
1F
100
AcDbEntity
  8
0
  6
SLD-Сплошная
 62
     7
370
    25
100
AcDbCircle
 10
379.1426923117
 20
168.4215036746
 30
0.0
 40
30.96511562181796
100
AcDbArc
 50
274.3733358543
 51
359.0941058972
  0
LINE
  5
13F
330
1F
100
AcDbEntity
  8
0
  6
SLD-Сплошная
 62
     7
370
    25
100
AcDbLine
 10
381.5039376457
 20
134.0279432429
 30
0.0
 11
381.5039376457
 21
137.5465477079
 31
0.0
  0
LINE
  5
140
330
1F
100
AcDbEntity
  8
0
  6
SLD-Сплошная
 62
     7
370
    25
100
AcDbLine
 10
375.5039376457
 20
137.5465477079
 30
0.0
 11
375.5039376457
 21
134.0279432429
 31
0.0
  0
ARC
  5
141
330
1F
100
AcDbEntity
  8
0
  6
SLD-Сплошная
 62
     7
370
    25
100
AcDbCircle
 10
377.8426323118
 20
168.4002780441
 30
0.0
 40
30.94223922731749
100
AcDbArc
 50
180.8672556753
 51
265.6653025732
  0
LWPOLYLINE
  5
142
330
1F
100
AcDbEntity
  8
0
  6
SLD-Сплошная
 62
     7
370
    25
100
AcDbPolyline
 90
       36
 70
   128
 43
0.0
 10
406.6539376457
 20
167.9319397456
 10
406.5406140217
 20
165.4945741485
 10
406.2015555648
 20
163.076832786
 10
405.6394921743
 20
160.6981818901
 10
404.8589492542
 20
158.377772959
 10
403.8662112772
 20
156.1342885611
 10
402.6692711856
 20
153.9857919136
 10
401.2777660374
 20
151.9495814483
 10
399.7028994137
 20
150.0420515345
 10
397.9573512147
 20
148.2785604815
 10
396.055175568
 20
146.6733068823
 10
394.0116876736
 20
145.2392152951
 10
391.8433404943
 20
143.987832182
 10
389.5675922868
 20
142.9292329442
 10
387.2027660374
 20
142.0719408001
 10
384.7679019366
 20
141.4228581621
 10
382.2826040785
 20
140.987211062
 10
379.7668826201
 20
140.768507074
 10
377.2409926713
 20
140.768507074
 10
374.7252712129
 20
140.987211062
 10
372.2399733548
 20
141.4228581621
 10
369.8051092541
 20
142.0719408001
 10
367.4402830047
 20
142.9292329442
 10
365.1645347971
 20
143.987832182
 10
362.9961876178
 20
145.2392152951
 10
360.9526997234
 20
146.6733068823
 10
359.0505240767
 20
148.2785604815
 10
357.3049758777
 20
150.0420515345
 10
355.7301092541
 20
151.9495814483
 10
354.3386041058
 20
153.9857919136
 10
353.1416640143
 20
156.1342885611
 10
352.1489260372
 20
158.377772959
 10
351.3683831171
 20
160.6981818901
 10
350.8063197267
 20
163.076832786
 10
350.4672612697
 20
165.4945741485
 10
350.3539376457
 20
167.9319397456
  0
LWPOLYLINE
  5
143
330
1F
100
AcDbEntity
  8
0
  6
SLD-Сплошная
 62
     7
370
    25
100
AcDbPolyline
 90
       36
 70
   128
 43
0.0
 10
350.3539376457
 20
167.9319397456
 10
350.4672612697
 20
170.3693053427
 10
350.8063197267
 20
172.7870467052
 10
351.3683831171
 20
175.1656976012
 10
352.1489260372
 20
177.4861065323
 10
353.1416640143
 20
179.7295909302
 10
354.3386041058
 20
181.8780875776
 10
355.7301092541
 20
183.914298043
 10
357.3049758777
 20
185.8218279568
 10
359.0505240767
 20
187.5853190098
 10
360.9526997234
 20
189.1905726089
 10
362.9961876178
 20
190.6246641962
 10
365.1645347971
 20
191.8760473092
 10
367.4402830047
 20
192.9346465471
 10
369.8051092541
 20
193.7919386911
 10
372.2399733548
 20
194.4410213291
 10
374.7252712129
 20
194.8766684292
 10
377.2409926713
 20
195.0953724173
 10
379.7668826201
 20
195.0953724173
 10
382.2826040785
 20
194.8766684292
 10
384.7679019366
 20
194.4410213291
 10
387.2027660374
 20
193.7919386911
 10
389.5675922868
 20
192.9346465471
 10
391.8433404943
 20
191.8760473092
 10
394.0116876736
 20
190.6246641962
 10
396.055175568
 20
189.1905726089
 10
397.9573512147
 20
187.5853190098
 10
399.7028994137
 20
185.8218279568
 10
401.2777660374
 20
183.914298043
 10
402.6692711856
 20
181.8780875776
 10
403.8662112772
 20
179.7295909302
 10
404.8589492542
 20
177.4861065323
 10
405.6394921743
 20
175.1656976012
 10
406.2015555648
 20
172.7870467052
 10
406.5406140217
 20
170.3693053427
 10
406.6539376457
 20
167.9319397456
  0
LINE
  5
144
330
1F
100
AcDbEntity
  8
0
  6
SLD-Сплошная
 62
     7
370
    25
100
AcDbLine
 10
410.1039376457
 20
167.9319397456
 30
0.0
 11
410.1039376457
 21
165.0922634558
 31
0.0
  0
LINE
  5
145
330
1F
100
AcDbEntity
  8
0
  6
SLD-Сплошная
 62
     7
370
    25
100
AcDbLine
 10
346.9039376457
 20
167.9319397456
 30
0.0
 11
346.9039376457
 21
164.2955321619
 31
0.0
  0
ARC
  5
146
330
1F
100
AcDbEntity
  8
0
  6
SLD-Сплошная
 62
     7
370
    25
100
AcDbCircle
 10
379.1340036345
 20
164.7932742368
 30
0.0
 40
30.97393355443384
100
AcDbArc
 50
274.388207843
 51
359.0792339085
  0
ARC
  5
147
330
1F
100
AcDbEntity
  8
0
  6
SLD-Сплошная
 62
     7
370
    25
100
AcDbCircle
 10
377.873871657
 20
164.7932742368
 30
0.0
 40
30.97393355443347
100
AcDbArc
 50
180.9207660915
 51
265.611792157
  0
ARC
  5
148
330
1F
100
AcDbEntity
  8
0
  6
SLD-Сплошная
 62
     7
370
    25
100
AcDbCircle
 10
379.2683239418
 20
155.623000432
 30
0.0
 40
27.46061580099074
100
AcDbArc
 50
13.4387029673
 51
67.5037318249
  0
ARC
  5
149
330
1F
100
AcDbEntity
  8
0
  6
SLD-Сплошная
 62
     7
370
    25
100
AcDbCircle
 10
378.503871758
 20
154.1821185867
 30
0.0
 40
29.08720919781531
100
AcDbArc
 50
73.0106123774
 51
106.7647573872
  0
ARC
  5
14A
330
1F
100
AcDbEntity
  8
0
  6
SLD-Сплошная
 62
     7
370
    25
100
AcDbCircle
 10
377.6817781322
 20
155.6740567623
 30
0.0
 40
27.39258268280591
100
AcDbArc
 50
112.1103989593
 51
166.6370809514
  0
LINE
  5
14B
330
1F
100
AcDbEntity
  8
0
  6
SLD-Сплошная
 62
     7
370
    25
100
AcDbLine
 10
382.5039376457
 20
141.4442512116
 30
0.0
 11
382.4790119032
 21
141.0135905552
 31
0.0
  0
LINE
  5
14C
330
1F
100
AcDbEntity
  8
0
  6
SLD-Сплошная
 62
     7
370
    25
100
AcDbLine
 10
374.5288633882
 20
141.0135905552
 30
0.0
 11
374.5039376457
 21
141.4442512116
 31
0.0
  0
LINE
  5
14D
330
1F
100
AcDbEntity
  8
0
  6
SLD-Сплошная
 62
     7
370
    25
100
AcDbLine
 10
374.5039376457
 20
152.5462941513
 30
0.0
 11
374.5039376457
 21
141.4442512116
 31
0.0
  0
LINE
  5
14E
330
1F
100
AcDbEntity
  8
0
  6
SLD-Сплошная
 62
     7
370
    25
100
AcDbLine
 10
382.5039376457
 20
152.5462941513
 30
0.0
 11
382.5039376457
 21
141.4442512116
 31
0.0
  0
LINE
  5
14F
330
1F
100
AcDbEntity
  8
0
  6
SLD-Сплошная
 62
     7
370
    25
100
AcDbLine
 10
389.9140021964
 20
162.5917725446
 30
0.0
 11
389.9893336732
 21
163.3370189597
 31
0.0
  0
LINE
  5
150
330
1F
100
AcDbEntity
  8
0
  6
SLD-Сплошная
 62
     7
370
    25
100
AcDbLine
 10
367.0185416182
 20
163.3370189597
 30
0.0
 11
367.0954081874
 21
162.6965660819
 31
0.0
  0
LINE
  5
151
330
1F
100
AcDbEntity
  8
0
  6
SLD-Сплошная
 62
     7
370
    25
100
AcDbLine
 10
395.9108855388
 20
162.7785491765
 30
0.0
 11
395.8355540619
 21
162.0333027614
 31
0.0
  0
LINE
  5
152
330
1F
100
AcDbEntity
  8
0
  6
SLD-Сплошная
 62
     7
370
    25
100
AcDbLine
 10
361.1723212295
 20
162.0333027614
 30
0.0
 11
361.0954546603
 21
162.6737556392
 31
0.0
  0
ARC
  5
153
330
1F
100
AcDbEntity
  8
0
  6
SLD-Сплошная
 62
     7
370
    25
100
AcDbCircle
 10
392.9189113459
 20
152.8804407476
 30
0.0
 40
3.007590095281803
100
AcDbArc
 50
181.5655164088
 51
345.8738466617
  0
ARC
  5
154
330
1F
100
AcDbEntity
  8
0
  6
SLD-Сплошная
 62
     7
370
    25
100
AcDbCircle
 10
364.0881318824
 20
152.8880012911
 30
0.0
 40
3.008637837511631
100
AcDbArc
 50
194.2696480254
 51
358.2909889041
  0
LINE
  5
155
330
1F
100
AcDbEntity
  8
0
  6
SLD-Сплошная
 62
     7
370
    25
100
AcDbLine
 10
395.9124438676
 20
152.7982733376
 30
0.0
 11
395.8355540619
 21
152.1464152385
 31
0.0
  0
LINE
  5
156
330
1F
100
AcDbEntity
  8
0
  6
SLD-Сплошная
 62
     7
370
    25
100
AcDbLine
 10
361.1723212295
 20
152.1464152385
 30
0.0
 11
361.0954314238
 21
152.7982733376
 31
0.0
  0
ARC
  5
157
330
1F
100
AcDbEntity
  8
0
  6
SLD-Сплошная
 62
     7
370
    25
100
AcDbCircle
 10
369.5989910735
 20
169.2386073895
 30
0.0
 40
3.001047232873245
100
AcDbArc
 50
181.5136848982
 51
358.4863151018
  0
LINE
  5
158
330
1F
100
AcDbEntity
  8
0
  6
SLD-Сплошная
 62
     7
370
    25
100
AcDbLine
 10
366.5989910735
 20
179.0462201122
 30
0.0
 11
366.5989910735
 21
169.1593325893
 31
0.0
  0
LINE
  5
159
330
1F
100
AcDbEntity
  8
0
  6
SLD-Сплошная
 62
     7
370
    25
100
AcDbLine
 10
372.5989910735
 20
179.0462201122
 30
0.0
 11
372.5989910735
 21
169.1593325893
 31
0.0
  0
ARC
  5
15A
330
1F
100
AcDbEntity
  8
0
  6
SLD-Сплошная
 62
     7
370
    25
100
AcDbCircle
 10
387.4088842179
 20
169.2386073895
 30
0.0
 40
3.001047232873188
100
AcDbArc
 50
181.5136848982
 51
358.4863151018
  0
LINE
  5
15B
330
1F
100
AcDbEntity
  8
0
  6
SLD-Сплошная
 62
     7
370
    25
100
AcDbLine
 10
384.4088842179
 20
179.0462201122
 30
0.0
 11
384.4088842179
 21
169.1593325893
 31
0.0
  0
LINE
  5
15C
330
1F
100
AcDbEntity
  8
0
  6
SLD-Сплошная
 62
     7
370
    25
100
AcDbLine
 10
390.4088842179
 20
179.0462201122
 30
0.0
 11
390.4088842179
 21
169.1593325893
 31
0.0
  0
ARC
  5
15D
330
1F
100
AcDbEntity
  8
0
  6
SLD-Сплошная
 62
     7
370
    25
100
AcDbCircle
 10
379.1022646242
 20
158.6082763133
 30
0.0
 40
30.17004437887047
100
AcDbArc
 50
272.7069460999
 51
357.3355769419
  0
ARC
  5
15E
330
1F
100
AcDbEntity
  8
0
  6
SLD-Сплошная
 62
     7
370
    25
100
AcDbCircle
 10
377.9355236794
 20
158.6381671331
 30
0.0
 40
30.20132798053804
100
AcDbArc
 50
182.7184304338
 51
267.2390465262
  0
LINE
  5
15F
330
1F
100
AcDbEntity
  8
0
  6
SLD-Сплошная
 62
     7
370
    25
100
AcDbLine
 10
403.8264094556
 20
146.0364060054
 30
0.0
 11
403.8264094556
 21
141.4919271589
 31
0.0
  0
ARC
  5
160
330
1F
100
AcDbEntity
  8
0
  6
SLD-Сплошная
 62
     7
370
    25
100
AcDbCircle
 10
380.2034085627
 20
158.4039856133
 30
0.0
 40
29.0527777045267
100
AcDbArc
 50
324.4005597758
 51
357.5575098577
  0
ARC
  5
161
330
1F
100
AcDbEntity
  8
0
  6
SLD-Сплошная
 62
     7
370
    25
100
AcDbCircle
 10
380.1609609902
 20
158.4223696582
 30
0.0
 40
28.89982624153929
100
AcDbArc
 50
324.9726916348
 51
352.9850184524
  0
LINE
  5
162
330
1F
100
AcDbEntity
  8
0
  6
SLD-Сплошная
 62
     7
370
    25
100
AcDbLine
 10
405.6107421925
 20
148.6076017403
 30
0.0
 11
405.6107421925
 21
148.2756725385
 31
0.0
  0
LINE
  5
163
330
1F
100
AcDbEntity
  8
0
  6
SLD-Сплошная
 62
     7
370
    25
100
AcDbLine
 10
405.7543080566
 20
148.2756725385
 30
0.0
 11
405.6107421925
 21
148.0054957662
 31
0.0
  0
LINE
  5
164
330
1F
100
AcDbEntity
  8
0
  6
SLD-Сплошная
 62
     7
370
    25
100
AcDbLine
 10
405.6107421925
 20
148.0054957662
 30
0.0
 11
405.6107421925
 21
146.114277986
 31
0.0
  0
LINE
  5
165
330
1F
100
AcDbEntity
  8
0
  6
SLD-Сплошная
 62
     7
370
    25
100
AcDbLine
 10
407.4488355227
 20
152.0487168478
 30
0.0
 11
407.4488355227
 21
150.2848248963
 31
0.0
  0
LINE
  5
166
330
1F
100
AcDbEntity
  8
0
  6
SLD-Сплошная
 62
     7
370
    25
100
AcDbLine
 10
407.311679044
 20
151.4965901846
 30
0.0
 11
407.311679044
 21
151.7506121689
 31
0.0
  0
ARC
  5
167
330
1F
100
AcDbEntity
  8
0
  6
SLD-Сплошная
 62
     7
370
    25
100
AcDbCircle
 10
380.0772306138
 20
162.026087949
 30
0.0
 40
29.19906684233202
100
AcDbArc
 50
331.9059880357
 51
338.8622902156
  0
LINE
  5
168
330
1F
100
AcDbEntity
  8
0
  6
SLD-Сплошная
 62
     7
370
    25
100
AcDbLine
 10
405.8359491476
 20
148.9765104833
 30
0.0
 11
405.8359491476
 21
148.2756725385
 31
0.0
  0
LINE
  5
169
330
1F
100
AcDbEntity
  8
0
  6
SLD-Сплошная
 62
     7
370
    25
100
AcDbLine
 10
405.6107421925
 20
148.2756725385
 30
0.0
 11
405.8359491476
 21
148.2756725385
 31
0.0
  0
LINE
  5
16A
330
1F
100
AcDbEntity
  8
0
  6
SLD-Сплошная
 62
     7
370
    25
100
AcDbLine
 10
407.6598480775
 20
152.5249863117
 30
0.0
 11
407.6598480775
 21
152.4462194488
 31
0.0
  0
LINE
  5
16B
330
1F
100
AcDbEntity
  8
0
  6
SLD-Сплошная
 62
     7
370
    25
100
AcDbLine
 10
407.625631892
 20
152.4462194488
 30
0.0
 11
407.6598480775
 21
152.4462194488
 31
0.0
  0
LINE
  5
16C
330
1F
100
AcDbEntity
  8
0
  6
SLD-Сплошная
 62
     7
370
    25
100
AcDbLine
 10
407.7907447162
 20
152.8321886656
 30
0.0
 11
407.6598480775
 21
152.4462194488
 31
0.0
  0
LINE
  5
16D
330
1F
100
AcDbEntity
  8
0
  6
SLD-Сплошная
 62
     7
370
    25
100
AcDbLine
 10
422.5039376457
 20
111.1701016083
 30
0.0
 11
422.5039376457
 21
104.1701016083
 31
0.0
  0
SPLINE
  5
16E
330
1F
100
AcDbEntity
  8
0
  6
SLD-Сплошная
 62
     7
370
    25
100
AcDbSpline
210
0.0
220
0.0
230
1.0
 70
    24
 71
     3
 72
    22
 73
    18
 74
     0
 42
0.00000001
 43
0.00000001
 40
0.0
 40
0.0
 40
0.0
 40
0.0
 40
0.125
 40
0.125
 40
0.25
 40
0.25
 40
0.375
 40
0.375
 40
0.5
 40
0.5
 40
0.625
 40
0.625
 40
0.75
 40
0.75
 40
0.875
 40
0.875
 40
1.0
 40
1.0
 40
1.0
 40
1.0
 10
416.5039376457144
 20
111.1701016082997
 30
0.0
 10
416.8574910363075
 20
111.1701016082997
 30
0.0
 10
417.2242660734886
 20
111.1701016082997
 30
0.0
 10
417.9671658468856
 20
111.1701016082999
 30
0.0
 10
418.343215051934
 20
111.1701016082998
 30
0.0
 10
419.0817967542372
 20
111.1701016082999
 30
0.0
 10
419.4441795453744
 20
111.1701016082998
 30
0.0
 10
420.1302127866757
 20
111.1701016082999
 30
0.0
 10
420.4536851140202
 20
111.1701016082999
 30
0.0
 10
421.0394715516471
 20
111.1701016082999
 30
0.0
 10
421.3016537870602
 20
111.1701016082999
 30
0.0
 10
421.7501676389922
 20
111.1701016082999
 30
0.0
 10
421.9364685717166
 20
111.1701016082998
 30
0.0
 10
422.2288663324612
 20
111.1701016082998
 30
0.0
 10
422.3350321503364
 20
111.1701016082998
 30
0.0
 10
422.4725075620911
 20
111.1701016082998
 30
0.0
 10
422.5039376457143
 20
111.1701016082998
 30
0.0
 10
422.5039376457144
 20
111.1701016082997
 30
0.0
  0
SPLINE
  5
16F
330
1F
100
AcDbEntity
  8
0
  6
SLD-Сплошная
 62
     7
370
    25
100
AcDbSpline
210
0.0
220
0.0
230
1.0
 70
    24
 71
     3
 72
    22
 73
    18
 74
     0
 42
0.00000001
 43
0.00000001
 40
0.0
 40
0.0
 40
0.0
 40
0.0
 40
0.125
 40
0.125
 40
0.25
 40
0.25
 40
0.375
 40
0.375
 40
0.5
 40
0.5
 40
0.625
 40
0.625
 40
0.75
 40
0.75
 40
0.875
 40
0.875
 40
1.0
 40
1.0
 40
1.0
 40
1.0
 10
422.5039376457144
 20
104.1701016082997
 30
0.0
 10
422.5039376457142
 20
104.1701016082997
 30
0.0
 10
422.472507562091
 20
104.1701016082997
 30
0.0
 10
422.3350321503363
 20
104.1701016082999
 30
0.0
 10
422.2288663324611
 20
104.1701016082998
 30
0.0
 10
421.9364685717165
 20
104.1701016082998
 30
0.0
 10
421.7501676389921
 20
104.1701016082999
 30
0.0
 10
421.3016537870601
 20
104.1701016082999
 30
0.0
 10
421.0394715516469
 20
104.1701016082999
 30
0.0
 10
420.45368511402
 20
104.1701016082999
 30
0.0
 10
420.1302127866756
 20
104.1701016082999
 30
0.0
 10
419.4441795453744
 20
104.1701016082999
 30
0.0
 10
419.0817967542371
 20
104.1701016082998
 30
0.0
 10
418.3432150519338
 20
104.1701016082998
 30
0.0
 10
417.9671658468856
 20
104.1701016082998
 30
0.0
 10
417.2242660734885
 20
104.1701016082997
 30
0.0
 10
416.8574910363076
 20
104.1701016082997
 30
0.0
 10
416.5039376457144
 20
104.1701016082997
 30
0.0
  0
LINE
  5
170
330
1F
100
AcDbEntity
  8
0
  6
SLD-Сплошная
 62
     7
370
    25
100
AcDbLine
 10
340.5039376457
 20
111.1701016083
 30
0.0
 11
416.5039376457
 21
111.1701016083
 31
0.0
  0
LINE
  5
171
330
1F
100
AcDbEntity
  8
0
  6
SLD-Сплошная
 62
     7
370
    25
100
AcDbLine
 10
340.5039376457
 20
104.1701016083
 30
0.0
 11
416.5039376457
 21
104.1701016083
 31
0.0
  0
LINE
  5
172
330
1F
100
AcDbEntity
  8
0
  6
SLD-Сплошная
 62
     7
370
    25
100
AcDbLine
 10
334.5039376457
 20
104.1701016083
 30
0.0
 11
334.5039376457
 21
111.1701016083
 31
0.0
  0
SPLINE
  5
173
330
1F
100
AcDbEntity
  8
0
  6
SLD-Сплошная
 62
     7
370
    25
100
AcDbSpline
210
0.0
220
0.0
230
1.0
 70
    24
 71
     3
 72
    22
 73
    18
 74
     0
 42
0.00000001
 43
0.00000001
 40
0.0
 40
0.0
 40
0.0
 40
0.0
 40
0.125
 40
0.125
 40
0.25
 40
0.25
 40
0.375
 40
0.375
 40
0.5
 40
0.5
 40
0.625
 40
0.625
 40
0.75
 40
0.75
 40
0.875
 40
0.875
 40
1.0
 40
1.0
 40
1.0
 40
1.0
 10
334.5039376457144
 20
111.1701016082997
 30
0.0
 10
334.5039376457144
 20
111.1701016082997
 30
0.0
 10
334.5353677293375
 20
111.1701016082997
 30
0.0
 10
334.6728431410922
 20
111.1701016082997
 30
0.0
 10
334.7790089589675
 20
111.1701016082997
 30
0.0
 10
335.071406719712
 20
111.1701016082997
 30
0.0
 10
335.2577076524364
 20
111.1701016082997
 30
0.0
 10
335.7062215043683
 20
111.1701016082997
 30
0.0
 10
335.9684037397815
 20
111.1701016082997
 30
0.0
 10
336.5541901774084
 20
111.1701016082997
 30
0.0
 10
336.8776625047528
 20
111.1701016082997
 30
0.0
 10
337.5636957460541
 20
111.1701016082997
 30
0.0
 10
337.9260785371914
 20
111.1701016082997
 30
0.0
 10
338.6646602394947
 20
111.1701016082998
 30
0.0
 10
339.0407094445429
 20
111.1701016082997
 30
0.0
 10
339.7836092179401
 20
111.1701016082997
 30
0.0
 10
340.150384255121
 20
111.1701016082997
 30
0.0
 10
340.5039376457144
 20
111.1701016082997
 30
0.0
  0
SPLINE
  5
174
330
1F
100
AcDbEntity
  8
0
  6
SLD-Сплошная
 62
     7
370
    25
100
AcDbSpline
210
0.0
220
0.0
230
1.0
 70
    24
 71
     3
 72
    22
 73
    18
 74
     0
 42
0.00000001
 43
0.00000001
 40
0.0
 40
0.0
 40
0.0
 40
0.0
 40
0.125
 40
0.125
 40
0.25
 40
0.25
 40
0.375
 40
0.375
 40
0.5
 40
0.5
 40
0.625
 40
0.625
 40
0.75
 40
0.75
 40
0.875
 40
0.875
 40
1.0
 40
1.0
 40
1.0
 40
1.0
 10
340.5039376457144
 20
104.1701016082997
 30
0.0
 10
340.1503842551211
 20
104.1701016082997
 30
0.0
 10
339.78360921794
 20
104.1701016082997
 30
0.0
 10
339.0407094445428
 20
104.1701016082998
 30
0.0
 10
338.6646602394945
 20
104.1701016082998
 30
0.0
 10
337.9260785371912
 20
104.1701016082998
 30
0.0
 10
337.5636957460539
 20
104.1701016082998
 30
0.0
 10
336.8776625047526
 20
104.1701016082998
 30
0.0
 10
336.5541901774082
 20
104.1701016082998
 30
0.0
 10
335.9684037397812
 20
104.1701016082998
 30
0.0
 10
335.7062215043681
 20
104.1701016082998
 30
0.0
 10
335.2577076524362
 20
104.1701016082998
 30
0.0
 10
335.0714067197118
 20
104.1701016082998
 30
0.0
 10
334.7790089589674
 20
104.1701016082999
 30
0.0
 10
334.6728431410921
 20
104.1701016082997
 30
0.0
 10
334.5353677293375
 20
104.1701016082997
 30
0.0
 10
334.5039376457143
 20
104.1701016082997
 30
0.0
 10
334.5039376457144
 20
104.1701016082997
 30
0.0
  0
ARC
  5
175
330
1F
100
AcDbEntity
  8
0
  6
SLD-Сплошная
 62
     7
370
    25
100
AcDbCircle
 10
380.0772306138
 20
161.7559111767
 30
0.0
 40
29.19906684234108
100
AcDbArc
 50
331.9059880357
 51
338.8622902156
  0
LINE
  5
176
330
1F
100
AcDbEntity
  8
0
  6
SLD-Сплошная
 62
     7
370
    25
100
AcDbLine
 10
405.6107421925
 20
148.0054957662
 30
0.0
 11
405.8359491476
 21
148.0054957662
 31
0.0
  0
LINE
  5
177
330
1F
100
AcDbEntity
  8
0
  6
SLD-Сплошная
 62
     7
370
    25
100
AcDbLine
 10
407.2056980245
 20
151.2264134123
 30
0.0
 11
407.311679044
 21
151.2264134123
 31
0.0
  0
LINE
  5
178
330
1F
100
AcDbEntity
  8
0
  6
SLD-Сплошная
 62
     7
370
    25
100
AcDbLine
 10
405.8359491476
 20
148.0054957662
 30
0.0
 11
405.8359491476
 21
146.114277986
 31
0.0
  0
LINE
  5
179
330
1F
100
AcDbEntity
  8
0
  6
SLD-Сплошная
 62
     7
370
    25
100
AcDbLine
 10
405.6107421925
 20
146.114277986
 30
0.0
 11
405.8359491476
 21
146.114277986
 31
0.0
  0
LINE
  5
17A
330
1F
100
AcDbEntity
  8
0
  6
SLD-Сплошная
 62
     7
370
    25
100
AcDbLine
 10
407.311679044
 20
149.3351956321
 30
0.0
 11
407.311679044
 21
151.2264134123
 31
0.0
  0
ARC
  5
17B
330
1F
100
AcDbEntity
  8
0
  6
SLD-Сплошная
 62
     7
370
    25
100
AcDbCircle
 10
380.0772306138
 20
159.8646933965
 30
0.0
 40
29.19906684233449
100
AcDbArc
 50
331.9059880357
 51
338.8622902156
  0
LINE
  5
17C
330
1F
100
AcDbEntity
  8
0
  6
SLD-Сплошная
 62
     7
370
    25
100
AcDbLine
 10
407.5062189294
 20
152.1760426765
 30
0.0
 11
407.6598480775
 21
152.1760426765
 31
0.0
  0
LINE
  5
17D
330
1F
100
AcDbEntity
  8
0
  6
SLD-Сплошная
 62
     7
370
    25
100
AcDbLine
 10
407.6598480775
 20
152.1760426765
 30
0.0
 11
407.6598480775
 21
150.2848248963
 31
0.0
  0
LINE
  5
17E
330
1F
100
AcDbEntity
  8
0
  6
SLD-Сплошная
 62
     7
370
    25
100
AcDbLine
 10
407.4488355227
 20
150.2848248963
 30
0.0
 11
407.6598480775
 21
150.2848248963
 31
0.0
  0
LINE
  5
17F
330
1F
100
AcDbEntity
  8
0
  6
SLD-Сплошная
 62
     7
370
    25
100
AcDbLine
 10
408.7534487511
 20
155.4676318103
 30
0.0
 11
408.6122457321
 21
154.7684705829
 31
0.0
  0
LINE
  5
180
330
1F
100
AcDbEntity
  8
0
  6
SLD-Сплошная
 62
     7
370
    25
100
AcDbLine
 10
408.6122457321
 20
154.4982938106
 30
0.0
 11
408.6122457321
 21
154.7684705829
 31
0.0
  0
LWPOLYLINE
  5
181
330
1F
100
AcDbEntity
  8
0
  6
SLD-Сплошная
 62
     7
370
    25
100
AcDbPolyline
 90
        3
 70
   128
 43
0.0
 10
408.8676465076
 20
155.8413255274
 10
408.7864907919
 20
155.3752421102
 10
408.6122457321
 20
154.4982938106
  0
ARC
  5
182
330
1F
100
AcDbEntity
  8
0
  6
SLD-Сплошная
 62
     7
370
    25
100
AcDbCircle
 10
380.4152834696
 20
159.7442432866
 30
0.0
 40
28.84002248538152
100
AcDbArc
 50
340.8528006903
 51
353.5682698873
  0
LWPOLYLINE
  5
183
330
1F
100
AcDbEntity
  8
0
  6
SLD-Сплошная
 62
     7
370
    25
100
AcDbPolyline
 90
        3
 70
   128
 43
0.0
 10
408.1508735205
 20
153.731147341
 10
408.0691593293
 20
153.4498694967
 10
407.6598480775
 20
152.1760426765
  0
LWPOLYLINE
  5
184
330
1F
100
AcDbEntity
  8
0
  6
SLD-Сплошная
 62
     7
370
    25
100
AcDbPolyline
 90
        3
 70
   128
 43
0.0
 10
346.9039376457
 20
158.109756984
 10
347.0177770078
 20
160.6983099364
 10
347.0665834028
 20
161.202644573
  0
LWPOLYLINE
  5
185
330
1F
100
AcDbEntity
  8
0
  6
SLD-Сплошная
 62
     7
370
    25
100
AcDbPolyline
 90
       41
 70
   128
 43
0.0
 10
409.9412918886
 20
161.202644573
 10
409.9900982837
 20
160.6983099364
 10
410.1039376457
 20
158.109756984
 10
409.9900982837
 20
155.5212040315
 10
409.6494004127
 20
152.9513016624
 10
409.0842987688
 20
150.418566082
 10
408.2988649223
 20
147.9412457084
 10
407.298757942
 20
145.5371896915
 10
406.0911836216
 20
143.22371931
 10
404.6848425618
 20
141.0175031711
 10
403.0898674822
 20
138.9344371126
 10
401.3177502147
 20
136.9895296732
 10
399.3812589048
 20
135.1967939555
 10
397.2943460169
 20
133.5691466615
 10
395.0720478061
 20
132.1183150272
 10
392.730375982
 20
130.8547523278
 10
390.2862023436
 20
129.7875625615
 10
387.7571372181
 20
128.924434855
 10
385.1614025776
 20
128.2715880632
 10
382.5177007497
 20
127.8337259622
 10
379.8450796667
 20
127.6140033585
 10
377.1627956247
 20
127.6140033585
 10
374.4901745417
 20
127.8337259622
 10
371.8464727138
 20
128.2715880632
 10
369.2507380734
 20
128.924434855
 10
366.7216729479
 20
129.7875625615
 10
364.2774993095
 20
130.8547523278
 10
361.9358274853
 20
132.1183150272
 10
359.7135292745
 20
133.5691466615
 10
357.6266163866
 20
135.1967939555
 10
355.6901250768
 20
136.9895296732
 10
353.9180078093
 20
138.9344371126
 10
352.3230327296
 20
141.0175031711
 10
350.9166916698
 20
143.22371931
 10
349.7091173494
 20
145.5371896915
 10
348.7090103691
 20
147.9412457084
 10
347.9235765226
 20
150.418566082
 10
347.3584748787
 20
152.9513016624
 10
347.0177770078
 20
155.5212040315
 10
346.9039376457
 20
158.109756984
 10
346.9039376457
 20
158.109756984
  0
LINE
  5
186
330
1F
100
AcDbEntity
  8
0
  6
SLD-Сплошная
 62
     7
370
    25
100
AcDbLine
 10
410.1039376457
 20
157.3276921027
 30
0.0
 11
410.1039376457
 21
156.0780274799
 31
0.0
  0
LWPOLYLINE
  5
187
330
1F
100
AcDbEntity
  8
0
  6
SLD-Сплошная
 62
     7
370
    25
100
AcDbPolyline
 90
       38
 70
   128
 43
0.0
 10
410.1039376457
 20
156.0780274799
 10
409.9900982837
 20
153.4894745274
 10
409.6494004127
 20
150.9195721583
 10
409.0842987688
 20
148.386836578
 10
408.2988649223
 20
145.9095162043
 10
407.298757942
 20
143.5054601874
 10
406.0911836216
 20
141.191989806
 10
404.6848425618
 20
138.9857736671
 10
403.0898674822
 20
136.9027076086
 10
401.3177502147
 20
134.9578001691
 10
399.3812589048
 20
133.1650644515
 10
397.2943460169
 20
131.5374171574
 10
395.0720478061
 20
130.0865855231
 10
392.730375982
 20
128.8230228237
 10
390.2862023436
 20
127.7558330574
 10
387.7571372181
 20
126.8927053509
 10
385.1614025776
 20
126.2398585591
 10
382.5177007497
 20
125.8019964582
 10
379.8450796667
 20
125.5822738545
 10
377.1627956247
 20
125.5822738545
 10
374.4901745417
 20
125.8019964582
 10
371.8464727138
 20
126.2398585591
 10
369.2507380734
 20
126.8927053509
 10
366.7216729479
 20
127.7558330574
 10
364.2774993095
 20
128.8230228237
 10
361.9358274853
 20
130.0865855231
 10
359.7135292745
 20
131.5374171574
 10
357.6266163866
 20
133.1650644515
 10
355.6901250768
 20
134.9578001691
 10
353.9180078093
 20
136.9027076086
 10
352.3230327296
 20
138.9857736671
 10
350.9166916698
 20
141.191989806
 10
349.7091173494
 20
143.5054601874
 10
348.7090103691
 20
145.9095162043
 10
347.9235765226
 20
148.386836578
 10
347.3584748787
 20
150.9195721583
 10
347.0177770078
 20
153.4894745274
 10
346.9039376457
 20
156.0780274799
  0
LINE
  5
188
330
1F
100
AcDbEntity
  8
0
  6
SLD-Сплошная
 62
     7
370
    25
100
AcDbLine
 10
346.9039376457
 20
158.109756984
 30
0.0
 11
346.9039376457
 21
156.0780274799
 31
0.0
  0
LINE
  5
189
330
1F
100
AcDbEntity
  8
0
  6
SLD-Сплошная
 62
     7
370
    25
100
AcDbLine
 10
387.6701506522
 20
119.69816325
 30
0.0
 11
387.6701506522
 21
120.6557937169
 31
0.0
  0
ARC
  5
18A
330
1F
100
AcDbEntity
  8
0
  6
SLD-Сплошная
 62
     7
370
    25
100
AcDbCircle
 10
378.5039376457
 20
121.5314865645
 30
0.0
 40
9.347755626695758
100
AcDbArc
 50
191.3104175872
 51
348.6895824128
  0
LINE
  5
18B
330
1F
100
AcDbEntity
  8
0
  6
SLD-Сплошная
 62
     7
370
    25
100
AcDbLine
 10
369.3377246392
 20
120.6557937169
 30
0.0
 11
369.3377246392
 21
119.69816325
 31
0.0
  0
ARC
  5
18C
330
1F
100
AcDbEntity
  8
0
  6
SLD-Сплошная
 62
     7
370
    25
100
AcDbCircle
 10
378.5039376457
 20
122.4891170314
 30
0.0
 40
9.347755626695795
100
AcDbArc
 50
191.3104175872
 51
348.6895824128
  0
ARC
  5
18D
330
1F
100
AcDbEntity
  8
0
  6
SLD-Сплошная
 62
     7
370
    25
100
AcDbCircle
 10
376.4794905495
 20
155.9946945967
 30
0.0
 40
35.77564995836303
100
AcDbArc
 50
140.1093466908
 51
179.8665397602
  0
ARC
  5
18E
330
1F
100
AcDbEntity
  8
0
  6
SLD-Сплошная
 62
     7
370
    25
100
AcDbCircle
 10
380.5483232935
 20
156.0019563879
 30
0.0
 40
35.75569527380431
100
AcDbArc
 50
0.1218982255
 51
39.9022153236
  0
ARC
  5
18F
330
1F
100
AcDbEntity
  8
0
  6
SLD-Сплошная
 62
     7
370
    25
100
AcDbCircle
 10
379.5099790757
 20
156.5363884989
 30
0.0
 40
36.79681347715973
100
AcDbArc
 50
282.8126033233
 51
359.2862743099
  0
ARC
  5
190
330
1F
100
AcDbEntity
  8
0
  6
SLD-Сплошная
 62
     7
370
    25
100
AcDbCircle
 10
377.4727342453
 20
156.5160486609
 30
0.0
 40
36.77140554750298
100
AcDbArc
 50
180.682523776
 51
257.2185985908
  0
SPLINE
  5
191
330
1F
100
AcDbEntity
  8
0
  6
SLD-Сплошная
 62
     7
370
    25
100
AcDbSpline
210
0.0
220
0.0
230
1.0
 70
     8
 71
     3
 72
    36
 73
    32
 74
     0
 42
0.00000001
 43
0.00000001
 40
0.0
 40
0.0
 40
0.0
 40
0.0
 40
0.0141581473034112
 40
0.028868206271221
 40
0.0441393177331787
 40
0.0599762153172234
 40
0.0763826665364048
 40
0.0933643497641059
 40
0.1109256736505205
 40
0.1290699643445851
 40
0.1477996316438135
 40
0.1671163171469101
 40
0.1870210271685354
 40
0.2075142528452728
 40
0.2285960795420174
 40
0.2502662873732684
 40
0.3065175776838193
 40
0.3669110098472785
 40
0.4314314782283004
 40
0.5000608205765626
 40
0.5608689902227021
 40
0.624881431895081
 40
0.6560730712135056
 40
0.6872709529793004
 40
0.7497146255485453
 40
0.8159194891526118
 40
0.8749183224063939
 40
0.9095426686630046
 40
0.9419198721602368
 40
0.9720656008376805
 40
1.0
 40
1.0
 40
1.0
 40
1.0
 10
414.503937645707
 20
139.0991563089289
 30
0.0
 10
414.543909439376
 20
139.0323376809198
 30
0.0
 10
414.6254112036913
 20
138.8960957069672
 30
0.0
 10
414.7394400699345
 20
138.6821604266982
 30
0.0
 10
414.8501948148381
 20
138.4564937329718
 30
0.0
 10
414.9565064861343
 20
138.2186947560971
 30
0.0
 10
415.0583889318647
 20
137.969056423092
 30
0.0
 10
415.1556381832112
 20
137.7076875211847
 30
0.0
 10
415.2481199198313
 20
137.4347285642343
 30
0.0
 10
415.3356793298729
 20
137.1503081525973
 30
0.0
 10
415.418164513821
 20
136.8545597796084
 30
0.0
 10
415.4954199841782
 20
136.5476167684641
 30
0.0
 10
415.5672885661912
 20
136.229613315417
 30
0.0
 10
415.6336109636272
 20
135.9006838748279
 30
0.0
 10
415.6942258176502
 20
135.5609626247923
 30
0.0
 10
415.7775954856704
 20
135.0273751593978
 30
0.0
 10
415.8664307070409
 20
134.2781622088767
 30
0.0
 10
415.9357223758889
 20
133.2928213869961
 30
0.0
 10
415.9621625843411
 20
132.2378823383911
 30
0.0
 10
415.9427947994763
 20
131.1805117334304
 30
0.0
 10
415.8859070877164
 20
130.127550256495
 30
0.0
 10
415.8142171586209
 20
129.2798688777056
 30
0.0
 10
415.7422388718177
 20
128.594474118147
 30
0.0
 10
415.6622341076599
 20
127.9184497157517
 30
0.0
 10
415.5386284425644
 20
127.0553448841449
 30
0.0
 10
415.3561687910912
 20
126.0476159793007
 30
0.0
 10
415.164508580177
 20
125.1961619339186
 30
0.0
 10
414.9874961512004
 20
124.5309144582796
 30
0.0
 10
414.8339308888882
 20
124.0225300072117
 30
0.0
 10
414.67591514294
 20
123.5535946111159
 30
0.0
 10
414.5597897002692
 20
123.257561373298
 30
0.0
 10
414.5039376457176
 20
123.1151803053132
 30
0.0
  0
SPLINE
  5
192
330
1F
100
AcDbEntity
  8
0
  6
SLD-Сплошная
 62
     7
370
    25
100
AcDbSpline
210
0.0
220
0.0
230
1.0
 70
     8
 71
     3
 72
    32
 73
    28
 74
     0
 42
0.00000001
 43
0.00000001
 40
0.0
 40
0.0
 40
0.0
 40
0.0
 40
0.0184579223124832
 40
0.037904270192944
 40
0.0583466116985696
 40
0.0797904718768909
 40
0.1022396973089686
 40
0.1257002253026042
 40
0.1844784106867436
 40
0.2504086644721064
 40
0.3125445565807556
 40
0.3435981742746365
 40
0.3746510650587582
 40
0.4384289097452962
 40
0.4989710067295703
 40
0.5677349055237395
 40
0.632377477065247
 40
0.6928802448481015
 40
0.7492280564296842
 40
0.786849776386124
 40
0.8226630158636498
 40
0.856668550034379
 40
0.8888714946272483
 40
0.9192832788690314
 40
0.9479240099044621
 40
0.9748201095722043
 40
1.0
 40
1.0
 40
1.0
 40
1.0
 10
342.5039376457142
 20
123.1151803052946
 30
0.0
 10
342.4666364430545
 20
123.2091077472458
 30
0.0
 10
342.3900365505966
 20
123.4019924651451
 30
0.0
 10
342.2821884294647
 20
123.7024675436228
 30
0.0
 10
342.1759526495292
 20
124.0206116484882
 30
0.0
 10
342.0725683925284
 20
124.3567848779631
 30
0.0
 10
341.9721938605689
 20
124.7108873296892
 30
0.0
 10
341.8279104963352
 20
125.2642216105923
 30
0.0
 10
341.6505680753958
 20
126.053639627633
 30
0.0
 10
341.4690262835734
 20
127.0570548843238
 30
0.0
 10
341.3459670408778
 20
127.9162219422519
 30
0.0
 10
341.2662526464648
 20
128.5890276124199
 30
0.0
 10
341.1944585280918
 20
129.2715957154834
 30
0.0
 10
341.1228323942523
 20
130.1157761821671
 30
0.0
 10
341.0656067102304
 20
131.1667010969255
 30
0.0
 10
341.0456545293096
 20
132.2239962341002
 30
0.0
 10
341.0715744892846
 20
133.2809302438518
 30
0.0
 10
341.1404813847068
 20
134.2680800712652
 30
0.0
 10
341.2392769198037
 20
135.1048301240026
 30
0.0
 10
341.353500459715
 20
135.8036733500962
 30
0.0
 10
341.470483183643
 20
136.3783893465027
 30
0.0
 10
341.6042366542347
 20
136.9193883780885
 30
0.0
 10
341.7539805434092
 20
137.4259237426045
 30
0.0
 10
341.9186592862162
 20
137.8974244926778
 30
0.0
 10
342.0982583194524
 20
138.3327398213567
 30
0.0
 10
342.2892426551005
 20
138.7325787292723
 30
0.0
 10
342.4339624373231
 20
138.9796782416658
 30
0.0
 10
342.5039376457141
 20
139.0991563089175
 30
0.0
  0
ARC
  5
193
330
1F
100
AcDbEntity
  8
0
  6
SLD-Сплошная
 62
     7
370
    25
100
AcDbCircle
 10
380.9288022036
 20
155.1279907357
 30
0.0
 40
35.37513625719462
100
AcDbArc
 50
341.6437539932
 51
359.9877007325
  0
ARC
  5
194
330
1F
100
AcDbEntity
  8
0
  6
SLD-Сплошная
 62
     7
370
    25
100
AcDbCircle
 10
379.2168298377
 20
156.0040791935
 30
0.0
 40
37.27704609127465
100
AcDbArc
 50
283.1069903943
 51
341.1943714769
  0
LINE
  5
195
330
1F
100
AcDbEntity
  8
0
  6
SLD-Сплошная
 62
     7
370
    25
100
AcDbLine
 10
416.3039376457
 20
156.0780274799
 30
0.0
 11
416.3039376457
 21
155.120397013
 31
0.0
  0
ARC
  5
196
330
1F
100
AcDbEntity
  8
0
  6
SLD-Сплошная
 62
     7
370
    25
100
AcDbCircle
 10
377.7910454537
 20
156.0040791935
 30
0.0
 40
37.27704609127546
100
AcDbArc
 50
198.8056285231
 51
256.8930096057
  0
ARC
  5
197
330
1F
100
AcDbEntity
  8
0
  6
SLD-Сплошная
 62
     7
370
    25
100
AcDbCircle
 10
376.0790730879
 20
155.1279907357
 30
0.0
 40
35.37513625720121
100
AcDbArc
 50
180.0122992675
 51
198.3562460068
  0
LINE
  5
198
330
1F
100
AcDbEntity
  8
0
  6
SLD-Сплошная
 62
     7
370
    25
100
AcDbLine
 10
340.7039376457
 20
156.0780274799
 30
0.0
 11
340.7039376457
 21
155.120397013
 31
0.0
  0
LINE
  5
199
330
1F
100
AcDbEntity
  8
0
  6
SLD-Сплошная
 62
     7
370
    25
100
AcDbLine
 10
414.5039376457
 20
111.1701016083
 30
0.0
 11
414.5039376457
 21
123.1151803053
 31
0.0
  0
LINE
  5
19A
330
1F
100
AcDbEntity
  8
0
  6
SLD-Сплошная
 62
     7
370
    25
100
AcDbLine
 10
342.5039376457
 20
111.1701016083
 30
0.0
 11
342.5039376457
 21
123.1151803053
 31
0.0
  0
LINE
  5
19B
330
1F
100
AcDbEntity
  8
0
  6
SLD-Сплошная
 62
     7
370
    25
100
AcDbLine
 10
414.5039376457
 20
139.0991563089
 30
0.0
 11
414.5039376457
 21
143.9874994873
 31
0.0
  0
LINE
  5
19C
330
1F
100
AcDbEntity
  8
0
  6
SLD-Сплошная
 62
     7
370
    25
100
AcDbLine
 10
342.5039376457
 20
139.0991563089
 30
0.0
 11
342.5039376457
 21
143.9874994873
 31
0.0
  0
ARC
  5
19D
330
1F
100
AcDbEntity
  8
0
  6
SLD-Сплошная
 62
     7
370
    25
100
AcDbCircle
 10
392.6828400546
 20
151.5737790363
 30
0.0
 40
5.908696494467051
100
AcDbArc
 50
164.3016895423
 51
253.5739119738
  0
ARC
  5
19E
330
1F
100
AcDbEntity
  8
0
  6
SLD-Сплошная
 62
     7
370
    25
100
AcDbCircle
 10
392.9121578157
 20
151.9653587433
 30
0.0
 40
6.350079557380172
100
AcDbArc
 50
252.5883159838
 51
291.168102338
  0
ARC
  5
19F
330
1F
100
AcDbEntity
  8
0
  6
SLD-Сплошная
 62
     7
370
    25
100
AcDbCircle
 10
393.287330846
 20
151.5558828923
 30
0.0
 40
5.773951443249036
100
AcDbArc
 50
327.8279200487
 51
16.2593561788
  0
ARC
  5
1A0
330
1F
100
AcDbEntity
  8
0
  6
SLD-Сплошная
 62
     7
370
    25
100
AcDbCircle
 10
364.3250352368
 20
151.5737790363
 30
0.0
 40
5.908696494467029
100
AcDbArc
 50
286.4260880261
 51
15.6983104577
  0
ARC
  5
1A1
330
1F
100
AcDbEntity
  8
0
  6
SLD-Сплошная
 62
     7
370
    25
100
AcDbCircle
 10
363.7205444454
 20
151.5558828923
 30
0.0
 40
5.773951443217644
100
AcDbArc
 50
163.740643821
 51
212.1720799519
  0
ARC
  5
1A2
330
1F
100
AcDbEntity
  8
0
  6
SLD-Сплошная
 62
     7
370
    25
100
AcDbCircle
 10
364.0957174758
 20
151.9653587433
 30
0.0
 40
6.350079557376224
100
AcDbArc
 50
248.8318976617
 51
287.4116840162
  0
ARC
  5
1A3
330
1F
100
AcDbEntity
  8
0
  6
SLD-Сплошная
 62
     7
370
    25
100
AcDbCircle
 10
387.370960187
 20
168.008402215
 30
0.0
 40
6.074561219196919
100
AcDbArc
 50
165.4589263012
 51
294.7324432411
  0
ARC
  5
1A4
330
1F
100
AcDbEntity
  8
0
  6
SLD-Сплошная
 62
     7
370
    25
100
AcDbCircle
 10
387.8046594994
 20
167.9164788061
 30
0.0
 40
5.75403175529215
100
AcDbArc
 50
336.1915796355
 51
16.3220210793
  0
ARC
  5
1A5
330
1F
100
AcDbEntity
  8
0
  6
SLD-Сплошная
 62
     7
370
    25
100
AcDbCircle
 10
369.6456500742
 20
167.9979569072
 30
0.0
 40
6.068741066379842
100
AcDbArc
 50
245.1513944548
 51
14.6572360029
  0
ARC
  5
1A6
330
1F
100
AcDbEntity
  8
0
  6
SLD-Сплошная
 62
     7
370
    25
100
AcDbCircle
 10
369.2033119389
 20
167.9164692081
 30
0.0
 40
5.754126724569344
100
AcDbArc
 50
163.6781562562
 51
203.9079298807
  0
ARC
  5
1A7
330
1F
100
AcDbEntity
  8
0
  6
SLD-Сплошная
 62
     7
370
    25
100
AcDbCircle
 10
393.2092929318
 20
152.5655984986
 30
0.0
 40
5.564281620593863
100
AcDbArc
 50
327.997114528
 51
60.9348304013
  0
ARC
  5
1A8
330
1F
100
AcDbEntity
  8
0
  6
SLD-Сплошная
 62
     7
370
    25
100
AcDbCircle
 10
363.8047950538
 20
152.56328991
 30
0.0
 40
5.569319302549447
100
AcDbArc
 50
119.1094974057
 51
209.2746190469
  0
ARC
  5
1A9
330
1F
100
AcDbEntity
  8
0
  6
SLD-Сплошная
 62
     7
370
    25
100
AcDbCircle
 10
392.623626949
 20
152.5639176809
 30
0.0
 40
5.569656273908946
100
AcDbArc
 50
119.1289919042
 51
213.5694996372
  0
ARC
  5
1AA
330
1F
100
AcDbEntity
  8
0
  6
SLD-Сплошная
 62
     7
370
    25
100
AcDbCircle
 10
364.3896183995
 20
152.5650663652
 30
0.0
 40
5.566040379108764
100
AcDbArc
 50
327.239975101
 51
60.9135393671
  0
ARC
  5
1AB
330
1F
100
AcDbEntity
  8
0
  6
SLD-Сплошная
 62
     7
370
    25
100
AcDbCircle
 10
387.1021930567
 20
168.898863318
 30
0.0
 40
5.563384099151904
100
AcDbArc
 50
142.9519758394
 51
167.9118669449
  0
ARC
  5
1AC
330
1F
100
AcDbEntity
  8
0
  6
SLD-Сплошная
 62
     7
370
    25
100
AcDbCircle
 10
369.9030640596
 20
168.8974385683
 30
0.0
 40
5.566332151943306
100
AcDbArc
 50
13.4715907295
 51
37.0434923152
  0
ARC
  5
1AD
330
1F
100
AcDbEntity
  8
0
  6
SLD-Сплошная
 62
     7
370
    25
100
AcDbCircle
 10
387.3031692259
 20
168.7448513956
 30
0.0
 40
5.816579411595332
100
AcDbArc
 50
119.8408339253
 51
142.9338836612
  0
ARC
  5
1AE
330
1F
100
AcDbEntity
  8
0
  6
SLD-Сплошная
 62
     7
370
    25
100
AcDbCircle
 10
387.7002469792
 20
168.925955676
 30
0.0
 40
5.567562331483026
100
AcDbArc
 50
324.3849570213
 51
60.8889908924
  0
ARC
  5
1AF
330
1F
100
AcDbEntity
  8
0
  6
SLD-Сплошная
 62
     7
370
    25
100
AcDbCircle
 10
369.3133419343
 20
168.9245347331
 30
0.0
 40
5.571585134645154
100
AcDbArc
 50
119.1552343907
 51
214.9194299156
  0
ARC
  5
1B0
330
1F
100
AcDbEntity
  8
0
  6
SLD-Сплошная
 62
     7
370
    25
100
AcDbCircle
 10
369.7047060655
 20
168.7448513956
 30
0.0
 40
5.816579411583914
100
AcDbArc
 50
37.0661163388
 51
60.1591660747
  0
SPLINE
  5
1B1
330
1F
100
AcDbEntity
  8
0
  6
SLD-Сплошная
 62
     7
370
    25
100
AcDbSpline
210
0.0
220
0.0
230
1.0
 70
     8
 71
     3
 72
    10
 73
     6
 74
     0
 42
0.00000001
 43
0.00000001
 40
0.0
 40
0.0
 40
0.0
 40
0.0
 40
0.1771230825181997
 40
0.3964821352690409
 40
1.0
 40
1.0
 40
1.0
 40
1.0
 10
184.1541049802321
 20
306.4370681623771
 30
0.0
 10
184.1615342378998
 20
306.4417971757381
 30
0.0
 10
184.1781643004623
 20
306.4523828616265
 30
0.0
 10
184.5734460754634
 20
306.5049341394705
 30
0.0
 10
185.0646575264514
 20
306.4429898644365
 30
0.0
 10
185.4249239037595
 20
306.3975584325824
 30
0.0
  0
SPLINE
  5
1B2
330
1F
100
AcDbEntity
  8
0
  6
SLD-Сплошная
 62
     7
370
    25
100
AcDbSpline
210
0.0
220
0.0
230
1.0
 70
     8
 71
     3
 72
    10
 73
     6
 74
     0
 42
0.00000001
 43
0.00000001
 40
0.0
 40
0.0
 40
0.0
 40
0.0
 40
0.6035219415260364
 40
0.8228809417721256
 40
1.0
 40
1.0
 40
1.0
 40
1.0
 10
297.4249239052414
 20
225.2647541378705
 30
0.0
 10
297.0646727961292
 20
225.2193249559674
 30
0.0
 10
296.5734830786666
 20
225.1573838641591
 30
0.0
 10
296.1782823585142
 20
225.2099212251131
 30
0.0
 10
296.1616604770846
 20
225.220501307594
 30
0.0
 10
296.1542349665882
 20
225.2252277589195
 30
0.0
  0
SPLINE
  5
1B3
330
1F
100
AcDbEntity
  8
0
  6
SLD-Сплошная
 62
     7
370
    25
100
AcDbSpline
210
0.0
220
0.0
230
1.0
 70
     8
 71
     3
 72
    10
 73
     6
 74
     0
 42
0.00000001
 43
0.00000001
 40
0.0
 40
0.0
 40
0.0
 40
0.0
 40
0.1771230825174069
 40
0.3964821352680052
 40
1.0
 40
1.0
 40
1.0
 40
1.0
 10
184.154104980227
 20
230.4370681623762
 30
0.0
 10
184.1615342378946
 20
230.4417971757373
 30
0.0
 10
184.1781643004569
 20
230.4523828616258
 30
0.0
 10
184.5734460754601
 20
230.5049341394707
 30
0.0
 10
185.0646575264501
 20
230.4429898644366
 30
0.0
 10
185.42492390376
 20
230.3975584325823
 30
0.0
  0
SPLINE
  5
1B4
330
1F
100
AcDbEntity
  8
0
  6
SLD-Сплошная
 62
     7
370
    25
100
AcDbSpline
210
0.0
220
0.0
230
1.0
 70
     8
 71
     3
 72
    10
 73
     6
 74
     0
 42
0.00000001
 43
0.00000001
 40
0.0
 40
0.0
 40
0.0
 40
0.0
 40
0.1771230825165575
 40
0.3964821353143904
 40
1.0
 40
1.0
 40
1.0
 40
1.0
 10
296.15410498069
 20
306.437068162447
 30
0.0
 10
296.1615342383334
 20
306.441797175798
 30
0.0
 10
296.1781643008439
 20
306.4523828616652
 30
0.0
 10
296.573446075313
 20
306.5049341394299
 30
0.0
 10
297.0646575259524
 20
306.4429898644948
 30
0.0
 10
297.424923902977
 20
306.3975584327168
 30
0.0
  0
LINE
  5
1B5
330
1F
100
AcDbEntity
  8
0
  6
SLD-Сплошная
 62
     7
370
    25
100
AcDbLine
 10
171.7589568238
 20
296.5811562851
 30
0.0
 11
170.9443593769
 21
296.5811562851
 31
0.0
  0
LINE
  5
1B6
330
1F
100
AcDbEntity
  8
0
  6
SLD-Сплошная
 62
     7
370
    25
100
AcDbLine
 10
170.9443593769
 20
297.4311562851
 30
0.0
 11
167.9709177083
 21
297.4311562851
 31
0.0
  0
LINE
  5
1B7
330
1F
100
AcDbEntity
  8
0
  6
SLD-Сплошная
 62
     7
370
    25
100
AcDbLine
 10
176.0078997855
 20
296.3811562851
 30
0.0
 11
171.7589568238
 21
296.3811562851
 31
0.0
  0
LINE
  5
1B8
330
1F
100
AcDbEntity
  8
0
  6
SLD-Сплошная
 62
     7
370
    25
100
AcDbLine
 10
177.0624791923
 20
296.5811562851
 30
0.0
 11
176.9141361095
 21
296.5811562851
 31
0.0
  0
LINE
  5
1B9
330
1F
100
AcDbEntity
  8
0
  6
SLD-Сплошная
 62
     7
370
    25
100
AcDbLine
 10
183.2741362748
 20
309.8311562851
 30
0.0
 11
296.9381235393
 21
309.8311562851
 31
0.0
  0
ARC
  5
1BA
330
1F
100
AcDbEntity
  8
0
  6
SLD-Сплошная
 62
     7
370
    25
100
AcDbCircle
 10
296.9381235393
 20
303.8311562851
 30
0.0
 40
6.0
100
AcDbArc
 50
0.0
 51
90.0
  0
LINE
  5
1BB
330
1F
100
AcDbEntity
  8
0
  6
SLD-Сплошная
 62
     7
370
    25
100
AcDbLine
 10
302.9381235393
 20
227.8311562851
 30
0.0
 11
302.9381235393
 21
303.8311562851
 31
0.0
  0
ARC
  5
1BC
330
1F
100
AcDbEntity
  8
0
  6
SLD-Сплошная
 62
     7
370
    25
100
AcDbCircle
 10
296.9381235393
 20
227.8311562851
 30
0.0
 40
6.000000000000028
100
AcDbArc
 50
270.0
 51
0.0
  0
LINE
  5
1BD
330
1F
100
AcDbEntity
  8
0
  6
SLD-Сплошная
 62
     7
370
    25
100
AcDbLine
 10
296.9381235393
 20
221.8311562851
 30
0.0
 11
183.2741362748
 21
221.8311562851
 31
0.0
  0
SPLINE
  5
1BE
330
1F
100
AcDbEntity
  8
0
  6
SLD-Сплошная
 62
     7
370
    25
100
AcDbSpline
210
0.0
220
0.0
230
1.0
 70
     8
 71
     3
 72
    22
 73
    18
 74
     0
 42
0.00000001
 43
0.00000001
 40
0.0
 40
0.0
 40
0.0
 40
0.0
 40
0.125
 40
0.125
 40
0.25
 40
0.25
 40
0.375
 40
0.375
 40
0.5
 40
0.5
 40
0.625
 40
0.625
 40
0.75
 40
0.75
 40
0.875
 40
0.875
 40
1.0
 40
1.0
 40
1.0
 40
1.0
 10
177.0624791923012
 20
227.8311562850994
 30
0.0
 10
177.0624791923011
 20
227.477602894506
 30
0.0
 10
177.0950180092246
 20
227.1108278573249
 30
0.0
 10
177.2373430284062
 20
226.3679280839278
 30
0.0
 10
177.3472539708263
 20
225.9918788788795
 30
0.0
 10
177.6499664077303
 20
225.2532971765762
 30
0.0
 10
177.8428393257681
 20
224.8909143854389
 30
0.0
 10
178.3071750332573
 20
224.2048811441376
 30
0.0
 10
178.5786060565072
 20
223.8814088167932
 30
0.0
 10
179.1850568021896
 20
223.2956223791662
 30
0.0
 10
179.519939997711
 20
223.0334401437532
 30
0.0
 10
180.2301738713998
 20
222.5849262918212
 30
0.0
 10
180.6053401432548
 20
222.3986253590967
 30
0.0
 10
181.3699761869361
 20
222.1062275983524
 30
0.0
 10
181.7592909715847
 20
222.0000617804771
 30
0.0
 10
182.5283974114147
 20
221.8625863687225
 30
0.0
 10
182.9081108709773
 20
221.8311562850992
 30
0.0
 10
183.2741362747617
 20
221.8311562850993
 30
0.0
  0
LINE
  5
1BF
330
1F
100
AcDbEntity
  8
0
  6
SLD-Сплошная
 62
     7
370
    25
100
AcDbLine
 10
177.0624791923
 20
227.8311562851
 30
0.0
 11
177.0624791923
 21
303.8311562851
 31
0.0
  0
SPLINE
  5
1C0
330
1F
100
AcDbEntity
  8
0
  6
SLD-Сплошная
 62
     7
370
    25
100
AcDbSpline
210
0.0
220
0.0
230
1.0
 70
     8
 71
     3
 72
    22
 73
    18
 74
     0
 42
0.00000001
 43
0.00000001
 40
0.0
 40
0.0
 40
0.0
 40
0.0
 40
0.125
 40
0.125
 40
0.25
 40
0.25
 40
0.375
 40
0.375
 40
0.5
 40
0.5
 40
0.625
 40
0.625
 40
0.75
 40
0.75
 40
0.875
 40
0.875
 40
1.0
 40
1.0
 40
1.0
 40
1.0
 10
183.2741362747616
 20
309.8311562850993
 30
0.0
 10
182.9081108709772
 20
309.8311562850993
 30
0.0
 10
182.5283974114146
 20
309.799726201476
 30
0.0
 10
181.7592909715846
 20
309.6622507897213
 30
0.0
 10
181.369976186936
 20
309.5560849718461
 30
0.0
 10
180.6053401432547
 20
309.2636872111015
 30
0.0
 10
180.2301738713996
 20
309.0773862783771
 30
0.0
 10
179.519939997711
 20
308.6288724264451
 30
0.0
 10
179.1850568021895
 20
308.3666901910319
 30
0.0
 10
178.5786060565071
 20
307.780903753405
 30
0.0
 10
178.3071750332572
 20
307.4574314260606
 30
0.0
 10
177.842839325768
 20
306.7713981847594
 30
0.0
 10
177.6499664077302
 20
306.4090153936221
 30
0.0
 10
177.3472539708262
 20
305.6704336913187
 30
0.0
 10
177.2373430284062
 20
305.2943844862705
 30
0.0
 10
177.0950180092245
 20
304.5514847128735
 30
0.0
 10
177.0624791923011
 20
304.1847096756925
 30
0.0
 10
177.0624791923011
 20
303.8311562850993
 30
0.0
  0
SPLINE
  5
1C1
330
1F
100
AcDbEntity
  8
0
  6
SLD-Сплошная
 62
     7
370
    25
100
AcDbSpline
210
0.0
220
0.0
230
1.0
 70
     8
 71
     3
 72
    15
 73
    11
 74
     0
 42
0.00000001
 43
0.00000001
 40
0.0
 40
0.0
 40
0.0
 40
0.0
 40
0.125
 40
0.25
 40
0.375
 40
0.5
 40
0.625
 40
0.75
 40
0.875
 40
1.0
 40
1.0
 40
1.0
 40
1.0
 10
295.0624791922557
 20
306.4811562850993
 30
0.0
 10
294.7225377925886
 20
306.4811562850994
 30
0.0
 10
294.0374156087145
 20
306.3487021158625
 30
0.0
 10
293.1521287710715
 20
305.7666936567737
 30
0.0
 10
292.5534639488896
 20
304.8824161439938
 30
0.0
 10
292.3418229337635
 20
303.8311562850267
 30
0.0
 10
292.5534639489433
 20
302.77989642607
 30
0.0
 10
293.1521287711711
 20
301.8956189133192
 30
0.0
 10
294.0374156088056
 20
301.3136104543013
 30
0.0
 10
294.7225377926343
 20
301.1811562850988
 30
0.0
 10
295.0624791923933
 20
301.1811562850993
 30
0.0
  0
LINE
  5
1C2
330
1F
100
AcDbEntity
  8
0
  6
SLD-Сплошная
 62
     7
370
    25
100
AcDbLine
 10
295.0624791924
 20
301.1811562851
 30
0.0
 11
296.9381235393
 21
301.1811562851
 31
0.0
  0
SPLINE
  5
1C3
330
1F
100
AcDbEntity
  8
0
  6
SLD-Сплошная
 62
     7
370
    25
100
AcDbSpline
210
0.0
220
0.0
230
1.0
 70
     8
 71
     3
 72
    15
 73
    11
 74
     0
 42
0.00000001
 43
0.00000001
 40
0.0
 40
0.0
 40
0.0
 40
0.0
 40
0.125
 40
0.25
 40
0.375
 40
0.5
 40
0.625
 40
0.75
 40
0.875
 40
1.0
 40
1.0
 40
1.0
 40
1.0
 10
296.9381235393192
 20
301.1811562850993
 30
0.0
 10
297.2780649390517
 20
301.1811562850993
 30
0.0
 10
297.963187122983
 20
301.3136104543565
 30
0.0
 10
298.8484739606836
 20
301.8956189135395
 30
0.0
 10
299.447138782854
 20
302.7798964264692
 30
0.0
 10
299.6587797978673
 20
303.8311562855781
 30
0.0
 10
299.4471387824855
 20
304.8824161446107
 30
0.0
 10
298.8484739600087
 20
305.7666936573273
 30
0.0
 10
297.9631871223744
 20
306.3487021160272
 30
0.0
 10
297.27806493875
 20
306.4811562850994
 30
0.0
 10
296.9381235393192
 20
306.4811562850993
 30
0.0
  0
LINE
  5
1C4
330
1F
100
AcDbEntity
  8
0
  6
SLD-Сплошная
 62
     7
370
    25
100
AcDbLine
 10
296.9381235393
 20
306.4811562851
 30
0.0
 11
295.0624791923
 21
306.4811562851
 31
0.0
  0
SPLINE
  5
1C5
330
1F
100
AcDbEntity
  8
0
  6
SLD-Сплошная
 62
     7
370
    25
100
AcDbSpline
210
0.0
220
0.0
230
1.0
 70
     8
 71
     3
 72
    28
 73
    24
 74
     0
 42
0.00000001
 43
0.00000001
 40
0.0
 40
0.0
 40
0.0
 40
0.0
 40
0.0207510104823578
 40
0.0413180931882584
 40
0.0617869995043285
 40
0.0822447154147849
 40
0.1027783691208883
 40
0.1234741297622272
 40
0.1858319500791638
 40
0.2481887377492222
 40
0.3110287356921054
 40
0.3738626285560371
 40
0.4369474764778754
 40
0.5000321277271719
 40
0.563112192146308
 40
0.6262016342674184
 40
0.68903182585475
 40
0.7518755527178198
 40
0.8142297173616094
 40
0.8765901761322455
 40
0.9177972864967265
 40
0.9587020923540078
 40
0.9999999999999999
 40
0.9999999999999999
 40
0.9999999999999999
 40
0.9999999999999999
 10
184.938123539319
 20
306.4811562850993
 30
0.0
 10
184.9956497653469
 20
306.4800972983474
 30
0.0
 10
185.1101923303852
 20
306.4779887112336
 30
0.0
 10
185.2807837590226
 20
306.4609932464344
 30
0.0
 10
185.4491476879087
 20
306.4338282416431
 30
0.0
 10
185.6152702099918
 20
306.3955318427067
 30
0.0
 10
185.7791611401971
 20
306.3463485886484
 30
0.0
 10
186.048379950449
 20
306.2462548243175
 30
0.0
 10
186.4080340592268
 20
306.0578828782116
 30
0.0
 10
186.8133357032027
 20
305.7272324862778
 30
0.0
 10
187.1495112190068
 20
305.3244920108345
 30
0.0
 10
187.398443979118
 20
304.8604535019218
 30
0.0
 10
187.5543970082661
 20
304.3567239492378
 30
0.0
 10
187.6051492959025
 20
303.8311689306545
 30
0.0
 10
187.5543999973107
 20
303.3056017074814
 30
0.0
 10
187.3984533310737
 20
302.8018794488036
 30
0.0
 10
187.1495156980391
 20
302.3378319639613
 30
0.0
 10
186.8133598941233
 20
301.9350789865206
 30
0.0
 10
186.4079963348199
 20
301.6044838691408
 30
0.0
 10
185.9977977824767
 20
301.3893256079841
 30
0.0
 10
185.6173599364344
 20
301.2620166787334
 30
0.0
 10
185.2806813492545
 20
301.1936198316926
 30
0.0
 10
185.052672929164
 20
301.1853240244301
 30
0.0
 10
184.938123539319
 20
301.1811562850993
 30
0.0
  0
LINE
  5
1C6
330
1F
100
AcDbEntity
  8
0
  6
SLD-Сплошная
 62
     7
370
    25
100
AcDbLine
 10
183.0624791923
 20
306.4811562851
 30
0.0
 11
184.9381235393
 21
306.4811562851
 31
0.0
  0
SPLINE
  5
1C7
330
1F
100
AcDbEntity
  8
0
  6
SLD-Сплошная
 62
     7
370
    25
100
AcDbSpline
210
0.0
220
0.0
230
1.0
 70
     8
 71
     3
 72
    28
 73
    24
 74
     0
 42
0.00000001
 43
0.00000001
 40
0.0
 40
0.0
 40
0.0
 40
0.0
 40
0.0207510079030359
 40
0.0413180890613564
 40
0.0617869948555117
 40
0.082244711250625
 40
0.1027783664160254
 40
0.1234741294475305
 40
0.1858319406703594
 40
0.2481887374446022
 40
0.3110287260319914
 40
0.3738626282617777
 40
0.436947466629437
 40
0.50003212744613
 40
0.563112182238063
 40
0.6262016340021901
 40
0.6890318160672847
 40
0.751875552472997
 40
0.8142297077648977
 40
0.8765901759058142
 40
0.917797282265865
 40
0.9587020881283516
 40
1.0
 40
1.0
 40
1.0
 40
1.0
 10
183.0624791923011
 20
301.1811562850993
 30
0.0
 10
183.0049529734247
 20
301.1822152718851
 30
0.0
 10
182.8904104198289
 20
301.1843238591175
 30
0.0
 10
182.7198190041639
 20
301.2013193241931
 30
0.0
 10
182.5514550798131
 20
301.2284843292106
 30
0.0
 10
182.3853325536973
 20
301.2667807281679
 30
0.0
 10
182.2214416113555
 20
301.3159639830155
 30
0.0
 10
181.9522228088113
 20
301.4160577268305
 30
0.0
 10
181.5925686960871
 20
301.6044296799693
 30
0.0
 10
181.1872670648401
 20
301.9350800467838
 30
0.0
 10
180.8510915284986
 20
302.3378205368566
 30
0.0
 10
180.602158772801
 20
302.8018590194019
 30
0.0
 10
180.4462057291113
 20
303.3055885934456
 30
0.0
 10
180.3954534356747
 20
303.8311435860091
 30
0.0
 10
180.4462027287643
 20
304.3567108350596
 30
0.0
 10
180.6021493800073
 20
304.860433072147
 30
0.0
 10
180.8510870177217
 20
305.3244805834958
 30
0.0
 10
181.187242800397
 20
305.7272335463011
 30
0.0
 10
181.5926063734859
 20
306.0578286879205
 30
0.0
 10
182.0028049163161
 20
306.2729869433754
 30
0.0
 10
182.3832427695202
 20
306.4002958976757
 30
0.0
 10
182.7199213590343
 20
306.4686927398899
 30
0.0
 10
182.947929790777
 20
306.4769885460902
 30
0.0
 10
183.0624791923011
 20
306.4811562850993
 30
0.0
  0
LINE
  5
1C8
330
1F
100
AcDbEntity
  8
0
  6
SLD-Сплошная
 62
     7
370
    25
100
AcDbLine
 10
184.9381235393
 20
301.1811562851
 30
0.0
 11
183.0624791923
 21
301.1811562851
 31
0.0
  0
SPLINE
  5
1C9
330
1F
100
AcDbEntity
  8
0
  6
SLD-Сплошная
 62
     7
370
    25
100
AcDbSpline
210
0.0
220
0.0
230
1.0
 70
     8
 71
     3
 72
    15
 73
    11
 74
     0
 42
0.00000001
 43
0.00000001
 40
0.0
 40
0.0
 40
0.0
 40
0.0
 40
0.125
 40
0.25
 40
0.375
 40
0.5
 40
0.625
 40
0.75
 40
0.875
 40
1.0
 40
1.0
 40
1.0
 40
1.0
 10
184.9381235393643
 20
225.1811562850993
 30
0.0
 10
185.2780649390273
 20
225.1811562850993
 30
0.0
 10
185.9631871228934
 20
225.3136104543329
 30
0.0
 10
186.8484739605297
 20
225.8956189134088
 30
0.0
 10
187.4471387827135
 20
226.779896426172
 30
0.0
 10
187.6587797978539
 20
227.8311562851233
 30
0.0
 10
187.4471387826974
 20
228.8824161440714
 30
0.0
 10
186.8484739604991
 20
229.7666936568268
 30
0.0
 10
185.9631871228646
 20
230.3487021158819
 30
0.0
 10
185.2780649390122
 20
230.4811562850993
 30
0.0
 10
184.938123539319
 20
230.4811562850993
 30
0.0
  0
LINE
  5
1CA
330
1F
100
AcDbEntity
  8
0
  6
SLD-Сплошная
 62
     7
370
    25
100
AcDbLine
 10
184.9381235393
 20
230.4811562851
 30
0.0
 11
183.0624791923
 21
230.4811562851
 31
0.0
  0
SPLINE
  5
1CB
330
1F
100
AcDbEntity
  8
0
  6
SLD-Сплошная
 62
     7
370
    25
100
AcDbSpline
210
0.0
220
0.0
230
1.0
 70
     8
 71
     3
 72
    15
 73
    11
 74
     0
 42
0.00000001
 43
0.00000001
 40
0.0
 40
0.0
 40
0.0
 40
0.0
 40
0.125
 40
0.25
 40
0.375
 40
0.5
 40
0.625
 40
0.75
 40
0.875
 40
1.0
 40
1.0
 40
1.0
 40
1.0
 10
183.0624791923011
 20
230.4811562850993
 30
0.0
 10
182.7225377925683
 20
230.4811562850993
 30
0.0
 10
182.0374156086373
 20
230.3487021158421
 30
0.0
 10
181.1521287709365
 20
229.7666936566586
 30
0.0
 10
180.5534639487661
 20
228.882416143729
 30
0.0
 10
180.3418229337526
 20
227.8311562846206
 30
0.0
 10
180.5534639491344
 20
226.7798964255873
 30
0.0
 10
181.1521287716115
 20
225.8956189128708
 30
0.0
 10
182.0374156092458
 20
225.3136104541714
 30
0.0
 10
182.72253779287
 20
225.1811562850994
 30
0.0
 10
183.0624791923925
 20
225.1811562850993
 30
0.0
  0
LINE
  5
1CC
330
1F
100
AcDbEntity
  8
0
  6
SLD-Сплошная
 62
     7
370
    25
100
AcDbLine
 10
183.0624791924
 20
225.1811562851
 30
0.0
 11
184.9381235394
 21
225.1811562851
 31
0.0
  0
LINE
  5
1CD
330
1F
100
AcDbEntity
  8
0
  6
SLD-Сплошная
 62
     7
370
    25
100
AcDbLine
 10
296.9381235393
 20
225.1811562851
 30
0.0
 11
295.0624791922
 21
225.1811562851
 31
0.0
  0
SPLINE
  5
1CE
330
1F
100
AcDbEntity
  8
0
  6
SLD-Сплошная
 62
     7
370
    25
100
AcDbSpline
210
0.0
220
0.0
230
1.0
 70
     8
 71
     3
 72
    15
 73
    11
 74
     0
 42
0.00000001
 43
0.00000001
 40
0.0
 40
0.0
 40
0.0
 40
0.0
 40
0.125
 40
0.25
 40
0.375
 40
0.5
 40
0.625
 40
0.75
 40
0.875
 40
1.0
 40
1.0
 40
1.0
 40
1.0
 10
296.9381235393242
 20
225.1811562850993
 30
0.0
 10
297.2780649390155
 20
225.1811562850993
 30
0.0
 10
297.9631871228718
 20
225.3136104543266
 30
0.0
 10
298.8484739605074
 20
225.8956189133863
 30
0.0
 10
299.447138782704
 20
226.7798964261471
 30
0.0
 10
299.6587797978544
 20
227.8311562851019
 30
0.0
 10
299.4471387827049
 20
228.8824161440569
 30
0.0
 10
298.8484739605069
 20
229.7666936568201
 30
0.0
 10
297.9631871228697
 20
230.3487021158803
 30
0.0
 10
297.2780649390137
 20
230.4811562850993
 30
0.0
 10
296.9381235393192
 20
230.4811562850993
 30
0.0
  0
LINE
  5
1CF
330
1F
100
AcDbEntity
  8
0
  6
SLD-Сплошная
 62
     7
370
    25
100
AcDbLine
 10
295.0624791923
 20
230.4811562851
 30
0.0
 11
296.9381235393
 21
230.4811562851
 31
0.0
  0
SPLINE
  5
1D0
330
1F
100
AcDbEntity
  8
0
  6
SLD-Сплошная
 62
     7
370
    25
100
AcDbSpline
210
0.0
220
0.0
230
1.0
 70
     8
 71
     3
 72
    15
 73
    11
 74
     0
 42
0.00000001
 43
0.00000001
 40
0.0
 40
0.0
 40
0.0
 40
0.0
 40
0.125
 40
0.25
 40
0.375
 40
0.5
 40
0.625
 40
0.75
 40
0.875
 40
1.0
 40
1.0
 40
1.0
 40
1.0
 10
295.0624791923012
 20
230.4811562850993
 30
0.0
 10
294.7225377928727
 20
230.4811562850993
 30
0.0
 10
294.0374156092543
 20
230.3487021160307
 30
0.0
 10
293.1521287716237
 20
229.7666936573409
 30
0.0
 10
292.5534639491422
 20
228.8824161446373
 30
0.0
 10
292.3418229337483
 20
227.831156285614
 30
0.0
 10
292.5534639487436
 20
226.7798964265078
 30
0.0
 10
293.1521287708945
 20
225.8956189135715
 30
0.0
 10
294.0374156085985
 20
225.3136104543587
 30
0.0
 10
294.7225377925485
 20
225.1811562850993
 30
0.0
 10
295.0624791922332
 20
225.1811562850993
 30
0.0
  0
SPLINE
  5
1D1
330
1F
100
AcDbEntity
  8
0
  6
SLD-Сплошная
 62
     7
370
    25
100
AcDbSpline
210
0.0
220
0.0
230
1.0
 70
     8
 71
     3
 72
    38
 73
    34
 74
     0
 42
0.00000001
 43
0.00000001
 40
0.0
 40
0.0
 40
0.0
 40
0.0
 40
0.0625
 40
0.0625
 40
0.125
 40
0.125
 40
0.1875
 40
0.1875
 40
0.25
 40
0.25
 40
0.3125
 40
0.3125
 40
0.375
 40
0.375
 40
0.4375
 40
0.4375
 40
0.5
 40
0.5
 40
0.5625
 40
0.5625
 40
0.625
 40
0.625
 40
0.6875
 40
0.6875
 40
0.75
 40
0.75
 40
0.8125
 40
0.8125
 40
0.875
 40
0.875
 40
0.9375
 40
0.9375
 40
1.0
 40
1.0
 40
1.0
 40
1.0
 10
269.1273931484894
 20
265.8311562850993
 30
0.0
 10
269.1273931484894
 20
265.2374062850993
 30
0.0
 10
269.0892665431298
 20
264.6061778216331
 30
0.0
 10
268.9044102747191
 20
263.2729489078575
 30
0.0
 10
268.7575924968469
 20
262.5707562850993
 30
0.0
 10
268.3169789544644
 20
261.1115562850993
 30
0.0
 10
268.0229438941641
 20
260.3543541136563
 30
0.0
 10
267.2481531862395
 20
258.8191944115985
 30
0.0
 10
266.7669634571545
 20
258.0411562850992
 30
0.0
 10
265.5867486114869
 20
256.5211562850993
 30
0.0
 10
264.8871610725511
 20
255.7794111171503
 30
0.0
 10
263.2630460663157
 20
254.4102987133222
 30
0.0
 10
262.3380949446063
 20
253.783578430428
 30
0.0
 10
260.2962007479498
 20
252.7316753162411
 30
0.0
 10
259.1793691978779
 20
252.3074284744483
 30
0.0
 10
256.8329065461366
 20
251.7318071726732
 30
0.0
 10
255.6040980418827
 20
251.5811562850992
 30
0.0
 10
253.1453171134087
 20
251.5811562850993
 30
0.0
 10
251.9165086091548
 20
251.7318071726733
 30
0.0
 10
249.5700459574135
 20
252.3074284744485
 30
0.0
 10
248.4532144073417
 20
252.7316753162411
 30
0.0
 10
246.4113202106851
 20
253.783578430428
 30
0.0
 10
245.4863690889757
 20
254.4102987133222
 30
0.0
 10
243.8622540827404
 20
255.7794111171503
 30
0.0
 10
243.1626665438046
 20
256.5211562850993
 30
0.0
 10
241.982451698137
 20
258.0411562850992
 30
0.0
 10
241.5012619690519
 20
258.8191944115984
 30
0.0
 10
240.7264712611272
 20
260.3543541136563
 30
0.0
 10
240.4324362008271
 20
261.1115562850993
 30
0.0
 10
239.9918226584445
 20
262.5707562850993
 30
0.0
 10
239.8450048805723
 20
263.2729489078575
 30
0.0
 10
239.6601486121617
 20
264.6061778216331
 30
0.0
 10
239.622022006802
 20
265.2374062850993
 30
0.0
 10
239.622022006802
 20
265.8311562850993
 30
0.0
  0
SPLINE
  5
1D2
330
1F
100
AcDbEntity
  8
0
  6
SLD-Сплошная
 62
     7
370
    25
100
AcDbSpline
210
0.0
220
0.0
230
1.0
 70
     8
 71
     3
 72
    38
 73
    34
 74
     0
 42
0.00000001
 43
0.00000001
 40
0.0
 40
0.0
 40
0.0
 40
0.0
 40
0.0625
 40
0.0625
 40
0.125
 40
0.125
 40
0.1875
 40
0.1875
 40
0.25
 40
0.25
 40
0.3125
 40
0.3125
 40
0.375
 40
0.375
 40
0.4375
 40
0.4375
 40
0.5
 40
0.5
 40
0.5625
 40
0.5625
 40
0.625
 40
0.625
 40
0.6875
 40
0.6875
 40
0.75
 40
0.75
 40
0.8125
 40
0.8125
 40
0.875
 40
0.875
 40
0.9375
 40
0.9375
 40
1.0
 40
1.0
 40
1.0
 40
1.0
 10
239.622022006802
 20
265.8311562850993
 30
0.0
 10
239.622022006802
 20
266.4249062850994
 30
0.0
 10
239.6601486121617
 20
267.0561347485655
 30
0.0
 10
239.8450048805723
 20
268.3893636623411
 30
0.0
 10
239.9918226584445
 20
269.0915562850993
 30
0.0
 10
240.4324362008271
 20
270.5507562850993
 30
0.0
 10
240.7264712611273
 20
271.3079584565422
 30
0.0
 10
241.5012619690519
 20
272.8431181586
 30
0.0
 10
241.982451698137
 20
273.6211562850993
 30
0.0
 10
243.1626665438045
 20
275.1411562850994
 30
0.0
 10
243.8622540827404
 20
275.8829014530482
 30
0.0
 10
245.4863690889758
 20
277.2520138568764
 30
0.0
 10
246.4113202106851
 20
277.8787341397705
 30
0.0
 10
248.4532144073417
 20
278.9306372539575
 30
0.0
 10
249.5700459574136
 20
279.3548840957501
 30
0.0
 10
251.9165086091548
 20
279.9305053975253
 30
0.0
 10
253.1453171134088
 20
280.0811562850993
 30
0.0
 10
255.6040980418827
 20
280.0811562850993
 30
0.0
 10
256.8329065461366
 20
279.9305053975253
 30
0.0
 10
259.1793691978779
 20
279.3548840957502
 30
0.0
 10
260.2962007479498
 20
278.9306372539574
 30
0.0
 10
262.3380949446064
 20
277.8787341397705
 30
0.0
 10
263.2630460663157
 20
277.2520138568764
 30
0.0
 10
264.887161072551
 20
275.8829014530483
 30
0.0
 10
265.5867486114869
 20
275.1411562850994
 30
0.0
 10
266.7669634571545
 20
273.6211562850993
 30
0.0
 10
267.2481531862395
 20
272.8431181586001
 30
0.0
 10
268.0229438941641
 20
271.3079584565424
 30
0.0
 10
268.3169789544644
 20
270.5507562850993
 30
0.0
 10
268.7575924968469
 20
269.0915562850993
 30
0.0
 10
268.9044102747191
 20
268.389363662341
 30
0.0
 10
269.0892665431298
 20
267.0561347485655
 30
0.0
 10
269.1273931484894
 20
266.4249062850993
 30
0.0
 10
269.1273931484894
 20
265.8311562850993
 30
0.0
  0
LINE
  5
1D3
330
1F
100
AcDbEntity
  8
0
  6
SLD-Сплошная
 62
     7
370
    25
100
AcDbLine
 10
185.0494525284
 20
301.2068158866
 30
0.0
 11
184.0540313137
 21
301.3329807635
 31
0.0
  0
SPLINE
  5
1D4
330
1F
100
AcDbEntity
  8
0
  6
SLD-Сплошная
 62
     7
370
    25
100
AcDbSpline
210
0.0
220
0.0
230
1.0
 70
     8
 71
     3
 72
    14
 73
    10
 74
     0
 42
0.00000001
 43
0.00000001
 40
0.0
 40
0.0
 40
0.0
 40
0.0
 40
0.144302357653722
 40
0.2866753443661116
 40
0.4281614352687282
 40
0.5694543666440215
 40
0.7113397556144262
 40
0.8548162742768408
 40
1.0
 40
1.0
 40
1.0
 40
1.0
 10
184.0540313137126
 20
301.3329807635188
 30
0.0
 10
183.7431248011367
 20
301.484755090477
 30
0.0
 10
183.1254687003803
 20
301.7862744707152
 30
0.0
 10
182.5040547778076
 20
302.6345045221506
 30
0.0
 10
182.2300920819149
 20
303.6235213573606
 30
0.0
 10
182.3495326092478
 20
304.6498101371901
 30
0.0
 10
182.8419606798029
 20
305.5536201120539
 30
0.0
 10
183.6462855005276
 20
306.2429840051459
 30
0.0
 10
184.323976627555
 20
306.3864884973644
 30
0.0
 10
184.664826206342
 20
306.4586651037503
 30
0.0
  0
SPLINE
  5
1D5
330
1F
100
AcDbEntity
  8
0
  6
SLD-Сплошная
 62
     7
370
    25
100
AcDbSpline
210
0.0
220
0.0
230
1.0
 70
     8
 71
     3
 72
     9
 73
     5
 74
     0
 42
0.00000001
 43
0.00000001
 40
0.0
 40
0.0
 40
0.0
 40
0.0
 40
0.4382851994014733
 40
1.0
 40
1.0
 40
1.0
 40
1.0
 10
297.0465883092541
 20
230.4686934528951
 30
0.0
 10
296.8984488981962
 20
230.4730470912544
 30
0.0
 10
296.5604511486482
 20
230.4829804368595
 30
0.0
 10
296.2361794988301
 20
230.3845958725836
 30
0.0
 10
296.0540313137127
 20
230.3293318066793
 30
0.0
  0
SPLINE
  5
1D6
330
1F
100
AcDbEntity
  8
0
  6
SLD-Сплошная
 62
     7
370
    25
100
AcDbSpline
210
0.0
220
0.0
230
1.0
 70
     8
 71
     3
 72
    15
 73
    11
 74
     0
 42
0.00000001
 43
0.00000001
 40
0.0
 40
0.0
 40
0.0
 40
0.0
 40
0.1445020582094887
 40
0.2870720754142606
 40
0.4287539694308933
 40
0.5702424366060695
 40
0.7123241812805728
 40
0.85599925761723
 40
0.9319313040623396
 40
1.0
 40
1.0
 40
1.0
 40
1.0
 10
296.0540313137127
 20
230.3293318066793
 30
0.0
 10
295.7431225652867
 20
230.1775468558956
 30
0.0
 10
295.1254620227238
 20
229.8760063700502
 30
0.0
 10
294.5040810041575
 20
229.0279326647031
 30
0.0
 10
294.2299944296292
 20
228.038327209984
 30
0.0
 10
294.3498973561437
 20
227.014235557838
 30
0.0
 10
294.8405864649112
 20
226.1021627632438
 30
0.0
 10
295.5208729639802
 20
225.5501266929825
 30
0.0
 10
296.1507269276129
 20
225.276504501521
 30
0.0
 10
296.4887168313883
 20
225.2261371304882
 30
0.0
 10
296.6484835909856
 20
225.2023286333423
 30
0.0
  0
SPLINE
  5
1D7
330
1F
100
AcDbEntity
  8
0
  6
SLD-Сплошная
 62
     7
370
    25
100
AcDbSpline
210
0.0
220
0.0
230
1.0
 70
     8
 71
     3
 72
    15
 73
    11
 74
     0
 42
0.00000001
 43
0.00000001
 40
0.0
 40
0.0
 40
0.0
 40
0.0
 40
0.0679050821864778
 40
0.1439940238373093
 40
0.2876702278473066
 40
0.4297530876894367
 40
0.571242665375729
 40
0.7129256714216501
 40
0.8554968076263632
 40
0.9999999999999999
 40
0.9999999999999999
 40
0.9999999999999999
 40
0.9999999999999999
 10
184.6484259486797
 20
230.4599835726196
 30
0.0
 10
184.4890442131394
 20
230.4362523130173
 30
0.0
 10
184.1510721985618
 20
230.3859297237377
 30
0.0
 10
183.5211639380188
 20
230.1124197209583
 30
0.0
 10
182.8405874565329
 20
229.5601513633024
 30
0.0
 10
182.349897092946
 20
228.6480765992728
 30
0.0
 10
182.2299945000943
 20
227.6239854708098
 30
0.0
 10
182.5040809852328
 20
226.6343798757937
 30
0.0
 10
183.1254620275424
 20
225.7863062077112
 30
0.0
 10
183.7431225669
 20
225.484765716835
 30
0.0
 10
184.0540313137127
 20
225.3329807635188
 30
0.0
  0
SPLINE
  5
1D8
330
1F
100
AcDbEntity
  8
0
  6
SLD-Сплошная
 62
     7
370
    25
100
AcDbSpline
210
0.0
220
0.0
230
1.0
 70
     8
 71
     3
 72
     9
 73
     5
 74
     0
 42
0.00000001
 43
0.00000001
 40
0.0
 40
0.0
 40
0.0
 40
0.0
 40
0.5617052494649099
 40
1.0
 40
1.0
 40
1.0
 40
1.0
 10
184.0540313137127
 20
225.3329807635188
 30
0.0
 10
184.2361872299713
 20
225.2778422656638
 30
0.0
 10
184.560478157343
 20
225.1796795764106
 30
0.0
 10
184.8984418510755
 20
225.1894035995115
 30
0.0
 10
185.04656956391
 20
225.1936655877906
 30
0.0
  0
SPLINE
  5
1D9
330
1F
100
AcDbEntity
  8
0
  6
SLD-Сплошная
 62
     7
370
    25
100
AcDbSpline
210
0.0
220
0.0
230
1.0
 70
     8
 71
     3
 72
    14
 73
    10
 74
     0
 42
0.00000001
 43
0.00000001
 40
0.0
 40
0.0
 40
0.0
 40
0.0
 40
0.1443023576522747
 40
0.2866753443633142
 40
0.4281614352645482
 40
0.5694543666384474
 40
0.7113397556074744
 40
0.8548162742684723
 40
1.0
 40
1.0
 40
1.0
 40
1.0
 10
296.0540313137127
 20
301.3329807635188
 30
0.0
 10
295.7431248011368
 20
301.4847550904768
 30
0.0
 10
295.1254687003803
 20
301.7862744707149
 30
0.0
 10
294.5040547778077
 20
302.6345045221503
 30
0.0
 10
294.230092081915
 20
303.6235213573606
 30
0.0
 10
294.3495326092478
 20
304.6498101371898
 30
0.0
 10
294.8419606798028
 20
305.5536201120544
 30
0.0
 10
295.6462855005472
 20
306.2429840051587
 30
0.0
 10
296.3239766275983
 20
306.3864884973804
 30
0.0
 10
296.6648262064086
 20
306.4586651037703
 30
0.0
  0
ARC
  5
1DA
330
1F
100
AcDbEntity
  8
0
  6
SLD-Сплошная
 62
     7
370
    25
100
AcDbCircle
 10
256.5527624154
 20
265.6158519956
 30
0.0
 40
14.05907865602118
100
AcDbArc
 50
179.1225236275
 51
264.1197074156
  0
ARC
  5
1DB
330
1F
100
AcDbEntity
  8
0
  6
SLD-Сплошная
 62
     7
370
    25
100
AcDbCircle
 10
256.5220749538
 20
266.0655511453
 30
0.0
 40
14.02870078461413
100
AcDbArc
 50
93.5524787592
 51
180.9573560213
  0
LINE
  5
1DC
330
1F
100
AcDbEntity
  8
0
  6
SLD-Сплошная
 62
     7
370
    25
100
AcDbLine
 10
297.0494525281
 20
301.2068158866
 30
0.0
 11
296.0540313137
 21
301.3329807635
 31
0.0
  0
ARC
  5
1DD
330
1F
100
AcDbEntity
  8
0
  6
SLD-Сплошная
 62
     7
370
    25
100
AcDbCircle
 10
256.2597754929
 20
265.4965901561
 30
0.0
 40
12.27181947320295
100
AcDbArc
 50
178.4377538599
 51
1.5622461401
  0
ARC
  5
1DE
330
1F
100
AcDbEntity
  8
0
  6
SLD-Сплошная
 62
     7
370
    25
100
AcDbCircle
 10
256.2597754929
 20
266.1657224141
 30
0.0
 40
12.27181947320295
100
AcDbArc
 50
358.4377538599
 51
181.5622461401
  0
ARC
  5
1DF
330
1F
100
AcDbEntity
  8
0
  6
SLD-Сплошная
 62
     7
370
    25
100
AcDbCircle
 10
256.8638970561
 20
265.6111026838
 30
0.0
 40
12.48509039662662
100
AcDbArc
 50
178.9900917731
 51
268.1180823734
  0
ARC
  5
1E0
330
1F
100
AcDbEntity
  8
0
  6
SLD-Сплошная
 62
     7
370
    25
100
AcDbCircle
 10
256.863897056
 20
266.0512098865
 30
0.0
 40
12.48509039652949
100
AcDbArc
 50
91.8819176112
 51
181.0099082271
  0
ARC
  5
1E1
330
1F
100
AcDbEntity
  8
0
  6
SLD-Сплошная
 62
     7
370
    25
100
AcDbCircle
 10
256.6480040606
 20
266.1289961361
 30
0.0
 40
11.16041825116855
100
AcDbArc
 50
358.4707568908
 51
181.5292431092
  0
ARC
  5
1E2
330
1F
100
AcDbEntity
  8
0
  6
SLD-Сплошная
 62
     7
370
    25
100
AcDbCircle
 10
256.6480040606
 20
265.5333164341
 30
0.0
 40
11.16041825116855
100
AcDbArc
 50
178.4707568908
 51
1.5292431092
  0
ARC
  5
1E3
330
1F
100
AcDbEntity
  8
0
  6
SLD-Сплошная
 62
     7
370
    25
100
AcDbCircle
 10
258.1025424766
 20
265.6626422446
 30
0.0
 40
11.39577820888093
100
AcDbArc
 50
179.1527129568
 51
265.7409766547
  0
ARC
  5
1E4
330
1F
100
AcDbEntity
  8
0
  6
SLD-Сплошная
 62
     7
370
    25
100
AcDbCircle
 10
258.0635641026
 20
266.0353209563
 30
0.0
 40
11.35738904218932
100
AcDbArc
 50
94.0762845563
 51
181.0300258322
  0
LWPOLYLINE
  5
1E5
330
1F
100
AcDbEntity
  8
0
  6
SLD-Сплошная
 62
     7
370
    25
100
AcDbPolyline
 90
       12
 70
   128
 43
0.0
 10
161.0387739415
 20
262.8311562851
 10
160.8200206875
 20
262.9526773643
 10
160.6189895211
 20
263.3073956866
 10
160.451966792
 20
263.8665740833
 10
160.3324836882
 20
264.5849112461
 10
160.2702200202
 20
265.4042117703
 10
160.2702200202
 20
266.2581007999
 10
160.3324836882
 20
267.0774013241
 10
160.451966792
 20
267.7957384869
 10
160.6189895211
 20
268.3549168836
 10
160.8200206875
 20
268.7096352059
 10
161.0387739415
 20
268.8311562851
  0
LINE
  5
1E6
330
1F
100
AcDbEntity
  8
0
  6
SLD-Сплошная
 62
     7
370
    25
100
AcDbLine
 10
161.0387739415
 20
262.8311562851
 30
0.0
 11
148.2885530345
 21
262.8311562851
 31
0.0
  0
LWPOLYLINE
  5
1E7
330
1F
100
AcDbEntity
  8
0
  6
SLD-Сплошная
 62
     7
370
    25
100
AcDbPolyline
 90
       12
 70
   128
 43
0.0
 10
148.2885530345
 20
262.8311562851
 10
148.0697997805
 20
262.9526773643
 10
147.8687686141
 20
263.3073956866
 10
147.7017458849
 20
263.8665740833
 10
147.5822627812
 20
264.5849112461
 10
147.5199991132
 20
265.4042117703
 10
147.5199991132
 20
266.2581007999
 10
147.5822627812
 20
267.0774013241
 10
147.7017458849
 20
267.7957384869
 10
147.8687686141
 20
268.3549168836
 10
148.0697997805
 20
268.7096352059
 10
148.2885530345
 20
268.8311562851
  0
LINE
  5
1E8
330
1F
100
AcDbEntity
  8
0
  6
SLD-Сплошная
 62
     7
370
    25
100
AcDbLine
 10
161.0387739415
 20
268.8311562851
 30
0.0
 11
148.2885530345
 21
268.8311562851
 31
0.0
  0
LINE
  5
1E9
330
1F
100
AcDbEntity
  8
0
  6
SLD-Сплошная
 62
     7
370
    25
100
AcDbLine
 10
161.0387739415
 20
268.8311562851
 30
0.0
 11
161.9815811664
 21
268.8311562851
 31
0.0
  0
ARC
  5
1EA
330
1F
100
AcDbEntity
  8
0
  6
SLD-Сплошная
 62
     7
370
    25
100
AcDbCircle
 10
283.7375066348
 20
265.8311562851
 30
0.0
 40
121.7928790474753
100
AcDbArc
 50
178.5885486385
 51
181.4114513615
  0
LINE
  5
1EB
330
1F
100
AcDbEntity
  8
0
  6
SLD-Сплошная
 62
     7
370
    25
100
AcDbLine
 10
161.9815811664
 20
262.8311562851
 30
0.0
 11
161.0387739415
 21
262.8311562851
 31
0.0
  0
LWPOLYLINE
  5
1EC
330
1F
100
AcDbEntity
  8
0
  6
SLD-Сплошная
 62
     7
370
    25
100
AcDbPolyline
 90
       39
 70
   128
 43
0.0
 10
170.9443593769
 20
296.5811562851
 10
170.601958949
 20
296.5526853245
 10
169.9196931062
 20
296.325233872
 10
169.245013534
 20
295.872014938
 10
168.5829153239
 20
295.1963839969
 10
167.9383004193
 20
294.3033431838
 10
167.3159413235
 20
293.1995042605
 10
166.7204457655
 20
291.8930396641
 10
166.1562225861
 20
290.3936220014
 10
165.6274490963
 20
288.7123524361
 10
165.1380401499
 20
286.8616785001
 10
164.6916191597
 20
284.8553019354
 10
164.2914912703
 20
282.7080772524
 10
163.9406188889
 20
280.4359017512
 10
163.6415997515
 20
278.0555978243
 10
163.3966476915
 20
275.5847884092
 10
163.207576248
 20
273.0417665144
 10
163.07578524
 20
270.4453597842
 10
163.0022504019
 20
267.8147911057
 10
162.98751616
 20
265.1695362889
 10
163.0316916014
 20
262.5291798752
 10
163.1344496666
 20
259.9132701395
 10
163.2950295708
 20
257.3411743624
 10
163.5122424367
 20
254.831935441
 10
163.7844800961
 20
252.4041309025
 10
164.1097269967
 20
250.0757353622
 10
164.4855751242
 20
247.863987446
 10
164.9092418306
 20
245.7852621618
 10
165.3775904358
 20
243.8549496643
 10
165.8871534506
 20
242.0873413117
 10
166.4341582487
 20
240.4955238581
 10
167.014554998
 20
239.0912825627
 10
167.624046644
 20
237.8850139369
 10
168.2581207238
 20
236.8856487716
 10
168.9120827747
 20
236.1005860167
 10
169.5810910906
 20
235.5356380024
 10
170.2601925679
 20
235.1949874059
 10
170.9443593769
 20
235.0811562851
 10
170.9443593769
 20
235.0811562851
  0
LINE
  5
1ED
330
1F
100
AcDbEntity
  8
0
  6
SLD-Сплошная
 62
     7
370
    25
100
AcDbLine
 10
170.9443593769
 20
235.0811562851
 30
0.0
 11
177.0624791923
 21
235.0811562851
 31
0.0
  0
LWPOLYLINE
  5
1EE
330
1F
100
AcDbEntity
  8
0
  6
SLD-Сплошная
 62
     7
370
    25
100
AcDbPolyline
 90
       10
 70
   128
 43
0.0
 10
172.6651931477
 20
296.3811562851
 10
172.4506090464
 20
296.4648159487
 10
171.7647802518
 20
296.5811480534
 10
171.0789081296
 20
296.468693885
 10
170.3980957099
 20
296.1282901257
 10
169.7274083771
 20
295.5624694495
 10
169.0718361833
 20
294.7754416789
 10
168.4362567206
 20
293.7730624626
 10
167.8253988312
 20
292.5627897084
 10
167.2438074235
 20
291.153628095
  0
LINE
  5
1EF
330
1F
100
AcDbEntity
  8
0
  6
SLD-Сплошная
 62
     7
370
    25
100
AcDbLine
 10
167.2438074235
 20
291.153628095
 30
0.0
 11
177.0624791923
 21
291.153628095
 31
0.0
  0
LINE
  5
1F0
330
1F
100
AcDbEntity
  8
0
  6
SLD-Сплошная
 62
     7
370
    25
100
AcDbLine
 10
157.3731015176
 20
297.4311562851
 30
0.0
 11
167.9709177083
 21
297.4311562851
 31
0.0
  0
LINE
  5
1F1
330
1F
100
AcDbEntity
  8
0
  6
SLD-Сплошная
 62
     7
370
    25
100
AcDbLine
 10
157.3731015176
 20
234.2311562851
 30
0.0
 11
170.9443593769
 21
234.2311562851
 31
0.0
  0
ARC
  5
1F2
330
1F
100
AcDbEntity
  8
0
  6
SLD-Сплошная
 62
     7
370
    25
100
AcDbCircle
 10
170.7881430345
 20
237.0907685352
 30
0.0
 40
2.863876004098148
100
AcDbArc
 50
273.1268747723
 51
315.4355898627
  0
LWPOLYLINE
  5
1F3
330
1F
100
AcDbEntity
  8
0
  6
SLD-Сплошная
 62
     7
370
    25
100
AcDbPolyline
 90
       43
 70
   128
 43
0.0
 10
173.0351543468
 20
296.3811562851
 10
173.0052077679
 20
296.4115174082
 10
172.3265633145
 20
296.9766190521
 10
171.6379600501
 20
297.317316923
 10
170.9443593769
 20
297.4311562851
 10
170.2507587037
 20
297.317316923
 10
169.5621554393
 20
296.9766190521
 10
168.8835109859
 20
296.4115174082
 10
168.2197149924
 20
295.6260835617
 10
167.5755501241
 20
294.6259765814
 10
166.9556576037
 20
293.418402261
 10
166.3645037709
 20
292.0120612012
 10
165.8063479028
 20
290.4170861216
 10
165.285211525
 20
288.6449688541
 10
164.8048494372
 20
286.7084775442
 10
164.3687226592
 20
284.6215646563
 10
163.9799734945
 20
282.3992664455
 10
163.6414028896
 20
280.0575946213
 10
163.3554502535
 20
277.613420983
 10
163.1241758816
 20
275.0843558574
 10
162.949246111
 20
272.488621217
 10
162.8319213146
 20
269.8449193891
 10
162.7730468204
 20
267.1722983061
 10
162.7730468204
 20
264.4900142641
 10
162.8319213146
 20
261.8173931811
 10
162.949246111
 20
259.1736913532
 10
163.1241758816
 20
256.5779567128
 10
163.3554502535
 20
254.0488915872
 10
163.6414028896
 20
251.6047179489
 10
163.9799734945
 20
249.2630461247
 10
164.3687226592
 20
247.0407479139
 10
164.8048494372
 20
244.953835026
 10
165.285211525
 20
243.0173437161
 10
165.8063479028
 20
241.2452264486
 10
166.3645037709
 20
239.650251369
 10
166.9556576037
 20
238.2439103092
 10
167.5755501241
 20
237.0363359888
 10
168.2197149924
 20
236.0362290085
 10
168.8835109859
 20
235.250795162
 10
169.5621554393
 20
234.6856935181
 10
170.2507587037
 20
234.3449956472
 10
170.9443593769
 20
234.2311562851
 10
170.9443593769
 20
234.2311562851
  0
LWPOLYLINE
  5
1F4
330
1F
100
AcDbEntity
  8
0
  6
SLD-Сплошная
 62
     7
370
    25
100
AcDbPolyline
 90
       18
 70
   128
 43
0.0
 10
157.3731015176
 20
297.4311562851
 10
156.664027236
 20
297.3121712526
 10
155.960292779
 20
296.9561121955
 10
155.2671977582
 20
296.3656604871
 10
154.5899616633
 20
295.545262641
 10
153.9336845547
 20
294.501096826
 10
153.3033086575
 20
293.2410263396
 10
152.7035811424
 20
291.7745403925
 10
152.1390183761
 20
290.1126826479
 10
151.6138719107
 20
288.267968055
 10
151.1320964657
 20
286.2542886027
 10
150.6973201465
 20
284.0868087034
 10
150.3128171225
 20
281.7818509943
 10
149.9814829699
 20
279.3567734162
 10
149.7058128662
 20
276.8298384968
 10
149.4878827998
 20
274.2200758204
 10
149.3293339363
 20
271.5471387222
 10
149.2313602594
 20
268.8311562851
  0
LWPOLYLINE
  5
1F5
330
1F
100
AcDbEntity
  8
0
  6
SLD-Сплошная
 62
     7
370
    25
100
AcDbPolyline
 90
       18
 70
   128
 43
0.0
 10
149.2313602594
 20
262.8311562851
 10
149.3293339363
 20
260.115173848
 10
149.4878827998
 20
257.4422367498
 10
149.7058128662
 20
254.8324740734
 10
149.9814829699
 20
252.305539154
 10
150.3128171225
 20
249.8804615759
 10
150.6973201465
 20
247.5755038668
 10
151.1320964657
 20
245.4080239675
 10
151.6138719107
 20
243.3943445152
 10
152.1390183761
 20
241.5496299223
 10
152.7035811424
 20
239.8877721777
 10
153.3033086575
 20
238.4212862306
 10
153.9336845547
 20
237.1612157442
 10
154.5899616633
 20
236.1170499292
 10
155.2671977582
 20
235.2966520831
 10
155.960292779
 20
234.7062003747
 10
156.664027236
 20
234.3501413176
 10
157.3731015176
 20
234.2311562851
  0
LWPOLYLINE
  5
1F6
330
1F
100
AcDbEntity
  8
0
  6
SLD-Сплошная
 62
     7
370
    25
100
AcDbPolyline
 90
        8
 70
   128
 43
0.0
 10
171.7589568238
 20
296.3811562851
 10
171.0782955669
 20
296.2677504971
 10
170.396932952
 20
295.9244953392
 10
169.7258563658
 20
295.3539747428
 10
169.070133791
 20
294.5604972897
 10
168.4347172561
 20
293.550055336
 10
167.8244054383
 20
292.3302797573
 10
167.3356876897
 20
291.153628095
  0
LINE
  5
1F7
330
1F
100
AcDbEntity
  8
0
  6
SLD-Сплошная
 62
     7
370
    25
100
AcDbLine
 10
173.2674166604
 20
292.9379608319
 30
0.0
 11
176.2923203617
 21
292.9379608319
 31
0.0
  0
ARC
  5
1F8
330
1F
100
AcDbEntity
  8
0
  6
SLD-Сплошная
 62
     7
370
    25
100
AcDbCircle
 10
187.5670608417
 20
287.3994503014
 30
0.0
 40
12.56164287778746
100
AcDbArc
 50
146.7454549882
 51
153.8382635678
  0
LINE
  5
1F9
330
1F
100
AcDbEntity
  8
0
  6
SLD-Сплошная
 62
     7
370
    25
100
AcDbLine
 10
174.384911337
 20
294.776054162
 30
0.0
 11
177.0624791923
 21
294.776054162
 31
0.0
  0
LINE
  5
1FA
330
1F
100
AcDbEntity
  8
0
  6
SLD-Сплошная
 62
     7
370
    25
100
AcDbLine
 10
173.2674166604
 20
293.163167787
 30
0.0
 11
176.2923203617
 21
293.163167787
 31
0.0
  0
LINE
  5
1FB
330
1F
100
AcDbEntity
  8
0
  6
SLD-Сплошная
 62
     7
370
    25
100
AcDbLine
 10
176.2923203617
 20
292.9379608319
 30
0.0
 11
176.2923203617
 21
293.163167787
 31
0.0
  0
LINE
  5
1FC
330
1F
100
AcDbEntity
  8
0
  6
SLD-Сплошная
 62
     7
370
    25
100
AcDbLine
 10
173.2674166604
 20
292.9379608319
 30
0.0
 11
173.2674166604
 21
293.163167787
 31
0.0
  0
ARC
  5
1FD
330
1F
100
AcDbEntity
  8
0
  6
SLD-Сплошная
 62
     7
370
    25
100
AcDbCircle
 10
184.2264334202
 20
287.7443004857
 30
0.0
 40
12.22555402310297
100
AcDbArc
 50
145.6706135
 51
153.6891440663
  0
LINE
  5
1FE
330
1F
100
AcDbEntity
  8
0
  6
SLD-Сплошная
 62
     7
370
    25
100
AcDbLine
 10
177.0624791923
 20
294.6388976833
 30
0.0
 11
174.1304589425
 21
294.6388976833
 31
0.0
  0
ARC
  5
1FF
330
1F
100
AcDbEntity
  8
0
  6
SLD-Сплошная
 62
     7
370
    25
100
AcDbCircle
 10
187.4677126485
 20
287.6273093279
 30
0.0
 40
12.47137208343333
100
AcDbArc
 50
146.5460840835
 51
153.6479588178
  0
ARC
  5
200
330
1F
100
AcDbEntity
  8
0
  6
SLD-Сплошная
 62
     7
370
    25
100
AcDbCircle
 10
177.2336943941
 20
293.270624314
 30
0.0
 40
3.325919335880865
100
AcDbArc
 50
95.5135520667
 51
148.9302896953
  0
LINE
  5
201
330
1F
100
AcDbEntity
  8
0
  6
SLD-Сплошная
 62
     7
370
    25
100
AcDbLine
 10
174.384911337
 20
294.9870667169
 30
0.0
 11
177.0624791923
 21
294.9870667169
 31
0.0
  0
LINE
  5
202
330
1F
100
AcDbEntity
  8
0
  6
SLD-Сплошная
 62
     7
370
    25
100
AcDbLine
 10
174.384911337
 20
294.776054162
 30
0.0
 11
174.384911337
 21
294.9870667169
 31
0.0
  0
LINE
  5
203
330
1F
100
AcDbEntity
  8
0
  6
SLD-Сплошная
 62
     7
370
    25
100
AcDbLine
 10
167.9709177083
 20
-2.0640161035
 30
0.0
 11
170.9443593769
 21
-2.0640161035
 31
0.0
  0
LINE
  5
204
330
1F
100
AcDbEntity
  8
0
  6
SLD-Сплошная
 62
     7
370
    25
100
AcDbLine
 10
193.1606533816
 20
-1.2140161035
 30
0.0
 11
194.0299866252
 21
-1.2140161035
 31
0.0
  0
LINE
  5
205
330
1F
100
AcDbEntity
  8
0
  6
SLD-Сплошная
 62
     7
370
    25
100
AcDbLine
 10
194.0299866252
 20
-2.0640161035
 30
0.0
 11
196.948692497
 21
-2.0640161035
 31
0.0
  0
LINE
  5
206
330
1F
100
AcDbEntity
  8
0
  6
SLD-Сплошная
 62
     7
370
    25
100
AcDbLine
 10
188.9117104198
 20
-1.0140161035
 30
0.0
 11
193.1606533816
 21
-1.0140161035
 31
0.0
  0
LINE
  5
207
330
1F
100
AcDbEntity
  8
0
  6
SLD-Сплошная
 62
     7
370
    25
100
AcDbLine
 10
173.0351543468
 20
-1.0140161035
 30
0.0
 11
176.9141361095
 21
-1.0140161035
 31
0.0
  0
SPLINE
  5
208
330
1F
100
AcDbEntity
  8
0
  6
SLD-Сплошная
 62
     7
370
    25
100
AcDbSpline
210
0.0
220
0.0
230
1.0
 70
     8
 71
     3
 72
    22
 73
    18
 74
     0
 42
0.00000001
 43
0.00000001
 40
0.0
 40
0.0
 40
0.0
 40
0.0
 40
0.0692848243990655
 40
0.1313778766964435
 40
0.1874279449559371
 40
0.2411130785062762
 40
0.2967970166297872
 40
0.3626858773384915
 40
0.4426347700520491
 40
0.523531089712451
 40
0.6034138188269119
 40
0.6935517945280689
 40
0.7560455732709236
 40
0.8149319705476261
 40
0.8771520069884425
 40
0.9425806461625004
 40
1.0
 40
1.0
 40
1.0
 40
1.0
 10
163.2499372713975
 20
41.44093046875918
 30
0.0
 10
163.053117334938
 20
41.42303128966535
 30
0.0
 10
162.6799073922435
 20
41.38909086816112
 30
0.0
 10
162.1992092318055
 20
41.1456916896944
 30
0.0
 10
161.8332364733772
 20
40.83194589447073
 30
0.0
 10
161.5649133088609
 20
40.4656760090086
 30
0.0
 10
161.3699062758374
 20
40.04890761933743
 30
0.0
 10
161.2304836349956
 20
39.55108988942352
 30
0.0
 10
161.1458648820724
 20
38.93776419969147
 30
0.0
 10
161.1299046215875
 20
38.23765405164814
 30
0.0
 10
161.1916348894349
 20
37.5306444230804
 30
0.0
 10
161.3248220289078
 20
36.94397774818392
 30
0.0
 10
161.5480060753162
 20
36.43893130168119
 30
0.0
 10
161.8456014503746
 20
36.03092436375491
 30
0.0
 10
162.2523456813327
 20
35.69805921249428
 30
0.0
 10
162.7386377000512
 20
35.47985119275465
 30
0.0
 10
163.0870764343282
 20
35.4533276269898
 30
0.0
 10
163.2499372713974
 20
35.44093046875921
 30
0.0
  0
SPLINE
  5
209
330
1F
100
AcDbEntity
  8
0
  6
SLD-Сплошная
 62
     7
370
    25
100
AcDbSpline
210
0.0
220
0.0
230
1.0
 70
     8
 71
     3
 72
    22
 73
    18
 74
     0
 42
0.00000001
 43
0.00000001
 40
0.0
 40
0.0
 40
0.0
 40
0.0
 40
0.0692848243990655
 40
0.1313778766964435
 40
0.1874279449559371
 40
0.2411130785062762
 40
0.2967970166297872
 40
0.3626858773384915
 40
0.4426347700520491
 40
0.523531089712451
 40
0.6034138188269119
 40
0.6935517945280689
 40
0.7560455732709236
 40
0.8149319705476261
 40
0.8771520069884425
 40
0.9425806461625004
 40
1.0
 40
1.0
 40
1.0
 40
1.0
 10
163.2499372713975
 20
23.63103732429719
 30
0.0
 10
163.053117334938
 20
23.61313814520338
 30
0.0
 10
162.6799073922435
 20
23.57919772369915
 30
0.0
 10
162.1992092318055
 20
23.33579854523238
 30
0.0
 10
161.8332364733772
 20
23.02205275000874
 30
0.0
 10
161.5649133088609
 20
22.65578286454659
 30
0.0
 10
161.3699062758374
 20
22.23901447487548
 30
0.0
 10
161.2304836349956
 20
21.7411967449615
 30
0.0
 10
161.1458648820724
 20
21.12787105522951
 30
0.0
 10
161.1299046215875
 20
20.42776090718618
 30
0.0
 10
161.1916348894349
 20
19.72075127861839
 30
0.0
 10
161.3248220289078
 20
19.13408460372196
 30
0.0
 10
161.5480060753162
 20
18.6290381572192
 30
0.0
 10
161.8456014503746
 20
18.22103121929289
 30
0.0
 10
162.2523456813327
 20
17.88816606803234
 30
0.0
 10
162.7386377000512
 20
17.66995804829264
 30
0.0
 10
163.0870764343282
 20
17.64343448252784
 30
0.0
 10
163.2499372713974
 20
17.63103732429722
 30
0.0
  0
SPLINE
  5
20A
330
1F
100
AcDbEntity
  8
0
  6
SLD-Сплошная
 62
     7
370
    25
100
AcDbSpline
210
0.0
220
0.0
230
1.0
 70
     8
 71
     3
 72
    11
 73
     7
 74
     0
 42
0.00000001
 43
0.00000001
 40
0.0
 40
0.0
 40
0.0
 40
0.0
 40
0.0814039966443258
 40
0.5069575245784999
 40
0.873775147419827
 40
1.0
 40
1.0
 40
1.0
 40
1.0
 10
158.8718506476218
 20
46.93025150800658
 30
0.0
 10
158.8341042669989
 20
46.93483673646306
 30
0.0
 10
158.5990321271629
 20
46.96339204288228
 30
0.0
 10
158.1931171214124
 20
46.83968602849756
 30
0.0
 10
157.8150935902703
 20
46.64098793030555
 30
0.0
 10
157.6422074345698
 20
46.49449394420355
 30
0.0
 10
157.5979464822091
 20
46.45698970730433
 30
0.0
  0
SPLINE
  5
20B
330
1F
100
AcDbEntity
  8
0
  6
SLD-Сплошная
 62
     7
370
    25
100
AcDbSpline
210
0.0
220
0.0
230
1.0
 70
     8
 71
     3
 72
    10
 73
     6
 74
     0
 42
0.00000001
 43
0.00000001
 40
0.0
 40
0.0
 40
0.0
 40
0.0
 40
0.3720745870936159
 40
0.783427756678032
 40
1.0
 40
1.0
 40
1.0
 40
1.0
 10
157.597946482209
 20
12.61497808575207
 30
0.0
 10
157.7340608176756
 20
12.51229884126368
 30
0.0
 10
158.0206585918456
 20
12.29610087193908
 30
0.0
 10
158.4735013503776
 20
12.13466919220507
 30
0.0
 10
158.7655877505107
 20
12.14629146968402
 30
0.0
 10
158.8663287073513
 20
12.15030000740902
 30
0.0
  0
LINE
  5
20C
330
1F
100
AcDbEntity
  8
0
  6
SLD-Сплошная
 62
     7
370
    25
100
AcDbLine
 10
163.0986000693
 20
46.9444901184
 30
0.0
 11
158.8660046576
 21
46.9444901184
 31
0.0
  0
LINE
  5
20D
330
1F
100
AcDbEntity
  8
0
  6
SLD-Сплошная
 62
     7
370
    25
100
AcDbLine
 10
158.8660046576
 20
12.1274776747
 30
0.0
 11
163.0986000693
 21
12.1274776747
 31
0.0
  0
LINE
  5
20E
330
1F
100
AcDbEntity
  8
0
  6
SLD-Сплошная
 62
     7
370
    25
100
AcDbLine
 10
176.9141361095
 20
-1.2140161035
 30
0.0
 11
179.9390398108
 21
-1.2140161035
 31
0.0
  0
SPLINE
  5
20F
330
1F
100
AcDbEntity
  8
0
  6
SLD-Сплошная
 62
     7
370
    25
100
AcDbSpline
210
0.0
220
0.0
230
1.0
 70
     8
 71
     3
 72
    19
 73
    15
 74
     0
 42
0.00000001
 43
0.00000001
 40
0.0
 40
0.0
 40
0.0
 40
0.0
 40
0.0888634859780159
 40
0.1516825673438532
 40
0.2294228778210939
 40
0.3335211529695494
 40
0.4305477749711263
 40
0.5262240317121339
 40
0.6342074401469685
 40
0.7091123559381658
 40
0.7796210402264941
 40
0.8541549044970466
 40
0.9338302475570776
 40
1.0
 40
1.0
 40
1.0
 40
1.0
 10
157.5979464822091
 20
46.45698970730433
 30
0.0
 10
157.4571724111165
 20
46.30619336079877
 30
0.0
 10
157.2168827996551
 20
46.04879656016359
 30
0.0
 10
157.0021841713995
 20
45.58960262843625
 30
0.0
 10
156.8516161000866
 20
45.08953948621561
 30
0.0
 10
156.7625767147154
 20
44.4614014822082
 30
0.0
 10
156.7459136399866
 20
43.74068244924473
 30
0.0
 10
156.8078538666155
 20
43.03329753419716
 30
0.0
 10
156.9411817350368
 20
42.44646502421038
 30
0.0
 10
157.1647220755416
 20
41.94140979105826
 30
0.0
 10
157.4626914926949
 20
41.53306167486947
 30
0.0
 10
157.8722788743677
 20
41.20005336533078
 30
0.0
 10
158.3561354293931
 20
40.97866595619607
 30
0.0
 10
158.7028532089133
 20
40.96495112979174
 30
0.0
 10
158.8601586675528
 20
40.95872872879269
 30
0.0
  0
SPLINE
  5
210
330
1F
100
AcDbEntity
  8
0
  6
SLD-Сплошная
 62
     7
370
    25
100
AcDbSpline
210
0.0
220
0.0
230
1.0
 70
     8
 71
     3
 72
    20
 73
    16
 74
     0
 42
0.00000001
 43
0.00000001
 40
0.0
 40
0.0
 40
0.0
 40
0.0
 40
0.0399212243439555
 40
0.1200106152723423
 40
0.1901247542899248
 40
0.2552859271021683
 40
0.3198254332746253
 40
0.3906076892712316
 40
0.4816011321386707
 40
0.5722885211195671
 40
0.666709265332017
 40
0.7652612451829269
 40
0.8668293675485875
 40
0.9428724978778618
 40
1.0
 40
1.0
 40
1.0
 40
1.0
 10
158.8656806078232
 20
18.10465534190436
 30
0.0
 10
158.770905997329
 20
18.10931054148709
 30
0.0
 10
158.4859959149223
 20
18.12330493608091
 30
0.0
 10
158.050777533719
 20
17.96457480897143
 30
0.0
 10
157.6245623305082
 20
17.6896711836724
 30
0.0
 10
157.3088665462624
 20
17.34651730247491
 30
0.0
 10
157.0791884380352
 20
16.95890772460884
 30
0.0
 10
156.9099700174104
 20
16.50167128927557
 30
0.0
 10
156.7993101982208
 20
15.95976627252657
 30
0.0
 10
156.7462584487729
 20
15.30761299095187
 30
0.0
 10
156.762873930728
 20
14.61866317666322
 30
0.0
 10
156.8554766921154
 20
13.95337952849776
 30
0.0
 10
157.0290232559327
 20
13.39106259820177
 30
0.0
 10
157.2866481599701
 20
12.92817491961146
 30
0.0
 10
157.5044947223997
 20
12.70899977877093
 30
0.0
 10
157.597946482209
 20
12.61497808575204
 30
0.0
  0
LINE
  5
211
330
1F
100
AcDbEntity
  8
0
  6
SLD-Сплошная
 62
     7
370
    25
100
AcDbLine
 10
158.8660046576
 20
40.9444901184
 30
0.0
 11
161.9921934342
 21
40.9444901184
 31
0.0
  0
LINE
  5
212
330
1F
100
AcDbEntity
  8
0
  6
SLD-Сплошная
 62
     7
370
    25
100
AcDbLine
 10
161.9952565171
 20
18.1274776747
 30
0.0
 11
158.8660046576
 21
18.1274776747
 31
0.0
  0
LINE
  5
213
330
1F
100
AcDbEntity
  8
0
  6
SLD-Сплошная
 62
     7
370
    25
100
AcDbLine
 10
184.9805703946
 20
-1.2140161035
 30
0.0
 11
188.0054740959
 21
-1.2140161035
 31
0.0
  0
LINE
  5
214
330
1F
100
AcDbEntity
  8
0
  6
SLD-Сплошная
 62
     7
370
    25
100
AcDbLine
 10
180.947353252
 20
-1.2140161035
 30
0.0
 11
183.9722569533
 21
-1.2140161035
 31
0.0
  0
SPLINE
  5
215
330
1F
100
AcDbEntity
  8
0
  6
SLD-Сплошная
 62
     7
370
    25
100
AcDbSpline
210
0.0
220
0.0
230
1.0
 70
     8
 71
     3
 72
     9
 73
     5
 74
     0
 42
0.00000001
 43
0.00000001
 40
0.0
 40
0.0
 40
0.0
 40
0.0
 40
0.7166939292845893
 40
1.0
 40
1.0
 40
1.0
 40
1.0
 10
199.0030037861319
 20
-7.913425248381484
 30
0.0
 10
199.3206408770643
 20
-7.914099971599975
 30
0.0
 10
199.7638385629292
 20
-7.915041410045204
 30
0.0
 10
200.2830778735082
 20
-7.913247286312042
 30
0.0
 10
200.4301815223493
 20
-7.912739000166785
 30
0.0
  0
SPLINE
  5
216
330
1F
100
AcDbEntity
  8
0
  6
SLD-Сплошная
 62
     7
370
    25
100
AcDbSpline
210
0.0
220
0.0
230
1.0
 70
     8
 71
     3
 72
    12
 73
     8
 74
     0
 42
0.00000001
 43
0.00000001
 40
0.0
 40
0.0
 40
0.0
 40
0.0
 40
0.1110541794238356
 40
0.2754555451563064
 40
0.5288404824659121
 40
0.7878292323047517
 40
1.0
 40
1.0
 40
1.0
 40
1.0
 10
206.3896064300561
 20
-7.876705999925681
 30
0.0
 10
206.9089253359082
 20
-7.871196986016404
 30
0.0
 10
208.1970287919299
 20
-7.857532588714883
 30
0.0
 10
210.8291918084806
 20
-7.815019238041732
 30
0.0
 10
214.3344058705636
 20
-7.737532372264405
 30
0.0
 10
218.4141625783849
 20
-7.614702940163337
 30
0.0
 10
221.2767170675599
 20
-7.481978005485196
 30
0.0
 10
222.5657717527256
 20
-7.422209816082271
 30
0.0
  0
SPLINE
  5
217
330
1F
100
AcDbEntity
  8
0
  6
SLD-Сплошная
 62
     7
370
    25
100
AcDbSpline
210
0.0
220
0.0
230
1.0
 70
     8
 71
     3
 72
    14
 73
    10
 74
     0
 42
0.00000001
 43
0.00000001
 40
0.0
 40
0.0
 40
0.0
 40
0.0
 40
0.0508137860808258
 40
0.14406613302761
 40
0.269962996651568
 40
0.4296537531862929
 40
0.6228355605033269
 40
0.8477304343384278
 40
1.0
 40
1.0
 40
1.0
 40
1.0
 10
222.4903386378239
 20
66.50153046168533
 30
0.0
 10
222.1826585611409
 20
66.51646960090487
 30
0.0
 10
221.3103307486284
 20
66.5588247211218
 30
0.0
 10
219.7117474223257
 20
66.62630117259941
 30
0.0
 10
217.516155720794
 20
66.70960996996786
 30
0.0
 10
214.8427357029942
 20
66.79346960663388
 30
0.0
 10
211.8193613075827
 20
66.86702520730148
 30
0.0
 10
208.9450689815994
 20
66.92050997295563
 30
0.0
 10
207.20279247094
 20
66.93859145042593
 30
0.0
 10
206.4993971882497
 20
66.94589133989746
 30
0.0
  0
SPLINE
  5
218
330
1F
100
AcDbEntity
  8
0
  6
SLD-Сплошная
 62
     7
370
    25
100
AcDbSpline
210
0.0
220
0.0
230
1.0
 70
     8
 71
     3
 72
     9
 73
     5
 74
     0
 42
0.00000001
 43
0.00000001
 40
0.0
 40
0.0
 40
0.0
 40
0.0
 40
0.6421919689583186
 40
1.0
 40
1.0
 40
1.0
 40
1.0
 10
200.405832471621
 20
66.98432079443681
 30
0.0
 10
200.0870036405439
 20
66.98532803994242
 30
0.0
 10
199.5905339765052
 20
66.98689648918244
 30
0.0
 10
199.1641871900149
 20
66.98616353039755
 30
0.0
 10
199.0116368857999
 20
66.98590127185786
 30
0.0
  0
SPLINE
  5
219
330
1F
100
AcDbEntity
  8
0
  6
SLD-Сплошная
 62
     7
370
    25
100
AcDbSpline
210
0.0
220
0.0
230
1.0
 70
     8
 71
     3
 72
    24
 73
    20
 74
     0
 42
0.00000001
 43
0.00000001
 40
0.0
 40
0.0
 40
0.0
 40
0.0
 40
0.0593671571987676
 40
0.1101759566510031
 40
0.157517887119296
 40
0.2046313710573094
 40
0.255743766889412
 40
0.3186335793182589
 40
0.392102633411742
 40
0.4669730592348765
 40
0.5375921464744661
 40
0.608595363379997
 40
0.6832064533703183
 40
0.7717411896974307
 40
0.8263989583187804
 40
0.8780776535245032
 40
0.9315761848208856
 40
0.98654776988852
 40
1.0
 40
1.0
 40
1.0
 40
1.0
 10
156.2580075096235
 20
33.5359838965282
 30
0.0
 10
156.0396942959078
 20
33.51567472958025
 30
0.0
 10
155.6345398585789
 20
33.47798416121109
 30
0.0
 10
155.1159854106142
 20
33.21380334315205
 30
0.0
 10
154.7209023982775
 20
32.87956592445504
 30
0.0
 10
154.4208758865538
 20
32.48265234582584
 30
0.0
 10
154.1885921327636
 20
32.01788469042877
 30
0.0
 10
154.0079407359754
 20
31.45037380260004
 30
0.0
 10
153.8772099090686
 20
30.74212698529394
 30
0.0
 10
153.8107565473303
 20
29.93144549933355
 30
0.0
 10
153.8129064848877
 20
29.10378738179353
 30
0.0
 10
153.880748654498
 20
28.30594379612403
 30
0.0
 10
154.0273430695064
 20
27.52286401043605
 30
0.0
 10
154.2519260467865
 20
26.87553859194938
 30
0.0
 10
154.5997055872284
 20
26.32634000044301
 30
0.0
 10
155.0048720373135
 20
25.93038543528675
 30
0.0
 10
155.5160051142139
 20
25.64528387883569
 30
0.0
 10
155.9581977615112
 20
25.54277255973586
 30
0.0
 10
156.2087487831308
 20
25.5370992735508
 30
0.0
 10
156.2580075096235
 20
25.5359838965282
 30
0.0
  0
LINE
  5
21A
330
1F
100
AcDbEntity
  8
0
  6
SLD-Сплошная
 62
     7
370
    25
100
AcDbLine
 10
186.2257487976
 20
65.277109019
 30
0.0
 11
185.4244747833
 21
64.9695046219
 31
0.0
  0
LINE
  5
21B
330
1F
100
AcDbEntity
  8
0
  6
SLD-Сплошная
 62
     7
370
    25
100
AcDbLine
 10
185.4249239038
 20
64.969581749
 30
0.0
 11
184.6484259487
 21
64.907156609
 31
0.0
  0
LINE
  5
21C
330
1F
100
AcDbEntity
  8
0
  6
SLD-Сплошная
 62
     7
370
    25
100
AcDbLine
 10
297.4244747832
 20
70.1024631711
 30
0.0
 11
298.225747465
 21
69.7948595643
 31
0.0
  0
LINE
  5
21D
330
1F
100
AcDbEntity
  8
0
  6
SLD-Сплошная
 62
     7
370
    25
100
AcDbLine
 10
296.648483591
 20
70.1648115483
 30
0.0
 11
297.4249239052
 21
70.1023860438
 31
0.0
  0
LINE
  5
21E
330
1F
100
AcDbEntity
  8
0
  6
SLD-Сплошная
 62
     7
370
    25
100
AcDbLine
 10
186.2257487976
 20
-10.722890981
 30
0.0
 11
185.4244747833
 21
-11.0304953781
 31
0.0
  0
LINE
  5
21F
330
1F
100
AcDbEntity
  8
0
  6
SLD-Сплошная
 62
     7
370
    25
100
AcDbLine
 10
298.2257487976
 20
-10.722890981
 30
0.0
 11
297.4244747833
 21
-11.0304953781
 31
0.0
  0
SPLINE
  5
220
330
1F
100
AcDbEntity
  8
0
  6
SLD-Сплошная
 62
     7
370
    25
100
AcDbSpline
210
0.0
220
0.0
230
1.0
 70
     8
 71
     3
 72
     9
 73
     5
 74
     0
 42
0.00000001
 43
0.00000001
 40
0.0
 40
0.0
 40
0.0
 40
0.0
 40
0.4106323155670379
 40
0.9999999999999999
 40
0.9999999999999999
 40
0.9999999999999999
 40
0.9999999999999999
 10
218.2347912517008
 20
65.23469133574237
 30
0.0
 10
216.8601289888376
 20
65.29930860460905
 30
0.0
 10
213.5124570917416
 20
65.45666901297706
 30
0.0
 10
210.1606757309093
 20
65.48558072142774
 30
0.0
 10
208.18524411155
 20
65.50262034809037
 30
0.0
  0
SPLINE
  5
221
330
1F
100
AcDbEntity
  8
0
  6
SLD-Сплошная
 62
     7
370
    25
100
AcDbSpline
210
0.0
220
0.0
230
1.0
 70
     8
 71
     3
 72
     9
 73
     5
 74
     0
 42
0.00000001
 43
0.00000001
 40
0.0
 40
0.0
 40
0.0
 40
0.0
 40
0.3857689387773162
 40
1.0
 40
1.0
 40
1.0
 40
1.0
 10
208.1060145222568
 20
-6.425087015653225
 30
0.0
 10
209.4091978462662
 20
-6.419274627186001
 30
0.0
 10
212.7873426189888
 20
-6.404207606793916
 30
0.0
 10
216.1623276979787
 20
-6.259959220477479
 30
0.0
 10
218.2353483646573
 20
-6.171357381070691
 30
0.0
  0
SPLINE
  5
222
330
1F
100
AcDbEntity
  8
0
  6
SLD-Сплошная
 62
     7
370
    25
100
AcDbSpline
210
0.0
220
0.0
230
1.0
 70
     8
 71
     3
 72
     9
 73
     5
 74
     0
 42
0.00000001
 43
0.00000001
 40
0.0
 40
0.0
 40
0.0
 40
0.0
 40
0.5308203882385945
 40
0.9999999999999999
 40
0.9999999999999999
 40
0.9999999999999999
 40
0.9999999999999999
 10
302.9608943137096
 20
49.57719474391037
 30
0.0
 10
301.834229869457
 20
49.9652789509886
 30
0.0
 10
299.7117333165434
 20
50.69638162842341
 30
0.0
 10
297.5591014410041
 20
51.34562448744423
 30
0.0
 10
296.5491304533734
 20
51.65023599997845
 30
0.0
  0
LINE
  5
223
330
1F
100
AcDbEntity
  8
0
  6
SLD-Сплошная
 62
     7
370
    25
100
AcDbLine
 10
296.4522712462
 20
7.3678361971
 30
0.0
 11
302.9659339038
 21
9.477940469
 31
0.0
  0
SPLINE
  5
224
330
1F
100
AcDbEntity
  8
0
  6
SLD-Сплошная
 62
     7
370
    25
100
AcDbSpline
210
0.0
220
0.0
230
1.0
 70
     8
 71
     3
 72
    33
 73
    29
 74
     0
 42
0.00000001
 43
0.00000001
 40
0.0
 40
0.0
 40
0.0
 40
0.0
 40
0.0127576203532432
 40
0.0350417323696929
 40
0.0562181077916952
 40
0.0824270254258273
 40
0.1092213330469852
 40
0.1347194210254867
 40
0.1582488682536651
 40
0.1798065106736703
 40
0.2012271164157894
 40
0.2234988619962706
 40
0.246806968444005
 40
0.2709249883622741
 40
0.3050279094471839
 40
0.341494709836844
 40
0.3836846611421382
 40
0.4323810099609628
 40
0.4875780667894412
 40
0.5492973233753388
 40
0.6176065261088924
 40
0.6926180111709879
 40
0.774504413778177
 40
0.8178699783186147
 40
0.8626599213774025
 40
0.9094498559372342
 40
0.9579279393218854
 40
1.0
 40
1.0
 40
1.0
 40
1.0
 10
300.5844423286371
 20
45.24670529490829
 30
0.0
 10
300.5287360604157
 20
45.52992784111557
 30
0.0
 10
300.3757260093032
 20
46.30786356819158
 30
0.0
 10
299.8924858836353
 20
47.53536640288547
 30
0.0
 10
299.0764404753099
 20
49.04238592471097
 30
0.0
 10
297.9364418313014
 20
50.48274022678564
 30
0.0
 10
296.4624494780517
 20
51.79621516918292
 30
0.0
 10
294.8339876639848
 20
52.87303165596305
 30
0.0
 10
293.143028600739
 20
53.7372900882356
 30
0.0
 10
291.4422532690468
 20
54.44971704311172
 30
0.0
 10
289.6797644545085
 20
55.0816018315077
 30
0.0
 10
287.8009614923837
 20
55.67835140242231
 30
0.0
 10
285.8234388707153
 20
56.25138666092086
 30
0.0
 10
283.5365961950802
 20
56.8697044594583
 30
0.0
 10
281.0426344520956
 20
57.48560808215517
 30
0.0
 10
278.0221040007738
 20
58.20589379688862
 30
0.0
 10
274.5947300810805
 20
58.98138698435243
 30
0.0
 10
270.6297219330762
 20
59.82841254853663
 30
0.0
 10
266.0971848370968
 20
60.7329487153615
 30
0.0
 10
260.9820428304612
 20
61.6779510604841
 30
0.0
 10
255.267552023827
 20
62.6435901901469
 30
0.0
 10
248.9306987586513
 20
63.60416752555384
 30
0.0
 10
243.2451224516448
 20
64.35698520375772
 30
0.0
 10
238.3793164325035
 20
64.93066978925042
 30
0.0
 10
234.4361538138796
 20
65.40495474567845
 30
0.0
 10
230.3307657843337
 20
65.86605466998496
 30
0.0
 10
226.3197005832471
 20
66.27218093866152
 30
0.0
 10
223.7602199869494
 20
66.41600997614219
 30
0.0
 10
222.5710156619154
 20
66.48283686034861
 30
0.0
  0
SPLINE
  5
225
330
1F
100
AcDbEntity
  8
0
  6
SLD-Сплошная
 62
     7
370
    25
100
AcDbSpline
210
0.0
220
0.0
230
1.0
 70
     8
 71
     3
 72
    34
 73
    30
 74
     0
 42
0.00000001
 43
0.00000001
 40
0.0
 40
0.0
 40
0.0
 40
0.0
 40
0.0327395119408876
 40
0.0772395490717765
 40
0.120153783767889
 40
0.1752139706287746
 40
0.2283754055849385
 40
0.2793804471305045
 40
0.3279328118527425
 40
0.3740855409145629
 40
0.4579043943114746
 40
0.5328390102143363
 40
0.5996292951168652
 40
0.6574995623523783
 40
0.7064206912713682
 40
0.7370599930722843
 40
0.762614437583042
 40
0.7832375704735641
 40
0.8019497272325005
 40
0.820451851130506
 40
0.8387394767213534
 40
0.8569584118903428
 40
0.8779767018440925
 40
0.9029453834347372
 40
0.932656014504465
 40
0.9538135276965103
 40
0.9713965239472288
 40
0.9851727166992762
 40
1.0
 40
1.0
 40
1.0
 40
1.0
 10
222.5811048215678
 20
-7.40851204380491
 30
0.0
 10
223.50449123106
 20
-7.360225457163056
 30
0.0
 10
225.682958338846
 20
-7.246307015581932
 30
0.0
 10
229.1871118872349
 20
-6.912688853064814
 30
0.0
 10
233.3653331134635
 20
-6.459203855134738
 30
0.0
 10
237.8084983271828
 20
-5.926760052684332
 30
0.0
 10
242.3783919389471
 20
-5.388319226282912
 30
0.0
 10
246.7283268107414
 20
-4.825070548790888
 30
0.0
 10
250.8569876363822
 20
-4.239789519954767
 30
0.0
 10
255.885107104613
 20
-3.469519808281335
 30
0.0
 10
261.6072816624279
 20
-2.501923508977044
 30
0.0
 10
267.8345535569835
 20
-1.328667182093762
 30
0.0
 10
273.2799751710577
 20
-0.2027814289519425
 30
0.0
 10
277.9743707270839
 20
0.85109818543741
 30
0.0
 10
281.6271248161254
 20
1.724528897240701
 30
0.0
 10
284.4615897404403
 20
2.445764667176969
 30
0.0
 10
286.6490297222215
 20
3.054397352599408
 30
0.0
 10
288.4872461113904
 20
3.606430631405782
 30
0.0
 10
290.095036763565
 20
4.134674211888817
 30
0.0
 10
291.5875025846429
 20
4.683178915548342
 30
0.0
 10
293.0010527963433
 20
5.278723789026135
 30
0.0
 10
294.3855227274877
 20
5.961532025789252
 30
0.0
 10
295.8341223800646
 20
6.830938548184257
 30
0.0
 10
297.3665423470126
 20
8.019719557437716
 30
0.0
 10
298.639526156418
 20
9.414804269480632
 30
0.0
 10
299.543244461046
 20
10.83476824275931
 30
0.0
 10
300.0691642889055
 20
11.98075179057817
 30
0.0
 10
300.4305824586666
 20
13.00788482241119
 30
0.0
 10
300.5623644482338
 20
13.64012446775051
 30
0.0
 10
300.6306767362103
 20
13.96786073022782
 30
0.0
  0
LWPOLYLINE
  5
226
330
1F
100
AcDbEntity
  8
0
  6
SLD-Сплошная
 62
     7
370
    25
100
AcDbPolyline
 90
       18
 70
   128
 43
0.0
 10
149.2313602594
 20
32.5359838965
 10
149.3293339363
 20
35.2519663337
 10
149.4878827998
 20
37.9249034318
 10
149.7058128662
 20
40.5346661082
 10
149.9814829699
 20
43.0616010276
 10
150.3128171225
 20
45.4866786057
 10
150.6973201465
 20
47.7916363148
 10
151.1320964657
 20
49.9591162141
 10
151.6138719107
 20
51.9727956664
 10
152.1390183761
 20
53.8175102593
 10
152.7035811424
 20
55.4793680039
 10
153.3033086575
 20
56.945853951
 10
153.9336845547
 20
58.2059244374
 10
154.5899616633
 20
59.2500902525
 10
155.2671977582
 20
60.0704880985
 10
155.960292779
 20
60.6609398069
 10
156.664027236
 20
61.016998864
 10
157.3731015176
 20
61.1359838965
  0
LWPOLYLINE
  5
227
330
1F
100
AcDbEntity
  8
0
  6
SLD-Сплошная
 62
     7
370
    25
100
AcDbPolyline
 90
       18
 70
   128
 43
0.0
 10
157.3731015176
 20
-2.0640161035
 10
156.664027236
 20
-1.945031071
 10
155.960292779
 20
-1.5889720139
 10
155.2671977582
 20
-0.9985203055
 10
154.5899616633
 20
-0.1781224594
 10
153.9336845547
 20
0.8660433556
 10
153.3033086575
 20
2.126113842
 10
152.7035811424
 20
3.5925997891
 10
152.1390183761
 20
5.2544575337
 10
151.6138719107
 20
7.0991721267
 10
151.1320964657
 20
9.112851579
 10
150.6973201465
 20
11.2803314782
 10
150.3128171225
 20
13.5852891874
 10
149.9814829699
 20
16.0103667654
 10
149.7058128662
 20
18.5373016848
 10
149.4878827998
 20
21.1470643612
 10
149.3293339363
 20
23.8200014594
 10
149.2313602594
 20
26.5359838965
  0
LINE
  5
228
330
1F
100
AcDbEntity
  8
0
  6
SLD-Сплошная
 62
     7
370
    25
100
AcDbLine
 10
157.3731015176
 20
-2.0640161035
 30
0.0
 11
167.9709177083
 21
-2.0640161035
 31
0.0
  0
LWPOLYLINE
  5
229
330
1F
100
AcDbEntity
  8
0
  6
SLD-Сплошная
 62
     7
370
    25
100
AcDbPolyline
 90
       38
 70
   128
 43
0.0
 10
157.3731015176
 20
61.1359838965
 10
158.0667021907
 20
61.0221445345
 10
158.7553054552
 20
60.6814466635
 10
159.4339499086
 20
60.1163450196
 10
160.0977459021
 20
59.3309111731
 10
160.7419107704
 20
58.3308041928
 10
161.3618032908
 20
57.1232298724
 10
161.9529571235
 20
55.7168888126
 10
162.5111129917
 20
54.121913733
 10
163.0322493694
 20
52.3497964655
 10
163.5126114572
 20
50.4133051557
 10
163.9487382352
 20
48.3263922677
 10
164.3374874
 20
46.1040940569
 10
164.6760580049
 20
43.7624222328
 10
164.9620106409
 20
41.3182485944
 10
165.1932850129
 20
38.7891834689
 10
165.3682147835
 20
36.1934488284
 10
165.4855395799
 20
33.5497470005
 10
165.5444140741
 20
30.8771259175
 10
165.5444140741
 20
28.1948418755
 10
165.4855395799
 20
25.5222207925
 10
165.3682147835
 20
22.8785189647
 10
165.1932850129
 20
20.2827843242
 10
164.9620106409
 20
17.7537191987
 10
164.6760580049
 20
15.3095455603
 10
164.3374874
 20
12.9678737361
 10
163.9487382352
 20
10.7455755253
 10
163.5126114572
 20
8.6586626374
 10
163.0322493694
 20
6.7221713276
 10
162.5111129917
 20
4.9500540601
 10
161.9529571235
 20
3.3550789804
 10
161.3618032908
 20
1.9487379206
 10
160.7419107704
 20
0.7411636003
 10
160.0977459021
 20
-0.25894338
 10
159.4339499086
 20
-1.0443772266
 10
158.7553054552
 20
-1.6094788705
 10
158.0667021907
 20
-1.9501767414
 10
157.3731015176
 20
-2.0640161035
  0
LINE
  5
22A
330
1F
100
AcDbEntity
  8
0
  6
SLD-Сплошная
 62
     7
370
    25
100
AcDbLine
 10
157.3731015176
 20
61.1359838965
 30
0.0
 11
170.9443593769
 21
61.1359838965
 31
0.0
  0
LWPOLYLINE
  5
22B
330
1F
100
AcDbEntity
  8
0
  6
SLD-Сплошная
 62
     7
370
    25
100
AcDbPolyline
 90
       38
 70
   128
 43
0.0
 10
170.9443593769
 20
61.1359838965
 10
171.6379600501
 20
61.0221445345
 10
172.3265633145
 20
60.6814466635
 10
173.0052077679
 20
60.1163450196
 10
173.6690037614
 20
59.3309111731
 10
174.3131686297
 20
58.3308041928
 10
174.9330611501
 20
57.1232298724
 10
175.5242149829
 20
55.7168888126
 10
176.0823708511
 20
54.121913733
 10
176.6035072288
 20
52.3497964655
 10
177.0838693166
 20
50.4133051557
 10
177.5199960946
 20
48.3263922677
 10
177.9087452594
 20
46.1040940569
 10
178.2473158643
 20
43.7624222328
 10
178.5332685003
 20
41.3182485944
 10
178.7645428722
 20
38.7891834689
 10
178.9394726429
 20
36.1934488284
 10
179.0567974392
 20
33.5497470005
 10
179.1156719334
 20
30.8771259175
 10
179.1156719334
 20
28.1948418755
 10
179.0567974392
 20
25.5222207925
 10
178.9394726429
 20
22.8785189647
 10
178.7645428722
 20
20.2827843242
 10
178.5332685003
 20
17.7537191987
 10
178.2473158643
 20
15.3095455603
 10
177.9087452594
 20
12.9678737361
 10
177.5199960946
 20
10.7455755253
 10
177.0838693166
 20
8.6586626374
 10
176.6035072288
 20
6.7221713276
 10
176.0823708511
 20
4.9500540601
 10
175.5242149829
 20
3.3550789804
 10
174.9330611501
 20
1.9487379206
 10
174.3131686297
 20
0.7411636003
 10
173.6690037614
 20
-0.25894338
 10
173.0052077679
 20
-1.0443772266
 10
172.3265633145
 20
-1.6094788705
 10
171.6379600501
 20
-1.9501767414
 10
170.9443593769
 20
-2.0640161035
  0
LINE
  5
22C
330
1F
100
AcDbEntity
  8
0
  6
SLD-Сплошная
 62
     7
370
    25
100
AcDbLine
 10
148.2885530345
 20
26.5359838965
 30
0.0
 11
149.2313602594
 21
26.5359838965
 31
0.0
  0
LWPOLYLINE
  5
22D
330
1F
100
AcDbEntity
  8
0
  6
SLD-Сплошная
 62
     7
370
    25
100
AcDbPolyline
 90
       12
 70
   128
 43
0.0
 10
148.2885530345
 20
32.5359838965
 10
148.0697997805
 20
32.4144628174
 10
147.8687686141
 20
32.059744495
 10
147.7017458849
 20
31.5005660984
 10
147.5822627812
 20
30.7822289355
 10
147.5199991132
 20
29.9629284113
 10
147.5199991132
 20
29.1090393817
 10
147.5822627812
 20
28.2897388575
 10
147.7017458849
 20
27.5714016947
 10
147.8687686141
 20
27.012223298
 10
148.0697997805
 20
26.6575049757
 10
148.2885530345
 20
26.5359838965
  0
LINE
  5
22E
330
1F
100
AcDbEntity
  8
0
  6
SLD-Сплошная
 62
     7
370
    25
100
AcDbLine
 10
149.2313602594
 20
32.5359838965
 30
0.0
 11
148.2885530345
 21
32.5359838965
 31
0.0
  0
LWPOLYLINE
  5
22F
330
1F
100
AcDbEntity
  8
0
  6
SLD-Сплошная
 62
     7
370
    25
100
AcDbPolyline
 90
       36
 70
   128
 43
0.0
 10
157.3731015176
 20
1.3859838965
 10
156.7200113742
 20
1.4993075206
 10
156.0721795286
 20
1.8383659775
 10
155.4348219419
 20
2.4004293679
 10
154.8130702427
 20
3.180972288
 10
154.2119304101
 20
4.1737102651
 10
153.6362424684
 20
5.3706503566
 10
153.0906415186
 20
6.7621555049
 10
152.5795204187
 20
8.3370221285
 10
152.1069944152
 20
10.0825703275
 10
151.6768680096
 20
11.9847459742
 10
151.292604327
 20
14.0282338687
 10
150.9572972324
 20
16.1965810479
 10
150.6736464215
 20
18.4723292555
 10
150.4439356838
 20
20.8371555049
 10
150.2700145152
 20
23.2720196057
 10
150.1532832265
 20
25.7573174638
 10
150.0946816695
 20
28.2730389222
 10
150.0946816695
 20
30.7989288709
 10
150.1532832265
 20
33.3146503293
 10
150.2700145152
 20
35.7999481874
 10
150.4439356838
 20
38.2348122882
 10
150.6736464215
 20
40.5996385376
 10
150.9572972324
 20
42.8753867451
 10
151.292604327
 20
45.0437339244
 10
151.6768680096
 20
47.0872218189
 10
152.1069944152
 20
48.9893974655
 10
152.5795204187
 20
50.7349456645
 10
153.0906415186
 20
52.3098122882
 10
153.6362424684
 20
53.7013174364
 10
154.2119304101
 20
54.898257528
 10
154.8130702427
 20
55.890995505
 10
155.4348219419
 20
56.6715384251
 10
156.0721795286
 20
57.2336018156
 10
156.7200113742
 20
57.5726602725
 10
157.3731015176
 20
57.6859838965
  0
LWPOLYLINE
  5
230
330
1F
100
AcDbEntity
  8
0
  6
SLD-Сплошная
 62
     7
370
    25
100
AcDbPolyline
 90
       36
 70
   128
 43
0.0
 10
157.3731015176
 20
57.6859838965
 10
158.026191661
 20
57.5726602725
 10
158.6740235065
 20
57.2336018156
 10
159.3113810932
 20
56.6715384251
 10
159.9331327924
 20
55.890995505
 10
160.534272625
 20
54.898257528
 10
161.1099605667
 20
53.7013174364
 10
161.6555615165
 20
52.3098122882
 10
162.1666826164
 20
50.7349456645
 10
162.6392086199
 20
48.9893974655
 10
163.0693350255
 20
47.0872218189
 10
163.4535987081
 20
45.0437339244
 10
163.7889058027
 20
42.8753867451
 10
164.0725566136
 20
40.5996385376
 10
164.3022673513
 20
38.2348122882
 10
164.4761885199
 20
35.7999481874
 10
164.5929198086
 20
33.3146503293
 10
164.6515213656
 20
30.7989288709
 10
164.6515213656
 20
28.2730389222
 10
164.5929198086
 20
25.7573174638
 10
164.4761885199
 20
23.2720196057
 10
164.3022673513
 20
20.8371555049
 10
164.0725566136
 20
18.4723292555
 10
163.7889058027
 20
16.1965810479
 10
163.4535987081
 20
14.0282338687
 10
163.0693350255
 20
11.9847459742
 10
162.6392086199
 20
10.0825703275
 10
162.1666826164
 20
8.3370221285
 10
161.6555615165
 20
6.7621555049
 10
161.1099605667
 20
5.3706503566
 10
160.534272625
 20
4.1737102651
 10
159.9331327924
 20
3.180972288
 10
159.3113810932
 20
2.4004293679
 10
158.6740235065
 20
1.8383659775
 10
158.026191661
 20
1.4993075206
 10
157.3731015176
 20
1.3859838965
  0
LINE
  5
231
330
1F
100
AcDbEntity
  8
0
  6
SLD-Сплошная
 62
     7
370
    25
100
AcDbLine
 10
172.8285460268
 20
60.2859838965
 30
0.0
 11
194.0299866252
 21
60.2859838965
 31
0.0
  0
LWPOLYLINE
  5
232
330
1F
100
AcDbEntity
  8
0
  6
SLD-Сплошная
 62
     7
370
    25
100
AcDbPolyline
 90
       38
 70
   128
 43
0.0
 10
194.0299866252
 20
60.2859838965
 10
194.7141534342
 20
60.1721527758
 10
195.3932549115
 20
59.8315021793
 10
196.0622632274
 20
59.2665541649
 10
196.7162252784
 20
58.48149141
 10
197.3502993581
 20
57.4821262447
 10
197.9597910041
 20
56.2758576189
 10
198.5401877534
 20
54.8716163236
 10
199.0871925515
 20
53.2797988699
 10
199.5967555663
 20
51.5121905173
 10
200.0651041715
 20
49.5818780198
 10
200.4887708779
 20
47.5031527356
 10
200.8646190054
 20
45.2914048195
 10
201.189865906
 20
42.9630092792
 10
201.4621035655
 20
40.5352047406
 10
201.6793164313
 20
38.0259658193
 10
201.8398963356
 20
35.4538700421
 10
201.9426544008
 20
32.8379603065
 10
201.9868298422
 20
30.1976038927
 10
201.9720956002
 20
27.552349076
 10
201.8985607621
 20
24.9217803974
 10
201.7667697541
 20
22.3253736672
 10
201.5776983107
 20
19.7823517724
 10
201.3327462506
 20
17.3115423573
 10
201.0337271133
 20
14.9312384305
 10
200.6828547318
 20
12.6590629293
 10
200.2827268425
 20
10.5118382462
 10
199.8363058522
 20
8.5054616816
 10
199.3468969059
 20
6.6547877455
 10
198.818123416
 20
4.9735181803
 10
198.2539002366
 20
3.4741005176
 10
197.6584046786
 20
2.1676359212
 10
197.0360455828
 20
1.0637969978
 10
196.3914306783
 20
0.1707561847
 10
195.7293324681
 20
-0.5048747564
 10
195.0546528959
 20
-0.9580936904
 10
194.3723870531
 20
-1.1855451429
 10
194.0299866252
 20
-1.2140161035
  0
ARC
  5
233
330
1F
100
AcDbEntity
  8
0
  6
SLD-Сплошная
 62
     7
370
    25
100
AcDbCircle
 10
165.4713588923
 20
7.4472269015
 30
0.0
 40
11.27824618825656
100
AcDbArc
 50
315.6100834978
 51
343.4737013773
  0
LWPOLYLINE
  5
234
330
1F
100
AcDbEntity
  8
0
  6
SLD-Сплошная
 62
     7
370
    25
100
AcDbPolyline
 90
       10
 70
   128
 43
0.0
 10
197.6853890724
 20
4.2390687502
 10
197.1043320207
 20
2.8266202127
 10
196.4939331876
 20
1.6128948431
 10
195.858734066
 20
0.606923008
 10
195.2034606684
 20
-0.1838106548
 10
194.5329883638
 20
-0.753422924
 10
193.8523056042
 20
-1.097675767
 10
193.1664768096
 20
-1.2140078718
 10
192.4806046874
 20
-1.1015537034
 10
192.2544170576
 20
-1.0140161035
  0
LINE
  5
235
330
1F
100
AcDbEntity
  8
0
  6
SLD-Сплошная
 62
     7
370
    25
100
AcDbLine
 10
197.6853890724
 20
4.2390687502
 30
0.0
 11
176.2836925146
 21
4.2390687502
 31
0.0
  0
LINE
  5
236
330
1F
100
AcDbEntity
  8
0
  6
SLD-Сплошная
 62
     7
370
    25
100
AcDbLine
 10
201.6125043616
 20
67.3359838965
 30
0.0
 11
205.1864299189
 21
67.3359838965
 31
0.0
  0
LWPOLYLINE
  5
237
330
1F
100
AcDbEntity
  8
0
  6
SLD-Сплошная
 62
     7
370
    25
100
AcDbPolyline
 90
       41
 70
   128
 43
0.0
 10
205.1864299189
 20
67.3359838965
 10
205.9540234902
 20
67.2194591116
 10
206.7168845919
 20
66.870603171
 10
207.4703099316
 20
66.2915668876
 10
208.2096543916
 20
65.4859202125
 10
208.9303596673
 20
64.4586302255
 10
209.6279823712
 20
63.2160305108
 10
210.2982214273
 20
61.7657821091
 10
210.9369445888
 20
60.1168262839
 10
211.5402139152
 20
58.2793293962
 10
212.1043100504
 20
56.2646202254
 10
212.6257551541
 20
54.0851201234
 10
213.101334344
 20
51.7542664332
 10
213.5281155161
 20
49.2864296428
 10
213.9034674226
 20
46.6968247867
 10
214.2250758942
 20
44.0014176399
 10
214.4909581077
 20
41.2168262839
 10
214.6994748108
 20
38.3602186503
 10
214.8493404288
 20
35.449206675
 10
214.9396309902
 20
32.501737715
 10
214.9697898237
 20
29.5359838965
 10
214.9396309902
 20
26.570230078
 10
214.8493404288
 20
23.622761118
 10
214.6994748108
 20
20.7117491428
 10
214.4909581077
 20
17.8551415092
 10
214.2250758942
 20
15.0705501531
 10
213.9034674226
 20
12.3751430064
 10
213.5281155161
 20
9.7855381503
 10
213.101334344
 20
7.3177013599
 10
212.6257551541
 20
4.9868476696
 10
212.1043100504
 20
2.8073475677
 10
211.5402139152
 20
0.7926383968
 10
210.9369445888
 20
-1.0448584908
 10
210.2982214273
 20
-2.6938143161
 10
209.6279823712
 20
-4.1440627178
 10
208.9303596673
 20
-5.3866624324
 10
208.2096543916
 20
-6.4139524194
 10
207.4703099316
 20
-7.2195990945
 10
206.7168845919
 20
-7.798635378
 10
205.9540234902
 20
-8.1474913186
 10
205.1864299189
 20
-8.2640161035
  0
LINE
  5
238
330
1F
100
AcDbEntity
  8
0
  6
SLD-Сплошная
 62
     7
370
    25
100
AcDbLine
 10
201.6125043616
 20
-8.2640161035
 30
0.0
 11
205.1864299189
 21
-8.2640161035
 31
0.0
  0
LWPOLYLINE
  5
239
330
1F
100
AcDbEntity
  8
0
  6
SLD-Сплошная
 62
     7
370
    25
100
AcDbPolyline
 90
       41
 70
   128
 43
0.0
 10
201.6125043616
 20
67.3359838965
 10
202.3800979329
 20
67.2194591116
 10
203.1429590346
 20
66.870603171
 10
203.8963843743
 20
66.2915668876
 10
204.6357288343
 20
65.4859202125
 10
205.3564341101
 20
64.4586302255
 10
206.0540568139
 20
63.2160305108
 10
206.72429587
 20
61.7657821091
 10
207.3630190316
 20
60.1168262839
 10
207.9662883579
 20
58.2793293962
 10
208.5303844931
 20
56.2646202254
 10
209.0518295969
 20
54.0851201234
 10
209.5274087867
 20
51.7542664332
 10
209.9541899588
 20
49.2864296428
 10
210.3295418653
 20
46.6968247867
 10
210.6511503369
 20
44.0014176399
 10
210.9170325504
 20
41.2168262839
 10
211.1255492535
 20
38.3602186503
 10
211.2754148715
 20
35.449206675
 10
211.3657054329
 20
32.501737715
 10
211.3958642665
 20
29.5359838965
 10
211.3657054329
 20
26.570230078
 10
211.2754148715
 20
23.622761118
 10
211.1255492535
 20
20.7117491428
 10
210.9170325504
 20
17.8551415092
 10
210.6511503369
 20
15.0705501531
 10
210.3295418653
 20
12.3751430064
 10
209.9541899588
 20
9.7855381503
 10
209.5274087867
 20
7.3177013599
 10
209.0518295969
 20
4.9868476696
 10
208.5303844931
 20
2.8073475677
 10
207.9662883579
 20
0.7926383968
 10
207.3630190316
 20
-1.0448584908
 10
206.72429587
 20
-2.6938143161
 10
206.0540568139
 20
-4.1440627178
 10
205.3564341101
 20
-5.3866624324
 10
204.6357288343
 20
-6.4139524194
 10
203.8963843743
 20
-7.2195990945
 10
203.1429590346
 20
-7.798635378
 10
202.3800979329
 20
-8.1474913186
 10
201.6125043616
 20
-8.2640161035
  0
LWPOLYLINE
  5
23A
330
1F
100
AcDbEntity
  8
0
  6
SLD-Сплошная
 62
     7
370
    25
100
AcDbPolyline
 90
        9
 70
   128
 43
0.0
 10
201.6125043616
 20
-8.2640161035
 10
200.8502548946
 20
-8.1491106624
 10
200.0926396397
 20
-7.8050929243
 10
199.344264635
 20
-7.2340543978
 10
198.6096797406
 20
-6.4394667988
 10
197.8933509779
 20
-5.4261609442
 10
197.1996333771
 20
-4.200297382
 10
196.5327445004
 20
-2.7693289372
 10
196.2437713053
 20
-2.0640161035
  0
LWPOLYLINE
  5
23B
330
1F
100
AcDbEntity
  8
0
  6
SLD-Сплошная
 62
     7
370
    25
100
AcDbPolyline
 90
        9
 70
   128
 43
0.0
 10
196.2437713053
 20
61.1359838965
 10
196.5327445004
 20
61.8412967302
 10
197.1996333771
 20
63.272265175
 10
197.8933509779
 20
64.4981287372
 10
198.6096797406
 20
65.5114345918
 10
199.344264635
 20
66.3060221908
 10
200.0926396397
 20
66.8770607174
 10
200.8502548946
 20
67.2210784554
 10
201.6125043616
 20
67.3359838965
  0
LWPOLYLINE
  5
23C
330
1F
100
AcDbEntity
  8
0
  6
SLD-Сплошная
 62
     7
370
    25
100
AcDbPolyline
 90
       38
 70
   128
 43
0.0
 10
201.6125043616
 20
61.1359838965
 10
202.3061050348
 20
61.0221445345
 10
202.9947082992
 20
60.6814466635
 10
203.6733527526
 20
60.1163450196
 10
204.3371487461
 20
59.3309111731
 10
204.9813136144
 20
58.3308041928
 10
205.6012061348
 20
57.1232298724
 10
206.1923599676
 20
55.7168888126
 10
206.7505158357
 20
54.121913733
 10
207.2716522135
 20
52.3497964655
 10
207.7520143013
 20
50.4133051557
 10
208.1881410793
 20
48.3263922677
 10
208.576890244
 20
46.1040940569
 10
208.9154608489
 20
43.7624222328
 10
209.201413485
 20
41.3182485944
 10
209.4326878569
 20
38.7891834689
 10
209.6076176275
 20
36.1934488284
 10
209.7249424239
 20
33.5497470005
 10
209.7838169181
 20
30.8771259175
 10
209.7838169181
 20
28.1948418755
 10
209.7249424239
 20
25.5222207925
 10
209.6076176275
 20
22.8785189647
 10
209.4326878569
 20
20.2827843242
 10
209.201413485
 20
17.7537191987
 10
208.9154608489
 20
15.3095455603
 10
208.576890244
 20
12.9678737361
 10
208.1881410793
 20
10.7455755253
 10
207.7520143013
 20
8.6586626374
 10
207.2716522135
 20
6.7221713276
 10
206.7505158357
 20
4.9500540601
 10
206.1923599676
 20
3.3550789804
 10
205.6012061348
 20
1.9487379206
 10
204.9813136144
 20
0.7411636003
 10
204.3371487461
 20
-0.25894338
 10
203.6733527526
 20
-1.0443772266
 10
202.9947082992
 20
-1.6094788705
 10
202.3061050348
 20
-1.9501767414
 10
201.6125043616
 20
-2.0640161035
  0
LINE
  5
23D
330
1F
100
AcDbEntity
  8
0
  6
SLD-Сплошная
 62
     7
370
    25
100
AcDbLine
 10
196.948692497
 20
-2.0640161035
 30
0.0
 11
201.6125043616
 21
-2.0640161035
 31
0.0
  0
LWPOLYLINE
  5
23E
330
1F
100
AcDbEntity
  8
0
  6
SLD-Сплошная
 62
     7
370
    25
100
AcDbPolyline
 90
       42
 70
   128
 43
0.0
 10
194.0299866252
 20
61.1359838965
 10
194.7235872984
 20
61.0221445345
 10
195.4121905628
 20
60.6814466635
 10
196.0908350162
 20
60.1163450196
 10
196.7546310097
 20
59.3309111731
 10
197.398795878
 20
58.3308041928
 10
198.0186883985
 20
57.1232298724
 10
198.6098422312
 20
55.7168888126
 10
199.1679980994
 20
54.121913733
 10
199.6891344771
 20
52.3497964655
 10
200.1694965649
 20
50.4133051557
 10
200.6056233429
 20
48.3263922677
 10
200.9943725077
 20
46.1040940569
 10
201.3329431126
 20
43.7624222328
 10
201.6188957486
 20
41.3182485944
 10
201.8501701205
 20
38.7891834689
 10
202.0250998912
 20
36.1934488284
 10
202.1424246875
 20
33.5497470005
 10
202.2012991817
 20
30.8771259175
 10
202.2012991817
 20
28.1948418755
 10
202.1424246875
 20
25.5222207925
 10
202.0250998912
 20
22.8785189647
 10
201.8501701205
 20
20.2827843242
 10
201.6188957486
 20
17.7537191987
 10
201.3329431126
 20
15.3095455603
 10
200.9943725077
 20
12.9678737361
 10
200.6056233429
 20
10.7455755253
 10
200.1694965649
 20
8.6586626374
 10
199.6891344771
 20
6.7221713276
 10
199.1679980994
 20
4.9500540601
 10
198.6098422312
 20
3.3550789804
 10
198.0186883985
 20
1.9487379206
 10
197.398795878
 20
0.7411636003
 10
196.7546310097
 20
-0.25894338
 10
196.0908350162
 20
-1.0443772266
 10
195.4121905628
 20
-1.6094788705
 10
194.7235872984
 20
-1.9501767414
 10
194.0299866252
 20
-2.0640161035
 10
193.336385952
 20
-1.9501767414
 10
192.6477826876
 20
-1.6094788705
 10
191.9691382342
 20
-1.0443772266
 10
191.9391916553
 20
-1.0140161035
  0
ARC
  5
23F
330
1F
100
AcDbEntity
  8
0
  6
SLD-Сплошная
 62
     7
370
    25
100
AcDbCircle
 10
194.1862029677
 20
58.2763716464
 30
0.0
 40
2.86387600409696
100
AcDbArc
 50
93.1268747723
 51
135.4355898627
  0
LINE
  5
240
330
1F
100
AcDbEntity
  8
0
  6
SLD-Сплошная
 62
     7
370
    25
100
AcDbLine
 10
194.0299866252
 20
61.1359838965
 30
0.0
 11
201.6125043616
 21
61.1359838965
 31
0.0
  0
LINE
  5
241
330
1F
100
AcDbEntity
  8
0
  6
SLD-Сплошная
 62
     7
370
    25
100
AcDbLine
 10
163.2499372714
 20
17.6310373243
 30
0.0
 11
163.9752438215
 21
17.6310373243
 31
0.0
  0
LINE
  5
242
330
1F
100
AcDbEntity
  8
0
  6
SLD-Сплошная
 62
     7
370
    25
100
AcDbLine
 10
163.2499372714
 20
23.6310373243
 30
0.0
 11
164.4967594775
 21
23.6310373243
 31
0.0
  0
LINE
  5
243
330
1F
100
AcDbEntity
  8
0
  6
SLD-Сплошная
 62
     7
370
    25
100
AcDbLine
 10
163.2499372714
 20
35.4409304688
 30
0.0
 11
164.4967594775
 21
35.4409304688
 31
0.0
  0
LINE
  5
244
330
1F
100
AcDbEntity
  8
0
  6
SLD-Сплошная
 62
     7
370
    25
100
AcDbLine
 10
163.2499372714
 20
41.4409304688
 30
0.0
 11
163.9752438215
 21
41.4409304688
 31
0.0
  0
LWPOLYLINE
  5
245
330
1F
100
AcDbEntity
  8
0
  6
SLD-Сплошная
 62
     7
370
    25
100
AcDbPolyline
 90
        9
 70
   128
 43
0.0
 10
197.5937074978
 20
4.2390687502
 10
197.1053347124
 20
3.0593520794
 10
196.495490048
 20
1.8360935044
 10
195.860460637
 20
0.8220250006
 10
195.205042233
 20
0.0248048315
 10
194.5341845676
 20
-0.5495463819
 10
193.8529539699
 20
-0.8966911287
 10
193.1664951057
 20
-1.0140077657
 10
193.1606533816
 20
-1.0140161035
  0
LINE
  5
246
330
1F
100
AcDbEntity
  8
0
  6
SLD-Сплошная
 62
     7
370
    25
100
AcDbLine
 10
177.1995232629
 20
-0.994110439
 30
0.0
 11
176.9141361095
 21
-1.0140161035
 31
0.0
  0
LINE
  5
247
330
1F
100
AcDbEntity
  8
0
  6
SLD-Сплошная
 62
     7
370
    25
100
AcDbLine
 10
177.4693048689
 20
-0.994110439
 30
0.0
 11
177.1995232629
 21
-0.994110439
 31
0.0
  0
SPLINE
  5
248
330
1F
100
AcDbEntity
  8
0
  6
SLD-Сплошная
 62
     7
370
    25
100
AcDbSpline
210
0.0
220
0.0
230
1.0
 70
     8
 71
     3
 72
     8
 73
     4
 74
     0
 42
0.00000001
 43
0.00000001
 40
0.0
 40
0.0
 40
0.0
 40
0.0
 40
1.0
 40
1.0
 40
1.0
 40
1.0
 10
191.6625237610729
 20
2.449963017287976
 30
0.0
 10
189.4464036293971
 20
1.709120460622354
 30
0.0
 10
187.2151761113797
 20
1.08020639303838
 30
0.0
 10
184.9735576231848
 20
0.5709721702046311
 30
0.0
  0
SPLINE
  5
249
330
1F
100
AcDbEntity
  8
0
  6
SLD-Сплошная
 62
     7
370
    25
100
AcDbSpline
210
0.0
220
0.0
230
1.0
 70
     8
 71
     3
 72
     8
 73
     4
 74
     0
 42
0.00000001
 43
0.00000001
 40
0.0
 40
0.0
 40
0.0
 40
0.0
 40
1.0
 40
1.0
 40
1.0
 40
1.0
 10
184.9735576231848
 20
0.5709721702046311
 30
0.0
 10
183.5180634492458
 20
1.08020639303838
 30
0.0
 10
182.0521783051294
 20
1.709120460622354
 30
0.0
 10
180.5711857746712
 20
2.449963017287976
 30
0.0
  0
ARC
  5
24A
330
1F
100
AcDbEntity
  8
0
  6
SLD-Сплошная
 62
     7
370
    25
100
AcDbCircle
 10
169.7893318415
 20
7.6954748895
 30
0.0
 40
11.99015300306364
100
AcDbArc
 50
324.9429683609
 51
334.0564771226
  0
LINE
  5
24B
330
1F
100
AcDbEntity
  8
0
  6
SLD-Сплошная
 62
     7
370
    25
100
AcDbLine
 10
183.1289987996
 20
-0.4650636563
 30
0.0
 11
178.4063271354
 21
-0.4650636563
 31
0.0
  0
ARC
  5
24C
330
1F
100
AcDbEntity
  8
0
  6
SLD-Сплошная
 62
     7
370
    25
100
AcDbCircle
 10
176.6845711308
 20
1.7779477802
 30
0.0
 40
2.827639305742738
100
AcDbArc
 50
286.1123996696
 51
307.5101725147
  0
LINE
  5
24D
330
1F
100
AcDbEntity
  8
0
  6
SLD-Сплошная
 62
     7
370
    25
100
AcDbLine
 10
189.4976651218
 20
-0.4650636563
 30
0.0
 11
185.3334360387
 21
-0.4650636563
 31
0.0
  0
ARC
  5
24E
330
1F
100
AcDbEntity
  8
0
  6
SLD-Сплошная
 62
     7
370
    25
100
AcDbCircle
 10
169.8822999918
 20
7.4688970764
 30
0.0
 40
11.90609473215283
100
AcDbArc
 50
324.7410629097
 51
333.865940376
  0
LINE
  5
24F
330
1F
100
AcDbEntity
  8
0
  6
SLD-Сплошная
 62
     7
370
    25
100
AcDbLine
 10
179.6042397566
 20
0.8084325884
 30
0.0
 11
179.6042397566
 21
0.5958352418
 31
0.0
  0
LINE
  5
250
330
1F
100
AcDbEntity
  8
0
  6
SLD-Сплошная
 62
     7
370
    25
100
AcDbLine
 10
180.5711857747
 20
2.4499630173
 30
0.0
 11
180.5711857747
 21
2.2245846817
 31
0.0
  0
SPLINE
  5
251
330
1F
100
AcDbEntity
  8
0
  6
SLD-Сплошная
 62
     7
370
    25
100
AcDbSpline
210
0.0
220
0.0
230
1.0
 70
     8
 71
     3
 72
     8
 73
     4
 74
     0
 42
0.00000001
 43
0.00000001
 40
0.0
 40
0.0
 40
0.0
 40
0.0
 40
1.0
 40
1.0
 40
1.0
 40
1.0
 10
184.9735576231848
 20
0.3601050870379319
 30
0.0
 10
183.518154119958
 20
0.8656273534040915
 30
0.0
 10
182.0527150227186
 20
1.489589415774956
 30
0.0
 10
180.5711857746712
 20
2.224584681719794
 30
0.0
  0
LINE
  5
252
330
1F
100
AcDbEntity
  8
0
  6
SLD-Сплошная
 62
     7
370
    25
100
AcDbLine
 10
184.9735576232
 20
0.5709721702
 30
0.0
 11
184.9735576232
 21
0.360105087
 31
0.0
  0
ARC
  5
253
330
1F
100
AcDbEntity
  8
0
  6
SLD-Сплошная
 62
     7
370
    25
100
AcDbCircle
 10
176.6875607999
 20
1.5865003777
 30
0.0
 40
2.835503633923494
100
AcDbArc
 50
286.0036438957
 51
307.312296158
  0
LINE
  5
254
330
1F
100
AcDbEntity
  8
0
  6
SLD-Сплошная
 62
     7
370
    25
100
AcDbLine
 10
183.8103923822
 20
-0.6686987581
 30
0.0
 11
178.4063271354
 21
-0.6686987581
 31
0.0
  0
ARC
  5
255
330
1F
100
AcDbEntity
  8
0
  6
SLD-Сплошная
 62
     7
370
    25
100
AcDbCircle
 10
181.5644689533
 20
2.376538558
 30
0.0
 40
3.783866059959713
100
AcDbArc
 50
306.4095168227
 51
306.9982997487
  0
SPLINE
  5
256
330
1F
100
AcDbEntity
  8
0
  6
SLD-Сплошная
 62
     7
370
    25
100
AcDbSpline
210
0.0
220
0.0
230
1.0
 70
     8
 71
     3
 72
     8
 73
     4
 74
     0
 42
0.00000001
 43
0.00000001
 40
0.0
 40
0.0
 40
0.0
 40
0.0
 40
1.0
 40
1.0
 40
1.0
 40
1.0
 10
179.604239756553
 20
0.5958352417620438
 30
0.0
 10
181.0260800906425
 20
0.0685545819081868
 30
0.0
 10
182.4366075154578
 20
-0.3467625844506828
 30
0.0
 10
183.841566717027
 20
-0.6454588169440001
 30
0.0
  0
SPLINE
  5
257
330
1F
100
AcDbEntity
  8
0
  6
SLD-Сплошная
 62
     7
370
    25
100
AcDbSpline
210
0.0
220
0.0
230
1.0
 70
     8
 71
     3
 72
     8
 73
     4
 74
     0
 42
0.00000001
 43
0.00000001
 40
0.0
 40
0.0
 40
0.0
 40
0.0
 40
1.0
 40
1.0
 40
1.0
 40
1.0
 10
191.6625237610729
 20
2.224584681719766
 30
0.0
 10
189.4456001649331
 20
1.489589305138761
 30
0.0
 10
187.2150367514692
 20
0.8656274171830736
 30
0.0
 10
184.9735576231848
 20
0.3601050870379319
 30
0.0
  0
ARC
  5
258
330
1F
100
AcDbEntity
  8
0
  6
SLD-Сплошная
 62
     7
370
    25
100
AcDbCircle
 10
180.9736379783
 20
7.4688970764
 30
0.0
 40
11.90609473214408
100
AcDbArc
 50
324.7410629097
 51
333.865940376
  0
SPLINE
  5
259
330
1F
100
AcDbEntity
  8
0
  6
SLD-Сплошная
 62
     7
370
    25
100
AcDbSpline
210
0.0
220
0.0
230
1.0
 70
     8
 71
     3
 72
     8
 73
     4
 74
     0
 42
0.00000001
 43
0.00000001
 40
0.0
 40
0.0
 40
0.0
 40
0.0
 40
1.0
 40
1.0
 40
1.0
 40
1.0
 10
184.1247742097619
 20
-0.6454588169436393
 30
0.0
 10
186.3225779504028
 20
-0.3467626048165307
 30
0.0
 10
188.5137683036622
 20
0.0685546266739057
 30
0.0
 10
190.6955777429547
 20
0.5958352417620716
 30
0.0
  0
ARC
  5
25A
330
1F
100
AcDbEntity
  8
0
  6
SLD-Сплошная
 62
     7
370
    25
100
AcDbCircle
 10
181.8476764467
 20
2.3765385568
 30
0.0
 40
3.783866058660566
100
AcDbArc
 50
306.4095168249
 51
306.998299751
  0
LINE
  5
25B
330
1F
100
AcDbEntity
  8
0
  6
SLD-Сплошная
 62
     7
370
    25
100
AcDbLine
 10
189.4976651218
 20
-0.6686987581
 30
0.0
 11
184.0935998749
 21
-0.6686987581
 31
0.0
  0
ARC
  5
25C
330
1F
100
AcDbEntity
  8
0
  6
SLD-Сплошная
 62
     7
370
    25
100
AcDbCircle
 10
187.7788987863
 20
1.5865003777
 30
0.0
 40
2.835503633923227
100
AcDbArc
 50
286.0036438957
 51
307.312296158
  0
LINE
  5
25D
330
1F
100
AcDbEntity
  8
0
  6
SLD-Сплошная
 62
     7
370
    25
100
AcDbLine
 10
177.4693048689
 20
-1.1391109424
 30
0.0
 11
188.5606428553
 21
-1.1391109424
 31
0.0
  0
LINE
  5
25E
330
1F
100
AcDbEntity
  8
0
  6
SLD-Сплошная
 62
     7
370
    25
100
AcDbLine
 10
191.6625237611
 20
2.4499630173
 30
0.0
 11
191.6625237611
 21
2.2245846817
 31
0.0
  0
LINE
  5
25F
330
1F
100
AcDbEntity
  8
0
  6
SLD-Сплошная
 62
     7
370
    25
100
AcDbLine
 10
178.4063271354
 20
-0.4650636563
 30
0.0
 11
178.4063271354
 21
-0.6686987581
 31
0.0
  0
LINE
  5
260
330
1F
100
AcDbEntity
  8
0
  6
SLD-Сплошная
 62
     7
370
    25
100
AcDbLine
 10
177.4693048689
 20
-0.9386193557
 30
0.0
 11
177.4693048689
 21
-1.1391109424
 31
0.0
  0
LINE
  5
261
330
1F
100
AcDbEntity
  8
0
  6
SLD-Сплошная
 62
     7
370
    25
100
AcDbLine
 10
189.4976651218
 20
-0.4650636563
 30
0.0
 11
189.4976651218
 21
-0.6686987581
 31
0.0
  0
LINE
  5
262
330
1F
100
AcDbEntity
  8
0
  6
SLD-Сплошная
 62
     7
370
    25
100
AcDbLine
 10
157.5907925974
 20
46.4505695711
 30
0.0
 11
157.6342791337
 21
46.4884286204
 31
0.0
  0
LINE
  5
263
330
1F
100
AcDbEntity
  8
0
  6
SLD-Сплошная
 62
     7
370
    25
100
AcDbLine
 10
180.2244269642
 20
-1.1942399903
 30
0.0
 11
177.1995232629
 21
-1.1942399903
 31
0.0
  0
LINE
  5
264
330
1F
100
AcDbEntity
  8
0
  6
SLD-Сплошная
 62
     7
370
    25
100
AcDbLine
 10
177.1995232629
 20
-0.994110439
 30
0.0
 11
177.1995232629
 21
-1.1942399903
 31
0.0
  0
LINE
  5
265
330
1F
100
AcDbEntity
  8
0
  6
SLD-Сплошная
 62
     7
370
    25
100
AcDbLine
 10
180.2244269642
 20
-1.1391109424
 30
0.0
 11
180.2244269642
 21
-1.1942399903
 31
0.0
  0
ARC
  5
266
330
1F
100
AcDbEntity
  8
0
  6
SLD-Сплошная
 62
     7
370
    25
100
AcDbCircle
 10
176.9188776382
 20
0.9797208104
 30
0.0
 40
2.192000805158336
100
AcDbArc
 50
245.4434011194
 51
277.3558674812
  0
LINE
  5
267
330
1F
100
AcDbEntity
  8
0
  6
SLD-Сплошная
 62
     7
370
    25
100
AcDbLine
 10
180.2244269642
 20
-1.1942399903
 30
0.0
 11
179.9390398108
 21
-1.2140161035
 31
0.0
  0
ARC
  5
268
330
1F
100
AcDbEntity
  8
0
  6
SLD-Сплошная
 62
     7
370
    25
100
AcDbCircle
 10
180.9473819811
 20
0.890450764
 30
0.0
 40
2.104130454943369
100
AcDbArc
 50
254.7007292558
 51
277.7943699909
  0
LINE
  5
269
330
1F
100
AcDbEntity
  8
0
  6
SLD-Сплошная
 62
     7
370
    25
100
AcDbLine
 10
181.2327404054
 20
-1.1391109424
 30
0.0
 11
181.2327404054
 21
-1.1942399903
 31
0.0
  0
LINE
  5
26A
330
1F
100
AcDbEntity
  8
0
  6
SLD-Сплошная
 62
     7
370
    25
100
AcDbLine
 10
184.2576441067
 20
-1.1942399903
 30
0.0
 11
181.2327404054
 21
-1.1942399903
 31
0.0
  0
LWPOLYLINE
  5
26B
330
1F
100
AcDbEntity
  8
0
  6
SLD-Сплошная
 62
     7
370
    25
100
AcDbPolyline
 90
        3
 70
   128
 43
0.0
 10
184.2576441067
 20
-1.1942399903
 10
184.0184298802
 20
-1.2134986028
 10
183.9722569533
 20
-1.2140161035
  0
ARC
  5
26C
330
1F
100
AcDbEntity
  8
0
  6
SLD-Сплошная
 62
     7
370
    25
100
AcDbCircle
 10
184.9803403236
 20
0.8865048229
 30
0.0
 40
2.100256216891612
100
AcDbArc
 50
254.6791354567
 51
277.81596379
  0
LINE
  5
26D
330
1F
100
AcDbEntity
  8
0
  6
SLD-Сплошная
 62
     7
370
    25
100
AcDbLine
 10
188.2908612493
 20
-1.1942399903
 30
0.0
 11
185.2659575479
 21
-1.1942399903
 31
0.0
  0
LINE
  5
26E
330
1F
100
AcDbEntity
  8
0
  6
SLD-Сплошная
 62
     7
370
    25
100
AcDbLine
 10
188.2908612493
 20
-1.1942399903
 30
0.0
 11
188.0054740959
 21
-1.2140161035
 31
0.0
  0
LINE
  5
26F
330
1F
100
AcDbEntity
  8
0
  6
SLD-Сплошная
 62
     7
370
    25
100
AcDbLine
 10
184.2576441067
 20
-1.1391109424
 30
0.0
 11
184.2576441067
 21
-1.1942399903
 31
0.0
  0
LINE
  5
270
330
1F
100
AcDbEntity
  8
0
  6
SLD-Сплошная
 62
     7
370
    25
100
AcDbLine
 10
185.2659575479
 20
-1.1391109424
 30
0.0
 11
185.2659575479
 21
-1.1942399903
 31
0.0
  0
LINE
  5
271
330
1F
100
AcDbEntity
  8
0
  6
SLD-Сплошная
 62
     7
370
    25
100
AcDbLine
 10
188.2908612493
 20
-1.1391109424
 30
0.0
 11
188.2908612493
 21
-1.1942399903
 31
0.0
  0
LINE
  5
272
330
1F
100
AcDbEntity
  8
0
  6
SLD-Сплошная
 62
     7
370
    25
100
AcDbLine
 10
156.2580075096
 20
25.5359838965
 30
0.0
 11
164.5849282948
 21
25.5359838965
 31
0.0
  0
LINE
  5
273
330
1F
100
AcDbEntity
  8
0
  6
SLD-Сплошная
 62
     7
370
    25
100
AcDbLine
 10
156.2580075096
 20
33.5359838965
 30
0.0
 11
164.5849282948
 21
33.5359838965
 31
0.0
  0
LINE
  5
274
330
1F
100
AcDbEntity
  8
0
  6
SLD-Сплошная
 62
     7
370
    25
100
AcDbLine
 10
193.4099837581
 20
65.5359838965
 30
0.0
 11
196.6106579484
 21
65.5359838965
 31
0.0
  0
LINE
  5
275
330
1F
100
AcDbEntity
  8
0
  6
SLD-Сплошная
 62
     7
370
    25
100
AcDbLine
 10
193.4099837581
 20
-6.4640161035
 30
0.0
 11
196.6106579484
 21
-6.4640161035
 31
0.0
  0
LINE
  5
276
330
1F
100
AcDbEntity
  8
0
  6
SLD-Сплошная
 62
     7
370
    25
100
AcDbLine
 10
217.6037369195
 20
65.2840012152
 30
0.0
 11
218.8146393468
 21
65.9556432515
 31
0.0
  0
SPLINE
  5
277
330
1F
100
AcDbEntity
  8
0
  6
SLD-Сплошная
 62
     7
370
    25
100
AcDbSpline
210
0.0
220
0.0
230
1.0
 70
     8
 71
     3
 72
     9
 73
     5
 74
     0
 42
0.00000001
 43
0.00000001
 40
0.0
 40
0.0
 40
0.0
 40
0.0
 40
0.5531743814849555
 40
1.0
 40
1.0
 40
1.0
 40
1.0
 10
222.4898335183435
 20
66.43328960581476
 30
0.0
 10
222.7098836001335
 20
66.45351031590185
 30
0.0
 10
223.1076787424162
 20
66.49006426844176
 30
0.0
 10
223.493060235176
 20
66.38499562527846
 30
0.0
 10
223.6652585590427
 20
66.33804826381056
 30
0.0
  0
SPLINE
  5
278
330
1F
100
AcDbEntity
  8
0
  6
SLD-Сплошная
 62
     7
370
    25
100
AcDbSpline
210
0.0
220
0.0
230
1.0
 70
     8
 71
     3
 72
     9
 73
     5
 74
     0
 42
0.00000001
 43
0.00000001
 40
0.0
 40
0.0
 40
0.0
 40
0.0
 40
0.4981970295120268
 40
1.0
 40
1.0
 40
1.0
 40
1.0
 10
223.7200713833816
 20
-7.254579695665509
 30
0.0
 10
223.5313998012804
 20
-7.30728732019073
 30
0.0
 10
223.1526910356219
 20
-7.413084066062336
 30
0.0
 10
222.7617456413899
 20
-7.379583090974029
 30
0.0
 10
222.5655680812657
 20
-7.362772202160444
 30
0.0
  0
LINE
  5
279
330
1F
100
AcDbEntity
  8
0
  6
SLD-Сплошная
 62
     7
370
    25
100
AcDbLine
 10
218.8110351732
 20
-6.8829110606
 30
0.0
 11
217.6037369195
 21
-6.2120334221
 31
0.0
  0
SPLINE
  5
27A
330
1F
100
AcDbEntity
  8
0
  6
SLD-Сплошная
 62
     7
370
    25
100
AcDbSpline
210
0.0
220
0.0
230
1.0
 70
     8
 71
     3
 72
    14
 73
    10
 74
     0
 42
0.00000001
 43
0.00000001
 40
0.0
 40
0.0
 40
0.0
 40
0.0
 40
0.0237398030978033
 40
0.1261075137243368
 40
0.2344412722133607
 40
0.3491105373272311
 40
0.5681494720889231
 40
0.7851705543422411
 40
1.0
 40
1.0
 40
1.0
 40
1.0
 10
199.9309349578624
 20
-7.65135137088821
 30
0.0
 10
199.9047898912097
 20
-7.670693633928471
 30
0.0
 10
199.7659054473012
 20
-7.773441103726853
 30
0.0
 10
199.5033667904596
 20
-7.858024506594536
 30
0.0
 10
199.1390968211016
 20
-7.926423099843316
 30
0.0
 10
198.6431328204393
 20
-7.900504203487063
 30
0.0
 10
198.027753679058
 20
-7.7060990014364
 30
0.0
 10
197.3025501633822
 20
-7.317194306882713
 30
0.0
 10
196.8405070655758
 20
-6.747445014181314
 30
0.0
 10
196.6106579484476
 20
-6.464016103472304
 30
0.0
  0
SPLINE
  5
27B
330
1F
100
AcDbEntity
  8
0
  6
SLD-Сплошная
 62
     7
370
    25
100
AcDbSpline
210
0.0
220
0.0
230
1.0
 70
     8
 71
     3
 72
    14
 73
    10
 74
     0
 42
0.00000001
 43
0.00000001
 40
0.0
 40
0.0
 40
0.0
 40
0.0
 40
0.1617565339930035
 40
0.3223230952518198
 40
0.4823033322692418
 40
0.6423862840174867
 40
0.8103993141236447
 40
0.964591975167615
 40
1.0
 40
1.0
 40
1.0
 40
1.0
 10
196.6106579484421
 20
65.53598389652771
 30
0.0
 10
196.7848170704936
 20
65.76117887706876
 30
0.0
 10
197.131854101396
 20
66.2099121762523
 30
0.0
 10
197.6714173699953
 20
66.58758366024428
 30
0.0
 10
198.2122877861525
 20
66.84329639867218
 30
0.0
 10
198.7650620080417
 20
66.99582711818591
 30
0.0
 10
199.3115910343086
 20
66.98010382962217
 30
0.0
 10
199.7186989696775
 20
66.89621910018637
 30
0.0
 10
199.9288560200217
 20
66.71896740981632
 30
0.0
 10
199.9681029564075
 20
66.68586556619593
 30
0.0
  0
LINE
  5
27C
330
1F
100
AcDbEntity
  8
0
  6
SLD-Сплошная
 62
     7
370
    25
100
AcDbLine
 10
193.4099837581
 20
-6.4640161035
 30
0.0
 11
193.4099837581
 21
-1.9730869499
 31
0.0
  0
LINE
  5
27D
330
1F
100
AcDbEntity
  8
0
  6
SLD-Сплошная
 62
     7
370
    25
100
AcDbLine
 10
193.4099837581
 20
61.0450547429
 30
0.0
 11
193.4099837581
 21
65.5359838965
 31
0.0
  0
ARC
  5
27E
330
1F
100
AcDbEntity
  8
0
  6
SLD-Сплошная
 62
     7
370
    25
100
AcDbCircle
 10
296.9381235393
 20
67.5359838965
 30
0.0
 40
6.0
100
AcDbArc
 50
0.0
 51
90.0
  0
ARC
  5
27F
330
1F
100
AcDbEntity
  8
0
  6
SLD-Сплошная
 62
     7
370
    25
100
AcDbCircle
 10
296.9381235393
 20
-8.4640161035
 30
0.0
 40
6.000000000000005
100
AcDbArc
 50
270.0
 51
0.0
  0
LINE
  5
280
330
1F
100
AcDbEntity
  8
0
  6
SLD-Сплошная
 62
     7
370
    25
100
AcDbLine
 10
185.1497806218
 20
-14.4640161035
 30
0.0
 11
296.9381235393
 21
-14.4640161035
 31
0.0
  0
SPLINE
  5
281
330
1F
100
AcDbEntity
  8
0
  6
SLD-Сплошная
 62
     7
370
    25
100
AcDbSpline
210
0.0
220
0.0
230
1.0
 70
     8
 71
     3
 72
    22
 73
    18
 74
     0
 42
0.00000001
 43
0.00000001
 40
0.0
 40
0.0
 40
0.0
 40
0.0
 40
0.125
 40
0.125
 40
0.25
 40
0.25
 40
0.375
 40
0.375
 40
0.5
 40
0.5
 40
0.625
 40
0.625
 40
0.75
 40
0.75
 40
0.875
 40
0.875
 40
1.0
 40
1.0
 40
1.0
 40
1.0
 10
178.938123539319
 20
-8.464016103472305
 30
0.0
 10
178.938123539319
 20
-8.817569494065507
 30
0.0
 10
178.9706623562424
 20
-9.184344531246586
 30
0.0
 10
179.1129873754241
 20
-9.927244304643645
 30
0.0
 10
179.2228983178442
 20
-10.30329350969189
 30
0.0
 10
179.5256107547481
 20
-11.04187521199518
 30
0.0
 10
179.7184836727859
 20
-11.40425800313241
 30
0.0
 10
180.1828193802751
 20
-12.0902912444337
 30
0.0
 10
180.454250403525
 20
-12.41376357177812
 30
0.0
 10
181.0607011492074
 20
-12.99955000940506
 30
0.0
 10
181.3955843447289
 20
-13.26173224481819
 30
0.0
 10
182.1058182184176
 20
-13.7102460967502
 30
0.0
 10
182.4809844902726
 20
-13.8965470294746
 30
0.0
 10
183.2456205339539
 20
-14.18894479021915
 30
0.0
 10
183.6349353186025
 20
-14.29511060809438
 30
0.0
 10
184.4040417584325
 20
-14.43258601984904
 30
0.0
 10
184.7837552179951
 20
-14.46401610347228
 30
0.0
 10
185.1497806217795
 20
-14.46401610347231
 30
0.0
  0
LINE
  5
282
330
1F
100
AcDbEntity
  8
0
  6
SLD-Сплошная
 62
     7
370
    25
100
AcDbLine
 10
178.9381235393
 20
67.5359838965
 30
0.0
 11
178.9381235393
 21
60.2859838965
 31
0.0
  0
LINE
  5
283
330
1F
100
AcDbEntity
  8
0
  6
SLD-Сплошная
 62
     7
370
    25
100
AcDbLine
 10
178.9381235393
 20
-1.2140161035
 30
0.0
 11
178.9381235393
 21
-8.4640161035
 31
0.0
  0
SPLINE
  5
284
330
1F
100
AcDbEntity
  8
0
  6
SLD-Сплошная
 62
     7
370
    25
100
AcDbSpline
210
0.0
220
0.0
230
1.0
 70
     8
 71
     3
 72
    22
 73
    18
 74
     0
 42
0.00000001
 43
0.00000001
 40
0.0
 40
0.0
 40
0.0
 40
0.0
 40
0.125
 40
0.125
 40
0.25
 40
0.25
 40
0.375
 40
0.375
 40
0.5
 40
0.5
 40
0.625
 40
0.625
 40
0.75
 40
0.75
 40
0.875
 40
0.875
 40
1.0
 40
1.0
 40
1.0
 40
1.0
 10
185.1497806217795
 20
73.53598389652768
 30
0.0
 10
184.7837552179951
 20
73.53598389652765
 30
0.0
 10
184.4040417584325
 20
73.50455381290455
 30
0.0
 10
183.6349353186025
 20
73.36707840114981
 30
0.0
 10
183.2456205339539
 20
73.26091258327455
 30
0.0
 10
182.4809844902726
 20
72.96851482253003
 30
0.0
 10
182.1058182184176
 20
72.78221388980569
 30
0.0
 10
181.3955843447289
 20
72.33370003787368
 30
0.0
 10
181.0607011492075
 20
72.07151780246052
 30
0.0
 10
180.4542504035251
 20
71.48573136483361
 30
0.0
 10
180.1828193802752
 20
71.16225903748924
 30
0.0
 10
179.718483672786
 20
70.47622579618798
 30
0.0
 10
179.5256107547482
 20
70.11384300505061
 30
0.0
 10
179.2228983178442
 20
69.37526130274732
 30
0.0
 10
179.1129873754241
 20
68.99921209769913
 30
0.0
 10
178.9706623562425
 20
68.25631232430202
 30
0.0
 10
178.9381235393191
 20
67.88953728712099
 30
0.0
 10
178.9381235393191
 20
67.53598389652768
 30
0.0
  0
LINE
  5
285
330
1F
100
AcDbEntity
  8
0
  6
SLD-Сплошная
 62
     7
370
    25
100
AcDbLine
 10
296.9381235393
 20
73.5359838965
 30
0.0
 11
185.1497806218
 21
73.5359838965
 31
0.0
  0
SPLINE
  5
286
330
1F
100
AcDbEntity
  8
0
  6
SLD-Сплошная
 62
     7
370
    25
100
AcDbSpline
210
0.0
220
0.0
230
1.0
 70
     8
 71
     3
 72
    26
 73
    22
 74
     0
 42
0.00000001
 43
0.00000001
 40
0.0
 40
0.0
 40
0.0
 40
0.0
 40
0.1250000000000022
 40
0.1250000000000022
 40
0.2500000000000044
 40
0.2500000000000044
 40
0.3750000000000067
 40
0.3750000000000067
 40
0.5000000000000089
 40
0.5000000000000089
 40
0.6250000000000111
 40
0.6250000000000111
 40
0.7500000000000133
 40
0.7500000000000133
 40
0.81250000000001
 40
0.81250000000001
 40
0.8750000000000067
 40
0.8750000000000067
 40
0.9375000000000033
 40
0.9375000000000033
 40
1.0
 40
1.0
 40
1.0
 40
1.0
 10
296.0540313137127
 20
-5.965840581891813
 30
0.0
 10
295.7270209051603
 20
-6.081567982687136
 30
0.0
 10
295.4271720919469
 20
-6.261562651291825
 30
0.0
 10
294.9176070585647
 20
-6.715769890463546
 30
0.0
 10
294.7090190488119
 20
-6.990545863329755
 30
0.0
 10
294.4117653214993
 20
-7.596992976833944
 30
0.0
 10
294.3214101861024
 20
-7.927820461154561
 30
0.0
 10
294.2695805682376
 20
-8.598645173195084
 30
0.0
 10
294.3096819869803
 20
-8.938642400914992
 30
0.0
 10
294.5121267609686
 20
-9.581768488016507
 30
0.0
 10
294.6744577827852
 20
-9.884707774920399
 30
0.0
 10
295.106530916286
 20
-10.40853367706565
 30
0.0
 10
295.3747661968938
 20
-10.63017276902767
 30
0.0
 10
295.8285601370326
 20
-10.87648314313933
 30
0.0
 10
295.9857026092634
 20
-10.94334860725063
 30
0.0
 10
296.3258587747267
 20
-11.04844002927188
 30
0.0
 10
296.5121991558667
 20
-11.08667190799414
 30
0.0
 10
296.8986439505957
 20
-11.12080798947027
 30
0.0
 10
297.097606587184
 20
-11.11606811373247
 30
0.0
 10
297.4781395167324
 20
-11.06554175589786
 30
0.0
 10
297.6587105606491
 20
-11.02005532545031
 30
0.0
 10
297.8222157649252
 20
-10.9621916250523
 30
0.0
  0
SPLINE
  5
287
330
1F
100
AcDbEntity
  8
0
  6
SLD-Сплошная
 62
     7
370
    25
100
AcDbSpline
210
0.0
220
0.0
230
1.0
 70
     8
 71
     3
 72
    26
 73
    22
 74
     0
 42
0.00000001
 43
0.00000001
 40
0.0
 40
0.0
 40
0.0
 40
0.0
 40
0.125
 40
0.125
 40
0.25
 40
0.25
 40
0.375
 40
0.375
 40
0.5
 40
0.5
 40
0.625
 40
0.625
 40
0.75
 40
0.75
 40
0.8125
 40
0.8125
 40
0.875
 40
0.875
 40
0.9375
 40
0.9375
 40
1.0
 40
1.0
 40
1.0
 40
1.0
 10
297.8222157649252
 20
-10.9621916250523
 30
0.0
 10
298.1492261734784
 20
-10.84646422425631
 30
0.0
 10
298.4490749866915
 20
-10.66646955565184
 30
0.0
 10
298.9586400200734
 20
-10.2122623164804
 30
0.0
 10
299.167228029826
 20
-9.937486343614271
 30
0.0
 10
299.4644817571386
 20
-9.331039230110278
 30
0.0
 10
299.5548368925356
 20
-9.000211745789798
 30
0.0
 10
299.6066665104003
 20
-8.329387033749358
 30
0.0
 10
299.5665650916576
 20
-7.989389806029284
 30
0.0
 10
299.3641203176693
 20
-7.346263718927548
 30
0.0
 10
299.2017892958527
 20
-7.04332443202374
 30
0.0
 10
298.7697161623522
 20
-6.519498529878264
 30
0.0
 10
298.5014808817444
 20
-6.297859437916414
 30
0.0
 10
298.0476869416054
 20
-6.051549063804757
 30
0.0
 10
297.8905444693744
 20
-5.984683599693397
 30
0.0
 10
297.5503883039114
 20
-5.879592177672394
 30
0.0
 10
297.3640479227715
 20
-5.841360298950243
 30
0.0
 10
296.9776031280423
 20
-5.807224217474177
 30
0.0
 10
296.7786404914541
 20
-5.811964093211774
 30
0.0
 10
296.3981075619061
 20
-5.862490451046531
 30
0.0
 10
296.2175365179902
 20
-5.907976881493831
 30
0.0
 10
296.0540313137127
 20
-5.965840581891813
 30
0.0
  0
SPLINE
  5
288
330
1F
100
AcDbEntity
  8
0
  6
SLD-Сплошная
 62
     7
370
    25
100
AcDbSpline
210
0.0
220
0.0
230
1.0
 70
     8
 71
     3
 72
    26
 73
    22
 74
     0
 42
0.00000001
 43
0.00000001
 40
0.0
 40
0.0
 40
0.0
 40
0.0
 40
0.125
 40
0.125
 40
0.25
 40
0.25
 40
0.375
 40
0.375
 40
0.5
 40
0.5
 40
0.625
 40
0.625
 40
0.75
 40
0.75
 40
0.8125
 40
0.8125
 40
0.875
 40
0.875
 40
0.9375
 40
0.9375
 40
1.0
 40
1.0
 40
1.0
 40
1.0
 10
185.8222157649254
 20
-10.9621916250523
 30
0.0
 10
186.1492261734774
 20
-10.84646422425695
 30
0.0
 10
186.4490749866909
 20
-10.66646955565231
 30
0.0
 10
186.9586400200734
 20
-10.21226231648059
 30
0.0
 10
187.1672280298262
 20
-9.937486343614216
 30
0.0
 10
187.4644817571387
 20
-9.331039230110221
 30
0.0
 10
187.5548368925356
 20
-9.000211745789827
 30
0.0
 10
187.6066665104003
 20
-8.329387033749247
 30
0.0
 10
187.5665650916577
 20
-7.989389806029229
 30
0.0
 10
187.3641203176695
 20
-7.346263718927576
 30
0.0
 10
187.201789295853
 20
-7.043324432023601
 30
0.0
 10
186.7697161623522
 20
-6.519498529878348
 30
0.0
 10
186.5014808817444
 20
-6.29785943791647
 30
0.0
 10
186.0476869416055
 20
-6.051549063804701
 30
0.0
 10
185.8905444693744
 20
-5.984683599693453
 30
0.0
 10
185.5503883039112
 20
-5.879592177672172
 30
0.0
 10
185.3640479227714
 20
-5.841360298949966
 30
0.0
 10
184.9776031280423
 20
-5.807224217473983
 30
0.0
 10
184.7786404914539
 20
-5.811964093211802
 30
0.0
 10
184.3981075619054
 20
-5.862490451046531
 30
0.0
 10
184.2175365179892
 20
-5.907976881493831
 30
0.0
 10
184.0540313137126
 20
-5.965840581891813
 30
0.0
  0
SPLINE
  5
289
330
1F
100
AcDbEntity
  8
0
  6
SLD-Сплошная
 62
     7
370
    25
100
AcDbSpline
210
0.0
220
0.0
230
1.0
 70
     8
 71
     3
 72
    26
 73
    22
 74
     0
 42
0.00000001
 43
0.00000001
 40
0.0
 40
0.0
 40
0.0
 40
0.0
 40
0.1249999999999994
 40
0.1249999999999994
 40
0.2499999999999989
 40
0.2499999999999989
 40
0.3749999999999983
 40
0.3749999999999983
 40
0.4999999999999978
 40
0.4999999999999978
 40
0.6249999999999972
 40
0.6249999999999972
 40
0.7499999999999967
 40
0.7499999999999967
 40
0.8124999999999974
 40
0.8124999999999974
 40
0.8749999999999983
 40
0.8749999999999983
 40
0.9374999999999991
 40
0.9374999999999991
 40
1.0
 40
1.0
 40
1.0
 40
1.0
 10
184.0540313137126
 20
-5.965840581891813
 30
0.0
 10
183.7270209051596
 20
-6.081567982687774
 30
0.0
 10
183.4271720919466
 20
-6.261562651292296
 30
0.0
 10
182.9176070585646
 20
-6.715769890463713
 30
0.0
 10
182.7090190488119
 20
-6.990545863329867
 30
0.0
 10
182.4117653214992
 20
-7.596992976833889
 30
0.0
 10
182.3214101861023
 20
-7.927820461154561
 30
0.0
 10
182.2695805682376
 20
-8.598645173195196
 30
0.0
 10
182.3096819869803
 20
-8.938642400915048
 30
0.0
 10
182.5121267609685
 20
-9.581768488016534
 30
0.0
 10
182.6744577827851
 20
-9.884707774920399
 30
0.0
 10
183.1065309162859
 20
-10.40853367706579
 30
0.0
 10
183.3747661968936
 20
-10.6301727690277
 30
0.0
 10
183.8285601370326
 20
-10.87648314313938
 30
0.0
 10
183.9857026092636
 20
-10.94334860725058
 30
0.0
 10
184.3258587747268
 20
-11.04844002927183
 30
0.0
 10
184.5121991558666
 20
-11.08667190799417
 30
0.0
 10
184.8986439505956
 20
-11.12080798947027
 30
0.0
 10
185.097606587184
 20
-11.11606811373253
 30
0.0
 10
185.478139516732
 20
-11.06554175589799
 30
0.0
 10
185.6587105606477
 20
-11.02005532545086
 30
0.0
 10
185.8222157649254
 20
-10.9621916250523
 30
0.0
  0
SPLINE
  5
28A
330
1F
100
AcDbEntity
  8
0
  6
SLD-Сплошная
 62
     7
370
    25
100
AcDbSpline
210
0.0
220
0.0
230
1.0
 70
     8
 71
     3
 72
    30
 73
    26
 74
     0
 42
0.00000001
 43
0.00000001
 40
0.0
 40
0.0
 40
0.0
 40
0.0
 40
0.0196520062729958
 40
0.0391264608984341
 40
0.0584963354337571
 40
0.0778357852765408
 40
0.0972193150139356
 40
0.1167209240268059
 40
0.1364132805961149
 40
0.201315695565235
 40
0.2662208556000002
 40
0.3277875690761612
 40
0.3893561320280992
 40
0.4499542829566855
 40
0.5111285919301253
 40
0.5719051784395653
 40
0.6323845130753355
 40
0.69297599853381
 40
0.75379591795916
 40
0.8147183154505501
 40
0.8759939015360548
 40
0.9072872435166505
 40
0.9381887350811114
 40
0.9689936446575306
 40
1.0
 40
1.0
 40
1.0
 40
1.0
 10
185.8222157649254
 20
65.03780837494755
 30
0.0
 10
185.7705493444352
 20
65.02049834615143
 30
0.0
 10
185.6676832984451
 20
64.98603468094419
 30
0.0
 10
185.5102989965353
 20
64.94641295994779
 30
0.0
 10
185.3518172640745
 20
64.91608102937177
 30
0.0
 10
185.1919533522966
 20
64.89585964138003
 30
0.0
 10
185.030797232964
 20
64.88552678151122
 30
0.0
 10
184.8683139885482
 20
64.88515953567473
 30
0.0
 10
184.5801799948495
 20
64.90188807476203
 30
0.0
 10
184.1697039678922
 20
64.97931150276443
 30
0.0
 10
183.6773444450089
 20
65.18631789893448
 30
0.0
 10
183.241773265007
 20
65.47830001398324
 30
0.0
 10
182.8797904533204
 20
65.84105493357976
 30
0.0
 10
182.5931238939118
 20
66.26453560246756
 30
0.0
 10
182.3964310341964
 20
66.7340882416177
 30
0.0
 10
182.2884561853928
 20
67.23117690790623
 30
0.0
 10
182.2797796027458
 20
67.73830484204608
 30
0.0
 10
182.3656863189786
 20
68.23817906313533
 30
0.0
 10
182.5463131418363
 20
68.71344217530806
 30
0.0
 10
182.8130332026466
 20
69.1486588799372
 30
0.0
 10
183.1051327554532
 20
69.46196662618249
 30
0.0
 10
183.3711493974174
 20
69.67797540137585
 30
0.0
 10
183.5865782468442
 20
69.82017946536374
 30
0.0
 10
183.8137232677874
 20
69.94169567105554
 30
0.0
 10
183.9737547817069
 20
70.00327127651005
 30
0.0
 10
184.0540313137127
 20
70.03415941810789
 30
0.0
  0
SPLINE
  5
28B
330
1F
100
AcDbEntity
  8
0
  6
SLD-Сплошная
 62
     7
370
    25
100
AcDbSpline
210
0.0
220
0.0
230
1.0
 70
     8
 71
     3
 72
    30
 73
    26
 74
     0
 42
0.00000001
 43
0.00000001
 40
0.0
 40
0.0
 40
0.0
 40
0.0
 40
0.0196750912106936
 40
0.0391653304328199
 40
0.0585433023951318
 40
0.0778828559437126
 40
0.09725827922153
 40
0.116743450110709
 40
0.1364110097868944
 40
0.2013156490002591
 40
0.2662193463266281
 40
0.3277896330504095
 40
0.3893552774370238
 40
0.4499567677372174
 40
0.511128390595484
 40
0.5719082993341507
 40
0.632384961600254
 40
0.6929797823661271
 40
0.7537970170740325
 40
0.8147226556572901
 40
0.8759956562091102
 40
0.907252673678569
 40
0.93814229319245
 40
0.9689591622206127
 40
1.0
 40
1.0
 40
1.0
 40
1.0
 10
184.0540313137127
 20
70.03415941810789
 30
0.0
 10
184.1057672717476
 20
70.0514620467472
 30
0.0
 10
184.2087531166414
 20
70.08590474186654
 30
0.0
 10
184.3662720651889
 20
70.12551759104535
 30
0.0
 10
184.5248212527917
 20
70.15584467639216
 30
0.0
 10
184.6846839257366
 20
70.17606830233377
 30
0.0
 10
184.8457706034125
 20
70.18640885596034
 30
0.0
 10
185.0081162247152
 20
70.18679148405754
 30
0.0
 10
185.2961412182857
 20
70.17007439233372
 30
0.0
 10
185.7065493063312
 20
70.09265613474139
 30
0.0
 10
186.1989148424932
 20
69.88564337807756
 30
0.0
 10
186.6344808488267
 20
69.59366160228097
 30
0.0
 10
186.9964676495418
 20
69.23089952390005
 30
0.0
 10
187.283127302187
 20
68.80742453949316
 30
0.0
 10
187.4798210460853
 20
68.33786370410219
 30
0.0
 10
187.5877918465958
 20
67.84078233266311
 30
0.0
 10
187.5964662863306
 20
67.33364631603223
 30
0.0
 10
187.5105581934348
 20
66.83378067070564
 30
0.0
 10
187.3299276143689
 20
66.3585098540192
 30
0.0
 10
187.063205402277
 20
65.92330623045869
 30
0.0
 10
186.7711876467023
 20
65.61005863407041
 30
0.0
 10
186.5052660226004
 20
65.3941586345543
 30
0.0
 10
186.2899075287273
 20
65.2520325534992
 30
0.0
 10
186.0626870467251
 20
65.13046501713457
 30
0.0
 10
185.9025661092945
 20
65.06876838419312
 30
0.0
 10
185.8222157649254
 20
65.03780837494755
 30
0.0
  0
SPLINE
  5
28C
330
1F
100
AcDbEntity
  8
0
  6
SLD-Сплошная
 62
     7
370
    25
100
AcDbSpline
210
0.0
220
0.0
230
1.0
 70
     8
 71
     3
 72
    30
 73
    26
 74
     0
 42
0.00000001
 43
0.00000001
 40
0.0
 40
0.0
 40
0.0
 40
0.0
 40
0.0177406656152643
 40
0.0353823498516839
 40
0.0529801012781736
 40
0.0705893804850546
 40
0.0882655395545225
 40
0.1060633065790395
 40
0.1240362987899871
 40
0.1851862724437429
 40
0.2462354954060936
 40
0.3069255775837288
 40
0.3676481637402879
 40
0.4280019886772013
 40
0.4889054022663815
 40
0.5499558775877467
 40
0.6106791160687502
 40
0.672119478164943
 40
0.7338156170309227
 40
0.798587721562379
 40
0.8636180284663556
 40
0.8979073384792529
 40
0.9318015674941157
 40
0.965699552634924
 40
1.0
 40
1.0
 40
1.0
 40
1.0
 10
297.8222157649254
 20
70.03415941810778
 30
0.0
 10
297.868323216517
 20
70.01702974272264
 30
0.0
 10
297.9602808700998
 20
69.982865964403
 30
0.0
 10
298.0941111327579
 20
69.92213145862758
 30
0.0
 10
298.2242152538265
 20
69.85468412491485
 30
0.0
 10
298.3503467186361
 20
69.77983734828095
 30
0.0
 10
298.472567497658
 20
69.69778528381241
 30
0.0
 10
298.5908551275758
 20
69.60845175272954
 30
0.0
 10
298.7962327018623
 20
69.43518696281423
 30
0.0
 10
299.0629772448381
 20
69.14887577384631
 30
0.0
 10
299.3296245953482
 20
68.71409780421133
 30
0.0
 10
299.5104613429083
 20
68.2385360425182
 30
0.0
 10
299.59641301604
 20
67.73901362465129
 30
0.0
 10
299.587837654638
 20
67.23153683839922
 30
0.0
 10
299.4800236331899
 20
66.73474916563238
 30
0.0
 10
299.2832928537437
 20
66.26485131604032
 30
0.0
 10
298.9969028926515
 20
65.84159589467595
 30
0.0
 10
298.6347550421881
 20
65.47853489148433
 30
0.0
 10
298.1995520793701
 20
65.18667677784717
 30
0.0
 10
297.7068869533475
 20
64.97937445609774
 30
0.0
 10
297.2565146746621
 20
64.89453800257847
 30
0.0
 10
296.8869376299028
 20
64.8808002987952
 30
0.0
 10
296.6042578986049
 20
64.90140812038067
 30
0.0
 10
296.3247913910147
 20
64.95084953785118
 30
0.0
 10
296.1446390529558
 20
65.00870828118546
 30
0.0
 10
296.0540313137126
 20
65.03780837494746
 30
0.0
  0
SPLINE
  5
28D
330
1F
100
AcDbEntity
  8
0
  6
SLD-Сплошная
 62
     7
370
    25
100
AcDbSpline
210
0.0
220
0.0
230
1.0
 70
     8
 71
     3
 72
    29
 73
    25
 74
     0
 42
0.00000001
 43
0.00000001
 40
0.0
 40
0.0
 40
0.0
 40
0.0
 40
0.0207107886491768
 40
0.041289568445941
 40
0.0618234854859547
 40
0.0824002558768092
 40
0.1031070511396974
 40
0.1240294176413599
 40
0.1851784700265147
 40
0.2462300523076599
 40
0.3069212848989947
 40
0.3676440685155258
 40
0.4279969244233674
 40
0.4889025757694847
 40
0.5499500623584074
 40
0.6106776412424423
 40
0.6721170494304323
 40
0.7338155873238874
 40
0.7985888112008354
 40
0.8636194405074571
 40
0.8978711447485835
 40
0.9317532350920934
 40
0.9656638157569695
 40
1.0
 40
1.0
 40
1.0
 40
1.0
 10
296.0540313137126
 20
65.03780837494746
 30
0.0
 10
296.0002635138285
 20
65.05797682129203
 30
0.0
 10
295.8930706255659
 20
65.09818516197369
 30
0.0
 10
295.7379172502755
 20
65.17136148286684
 30
0.0
 10
295.5879091415442
 20
65.25363153845359
 30
0.0
 10
295.4433826418115
 20
65.34591014871272
 30
0.0
 10
295.3042584642545
 20
65.44797989982862
 30
0.0
 10
295.0856183585411
 20
65.63076890440053
 30
0.0
 10
294.8132722239334
 20
65.92307916286289
 30
0.0
 10
294.5466235016995
 20
66.35786909621095
 30
0.0
 10
294.3657857549683
 20
66.8334324150602
 30
0.0
 10
294.2798333411376
 20
67.33295126184285
 30
0.0
 10
294.2884146050386
 20
67.84042569285315
 30
0.0
 10
294.3962181696883
 20
68.33720488123093
 30
0.0
 10
294.5929493696341
 20
68.80710738392804
 30
0.0
 10
294.8793353437968
 20
69.23035993401233
 30
0.0
 10
295.2414846927131
 20
69.5934339537554
 30
0.0
 10
295.6766924029462
 20
69.8852897586987
 30
0.0
 10
296.1693612784537
 20
70.09258902159426
 30
0.0
 10
296.6196282993799
 20
70.17742524925639
 30
0.0
 10
296.9890653752371
 20
70.19113614512953
 30
0.0
 10
297.2716374002384
 20
70.17050629749983
 30
0.0
 10
297.5511970194697
 20
70.1210594060343
 30
0.0
 10
297.7315013756989
 20
70.06324625974042
 30
0.0
 10
297.8222157649254
 20
70.03415941810778
 30
0.0
  0
LINE
  5
28E
330
1F
100
AcDbEntity
  8
0
  6
SLD-Сплошная
 62
     7
370
    25
100
AcDbLine
 10
302.9381235393
 20
67.5359838965
 30
0.0
 11
302.9381235393
 21
49.621646783
 31
0.0
  0
LINE
  5
28F
330
1F
100
AcDbEntity
  8
0
  6
SLD-Сплошная
 62
     7
370
    25
100
AcDbLine
 10
302.9381235393
 20
9.4514406405
 30
0.0
 11
302.9381235393
 21
-8.4640161035
 31
0.0
  0
SPLINE
  5
290
330
1F
100
AcDbEntity
  8
0
  6
SLD-Сплошная
 62
     7
370
    25
100
AcDbSpline
210
0.0
220
0.0
230
1.0
 70
     8
 71
     3
 72
    22
 73
    18
 74
     0
 42
0.00000001
 43
0.00000001
 40
0.0
 40
0.0
 40
0.0
 40
0.0
 40
0.125
 40
0.125
 40
0.25
 40
0.25
 40
0.375
 40
0.375
 40
0.5
 40
0.5
 40
0.625
 40
0.625
 40
0.75
 40
0.75
 40
0.875
 40
0.875
 40
1.0
 40
1.0
 40
1.0
 40
1.0
 10
177.0624791923012
 20
67.53598389652768
 30
0.0
 10
177.0624791923011
 20
67.88953728712096
 30
0.0
 10
177.0950180092246
 20
68.2563123243021
 30
0.0
 10
177.2373430284062
 20
68.99921209769921
 30
0.0
 10
177.3472539708263
 20
69.37526130274749
 30
0.0
 10
177.6499664077303
 20
70.11384300505077
 30
0.0
 10
177.8428393257681
 20
70.47622579618815
 30
0.0
 10
178.3071750332573
 20
71.16225903748943
 30
0.0
 10
178.5786060565072
 20
71.48573136483382
 30
0.0
 10
179.1850568021896
 20
72.07151780246082
 30
0.0
 10
179.519939997711
 20
72.33370003787387
 30
0.0
 10
180.2301738713998
 20
72.78221388980583
 30
0.0
 10
180.6053401432548
 20
72.96851482253028
 30
0.0
 10
181.3699761869361
 20
73.2609125832746
 30
0.0
 10
181.7592909715847
 20
73.36707840114995
 30
0.0
 10
182.5283974114147
 20
73.50455381290455
 30
0.0
 10
182.9081108709773
 20
73.53598389652777
 30
0.0
 10
183.2741362747617
 20
73.53598389652768
 30
0.0
  0
LINE
  5
291
330
1F
100
AcDbEntity
  8
0
  6
SLD-Сплошная
 62
     7
370
    25
100
AcDbLine
 10
183.2741362748
 20
73.5359838965
 30
0.0
 11
185.1497806218
 21
73.5359838965
 31
0.0
  0
LINE
  5
292
330
1F
100
AcDbEntity
  8
0
  6
SLD-Сплошная
 62
     7
370
    25
100
AcDbLine
 10
177.0624791923
 20
67.5359838965
 30
0.0
 11
177.0624791923
 21
60.2859838965
 31
0.0
  0
LINE
  5
293
330
1F
100
AcDbEntity
  8
0
  6
SLD-Сплошная
 62
     7
370
    25
100
AcDbLine
 10
177.0624791923
 20
-1.2140161035
 30
0.0
 11
177.0624791923
 21
-8.4640161035
 31
0.0
  0
LINE
  5
294
330
1F
100
AcDbEntity
  8
0
  6
SLD-Сплошная
 62
     7
370
    25
100
AcDbLine
 10
185.1497806218
 20
-14.4640161035
 30
0.0
 11
183.2741362748
 21
-14.4640161035
 31
0.0
  0
SPLINE
  5
295
330
1F
100
AcDbEntity
  8
0
  6
SLD-Сплошная
 62
     7
370
    25
100
AcDbSpline
210
0.0
220
0.0
230
1.0
 70
     8
 71
     3
 72
    22
 73
    18
 74
     0
 42
0.00000001
 43
0.00000001
 40
0.0
 40
0.0
 40
0.0
 40
0.0
 40
0.125
 40
0.125
 40
0.25
 40
0.25
 40
0.375
 40
0.375
 40
0.5
 40
0.5
 40
0.625
 40
0.625
 40
0.75
 40
0.75
 40
0.875
 40
0.875
 40
1.0
 40
1.0
 40
1.0
 40
1.0
 10
183.2741362747616
 20
-14.46401610347231
 30
0.0
 10
182.9081108709772
 20
-14.46401610347225
 30
0.0
 10
182.5283974114146
 20
-14.43258601984895
 30
0.0
 10
181.7592909715846
 20
-14.2951106080943
 30
0.0
 10
181.369976186936
 20
-14.18894479021901
 30
0.0
 10
180.6053401432547
 20
-13.89654702947446
 30
0.0
 10
180.2301738713996
 20
-13.71024609675009
 30
0.0
 10
179.519939997711
 20
-13.26173224481808
 30
0.0
 10
179.1850568021895
 20
-12.99955000940484
 30
0.0
 10
178.5786060565071
 20
-12.41376357177795
 30
0.0
 10
178.3071750332572
 20
-12.09029124443359
 30
0.0
 10
177.842839325768
 20
-11.40425800313238
 30
0.0
 10
177.6499664077302
 20
-11.04187521199504
 30
0.0
 10
177.3472539708262
 20
-10.30329350969175
 30
0.0
 10
177.2373430284062
 20
-9.927244304643562
 30
0.0
 10
177.0950180092245
 20
-9.18434453124653
 30
0.0
 10
177.0624791923011
 20
-8.817569494065564
 30
0.0
 10
177.0624791923011
 20
-8.464016103472305
 30
0.0
  0
SPLINE
  5
296
330
1F
100
AcDbEntity
  8
0
  6
SLD-Сплошная
 62
     7
370
    25
100
AcDbSpline
210
0.0
220
0.0
230
1.0
 70
     8
 71
     3
 72
    75
 73
    71
 74
     0
 42
0.00000001
 43
0.00000001
 40
0.0
 40
0.0
 40
0.0
 40
0.0
 40
0.017691882222746
 40
0.0380532719405695
 40
0.058571954556144
 40
0.0791415242437052
 40
0.0995891352067159
 40
0.1201184397131373
 40
0.161403093738355
 40
0.2026619593857817
 40
0.2432974729756922
 40
0.2612017176579137
 40
0.2785988697579877
 40
0.2954914416212222
 40
0.3052315739940339
 40
0.3154499792495317
 40
0.3255705866795259
 40
0.3357191236780468
 40
0.3436482039012715
 40
0.3515398067249618
 40
0.3594977742003864
 40
0.3674101437500195
 40
0.375151799089396
 40
0.3832639799023574
 40
0.3909596248280485
 40
0.399123954901887
 40
0.4096165974449841
 40
0.4202395909117627
 40
0.4306880035590814
 40
0.4466297127709078
 40
0.4621640138923532
 40
0.4778426211817466
 40
0.4936096278661322
 40
0.5044112193919618
 40
0.5144263763818203
 40
0.5247577176527509
 40
0.5407542463581356
 40
0.5565021591797406
 40
0.5723027534019695
 40
0.5880083262881757
 40
0.596183293881409
 40
0.6037973983706771
 40
0.6119251155062846
 40
0.6196175251949085
 40
0.6275527617720996
 40
0.6354025938712959
 40
0.6433313975011311
 40
0.6512206814651574
 40
0.6591385746579318
 40
0.6670632633148313
 40
0.6698710075707178
 40
0.6726891779876546
 40
0.6752341356351114
 40
0.675595985325238
 40
0.6767863810787917
 40
0.6790427552233361
 40
0.6830574664122316
 40
0.703657423683299
 40
0.7250652186107688
 40
0.7472854925227779
 40
0.7787896405964393
 40
0.8115107743799239
 40
0.8433110890160597
 40
0.8757365732038191
 40
0.897089443115903
 40
0.9182340905306604
 40
0.9395237966285078
 40
0.9607385803129375
 40
0.9817722749700881
 40
1.0
 40
1.0
 40
1.0
 40
1.0
 10
218.235311753903
 20
65.24523203113566
 30
0.0
 10
219.3890806451136
 20
65.18494805060762
 30
0.0
 10
221.8707092712276
 20
65.05528390996895
 30
0.0
 10
225.8477155229228
 20
64.60822910325184
 30
0.0
 10
230.1069712675151
 20
64.05390772362225
 30
0.0
 10
234.4126112671034
 20
63.44860344020162
 30
0.0
 10
238.7110008594628
 20
62.85362008262938
 30
0.0
 10
244.343160939988
 20
62.15262277894798
 30
0.0
 10
251.3381777606416
 20
61.16835935711951
 30
0.0
 10
259.6000003327356
 20
59.83597970819299
 30
0.0
 10
266.2034200689015
 20
58.63555476986201
 30
0.0
 10
271.1739462841206
 20
57.65706127073791
 30
0.0
 10
274.5665066651002
 20
56.95781174422898
 30
0.0
 10
277.409383422922
 20
56.34461294325008
 30
0.0
 10
279.7723523860481
 20
55.81879257080444
 30
0.0
 10
281.7009136745529
 20
55.37328771710387
 30
0.0
 10
283.6145228440197
 20
54.93890976285515
 30
0.0
 10
285.496900344445
 20
54.42603590463099
 30
0.0
 10
287.2491509762115
 20
53.85010973554896
 30
0.0
 10
288.7987917800032
 20
53.25089447081366
 30
0.0
 10
290.2369320283619
 20
52.57948883208346
 30
0.0
 10
291.5137317619248
 20
51.83794416765397
 30
0.0
 10
292.6097202900588
 20
51.01564255733806
 30
0.0
 10
293.5036502952333
 20
50.12551302263235
 30
0.0
 10
294.2230936430494
 20
49.14572742627263
 30
0.0
 10
294.8184845076876
 20
47.99158367545897
 30
0.0
 10
295.2494212634979
 20
46.61561438416945
 30
0.0
 10
295.5040771933385
 20
45.02363105724094
 30
0.0
 10
295.8092647187174
 20
42.98212806036289
 30
0.0
 10
296.0914450930968
 20
40.4625125999038
 30
0.0
 10
296.335620983504
 20
37.40697691554817
 30
0.0
 10
296.498077172964
 20
34.20440941763081
 30
0.0
 10
296.5693101565125
 20
31.23850320943203
 30
0.0
 10
296.572120166774
 20
28.6541731285804
 30
0.0
 10
296.537384411586
 20
26.46184380193586
 30
0.0
 10
296.457445613588
 20
23.93553636726378
 30
0.0
 10
296.296383769379
 20
21.08678379171891
 30
0.0
 10
296.0391891601476
 20
18.04519898123369
 30
0.0
 10
295.6937309306055
 20
15.25295728470372
 30
0.0
 10
295.3870676381169
 20
13.1624432145358
 30
0.0
 10
295.0152768321261
 20
11.65123493267131
 30
0.0
 10
294.5731384405691
 20
10.56192951654181
 30
0.0
 10
293.9825526330546
 20
9.560494182159568
 30
0.0
 10
293.20270440614
 20
8.616091055581254
 30
0.0
 10
292.2416452967799
 20
7.755126395440404
 30
0.0
 10
291.0804104701755
 20
6.961330355456457
 30
0.0
 10
289.7392223306134
 20
6.2454419604282
 30
0.0
 10
288.2596296804516
 20
5.600109368725486
 30
0.0
 10
286.6860241513165
 20
5.02790242189724
 30
0.0
 10
285.4249370728512
 20
4.635500793494035
 30
0.0
 10
284.5237115069176
 20
4.382383221346709
 30
0.0
 10
283.9873451365474
 20
4.240529216231081
 30
0.0
 10
283.6174406947139
 20
4.148132056932513
 30
0.0
 10
283.3568976810259
 20
4.085954115696733
 30
0.0
 10
283.1148441781188
 20
4.028441989877396
 30
0.0
 10
282.64078754581
 20
3.916639342794237
 30
0.0
 10
280.9305798859891
 20
3.516282962060663
 30
0.0
 10
277.9851333414373
 20
2.848792515362297
 30
0.0
 10
273.8367935757094
 20
1.958082902178193
 30
0.0
 10
268.9408898215936
 20
0.9645853001338522
 30
0.0
 10
263.2499202343598
 20
-0.1104054088172379
 30
0.0
 10
256.8570343205861
 20
-1.214714844676196
 30
0.0
 10
250.3377063230701
 20
-2.233859704939306
 30
0.0
 10
244.5258432934171
 20
-3.054814063917749
 30
0.0
 10
239.4110671470004
 20
-3.690196304504179
 30
0.0
 10
234.9636485850319
 20
-4.298303539911702
 30
0.0
 10
230.5075734827487
 20
-4.92717603698209
 30
0.0
 10
226.0987167332696
 20
-5.5064949623925
 30
0.0
 10
221.9850071843904
 20
-5.975012167265314
 30
0.0
 10
219.4242749157414
 20
-6.110107664183295
 30
0.0
 10
218.2354151129071
 20
-6.172827850825236
 30
0.0
  0
SPLINE
  5
297
330
1F
100
AcDbEntity
  8
0
  6
SLD-Сплошная
 62
     7
370
    25
100
AcDbSpline
210
0.0
220
0.0
230
1.0
 70
     8
 71
     3
 72
     8
 73
     4
 74
     0
 42
0.00000001
 43
0.00000001
 40
0.0
 40
0.0
 40
0.0
 40
0.0
 40
1.0
 40
1.0
 40
1.0
 40
1.0
 10
246.8354369393262
 20
32.5359838965277
 30
0.0
 10
246.9329727890508
 20
31.8693172298612
 30
0.0
 10
246.9977904006366
 20
31.20265056319468
 30
0.0
 10
247.0301994604996
 20
30.5359838965277
 30
0.0
  0
ARC
  5
298
330
1F
100
AcDbEntity
  8
0
  6
SLD-Сплошная
 62
     7
370
    25
100
AcDbCircle
 10
114.9588815006
 20
29.5364667008
 30
0.0
 40
132.0856779909475
100
AcDbArc
 50
0.3017325556
 51
0.4335720897
  0
SPLINE
  5
299
330
1F
100
AcDbEntity
  8
0
  6
SLD-Сплошная
 62
     7
370
    25
100
AcDbSpline
210
0.0
220
0.0
230
1.0
 70
     8
 71
     3
 72
     8
 73
     4
 74
     0
 42
0.00000001
 43
0.00000001
 40
0.0
 40
0.0
 40
0.0
 40
0.0
 40
1.0
 40
1.0
 40
1.0
 40
1.0
 10
247.0427279203116
 20
30.23205659064221
 30
0.0
 10
247.0585163642644
 20
29.76538063539222
 30
0.0
 10
247.0583395745204
 20
29.3013615937707
 30
0.0
 10
247.0427279203116
 20
28.83991120241319
 30
0.0
  0
ARC
  5
29A
330
1F
100
AcDbEntity
  8
0
  6
SLD-Сплошная
 62
     7
370
    25
100
AcDbCircle
 10
114.9588813239
 20
29.5355010933
 30
0.0
 40
132.085678167606
100
AcDbArc
 50
359.5664279104
 51
359.6982674444
  0
SPLINE
  5
29B
330
1F
100
AcDbEntity
  8
0
  6
SLD-Сплошная
 62
     7
370
    25
100
AcDbSpline
210
0.0
220
0.0
230
1.0
 70
     8
 71
     3
 72
     8
 73
     4
 74
     0
 42
0.00000001
 43
0.00000001
 40
0.0
 40
0.0
 40
0.0
 40
0.0
 40
1.0
 40
1.0
 40
1.0
 40
1.0
 10
247.0301994604996
 20
28.5359838965277
 30
0.0
 10
246.9977904006366
 20
27.86931722986119
 30
0.0
 10
246.9329727890508
 20
27.20265056319418
 30
0.0
 10
246.8354369393256
 20
26.5359838965277
 30
0.0
  0
ARC
  5
29C
330
1F
100
AcDbEntity
  8
0
  6
SLD-Сплошная
 62
     7
370
    25
100
AcDbCircle
 10
221.2542963068
 20
7.0816381056
 30
0.0
 40
18.12486162730456
100
AcDbArc
 50
324.834211578
 51
342.1835012763
  0
SPLINE
  5
29D
330
1F
100
AcDbEntity
  8
0
  6
SLD-Сплошная
 62
     7
370
    25
100
AcDbSpline
210
0.0
220
0.0
230
1.0
 70
     8
 71
     3
 72
    13
 73
     9
 74
     0
 42
0.00000001
 43
0.00000001
 40
0.0
 40
0.0
 40
0.0
 40
0.0
 40
0.4999999999999954
 40
0.4999999999999954
 40
0.6249999999999953
 40
0.6249999999999953
 40
0.7499999999999951
 40
1.0
 40
1.0
 40
1.0
 40
1.0
 10
236.071170281887
 20
-3.357272499150299
 30
0.0
 10
237.688021075
 20
-3.20048449302679
 30
0.0
 10
239.3055147962152
 20
-3.029840261620731
 30
0.0
 10
241.3281954015183
 20
-2.799003620316265
 30
0.0
 10
241.7281112891066
 20
-2.752499271872294
 30
0.0
 10
242.5295414181538
 20
-2.657600788170816
 30
0.0
 10
243.7311496662525
 20
-2.512742565615317
 30
0.0
 10
244.931146900573
 20
-2.360352022783313
 30
0.0
 10
245.7304285447776
 20
-2.255408264386805
 30
0.0
  0
ARC
  5
29E
330
1F
100
AcDbEntity
  8
0
  6
SLD-Сплошная
 62
     7
370
    25
100
AcDbCircle
 10
232.273227967
 20
7.1383072043
 30
0.0
 40
16.4115245390356
100
AcDbArc
 50
325.0832716599
 51
340.0399289114
  0
SPLINE
  5
29F
330
1F
100
AcDbEntity
  8
0
  6
SLD-Сплошная
 62
     7
370
    25
100
AcDbSpline
210
0.0
220
0.0
230
1.0
 70
     8
 71
     3
 72
    31
 73
    27
 74
     0
 42
0.00000001
 43
0.00000001
 40
0.0
 40
0.0
 40
0.0
 40
0.0
 40
0.0190231735141689
 40
0.0376104423268096
 40
0.0557634849842362
 40
0.0734841034365577
 40
0.090774234844297
 40
0.1076359647485423
 40
0.1240715417837008
 40
0.188958050301159
 40
0.2485839807617207
 40
0.342194920080742
 40
0.4246003028259004
 40
0.4987103978614322
 40
0.558923975798815
 40
0.6187587807513197
 40
0.6812595188414402
 40
0.7491129654548001
 40
0.77817897908397
 40
0.8086822052496342
 40
0.8407145086854707
 40
0.8743552298248091
 40
0.9036044639408064
 40
0.9342760700327937
 40
0.9663993996373778
 40
1.0
 40
1.0
 40
1.0
 40
1.0
 10
247.698924426224
 20
1.535983896527704
 30
0.0
 10
247.725648459028
 20
1.607543858271138
 30
0.0
 10
247.7784841593262
 20
1.749024027815627
 30
0.0
 10
247.8449947947192
 20
1.962019698031864
 30
0.0
 10
247.9012467578367
 20
2.172012482237112
 30
0.0
 10
247.946718745242
 20
2.378900004668505
 30
0.0
 10
247.9819175651018
 20
2.582292398199765
 30
0.0
 10
248.0070964973971
 20
2.78191615875456
 30
0.0
 10
248.0379249933059
 20
3.171260989154212
 30
0.0
 10
248.0162317770246
 20
3.73634017027108
 30
0.0
 10
247.7998859757733
 20
4.59953799190091
 30
0.0
 10
247.28093985627
 20
5.482965905247133
 30
0.0
 10
246.3089735940428
 20
6.223402435354853
 30
0.0
 10
245.1260168885022
 20
6.564705117403119
 30
0.0
 10
243.8861600201024
 20
6.529810975059696
 30
0.0
 10
242.6898645353114
 20
6.191790775051498
 30
0.0
 10
241.5476479337631
 20
5.579918473910789
 30
0.0
 10
240.7489510421031
 20
4.930453134676105
 30
0.0
 10
240.2118300709718
 20
4.382387334337768
 30
0.0
 10
239.8666471535757
 20
3.980176856495793
 30
0.0
 10
239.5472433298743
 20
3.555132649485759
 30
0.0
 10
239.2731354358388
 20
3.137467509612496
 30
0.0
 10
239.038339443691
 20
2.731173864485736
 30
0.0
 10
238.8384216663023
 20
2.338606408460675
 30
0.0
 10
238.6579389130735
 20
1.935897149768634
 30
0.0
 10
238.559989244079
 20
1.671270973720468
 30
0.0
 10
238.5099136067095
 20
1.535983896527704
 30
0.0
  0
SPLINE
  5
2A0
330
1F
100
AcDbEntity
  8
0
  6
SLD-Сплошная
 62
     7
370
    25
100
AcDbSpline
210
0.0
220
0.0
230
1.0
 70
     8
 71
     3
 72
    38
 73
    34
 74
     0
 42
0.00000001
 43
0.00000001
 40
0.0
 40
0.0
 40
0.0
 40
0.0
 40
0.0188257975951232
 40
0.0377817256869163
 40
0.0568911827004873
 40
0.0761770082645867
 40
0.0956614218002108
 40
0.1153659709391386
 40
0.1353114898722682
 40
0.1555180674414072
 40
0.1760050245459975
 40
0.1967909002445268
 40
0.2178934457901596
 40
0.239329625749693
 40
0.2611156253092835
 40
0.2832668628630644
 40
0.3057980070044082
 40
0.3287229970866783
 40
0.3520550665839663
 40
0.3758067685562466
 40
0.3999900026024443
 40
0.4246160427649506
 40
0.4496955659270143
 40
0.4752386803179081
 40
0.5012549538084452
 40
0.5594898645984551
 40
0.6204223986571776
 40
0.684125895083916
 40
0.7506645310403789
 40
0.8088347243429748
 40
0.8697643342786237
 40
0.9334787057340325
 40
1.0
 40
1.0
 40
1.0
 40
1.0
 10
244.590479602369
 20
52.5359838965277
 30
0.0
 10
244.6513328573874
 20
52.53673364778949
 30
0.0
 10
244.7734600064043
 20
52.53823833285587
 30
0.0
 10
244.9532951496964
 20
52.55033382410757
 30
0.0
 10
245.1309883346125
 20
52.56961366205918
 30
0.0
 10
245.3059846123701
 20
52.59678091566148
 30
0.0
 10
245.47805871959
 20
52.63161157608015
 30
0.0
 10
245.6468969717775
 20
52.67411782400977
 30
0.0
 10
245.8122113776734
 20
52.72423219377612
 30
0.0
 10
245.9737091764968
 20
52.78189353968399
 30
0.0
 10
246.1311017054061
 20
52.84702370481295
 30
0.0
 10
246.2841025466345
 20
52.91953399029944
 30
0.0
 10
246.432428596441
 20
52.99932351319822
 30
0.0
 10
246.5758003330531
 20
53.08627980008065
 30
0.0
 10
246.7139423010642
 20
53.18027878910991
 30
0.0
 10
246.8465835338418
 20
53.28118501457793
 30
0.0
 10
246.9734579895964
 20
53.3888517620486
 30
0.0
 10
247.0943049804709
 20
53.50312125403858
 30
0.0
 10
247.2088695965661
 20
53.62382484486513
 30
0.0
 10
247.3169031344929
 20
53.75078325133759
 30
0.0
 10
247.4181634840847
 20
53.88380673367548
 30
0.0
 10
247.5124156482753
 20
54.02269555131048
 30
0.0
 10
247.5994317200756
 20
54.167239449911
 30
0.0
 10
247.6789929052999
 20
54.31722094925345
 30
0.0
 10
247.7801126770781
 20
54.53549782218276
 30
0.0
 10
247.886901065976
 20
54.83033228518677
 30
0.0
 10
247.9768291410554
 20
55.2084321413038
 30
0.0
 10
248.0258418884947
 20
55.60727245104036
 30
0.0
 10
248.0314149406467
 20
56.00061217162586
 30
0.0
 10
248.0000473619602
 20
56.3856294387603
 30
0.0
 10
247.9364517617236
 20
56.76071471354588
 30
0.0
 10
247.8394522462786
 20
57.1477845924829
 30
0.0
 10
247.7464352866835
 20
57.40473811930147
 30
0.0
 10
247.698924426224
 20
57.5359838965277
 30
0.0
  0
ARC
  5
2A1
330
1F
100
AcDbEntity
  8
0
  6
SLD-Сплошная
 62
     7
370
    25
100
AcDbCircle
 10
232.273227967
 20
51.9336605888
 30
0.0
 40
16.41152453905124
100
AcDbArc
 50
19.9600710886
 51
34.9167283401
  0
SPLINE
  5
2A2
330
1F
100
AcDbEntity
  8
0
  6
SLD-Сплошная
 62
     7
370
    25
100
AcDbSpline
210
0.0
220
0.0
230
1.0
 70
     8
 71
     3
 72
    13
 73
     9
 74
     0
 42
0.00000001
 43
0.00000001
 40
0.0
 40
0.0
 40
0.0
 40
0.0
 40
0.4999999999999946
 40
0.4999999999999946
 40
0.6249999999999952
 40
0.6249999999999952
 40
0.7499999999999958
 40
1.0
 40
1.0
 40
1.0
 40
1.0
 10
236.0711702818868
 20
62.4292402922032
 30
0.0
 10
237.6880210749964
 20
62.27245228608272
 30
0.0
 10
239.3055147962082
 20
62.10180805467666
 30
0.0
 10
241.3281954015072
 20
61.87097141337317
 30
0.0
 10
241.7281112890945
 20
61.82446706492925
 30
0.0
 10
242.5295414181398
 20
61.72956858122827
 30
0.0
 10
243.7311496662363
 20
61.58471035867322
 30
0.0
 10
244.9311469005542
 20
61.43231981584121
 30
0.0
 10
245.7304285447566
 20
61.32737605744268
 30
0.0
  0
ARC
  5
2A3
330
1F
100
AcDbEntity
  8
0
  6
SLD-Сплошная
 62
     7
370
    25
100
AcDbCircle
 10
221.2542963068
 20
51.9903296874
 30
0.0
 40
18.12486162729876
100
AcDbArc
 50
17.8164987237
 51
35.165788422
  0
SPLINE
  5
2A4
330
1F
100
AcDbEntity
  8
0
  6
SLD-Сплошная
 62
     7
370
    25
100
AcDbSpline
210
0.0
220
0.0
230
1.0
 70
     8
 71
     3
 72
    30
 73
    26
 74
     0
 42
0.00000001
 43
0.00000001
 40
0.0
 40
0.0
 40
0.0
 40
0.0
 40
0.0381218873689504
 40
0.0753397260764838
 40
0.1116610560672449
 40
0.1470939896125669
 40
0.1816472647162339
 40
0.2153303039930628
 40
0.2481532795371667
 40
0.3150401521742218
 40
0.3788874091441156
 40
0.4398275527645171
 40
0.4980129493668157
 40
0.5452258474677057
 40
0.5909349211261872
 40
0.6352714664405837
 40
0.6783793224999866
 40
0.7204149434117746
 40
0.7615470204864254
 40
0.8019555625412864
 40
0.8418303784639618
 40
0.8813689645025724
 40
0.9207738727507805
 40
0.9602497130720687
 40
1.0
 40
1.0
 40
1.0
 40
1.0
 10
238.5099136067095
 20
57.5359838965277
 30
0.0
 10
238.5364499241151
 20
57.46276799234307
 30
0.0
 10
238.5888932584409
 20
57.31807247629142
 30
0.0
 10
238.6774481653982
 20
57.09901733067959
 30
0.0
 10
238.7719156295864
 20
56.88228849110527
 30
0.0
 10
238.8728338100383
 20
56.66794148375529
 30
0.0
 10
238.9798000694688
 20
56.456443329615
 30
0.0
 10
239.0926404450074
 20
56.24812907363557
 30
0.0
 10
239.253090490172
 20
55.97077254866043
 30
0.0
 10
239.4720263328337
 20
55.6268323798724
 30
0.0
 10
239.7657061843075
 20
55.2211421936761
 30
0.0
 10
240.0825901103689
 20
54.83500061063329
 30
0.0
 10
240.4044733946327
 20
54.48874952111152
 30
0.0
 10
240.7252755993438
 20
54.18182800023463
 30
0.0
 10
241.0399110635428
 20
53.91217267039008
 30
0.0
 10
241.3669175125588
 20
53.66246366934605
 30
0.0
 10
241.7048725886228
 20
53.43425792163409
 30
0.0
 10
242.0522257191065
 20
53.22901377091321
 30
0.0
 10
242.4073065772298
 20
53.04807966113012
 30
0.0
 10
242.7683383978874
 20
52.89266153956129
 30
0.0
 10
243.1334162438528
 20
52.76389486505798
 30
0.0
 10
243.5006289072449
 20
52.66252475297015
 30
0.0
 10
243.8676606615892
 20
52.59003344939797
 30
0.0
 10
244.2333366689039
 20
52.54439537825828
 30
0.0
 10
244.4711573469648
 20
52.538794191447
 30
0.0
 10
244.590479602369
 20
52.5359838965277
 30
0.0
  0
LINE
  5
2A5
330
1F
100
AcDbEntity
  8
0
  6
SLD-Сплошная
 62
     7
370
    25
100
AcDbLine
 10
247.0427279203
 20
28.5359838965
 30
0.0
 11
247.0427279203
 21
28.8399112024
 31
0.0
  0
LINE
  5
2A6
330
1F
100
AcDbEntity
  8
0
  6
SLD-Сплошная
 62
     7
370
    25
100
AcDbLine
 10
247.0427279203
 20
30.2320565906
 30
0.0
 11
247.0427279203
 21
30.5359838965
 31
0.0
  0
LINE
  5
2A7
330
1F
100
AcDbEntity
  8
0
  6
SLD-Сплошная
 62
     7
370
    25
100
AcDbLine
 10
247.0427279203
 20
30.5359838965
 30
0.0
 11
247.0301994605
 21
30.5359838965
 31
0.0
  0
LINE
  5
2A8
330
1F
100
AcDbEntity
  8
0
  6
SLD-Сплошная
 62
     7
370
    25
100
AcDbLine
 10
268.3171334897
 20
32.5359838965
 30
0.0
 11
246.8354369393
 21
32.5359838965
 31
0.0
  0
LINE
  5
2A9
330
1F
100
AcDbEntity
  8
0
  6
SLD-Сплошная
 62
     7
370
    25
100
AcDbLine
 10
268.3171334897
 20
32.5359838965
 30
0.0
 11
268.3171334897
 21
26.5359838965
 31
0.0
  0
LINE
  5
2AA
330
1F
100
AcDbEntity
  8
0
  6
SLD-Сплошная
 62
     7
370
    25
100
AcDbLine
 10
268.3171334897
 20
26.5359838965
 30
0.0
 11
246.8354369393
 21
26.5359838965
 31
0.0
  0
LINE
  5
2AB
330
1F
100
AcDbEntity
  8
0
  6
SLD-Сплошная
 62
     7
370
    25
100
AcDbLine
 10
247.0301994605
 20
28.5359838965
 30
0.0
 11
247.0427279203
 21
28.5359838965
 31
0.0
  0
LINE
  5
2AC
330
1F
100
AcDbEntity
  8
0
  6
SLD-Сплошная
 62
     7
370
    25
100
AcDbLine
 10
270.7319480554
 20
32.5359838965
 30
0.0
 11
270.7319480554
 21
26.5359838965
 31
0.0
  0
LINE
  5
2AD
330
1F
100
AcDbEntity
  8
0
  6
SLD-Сплошная
 62
     7
370
    25
100
AcDbLine
 10
270.7319480554
 20
26.5359838965
 30
0.0
 11
268.3171334897
 21
26.5359838965
 31
0.0
  0
LINE
  5
2AE
330
1F
100
AcDbEntity
  8
0
  6
SLD-Сплошная
 62
     7
370
    25
100
AcDbLine
 10
270.7319480554
 20
32.5359838965
 30
0.0
 11
268.3171334897
 21
32.5359838965
 31
0.0
  0
SPLINE
  5
2AF
330
1F
100
AcDbEntity
  8
0
  6
SLD-Сплошная
 62
     7
370
    25
100
AcDbSpline
210
0.0
220
0.0
230
1.0
 70
    24
 71
     3
 72
    32
 73
    28
 74
     0
 42
0.00000001
 43
0.00000001
 40
0.0
 40
0.0
 40
0.0
 40
0.0
 40
0.0378899743865946
 40
0.103809019837333
 40
0.1367543024766016
 40
0.1696195301598597
 40
0.2356921058236437
 40
0.268631341918976
 40
0.3014582701802956
 40
0.3345617182710778
 40
0.367565017054639
 40
0.4006197568663911
 40
0.433608019455023
 40
0.4665519501258177
 40
0.4994774120895943
 40
0.5325557164374155
 40
0.5656688252277691
 40
0.5986273817559118
 40
0.6316687226278088
 40
0.6646054146776962
 40
0.6976583559528351
 40
0.7306948932351223
 40
0.7638621947751346
 40
0.8296939790521812
 40
0.8956902540099554
 40
0.9617554061785454
 40
1.0
 40
1.0
 40
1.0
 40
1.0
 10
302.9381235393197
 20
49.51037117332305
 30
0.0
 10
302.9381235393197
 20
49.52410502681648
 30
0.0
 10
302.9381235393197
 20
49.56173233833688
 30
0.0
 10
302.9381235393197
 20
48.8597724766755
 30
0.0
 10
302.9381235393198
 20
47.88056674740679
 30
0.0
 10
302.9381235393197
 20
46.62478540481194
 30
0.0
 10
302.9381235393199
 20
44.99511031756786
 30
0.0
 10
302.9381235393197
 20
43.03872117393151
 30
0.0
 10
302.9381235393199
 20
41.41988441960601
 30
0.0
 10
302.9381235393198
 20
39.66618058046281
 30
0.0
 10
302.9381235393198
 20
37.79040929815358
 30
0.0
 10
302.9381235393198
 20
35.82113919758234
 30
0.0
 10
302.9381235393198
 20
33.77833128341132
 30
0.0
 10
302.9381235393199
 20
31.68833084408937
 30
0.0
 10
302.9381235393199
 20
29.57059277613228
 30
0.0
 10
302.9381235393199
 20
27.44876762419132
 30
0.0
 10
302.9381235393198
 20
25.35146159061619
 30
0.0
 10
302.9381235393199
 20
23.30442544747874
 30
0.0
 10
302.9381235393198
 20
21.33503904626938
 30
0.0
 10
302.9381235393198
 20
19.45873006117055
 30
0.0
 10
302.9381235393199
 20
17.69967449900592
 30
0.0
 10
302.9381235393198
 20
16.07026675363388
 30
0.0
 10
302.9381235393197
 20
14.10759286488828
 30
0.0
 10
302.9381235393198
 20
12.05416860908101
 30
0.0
 10
302.9381235393197
 20
10.38253369500641
 30
0.0
 10
302.9381235393197
 20
9.51320700421851
 30
0.0
 10
302.9381235393197
 20
9.54943386960505
 30
0.0
 10
302.9381235393197
 20
9.562716250258758
 30
0.0
  0
SPLINE
  5
2B0
330
1F
100
AcDbEntity
  8
0
  6
SLD-Сплошная
 62
     7
370
    25
100
AcDbSpline
210
0.0
220
0.0
230
1.0
 70
     8
 71
     3
 72
    20
 73
    16
 74
     0
 42
0.00000001
 43
0.00000001
 40
0.0
 40
0.0
 40
0.0
 40
0.0
 40
0.0350069344720662
 40
0.1258296306011679
 40
0.2179654793931053
 40
0.3089170841033984
 40
0.3986467427480274
 40
0.4871194921357902
 40
0.5754289931280264
 40
0.6651866786777619
 40
0.7563572473012002
 40
0.84890220332109
 40
0.9087705092109478
 40
0.9697630530721545
 40
1.0
 40
1.0
 40
1.0
 40
1.0
 10
300.6342647376231
 20
14.12522558436616
 30
0.0
 10
300.7010522710968
 20
14.4018016829516
 30
0.0
 10
300.9411147270786
 20
15.3959323842813
 30
0.0
 10
301.15585239639
 20
17.41127032116419
 30
0.0
 10
301.44370200141
 20
20.14499500188158
 30
0.0
 10
301.6371007449811
 20
23.08426856272591
 30
0.0
 10
301.7594644666746
 20
26.11406274138722
 30
0.0
 10
301.8041404895147
 20
29.18467118004014
 30
0.0
 10
301.7755477651177
 20
32.26234859706781
 30
0.0
 10
301.671822840732
 20
35.31572128313012
 30
0.0
 10
301.4890670133973
 20
38.29395674100469
 30
0.0
 10
301.2659076835207
 20
40.782015179475
 30
0.0
 10
301.0153806116897
 20
42.7928798513692
 30
0.0
 10
300.8472168631528
 20
44.12944132189775
 30
0.0
 10
300.6827189734337
 20
44.85638274807926
 30
0.0
 10
300.6281980732493
 20
45.09731897531225
 30
0.0
  0
ARC
  5
2B1
330
1F
100
AcDbEntity
  8
0
  6
SLD-Сплошная
 62
     7
370
    25
100
AcDbCircle
 10
240.7419871367
 20
1.5876134376
 30
0.0
 40
4.988708579483889
100
AcDbArc
 50
359.4070193593
 51
66.9632681423
  0
ARC
  5
2B2
330
1F
100
AcDbEntity
  8
0
  6
SLD-Сплошная
 62
     7
370
    25
100
AcDbCircle
 10
240.7542574544
 20
57.4758472351
 30
0.0
 40
4.976534450649832
100
AcDbArc
 50
293.6243853579
 51
0.6923815744
  0
LINE
  5
2B3
330
1F
100
AcDbEntity
  8
0
  6
SLD-Сплошная
 62
     7
370
    25
100
AcDbLine
 10
245.7304285448
 20
61.3273760574
 30
0.0
 11
245.7304285448
 21
57.5359838965
 31
0.0
  0
LINE
  5
2B4
330
1F
100
AcDbEntity
  8
0
  6
SLD-Сплошная
 62
     7
370
    25
100
AcDbLine
 10
245.7304285448
 20
1.5359838965
 30
0.0
 11
245.7304285448
 21
-2.2554082644
 31
0.0
  0
ARC
  5
2B5
330
1F
100
AcDbEntity
  8
0
  6
SLD-Сплошная
 62
     7
370
    25
100
AcDbCircle
 10
240.8031339168
 20
57.5359838965
 30
0.0
 40
3.501362384731369
100
AcDbArc
 50
271.5983911499
 51
88.4016088501
  0
ARC
  5
2B6
330
1F
100
AcDbEntity
  8
0
  6
SLD-Сплошная
 62
     7
370
    25
100
AcDbCircle
 10
240.9358070084
 20
57.6513855889
 30
0.0
 40
3.384779348148857
100
AcDbArc
 50
90.5926008776
 51
154.0061751969
  0
ARC
  5
2B7
330
1F
100
AcDbEntity
  8
0
  6
SLD-Сплошная
 62
     7
370
    25
100
AcDbCircle
 10
240.8031339168
 20
1.5359838965
 30
0.0
 40
3.501362384731366
100
AcDbArc
 50
271.5983911499
 51
88.4016088501
  0
ARC
  5
2B8
330
1F
100
AcDbEntity
  8
0
  6
SLD-Сплошная
 62
     7
370
    25
100
AcDbCircle
 10
240.9306720474
 20
1.412459307
 30
0.0
 40
3.376607553697706
100
AcDbArc
 50
205.9081226866
 51
269.493101239
  0
LINE
  5
2B9
330
1F
100
AcDbEntity
  8
0
  6
SLD-Сплошная
 62
     7
370
    25
100
AcDbLine
 10
240.2660125908
 20
60.9737324144
 30
0.0
 11
240.2660125908
 21
58.0859838965
 31
0.0
  0
LINE
  5
2BA
330
1F
100
AcDbEntity
  8
0
  6
SLD-Сплошная
 62
     7
370
    25
100
AcDbLine
 10
240.2660125908
 20
58.0859838965
 30
0.0
 11
238.8171238514
 21
58.0859838965
 31
0.0
  0
LINE
  5
2BB
330
1F
100
AcDbEntity
  8
0
  6
SLD-Сплошная
 62
     7
370
    25
100
AcDbLine
 10
238.8171238514
 20
58.0859838965
 30
0.0
 11
238.8171238514
 21
56.9859838965
 31
0.0
  0
LINE
  5
2BC
330
1F
100
AcDbEntity
  8
0
  6
SLD-Сплошная
 62
     7
370
    25
100
AcDbLine
 10
238.8171238514
 20
56.9859838965
 30
0.0
 11
240.2660125908
 21
56.9859838965
 31
0.0
  0
LINE
  5
2BD
330
1F
100
AcDbEntity
  8
0
  6
SLD-Сплошная
 62
     7
370
    25
100
AcDbLine
 10
240.2660125908
 20
56.9859838965
 30
0.0
 11
240.2660125908
 21
54.6816459661
 31
0.0
  0
LINE
  5
2BE
330
1F
100
AcDbEntity
  8
0
  6
SLD-Сплошная
 62
     7
370
    25
100
AcDbLine
 10
240.2660125908
 20
4.4223206931
 30
0.0
 11
240.2660125908
 21
2.0859838965
 31
0.0
  0
LINE
  5
2BF
330
1F
100
AcDbEntity
  8
0
  6
SLD-Сплошная
 62
     7
370
    25
100
AcDbLine
 10
240.2660125908
 20
2.0859838965
 30
0.0
 11
238.8171238514
 21
2.0859838965
 31
0.0
  0
LINE
  5
2C0
330
1F
100
AcDbEntity
  8
0
  6
SLD-Сплошная
 62
     7
370
    25
100
AcDbLine
 10
238.8171238514
 20
2.0859838965
 30
0.0
 11
238.8171238514
 21
0.9859838965
 31
0.0
  0
LINE
  5
2C1
330
1F
100
AcDbEntity
  8
0
  6
SLD-Сплошная
 62
     7
370
    25
100
AcDbLine
 10
238.8171238514
 20
0.9859838965
 30
0.0
 11
240.2660125908
 21
0.9859838965
 31
0.0
  0
LINE
  5
2C2
330
1F
100
AcDbEntity
  8
0
  6
SLD-Сплошная
 62
     7
370
    25
100
AcDbLine
 10
240.2660125908
 20
0.9859838965
 30
0.0
 11
240.2660125908
 21
-1.9017646214
 31
0.0
  0
LINE
  5
2C3
330
1F
100
AcDbEntity
  8
0
  6
SLD-Сплошная
 62
     7
370
    25
100
AcDbLine
 10
240.9403024321
 20
54.07946831
 30
0.0
 11
241.3285309998
 21
54.07946831
 31
0.0
  0
ARC
  5
2C4
330
1F
100
AcDbEntity
  8
0
  6
SLD-Сплошная
 62
     7
370
    25
100
AcDbCircle
 10
240.6805133073
 20
57.5359838965
 30
0.0
 40
3.516735265804251
100
AcDbArc
 50
280.618390548
 51
79.381609452
  0
LINE
  5
2C5
330
1F
100
AcDbEntity
  8
0
  6
SLD-Сплошная
 62
     7
370
    25
100
AcDbLine
 10
241.3285309998
 20
60.9924994831
 30
0.0
 11
240.9403024321
 21
60.9924994831
 31
0.0
  0
ARC
  5
2C6
330
1F
100
AcDbEntity
  8
0
  6
SLD-Сплошная
 62
     7
370
    25
100
AcDbCircle
 10
240.4087137026
 20
57.7659240685
 30
0.0
 40
3.270072703021939
100
AcDbArc
 50
80.6443794595
 51
85.6820472648
  0
LINE
  5
2C7
330
1F
100
AcDbEntity
  8
0
  6
SLD-Сплошная
 62
     7
370
    25
100
AcDbLine
 10
240.9403024321
 20
-1.92053169
 30
0.0
 11
241.3285309998
 21
-1.92053169
 31
0.0
  0
ARC
  5
2C8
330
1F
100
AcDbEntity
  8
0
  6
SLD-Сплошная
 62
     7
370
    25
100
AcDbCircle
 10
240.6805133073
 20
1.5359838965
 30
0.0
 40
3.516735265804242
100
AcDbArc
 50
280.618390548
 51
79.381609452
  0
LINE
  5
2C9
330
1F
100
AcDbEntity
  8
0
  6
SLD-Сплошная
 62
     7
370
    25
100
AcDbLine
 10
241.3285309998
 20
4.9924994831
 30
0.0
 11
240.9403024321
 21
4.9924994831
 31
0.0
  0
ARC
  5
2CA
330
1F
100
AcDbEntity
  8
0
  6
SLD-Сплошная
 62
     7
370
    25
100
AcDbCircle
 10
240.4086933319
 20
1.306213631
 30
0.0
 40
3.270243660951776
100
AcDbArc
 50
274.3180844987
 51
279.355488779
  0
LINE
  5
2CB
330
1F
100
AcDbEntity
  8
0
  6
SLD-Сплошная
 62
     7
370
    25
100
AcDbLine
 10
241.3285309998
 20
54.07946831
 30
0.0
 11
241.3285309998
 21
56.9859838965
 31
0.0
  0
LINE
  5
2CC
330
1F
100
AcDbEntity
  8
0
  6
SLD-Сплошная
 62
     7
370
    25
100
AcDbLine
 10
241.3285309998
 20
56.9859838965
 30
0.0
 11
242.7774197392
 21
56.9859838965
 31
0.0
  0
LINE
  5
2CD
330
1F
100
AcDbEntity
  8
0
  6
SLD-Сплошная
 62
     7
370
    25
100
AcDbLine
 10
242.7774197392
 20
56.9859838965
 30
0.0
 11
242.7774197392
 21
58.0859838965
 31
0.0
  0
LINE
  5
2CE
330
1F
100
AcDbEntity
  8
0
  6
SLD-Сплошная
 62
     7
370
    25
100
AcDbLine
 10
242.7774197392
 20
58.0859838965
 30
0.0
 11
241.3285309998
 21
58.0859838965
 31
0.0
  0
LINE
  5
2CF
330
1F
100
AcDbEntity
  8
0
  6
SLD-Сплошная
 62
     7
370
    25
100
AcDbLine
 10
241.3285309998
 20
58.0859838965
 30
0.0
 11
241.3285309998
 21
60.9924994831
 31
0.0
  0
LINE
  5
2D0
330
1F
100
AcDbEntity
  8
0
  6
SLD-Сплошная
 62
     7
370
    25
100
AcDbLine
 10
240.9403024321
 20
58.0859838965
 30
0.0
 11
241.3285309998
 21
58.0859838965
 31
0.0
  0
LINE
  5
2D1
330
1F
100
AcDbEntity
  8
0
  6
SLD-Сплошная
 62
     7
370
    25
100
AcDbLine
 10
240.9403024321
 20
58.0859838965
 30
0.0
 11
240.9403024321
 21
60.9924994831
 31
0.0
  0
LINE
  5
2D2
330
1F
100
AcDbEntity
  8
0
  6
SLD-Сплошная
 62
     7
370
    25
100
AcDbLine
 10
240.9403024321
 20
54.07946831
 30
0.0
 11
240.9403024321
 21
56.9859838965
 31
0.0
  0
LINE
  5
2D3
330
1F
100
AcDbEntity
  8
0
  6
SLD-Сплошная
 62
     7
370
    25
100
AcDbLine
 10
240.9403024321
 20
56.9859838965
 30
0.0
 11
241.3285309998
 21
56.9859838965
 31
0.0
  0
LINE
  5
2D4
330
1F
100
AcDbEntity
  8
0
  6
SLD-Сплошная
 62
     7
370
    25
100
AcDbLine
 10
240.9403024321
 20
2.0859838965
 30
0.0
 11
241.3285309998
 21
2.0859838965
 31
0.0
  0
LINE
  5
2D5
330
1F
100
AcDbEntity
  8
0
  6
SLD-Сплошная
 62
     7
370
    25
100
AcDbLine
 10
240.9403024321
 20
2.0859838965
 30
0.0
 11
240.9403024321
 21
4.9924994831
 31
0.0
  0
LINE
  5
2D6
330
1F
100
AcDbEntity
  8
0
  6
SLD-Сплошная
 62
     7
370
    25
100
AcDbLine
 10
241.3285309998
 20
2.0859838965
 30
0.0
 11
241.3285309998
 21
4.9924994831
 31
0.0
  0
LINE
  5
2D7
330
1F
100
AcDbEntity
  8
0
  6
SLD-Сплошная
 62
     7
370
    25
100
AcDbLine
 10
241.3285309998
 20
-1.92053169
 30
0.0
 11
241.3285309998
 21
0.9859838965
 31
0.0
  0
LINE
  5
2D8
330
1F
100
AcDbEntity
  8
0
  6
SLD-Сплошная
 62
     7
370
    25
100
AcDbLine
 10
241.3285309998
 20
0.9859838965
 30
0.0
 11
242.7774197392
 21
0.9859838965
 31
0.0
  0
LINE
  5
2D9
330
1F
100
AcDbEntity
  8
0
  6
SLD-Сплошная
 62
     7
370
    25
100
AcDbLine
 10
242.7774197392
 20
0.9859838965
 30
0.0
 11
242.7774197392
 21
2.0859838965
 31
0.0
  0
LINE
  5
2DA
330
1F
100
AcDbEntity
  8
0
  6
SLD-Сплошная
 62
     7
370
    25
100
AcDbLine
 10
242.7774197392
 20
2.0859838965
 30
0.0
 11
241.3285309998
 21
2.0859838965
 31
0.0
  0
LINE
  5
2DB
330
1F
100
AcDbEntity
  8
0
  6
SLD-Сплошная
 62
     7
370
    25
100
AcDbLine
 10
240.9403024321
 20
0.9859838965
 30
0.0
 11
241.3285309998
 21
0.9859838965
 31
0.0
  0
LINE
  5
2DC
330
1F
100
AcDbEntity
  8
0
  6
SLD-Сплошная
 62
     7
370
    25
100
AcDbLine
 10
240.9403024321
 20
-1.92053169
 30
0.0
 11
240.9403024321
 21
0.9859838965
 31
0.0
  0
LINE
  5
2DD
330
1F
100
AcDbEntity
  8
0
  6
SLD-Сплошная
 62
     7
370
    25
100
AcDbLine
 10
242.3891911715
 20
56.9859838965
 30
0.0
 11
242.3891911715
 21
58.0859838965
 31
0.0
  0
LINE
  5
2DE
330
1F
100
AcDbEntity
  8
0
  6
SLD-Сплошная
 62
     7
370
    25
100
AcDbLine
 10
242.3891911715
 20
0.9859838965
 30
0.0
 11
242.3891911715
 21
2.0859838965
 31
0.0
  0
SPLINE
  5
2DF
330
1F
100
AcDbEntity
  8
0
  6
SLD-Сплошная
 62
     7
370
    25
100
AcDbSpline
210
0.0
220
0.0
230
1.0
 70
     8
 71
     3
 72
    10
 73
     6
 74
     0
 42
0.00000001
 43
0.00000001
 40
0.0
 40
0.0
 40
0.0
 40
0.0
 40
0.4424748942235658
 40
0.7392223139883087
 40
1.0
 40
1.0
 40
1.0
 40
1.0
 10
222.5804074592482
 20
-7.358914048243265
 30
0.0
 10
221.8138352663782
 20
-7.381973682077103
 30
0.0
 10
220.5331586050576
 20
-7.420498344391069
 30
0.0
 10
218.8306658649258
 20
-6.973614894419749
 30
0.0
 10
218.0044050918353
 20
-6.454342292049859
 30
0.0
 10
217.6179285543372
 20
-6.211456893253809
 30
0.0
  0
SPLINE
  5
2E0
330
1F
100
AcDbEntity
  8
0
  6
SLD-Сплошная
 62
     7
370
    25
100
AcDbSpline
210
0.0
220
0.0
230
1.0
 70
     8
 71
     3
 72
    10
 73
     6
 74
     0
 42
0.00000001
 43
0.00000001
 40
0.0
 40
0.0
 40
0.0
 40
0.0
 40
0.2614192957052639
 40
0.5589737566637543
 40
1.0
 40
1.0
 40
1.0
 40
1.0
 10
217.6188898382893
 20
65.28338561072269
 30
0.0
 10
218.0054835197973
 20
65.52632233878356
 30
0.0
 10
218.832108508867
 20
66.04577617308985
 30
0.0
 10
220.5309332722873
 20
66.4917795880833
 30
0.0
 10
221.8077004563254
 20
66.45383554865083
 30
0.0
 10
222.5700922051444
 20
66.43117815038602
 30
0.0
  0
ENDSEC
  0
SECTION
  2
OBJECTS
  0
DICTIONARY
  5
C
330
0
100
AcDbDictionary
281
     1
  3
ACAD_GROUP
350
D
  3
ACAD_LAYOUT
350
1A
  3
ACAD_MLINESTYLE
350
17
  3
ACAD_PLOTSETTINGS
350
19
  3
ACAD_PLOTSTYLENAME
350
E
  3
ACAD_SCALELIST
350
47
  3
DWGPROPS
350
2E1
  0
DICTIONARY
  5
D
102
{ACAD_REACTORS
330
C
102
}
330
C
100
AcDbDictionary
281
     1
  0
DICTIONARY
  5
1A
102
{ACAD_REACTORS
330
C
102
}
330
C
100
AcDbDictionary
281
     1
  3
Layout1
350
1E
  3
Layout2
350
26
  3
Model
350
22
  0
DICTIONARY
  5
17
102
{ACAD_REACTORS
330
C
102
}
330
C
100
AcDbDictionary
281
     1
  3
Standard
350
18
  0
DICTIONARY
  5
19
102
{ACAD_REACTORS
330
C
102
}
330
C
100
AcDbDictionary
281
     1
  0
ACDBDICTIONARYWDFLT
  5
E
102
{ACAD_REACTORS
330
C
102
}
330
C
100
AcDbDictionary
281
     1
  3
Normal
350
F
100
AcDbDictionaryWithDefault
340
F
  0
DICTIONARY
  5
47
102
{ACAD_REACTORS
330
C
102
}
330
C
100
AcDbDictionary
281
     1
  3
A0
350
48
  3
A1
350
49
  3
A2
350
4A
  3
A3
350
4B
  3
A4
350
4C
  3
A5
350
4D
  3
A6
350
4E
  3
A7
350
4F
  3
A8
350
50
  3
A9
350
51
  3
B0
350
52
  3
B1
350
53
  3
B2
350
54
  3
B3
350
55
  3
B4
350
56
  3
B5
350
57
  3
B6
350
58
  0
XRECORD
  5
2E1
102
{ACAD_REACTORS
330
C
102
}
330
C
100
AcDbXrecord
280
     1
  1
DWGPROPS COOKIE
  2

  3

  4

  6

  7

  8
inyankin
  9

300
=
301
=
302
=
303
=
304
=
305
=
306
=
307
=
308
=
309
=
 40
0.0
 41
2460934.500845324
 42
2460934.500846134
  1

 90
        0
  0
LAYOUT
  5
1E
102
{ACAD_REACTORS
330
1A
102
}
330
1A
100
AcDbPlotSettings
  1

  2
none_device
  4

  6

 40
0.0
 41
0.0
 42
0.0
 43
0.0
 44
0.0
 45
0.0
 46
0.0
 47
0.0
 48
0.0
 49
0.0
140
0.0
141
0.0
142
1.0
143
1.0
 70
   688
 72
     1
 73
     0
 74
     5
  7

 75
    16
147
1.0
148
0.0
149
0.0
100
AcDbLayout
  1
Layout1
 70
     1
 71
     1
 10
0.0
 20
0.0
 11
420.0
 21
297.0
 12
0.0
 22
0.0
 32
0.0
 14
1.0000000000E+20
 24
1.0000000000E+20
 34
1.0000000000E+20
 15
-1.0000000000E+20
 25
-1.0000000000E+20
 35
-1.0000000000E+20
146
0.0
 13
0.0
 23
0.0
 33
0.0
 16
1.0
 26
0.0
 36
0.0
 17
0.0
 27
1.0
 37
0.0
 76
     0
330
1B
  0
LAYOUT
  5
26
102
{ACAD_REACTORS
330
1A
102
}
330
1A
100
AcDbPlotSettings
  1

  2
none_device
  4

  6

 40
0.0
 41
0.0
 42
0.0
 43
0.0
 44
0.0
 45
0.0
 46
0.0
 47
0.0
 48
0.0
 49
0.0
140
0.0
141
0.0
142
1.0
143
1.0
 70
   688
 72
     1
 73
     0
 74
     5
  7

 75
    16
147
1.0
148
0.0
149
0.0
100
AcDbLayout
  1
Layout2
 70
     1
 71
     2
 10
0.0
 20
0.0
 11
0.0
 21
0.0
 12
0.0
 22
0.0
 32
0.0
 14
0.0
 24
0.0
 34
0.0
 15
0.0
 25
0.0
 35
0.0
146
0.0
 13
0.0
 23
0.0
 33
0.0
 16
1.0
 26
0.0
 36
0.0
 17
0.0
 27
1.0
 37
0.0
 76
     0
330
23
  0
LAYOUT
  5
22
102
{ACAD_REACTORS
330
1A
102
}
330
1A
100
AcDbPlotSettings
  1

  2
none_device
  4
Letter_(8.50_x_11.00_Inches)
  6

 40
6.35
 41
6.35
 42
6.35000508
 43
6.35000508
 44
215.9
 45
279.4
 46
0.0
 47
0.0
 48
0.0
 49
0.0
140
0.0
141
0.0
142
1.0
143
1.0
 70
  1712
 72
     1
 73
     0
 74
     0
  7

 75
     0
147
1.0
148
0.0
149
0.0
100
AcDbLayout
  1
Model
 70
     1
 71
     0
 10
0.0
 20
0.0
 11
431.8
 21
279.4
 12
0.0
 22
0.0
 32
0.0
 14
0.0
 24
0.0
 34
0.0
 15
431.8
 25
279.4
 35
0.0
146
0.0
 13
0.0
 23
0.0
 33
0.0
 16
1.0
 26
0.0
 36
0.0
 17
0.0
 27
1.0
 37
0.0
 76
     0
330
1F
331
29
  0
MLINESTYLE
  5
18
102
{ACAD_REACTORS
330
17
102
}
330
17
100
AcDbMlineStyle
  2
Standard
 70
     0
  3

 62
   256
 51
90.0
 52
90.0
 71
     2
 49
0.5
 62
   256
  6
BYLAYER
 49
-0.5
 62
   256
  6
BYLAYER
  0
ACDBPLACEHOLDER
  5
F
102
{ACAD_REACTORS
330
E
102
}
330
E
  0
SCALE
  5
48
102
{ACAD_REACTORS
330
47
102
}
330
47
100
AcDbScale
 70
     0
300
1:1
140
1.0
141
1.0
290
     1
  0
SCALE
  5
49
102
{ACAD_REACTORS
330
47
102
}
330
47
100
AcDbScale
 70
     0
300
1:2
140
1.0
141
2.0
290
     0
  0
SCALE
  5
4A
102
{ACAD_REACTORS
330
47
102
}
330
47
100
AcDbScale
 70
     0
300
1:4
140
1.0
141
4.0
290
     0
  0
SCALE
  5
4B
102
{ACAD_REACTORS
330
47
102
}
330
47
100
AcDbScale
 70
     0
300
1:5
140
1.0
141
5.0
290
     0
  0
SCALE
  5
4C
102
{ACAD_REACTORS
330
47
102
}
330
47
100
AcDbScale
 70
     0
300
1:8
140
1.0
141
8.0
290
     0
  0
SCALE
  5
4D
102
{ACAD_REACTORS
330
47
102
}
330
47
100
AcDbScale
 70
     0
300
1:10
140
1.0
141
10.0
290
     0
  0
SCALE
  5
4E
102
{ACAD_REACTORS
330
47
102
}
330
47
100
AcDbScale
 70
     0
300
1:16
140
1.0
141
16.0
290
     0
  0
SCALE
  5
4F
102
{ACAD_REACTORS
330
47
102
}
330
47
100
AcDbScale
 70
     0
300
1:20
140
1.0
141
20.0
290
     0
  0
SCALE
  5
50
102
{ACAD_REACTORS
330
47
102
}
330
47
100
AcDbScale
 70
     0
300
1:30
140
1.0
141
30.0
290
     0
  0
SCALE
  5
51
102
{ACAD_REACTORS
330
47
102
}
330
47
100
AcDbScale
 70
     0
300
1:40
140
1.0
141
40.0
290
     0
  0
SCALE
  5
52
102
{ACAD_REACTORS
330
47
102
}
330
47
100
AcDbScale
 70
     0
300
1:50
140
1.0
141
50.0
290
     0
  0
SCALE
  5
53
102
{ACAD_REACTORS
330
47
102
}
330
47
100
AcDbScale
 70
     0
300
1:100
140
1.0
141
100.0
290
     0
  0
SCALE
  5
54
102
{ACAD_REACTORS
330
47
102
}
330
47
100
AcDbScale
 70
     0
300
2:1
140
2.0
141
1.0
290
     0
  0
SCALE
  5
55
102
{ACAD_REACTORS
330
47
102
}
330
47
100
AcDbScale
 70
     0
300
4:1
140
4.0
141
1.0
290
     0
  0
SCALE
  5
56
102
{ACAD_REACTORS
330
47
102
}
330
47
100
AcDbScale
 70
     0
300
8:1
140
8.0
141
1.0
290
     0
  0
SCALE
  5
57
102
{ACAD_REACTORS
330
47
102
}
330
47
100
AcDbScale
 70
     0
300
10:1
140
10.0
141
1.0
290
     0
  0
SCALE
  5
58
102
{ACAD_REACTORS
330
47
102
}
330
47
100
AcDbScale
 70
     0
300
100:1
140
100.0
141
1.0
290
     0
  0
ENDSEC
  0
EOF
