  0
SECTION
  2
HEADER
  9
$ACADVER
  1
AC1015
  9
$ACADMAINTVER
 70
     6
  9
$DWGCODEPAGE
  3
ANSI_1251
  9
$INSBASE
 10
0.0
 20
0.0
 30
0.0
  9
$EXTMIN
 10
0.0
 20
0.0
 30
0.0
  9
$EXTMAX
 10
841.0
 20
594.0
 30
0.0
  9
$LIMMIN
 10
0.0
 20
0.0
  9
$LIMMAX
 10
841.0
 20
594.0
  9
$ORTHOMODE
 70
     0
  9
$REGENMODE
 70
     1
  9
$FILLMODE
 70
     1
  9
$QTEXTMODE
 70
     0
  9
$MIRRTEXT
 70
     1
  9
$LTSCALE
 40
1.0
  9
$ATTMODE
 70
     1
  9
$TEXTSIZE
 40
3.5
  9
$TRACEWID
 40
1.0
  9
$TEXTSTYLE
  7
Standard
  9
$CLAYER
  8
0
  9
$CELTYPE
  6
ByLayer
  9
$CECOLOR
 62
   256
  9
$CELTSCALE
 40
1.0
  9
$DISPSILH
 70
     0
  9
$DIMSCALE
 40
1.0
  9
$DIMASZ
 40
3.5
  9
$DIMEXO
 40
0.01
  9
$DIMDLI
 40
3.75
  9
$DIMRND
 40
0.0
  9
$DIMDLE
 40
0.0
  9
$DIMEXE
 40
1.0
  9
$DIMTP
 40
0.0
  9
$DIMTM
 40
0.0
  9
$DIMTXT
 40
3.5
  9
$DIMCEN
 40
2.5
  9
$DIMTSZ
 40
0.0
  9
$DIMTOL
 70
     0
  9
$DIMLIM
 70
     0
  9
$DIMTIH
 70
     1
  9
$DIMTOH
 70
     1
  9
$DIMSE1
 70
     0
  9
$DIMSE2
 70
     0
  9
$DIMTAD
 70
     1
  9
$DIMZIN
 70
     0
  9
$DIMBLK
  1

  9
$DIMASO
 70
     1
  9
$DIMSHO
 70
     1
  9
$DIMPOST
  1

  9
$DIMAPOST
  1

  9
$DIMALT
 70
     0
  9
$DIMALTD
 70
     3
  9
$DIMALTF
 40
0.0393700787
  9
$DIMLFAC
 40
1.0
  9
$DIMTOFL
 70
     1
  9
$DIMTVP
 40
0.0
  9
$DIMTIX
 70
     0
  9
$DIMSOXD
 70
     0
  9
$DIMSAH
 70
     0
  9
$DIMBLK1
  1

  9
$DIMBLK2
  1

  9
$DIMSTYLE
  2
ISO-25
  9
$DIMCLRD
 70
     0
  9
$DIMCLRE
 70
     0
  9
$DIMCLRT
 70
     0
  9
$DIMTFAC
 40
1.0
  9
$DIMGAP
 40
3.0
  9
$DIMJUST
 70
     0
  9
$DIMSD1
 70
     0
  9
$DIMSD2
 70
     0
  9
$DIMTOLJ
 70
     0
  9
$DIMTZIN
 70
     0
  9
$DIMALTZ
 70
     0
  9
$DIMALTTZ
 70
     0
  9
$DIMUPT
 70
     0
  9
$DIMDEC
 70
     2
  9
$DIMTDEC
 70
     3
  9
$DIMALTU
 70
     2
  9
$DIMALTTD
 70
     3
  9
$DIMTXSTY
  7
Standard
  9
$DIMAUNIT
 70
     0
  9
$DIMADEC
 70
     2
  9
$DIMALTRND
 40
0.0
  9
$DIMAZIN
 70
     0
  9
$DIMDSEP
 70
    44
  9
$DIMATFIT
 70
     3
  9
$DIMFRAC
 70
     0
  9
$DIMLDRBLK
  1

  9
$DIMLUNIT
 70
     2
  9
$DIMLWD
 70
    -2
  9
$DIMLWE
 70
    -2
  9
$DIMTMOVE
 70
     0
  9
$LUNITS
 70
     2
  9
$LUPREC
 70
     2
  9
$SKETCHINC
 40
1.0
  9
$FILLETRAD
 40
10.0
  9
$AUNITS
 70
     0
  9
$AUPREC
 70
     2
  9
$MENU
  1
.
  9
$ELEVATION
 40
0.0
  9
$PELEVATION
 40
0.0
  9
$THICKNESS
 40
0.0
  9
$LIMCHECK
 70
     0
  9
$CHAMFERA
 40
0.0
  9
$CHAMFERB
 40
0.0
  9
$CHAMFERC
 40
0.0
  9
$CHAMFERD
 40
0.0
  9
$SKPOLY
 70
     0
  9
$TDCREATE
 40
2459732.590231308
  9
$TDUCREATE
 40
2459732.465231308
  9
$TDUPDATE
 40
2459732.590232871
  9
$TDUUPDATE
 40
2459732.465232871
  9
$TDINDWG
 40
0.0000000116
  9
$TDUSRTIMER
 40
0.0000000116
  9
$USRTIMER
 70
     1
  9
$ANGBASE
 50
0.0
  9
$ANGDIR
 70
     0
  9
$PDMODE
 70
     0
  9
$PDSIZE
 40
-1.0
  9
$PLINEWID
 40
0.0
  9
$SPLFRAME
 70
     0
  9
$SPLINETYPE
 70
     6
  9
$SPLINESEGS
 70
     8
  9
$HANDSEED
  5
4D3
  9
$SURFTAB1
 70
     6
  9
$SURFTAB2
 70
     6
  9
$SURFTYPE
 70
     6
  9
$SURFU
 70
     6
  9
$SURFV
 70
     6
  9
$UCSBASE
  2

  9
$UCSNAME
  2

  9
$UCSORG
 10
0.0
 20
0.0
 30
0.0
  9
$UCSXDIR
 10
1.0
 20
0.0
 30
0.0
  9
$UCSYDIR
 10
0.0
 20
1.0
 30
0.0
  9
$UCSORTHOREF
  2

  9
$UCSORTHOVIEW
 70
     0
  9
$UCSORGTOP
 10
0.0
 20
0.0
 30
0.0
  9
$UCSORGBOTTOM
 10
0.0
 20
0.0
 30
0.0
  9
$UCSORGLEFT
 10
0.0
 20
0.0
 30
0.0
  9
$UCSORGRIGHT
 10
0.0
 20
0.0
 30
0.0
  9
$UCSORGFRONT
 10
0.0
 20
0.0
 30
0.0
  9
$UCSORGBACK
 10
0.0
 20
0.0
 30
0.0
  9
$PUCSBASE
  2

  9
$PUCSNAME
  2

  9
$PUCSORG
 10
0.0
 20
0.0
 30
0.0
  9
$PUCSXDIR
 10
1.0
 20
0.0
 30
0.0
  9
$PUCSYDIR
 10
0.0
 20
1.0
 30
0.0
  9
$PUCSORTHOREF
  2

  9
$PUCSORTHOVIEW
 70
     0
  9
$PUCSORGTOP
 10
0.0
 20
0.0
 30
0.0
  9
$PUCSORGBOTTOM
 10
0.0
 20
0.0
 30
0.0
  9
$PUCSORGLEFT
 10
0.0
 20
0.0
 30
0.0
  9
$PUCSORGRIGHT
 10
0.0
 20
0.0
 30
0.0
  9
$PUCSORGFRONT
 10
0.0
 20
0.0
 30
0.0
  9
$PUCSORGBACK
 10
0.0
 20
0.0
 30
0.0
  9
$USERI1
 70
     0
  9
$USERI2
 70
     0
  9
$USERI3
 70
     0
  9
$USERI4
 70
     0
  9
$USERI5
 70
     0
  9
$USERR1
 40
0.0
  9
$USERR2
 40
0.0
  9
$USERR3
 40
0.0
  9
$USERR4
 40
0.0
  9
$USERR5
 40
0.0
  9
$WORLDVIEW
 70
     1
  9
$SHADEDGE
 70
     3
  9
$SHADEDIF
 70
    70
  9
$TILEMODE
 70
     1
  9
$MAXACTVP
 70
    64
  9
$PINSBASE
 10
0.0
 20
0.0
 30
0.0
  9
$PLIMCHECK
 70
     0
  9
$PEXTMIN
 10
1.0000000000E+20
 20
1.0000000000E+20
 30
1.0000000000E+20
  9
$PEXTMAX
 10
-1.0000000000E+20
 20
-1.0000000000E+20
 30
-1.0000000000E+20
  9
$PLIMMIN
 10
0.0
 20
0.0
  9
$PLIMMAX
 10
420.0
 20
297.0
  9
$UNITMODE
 70
     0
  9
$VISRETAIN
 70
     1
  9
$PLINEGEN
 70
     0
  9
$PSLTSCALE
 70
     1
  9
$TREEDEPTH
 70
  3020
  9
$CMLSTYLE
  2
Standard
  9
$CMLJUST
 70
     0
  9
$CMLSCALE
 40
20.0
  9
$PROXYGRAPHICS
 70
     1
  9
$MEASUREMENT
 70
     1
  9
$CELWEIGHT
370
    -1
  9
$ENDCAPS
280
     0
  9
$JOINSTYLE
280
     0
  9
$LWDISPLAY
290
     1
  9
$INSUNITS
 70
     4
  9
$HYPERLINKBASE
  1

  9
$STYLESHEET
  1

  9
$XEDIT
290
     1
  9
$CEPSNTYPE
380
     0
  9
$PSTYLEMODE
290
     1
  9
$FINGERPRINTGUID
  2
{F45F561E-5F86-40B8-B92E-E0619F5E46AF}
  9
$VERSIONGUID
  2
{FAEB1C32-E019-11D5-929B-00C0DF256EC4}
  9
$EXTNAMES
290
     1
  9
$PSVPSCALE
 40
0.0
  9
$OLESTARTUP
290
     0
  0
ENDSEC
  0
SECTION
  2
CLASSES
  0
CLASS
  1
ACDBDICTIONARYWDFLT
  2
AcDbDictionaryWithDefault
  3
ObjectDBX Classes
 90
        0
280
     0
281
     0
  0
CLASS
  1
VISUALSTYLE
  2
AcDbVisualStyle
  3
ObjectDBX Classes
 90
     4095
280
     0
281
     0
  0
CLASS
  1
MATERIAL
  2
AcDbMaterial
  3
ObjectDBX Classes
 90
     1153
280
     0
281
     0
  0
CLASS
  1
SCALE
  2
AcDbScale
  3
ObjectDBX Classes
 90
     1153
280
     0
281
     0
  0
CLASS
  1
TABLESTYLE
  2
AcDbTableStyle
  3
ObjectDBX Classes
 90
     4095
280
     0
281
     0
  0
CLASS
  1
MLEADERSTYLE
  2
AcDbMLeaderStyle
  3
ACDB_MLEADERSTYLE_CLASS
 90
     4095
280
     0
281
     0
  0
CLASS
  1
SUN
  2
AcDbSun
  3
SCENEOE
 90
     1153
280
     0
281
     0
  0
CLASS
  1
ACDBPLACEHOLDER
  2
AcDbPlaceHolder
  3
ObjectDBX Classes
 90
        0
280
     0
281
     0
  0
CLASS
  1
LAYOUT
  2
AcDbLayout
  3
ObjectDBX Classes
 90
        0
280
     0
281
     0
  0
ENDSEC
  0
SECTION
  2
TABLES
  0
TABLE
  2
VPORT
  5
8
330
0
100
AcDbSymbolTable
 70
     1
  0
VPORT
  5
29
330
8
100
AcDbSymbolTableRecord
100
AcDbViewportTableRecord
  2
*Active
 70
     0
 10
0.0
 20
0.0
 11
1.0
 21
1.0
 12
420.5
 22
297.0
 13
0.0
 23
0.0
 14
10.0
 24
10.0
 15
10.0
 25
10.0
 16
0.0
 26
0.0
 36
1.0
 17
0.0
 27
0.0
 37
0.0
 40
594.0
 41
1.4158249158
 42
50.0
 43
0.0
 44
0.0
 50
0.0
 51
0.0
 71
     0
 72
  2000
 73
     1
 74
     3
 75
     0
 76
     0
 77
     0
 78
     0
281
     0
 65
     1
110
0.0
120
0.0
130
0.0
111
1.0
121
0.0
131
0.0
112
0.0
122
1.0
132
0.0
 79
     0
146
0.0
  0
ENDTAB
  0
TABLE
  2
LTYPE
  5
5
330
0
100
AcDbSymbolTable
 70
     6
  0
LTYPE
  5
14
330
5
100
AcDbSymbolTableRecord
100
AcDbLinetypeTableRecord
  2
ByBlock
 70
     0
  3

 72
    65
 73
     0
 40
0.0
  0
LTYPE
  5
15
330
5
100
AcDbSymbolTableRecord
100
AcDbLinetypeTableRecord
  2
ByLayer
 70
     0
  3

 72
    65
 73
     0
 40
0.0
  0
LTYPE
  5
16
330
5
100
AcDbSymbolTableRecord
100
AcDbLinetypeTableRecord
  2
Continuous
 70
     0
  3
Solid line
 72
    65
 73
     0
 40
0.0
  0
LTYPE
  5
6E
330
5
100
AcDbSymbolTableRecord
100
AcDbLinetypeTableRecord
  2
HIDDEN
 70
     0
  3
Hidden __ __ __ __ __ __ __ __ __ __ __ __ __ __
 72
    65
 73
     2
 40
1.905
 49
1.27
 74
     0
 49
-0.635
 74
     0
  0
LTYPE
  5
6F
330
5
100
AcDbSymbolTableRecord
100
AcDbLinetypeTableRecord
  2
PHANTOM
 70
     0
  3
Phantom ______  __  __  ______  __  __  ______
 72
    65
 73
     6
 40
12.7
 49
6.35
 74
     0
 49
-1.27
 74
     0
 49
1.27
 74
     0
 49
-1.27
 74
     0
 49
1.27
 74
     0
 49
-1.27
 74
     0
  0
LTYPE
  5
70
330
5
100
AcDbSymbolTableRecord
100
AcDbLinetypeTableRecord
  2
CENTER
 70
     0
  3
Center ____ _ ____ _ ____ _ ____ _ ____ _ ____
 72
    65
 73
     4
 40
10.16
 49
6.35
 74
     0
 49
-1.27
 74
     0
 49
1.27
 74
     0
 49
-1.27
 74
     0
  0
LTYPE
  5
71
330
5
100
AcDbSymbolTableRecord
100
AcDbLinetypeTableRecord
  2
CENTERX2
 70
     0
  3
Center (2x) ________  __  ________  __  _____
 72
    65
 73
     4
 40
20.32
 49
12.7
 74
     0
 49
-2.54
 74
     0
 49
2.54
 74
     0
 49
-2.54
 74
     0
  0
LTYPE
  5
72
330
5
100
AcDbSymbolTableRecord
100
AcDbLinetypeTableRecord
  2
DOT2
 70
     0
  3
Dot (.5x) ........................................
 72
    65
 73
     2
 40
0.635
 49
0.0
 74
     0
 49
-0.635
 74
     0
  0
ENDTAB
  0
TABLE
  2
LAYER
  5
2
330
0
100
AcDbSymbolTable
 70
     1
  0
LAYER
  5
10
330
2
100
AcDbSymbolTableRecord
100
AcDbLayerTableRecord
  2
0
 70
     0
 62
     7
  6
Continuous
370
    -3
390
F
  0
ENDTAB
  0
TABLE
  2
STYLE
  5
3
330
0
100
AcDbSymbolTable
 70
     1
  0
STYLE
  5
11
330
3
100
AcDbSymbolTableRecord
100
AcDbTextStyleTableRecord
  2
Standard
 70
     0
 40
0.0
 41
1.0
 50
0.0
 71
     0
 42
3.5
  3
txt
  4

  0
ENDTAB
  0
TABLE
  2
VIEW
  5
6
330
0
100
AcDbSymbolTable
 70
     0
  0
ENDTAB
  0
TABLE
  2
UCS
  5
7
330
0
100
AcDbSymbolTable
 70
     0
  0
ENDTAB
  0
TABLE
  2
APPID
  5
9
330
0
100
AcDbSymbolTable
 70
     1
  0
APPID
  5
12
330
9
100
AcDbSymbolTableRecord
100
AcDbRegAppTableRecord
  2
ACAD
 70
     0
  0
ENDTAB
  0
TABLE
  2
DIMSTYLE
  5
A
330
0
100
AcDbSymbolTable
 70
     1
100
AcDbDimStyleTable
  0
DIMSTYLE
105
27
330
A
100
AcDbSymbolTableRecord
100
AcDbDimStyleTableRecord
  2
ISO-25
 70
     0
 41
2.5
 42
0.625
 43
3.75
 44
1.25
 73
     0
 74
     0
 77
     1
 78
     8
140
2.5
141
2.5
143
0.0393700787
147
0.625
171
     3
172
     1
178
     0
271
     2
272
     2
274
     3
278
    44
283
     0
284
     8
340
11
  0
ENDTAB
  0
TABLE
  2
BLOCK_RECORD
  5
1
330
0
100
AcDbSymbolTable
 70
     1
  0
BLOCK_RECORD
  5
1F
330
1
100
AcDbSymbolTableRecord
100
AcDbBlockTableRecord
  2
*Model_Space
340
22
  0
BLOCK_RECORD
  5
1B
330
1
100
AcDbSymbolTableRecord
100
AcDbBlockTableRecord
  2
*Paper_Space
340
1E
  0
BLOCK_RECORD
  5
23
330
1
100
AcDbSymbolTableRecord
100
AcDbBlockTableRecord
  2
*Paper_Space0
340
26
  0
ENDTAB
  0
ENDSEC
  0
SECTION
  2
BLOCKS
  0
BLOCK
  5
20
330
1F
100
AcDbEntity
  8
0
100
AcDbBlockBegin
  2
*Model_Space
 70
     0
 10
0.0
 20
0.0
 30
0.0
  3
*Model_Space
  1

  0
ENDBLK
  5
21
330
1F
100
AcDbEntity
  8
0
100
AcDbBlockEnd
  0
BLOCK
  5
1C
330
1B
100
AcDbEntity
 67
     1
  8
0
100
AcDbBlockBegin
  2
*Paper_Space
 70
     0
 10
0.0
 20
0.0
 30
0.0
  3
*Paper_Space
  1

  0
ENDBLK
  5
1D
330
1B
100
AcDbEntity
 67
     1
  8
0
100
AcDbBlockEnd
  0
BLOCK
  5
24
330
23
100
AcDbEntity
  8
0
100
AcDbBlockBegin
  2
*Paper_Space0
 70
     0
 10
0.0
 20
0.0
 30
0.0
  3
*Paper_Space0
  1

  0
ENDBLK
  5
25
330
23
100
AcDbEntity
  8
0
100
AcDbBlockEnd
  0
ENDSEC
  0
SECTION
  2
ENTITIES
  0
ARC
  5
73
330
1F
100
AcDbEntity
  8
0
  6
Continuous
 62
     7
370
    25
100
AcDbCircle
 10
864.4433501725
 20
388.028893827
 30
0.0
 40
0.5000000000001137
100
AcDbArc
 50
180.0
 51
0.0
  0
ARC
  5
74
330
1F
100
AcDbEntity
  8
0
  6
Continuous
 62
     7
370
    25
100
AcDbCircle
 10
864.4433501725
 20
399.6288938272
 30
0.0
 40
0.5
100
AcDbArc
 50
0.0
 51
180.0
  0
LINE
  5
75
330
1F
100
AcDbEntity
  8
0
  6
Continuous
 62
     7
370
    25
100
AcDbLine
 10
859.9433501725
 20
388.8288938271
 30
0.0
 11
860.1539292275
 21
388.4641602049
 31
0.0
  0
LINE
  5
76
330
1F
100
AcDbEntity
  8
0
  6
Continuous
 62
     7
370
    25
100
AcDbLine
 10
874.4021001725
 20
396.8288938271
 30
0.0
 11
865.7433501725
 21
396.8288938271
 31
0.0
  0
LINE
  5
77
330
1F
100
AcDbEntity
  8
0
  6
Continuous
 62
     7
370
    25
100
AcDbLine
 10
865.7433501725
 20
390.8288938271
 30
0.0
 11
874.4021001725
 21
390.8288938271
 31
0.0
  0
LINE
  5
78
330
1F
100
AcDbEntity
  8
0
  6
Continuous
 62
     7
370
    25
100
AcDbLine
 10
874.4021001725
 20
390.8288938271
 30
0.0
 11
874.9433501725
 21
391.3701438271
 31
0.0
  0
LINE
  5
79
330
1F
100
AcDbEntity
  8
0
  6
Continuous
 62
     7
370
    25
100
AcDbLine
 10
874.9433501725
 20
396.2876438271
 30
0.0
 11
874.4021001725
 21
396.8288938271
 31
0.0
  0
LINE
  5
7A
330
1F
100
AcDbEntity
  8
0
  6
Continuous
 62
     7
370
    25
100
AcDbLine
 10
860.1539292275
 20
399.1936274493
 30
0.0
 11
859.9433501725
 21
398.8288938271
 31
0.0
  0
ARC
  5
7B
330
1F
100
AcDbEntity
  8
0
  6
Continuous
 62
     7
370
    25
100
AcDbCircle
 10
864.4433501725
 20
374.6288938272
 30
0.0
 40
0.5000000000001137
100
AcDbArc
 50
0.0
 51
113.5781784782
  0
LINE
  5
7C
330
1F
100
AcDbEntity
  8
0
  6
Continuous
 62
     7
370
    25
100
AcDbLine
 10
874.4021001725
 20
371.8288938271
 30
0.0
 11
865.7433501725
 21
371.8288938271
 31
0.0
  0
LINE
  5
7D
330
1F
100
AcDbEntity
  8
0
  6
Continuous
 62
     7
370
    25
100
AcDbLine
 10
874.4021001725
 20
365.8288938271
 30
0.0
 11
874.9433501725
 21
366.3701438271
 31
0.0
  0
LINE
  5
7E
330
1F
100
AcDbEntity
  8
0
  6
Continuous
 62
     7
370
    25
100
AcDbLine
 10
874.9433501725
 20
371.2876438271
 30
0.0
 11
874.4021001725
 21
371.8288938271
 31
0.0
  0
ARC
  5
7F
330
1F
100
AcDbEntity
  8
0
  6
Continuous
 62
     7
370
    25
100
AcDbCircle
 10
-38.9566498275
 20
374.6288938272
 30
0.0
 40
0.5
100
AcDbArc
 50
66.4218215218
 51
180.0
  0
LINE
  5
80
330
1F
100
AcDbEntity
  8
0
  6
Continuous
 62
     7
370
    25
100
AcDbLine
 10
-40.2566498275
 20
371.8288938271
 30
0.0
 11
-48.9153998275
 21
371.8288938271
 31
0.0
  0
LINE
  5
81
330
1F
100
AcDbEntity
  8
0
  6
Continuous
 62
     7
370
    25
100
AcDbLine
 10
-48.9153998275
 20
371.8288938271
 30
0.0
 11
-49.4566498275
 21
371.2876438271
 31
0.0
  0
LINE
  5
82
330
1F
100
AcDbEntity
  8
0
  6
Continuous
 62
     7
370
    25
100
AcDbLine
 10
-49.4566498275
 20
366.3701438271
 30
0.0
 11
-48.9153998275
 21
365.8288938271
 31
0.0
  0
ARC
  5
83
330
1F
100
AcDbEntity
  8
0
  6
Continuous
 62
     7
370
    25
100
AcDbCircle
 10
-38.9566498275
 20
399.6288938272
 30
0.0
 40
0.5
100
AcDbArc
 50
360.0
 51
180.0
  0
ARC
  5
84
330
1F
100
AcDbEntity
  8
0
  6
Continuous
 62
     7
370
    25
100
AcDbCircle
 10
-38.9566498275
 20
388.028893827
 30
0.0
 40
0.5
100
AcDbArc
 50
180.0
 51
0.0
  0
LINE
  5
85
330
1F
100
AcDbEntity
  8
0
  6
Continuous
 62
     7
370
    25
100
AcDbLine
 10
-48.9153998275
 20
390.8288938271
 30
0.0
 11
-40.2566498275
 21
390.8288938271
 31
0.0
  0
LINE
  5
86
330
1F
100
AcDbEntity
  8
0
  6
Continuous
 62
     7
370
    25
100
AcDbLine
 10
-40.2566498275
 20
396.8288938271
 30
0.0
 11
-48.9153998275
 21
396.8288938271
 31
0.0
  0
LINE
  5
87
330
1F
100
AcDbEntity
  8
0
  6
Continuous
 62
     7
370
    25
100
AcDbLine
 10
-48.9153998275
 20
396.8288938271
 30
0.0
 11
-49.4566498275
 21
396.2876438271
 31
0.0
  0
LINE
  5
88
330
1F
100
AcDbEntity
  8
0
  6
Continuous
 62
     7
370
    25
100
AcDbLine
 10
-49.4566498275
 20
391.3701438271
 30
0.0
 11
-48.9153998275
 21
390.8288938271
 31
0.0
  0
SPLINE
  5
89
330
1F
100
AcDbEntity
  8
0
  6
Continuous
 62
     7
370
    25
100
AcDbSpline
210
0.0
220
0.0
230
1.0
 70
    24
 71
     3
 72
    16
 73
    12
 74
     0
 42
0.000000001
 43
0.00000001
 40
0.0
 40
0.0
 40
0.0
 40
0.0
 40
0.1658292928977491
 40
0.2550981074401229
 40
0.3462613343064173
 40
0.4374245611727102
 40
0.5266933757150832
 40
0.6925226686128334
 40
0.8583519615105837
 40
0.9476207760529564
 40
1.0
 40
1.0
 40
1.0
 40
1.0
 10
863.9433501724772
 20
397.5545834517308
 30
0.0
 10
863.9433501724772
 20
396.9456756540558
 30
0.0
 10
863.9433501724772
 20
396.0089821177202
 30
0.0
 10
863.9433501724772
 20
394.5091834264844
 30
0.0
 10
863.9433501724772
 20
393.3172263466692
 30
0.0
 10
863.9433501724772
 20
392.1427980724629
 30
0.0
 10
863.943350172477
 20
390.7391847791756
 30
0.0
 10
863.9433501724772
 20
389.2718416983935
 30
0.0
 10
863.943350172477
 20
388.3726543475727
 30
0.0
 10
863.943350172477
 20
388.0448230204585
 30
0.0
 10
863.9433501724772
 20
388.0552134358988
 30
0.0
 10
863.9433501724772
 20
388.0590556486329
 30
0.0
  0
SPLINE
  5
8A
330
1F
100
AcDbEntity
  8
0
  6
Continuous
 62
     7
370
    25
100
AcDbSpline
210
0.0
220
0.0
230
1.0
 70
     8
 71
     3
 72
     8
 73
     4
 74
     0
 42
0.000000001
 43
0.00000001
 40
0.0
 40
0.0
 40
0.0
 40
0.0
 40
1.0
 40
1.0
 40
1.0
 40
1.0
 10
859.9433501724842
 20
394.6943883977142
 30
0.0
 10
859.9433501724842
 20
393.7239824618241
 30
0.0
 10
860.1176654728637
 20
392.7801361198929
 30
0.0
 10
860.3899321598756
 20
391.8512141652662
 30
0.0
  0
SPLINE
  5
8B
330
1F
100
AcDbEntity
  8
0
  6
Continuous
 62
     7
370
    25
100
AcDbSpline
210
0.0
220
0.0
230
1.0
 70
     8
 71
     3
 72
     8
 73
     4
 74
     0
 42
0.000000001
 43
0.00000001
 40
0.0
 40
0.0
 40
0.0
 40
0.0
 40
1.0
 40
1.0
 40
1.0
 40
1.0
 10
860.3899321598756
 20
397.5375626301621
 30
0.0
 10
860.1176654728641
 20
396.6086406755372
 30
0.0
 10
859.9433501724842
 20
395.6647943336027
 30
0.0
 10
859.9433501724842
 20
394.6943883977142
 30
0.0
  0
LINE
  5
8C
330
1F
100
AcDbEntity
  8
0
  6
Continuous
 62
     7
370
    25
100
AcDbLine
 10
863.9433501725
 20
397.5375626302
 30
0.0
 11
860.3899321599
 21
397.5375626302
 31
0.0
  0
LINE
  5
8D
330
1F
100
AcDbEntity
  8
0
  6
Continuous
 62
     7
370
    25
100
AcDbLine
 10
863.9433501725
 20
391.8512141653
 30
0.0
 11
860.3899321599
 21
391.8512141653
 31
0.0
  0
LINE
  5
8E
330
1F
100
AcDbEntity
  8
0
  6
Continuous
 62
     7
370
    25
100
AcDbLine
 10
859.9433501725
 20
394.6943883977
 30
0.0
 11
859.9433501725
 21
389.9968797637
 31
0.0
  0
SPLINE
  5
8F
330
1F
100
AcDbEntity
  8
0
  6
Continuous
 62
     7
370
    25
100
AcDbSpline
210
0.0
220
0.0
230
1.0
 70
     8
 71
     3
 72
     8
 73
     4
 74
     0
 42
0.000000001
 43
0.00000001
 40
0.0
 40
0.0
 40
0.0
 40
0.0
 40
1.0
 40
1.0
 40
1.0
 40
1.0
 10
860.3899321598756
 20
391.8512141652599
 30
0.0
 10
860.1176654728641
 20
391.2453659843288
 30
0.0
 10
859.9433501724842
 20
390.6297840331299
 30
0.0
 10
859.9433501724842
 20
389.9968797637285
 30
0.0
  0
SPLINE
  5
90
330
1F
100
AcDbEntity
  8
0
  6
Continuous
 62
     7
370
    25
100
AcDbSpline
210
0.0
220
0.0
230
1.0
 70
     8
 71
     3
 72
     8
 73
     4
 74
     0
 42
0.000000001
 43
0.00000001
 40
0.0
 40
0.0
 40
0.0
 40
0.0
 40
1.0
 40
1.0
 40
1.0
 40
1.0
 10
859.9433501724842
 20
389.9968797637285
 30
0.0
 10
859.9433501724842
 20
389.363975494326
 30
0.0
 10
860.1176654728637
 20
388.7483935431293
 30
0.0
 10
860.3899321598756
 20
388.1425453621971
 30
0.0
  0
LINE
  5
91
330
1F
100
AcDbEntity
  8
0
  6
Continuous
 62
     7
370
    25
100
AcDbLine
 10
863.9433501725
 20
388.1425453622
 30
0.0
 11
860.3899321599
 21
388.1425453622
 31
0.0
  0
LINE
  5
92
330
1F
100
AcDbEntity
  8
0
  6
Continuous
 62
     7
370
    25
100
AcDbLine
 10
859.9433501725
 20
398.5264024611
 30
0.0
 11
859.9433501725
 21
394.6943883977
 31
0.0
  0
SPLINE
  5
93
330
1F
100
AcDbEntity
  8
0
  6
Continuous
 62
     7
370
    25
100
AcDbSpline
210
0.0
220
0.0
230
1.0
 70
     8
 71
     3
 72
     8
 73
     4
 74
     0
 42
0.000000001
 43
0.00000001
 40
0.0
 40
0.0
 40
0.0
 40
0.0
 40
1.0
 40
1.0
 40
1.0
 40
1.0
 10
859.943350172484
 20
398.5264024610837
 30
0.0
 10
859.943350172484
 20
398.188900794596
 30
0.0
 10
860.1176654728635
 20
397.8606364038616
 30
0.0
 10
860.3899321598755
 20
397.5375626301673
 30
0.0
  0
SPLINE
  5
94
330
1F
100
AcDbEntity
  8
0
  6
Continuous
 62
     7
370
    25
100
AcDbSpline
210
0.0
220
0.0
230
1.0
 70
     8
 71
     3
 72
     8
 73
     4
 74
     0
 42
0.000000001
 43
0.00000001
 40
0.0
 40
0.0
 40
0.0
 40
0.0
 40
1.0
 40
1.0
 40
1.0
 40
1.0
 10
860.3899321598753
 20
399.5152422920001
 30
0.0
 10
860.1176654728639
 20
399.1921685183063
 30
0.0
 10
859.943350172484
 20
398.8639041275707
 30
0.0
 10
859.943350172484
 20
398.5264024610837
 30
0.0
  0
LINE
  5
95
330
1F
100
AcDbEntity
  8
0
  6
Continuous
 62
     7
370
    25
100
AcDbLine
 10
863.9433501725
 20
399.515242292
 30
0.0
 11
860.3899321599
 21
399.515242292
 31
0.0
  0
LINE
  5
96
330
1F
100
AcDbEntity
  8
0
  6
Continuous
 62
     7
370
    25
100
AcDbLine
 10
860.3899321599
 20
388.1425453622
 30
0.0
 11
860.2259141247
 21
388.5057207047
 31
0.0
  0
LINE
  5
97
330
1F
100
AcDbEntity
  8
0
  6
Continuous
 62
     7
370
    25
100
AcDbLine
 10
859.9433501725
 20
389.9968797637
 30
0.0
 11
859.9433501725
 21
388.8288938271
 31
0.0
  0
LINE
  5
98
330
1F
100
AcDbEntity
  8
0
  6
Continuous
 62
     7
370
    25
100
AcDbLine
 10
874.4021001725
 20
390.8288938271
 30
0.0
 11
874.4021001725
 21
396.8288938271
 31
0.0
  0
LINE
  5
99
330
1F
100
AcDbEntity
  8
0
  6
Continuous
 62
     7
370
    25
100
AcDbLine
 10
874.9433501725
 20
391.9445009114
 30
0.0
 11
874.9433501725
 21
396.2876438271
 31
0.0
  0
LINE
  5
9A
330
1F
100
AcDbEntity
  8
0
  6
Continuous
 62
     7
370
    25
100
AcDbLine
 10
874.9433501725
 20
391.3701438271
 30
0.0
 11
874.9433501725
 21
391.9445009114
 31
0.0
  0
LINE
  5
9B
330
1F
100
AcDbEntity
  8
0
  6
Continuous
 62
     7
370
    25
100
AcDbLine
 10
859.9433501725
 20
398.8288938271
 30
0.0
 11
859.9433501725
 21
398.5264024611
 31
0.0
  0
CIRCLE
  5
9C
330
1F
100
AcDbEntity
  8
0
  6
Continuous
 62
     7
370
    25
100
AcDbCircle
 10
15.2433501725
 20
340.8288938271
 30
0.0
 40
0.5000000000000018
  0
SPLINE
  5
9D
330
1F
100
AcDbEntity
  8
0
  6
Continuous
 62
     7
370
    25
100
AcDbSpline
210
0.0
220
0.0
230
1.0
 70
     8
 71
     3
 72
    20
 73
    16
 74
     0
 42
0.000000001
 43
0.00000001
 40
0.0
 40
0.0
 40
0.0
 40
0.0
 40
0.1249999999999939
 40
0.1249999999999939
 40
0.2499999999999879
 40
0.2499999999999879
 40
0.3749999999999818
 40
0.3749999999999818
 40
0.4999999999999758
 40
0.4999999999999758
 40
0.7499999999999959
 40
0.7499999999999959
 40
0.8749999999999979
 40
0.8749999999999979
 40
1.0
 40
1.0
 40
1.0
 40
1.0
 10
907.8433501724774
 20
363.4288938270925
 30
0.0
 10
908.0017293601284
 20
363.4679345579471
 30
0.0
 10
908.1579750848199
 20
363.5064532621469
 30
0.0
 10
908.4659669342363
 20
363.5838600134549
 30
0.0
 10
908.6186110417077
 20
363.6230044314416
 30
0.0
 10
908.9076953308947
 20
363.7001551853567
 30
0.0
 10
909.0454998690788
 20
363.7384827670978
 30
0.0
 10
909.3071185447177
 20
363.8160290875743
 30
0.0
 10
909.4298648514006
 20
363.855005295243
 30
0.0
 10
909.761189228348
 20
363.970500151688
 30
0.0
 10
909.9402003523762
 20
364.0484125953581
 30
0.0
 10
910.1198154517572
 20
364.163892520759
 30
0.0
 10
910.1660598006248
 20
364.202758316624
 30
0.0
 10
910.2278131066362
 20
364.2805326502926
 30
0.0
 10
910.2433501724773
 20
364.3191424172473
 30
0.0
 10
910.2433501724774
 20
364.3581831489739
 30
0.0
  0
LINE
  5
9E
330
1F
100
AcDbEntity
  8
0
  6
Continuous
 62
     7
370
    25
100
AcDbLine
 10
910.2433501725
 20
171.2996045052
 30
0.0
 11
910.2433501725
 21
364.358183149
 31
0.0
  0
SPLINE
  5
9F
330
1F
100
AcDbEntity
  8
0
  6
Continuous
 62
     7
370
    25
100
AcDbSpline
210
0.0
220
0.0
230
1.0
 70
     8
 71
     3
 72
    20
 73
    16
 74
     0
 42
0.000000001
 43
0.00000001
 40
0.0
 40
0.0
 40
0.0
 40
0.0
 40
0.1249999999999995
 40
0.1249999999999995
 40
0.2499999999999988
 40
0.2499999999999988
 40
0.3749999999999982
 40
0.3749999999999982
 40
0.4999999999999976
 40
0.4999999999999976
 40
0.7499999999999988
 40
0.7499999999999988
 40
0.8749999999999993
 40
0.8749999999999993
 40
1.0
 40
1.0
 40
1.0
 40
1.0
 10
910.2433501724774
 20
171.2996045052113
 30
0.0
 10
910.2433501724776
 20
171.3386452360659
 30
0.0
 10
910.2278136120026
 20
171.3771639402657
 30
0.0
 10
910.1664952600421
 20
171.4545706915736
 30
0.0
 10
910.120071514455
 20
171.4937151095603
 30
0.0
 10
910.000120644301
 20
171.5708658634754
 30
0.0
 10
909.9265160000176
 20
171.6091934452165
 30
0.0
 10
909.7517856339222
 20
171.686739765693
 30
0.0
 10
909.6509350050205
 20
171.7257159733618
 30
0.0
 10
909.3196497250365
 20
171.8412108298068
 30
0.0
 10
909.0519695636525
 20
171.9191232734769
 30
0.0
 10
908.6192955375974
 20
172.0346031988777
 30
0.0
 10
908.4677774507463
 20
172.0734689947427
 30
0.0
 10
908.1583516933603
 20
172.1512433284113
 30
0.0
 10
908.0017293636662
 20
172.1898530953661
 30
0.0
 10
907.8433501724774
 20
172.2288938270927
 30
0.0
  0
SPLINE
  5
A0
330
1F
100
AcDbEntity
  8
0
  6
Continuous
 62
     7
370
    25
100
AcDbSpline
210
0.0
220
0.0
230
1.0
 70
     8
 71
     3
 72
    20
 73
    16
 74
     0
 42
0.000000001
 43
0.00000001
 40
0.0
 40
0.0
 40
0.0
 40
0.0
 40
0.1250000000000019
 40
0.1250000000000019
 40
0.2500000000000037
 40
0.2500000000000037
 40
0.3750000000000056
 40
0.3750000000000056
 40
0.5000000000000074
 40
0.5000000000000074
 40
0.7500000000000038
 40
0.7500000000000038
 40
0.8750000000000019
 40
0.8750000000000019
 40
1.0
 40
1.0
 40
1.0
 40
1.0
 10
907.8433501724774
 20
172.2288938270928
 30
0.0
 10
907.882390903332
 20
172.0705146394421
 30
0.0
 10
907.9209096075318
 20
171.9142689147503
 30
0.0
 10
907.9983163588397
 20
171.6062770653337
 30
0.0
 10
908.0374607768263
 20
171.4536329578625
 30
0.0
 10
908.1146115307415
 20
171.1645486686755
 30
0.0
 10
908.1529391124825
 20
171.0267441304915
 30
0.0
 10
908.2304854329591
 20
170.7651254548525
 30
0.0
 10
908.2694616406279
 20
170.6423791481699
 30
0.0
 10
908.3849564970728
 20
170.3110547712222
 30
0.0
 10
908.462868940743
 20
170.1320436471939
 30
0.0
 10
908.5783488661438
 20
169.952428547813
 30
0.0
 10
908.6172146620088
 20
169.9061841989453
 30
0.0
 10
908.6949889956775
 20
169.8444308929341
 30
0.0
 10
908.7335987626319
 20
169.8288938270927
 30
0.0
 10
908.7726394943587
 20
169.8288938270927
 30
0.0
  0
LINE
  5
A1
330
1F
100
AcDbEntity
  8
0
  6
Continuous
 62
     7
370
    25
100
AcDbLine
 10
-83.2859391494
 20
169.8288938271
 30
0.0
 11
908.7726394944
 21
169.8288938271
 31
0.0
  0
SPLINE
  5
A2
330
1F
100
AcDbEntity
  8
0
  6
Continuous
 62
     7
370
    25
100
AcDbSpline
210
0.0
220
0.0
230
1.0
 70
     8
 71
     3
 72
    20
 73
    16
 74
     0
 42
0.000000001
 43
0.00000001
 40
0.0
 40
0.0
 40
0.0
 40
0.0
 40
0.1250000000000044
 40
0.1250000000000044
 40
0.2500000000000088
 40
0.2500000000000088
 40
0.3750000000000132
 40
0.3750000000000132
 40
0.5000000000000177
 40
0.5000000000000177
 40
0.7500000000000088
 40
0.7500000000000088
 40
0.8750000000000044
 40
0.8750000000000044
 40
1.0
 40
1.0
 40
1.0
 40
1.0
 10
-83.2859391494038
 20
169.8288938270927
 30
0.0
 10
-83.24689841854938
 20
169.8288938270927
 30
0.0
 10
-83.20837971434952
 20
169.8444303875675
 30
0.0
 10
-83.13097296304161
 20
169.9057487395281
 30
0.0
 10
-83.09182854505481
 20
169.9521724851149
 30
0.0
 10
-83.0146777911398
 20
170.072123355269
 30
0.0
 10
-82.9763502093988
 20
170.1457279995524
 30
0.0
 10
-82.89880388892207
 20
170.3204583656481
 30
0.0
 10
-82.85982768125355
 20
170.4213089945495
 30
0.0
 10
-82.74433282480858
 20
170.7525942745335
 30
0.0
 10
-82.66642038113847
 20
171.0202744359173
 30
0.0
 10
-82.55094045573746
 20
171.4529484619727
 30
0.0
 10
-82.51207465987243
 20
171.6044665488238
 30
0.0
 10
-82.43430032620402
 20
171.9138923062099
 30
0.0
 10
-82.39569055924939
 20
172.0705146359036
 30
0.0
 10
-82.3566498275225
 20
172.2288938270924
 30
0.0
  0
SPLINE
  5
A3
330
1F
100
AcDbEntity
  8
0
  6
Continuous
 62
     7
370
    25
100
AcDbSpline
210
0.0
220
0.0
230
1.0
 70
     8
 71
     3
 72
    14
 73
    10
 74
     0
 42
0.000000001
 43
0.00000001
 40
0.0
 40
0.0
 40
0.0
 40
0.0
 40
0.2500000000000001
 40
0.2500000000000001
 40
0.5000000000000002
 40
0.5000000000000002
 40
0.7500000000000003
 40
0.7500000000000003
 40
1.0
 40
1.0
 40
1.0
 40
1.0
 10
907.8433501724774
 20
172.2288938270927
 30
0.0
 10
907.9215515874992
 20
172.0967084112337
 30
0.0
 10
907.997261534796
 20
171.9687263927002
 30
0.0
 10
908.152541946443
 20
171.7261023677528
 30
0.0
 10
908.2295517960259
 20
171.6156601033428
 30
0.0
 10
908.3849752820536
 20
171.4296632061495
 30
0.0
 10
908.461924998972
 20
171.3558622273112
 30
0.0
 10
908.6173549782211
 20
171.2550436429161
 30
0.0
 10
908.6944380867938
 20
171.2288938270927
 30
0.0
 10
908.7726394943587
 20
171.2288938270927
 30
0.0
  0
LINE
  5
A4
330
1F
100
AcDbEntity
  8
0
  6
Continuous
 62
     7
370
    25
100
AcDbLine
 10
908.7726394944
 20
169.8288938271
 30
0.0
 11
908.7726394944
 21
171.2288938271
 31
0.0
  0
SPLINE
  5
A5
330
1F
100
AcDbEntity
  8
0
  6
Continuous
 62
     7
370
    25
100
AcDbSpline
210
0.0
220
0.0
230
1.0
 70
     8
 71
     3
 72
    14
 73
    10
 74
     0
 42
0.000000001
 43
0.00000001
 40
0.0
 40
0.0
 40
0.0
 40
0.0
 40
0.25
 40
0.25
 40
0.5
 40
0.5
 40
0.75
 40
0.75
 40
1.0
 40
1.0
 40
1.0
 40
1.0
 10
907.8433501724774
 20
363.4288938270925
 30
0.0
 10
907.9755355883364
 20
363.5070952421142
 30
0.0
 10
908.1035176068701
 20
363.5828051894112
 30
0.0
 10
908.3461416318173
 20
363.7380856010581
 30
0.0
 10
908.4565838962272
 20
363.8150954506412
 30
0.0
 10
908.6425807934206
 20
363.9705189366687
 30
0.0
 10
908.716381772259
 20
364.047468653587
 30
0.0
 10
908.8172003566539
 20
364.2028986328363
 30
0.0
 10
908.8433501724775
 20
364.279981741409
 30
0.0
 10
908.8433501724775
 20
364.3581831489739
 30
0.0
  0
LINE
  5
A6
330
1F
100
AcDbEntity
  8
0
  6
Continuous
 62
     7
370
    25
100
AcDbLine
 10
910.2433501725
 20
364.358183149
 30
0.0
 11
908.8433501725
 21
364.358183149
 31
0.0
  0
LINE
  5
A7
330
1F
100
AcDbEntity
  8
0
  6
Continuous
 62
     7
370
    25
100
AcDbLine
 10
910.2433501725
 20
171.2996045052
 30
0.0
 11
908.8433501725
 21
171.2996045052
 31
0.0
  0
SPLINE
  5
A8
330
1F
100
AcDbEntity
  8
0
  6
Continuous
 62
     7
370
    25
100
AcDbSpline
210
0.0
220
0.0
230
1.0
 70
     8
 71
     3
 72
    14
 73
    10
 74
     0
 42
0.000000001
 43
0.00000001
 40
0.0
 40
0.0
 40
0.0
 40
0.0
 40
0.25
 40
0.25
 40
0.5
 40
0.5
 40
0.75
 40
0.75
 40
1.0
 40
1.0
 40
1.0
 40
1.0
 10
908.8433501724775
 20
171.2996045052113
 30
0.0
 10
908.8433501724775
 20
171.377805920233
 30
0.0
 10
908.8177915077973
 20
171.4535158675299
 30
0.0
 10
908.7176634792004
 20
171.6087962791769
 30
0.0
 10
908.6440992998962
 20
171.6858061287599
 30
0.0
 10
908.4585616642044
 20
171.8412296147874
 30
0.0
 10
908.3483967432448
 20
171.9181793317057
 30
0.0
 10
908.1057849865555
 20
172.0736093109549
 30
0.0
 10
907.9755355757324
 20
172.1506924195276
 30
0.0
 10
907.8433501724774
 20
172.2288938270927
 30
0.0
  0
SPLINE
  5
A9
330
1F
100
AcDbEntity
  8
0
  6
Continuous
 62
     7
370
    25
100
AcDbSpline
210
0.0
220
0.0
230
1.0
 70
     8
 71
     3
 72
    20
 73
    16
 74
     0
 42
0.000000001
 43
0.00000001
 40
0.0
 40
0.0
 40
0.0
 40
0.0
 40
0.125
 40
0.125
 40
0.2500000000000001
 40
0.2500000000000001
 40
0.3750000000000001
 40
0.3750000000000001
 40
0.5000000000000001
 40
0.5000000000000001
 40
0.7500000000000002
 40
0.7500000000000002
 40
0.8750000000000001
 40
0.8750000000000001
 40
1.0
 40
1.0
 40
1.0
 40
1.0
 10
-82.35664982752239
 20
363.4288938270925
 30
0.0
 10
-82.39569055837703
 20
363.5872730147431
 30
0.0
 10
-82.43420926257672
 20
363.7435187394348
 30
0.0
 10
-82.51161601388468
 20
364.0515105888514
 30
0.0
 10
-82.55076043187127
 20
364.2041546963226
 30
0.0
 10
-82.62791118578677
 20
364.4932389855097
 30
0.0
 10
-82.66623876752772
 20
364.6310435236937
 30
0.0
 10
-82.74378508800417
 20
364.8926621993326
 30
0.0
 10
-82.78276129567291
 20
365.0154085060153
 30
0.0
 10
-82.89825615211821
 20
365.346732882963
 30
0.0
 10
-82.97616859578805
 20
365.5257440069912
 30
0.0
 10
-83.09164852118894
 20
365.7053591063722
 30
0.0
 10
-83.1305143170541
 20
365.7516034552398
 30
0.0
 10
-83.20828865072278
 20
365.813356761251
 30
0.0
 10
-83.2468984176773
 20
365.8288938270925
 30
0.0
 10
-83.28593914940392
 20
365.8288938270925
 30
0.0
  0
SPLINE
  5
AA
330
1F
100
AcDbEntity
  8
0
  6
Continuous
 62
     7
370
    25
100
AcDbSpline
210
0.0
220
0.0
230
1.0
 70
     8
 71
     3
 72
    14
 73
    10
 74
     0
 42
0.000000001
 43
0.00000001
 40
0.0
 40
0.0
 40
0.0
 40
0.0
 40
0.25
 40
0.25
 40
0.5
 40
0.5
 40
0.75
 40
0.75
 40
1.0
 40
1.0
 40
1.0
 40
1.0
 10
-82.35664982752239
 20
363.4288938270925
 30
0.0
 10
-82.43485124254401
 20
363.5610792429514
 30
0.0
 10
-82.51056118984118
 20
363.6890612614849
 30
0.0
 10
-82.66584160148783
 20
363.9316852864324
 30
0.0
 10
-82.74285145107096
 20
364.0421275508423
 30
0.0
 10
-82.8982749370985
 20
364.2281244480356
 30
0.0
 10
-82.97522465401708
 20
364.3019254268739
 30
0.0
 10
-83.13065463326619
 20
364.402744011269
 30
0.0
 10
-83.20773774183887
 20
364.4288938270925
 30
0.0
 10
-83.28593914940392
 20
364.4288938270925
 30
0.0
  0
LINE
  5
AB
330
1F
100
AcDbEntity
  8
0
  6
Continuous
 62
     7
370
    25
100
AcDbLine
 10
-83.2859391494
 20
365.8288938271
 30
0.0
 11
-83.2859391494
 21
364.4288938271
 31
0.0
  0
LINE
  5
AC
330
1F
100
AcDbEntity
  8
0
  6
Continuous
 62
     7
370
    25
100
AcDbLine
 10
908.7726394944
 20
365.8288938271
 30
0.0
 11
-83.2859391494
 21
365.8288938271
 31
0.0
  0
SPLINE
  5
AD
330
1F
100
AcDbEntity
  8
0
  6
Continuous
 62
     7
370
    25
100
AcDbSpline
210
0.0
220
0.0
230
1.0
 70
     8
 71
     3
 72
    20
 73
    16
 74
     0
 42
0.000000001
 43
0.00000001
 40
0.0
 40
0.0
 40
0.0
 40
0.0
 40
0.1250000000000012
 40
0.1250000000000012
 40
0.2500000000000024
 40
0.2500000000000024
 40
0.3750000000000037
 40
0.3750000000000037
 40
0.5000000000000049
 40
0.5000000000000049
 40
0.7500000000000073
 40
0.7500000000000073
 40
0.8750000000000037
 40
0.8750000000000037
 40
1.0
 40
1.0
 40
1.0
 40
1.0
 10
908.7726394943589
 20
365.8288938270925
 30
0.0
 10
908.7335987635043
 20
365.8288938270925
 30
0.0
 10
908.6950800593046
 20
365.8133572666177
 30
0.0
 10
908.6176733079967
 20
365.752038914657
 30
0.0
 10
908.5785288900101
 20
365.7056151690703
 30
0.0
 10
908.5013781360949
 20
365.5856642989161
 30
0.0
 10
908.4630505543538
 20
365.5120596546327
 30
0.0
 10
908.3855042338771
 20
365.3373292885371
 30
0.0
 10
908.3465280262087
 20
365.2364786596356
 30
0.0
 10
908.2310331697637
 20
364.9051933796516
 30
0.0
 10
908.1531207260934
 20
364.6375132182678
 30
0.0
 10
908.0376408006925
 20
364.2048391922123
 30
0.0
 10
907.9987750048275
 20
364.0533211053612
 30
0.0
 10
907.921000671159
 20
363.7438953479752
 30
0.0
 10
907.8823909042042
 20
363.5872730182814
 30
0.0
 10
907.8433501724775
 20
363.4288938270926
 30
0.0
  0
SPLINE
  5
AE
330
1F
100
AcDbEntity
  8
0
  6
Continuous
 62
     7
370
    25
100
AcDbSpline
210
0.0
220
0.0
230
1.0
 70
     8
 71
     3
 72
    20
 73
    16
 74
     0
 42
0.000000001
 43
0.00000001
 40
0.0
 40
0.0
 40
0.0
 40
0.0
 40
0.1249999999999956
 40
0.1249999999999956
 40
0.2499999999999911
 40
0.2499999999999911
 40
0.3749999999999867
 40
0.3749999999999867
 40
0.4999999999999822
 40
0.4999999999999822
 40
0.7500000000000004
 40
0.7500000000000004
 40
0.8750000000000002
 40
0.8750000000000002
 40
1.0
 40
1.0
 40
1.0
 40
1.0
 10
-82.35664982752245
 20
172.2288938270925
 30
0.0
 10
-82.51502901517316
 20
172.1898530962379
 30
0.0
 10
-82.67127473986491
 20
172.1513343920382
 30
0.0
 10
-82.97926658928145
 20
172.0739276407302
 30
0.0
 10
-83.13191069675263
 20
172.0347832227435
 30
0.0
 10
-83.42099498593974
 20
171.9576324688283
 30
0.0
 10
-83.55879952412387
 20
171.9193048870873
 30
0.0
 10
-83.82041819976277
 20
171.8417585666108
 30
0.0
 10
-83.94316450644523
 20
171.8027823589422
 30
0.0
 10
-84.27448888339273
 20
171.6872875024972
 30
0.0
 10
-84.45350000742103
 20
171.609375058827
 30
0.0
 10
-84.63311510680188
 20
171.4938951334262
 30
0.0
 10
-84.67935945566974
 20
171.4550293375611
 30
0.0
 10
-84.74111276168111
 20
171.3772550038926
 30
0.0
 10
-84.7566498275224
 20
171.3386452369379
 30
0.0
 10
-84.75664982752245
 20
171.2996045052112
 30
0.0
  0
SPLINE
  5
AF
330
1F
100
AcDbEntity
  8
0
  6
Continuous
 62
     7
370
    25
100
AcDbSpline
210
0.0
220
0.0
230
1.0
 70
     8
 71
     3
 72
    14
 73
    10
 74
     0
 42
0.000000001
 43
0.00000001
 40
0.0
 40
0.0
 40
0.0
 40
0.0
 40
0.25
 40
0.25
 40
0.5
 40
0.5
 40
0.75
 40
0.75
 40
1.0
 40
1.0
 40
1.0
 40
1.0
 10
-82.35664982752245
 20
172.2288938270925
 30
0.0
 10
-82.4888352433814
 20
172.1506924120709
 30
0.0
 10
-82.61681726191512
 20
172.0749824647739
 30
0.0
 10
-82.8594412868624
 20
171.9197020531269
 30
0.0
 10
-82.96988355127233
 20
171.8426922035439
 30
0.0
 10
-83.15588044846567
 20
171.6872687175164
 30
0.0
 10
-83.22968142730403
 20
171.610319000598
 30
0.0
 10
-83.330500011699
 20
171.4548890213488
 30
0.0
 10
-83.35664982752245
 20
171.3778059127762
 30
0.0
 10
-83.35664982752245
 20
171.2996045052112
 30
0.0
  0
LINE
  5
B0
330
1F
100
AcDbEntity
  8
0
  6
Continuous
 62
     7
370
    25
100
AcDbLine
 10
-84.7566498275
 20
171.2996045052
 30
0.0
 11
-83.3566498275
 21
171.2996045052
 31
0.0
  0
SPLINE
  5
B1
330
1F
100
AcDbEntity
  8
0
  6
Continuous
 62
     7
370
    25
100
AcDbSpline
210
0.0
220
0.0
230
1.0
 70
     8
 71
     3
 72
    20
 73
    16
 74
     0
 42
0.000000001
 43
0.00000001
 40
0.0
 40
0.0
 40
0.0
 40
0.0
 40
0.1250000000000003
 40
0.1250000000000003
 40
0.2500000000000006
 40
0.2500000000000006
 40
0.3750000000000009
 40
0.3750000000000009
 40
0.5000000000000012
 40
0.5000000000000012
 40
0.7500000000000018
 40
0.7500000000000018
 40
0.8750000000000009
 40
0.8750000000000009
 40
1.0
 40
1.0
 40
1.0
 40
1.0
 10
-84.75664982752245
 20
364.3581831489739
 30
0.0
 10
-84.75664982752251
 20
364.3191424181194
 30
0.0
 10
-84.74111326704752
 20
364.2806237139196
 30
0.0
 10
-84.67979491508687
 20
364.2032169626116
 30
0.0
 10
-84.63337116950015
 20
364.164072544625
 30
0.0
 10
-84.51342029934582
 20
364.0869217907097
 30
0.0
 10
-84.43981565506276
 20
364.0485942089687
 30
0.0
 10
-84.26508528896726
 20
363.9710478884921
 30
0.0
 10
-84.16423466006539
 20
363.9320716808235
 30
0.0
 10
-83.8329493800814
 20
363.8165768243784
 30
0.0
 10
-83.56526921869751
 20
363.7386643807083
 30
0.0
 10
-83.1325951926421
 20
363.6231844553075
 30
0.0
 10
-82.98107710579117
 20
363.5843186594425
 30
0.0
 10
-82.67165134840515
 20
363.5065443257739
 30
0.0
 10
-82.51502901871099
 20
363.4679345588191
 30
0.0
 10
-82.35664982752245
 20
363.4288938270925
 30
0.0
  0
LINE
  5
B2
330
1F
100
AcDbEntity
  8
0
  6
Continuous
 62
     7
370
    25
100
AcDbLine
 10
-84.7566498275
 20
364.358183149
 30
0.0
 11
-83.3566498275
 21
364.358183149
 31
0.0
  0
SPLINE
  5
B3
330
1F
100
AcDbEntity
  8
0
  6
Continuous
 62
     7
370
    25
100
AcDbSpline
210
0.0
220
0.0
230
1.0
 70
     8
 71
     3
 72
    14
 73
    10
 74
     0
 42
0.000000001
 43
0.00000001
 40
0.0
 40
0.0
 40
0.0
 40
0.0
 40
0.2499999999999998
 40
0.2499999999999998
 40
0.4999999999999999
 40
0.4999999999999999
 40
0.7499999999999999
 40
0.7499999999999999
 40
1.0
 40
1.0
 40
1.0
 40
1.0
 10
-83.35664982752245
 20
364.3581831489739
 30
0.0
 10
-83.35664982752245
 20
364.2799817339522
 30
0.0
 10
-83.33109116284231
 20
364.2042717866553
 30
0.0
 10
-83.23096313424527
 20
364.0489913750083
 30
0.0
 10
-83.15739895494102
 20
363.9719815254252
 30
0.0
 10
-82.97186131924927
 20
363.8165580393978
 30
0.0
 10
-82.86169639828972
 20
363.7396083224793
 30
0.0
 10
-82.61908464160034
 20
363.5841783432301
 30
0.0
 10
-82.4888352307775
 20
363.5070952346575
 30
0.0
 10
-82.35664982752245
 20
363.4288938270925
 30
0.0
  0
LINE
  5
B4
330
1F
100
AcDbEntity
  8
0
  6
Continuous
 62
     7
370
    25
100
AcDbLine
 10
-84.7566498275
 20
364.358183149
 30
0.0
 11
-84.7566498275
 21
171.2996045052
 31
0.0
  0
LINE
  5
B5
330
1F
100
AcDbEntity
  8
0
  6
Continuous
 62
     7
370
    25
100
AcDbLine
 10
908.7726394944
 20
365.8288938271
 30
0.0
 11
908.7726394944
 21
364.4288938271
 31
0.0
  0
SPLINE
  5
B6
330
1F
100
AcDbEntity
  8
0
  6
Continuous
 62
     7
370
    25
100
AcDbSpline
210
0.0
220
0.0
230
1.0
 70
     8
 71
     3
 72
    14
 73
    10
 74
     0
 42
0.000000001
 43
0.00000001
 40
0.0
 40
0.0
 40
0.0
 40
0.0
 40
0.2499999999999998
 40
0.2499999999999998
 40
0.4999999999999999
 40
0.4999999999999999
 40
0.7499999999999999
 40
0.7499999999999999
 40
1.0
 40
1.0
 40
1.0
 40
1.0
 10
908.7726394943589
 20
364.4288938270925
 30
0.0
 10
908.6944380793371
 20
364.4288938270926
 30
0.0
 10
908.6187281320404
 20
364.4033351624122
 30
0.0
 10
908.4634477203932
 20
364.3032071338155
 30
0.0
 10
908.3864378708101
 20
364.2296429545112
 30
0.0
 10
908.231014384783
 20
364.0441053188194
 30
0.0
 10
908.1540646678645
 20
363.9339403978599
 30
0.0
 10
907.9986346886153
 20
363.6913286411705
 30
0.0
 10
907.9215515800428
 20
363.5610792303475
 30
0.0
 10
907.8433501724775
 20
363.4288938270926
 30
0.0
  0
LINE
  5
B7
330
1F
100
AcDbEntity
  8
0
  6
Continuous
 62
     7
370
    25
100
AcDbLine
 10
-83.2859391494
 20
169.8288938271
 30
0.0
 11
-83.2859391494
 21
171.2288938271
 31
0.0
  0
SPLINE
  5
B8
330
1F
100
AcDbEntity
  8
0
  6
Continuous
 62
     7
370
    25
100
AcDbSpline
210
0.0
220
0.0
230
1.0
 70
     8
 71
     3
 72
    14
 73
    10
 74
     0
 42
0.000000001
 43
0.00000001
 40
0.0
 40
0.0
 40
0.0
 40
0.0
 40
0.25
 40
0.25
 40
0.5
 40
0.5
 40
0.75
 40
0.75
 40
1.0
 40
1.0
 40
1.0
 40
1.0
 10
-83.2859391494038
 20
171.2288938270927
 30
0.0
 10
-83.20773773438212
 20
171.2288938270927
 30
0.0
 10
-83.13202778708533
 20
171.254452491773
 30
0.0
 10
-82.97674737543808
 20
171.3545805203696
 30
0.0
 10
-82.89973752585512
 20
171.4281446996739
 30
0.0
 10
-82.74431403982786
 20
171.6136823353658
 30
0.0
 10
-82.66736432290939
 20
171.7238472563252
 30
0.0
 10
-82.51193434366022
 20
171.9664590130146
 30
0.0
 10
-82.43485123508748
 20
172.0967084238376
 30
0.0
 10
-82.3566498275225
 20
172.2288938270925
 30
0.0
  0
ARC
  5
B9
330
1F
100
AcDbEntity
  8
0
  6
Continuous
 62
     7
370
    25
100
AcDbCircle
 10
-26.5766399259
 20
318.8858299419
 30
0.0
 40
0.5050994627334905
100
AcDbArc
 50
298.8005827702
 51
112.9304972368
  0
ARC
  5
BA
330
1F
100
AcDbEntity
  8
0
  6
Continuous
 62
     7
370
    25
100
AcDbCircle
 10
-28.7566498275
 20
317.8288938271
 30
0.0
 40
2.499999999999946
100
AcDbArc
 50
37.506301084
 51
74.2247789229
  0
ARC
  5
BB
330
1F
100
AcDbEntity
  8
0
  6
Continuous
 62
     7
370
    25
100
AcDbCircle
 10
-28.5819784023
 20
320.2453058398
 30
0.0
 40
0.5050994627349565
100
AcDbArc
 50
358.800582771
 51
172.930497236
  0
ARC
  5
BC
330
1F
100
AcDbEntity
  8
0
  6
Continuous
 62
     7
370
    25
100
AcDbCircle
 10
-28.7566498275
 20
317.8288938271
 30
0.0
 40
2.499999999999945
100
AcDbArc
 50
97.5063010841
 51
134.2247789229
  0
ARC
  5
BD
330
1F
100
AcDbEntity
  8
0
  6
Continuous
 62
     7
370
    25
100
AcDbCircle
 10
-30.7619883039
 20
319.188369725
 30
0.0
 40
0.5050994627351938
100
AcDbArc
 50
58.8005827697
 51
232.9304972372
  0
ARC
  5
BE
330
1F
100
AcDbEntity
  8
0
  6
Continuous
 62
     7
370
    25
100
AcDbCircle
 10
-28.7566498275
 20
317.8288938271
 30
0.0
 40
2.499999999999956
100
AcDbArc
 50
157.5063010841
 51
194.2247789229
  0
ARC
  5
BF
330
1F
100
AcDbEntity
  8
0
  6
Continuous
 62
     7
370
    25
100
AcDbCircle
 10
-30.9366597291
 20
316.7719577123
 30
0.0
 40
0.5050994627332854
100
AcDbArc
 50
118.8005827707
 51
292.9304972361
  0
ARC
  5
C0
330
1F
100
AcDbEntity
  8
0
  6
Continuous
 62
     7
370
    25
100
AcDbCircle
 10
-28.7566498275
 20
317.8288938271
 30
0.0
 40
2.499999999999952
100
AcDbArc
 50
217.506301084
 51
254.2247789229
  0
ARC
  5
C1
330
1F
100
AcDbEntity
  8
0
  6
Continuous
 62
     7
370
    25
100
AcDbCircle
 10
-28.9313212527
 20
315.4124818144
 30
0.0
 40
0.5050994627366183
100
AcDbArc
 50
178.8005827716
 51
352.9304972354
  0
ARC
  5
C2
330
1F
100
AcDbEntity
  8
0
  6
Continuous
 62
     7
370
    25
100
AcDbCircle
 10
-28.7566498275
 20
317.8288938271
 30
0.0
 40
2.499999999999943
100
AcDbArc
 50
277.5063010841
 51
314.2247789229
  0
ARC
  5
C3
330
1F
100
AcDbEntity
  8
0
  6
Continuous
 62
     7
370
    25
100
AcDbCircle
 10
-26.7513113511
 20
316.4694179292
 30
0.0
 40
0.5050994627355156
100
AcDbArc
 50
238.8005827701
 51
52.9304972368
  0
ARC
  5
C4
330
1F
100
AcDbEntity
  8
0
  6
Continuous
 62
     7
370
    25
100
AcDbCircle
 10
-28.7566498275
 20
317.8288938271
 30
0.0
 40
2.49999999999996
100
AcDbArc
 50
337.5063010841
 51
14.2247789229
  0
CIRCLE
  5
C5
330
1F
100
AcDbEntity
  8
0
  6
Continuous
 62
     7
370
    25
100
AcDbCircle
 10
-28.7566498275
 20
317.8288938271
 30
0.0
 40
5.500000000000109
  0
CIRCLE
  5
C6
330
1F
100
AcDbEntity
  8
0
  6
Continuous
 62
     7
370
    25
100
AcDbCircle
 10
854.2433501725
 20
317.8288938271
 30
0.0
 40
5.500000000000033
  0
ARC
  5
C7
330
1F
100
AcDbEntity
  8
0
  6
Continuous
 62
     7
370
    25
100
AcDbCircle
 10
854.27601703
 20
320.2513904728
 30
0.0
 40
0.5050994627335933
100
AcDbArc
 50
2.1624680629
 51
176.2923825295
  0
ARC
  5
C8
330
1F
100
AcDbEntity
  8
0
  6
Continuous
 62
     7
370
    25
100
AcDbCircle
 10
852.129073108
 20
316.6459358327
 30
0.0
 40
0.5050994627351374
100
AcDbArc
 50
122.1624680624
 51
296.2923825299
  0
ARC
  5
C9
330
1F
100
AcDbEntity
  8
0
  6
Continuous
 62
     7
370
    25
100
AcDbCircle
 10
854.2433501725
 20
317.8288938271
 30
0.0
 40
2.499999999999949
100
AcDbArc
 50
220.8681863768
 51
257.5866642156
  0
ARC
  5
CA
330
1F
100
AcDbEntity
  8
0
  6
Continuous
 62
     7
370
    25
100
AcDbCircle
 10
854.210683315
 20
315.4063971814
 30
0.0
 40
0.5050994627334479
100
AcDbArc
 50
182.1624680634
 51
356.2923825288
  0
ARC
  5
CB
330
1F
100
AcDbEntity
  8
0
  6
Continuous
 62
     7
370
    25
100
AcDbCircle
 10
854.2433501725
 20
317.8288938271
 30
0.0
 40
2.499999999999967
100
AcDbArc
 50
280.8681863767
 51
317.5866642156
  0
ARC
  5
CC
330
1F
100
AcDbEntity
  8
0
  6
Continuous
 62
     7
370
    25
100
AcDbCircle
 10
856.3249603795
 20
316.5893551758
 30
0.0
 40
0.50509946273661
100
AcDbArc
 50
242.1624680643
 51
56.2923825281
  0
ARC
  5
CD
330
1F
100
AcDbEntity
  8
0
  6
Continuous
 62
     7
370
    25
100
AcDbCircle
 10
856.357627237
 20
319.0118518215
 30
0.0
 40
0.5050994627355602
100
AcDbArc
 50
302.1624680628
 51
116.2923825295
  0
ARC
  5
CE
330
1F
100
AcDbEntity
  8
0
  6
Continuous
 62
     7
370
    25
100
AcDbCircle
 10
854.2433501725
 20
317.8288938271
 30
0.0
 40
2.499999999999985
100
AcDbArc
 50
40.8681863768
 51
77.5866642156
  0
ARC
  5
CF
330
1F
100
AcDbEntity
  8
0
  6
Continuous
 62
     7
370
    25
100
AcDbCircle
 10
852.1617399655
 20
319.0684324784
 30
0.0
 40
0.5050994627349373
100
AcDbArc
 50
62.1624680637
 51
236.2923825287
  0
ARC
  5
D0
330
1F
100
AcDbEntity
  8
0
  6
Continuous
 62
     7
370
    25
100
AcDbCircle
 10
854.2433501725
 20
317.8288938271
 30
0.0
 40
2.499999999999982
100
AcDbArc
 50
340.8681863768
 51
17.5866642156
  0
ARC
  5
D1
330
1F
100
AcDbEntity
  8
0
  6
Continuous
 62
     7
370
    25
100
AcDbCircle
 10
854.2433501725
 20
317.8288938271
 30
0.0
 40
2.499999999999925
100
AcDbArc
 50
160.8681863768
 51
197.5866642156
  0
ARC
  5
D2
330
1F
100
AcDbEntity
  8
0
  6
Continuous
 62
     7
370
    25
100
AcDbCircle
 10
854.2433501725
 20
317.8288938271
 30
0.0
 40
2.499999999999956
100
AcDbArc
 50
100.8681863767
 51
137.5866642156
  0
CIRCLE
  5
D3
330
1F
100
AcDbEntity
  8
0
  6
Continuous
 62
     7
370
    25
100
AcDbCircle
 10
854.2433501725
 20
217.8288938271
 30
0.0
 40
5.500000000000113
  0
ARC
  5
D4
330
1F
100
AcDbEntity
  8
0
  6
Continuous
 62
     7
370
    25
100
AcDbCircle
 10
856.184580767
 20
216.3793487603
 30
0.0
 40
0.5050994627352254
100
AcDbArc
 50
236.1858115763
 51
50.3157260438
  0
ARC
  5
D5
330
1F
100
AcDbEntity
  8
0
  6
Continuous
 62
     7
370
    25
100
AcDbCircle
 10
854.2433501725
 20
217.8288938271
 30
0.0
 40
2.499999999999981
100
AcDbArc
 50
334.8915298906
 51
11.6100077295
  0
ARC
  5
D6
330
1F
100
AcDbEntity
  8
0
  6
Continuous
 62
     7
370
    25
100
AcDbCircle
 10
856.4693083215
 20
218.7852763032
 30
0.0
 40
0.5050994627332835
100
AcDbArc
 50
296.1858115773
 51
110.3157260427
  0
ARC
  5
D7
330
1F
100
AcDbEntity
  8
0
  6
Continuous
 62
     7
370
    25
100
AcDbCircle
 10
854.2433501725
 20
217.8288938271
 30
0.0
 40
2.500000000000024
100
AcDbArc
 50
154.8915298906
 51
191.6100077295
  0
ARC
  5
D8
330
1F
100
AcDbEntity
  8
0
  6
Continuous
 62
     7
370
    25
100
AcDbCircle
 10
854.2433501725
 20
217.8288938271
 30
0.0
 40
2.499999999999952
100
AcDbArc
 50
94.8915298907
 51
131.6100077294
  0
ARC
  5
D9
330
1F
100
AcDbEntity
  8
0
  6
Continuous
 62
     7
370
    25
100
AcDbCircle
 10
852.3021195779
 20
219.2784388939
 30
0.0
 40
0.505099462735552
100
AcDbArc
 50
56.1858115767
 51
230.3157260434
  0
ARC
  5
DA
330
1F
100
AcDbEntity
  8
0
  6
Continuous
 62
     7
370
    25
100
AcDbCircle
 10
852.0173920234
 20
216.872511351
 30
0.0
 40
0.5050994627335128
100
AcDbArc
 50
116.1858115767
 51
290.3157260434
  0
ARC
  5
DB
330
1F
100
AcDbEntity
  8
0
  6
Continuous
 62
     7
370
    25
100
AcDbCircle
 10
853.958622618
 20
215.4229662842
 30
0.0
 40
0.5050994627349347
100
AcDbArc
 50
176.1858115776
 51
350.3157260426
  0
ARC
  5
DC
330
1F
100
AcDbEntity
  8
0
  6
Continuous
 62
     7
370
    25
100
AcDbCircle
 10
854.2433501725
 20
217.8288938271
 30
0.0
 40
2.499999999999963
100
AcDbArc
 50
214.8915298906
 51
251.6100077295
  0
ARC
  5
DD
330
1F
100
AcDbEntity
  8
0
  6
Continuous
 62
     7
370
    25
100
AcDbCircle
 10
854.2433501725
 20
217.8288938271
 30
0.0
 40
2.500000000000019
100
AcDbArc
 50
34.8915298906
 51
71.6100077295
  0
ARC
  5
DE
330
1F
100
AcDbEntity
  8
0
  6
Continuous
 62
     7
370
    25
100
AcDbCircle
 10
854.2433501725
 20
217.8288938271
 30
0.0
 40
2.499999999999956
100
AcDbArc
 50
274.8915298907
 51
311.6100077294
  0
ARC
  5
DF
330
1F
100
AcDbEntity
  8
0
  6
Continuous
 62
     7
370
    25
100
AcDbCircle
 10
854.528077727
 20
220.23482137
 30
0.0
 40
0.5050994627366275
100
AcDbArc
 50
356.1858115782
 51
170.315726042
  0
CIRCLE
  5
E0
330
1F
100
AcDbEntity
  8
0
  6
Continuous
 62
     7
370
    25
100
AcDbCircle
 10
-28.7566498275
 20
217.8288938271
 30
0.0
 40
5.500000000000083
  0
ARC
  5
E1
330
1F
100
AcDbEntity
  8
0
  6
Continuous
 62
     7
370
    25
100
AcDbCircle
 10
-26.5766399259
 20
218.8858299419
 30
0.0
 40
0.5050994627335084
100
AcDbArc
 50
298.8005827702
 51
112.9304972368
  0
ARC
  5
E2
330
1F
100
AcDbEntity
  8
0
  6
Continuous
 62
     7
370
    25
100
AcDbCircle
 10
-28.7566498275
 20
217.8288938271
 30
0.0
 40
2.499999999999973
100
AcDbArc
 50
37.506301084
 51
74.2247789229
  0
ARC
  5
E3
330
1F
100
AcDbEntity
  8
0
  6
Continuous
 62
     7
370
    25
100
AcDbCircle
 10
-28.5819784023
 20
220.2453058398
 30
0.0
 40
0.5050994627349565
100
AcDbArc
 50
358.800582771
 51
172.930497236
  0
ARC
  5
E4
330
1F
100
AcDbEntity
  8
0
  6
Continuous
 62
     7
370
    25
100
AcDbCircle
 10
-28.7566498275
 20
217.8288938271
 30
0.0
 40
2.499999999999959
100
AcDbArc
 50
97.5063010841
 51
134.2247789229
  0
ARC
  5
E5
330
1F
100
AcDbEntity
  8
0
  6
Continuous
 62
     7
370
    25
100
AcDbCircle
 10
-30.7619883039
 20
219.188369725
 30
0.0
 40
0.5050994627351938
100
AcDbArc
 50
58.8005827697
 51
232.9304972372
  0
ARC
  5
E6
330
1F
100
AcDbEntity
  8
0
  6
Continuous
 62
     7
370
    25
100
AcDbCircle
 10
-28.7566498275
 20
217.8288938271
 30
0.0
 40
2.499999999999952
100
AcDbArc
 50
157.5063010841
 51
194.2247789229
  0
ARC
  5
E7
330
1F
100
AcDbEntity
  8
0
  6
Continuous
 62
     7
370
    25
100
AcDbCircle
 10
-30.9366597291
 20
216.7719577123
 30
0.0
 40
0.5050994627332606
100
AcDbArc
 50
118.8005827707
 51
292.9304972361
  0
ARC
  5
E8
330
1F
100
AcDbEntity
  8
0
  6
Continuous
 62
     7
370
    25
100
AcDbCircle
 10
-28.7566498275
 20
217.8288938271
 30
0.0
 40
2.499999999999951
100
AcDbArc
 50
217.506301084
 51
254.2247789229
  0
ARC
  5
E9
330
1F
100
AcDbEntity
  8
0
  6
Continuous
 62
     7
370
    25
100
AcDbCircle
 10
-28.9313212527
 20
215.4124818144
 30
0.0
 40
0.5050994627366148
100
AcDbArc
 50
178.8005827716
 51
352.9304972354
  0
ARC
  5
EA
330
1F
100
AcDbEntity
  8
0
  6
Continuous
 62
     7
370
    25
100
AcDbCircle
 10
-28.7566498275
 20
217.8288938271
 30
0.0
 40
2.499999999999943
100
AcDbArc
 50
277.5063010841
 51
314.2247789229
  0
ARC
  5
EB
330
1F
100
AcDbEntity
  8
0
  6
Continuous
 62
     7
370
    25
100
AcDbCircle
 10
-26.7513113511
 20
216.4694179292
 30
0.0
 40
0.5050994627355156
100
AcDbArc
 50
238.8005827701
 51
52.9304972368
  0
ARC
  5
EC
330
1F
100
AcDbEntity
  8
0
  6
Continuous
 62
     7
370
    25
100
AcDbCircle
 10
-28.7566498275
 20
217.8288938271
 30
0.0
 40
2.49999999999997
100
AcDbArc
 50
337.5063010841
 51
14.2247789229
  0
LINE
  5
ED
330
1F
100
AcDbEntity
  8
0
  6
Continuous
 62
     7
370
    25
100
AcDbLine
 10
-40.2566498275
 20
380.3288938271
 30
0.0
 11
-39.4566498275
 21
380.3288938271
 31
0.0
  0
LINE
  5
EE
330
1F
100
AcDbEntity
  8
0
  6
Continuous
 62
     7
370
    25
100
AcDbLine
 10
-40.2566498275
 20
380.3288938271
 30
0.0
 11
-40.2566498275
 21
397.3288938271
 31
0.0
  0
LINE
  5
EF
330
1F
100
AcDbEntity
  8
0
  6
Continuous
 62
     7
370
    25
100
AcDbLine
 10
-39.4566498275
 20
380.3288938271
 30
0.0
 11
-39.4566498275
 21
397.3288938271
 31
0.0
  0
LINE
  5
F0
330
1F
100
AcDbEntity
  8
0
  6
Continuous
 62
     7
370
    25
100
AcDbLine
 10
-40.2566498275
 20
400.3288938271
 30
0.0
 11
-39.4566498275
 21
400.3288938271
 31
0.0
  0
LINE
  5
F1
330
1F
100
AcDbEntity
  8
0
  6
Continuous
 62
     7
370
    25
100
AcDbLine
 10
-39.4566498275
 20
400.3288938271
 30
0.0
 11
-39.4566498275
 21
397.3288938271
 31
0.0
  0
LINE
  5
F2
330
1F
100
AcDbEntity
  8
0
  6
Continuous
 62
     7
370
    25
100
AcDbLine
 10
-40.2566498275
 20
397.3288938271
 30
0.0
 11
-40.2566498275
 21
400.3288938271
 31
0.0
  0
LINE
  5
F3
330
1F
100
AcDbEntity
  8
0
  6
Continuous
 62
     7
370
    25
100
AcDbLine
 10
864.9433501725
 20
397.3288938271
 30
0.0
 11
864.9433501725
 21
400.3288938271
 31
0.0
  0
LINE
  5
F4
330
1F
100
AcDbEntity
  8
0
  6
Continuous
 62
     7
370
    25
100
AcDbLine
 10
864.9433501725
 20
400.3288938271
 30
0.0
 11
865.7433501725
 21
400.3288938271
 31
0.0
  0
LINE
  5
F5
330
1F
100
AcDbEntity
  8
0
  6
Continuous
 62
     7
370
    25
100
AcDbLine
 10
865.7433501725
 20
400.3288938271
 30
0.0
 11
865.7433501725
 21
397.3288938271
 31
0.0
  0
LINE
  5
F6
330
1F
100
AcDbEntity
  8
0
  6
Continuous
 62
     7
370
    25
100
AcDbLine
 10
865.7433501725
 20
380.3288938271
 30
0.0
 11
864.9433501725
 21
380.3288938271
 31
0.0
  0
LINE
  5
F7
330
1F
100
AcDbEntity
  8
0
  6
Continuous
 62
     7
370
    25
100
AcDbLine
 10
865.7433501725
 20
397.3288938271
 30
0.0
 11
865.7433501725
 21
380.3288938271
 31
0.0
  0
LINE
  5
F8
330
1F
100
AcDbEntity
  8
0
  6
Continuous
 62
     7
370
    25
100
AcDbLine
 10
864.9433501725
 20
397.3288938271
 30
0.0
 11
864.9433501725
 21
380.3288938271
 31
0.0
  0
LINE
  5
F9
330
1F
100
AcDbEntity
  8
0
  6
Continuous
 62
     7
370
    25
100
AcDbLine
 10
-39.4566498275
 20
365.8288938271
 30
0.0
 11
-39.4566498275
 21
377.1288938271
 31
0.0
  0
LINE
  5
FA
330
1F
100
AcDbEntity
  8
0
  6
Continuous
 62
     7
370
    25
100
AcDbLine
 10
-39.4566498275
 20
378.8288938271
 30
0.0
 11
-39.4566498275
 21
380.3288938271
 31
0.0
  0
LINE
  5
FB
330
1F
100
AcDbEntity
  8
0
  6
Continuous
 62
     7
370
    25
100
AcDbLine
 10
-40.2566498275
 20
365.8288938271
 30
0.0
 11
-40.2566498275
 21
380.3288938271
 31
0.0
  0
LINE
  5
FC
330
1F
100
AcDbEntity
  8
0
  6
Continuous
 62
     7
370
    25
100
AcDbLine
 10
865.7433501725
 20
380.3288938271
 30
0.0
 11
865.7433501725
 21
365.8288938271
 31
0.0
  0
LINE
  5
FD
330
1F
100
AcDbEntity
  8
0
  6
Continuous
 62
     7
370
    25
100
AcDbLine
 10
864.9433501725
 20
380.3288938271
 30
0.0
 11
864.9433501725
 21
378.8288938271
 31
0.0
  0
LINE
  5
FE
330
1F
100
AcDbEntity
  8
0
  6
Continuous
 62
     7
370
    25
100
AcDbLine
 10
864.9433501725
 20
377.1288938271
 30
0.0
 11
864.9433501725
 21
365.8288938271
 31
0.0
  0
LINE
  5
FF
330
1F
100
AcDbEntity
  8
0
  6
Continuous
 62
     7
370
    25
100
AcDbLine
 10
874.4021001725
 20
365.8288938271
 30
0.0
 11
874.4021001725
 21
371.8288938271
 31
0.0
  0
LINE
  5
100
330
1F
100
AcDbEntity
  8
0
  6
Continuous
 62
     7
370
    25
100
AcDbLine
 10
874.9433501725
 20
366.9445009114
 30
0.0
 11
874.9433501725
 21
371.2876438271
 31
0.0
  0
LINE
  5
101
330
1F
100
AcDbEntity
  8
0
  6
Continuous
 62
     7
370
    25
100
AcDbLine
 10
874.9433501725
 20
366.3701438271
 30
0.0
 11
874.9433501725
 21
366.9445009114
 31
0.0
  0
LINE
  5
102
330
1F
100
AcDbEntity
  8
0
  6
Continuous
 62
     7
370
    25
100
AcDbLine
 10
-39.6775800601
 20
378.8288938271
 30
0.0
 11
865.164280405
 21
378.8288938271
 31
0.0
  0
LINE
  5
103
330
1F
100
AcDbEntity
  8
0
  6
Continuous
 62
     7
370
    25
100
AcDbLine
 10
-39.6775800601
 20
377.1288938271
 30
0.0
 11
865.164280405
 21
377.1288938271
 31
0.0
  0
ELLIPSE
  5
104
330
1F
100
AcDbEntity
  8
0
  6
Continuous
 62
     7
370
    25
100
AcDbEllipse
 10
-39.6775800601
 20
377.9788938271
 30
0.0
 11
0.0
 21
0.8500000000000227
 31
0.0
210
0.0
220
0.0
230
1.0
 40
0.0930232558
 41
0.0
 42
3.14159265359066
  0
ELLIPSE
  5
105
330
1F
100
AcDbEntity
  8
0
  6
Continuous
 62
     7
370
    25
100
AcDbEllipse
 10
865.164280405
 20
377.9788938271
 30
0.0
 11
0.0
 21
0.8500000000000227
 31
0.0
210
0.0
220
0.0
230
1.0
 40
0.0930232558
 41
3.141592653589792
 42
6.283185307179586
  0
LINE
  5
106
330
1F
100
AcDbEntity
  8
0
  6
Continuous
 62
     7
370
    25
100
AcDbLine
 10
864.2433501725
 20
377.0288938271
 30
0.0
 11
864.2433501725
 21
377.1288938271
 31
0.0
  0
LINE
  5
107
330
1F
100
AcDbEntity
  8
0
  6
Continuous
 62
     7
370
    25
100
AcDbLine
 10
-38.7566498275
 20
377.1288938271
 30
0.0
 11
-38.7566498275
 21
377.0288938271
 31
0.0
  0
LINE
  5
108
330
1F
100
AcDbEntity
  8
0
  6
Continuous
 62
     7
370
    25
100
AcDbLine
 10
864.2433501725
 20
365.8288938271
 30
0.0
 11
864.2433501725
 21
377.0288938271
 31
0.0
  0
LINE
  5
109
330
1F
100
AcDbEntity
  8
0
  6
Continuous
 62
     7
370
    25
100
AcDbLine
 10
-38.7566498275
 20
377.0288938271
 30
0.0
 11
-38.7566498275
 21
365.8288938271
 31
0.0
  0
LINE
  5
10A
330
1F
100
AcDbEntity
  8
0
  6
Continuous
 62
     7
370
    25
100
AcDbLine
 10
-48.9153998275
 20
370.1252596734
 30
0.0
 11
-48.9153998275
 21
365.8288938271
 31
0.0
  0
LINE
  5
10B
330
1F
100
AcDbEntity
  8
0
  6
Continuous
 62
     7
370
    25
100
AcDbLine
 10
-48.9153998275
 20
371.8288938271
 30
0.0
 11
-48.9153998275
 21
370.1252596734
 31
0.0
  0
LINE
  5
10C
330
1F
100
AcDbEntity
  8
0
  6
Continuous
 62
     7
370
    25
100
AcDbLine
 10
-49.4566498275
 20
371.2876438271
 30
0.0
 11
-49.4566498275
 21
366.3701438271
 31
0.0
  0
LINE
  5
10D
330
1F
100
AcDbEntity
  8
0
  6
Continuous
 62
     7
370
    25
100
AcDbLine
 10
842.1038114087
 20
369.0933377069
 30
0.0
 11
843.5558871326
 21
369.326281572
 31
0.0
  0
ARC
  5
10E
330
1F
100
AcDbEntity
  8
0
  6
Continuous
 62
     7
370
    25
100
AcDbCircle
 10
854.0688164874
 20
370.4051078377
 30
0.0
 40
12.0366975292529
100
AcDbArc
 50
186.2565722693
 51
191.9710500657
  0
LINE
  5
10F
330
1F
100
AcDbEntity
  8
0
  6
Continuous
 62
     7
370
    25
100
AcDbLine
 10
842.2938867036
 20
367.9084869221
 30
0.0
 11
843.7459624275
 21
368.1414307872
 31
0.0
  0
LINE
  5
110
330
1F
100
AcDbEntity
  8
0
  6
Continuous
 62
     7
370
    25
100
AcDbLine
 10
843.7459624275
 20
368.1414307872
 30
0.0
 11
843.9789062927
 21
366.6893550633
 31
0.0
  0
ARC
  5
111
330
1F
100
AcDbEntity
  8
0
  6
Continuous
 62
     7
370
    25
100
AcDbCircle
 10
842.6671361618
 20
378.6543601422
 30
0.0
 40
12.03669752936796
100
AcDbArc
 50
276.2565722694
 51
281.9710500657
  0
LINE
  5
112
330
1F
100
AcDbEntity
  8
0
  6
Continuous
 62
     7
370
    25
100
AcDbLine
 10
844.9308132123
 20
368.3315060821
 30
0.0
 11
845.1637570775
 21
366.8794303582
 31
0.0
  0
ARC
  5
113
330
1F
100
AcDbEntity
  8
0
  6
Continuous
 62
     7
370
    25
100
AcDbCircle
 10
834.4178838574
 20
367.2526798164
 30
0.0
 40
12.0366975294245
100
AcDbArc
 50
6.2565722694
 51
11.9710500657
  0
LINE
  5
114
330
1F
100
AcDbEntity
  8
0
  6
Continuous
 62
     7
370
    25
100
AcDbLine
 10
844.7407379174
 20
369.516356867
 30
0.0
 11
846.1928136414
 21
369.7493007321
 31
0.0
  0
ARC
  5
115
330
1F
100
AcDbEntity
  8
0
  6
Continuous
 62
     7
370
    25
100
AcDbCircle
 10
845.8195641831
 20
359.0034275121
 30
0.0
 40
12.03669752933586
100
AcDbArc
 50
96.2565722693
 51
101.9710500657
  0
ARC
  5
116
330
1F
100
AcDbEntity
  8
0
  6
Continuous
 62
     7
370
    25
100
AcDbCircle
 10
844.2433501725
 20
368.8288938271
 30
0.0
 40
4.000000000000016
100
AcDbArc
 50
311.4096221093
 51
99.1138111675
  0
ARC
  5
117
330
1F
100
AcDbEntity
  8
0
  6
Continuous
 62
     7
370
    25
100
AcDbCircle
 10
844.2433501725
 20
368.8288938271
 30
0.0
 40
4.000000000000082
100
AcDbArc
 50
99.1138111675
 51
228.5903778907
  0
LINE
  5
118
330
1F
100
AcDbEntity
  8
0
  6
Continuous
 62
     7
370
    25
100
AcDbLine
 10
844.9308132123
 20
368.3315060821
 30
0.0
 11
846.3828889363
 21
368.5644499473
 31
0.0
  0
LINE
  5
119
330
1F
100
AcDbEntity
  8
0
  6
Continuous
 62
     7
370
    25
100
AcDbLine
 10
843.3229432674
 20
370.778357296
 30
0.0
 11
843.5558871326
 21
369.326281572
 31
0.0
  0
LINE
  5
11A
330
1F
100
AcDbEntity
  8
0
  6
Continuous
 62
     7
370
    25
100
AcDbLine
 10
844.5077940522
 20
370.9684325909
 30
0.0
 11
844.7407379174
 21
369.516356867
 31
0.0
  0
LINE
  5
11B
330
1F
100
AcDbEntity
  8
0
  6
Continuous
 62
     7
370
    25
100
AcDbLine
 10
844.8888442655
 20
369.5401162788
 30
0.0
 11
845.0789195604
 21
368.355265494
 31
0.0
  0
LINE
  5
11C
330
1F
100
AcDbEntity
  8
0
  6
Continuous
 62
     7
370
    25
100
AcDbLine
 10
844.9545726242
 20
368.183399734
 30
0.0
 11
843.7697218394
 21
367.9933244391
 31
0.0
  0
LINE
  5
11D
330
1F
100
AcDbEntity
  8
0
  6
Continuous
 62
     7
370
    25
100
AcDbLine
 10
844.7169785056
 20
369.6644632151
 30
0.0
 11
843.5321277207
 21
369.4743879201
 31
0.0
  0
LINE
  5
11E
330
1F
100
AcDbEntity
  8
0
  6
Continuous
 62
     7
370
    25
100
AcDbLine
 10
843.4077807845
 20
369.3025221602
 30
0.0
 11
843.5978560794
 21
368.1176713754
 31
0.0
  0
LINE
  5
11F
330
1F
100
AcDbEntity
  8
0
  6
Continuous
 62
     7
370
    25
100
AcDbLine
 10
260.3229432674
 20
370.778357296
 30
0.0
 11
260.5558871326
 21
369.326281572
 31
0.0
  0
LINE
  5
120
330
1F
100
AcDbEntity
  8
0
  6
Continuous
 62
     7
370
    25
100
AcDbLine
 10
259.1038114087
 20
369.0933377069
 30
0.0
 11
260.5558871326
 21
369.326281572
 31
0.0
  0
ARC
  5
121
330
1F
100
AcDbEntity
  8
0
  6
Continuous
 62
     7
370
    25
100
AcDbCircle
 10
271.0688164875
 20
370.4051078377
 30
0.0
 40
12.03669752935117
100
AcDbArc
 50
186.2565722694
 51
191.9710500657
  0
LINE
  5
122
330
1F
100
AcDbEntity
  8
0
  6
Continuous
 62
     7
370
    25
100
AcDbLine
 10
259.2938867036
 20
367.9084869221
 30
0.0
 11
260.7459624275
 21
368.1414307872
 31
0.0
  0
LINE
  5
123
330
1F
100
AcDbEntity
  8
0
  6
Continuous
 62
     7
370
    25
100
AcDbLine
 10
260.7459624275
 20
368.1414307872
 30
0.0
 11
260.9789062927
 21
366.6893550633
 31
0.0
  0
ARC
  5
124
330
1F
100
AcDbEntity
  8
0
  6
Continuous
 62
     7
370
    25
100
AcDbCircle
 10
259.6671361618
 20
378.6543601421
 30
0.0
 40
12.03669752935642
100
AcDbArc
 50
276.2565722694
 51
281.9710500657
  0
LINE
  5
125
330
1F
100
AcDbEntity
  8
0
  6
Continuous
 62
     7
370
    25
100
AcDbLine
 10
261.9308132123
 20
368.3315060821
 30
0.0
 11
262.1637570775
 21
366.8794303582
 31
0.0
  0
LINE
  5
126
330
1F
100
AcDbEntity
  8
0
  6
Continuous
 62
     7
370
    25
100
AcDbLine
 10
261.9308132123
 20
368.3315060821
 30
0.0
 11
263.3828889363
 21
368.5644499473
 31
0.0
  0
ARC
  5
127
330
1F
100
AcDbEntity
  8
0
  6
Continuous
 62
     7
370
    25
100
AcDbCircle
 10
251.4178838574
 20
367.2526798165
 30
0.0
 40
12.03669752934883
100
AcDbArc
 50
6.2565722694
 51
11.9710500657
  0
LINE
  5
128
330
1F
100
AcDbEntity
  8
0
  6
Continuous
 62
     7
370
    25
100
AcDbLine
 10
261.7407379174
 20
369.516356867
 30
0.0
 11
263.1928136414
 21
369.7493007321
 31
0.0
  0
LINE
  5
129
330
1F
100
AcDbEntity
  8
0
  6
Continuous
 62
     7
370
    25
100
AcDbLine
 10
261.5077940522
 20
370.9684325909
 30
0.0
 11
261.7407379174
 21
369.516356867
 31
0.0
  0
ARC
  5
12A
330
1F
100
AcDbEntity
  8
0
  6
Continuous
 62
     7
370
    25
100
AcDbCircle
 10
262.8195641831
 20
359.0034275121
 30
0.0
 40
12.0366975293361
100
AcDbArc
 50
96.2565722693
 51
101.9710500657
  0
ARC
  5
12B
330
1F
100
AcDbEntity
  8
0
  6
Continuous
 62
     7
370
    25
100
AcDbCircle
 10
261.2433501725
 20
368.8288938271
 30
0.0
 40
4.000000000000054
100
AcDbArc
 50
311.4096221093
 51
99.1138111675
  0
ARC
  5
12C
330
1F
100
AcDbEntity
  8
0
  6
Continuous
 62
     7
370
    25
100
AcDbCircle
 10
261.2433501725
 20
368.8288938271
 30
0.0
 40
4.000000000000054
100
AcDbArc
 50
99.1138111675
 51
228.5903778907
  0
LINE
  5
12D
330
1F
100
AcDbEntity
  8
0
  6
Continuous
 62
     7
370
    25
100
AcDbLine
 10
261.8888442655
 20
369.5401162788
 30
0.0
 11
262.0789195604
 21
368.355265494
 31
0.0
  0
LINE
  5
12E
330
1F
100
AcDbEntity
  8
0
  6
Continuous
 62
     7
370
    25
100
AcDbLine
 10
261.7169785056
 20
369.6644632151
 30
0.0
 11
260.5321277207
 21
369.4743879201
 31
0.0
  0
LINE
  5
12F
330
1F
100
AcDbEntity
  8
0
  6
Continuous
 62
     7
370
    25
100
AcDbLine
 10
261.9545726242
 20
368.183399734
 30
0.0
 11
260.7697218394
 21
367.9933244391
 31
0.0
  0
LINE
  5
130
330
1F
100
AcDbEntity
  8
0
  6
Continuous
 62
     7
370
    25
100
AcDbLine
 10
260.4077807845
 20
369.3025221602
 30
0.0
 11
260.5978560794
 21
368.1176713754
 31
0.0
  0
LINE
  5
131
330
1F
100
AcDbEntity
  8
0
  6
Continuous
 62
     7
370
    25
100
AcDbLine
 10
562.1038114087
 20
369.0933377069
 30
0.0
 11
563.5558871326
 21
369.326281572
 31
0.0
  0
ARC
  5
132
330
1F
100
AcDbEntity
  8
0
  6
Continuous
 62
     7
370
    25
100
AcDbCircle
 10
574.0688164875
 20
370.4051078377
 30
0.0
 40
12.03669752932316
100
AcDbArc
 50
186.2565722693
 51
191.9710500657
  0
LINE
  5
133
330
1F
100
AcDbEntity
  8
0
  6
Continuous
 62
     7
370
    25
100
AcDbLine
 10
562.2938867036
 20
367.9084869221
 30
0.0
 11
563.7459624275
 21
368.1414307872
 31
0.0
  0
ARC
  5
134
330
1F
100
AcDbEntity
  8
0
  6
Continuous
 62
     7
370
    25
100
AcDbCircle
 10
562.6671361618
 20
378.6543601422
 30
0.0
 40
12.03669752936394
100
AcDbArc
 50
276.2565722694
 51
281.9710500657
  0
ARC
  5
135
330
1F
100
AcDbEntity
  8
0
  6
Continuous
 62
     7
370
    25
100
AcDbCircle
 10
554.4178838574
 20
367.2526798165
 30
0.0
 40
12.03669752932881
100
AcDbArc
 50
6.2565722693
 51
11.9710500657
  0
ARC
  5
136
330
1F
100
AcDbEntity
  8
0
  6
Continuous
 62
     7
370
    25
100
AcDbCircle
 10
565.8195641831
 20
359.0034275121
 30
0.0
 40
12.03669752933159
100
AcDbArc
 50
96.2565722693
 51
101.9710500657
  0
ARC
  5
137
330
1F
100
AcDbEntity
  8
0
  6
Continuous
 62
     7
370
    25
100
AcDbCircle
 10
564.2433501725
 20
368.8288938271
 30
0.0
 40
4.000000000000016
100
AcDbArc
 50
311.4096221093
 51
99.1138111675
  0
ARC
  5
138
330
1F
100
AcDbEntity
  8
0
  6
Continuous
 62
     7
370
    25
100
AcDbCircle
 10
564.2433501725
 20
368.8288938271
 30
0.0
 40
4.000000000000016
100
AcDbArc
 50
99.1138111675
 51
228.5903778907
  0
LINE
  5
139
330
1F
100
AcDbEntity
  8
0
  6
Continuous
 62
     7
370
    25
100
AcDbLine
 10
564.7407379174
 20
369.516356867
 30
0.0
 11
566.1928136414
 21
369.7493007321
 31
0.0
  0
LINE
  5
13A
330
1F
100
AcDbEntity
  8
0
  6
Continuous
 62
     7
370
    25
100
AcDbLine
 10
564.9308132123
 20
368.3315060821
 30
0.0
 11
565.1637570775
 21
366.8794303582
 31
0.0
  0
LINE
  5
13B
330
1F
100
AcDbEntity
  8
0
  6
Continuous
 62
     7
370
    25
100
AcDbLine
 10
564.5077940522
 20
370.9684325909
 30
0.0
 11
564.7407379174
 21
369.516356867
 31
0.0
  0
LINE
  5
13C
330
1F
100
AcDbEntity
  8
0
  6
Continuous
 62
     7
370
    25
100
AcDbLine
 10
563.3229432674
 20
370.778357296
 30
0.0
 11
563.5558871326
 21
369.326281572
 31
0.0
  0
LINE
  5
13D
330
1F
100
AcDbEntity
  8
0
  6
Continuous
 62
     7
370
    25
100
AcDbLine
 10
563.7459624275
 20
368.1414307872
 30
0.0
 11
563.9789062927
 21
366.6893550633
 31
0.0
  0
LINE
  5
13E
330
1F
100
AcDbEntity
  8
0
  6
Continuous
 62
     7
370
    25
100
AcDbLine
 10
564.9308132123
 20
368.3315060821
 30
0.0
 11
566.3828889363
 21
368.5644499473
 31
0.0
  0
LINE
  5
13F
330
1F
100
AcDbEntity
  8
0
  6
Continuous
 62
     7
370
    25
100
AcDbLine
 10
564.8888442655
 20
369.5401162788
 30
0.0
 11
565.0789195604
 21
368.355265494
 31
0.0
  0
LINE
  5
140
330
1F
100
AcDbEntity
  8
0
  6
Continuous
 62
     7
370
    25
100
AcDbLine
 10
564.7169785056
 20
369.6644632151
 30
0.0
 11
563.5321277207
 21
369.4743879201
 31
0.0
  0
LINE
  5
141
330
1F
100
AcDbEntity
  8
0
  6
Continuous
 62
     7
370
    25
100
AcDbLine
 10
564.9545726242
 20
368.183399734
 30
0.0
 11
563.7697218394
 21
367.9933244391
 31
0.0
  0
LINE
  5
142
330
1F
100
AcDbEntity
  8
0
  6
Continuous
 62
     7
370
    25
100
AcDbLine
 10
563.4077807845
 20
369.3025221602
 30
0.0
 11
563.5978560794
 21
368.1176713754
 31
0.0
  0
LINE
  5
143
330
1F
100
AcDbEntity
  8
0
  6
Continuous
 62
     7
370
    25
100
AcDbLine
 10
-20.8961885913
 20
369.0933377069
 30
0.0
 11
-19.4441128674
 21
369.326281572
 31
0.0
  0
ARC
  5
144
330
1F
100
AcDbEntity
  8
0
  6
Continuous
 62
     7
370
    25
100
AcDbCircle
 10
-8.9311835125
 20
370.4051078377
 30
0.0
 40
12.03669752933463
100
AcDbArc
 50
186.2565722693
 51
191.9710500657
  0
ARC
  5
145
330
1F
100
AcDbEntity
  8
0
  6
Continuous
 62
     7
370
    25
100
AcDbCircle
 10
-20.3328638382
 20
378.6543601422
 30
0.0
 40
12.03669752936216
100
AcDbArc
 50
276.2565722694
 51
281.9710500657
  0
ARC
  5
146
330
1F
100
AcDbEntity
  8
0
  6
Continuous
 62
     7
370
    25
100
AcDbCircle
 10
-28.5821161426
 20
367.2526798165
 30
0.0
 40
12.03669752933942
100
AcDbArc
 50
6.2565722693
 51
11.9710500657
  0
ARC
  5
147
330
1F
100
AcDbEntity
  8
0
  6
Continuous
 62
     7
370
    25
100
AcDbCircle
 10
-17.1804358169
 20
359.0034275121
 30
0.0
 40
12.03669752933945
100
AcDbArc
 50
96.2565722693
 51
101.9710500657
  0
ARC
  5
148
330
1F
100
AcDbEntity
  8
0
  6
Continuous
 62
     7
370
    25
100
AcDbCircle
 10
-18.7566498275
 20
368.8288938271
 30
0.0
 40
4.000000000000012
100
AcDbArc
 50
311.4096221093
 51
99.1138111675
  0
ARC
  5
149
330
1F
100
AcDbEntity
  8
0
  6
Continuous
 62
     7
370
    25
100
AcDbCircle
 10
-18.7566498275
 20
368.8288938271
 30
0.0
 40
3.999999999999998
100
AcDbArc
 50
99.1138111675
 51
228.5903778907
  0
LINE
  5
14A
330
1F
100
AcDbEntity
  8
0
  6
Continuous
 62
     7
370
    25
100
AcDbLine
 10
-20.7061132964
 20
367.9084869221
 30
0.0
 11
-19.2540375725
 21
368.1414307872
 31
0.0
  0
LINE
  5
14B
330
1F
100
AcDbEntity
  8
0
  6
Continuous
 62
     7
370
    25
100
AcDbLine
 10
-18.0691867877
 20
368.3315060821
 30
0.0
 11
-17.8362429225
 21
366.8794303582
 31
0.0
  0
LINE
  5
14C
330
1F
100
AcDbEntity
  8
0
  6
Continuous
 62
     7
370
    25
100
AcDbLine
 10
-18.4922059478
 20
370.9684325909
 30
0.0
 11
-18.2592620826
 21
369.516356867
 31
0.0
  0
LINE
  5
14D
330
1F
100
AcDbEntity
  8
0
  6
Continuous
 62
     7
370
    25
100
AcDbLine
 10
-19.6770567326
 20
370.778357296
 30
0.0
 11
-19.4441128674
 21
369.326281572
 31
0.0
  0
LINE
  5
14E
330
1F
100
AcDbEntity
  8
0
  6
Continuous
 62
     7
370
    25
100
AcDbLine
 10
-19.2540375725
 20
368.1414307872
 30
0.0
 11
-19.0210937073
 21
366.6893550633
 31
0.0
  0
LINE
  5
14F
330
1F
100
AcDbEntity
  8
0
  6
Continuous
 62
     7
370
    25
100
AcDbLine
 10
-18.2592620826
 20
369.516356867
 30
0.0
 11
-16.8071863586
 21
369.7493007321
 31
0.0
  0
LINE
  5
150
330
1F
100
AcDbEntity
  8
0
  6
Continuous
 62
     7
370
    25
100
AcDbLine
 10
-18.0691867877
 20
368.3315060821
 30
0.0
 11
-16.6171110637
 21
368.5644499473
 31
0.0
  0
LINE
  5
151
330
1F
100
AcDbEntity
  8
0
  6
Continuous
 62
     7
370
    25
100
AcDbLine
 10
-18.1111557345
 20
369.5401162788
 30
0.0
 11
-17.9210804396
 21
368.355265494
 31
0.0
  0
LINE
  5
152
330
1F
100
AcDbEntity
  8
0
  6
Continuous
 62
     7
370
    25
100
AcDbLine
 10
-18.2830214944
 20
369.6644632151
 30
0.0
 11
-19.4678722793
 21
369.4743879201
 31
0.0
  0
LINE
  5
153
330
1F
100
AcDbEntity
  8
0
  6
Continuous
 62
     7
370
    25
100
AcDbLine
 10
-18.0454273758
 20
368.183399734
 30
0.0
 11
-19.2302781606
 21
367.9933244391
 31
0.0
  0
LINE
  5
154
330
1F
100
AcDbEntity
  8
0
  6
Continuous
 62
     7
370
    25
100
AcDbLine
 10
-19.5922192155
 20
369.3025221602
 30
0.0
 11
-19.4021439206
 21
368.1176713754
 31
0.0
  0
SPLINE
  5
155
330
1F
100
AcDbEntity
  8
0
  6
Continuous
 62
     7
370
    25
100
AcDbSpline
210
0.0
220
0.0
230
1.0
 70
    24
 71
     3
 72
    18
 73
    14
 74
     0
 42
0.000000001
 43
0.00000001
 40
0.0
 40
0.0
 40
0.0
 40
0.0
 40
0.1395442450004759
 40
0.2146633576115604
 40
0.291376605570159
 40
0.3680898535287582
 40
0.4432089661398437
 40
0.5827532111403183
 40
0.7222974561407933
 40
0.7974165687518796
 40
0.8741298167104771
 40
0.9508430646690749
 40
1.0
 40
1.0
 40
1.0
 40
1.0
 10
-38.45664982752256
 20
388.5983657703268
 30
0.0
 10
-38.45664982752267
 20
388.9834966622525
 30
0.0
 10
-38.45664982752267
 20
389.5759502627605
 30
0.0
 10
-38.45664982752245
 20
390.8118644441454
 30
0.0
 10
-38.45664982752262
 20
391.8878940565004
 30
0.0
 10
-38.45664982752239
 20
393.0514221770491
 30
0.0
 10
-38.45664982752262
 20
394.5718693680674
 30
0.0
 10
-38.4566498275225
 20
396.396059366074
 30
0.0
 10
-38.4566498275225
 20
397.9112943206665
 30
0.0
 10
-38.45664982752267
 20
398.8290416190965
 30
0.0
 10
-38.4566498275225
 20
399.3326584374501
 30
0.0
 10
-38.45664982752267
 20
399.6047955621901
 30
0.0
 10
-38.45664982752256
 20
399.6028877193041
 30
0.0
 10
-38.45664982752256
 20
399.6021426364981
 30
0.0
  0
SPLINE
  5
156
330
1F
100
AcDbEntity
  8
0
  6
Continuous
 62
     7
370
    25
100
AcDbSpline
210
0.0
220
0.0
230
1.0
 70
     8
 71
     3
 72
     8
 73
     4
 74
     0
 42
0.000000001
 43
0.00000001
 40
0.0
 40
0.0
 40
0.0
 40
0.0
 40
1.0
 40
1.0
 40
1.0
 40
1.0
 10
-34.45664982752972
 20
395.9895035709075
 30
0.0
 10
-34.45664982752972
 20
396.8780433774633
 30
0.0
 10
-34.63096512790914
 20
397.7422642308822
 30
0.0
 10
-34.903231814921
 20
398.5928197595974
 30
0.0
  0
SPLINE
  5
157
330
1F
100
AcDbEntity
  8
0
  6
Continuous
 62
     7
370
    25
100
AcDbSpline
210
0.0
220
0.0
230
1.0
 70
     8
 71
     3
 72
     8
 73
     4
 74
     0
 42
0.000000001
 43
0.00000001
 40
0.0
 40
0.0
 40
0.0
 40
0.0
 40
1.0
 40
1.0
 40
1.0
 40
1.0
 10
-34.903231814921
 20
393.3861873822174
 30
0.0
 10
-34.63096512790953
 20
394.2367429109312
 30
0.0
 10
-34.45664982752972
 20
395.100963764353
 30
0.0
 10
-34.45664982752972
 20
395.9895035709075
 30
0.0
  0
LINE
  5
158
330
1F
100
AcDbEntity
  8
0
  6
Continuous
 62
     7
370
    25
100
AcDbLine
 10
-34.9032318149
 20
393.3861873822
 30
0.0
 11
-38.4566498275
 21
393.3861873822
 31
0.0
  0
LINE
  5
159
330
1F
100
AcDbEntity
  8
0
  6
Continuous
 62
     7
370
    25
100
AcDbLine
 10
-38.4566498275
 20
398.5928197596
 30
0.0
 11
-34.9032318149
 21
398.5928197596
 31
0.0
  0
SPLINE
  5
15A
330
1F
100
AcDbEntity
  8
0
  6
Continuous
 62
     7
370
    25
100
AcDbSpline
210
0.0
220
0.0
230
1.0
 70
     8
 71
     3
 72
     8
 73
     4
 74
     0
 42
0.000000001
 43
0.00000001
 40
0.0
 40
0.0
 40
0.0
 40
0.0
 40
1.0
 40
1.0
 40
1.0
 40
1.0
 10
-34.45664982752966
 20
391.0042244159609
 30
0.0
 10
-34.45664982752966
 20
391.817213987666
 30
0.0
 10
-34.63096512790892
 20
392.6079523837338
 30
0.0
 10
-34.903231814921
 20
393.3861873822107
 30
0.0
  0
SPLINE
  5
15B
330
1F
100
AcDbEntity
  8
0
  6
Continuous
 62
     7
370
    25
100
AcDbSpline
210
0.0
220
0.0
230
1.0
 70
     8
 71
     3
 72
     8
 73
     4
 74
     0
 42
0.000000001
 43
0.00000001
 40
0.0
 40
0.0
 40
0.0
 40
0.0
 40
1.0
 40
1.0
 40
1.0
 40
1.0
 10
-34.903231814921
 20
388.6222614497112
 30
0.0
 10
-34.63096512790958
 20
389.400496448186
 30
0.0
 10
-34.45664982752966
 20
390.1912348442578
 30
0.0
 10
-34.45664982752966
 20
391.0042244159609
 30
0.0
  0
LINE
  5
15C
330
1F
100
AcDbEntity
  8
0
  6
Continuous
 62
     7
370
    25
100
AcDbLine
 10
-38.4566498275
 20
388.6222614497
 30
0.0
 11
-34.9032318149
 21
388.6222614497
 31
0.0
  0
LINE
  5
15D
330
1F
100
AcDbEntity
  8
0
  6
Continuous
 62
     7
370
    25
100
AcDbLine
 10
-34.4566498275
 20
391.004224416
 30
0.0
 11
-34.4566498275
 21
395.9895035709
 31
0.0
  0
SPLINE
  5
15E
330
1F
100
AcDbEntity
  8
0
  6
Continuous
 62
     7
370
    25
100
AcDbSpline
210
0.0
220
0.0
230
1.0
 70
     8
 71
     3
 72
     8
 73
     4
 74
     0
 42
0.000000001
 43
0.00000001
 40
0.0
 40
0.0
 40
0.0
 40
0.0
 40
1.0
 40
1.0
 40
1.0
 40
1.0
 10
-34.90323181492089
 20
398.592819759601
 30
0.0
 10
-34.63096512790948
 20
398.6651402898399
 30
0.0
 10
-34.45664982752955
 20
398.7386227471903
 30
0.0
 10
-34.45664982752955
 20
398.8141729820415
 30
0.0
  0
LINE
  5
15F
330
1F
100
AcDbEntity
  8
0
  6
Continuous
 62
     7
370
    25
100
AcDbLine
 10
-34.4566498275
 20
395.9895035709
 30
0.0
 11
-34.4566498275
 21
398.814172982
 31
0.0
  0
SPLINE
  5
160
330
1F
100
AcDbEntity
  8
0
  6
Continuous
 62
     7
370
    25
100
AcDbSpline
210
0.0
220
0.0
230
1.0
 70
     8
 71
     3
 72
     8
 73
     4
 74
     0
 42
0.000000001
 43
0.00000001
 40
0.0
 40
0.0
 40
0.0
 40
0.0
 40
1.0
 40
1.0
 40
1.0
 40
1.0
 10
-34.45664982752955
 20
388.8436146721488
 30
0.0
 10
-34.45664982752955
 20
388.7680644372975
 30
0.0
 10
-34.63096512790897
 20
388.6945819799473
 30
0.0
 10
-34.90323181492094
 20
388.6222614497083
 30
0.0
  0
LINE
  5
161
330
1F
100
AcDbEntity
  8
0
  6
Continuous
 62
     7
370
    25
100
AcDbLine
 10
-34.4566498275
 20
391.004224416
 30
0.0
 11
-34.4566498275
 21
388.8362213333
 31
0.0
  0
SPLINE
  5
162
330
1F
100
AcDbEntity
  8
0
  6
Continuous
 62
     7
370
    25
100
AcDbSpline
210
0.0
220
0.0
230
1.0
 70
     8
 71
     3
 72
     8
 73
     4
 74
     0
 42
0.000000001
 43
0.00000001
 40
0.0
 40
0.0
 40
0.0
 40
0.0
 40
1.0
 40
1.0
 40
1.0
 40
1.0
 10
-34.45664982752955
 20
398.8141729820415
 30
0.0
 10
-34.45664982752955
 20
398.8897232168929
 30
0.0
 10
-34.63096512790897
 20
398.9632056742431
 30
0.0
 10
-34.90323181492094
 20
399.035526204482
 30
0.0
  0
LINE
  5
163
330
1F
100
AcDbEntity
  8
0
  6
Continuous
 62
     7
370
    25
100
AcDbLine
 10
-38.4566498275
 20
399.0355262045
 30
0.0
 11
-34.9032318149
 21
399.0355262045
 31
0.0
  0
LINE
  5
164
330
1F
100
AcDbEntity
  8
0
  6
Continuous
 62
     7
370
    25
100
AcDbLine
 10
-48.9153998275
 20
395.1252596734
 30
0.0
 11
-48.9153998275
 21
390.8288938271
 31
0.0
  0
LINE
  5
165
330
1F
100
AcDbEntity
  8
0
  6
Continuous
 62
     7
370
    25
100
AcDbLine
 10
-48.9153998275
 20
396.8288938271
 30
0.0
 11
-48.9153998275
 21
395.1252596734
 31
0.0
  0
LINE
  5
166
330
1F
100
AcDbEntity
  8
0
  6
Continuous
 62
     7
370
    25
100
AcDbLine
 10
-49.4566498275
 20
396.2876438271
 30
0.0
 11
-49.4566498275
 21
391.3701438271
 31
0.0
  0
LINE
  5
167
330
1F
100
AcDbEntity
  8
0
  6
Continuous
 62
     7
370
    25
100
AcDbLine
 10
987.7843977036
 20
365.050267155
 30
0.0
 11
988.147335482
 21
365.6788938271
 31
0.0
  0
LINE
  5
168
330
1F
100
AcDbEntity
  8
0
  6
Continuous
 62
     7
370
    25
100
AcDbLine
 10
988.147335482
 20
371.9788938271
 30
0.0
 11
987.7843977036
 21
372.6075204992
 31
0.0
  0
ARC
  5
169
330
1F
100
AcDbEntity
  8
0
  6
Continuous
 62
     7
370
    25
100
AcDbCircle
 10
984.9191322517
 20
368.8288938271
 30
0.0
 40
8.000000000000066
100
AcDbArc
 50
330.0
 51
344.7252520003
  0
ARC
  5
16A
330
1F
100
AcDbEntity
  8
0
  6
Continuous
 62
     7
370
    25
100
AcDbCircle
 10
984.9191322517
 20
368.8288938271
 30
0.0
 40
8.000000000000066
100
AcDbArc
 50
15.2747479997
 51
30.0
  0
LINE
  5
16B
330
1F
100
AcDbEntity
  8
0
  6
Continuous
 62
     7
370
    25
100
AcDbLine
 10
989.847335482
 20
364.8288938271
 30
0.0
 11
991.847335482
 21
364.8288938271
 31
0.0
  0
LINE
  5
16C
330
1F
100
AcDbEntity
  8
0
  6
Continuous
 62
     7
370
    25
100
AcDbLine
 10
991.847335482
 20
372.8288938271
 30
0.0
 11
989.847335482
 21
372.8288938271
 31
0.0
  0
LINE
  5
16D
330
1F
100
AcDbEntity
  8
0
  6
Continuous
 62
     7
370
    25
100
AcDbLine
 10
988.147335482
 20
366.8288938271
 30
0.0
 11
988.247335482
 21
366.8288938271
 31
0.0
  0
LINE
  5
16E
330
1F
100
AcDbEntity
  8
0
  6
Continuous
 62
     7
370
    25
100
AcDbLine
 10
988.247335482
 20
370.8288938271
 30
0.0
 11
988.147335482
 21
370.8288938271
 31
0.0
  0
LINE
  5
16F
330
1F
100
AcDbEntity
  8
0
  6
Continuous
 62
     7
370
    25
100
AcDbLine
 10
995.147335482
 20
364.358183149
 30
0.0
 11
995.147335482
 21
171.2996045052
 31
0.0
  0
LINE
  5
170
330
1F
100
AcDbEntity
  8
0
  6
Continuous
 62
     7
370
    25
100
AcDbLine
 10
1004.747335482
 20
364.358183149
 30
0.0
 11
995.147335482
 21
364.358183149
 31
0.0
  0
LINE
  5
171
330
1F
100
AcDbEntity
  8
0
  6
Continuous
 62
     7
370
    25
100
AcDbLine
 10
1004.747335482
 20
171.2996045052
 30
0.0
 11
995.147335482
 21
171.2996045052
 31
0.0
  0
SPLINE
  5
172
330
1F
100
AcDbEntity
  8
0
  6
Continuous
 62
     7
370
    25
100
AcDbSpline
210
0.0
220
0.0
230
1.0
 70
     8
 71
     3
 72
    20
 73
    16
 74
     0
 42
0.000000001
 43
0.00000001
 40
0.0
 40
0.0
 40
0.0
 40
0.0
 40
0.1250000000000003
 40
0.1250000000000003
 40
0.2500000000000006
 40
0.2500000000000006
 40
0.3750000000000009
 40
0.3750000000000009
 40
0.5000000000000012
 40
0.5000000000000012
 40
0.7500000000000018
 40
0.7500000000000018
 40
0.8750000000000009
 40
0.8750000000000009
 40
1.0
 40
1.0
 40
1.0
 40
1.0
 10
1004.747335481994
 20
364.3581831489739
 30
0.0
 10
1004.905714669644
 20
364.3191424181194
 30
0.0
 10
1005.061960394336
 20
364.2806237139196
 30
0.0
 10
1005.369952243752
 20
364.2032169626116
 30
0.0
 10
1005.522596351224
 20
364.164072544625
 30
0.0
 10
1005.811680640411
 20
364.0869217907097
 30
0.0
 10
1005.949485178595
 20
364.0485942089687
 30
0.0
 10
1006.211103854234
 20
363.9710478884921
 30
0.0
 10
1006.333850160916
 20
363.9320716808235
 30
0.0
 10
1006.665174537864
 20
363.8165768243784
 30
0.0
 10
1006.844185661892
 20
363.7386643807083
 30
0.0
 10
1007.023800761273
 20
363.6231844553075
 30
0.0
 10
1007.070045110141
 20
363.5843186594425
 30
0.0
 10
1007.131798416152
 20
363.5065443257739
 30
0.0
 10
1007.147335481994
 20
363.4679345588191
 30
0.0
 10
1007.147335481994
 20
363.4288938270925
 30
0.0
  0
LINE
  5
173
330
1F
100
AcDbEntity
  8
0
  6
Continuous
 62
     7
370
    25
100
AcDbLine
 10
1007.147335482
 20
363.4288938271
 30
0.0
 11
1007.147335482
 21
172.2288938271
 31
0.0
  0
SPLINE
  5
174
330
1F
100
AcDbEntity
  8
0
  6
Continuous
 62
     7
370
    25
100
AcDbSpline
210
0.0
220
0.0
230
1.0
 70
     8
 71
     3
 72
    20
 73
    16
 74
     0
 42
0.000000001
 43
0.00000001
 40
0.0
 40
0.0
 40
0.0
 40
0.0
 40
0.1249999999999956
 40
0.1249999999999956
 40
0.2499999999999911
 40
0.2499999999999911
 40
0.3749999999999867
 40
0.3749999999999867
 40
0.4999999999999822
 40
0.4999999999999822
 40
0.7500000000000004
 40
0.7500000000000004
 40
0.8750000000000002
 40
0.8750000000000002
 40
1.0
 40
1.0
 40
1.0
 40
1.0
 10
1007.147335481994
 20
172.2288938270925
 30
0.0
 10
1007.147335481994
 20
172.1898530962379
 30
0.0
 10
1007.131798921518
 20
172.1513343920382
 30
0.0
 10
1007.070480569558
 20
172.0739276407302
 30
0.0
 10
1007.024056823971
 20
172.0347832227435
 30
0.0
 10
1006.904105953817
 20
171.9576324688283
 30
0.0
 10
1006.830501309534
 20
171.9193048870873
 30
0.0
 10
1006.655770943438
 20
171.8417585666108
 30
0.0
 10
1006.554920314536
 20
171.8027823589422
 30
0.0
 10
1006.223635034553
 20
171.6872875024972
 30
0.0
 10
1005.955954873169
 20
171.609375058827
 30
0.0
 10
1005.523280847113
 20
171.4938951334262
 30
0.0
 10
1005.371762760262
 20
171.4550293375611
 30
0.0
 10
1005.062337002876
 20
171.3772550038926
 30
0.0
 10
1004.905714673182
 20
171.3386452369379
 30
0.0
 10
1004.747335481994
 20
171.2996045052112
 30
0.0
  0
SPLINE
  5
175
330
1F
100
AcDbEntity
  8
0
  6
Continuous
 62
     7
370
    25
100
AcDbSpline
210
0.0
220
0.0
230
1.0
 70
     8
 71
     3
 72
    20
 73
    16
 74
     0
 42
0.000000001
 43
0.00000001
 40
0.0
 40
0.0
 40
0.0
 40
0.0
 40
0.125
 40
0.125
 40
0.2500000000000001
 40
0.2500000000000001
 40
0.3750000000000001
 40
0.3750000000000001
 40
0.5000000000000001
 40
0.5000000000000001
 40
0.7500000000000002
 40
0.7500000000000002
 40
0.8750000000000001
 40
0.8750000000000001
 40
1.0
 40
1.0
 40
1.0
 40
1.0
 10
1007.147335481994
 20
363.4288938270925
 30
0.0
 10
1007.147335481994
 20
363.5872730147431
 30
0.0
 10
1007.131798921518
 20
363.7435187394348
 30
0.0
 10
1007.070480569558
 20
364.0515105888514
 30
0.0
 10
1007.024056823971
 20
364.2041546963226
 30
0.0
 10
1006.904105953817
 20
364.4932389855097
 30
0.0
 10
1006.830501309534
 20
364.6310435236937
 30
0.0
 10
1006.655770943438
 20
364.8926621993326
 30
0.0
 10
1006.554920314537
 20
365.0154085060153
 30
0.0
 10
1006.223635034553
 20
365.346732882963
 30
0.0
 10
1005.955954873169
 20
365.5257440069912
 30
0.0
 10
1005.523280847113
 20
365.7053591063722
 30
0.0
 10
1005.371762760262
 20
365.7516034552398
 30
0.0
 10
1005.062337002876
 20
365.813356761251
 30
0.0
 10
1004.905714673182
 20
365.8288938270925
 30
0.0
 10
1004.747335481993
 20
365.8288938270925
 30
0.0
  0
SPLINE
  5
176
330
1F
100
AcDbEntity
  8
0
  6
Continuous
 62
     7
370
    25
100
AcDbSpline
210
0.0
220
0.0
230
1.0
 70
     8
 71
     3
 72
     9
 73
     5
 74
     0
 42
0.000000001
 43
0.00000001
 40
0.0
 40
0.0
 40
0.0
 40
0.0
 40
0.4825784287290517
 40
1.0
 40
1.0
 40
1.0
 40
1.0
 10
1005.359875221171
 20
364.205064059039
 30
0.0
 10
1005.271740879855
 20
364.2688722521004
 30
0.0
 10
1005.089108718802
 20
364.4010957193395
 30
0.0
 10
1004.863875834758
 20
364.419415023796
 30
0.0
 10
1004.747335481994
 20
364.4288938270925
 30
0.0
  0
LINE
  5
177
330
1F
100
AcDbEntity
  8
0
  6
Continuous
 62
     7
370
    25
100
AcDbLine
 10
1004.747335482
 20
365.8288938271
 30
0.0
 11
1004.747335482
 21
364.4288938271
 31
0.0
  0
LINE
  5
178
330
1F
100
AcDbEntity
  8
0
  6
Continuous
 62
     7
370
    25
100
AcDbLine
 10
1004.747335482
 20
169.8288938271
 30
0.0
 11
1004.747335482
 21
171.2288938271
 31
0.0
  0
SPLINE
  5
179
330
1F
100
AcDbEntity
  8
0
  6
Continuous
 62
     7
370
    25
100
AcDbSpline
210
0.0
220
0.0
230
1.0
 70
     8
 71
     3
 72
     9
 73
     5
 74
     0
 42
0.000000001
 43
0.00000001
 40
0.0
 40
0.0
 40
0.0
 40
0.0
 40
0.7329379507273465
 40
1.0
 40
1.0
 40
1.0
 40
1.0
 10
1004.747335481994
 20
171.2288938270927
 30
0.0
 10
1004.898724123649
 20
171.2406484766104
 30
0.0
 10
1005.105274543785
 20
171.2566861909982
 30
0.0
 10
1005.260634885903
 20
171.385023497492
 30
0.0
 10
1005.302125737245
 20
171.4192975215624
 30
0.0
  0
SPLINE
  5
17A
330
1F
100
AcDbEntity
  8
0
  6
Continuous
 62
     7
370
    25
100
AcDbSpline
210
0.0
220
0.0
230
1.0
 70
     8
 71
     3
 72
    20
 73
    16
 74
     0
 42
0.000000001
 43
0.00000001
 40
0.0
 40
0.0
 40
0.0
 40
0.0
 40
0.1250000000000044
 40
0.1250000000000044
 40
0.2500000000000088
 40
0.2500000000000088
 40
0.3750000000000132
 40
0.3750000000000132
 40
0.5000000000000177
 40
0.5000000000000177
 40
0.7500000000000088
 40
0.7500000000000088
 40
0.8750000000000044
 40
0.8750000000000044
 40
1.0
 40
1.0
 40
1.0
 40
1.0
 10
1004.747335481994
 20
169.8288938270927
 30
0.0
 10
1004.905714669644
 20
169.8288938270927
 30
0.0
 10
1005.061960394336
 20
169.8444303875675
 30
0.0
 10
1005.369952243752
 20
169.9057487395281
 30
0.0
 10
1005.522596351224
 20
169.9521724851149
 30
0.0
 10
1005.811680640411
 20
170.072123355269
 30
0.0
 10
1005.949485178595
 20
170.1457279995524
 30
0.0
 10
1006.211103854234
 20
170.3204583656481
 30
0.0
 10
1006.333850160916
 20
170.4213089945495
 30
0.0
 10
1006.665174537864
 20
170.7525942745335
 30
0.0
 10
1006.844185661892
 20
171.0202744359173
 30
0.0
 10
1007.023800761273
 20
171.4529484619727
 30
0.0
 10
1007.070045110141
 20
171.6044665488238
 30
0.0
 10
1007.131798416152
 20
171.9138923062099
 30
0.0
 10
1007.147335481993
 20
172.0705146359036
 30
0.0
 10
1007.147335481993
 20
172.2288938270924
 30
0.0
  0
LINE
  5
17B
330
1F
100
AcDbEntity
  8
0
  6
Continuous
 62
     7
370
    25
100
AcDbLine
 10
995.147335482
 20
365.8288938271
 30
0.0
 11
995.147335482
 21
364.4288938271
 31
0.0
  0
LINE
  5
17C
330
1F
100
AcDbEntity
  8
0
  6
Continuous
 62
     7
370
    25
100
AcDbLine
 10
1004.747335482
 20
365.8288938271
 30
0.0
 11
995.147335482
 21
365.8288938271
 31
0.0
  0
LINE
  5
17D
330
1F
100
AcDbEntity
  8
0
  6
Continuous
 62
     7
370
    25
100
AcDbLine
 10
1004.747335482
 20
364.4288938271
 30
0.0
 11
995.147335482
 21
364.4288938271
 31
0.0
  0
LINE
  5
17E
330
1F
100
AcDbEntity
  8
0
  6
Continuous
 62
     7
370
    25
100
AcDbLine
 10
1004.747335482
 20
171.2288938271
 30
0.0
 11
995.147335482
 21
171.2288938271
 31
0.0
  0
LINE
  5
17F
330
1F
100
AcDbEntity
  8
0
  6
Continuous
 62
     7
370
    25
100
AcDbLine
 10
1004.747335482
 20
169.8288938271
 30
0.0
 11
995.147335482
 21
169.8288938271
 31
0.0
  0
LINE
  5
180
330
1F
100
AcDbEntity
  8
0
  6
Continuous
 62
     7
370
    25
100
AcDbLine
 10
995.147335482
 20
169.8288938271
 30
0.0
 11
995.147335482
 21
171.2288938271
 31
0.0
  0
LINE
  5
181
330
1F
100
AcDbEntity
  8
0
  6
Continuous
 62
     7
370
    25
100
AcDbLine
 10
987.047335482
 20
380.3288938271
 30
0.0
 11
991.047335482
 21
380.3288938271
 31
0.0
  0
LINE
  5
182
330
1F
100
AcDbEntity
  8
0
  6
Continuous
 62
     7
370
    25
100
AcDbLine
 10
987.047335482
 20
363.1288938271
 30
0.0
 11
987.047335482
 21
380.3288938271
 31
0.0
  0
LINE
  5
183
330
1F
100
AcDbEntity
  8
0
  6
Continuous
 62
     7
370
    25
100
AcDbLine
 10
968.047335482
 20
397.3288938271
 30
0.0
 11
968.047335482
 21
363.1288938271
 31
0.0
  0
ARC
  5
184
330
1F
100
AcDbEntity
  8
0
  6
Continuous
 62
     7
370
    25
100
AcDbCircle
 10
971.047335482
 20
397.3288938271
 30
0.0
 40
3.0
100
AcDbArc
 50
90.0
 51
180.0
  0
LINE
  5
185
330
1F
100
AcDbEntity
  8
0
  6
Continuous
 62
     7
370
    25
100
AcDbLine
 10
988.047335482
 20
400.3288938271
 30
0.0
 11
971.047335482
 21
400.3288938271
 31
0.0
  0
ARC
  5
186
330
1F
100
AcDbEntity
  8
0
  6
Continuous
 62
     7
370
    25
100
AcDbCircle
 10
988.047335482
 20
397.3288938271
 30
0.0
 40
3.0
100
AcDbArc
 50
0.0
 51
90.0
  0
LINE
  5
187
330
1F
100
AcDbEntity
  8
0
  6
Continuous
 62
     7
370
    25
100
AcDbLine
 10
991.047335482
 20
380.3288938271
 30
0.0
 11
991.047335482
 21
397.3288938271
 31
0.0
  0
CIRCLE
  5
188
330
1F
100
AcDbEntity
  8
0
  6
Continuous
 62
     7
370
    25
100
AcDbCircle
 10
976.547335482
 20
393.8288938271
 30
0.0
 40
3.249999999999829
  0
CIRCLE
  5
189
330
1F
100
AcDbEntity
  8
0
  6
Continuous
 62
     7
370
    25
100
AcDbCircle
 10
976.547335482
 20
368.8288938271
 30
0.0
 40
3.249999999999829
  0
LINE
  5
18A
330
1F
100
AcDbEntity
  8
0
  6
Continuous
 62
     7
370
    25
100
AcDbLine
 10
968.047335482
 20
361.3288938271
 30
0.0
 11
968.047335482
 21
363.1288938271
 31
0.0
  0
LINE
  5
18B
330
1F
100
AcDbEntity
  8
0
  6
Continuous
 62
     7
370
    25
100
AcDbLine
 10
987.047335482
 20
363.1288938271
 30
0.0
 11
987.047335482
 21
361.3288938271
 31
0.0
  0
LINE
  5
18C
330
1F
100
AcDbEntity
  8
0
  6
Continuous
 62
     7
370
    25
100
AcDbLine
 10
987.047335482
 20
361.3288938271
 30
0.0
 11
968.047335482
 21
361.3288938271
 31
0.0
  0
LINE
  5
18D
330
1F
100
AcDbEntity
  8
0
  6
Continuous
 62
     7
370
    25
100
AcDbLine
 10
988.247335482
 20
373.3288938271
 30
0.0
 11
988.247335482
 21
363.1288938271
 31
0.0
  0
LINE
  5
18E
330
1F
100
AcDbEntity
  8
0
  6
Continuous
 62
     7
370
    25
100
AcDbLine
 10
989.047335482
 20
373.3288938271
 30
0.0
 11
988.247335482
 21
373.3288938271
 31
0.0
  0
LINE
  5
18F
330
1F
100
AcDbEntity
  8
0
  6
Continuous
 62
     7
370
    25
100
AcDbLine
 10
987.047335482
 20
361.3288938271
 30
0.0
 11
987.247335482
 21
361.3288938271
 31
0.0
  0
LINE
  5
190
330
1F
100
AcDbEntity
  8
0
  6
Continuous
 62
     7
370
    25
100
AcDbLine
 10
987.047335482
 20
362.1288938271
 30
0.0
 11
987.247335482
 21
362.1288938271
 31
0.0
  0
ARC
  5
191
330
1F
100
AcDbEntity
  8
0
  6
Continuous
 62
     7
370
    25
100
AcDbCircle
 10
987.247335482
 20
363.1288938271
 30
0.0
 40
1.800000000000011
100
AcDbArc
 50
270.0
 51
0.0
  0
ARC
  5
192
330
1F
100
AcDbEntity
  8
0
  6
Continuous
 62
     7
370
    25
100
AcDbCircle
 10
987.247335482
 20
363.1288938271
 30
0.0
 40
1.0
100
AcDbArc
 50
270.0
 51
0.0
  0
LINE
  5
193
330
1F
100
AcDbEntity
  8
0
  6
Continuous
 62
     7
370
    25
100
AcDbLine
 10
944.047335482
 20
361.3288938271
 30
0.0
 11
944.047335482
 21
362.1288938271
 31
0.0
  0
LINE
  5
194
330
1F
100
AcDbEntity
  8
0
  6
Continuous
 62
     7
370
    25
100
AcDbLine
 10
947.047335482
 20
361.3288938271
 30
0.0
 11
944.047335482
 21
361.3288938271
 31
0.0
  0
LINE
  5
195
330
1F
100
AcDbEntity
  8
0
  6
Continuous
 62
     7
370
    25
100
AcDbLine
 10
944.047335482
 20
362.1288938271
 30
0.0
 11
947.047335482
 21
362.1288938271
 31
0.0
  0
LINE
  5
196
330
1F
100
AcDbEntity
  8
0
  6
Continuous
 62
     7
370
    25
100
AcDbLine
 10
947.047335482
 20
361.3288938271
 30
0.0
 11
968.047335482
 21
361.3288938271
 31
0.0
  0
LINE
  5
197
330
1F
100
AcDbEntity
  8
0
  6
Continuous
 62
     7
370
    25
100
AcDbLine
 10
947.047335482
 20
362.1288938271
 30
0.0
 11
968.047335482
 21
362.1288938271
 31
0.0
  0
LINE
  5
198
330
1F
100
AcDbEntity
  8
0
  6
Continuous
 62
     7
370
    25
100
AcDbLine
 10
962.1852846744
 20
362.2628684233
 30
0.0
 11
955.5604135438
 21
366.0877395539
 31
0.0
  0
LINE
  5
199
330
1F
100
AcDbEntity
  8
0
  6
Continuous
 62
     7
370
    25
100
AcDbLine
 10
960.817335482
 20
362.1288938271
 30
0.0
 11
955.1604135438
 21
365.3949192309
 31
0.0
  0
ARC
  5
19A
330
1F
100
AcDbEntity
  8
0
  6
Continuous
 62
     7
370
    25
100
AcDbCircle
 10
962.6852846744
 20
363.1288938271
 30
0.0
 40
0.9999999999999432
100
AcDbArc
 50
240.0
 51
270.0
  0
ARC
  5
19B
330
1F
100
AcDbEntity
  8
0
  6
Continuous
 62
     7
370
    25
100
AcDbCircle
 10
954.6604135438
 20
364.5288938271
 30
0.0
 40
1.000000000000057
100
AcDbArc
 50
60.0
 51
90.0
  0
ARC
  5
19C
330
1F
100
AcDbEntity
  8
0
  6
Continuous
 62
     7
370
    25
100
AcDbCircle
 10
954.6604135438
 20
364.5288938271
 30
0.0
 40
1.800000000000018
100
AcDbArc
 50
60.0
 51
90.0
  0
LINE
  5
19D
330
1F
100
AcDbEntity
  8
0
  6
Continuous
 62
     7
370
    25
100
AcDbLine
 10
948.1427220902
 20
366.3288938271
 30
0.0
 11
954.6604135438
 21
366.3288938271
 31
0.0
  0
LINE
  5
19E
330
1F
100
AcDbEntity
  8
0
  6
Continuous
 62
     7
370
    25
100
AcDbLine
 10
948.1427220902
 20
365.5288938271
 30
0.0
 11
954.6604135438
 21
365.5288938271
 31
0.0
  0
LINE
  5
19F
330
1F
100
AcDbEntity
  8
0
  6
Continuous
 62
     7
370
    25
100
AcDbLine
 10
945.1427220902
 20
365.5288938271
 30
0.0
 11
945.1427220902
 21
366.3288938271
 31
0.0
  0
LINE
  5
1A0
330
1F
100
AcDbEntity
  8
0
  6
Continuous
 62
     7
370
    25
100
AcDbLine
 10
945.1427220902
 20
366.3288938271
 30
0.0
 11
948.1427220902
 21
366.3288938271
 31
0.0
  0
LINE
  5
1A1
330
1F
100
AcDbEntity
  8
0
  6
Continuous
 62
     7
370
    25
100
AcDbLine
 10
948.1427220902
 20
365.5288938271
 30
0.0
 11
945.1427220902
 21
365.5288938271
 31
0.0
  0
LINE
  5
1A2
330
1F
100
AcDbEntity
  8
0
  6
Continuous
 62
     7
370
    25
100
AcDbLine
 10
987.047335482
 20
370.269723149
 30
0.0
 11
987.6326554966
 21
370.269723149
 31
0.0
  0
SPLINE
  5
1A3
330
1F
100
AcDbEntity
  8
0
  6
Continuous
 62
     7
370
    25
100
AcDbSpline
210
0.0
220
0.0
230
1.0
 70
     8
 71
     3
 72
    14
 73
    10
 74
     0
 42
0.000000001
 43
0.00000001
 40
0.0
 40
0.0
 40
0.0
 40
0.0
 40
0.25
 40
0.25
 40
0.5
 40
0.5
 40
0.75
 40
0.75
 40
1.0
 40
1.0
 40
1.0
 40
1.0
 10
987.6326554966074
 20
370.2697231489631
 30
0.0
 10
987.727530105918
 20
369.9452169196745
 30
0.0
 10
987.8071350307938
 20
369.6127576972801
 30
0.0
 10
987.915971645688
 20
368.9461877823719
 30
0.0
 10
987.9452952513785
 20
368.6111115250966
 30
0.0
 10
987.9452304696329
 20
367.936768054869
 30
0.0
 10
987.9150742763065
 20
367.59498863419
 30
0.0
 10
987.8054890749409
 20
366.9285747145854
 30
0.0
 10
987.7269461011387
 20
366.6018006686326
 30
0.0
 10
987.6326554966074
 20
366.2792919515363
 30
0.0
  0
LINE
  5
1A4
330
1F
100
AcDbEntity
  8
0
  6
Continuous
 62
     7
370
    25
100
AcDbLine
 10
987.047335482
 20
366.2792919515
 30
0.0
 11
987.6326554966
 21
366.2792919515
 31
0.0
  0
SPLINE
  5
1A5
330
1F
100
AcDbEntity
  8
0
  6
Continuous
 62
     7
370
    25
100
AcDbSpline
210
0.0
220
0.0
230
1.0
 70
     8
 71
     3
 72
    12
 73
     8
 74
     0
 42
0.000000001
 43
0.00000001
 40
0.0
 40
0.0
 40
0.0
 40
0.0
 40
0.5000000000000207
 40
0.5000000000000207
 40
0.7500000000000103
 40
0.7500000000000103
 40
1.0
 40
1.0
 40
1.0
 40
1.0
 10
987.6326554966084
 20
364.8384626296657
 30
0.0
 10
987.8231497860319
 20
365.0737224221088
 30
0.0
 10
987.9448241990942
 20
365.3125071149593
 30
0.0
 10
987.9454803896255
 20
365.6799986475162
 30
0.0
 10
987.9156463878311
 20
365.8023708421656
 30
0.0
 10
987.8067165177235
 20
366.0427545273251
 30
0.0
 10
987.7280213306606
 20
366.1615154743868
 30
0.0
 10
987.632655496608
 20
366.2792919515363
 30
0.0
  0
SPLINE
  5
1A6
330
1F
100
AcDbEntity
  8
0
  6
Continuous
 62
     7
370
    25
100
AcDbSpline
210
0.0
220
0.0
230
1.0
 70
     8
 71
     3
 72
    12
 73
     8
 74
     0
 42
0.000000001
 43
0.00000001
 40
0.0
 40
0.0
 40
0.0
 40
0.0
 40
0.5000000000000031
 40
0.5000000000000031
 40
0.7500000000000016
 40
0.7500000000000016
 40
1.0
 40
1.0
 40
1.0
 40
1.0
 10
987.6326554966084
 20
370.269723148963
 30
0.0
 10
987.8231497860319
 20
370.6860242326175
 30
0.0
 10
987.9448241990942
 20
371.1085627606059
 30
0.0
 10
987.9454803896255
 20
371.7588529000668
 30
0.0
 10
987.9156463878311
 20
371.9753951179812
 30
0.0
 10
987.8067165177235
 20
372.4007631232216
 30
0.0
 10
987.7280213306606
 20
372.6109151022068
 30
0.0
 10
987.632655496608
 20
372.8193250245195
 30
0.0
  0
LINE
  5
1A7
330
1F
100
AcDbEntity
  8
0
  6
Continuous
 62
     7
370
    25
100
AcDbLine
 10
987.6326554966
 20
372.8193250245
 30
0.0
 11
987.7305305339
 21
372.5764202742
 31
0.0
  0
LINE
  5
1A8
330
1F
100
AcDbEntity
  8
0
  6
Continuous
 62
     7
370
    25
100
AcDbLine
 10
988.147335482
 20
368.3299461779
 30
0.0
 11
988.147335482
 21
365.6788938271
 31
0.0
  0
LINE
  5
1A9
330
1F
100
AcDbEntity
  8
0
  6
Continuous
 62
     7
370
    25
100
AcDbLine
 10
988.147335482
 20
371.9788938271
 30
0.0
 11
988.147335482
 21
368.3299461779
 31
0.0
  0
LINE
  5
1AA
330
1F
100
AcDbEntity
  8
0
  6
Continuous
 62
     7
370
    25
100
AcDbLine
 10
987.047335482
 20
372.8193250245
 30
0.0
 11
987.6326554966
 21
372.8193250245
 31
0.0
  0
LINE
  5
1AB
330
1F
100
AcDbEntity
  8
0
  6
Continuous
 62
     7
370
    25
100
AcDbLine
 10
987.047335482
 20
364.8384626297
 30
0.0
 11
987.6326554966
 21
364.8384626297
 31
0.0
  0
LINE
  5
1AC
330
1F
100
AcDbEntity
  8
0
  6
Continuous
 62
     7
370
    25
100
AcDbLine
 10
995.597335482
 20
377.1288938271
 30
0.0
 11
1000.747335482
 21
377.1288938271
 31
0.0
  0
LINE
  5
1AD
330
1F
100
AcDbEntity
  8
0
  6
Continuous
 62
     7
370
    25
100
AcDbLine
 10
995.597335482
 20
377.9288938271
 30
0.0
 11
995.597335482
 21
377.1288938271
 31
0.0
  0
LINE
  5
1AE
330
1F
100
AcDbEntity
  8
0
  6
Continuous
 62
     7
370
    25
100
AcDbLine
 10
995.597335482
 20
377.9288938271
 30
0.0
 11
1000.747335482
 21
377.9288938271
 31
0.0
  0
LINE
  5
1AF
330
1F
100
AcDbEntity
  8
0
  6
Continuous
 62
     7
370
    25
100
AcDbLine
 10
1000.747335482
 20
377.9288938271
 30
0.0
 11
1000.747335482
 21
378.0288938271
 31
0.0
  0
LINE
  5
1B0
330
1F
100
AcDbEntity
  8
0
  6
Continuous
 62
     7
370
    25
100
AcDbLine
 10
990.847335482
 20
378.0288938271
 30
0.0
 11
1000.747335482
 21
378.0288938271
 31
0.0
  0
LINE
  5
1B1
330
1F
100
AcDbEntity
  8
0
  6
Continuous
 62
     7
370
    25
100
AcDbLine
 10
990.847335482
 20
378.0288938271
 30
0.0
 11
990.847335482
 21
378.8288938271
 31
0.0
  0
LINE
  5
1B2
330
1F
100
AcDbEntity
  8
0
  6
Continuous
 62
     7
370
    25
100
AcDbLine
 10
1000.747335482
 20
378.8288938271
 30
0.0
 11
990.847335482
 21
378.8288938271
 31
0.0
  0
ARC
  5
1B3
330
1F
100
AcDbEntity
  8
0
  6
Continuous
 62
     7
370
    25
100
AcDbCircle
 10
1000.747335482
 20
377.9788938271
 30
0.0
 40
0.8500000000000227
100
AcDbArc
 50
270.0
 51
90.0
  0
LINE
  5
1B4
330
1F
100
AcDbEntity
  8
0
  6
Continuous
 62
     7
370
    25
100
AcDbLine
 10
990.847335482
 20
358.8288938271
 30
0.0
 11
990.847335482
 21
359.6288938271
 31
0.0
  0
LINE
  5
1B5
330
1F
100
AcDbEntity
  8
0
  6
Continuous
 62
     7
370
    25
100
AcDbLine
 10
995.147335482
 20
359.6288938271
 30
0.0
 11
990.847335482
 21
359.6288938271
 31
0.0
  0
LINE
  5
1B6
330
1F
100
AcDbEntity
  8
0
  6
Continuous
 62
     7
370
    25
100
AcDbLine
 10
995.147335482
 20
358.8288938271
 30
0.0
 11
990.847335482
 21
358.8288938271
 31
0.0
  0
ARC
  5
1B7
330
1F
100
AcDbEntity
  8
0
  6
Continuous
 62
     7
370
    25
100
AcDbCircle
 10
990.847335482
 20
360.6288938271
 30
0.0
 40
1.800000000000239
100
AcDbArc
 50
180.0
 51
270.0
  0
ARC
  5
1B8
330
1F
100
AcDbEntity
  8
0
  6
Continuous
 62
     7
370
    25
100
AcDbCircle
 10
990.847335482
 20
377.0288938271
 30
0.0
 40
1.800000000000182
100
AcDbArc
 50
90.0
 51
180.0
  0
LINE
  5
1B9
330
1F
100
AcDbEntity
  8
0
  6
Continuous
 62
     7
370
    25
100
AcDbLine
 10
989.047335482
 20
360.6288938271
 30
0.0
 11
989.047335482
 21
377.0288938271
 31
0.0
  0
ARC
  5
1BA
330
1F
100
AcDbEntity
  8
0
  6
Continuous
 62
     7
370
    25
100
AcDbCircle
 10
990.847335482
 20
360.6288938271
 30
0.0
 40
1.000000000000057
100
AcDbArc
 50
180.0
 51
270.0
  0
ARC
  5
1BB
330
1F
100
AcDbEntity
  8
0
  6
Continuous
 62
     7
370
    25
100
AcDbCircle
 10
990.847335482
 20
377.0288938271
 30
0.0
 40
1.000000000000114
100
AcDbArc
 50
90.0
 51
180.0
  0
LINE
  5
1BC
330
1F
100
AcDbEntity
  8
0
  6
Continuous
 62
     7
370
    25
100
AcDbLine
 10
989.847335482
 20
377.0288938271
 30
0.0
 11
989.847335482
 21
360.6288938271
 31
0.0
  0
CIRCLE
  5
1BD
330
1F
100
AcDbEntity
  8
0
  6
Continuous
 62
     7
370
    25
100
AcDbCircle
 10
976.547335482
 20
368.8288938271
 30
0.0
 40
2.458750000016599
  0
CIRCLE
  5
1BE
330
1F
100
AcDbEntity
  8
0
  6
Continuous
 62
     7
370
    25
100
AcDbCircle
 10
976.547335482
 20
368.8288938271
 30
0.0
 40
3.000000000000015
  0
ARC
  5
1BF
330
1F
100
AcDbEntity
  8
0
  6
Continuous
 62
     7
370
    25
100
AcDbCircle
 10
985.1103555843
 20
368.7329558072
 30
0.0
 40
7.786288415084513
100
AcDbArc
 50
4.3702527064
 51
15.2299003794
  0
ARC
  5
1C0
330
1F
100
AcDbEntity
  8
0
  6
Continuous
 62
     7
370
    25
100
AcDbCircle
 10
992.3496120478
 20
369.6394094095
 30
0.0
 40
0.6107675350061488
100
AcDbArc
 50
296.6101963366
 51
329.1575418587
  0
ARC
  5
1C1
330
1F
100
AcDbEntity
  8
0
  6
Continuous
 62
     7
370
    25
100
AcDbCircle
 10
983.5435499063
 20
368.5009123145
 30
0.0
 40
9.0989427102664
100
AcDbArc
 50
356.2668736478
 51
3.7331263522
  0
ARC
  5
1C2
330
1F
100
AcDbEntity
  8
0
  6
Continuous
 62
     7
370
    25
100
AcDbCircle
 10
992.3496120478
 20
368.4545586247
 30
0.0
 40
0.610767535006894
100
AcDbArc
 50
296.6101963366
 51
329.1575418587
  0
ARC
  5
1C3
330
1F
100
AcDbEntity
  8
0
  6
Continuous
 62
     7
370
    25
100
AcDbCircle
 10
985.1103555843
 20
368.734756552
 30
0.0
 40
7.786288415084513
100
AcDbArc
 50
344.7700996206
 51
355.6297472936
  0
ARC
  5
1C4
330
1F
100
AcDbEntity
  8
0
  6
Continuous
 62
     7
370
    25
100
AcDbCircle
 10
992.4901017034
 20
366.7632914503
 30
0.0
 40
0.1522432420612361
100
AcDbArc
 50
330.9451665855
 51
359.1449116561
  0
LWPOLYLINE
  5
1C5
330
1F
100
AcDbEntity
  8
0
  6
Continuous
 62
     7
370
    25
100
AcDbPolyline
 90
        3
 70
   128
 43
0.0
 10
992.8740049723
 20
368.3315060821
 10
992.8577801236
 20
368.1478077533
 10
992.8571379805
 20
368.1414307872
  0
ARC
  5
1C6
330
1F
100
AcDbEntity
  8
0
  6
Continuous
 62
     7
370
    25
100
AcDbCircle
 10
992.3496120478
 20
368.0183782446
 30
0.0
 40
0.6107675350072501
100
AcDbArc
 50
30.8424581413
 51
63.3898036633
  0
ARC
  5
1C7
330
1F
100
AcDbEntity
  8
0
  6
Continuous
 62
     7
370
    25
100
AcDbCircle
 10
983.4666781274
 20
369.159891196
 30
0.0
 40
9.17581504263962
100
AcDbArc
 50
357.9327321267
 51
359.6562101038
  0
ARC
  5
1C8
330
1F
100
AcDbEntity
  8
0
  6
Continuous
 62
     7
370
    25
100
AcDbCircle
 10
985.1103555843
 20
368.9230311022
 30
0.0
 40
7.786288415083716
100
AcDbArc
 50
4.3702527064
 51
15.2299003794
  0
ARC
  5
1C9
330
1F
100
AcDbEntity
  8
0
  6
Continuous
 62
     7
370
    25
100
AcDbCircle
 10
992.402063917
 20
370.8733949434
 30
0.0
 40
0.2406805056726191
100
AcDbArc
 50
336.7420981705
 51
23.2579018295
  0
LINE
  5
1CA
330
1F
100
AcDbEntity
  8
0
  6
Continuous
 62
     7
370
    25
100
AcDbLine
 10
991.847335482
 20
372.7783964431
 30
0.0
 11
991.847335482
 21
372.8288938271
 31
0.0
  0
LINE
  5
1CB
330
1F
100
AcDbEntity
  8
0
  6
Continuous
 62
     7
370
    25
100
AcDbLine
 10
991.847335482
 20
364.8288938271
 30
0.0
 11
991.847335482
 21
372.7783964431
 31
0.0
  0
LINE
  5
1CC
330
1F
100
AcDbEntity
  8
0
  6
Continuous
 62
     7
370
    25
100
AcDbLine
 10
992.8740049723
 20
368.1414307872
 30
0.0
 11
992.6354493144
 21
368.1414307872
 31
0.0
  0
LINE
  5
1CD
330
1F
100
AcDbEntity
  8
0
  6
Continuous
 62
     7
370
    25
100
AcDbLine
 10
992.8740049723
 20
369.516356867
 30
0.0
 11
992.8571379805
 21
369.516356867
 31
0.0
  0
LINE
  5
1CE
330
1F
100
AcDbEntity
  8
0
  6
Continuous
 62
     7
370
    25
100
AcDbLine
 10
992.8740049723
 20
368.3315060821
 30
0.0
 11
992.6409546559
 21
368.3315060821
 31
0.0
  0
LINE
  5
1CF
330
1F
100
AcDbEntity
  8
0
  6
Continuous
 62
     7
370
    25
100
AcDbLine
 10
982.647335482
 20
303.142739186
 30
0.0
 11
970.647335482
 21
303.142739186
 31
0.0
  0
LINE
  5
1D0
330
1F
100
AcDbEntity
  8
0
  6
Continuous
 62
     7
370
    25
100
AcDbLine
 10
982.647335482
 20
302.4586988994
 30
0.0
 11
970.647335482
 21
302.4586988994
 31
0.0
  0
ARC
  5
1D1
330
1F
100
AcDbEntity
  8
0
  6
Continuous
 62
     7
370
    25
100
AcDbCircle
 10
970.5888465928
 20
305.0843670035
 30
0.0
 40
1.942508566655476
100
AcDbArc
 50
181.8362067977
 51
271.7254354149
  0
LINE
  5
1D2
330
1F
100
AcDbEntity
  8
0
  6
Continuous
 62
     7
370
    25
100
AcDbLine
 10
968.647335482
 20
305.0221244276
 30
0.0
 11
968.647335482
 21
310.1632006645
 31
0.0
  0
LINE
  5
1D3
330
1F
100
AcDbEntity
  8
0
  6
Continuous
 62
     7
370
    25
100
AcDbLine
 10
984.647335482
 20
310.1632006645
 30
0.0
 11
984.647335482
 21
305.0221244276
 31
0.0
  0
ARC
  5
1D4
330
1F
100
AcDbEntity
  8
0
  6
Continuous
 62
     7
370
    25
100
AcDbCircle
 10
982.7058243712
 20
305.0843670035
 30
0.0
 40
1.942508566655133
100
AcDbArc
 50
268.2745645851
 51
358.1637932023
  0
LINE
  5
1D5
330
1F
100
AcDbEntity
  8
0
  6
Continuous
 62
     7
370
    25
100
AcDbLine
 10
968.647335482
 20
304.338084141
 30
0.0
 11
968.647335482
 21
305.0221244276
 31
0.0
  0
ARC
  5
1D6
330
1F
100
AcDbEntity
  8
0
  6
Continuous
 62
     7
370
    25
100
AcDbCircle
 10
970.5888465928
 20
304.4003267168
 30
0.0
 40
1.942508566655476
100
AcDbArc
 50
181.8362067977
 51
271.7254354149
  0
LINE
  5
1D7
330
1F
100
AcDbEntity
  8
0
  6
Continuous
 62
     7
370
    25
100
AcDbLine
 10
984.647335482
 20
305.0221244276
 30
0.0
 11
984.647335482
 21
304.338084141
 31
0.0
  0
ARC
  5
1D8
330
1F
100
AcDbEntity
  8
0
  6
Continuous
 62
     7
370
    25
100
AcDbCircle
 10
982.7058243712
 20
304.4003267168
 30
0.0
 40
1.94250856665519
100
AcDbArc
 50
268.2745645851
 51
358.1637932023
  0
LINE
  5
1D9
330
1F
100
AcDbEntity
  8
0
  6
Continuous
 62
     7
370
    25
100
AcDbLine
 10
984.647335482
 20
310.1632006645
 30
0.0
 11
984.647335482
 21
310.5052208078
 31
0.0
  0
LINE
  5
1DA
330
1F
100
AcDbEntity
  8
0
  6
Continuous
 62
     7
370
    25
100
AcDbLine
 10
968.647335482
 20
310.5052208078
 30
0.0
 11
968.647335482
 21
310.1632006645
 31
0.0
  0
LINE
  5
1DB
330
1F
100
AcDbEntity
  8
0
  6
Continuous
 62
     7
370
    25
100
AcDbLine
 10
984.647335482
 20
310.3288938271
 30
0.0
 11
995.147335482
 21
310.3288938271
 31
0.0
  0
LINE
  5
1DC
330
1F
100
AcDbEntity
  8
0
  6
Continuous
 62
     7
370
    25
100
AcDbLine
 10
968.647335482
 20
323.3288938271
 30
0.0
 11
968.647335482
 21
310.5052208078
 31
0.0
  0
CIRCLE
  5
1DD
330
1F
100
AcDbEntity
  8
0
  6
Continuous
 62
     7
370
    25
100
AcDbCircle
 10
976.547335482
 20
317.8288938271
 30
0.0
 40
3.499999999999886
  0
LINE
  5
1DE
330
1F
100
AcDbEntity
  8
0
  6
Continuous
 62
     7
370
    25
100
AcDbLine
 10
995.147335482
 20
325.3288938271
 30
0.0
 11
970.647335482
 21
325.3288938271
 31
0.0
  0
ARC
  5
1DF
330
1F
100
AcDbEntity
  8
0
  6
Continuous
 62
     7
370
    25
100
AcDbCircle
 10
970.647335482
 20
323.3288938271
 30
0.0
 40
2.0
100
AcDbArc
 50
90.0
 51
180.0
  0
CIRCLE
  5
1E0
330
1F
100
AcDbEntity
  8
0
  6
Continuous
 62
     7
370
    25
100
AcDbCircle
 10
976.547335482
 20
217.8288938271
 30
0.0
 40
2.458750000016599
  0
CIRCLE
  5
1E1
330
1F
100
AcDbEntity
  8
0
  6
Continuous
 62
     7
370
    25
100
AcDbCircle
 10
976.547335482
 20
217.8288938271
 30
0.0
 40
3.000000000000015
  0
LINE
  5
1E2
330
1F
100
AcDbEntity
  8
0
  6
Continuous
 62
     7
370
    25
100
AcDbLine
 10
968.647335482
 20
204.338084141
 30
0.0
 11
968.647335482
 21
205.0221244276
 31
0.0
  0
ARC
  5
1E3
330
1F
100
AcDbEntity
  8
0
  6
Continuous
 62
     7
370
    25
100
AcDbCircle
 10
970.5888465928
 20
205.0843670035
 30
0.0
 40
1.942508566655477
100
AcDbArc
 50
181.8362067977
 51
271.7254354149
  0
ARC
  5
1E4
330
1F
100
AcDbEntity
  8
0
  6
Continuous
 62
     7
370
    25
100
AcDbCircle
 10
970.5888465928
 20
204.4003267168
 30
0.0
 40
1.942508566655476
100
AcDbArc
 50
181.8362067977
 51
271.7254354149
  0
LINE
  5
1E5
330
1F
100
AcDbEntity
  8
0
  6
Continuous
 62
     7
370
    25
100
AcDbLine
 10
982.647335482
 20
203.142739186
 30
0.0
 11
970.647335482
 21
203.142739186
 31
0.0
  0
LINE
  5
1E6
330
1F
100
AcDbEntity
  8
0
  6
Continuous
 62
     7
370
    25
100
AcDbLine
 10
982.647335482
 20
202.4586988994
 30
0.0
 11
970.647335482
 21
202.4586988994
 31
0.0
  0
LINE
  5
1E7
330
1F
100
AcDbEntity
  8
0
  6
Continuous
 62
     7
370
    25
100
AcDbLine
 10
968.647335482
 20
205.0221244276
 30
0.0
 11
968.647335482
 21
210.1632006645
 31
0.0
  0
LINE
  5
1E8
330
1F
100
AcDbEntity
  8
0
  6
Continuous
 62
     7
370
    25
100
AcDbLine
 10
984.647335482
 20
210.1632006645
 30
0.0
 11
984.647335482
 21
205.0221244276
 31
0.0
  0
ARC
  5
1E9
330
1F
100
AcDbEntity
  8
0
  6
Continuous
 62
     7
370
    25
100
AcDbCircle
 10
982.7058243712
 20
205.0843670035
 30
0.0
 40
1.942508566655475
100
AcDbArc
 50
268.2745645851
 51
358.1637932023
  0
LINE
  5
1EA
330
1F
100
AcDbEntity
  8
0
  6
Continuous
 62
     7
370
    25
100
AcDbLine
 10
984.647335482
 20
205.0221244276
 30
0.0
 11
984.647335482
 21
204.338084141
 31
0.0
  0
ARC
  5
1EB
330
1F
100
AcDbEntity
  8
0
  6
Continuous
 62
     7
370
    25
100
AcDbCircle
 10
982.7058243712
 20
204.4003267168
 30
0.0
 40
1.94250856665536
100
AcDbArc
 50
268.2745645851
 51
358.1637932023
  0
LINE
  5
1EC
330
1F
100
AcDbEntity
  8
0
  6
Continuous
 62
     7
370
    25
100
AcDbLine
 10
984.647335482
 20
210.1632006645
 30
0.0
 11
984.647335482
 21
210.5052208078
 31
0.0
  0
LINE
  5
1ED
330
1F
100
AcDbEntity
  8
0
  6
Continuous
 62
     7
370
    25
100
AcDbLine
 10
968.647335482
 20
210.5052208078
 30
0.0
 11
968.647335482
 21
210.1632006645
 31
0.0
  0
LINE
  5
1EE
330
1F
100
AcDbEntity
  8
0
  6
Continuous
 62
     7
370
    25
100
AcDbLine
 10
984.647335482
 20
210.3288938271
 30
0.0
 11
995.147335482
 21
210.3288938271
 31
0.0
  0
CIRCLE
  5
1EF
330
1F
100
AcDbEntity
  8
0
  6
Continuous
 62
     7
370
    25
100
AcDbCircle
 10
976.547335482
 20
217.8288938271
 30
0.0
 40
3.5
  0
LINE
  5
1F0
330
1F
100
AcDbEntity
  8
0
  6
Continuous
 62
     7
370
    25
100
AcDbLine
 10
995.147335482
 20
225.3288938271
 30
0.0
 11
970.647335482
 21
225.3288938271
 31
0.0
  0
ARC
  5
1F1
330
1F
100
AcDbEntity
  8
0
  6
Continuous
 62
     7
370
    25
100
AcDbCircle
 10
970.647335482
 20
223.3288938271
 30
0.0
 40
2.0
100
AcDbArc
 50
90.0
 51
180.0
  0
LINE
  5
1F2
330
1F
100
AcDbEntity
  8
0
  6
Continuous
 62
     7
370
    25
100
AcDbLine
 10
968.647335482
 20
223.3288938271
 30
0.0
 11
968.647335482
 21
210.5052208078
 31
0.0
  0
CIRCLE
  5
1F3
330
1F
100
AcDbEntity
  8
0
  6
Continuous
 62
     7
370
    25
100
AcDbCircle
 10
976.547335482
 20
393.8288938271
 30
0.0
 40
2.458750000016702
  0
CIRCLE
  5
1F4
330
1F
100
AcDbEntity
  8
0
  6
Continuous
 62
     7
370
    25
100
AcDbCircle
 10
976.547335482
 20
393.8288938271
 30
0.0
 40
3.000000000000117
  0
CIRCLE
  5
1F5
330
1F
100
AcDbEntity
  8
0
  6
Continuous
 62
     7
370
    25
100
AcDbCircle
 10
976.547335482
 20
317.8288938271
 30
0.0
 40
2.458750000016575
  0
CIRCLE
  5
1F6
330
1F
100
AcDbEntity
  8
0
  6
Continuous
 62
     7
370
    25
100
AcDbCircle
 10
976.547335482
 20
317.8288938271
 30
0.0
 40
3.000000000000039
  0
ARC
  5
1F7
330
1F
100
AcDbEntity
  8
0
  6
Continuous
 62
     7
370
    25
100
AcDbCircle
 10
864.2433501725
 20
460.3521437386
 30
0.0
 40
0.5000000000001137
100
AcDbArc
 50
180.0
 51
0.0
  0
ARC
  5
1F8
330
1F
100
AcDbEntity
  8
0
  6
Continuous
 62
     7
370
    25
100
AcDbCircle
 10
864.2433501725
 20
471.9521437388
 30
0.0
 40
0.5000000000001137
100
AcDbArc
 50
0.0
 51
180.0
  0
LINE
  5
1F9
330
1F
100
AcDbEntity
  8
0
  6
Continuous
 62
     7
370
    25
100
AcDbLine
 10
859.9709316097
 20
471.5463263508
 30
0.0
 11
859.7433501725
 21
471.1521437387
 31
0.0
  0
LINE
  5
1FA
330
1F
100
AcDbEntity
  8
0
  6
Continuous
 62
     7
370
    25
100
AcDbLine
 10
874.2021001725
 20
463.1521437387
 30
0.0
 11
874.7433501725
 21
463.6933937387
 31
0.0
  0
LINE
  5
1FB
330
1F
100
AcDbEntity
  8
0
  6
Continuous
 62
     7
370
    25
100
AcDbLine
 10
874.7433501725
 20
468.6108937387
 30
0.0
 11
874.2021001725
 21
469.1521437387
 31
0.0
  0
LINE
  5
1FC
330
1F
100
AcDbEntity
  8
0
  6
Continuous
 62
     7
370
    25
100
AcDbLine
 10
874.2021001725
 20
469.1521437387
 30
0.0
 11
869.3588965607
 21
469.1521437387
 31
0.0
  0
LINE
  5
1FD
330
1F
100
AcDbEntity
  8
0
  6
Continuous
 62
     7
370
    25
100
AcDbLine
 10
869.3588965607
 20
463.1521437387
 30
0.0
 11
874.2021001725
 21
463.1521437387
 31
0.0
  0
LINE
  5
1FE
330
1F
100
AcDbEntity
  8
0
  6
Continuous
 62
     7
370
    25
100
AcDbLine
 10
859.7433501725
 20
461.1521437387
 30
0.0
 11
859.9709316097
 21
460.7579611266
 31
0.0
  0
LINE
  5
1FF
330
1F
100
AcDbEntity
  8
0
  6
Continuous
 62
     7
370
    25
100
AcDbLine
 10
851.3748974581
 20
480.2521437387
 30
0.0
 11
851.8748974581
 21
479.7521437387
 31
0.0
  0
LINE
  5
200
330
1F
100
AcDbEntity
  8
0
  6
Continuous
 62
     7
370
    25
100
AcDbLine
 10
851.3748974581
 20
484.2521437387
 30
0.0
 11
851.3748974581
 21
480.2521437387
 31
0.0
  0
LINE
  5
201
330
1F
100
AcDbEntity
  8
0
  6
Continuous
 62
     7
370
    25
100
AcDbLine
 10
857.1547342479
 20
480.2521437387
 30
0.0
 11
857.1547342479
 21
484.2521437387
 31
0.0
  0
LINE
  5
202
330
1F
100
AcDbEntity
  8
0
  6
Continuous
 62
     7
370
    25
100
AcDbLine
 10
856.6547342479
 20
479.7521437387
 30
0.0
 11
857.1547342479
 21
480.2521437387
 31
0.0
  0
LINE
  5
203
330
1F
100
AcDbEntity
  8
0
  6
Continuous
 62
     7
370
    25
100
AcDbLine
 10
851.4312394199
 20
480.2521437387
 30
0.0
 11
851.9312394199
 21
479.7521437387
 31
0.0
  0
LINE
  5
204
330
1F
100
AcDbEntity
  8
0
  6
Continuous
 62
     7
370
    25
100
AcDbLine
 10
851.4312394199
 20
484.2521437387
 30
0.0
 11
851.4312394199
 21
480.2521437387
 31
0.0
  0
LINE
  5
205
330
1F
100
AcDbEntity
  8
0
  6
Continuous
 62
     7
370
    25
100
AcDbLine
 10
-26.4187648817
 20
479.7521437387
 30
0.0
 11
-25.9187648817
 21
480.2521437387
 31
0.0
  0
LINE
  5
206
330
1F
100
AcDbEntity
  8
0
  6
Continuous
 62
     7
370
    25
100
AcDbLine
 10
-25.9187648817
 20
480.2521437387
 30
0.0
 11
-25.9187648817
 21
484.2521437387
 31
0.0
  0
LINE
  5
207
330
1F
100
AcDbEntity
  8
0
  6
Continuous
 62
     7
370
    25
100
AcDbLine
 10
-31.648309566
 20
480.2521437387
 30
0.0
 11
-31.148309566
 21
479.7521437387
 31
0.0
  0
LINE
  5
208
330
1F
100
AcDbEntity
  8
0
  6
Continuous
 62
     7
370
    25
100
AcDbLine
 10
-31.648309566
 20
484.2521437387
 30
0.0
 11
-31.648309566
 21
480.2521437387
 31
0.0
  0
LINE
  5
209
330
1F
100
AcDbEntity
  8
0
  6
Continuous
 62
     7
370
    25
100
AcDbLine
 10
874.4021001725
 20
469.1521437387
 30
0.0
 11
874.2021001725
 21
469.1521437387
 31
0.0
  0
LINE
  5
20A
330
1F
100
AcDbEntity
  8
0
  6
Continuous
 62
     7
370
    25
100
AcDbLine
 10
874.2021001725
 20
463.1521437387
 30
0.0
 11
874.4021001725
 21
463.1521437387
 31
0.0
  0
LINE
  5
20B
330
1F
100
AcDbEntity
  8
0
  6
Continuous
 62
     7
370
    25
100
AcDbLine
 10
874.4021001725
 20
463.1521437387
 30
0.0
 11
874.9433501725
 21
463.6933937387
 31
0.0
  0
LINE
  5
20C
330
1F
100
AcDbEntity
  8
0
  6
Continuous
 62
     7
370
    25
100
AcDbLine
 10
874.9433501725
 20
468.6108937387
 30
0.0
 11
874.4021001725
 21
469.1521437387
 31
0.0
  0
LINE
  5
20D
330
1F
100
AcDbEntity
  8
0
  6
Continuous
 62
     7
370
    25
100
AcDbLine
 10
-48.9153998275
 20
469.1521437387
 30
0.0
 11
-49.4566498275
 21
468.6108937387
 31
0.0
  0
LINE
  5
20E
330
1F
100
AcDbEntity
  8
0
  6
Continuous
 62
     7
370
    25
100
AcDbLine
 10
-49.4566498275
 20
463.6933937387
 30
0.0
 11
-48.9153998275
 21
463.1521437387
 31
0.0
  0
LINE
  5
20F
330
1F
100
AcDbEntity
  8
0
  6
Continuous
 62
     7
370
    25
100
AcDbLine
 10
-48.9153998275
 20
463.1521437387
 30
0.0
 11
-48.7153998275
 21
463.1521437387
 31
0.0
  0
LINE
  5
210
330
1F
100
AcDbEntity
  8
0
  6
Continuous
 62
     7
370
    25
100
AcDbLine
 10
-48.7153998275
 20
469.1521437387
 30
0.0
 11
-48.9153998275
 21
469.1521437387
 31
0.0
  0
ARC
  5
211
330
1F
100
AcDbEntity
  8
0
  6
Continuous
 62
     7
370
    25
100
AcDbCircle
 10
-38.7566498275
 20
471.9521437388
 30
0.0
 40
0.5
100
AcDbArc
 50
0.0
 51
180.0
  0
ARC
  5
212
330
1F
100
AcDbEntity
  8
0
  6
Continuous
 62
     7
370
    25
100
AcDbCircle
 10
-38.7566498275
 20
460.3521437386
 30
0.0
 40
0.5
100
AcDbArc
 50
180.0
 51
0.0
  0
LINE
  5
213
330
1F
100
AcDbEntity
  8
0
  6
Continuous
 62
     7
370
    25
100
AcDbLine
 10
-48.7153998275
 20
469.1521437387
 30
0.0
 11
-49.2566498275
 21
468.6108937387
 31
0.0
  0
LINE
  5
214
330
1F
100
AcDbEntity
  8
0
  6
Continuous
 62
     7
370
    25
100
AcDbLine
 10
-49.2566498275
 20
463.6933937387
 30
0.0
 11
-48.7153998275
 21
463.1521437387
 31
0.0
  0
LINE
  5
215
330
1F
100
AcDbEntity
  8
0
  6
Continuous
 62
     7
370
    25
100
AcDbLine
 10
-48.7153998275
 20
463.1521437387
 30
0.0
 11
-43.8721962157
 21
463.1521437387
 31
0.0
  0
LINE
  5
216
330
1F
100
AcDbEntity
  8
0
  6
Continuous
 62
     7
370
    25
100
AcDbLine
 10
-43.8721962157
 20
469.1521437387
 30
0.0
 11
-48.7153998275
 21
469.1521437387
 31
0.0
  0
LINE
  5
217
330
1F
100
AcDbEntity
  8
0
  6
Continuous
 62
     7
370
    25
100
AcDbLine
 10
-34.2566498275
 20
471.1521437387
 30
0.0
 11
-34.5861329233
 21
471.7228252008
 31
0.0
  0
LINE
  5
218
330
1F
100
AcDbEntity
  8
0
  6
Continuous
 62
     7
370
    25
100
AcDbLine
 10
-34.5861329233
 20
460.5814622766
 30
0.0
 11
-34.2566498275
 21
461.1521437387
 31
0.0
  0
LINE
  5
219
330
1F
100
AcDbEntity
  8
0
  6
Continuous
 62
     7
370
    25
100
AcDbLine
 10
-41.7566498275
 20
489.3521437387
 30
0.0
 11
-38.8172621362
 21
489.3521437387
 31
0.0
  0
LINE
  5
21A
330
1F
100
AcDbEntity
  8
0
  6
Continuous
 62
     7
370
    25
100
AcDbLine
 10
864.3039624811
 20
489.3521437387
 30
0.0
 11
867.2433501725
 21
489.3521437387
 31
0.0
  0
LINE
  5
21B
330
1F
100
AcDbEntity
  8
0
  6
Continuous
 62
     7
370
    25
100
AcDbLine
 10
-47.7566498275
 20
489.3521437387
 30
0.0
 11
-41.7566498275
 21
489.3521437387
 31
0.0
  0
LINE
  5
21C
330
1F
100
AcDbEntity
  8
0
  6
Continuous
 62
     7
370
    25
100
AcDbLine
 10
867.2433501725
 20
489.3521437387
 30
0.0
 11
873.2433501725
 21
489.3521437387
 31
0.0
  0
SPLINE
  5
21D
330
1F
100
AcDbEntity
  8
0
  6
Continuous
 62
     7
370
    25
100
AcDbSpline
210
0.0
220
0.0
230
1.0
 70
    24
 71
     3
 72
    19
 73
    15
 74
     0
 42
0.000000001
 43
0.00000001
 40
0.0
 40
0.0
 40
0.0
 40
0.0
 40
0.1260638187928851
 40
0.1939261817305607
 40
0.2632286813759844
 40
0.3325311810214077
 40
0.4003935439590839
 40
0.5264573627519684
 40
0.6525211815448534
 40
0.7203835444825296
 40
0.7896860441279532
 40
0.8589885437733762
 40
0.9268509067110525
 40
1.0
 40
1.0
 40
1.0
 40
1.0
 10
863.7433501724773
 20
471.8795320940935
 30
0.0
 10
863.7433501724773
 20
471.6879441831572
 30
0.0
 10
863.7433501724773
 20
471.3932211421659
 30
0.0
 10
863.7433501724776
 20
470.4659666193253
 30
0.0
 10
863.7433501724774
 20
469.5804105787928
 30
0.0
 10
863.7433501724773
 20
468.5440093692575
 30
0.0
 10
863.7433501724776
 20
467.1000559966081
 30
0.0
 10
863.7433501724773
 20
465.2152284138996
 30
0.0
 10
863.7433501724774
 20
463.442218212073
 30
0.0
 10
863.7433501724776
 20
462.2199145903327
 30
0.0
 10
863.7433501724773
 20
461.4192278751146
 30
0.0
 10
863.7433501724774
 20
460.8337372923415
 30
0.0
 10
863.7433501724773
 20
460.4058511537887
 30
0.0
 10
863.7433501724774
 20
460.4363634056913
 30
0.0
 10
863.7433501724773
 20
460.4521915066173
 30
0.0
  0
SPLINE
  5
21E
330
1F
100
AcDbEntity
  8
0
  6
Continuous
 62
     7
370
    25
100
AcDbSpline
210
0.0
220
0.0
230
1.0
 70
     8
 71
     3
 72
     8
 73
     4
 74
     0
 42
0.000000001
 43
0.00000001
 40
0.0
 40
0.0
 40
0.0
 40
0.0
 40
1.0
 40
1.0
 40
1.0
 40
1.0
 10
859.7433501724846
 20
465.3634459466575
 30
0.0
 10
859.7433501724846
 20
464.3905016308778
 30
0.0
 10
859.917665472864
 20
463.4441863834253
 30
0.0
 10
860.1899321598759
 20
462.5128345623672
 30
0.0
  0
SPLINE
  5
21F
330
1F
100
AcDbEntity
  8
0
  6
Continuous
 62
     7
370
    25
100
AcDbSpline
210
0.0
220
0.0
230
1.0
 70
     8
 71
     3
 72
     8
 73
     4
 74
     0
 42
0.000000001
 43
0.00000001
 40
0.0
 40
0.0
 40
0.0
 40
0.0
 40
1.0
 40
1.0
 40
1.0
 40
1.0
 10
860.1899321598759
 20
468.2140573309479
 30
0.0
 10
859.9176654728644
 20
467.2827055098914
 30
0.0
 10
859.7433501724846
 20
466.3363902624354
 30
0.0
 10
859.7433501724846
 20
465.3634459466575
 30
0.0
  0
LINE
  5
220
330
1F
100
AcDbEntity
  8
0
  6
Continuous
 62
     7
370
    25
100
AcDbLine
 10
863.7433501725
 20
468.214057331
 30
0.0
 11
860.1899321599
 21
468.214057331
 31
0.0
  0
LINE
  5
221
330
1F
100
AcDbEntity
  8
0
  6
Continuous
 62
     7
370
    25
100
AcDbLine
 10
863.7433501725
 20
462.5128345624
 30
0.0
 11
860.1899321599
 21
462.5128345624
 31
0.0
  0
LINE
  5
222
330
1F
100
AcDbEntity
  8
0
  6
Continuous
 62
     7
370
    25
100
AcDbLine
 10
859.7433501725
 20
470.0337119191
 30
0.0
 11
859.7433501725
 21
465.3634459467
 31
0.0
  0
SPLINE
  5
223
330
1F
100
AcDbEntity
  8
0
  6
Continuous
 62
     7
370
    25
100
AcDbSpline
210
0.0
220
0.0
230
1.0
 70
     8
 71
     3
 72
     8
 73
     4
 74
     0
 42
0.000000001
 43
0.00000001
 40
0.0
 40
0.0
 40
0.0
 40
0.0
 40
1.0
 40
1.0
 40
1.0
 40
1.0
 10
859.7433501724845
 20
470.0337119191272
 30
0.0
 10
859.7433501724845
 20
469.4126442429079
 30
0.0
 10
859.917665472864
 20
468.8085749224194
 30
0.0
 10
860.1899321598759
 20
468.2140573309541
 30
0.0
  0
SPLINE
  5
224
330
1F
100
AcDbEntity
  8
0
  6
Continuous
 62
     7
370
    25
100
AcDbSpline
210
0.0
220
0.0
230
1.0
 70
     8
 71
     3
 72
     8
 73
     4
 74
     0
 42
0.000000001
 43
0.00000001
 40
0.0
 40
0.0
 40
0.0
 40
0.0
 40
1.0
 40
1.0
 40
1.0
 40
1.0
 10
860.1899321598759
 20
471.8533665073003
 30
0.0
 10
859.9176654728644
 20
471.2588489158361
 30
0.0
 10
859.7433501724845
 20
470.6547795953453
 30
0.0
 10
859.7433501724845
 20
470.0337119191272
 30
0.0
  0
LINE
  5
225
330
1F
100
AcDbEntity
  8
0
  6
Continuous
 62
     7
370
    25
100
AcDbLine
 10
863.7433501725
 20
471.8533665073
 30
0.0
 11
860.1899321599
 21
471.8533665073
 31
0.0
  0
LINE
  5
226
330
1F
100
AcDbEntity
  8
0
  6
Continuous
 62
     7
370
    25
100
AcDbLine
 10
859.7433501725
 20
465.3634459467
 30
0.0
 11
859.7433501725
 21
461.4818777662
 31
0.0
  0
SPLINE
  5
227
330
1F
100
AcDbEntity
  8
0
  6
Continuous
 62
     7
370
    25
100
AcDbSpline
210
0.0
220
0.0
230
1.0
 70
     8
 71
     3
 72
     8
 73
     4
 74
     0
 42
0.000000001
 43
0.00000001
 40
0.0
 40
0.0
 40
0.0
 40
0.0
 40
1.0
 40
1.0
 40
1.0
 40
1.0
 10
860.1899321598759
 20
462.5128345623621
 30
0.0
 10
859.9176654728644
 20
462.1760003327698
 30
0.0
 10
859.7433501724845
 20
461.8337544058045
 30
0.0
 10
859.7433501724845
 20
461.4818777662447
 30
0.0
  0
SPLINE
  5
228
330
1F
100
AcDbEntity
  8
0
  6
Continuous
 62
     7
370
    25
100
AcDbSpline
210
0.0
220
0.0
230
1.0
 70
     8
 71
     3
 72
     8
 73
     4
 74
     0
 42
0.000000001
 43
0.00000001
 40
0.0
 40
0.0
 40
0.0
 40
0.0
 40
1.0
 40
1.0
 40
1.0
 40
1.0
 10
859.7433501724845
 20
461.4818777662447
 30
0.0
 10
859.7433501724845
 20
461.1300011266842
 30
0.0
 10
859.917665472864
 20
460.7877551997201
 30
0.0
 10
860.1899321598759
 20
460.4509209701271
 30
0.0
  0
LINE
  5
229
330
1F
100
AcDbEntity
  8
0
  6
Continuous
 62
     7
370
    25
100
AcDbLine
 10
863.7433501725
 20
460.4509209701
 30
0.0
 11
860.1899321599
 21
460.4509209701
 31
0.0
  0
LINE
  5
22A
330
1F
100
AcDbEntity
  8
0
  6
Continuous
 62
     7
370
    25
100
AcDbLine
 10
860.0397259296
 20
471.5066079316
 30
0.0
 11
860.1899321599
 21
471.8533665073
 31
0.0
  0
LINE
  5
22B
330
1F
100
AcDbEntity
  8
0
  6
Continuous
 62
     7
370
    25
100
AcDbLine
 10
859.7433501725
 20
471.1521437387
 30
0.0
 11
859.7433501725
 21
470.0337119191
 31
0.0
  0
LINE
  5
22C
330
1F
100
AcDbEntity
  8
0
  6
Continuous
 62
     7
370
    25
100
AcDbLine
 10
874.7433501725
 20
465.7643015995
 30
0.0
 11
874.7433501725
 21
468.6108937387
 31
0.0
  0
LINE
  5
22D
330
1F
100
AcDbEntity
  8
0
  6
Continuous
 62
     7
370
    25
100
AcDbLine
 10
874.7433501725
 20
463.6933937387
 30
0.0
 11
874.7433501725
 21
465.7643015995
 31
0.0
  0
LINE
  5
22E
330
1F
100
AcDbEntity
  8
0
  6
Continuous
 62
     7
370
    25
100
AcDbLine
 10
874.2021001725
 20
463.1521437387
 30
0.0
 11
874.2021001725
 21
469.1521437387
 31
0.0
  0
LINE
  5
22F
330
1F
100
AcDbEntity
  8
0
  6
Continuous
 62
     7
370
    25
100
AcDbLine
 10
859.7433501725
 20
461.4818777662
 30
0.0
 11
859.7433501725
 21
461.1521437387
 31
0.0
  0
LINE
  5
230
330
1F
100
AcDbEntity
  8
0
  6
Continuous
 62
     7
370
    25
100
AcDbLine
 10
-33.5066498275
 20
484.2521437387
 30
0.0
 11
-33.5066498275
 21
484.7521437387
 31
0.0
  0
LINE
  5
231
330
1F
100
AcDbEntity
  8
0
  6
Continuous
 62
     7
370
    25
100
AcDbLine
 10
-24.0066498275
 20
484.7521437387
 30
0.0
 11
-24.0066498275
 21
484.2521437387
 31
0.0
  0
LINE
  5
232
330
1F
100
AcDbEntity
  8
0
  6
Continuous
 62
     7
370
    25
100
AcDbLine
 10
-24.0066498275
 20
484.2521437387
 30
0.0
 11
-33.5066498275
 21
484.2521437387
 31
0.0
  0
LINE
  5
233
330
1F
100
AcDbEntity
  8
0
  6
Continuous
 62
     7
370
    25
100
AcDbLine
 10
-23.2432498275
 20
484.2521437387
 30
0.0
 11
-24.0066498275
 21
484.2521437387
 31
0.0
  0
ARC
  5
234
330
1F
100
AcDbEntity
  8
0
  6
Continuous
 62
     7
370
    25
100
AcDbCircle
 10
-34.2700498275
 20
485.4887437387
 30
0.0
 40
1.236599999999998
100
AcDbArc
 50
216.5600911005
 51
270.0
  0
LINE
  5
235
330
1F
100
AcDbEntity
  8
0
  6
Continuous
 62
     7
370
    25
100
AcDbLine
 10
-33.5066498275
 20
484.2521437387
 30
0.0
 11
-34.2700498275
 21
484.2521437387
 31
0.0
  0
ARC
  5
236
330
1F
100
AcDbEntity
  8
0
  6
Continuous
 62
     7
370
    25
100
AcDbCircle
 10
-23.2432498275
 20
485.4887437387
 30
0.0
 40
1.23660000000001
100
AcDbArc
 50
270.0
 51
323.4399088995
  0
ARC
  5
237
330
1F
100
AcDbEntity
  8
0
  6
Continuous
 62
     7
370
    25
100
AcDbCircle
 10
-41.7566498275
 20
488.7521437387
 30
0.0
 40
3.000000000000057
100
AcDbArc
 50
0.0
 51
90.0
  0
LINE
  5
238
330
1F
100
AcDbEntity
  8
0
  6
Continuous
 62
     7
370
    25
100
AcDbLine
 10
-53.7566498275
 20
491.7521437387
 30
0.0
 11
-41.7566498275
 21
491.7521437387
 31
0.0
  0
ARC
  5
239
330
1F
100
AcDbEntity
  8
0
  6
Continuous
 62
     7
370
    25
100
AcDbCircle
 10
-53.7566498275
 20
488.7521437387
 30
0.0
 40
3.000000000000057
100
AcDbArc
 50
90.0
 51
180.0
  0
LINE
  5
23A
330
1F
100
AcDbEntity
  8
0
  6
Continuous
 62
     7
370
    25
100
AcDbLine
 10
-56.7566498275
 20
487.7521437387
 30
0.0
 11
-56.7566498275
 21
488.7521437387
 31
0.0
  0
ARC
  5
23B
330
1F
100
AcDbEntity
  8
0
  6
Continuous
 62
     7
370
    25
100
AcDbCircle
 10
-59.7566498275
 20
487.7521437387
 30
0.0
 40
3.000000000000057
100
AcDbArc
 50
270.0
 51
0.0
  0
LINE
  5
23C
330
1F
100
AcDbEntity
  8
0
  6
Continuous
 62
     7
370
    25
100
AcDbLine
 10
-83.2859391494
 20
484.7521437387
 30
0.0
 11
-59.7566498275
 21
484.7521437387
 31
0.0
  0
LINE
  5
23D
330
1F
100
AcDbEntity
  8
0
  6
Continuous
 62
     7
370
    25
100
AcDbLine
 10
908.7726394944
 20
494.3521437387
 30
0.0
 11
908.7726394944
 21
484.7521437387
 31
0.0
  0
LINE
  5
23E
330
1F
100
AcDbEntity
  8
0
  6
Continuous
 62
     7
370
    25
100
AcDbLine
 10
885.2433501725
 20
484.7521437387
 30
0.0
 11
908.7726394944
 21
484.7521437387
 31
0.0
  0
ARC
  5
23F
330
1F
100
AcDbEntity
  8
0
  6
Continuous
 62
     7
370
    25
100
AcDbCircle
 10
885.2433501725
 20
487.7521437387
 30
0.0
 40
3.000000000000114
100
AcDbArc
 50
180.0
 51
270.0
  0
LINE
  5
240
330
1F
100
AcDbEntity
  8
0
  6
Continuous
 62
     7
370
    25
100
AcDbLine
 10
882.2433501725
 20
487.7521437387
 30
0.0
 11
882.2433501725
 21
488.7521437387
 31
0.0
  0
ARC
  5
241
330
1F
100
AcDbEntity
  8
0
  6
Continuous
 62
     7
370
    25
100
AcDbCircle
 10
879.2433501725
 20
488.7521437387
 30
0.0
 40
3.000000000000114
100
AcDbArc
 50
0.0
 51
90.0
  0
LINE
  5
242
330
1F
100
AcDbEntity
  8
0
  6
Continuous
 62
     7
370
    25
100
AcDbLine
 10
879.2433501725
 20
491.7521437387
 30
0.0
 11
867.2433501725
 21
491.7521437387
 31
0.0
  0
ARC
  5
243
330
1F
100
AcDbEntity
  8
0
  6
Continuous
 62
     7
370
    25
100
AcDbCircle
 10
867.2433501725
 20
488.7521437387
 30
0.0
 40
3.000000000000114
100
AcDbArc
 50
90.0
 51
180.0
  0
LINE
  5
244
330
1F
100
AcDbEntity
  8
0
  6
Continuous
 62
     7
370
    25
100
AcDbLine
 10
864.2433501725
 20
487.7521437387
 30
0.0
 11
864.2433501725
 21
488.7521437387
 31
0.0
  0
ARC
  5
245
330
1F
100
AcDbEntity
  8
0
  6
Continuous
 62
     7
370
    25
100
AcDbCircle
 10
861.2433501725
 20
487.7521437387
 30
0.0
 40
3.000000000000114
100
AcDbArc
 50
270.0
 51
0.0
  0
LINE
  5
246
330
1F
100
AcDbEntity
  8
0
  6
Continuous
 62
     7
370
    25
100
AcDbLine
 10
-35.7566498275
 20
484.7521437387
 30
0.0
 11
861.2433501725
 21
484.7521437387
 31
0.0
  0
ARC
  5
247
330
1F
100
AcDbEntity
  8
0
  6
Continuous
 62
     7
370
    25
100
AcDbCircle
 10
-35.7566498275
 20
487.7521437387
 30
0.0
 40
3.000000000000064
100
AcDbArc
 50
180.0
 51
270.0
  0
LINE
  5
248
330
1F
100
AcDbEntity
  8
0
  6
Continuous
 62
     7
370
    25
100
AcDbLine
 10
-38.7566498275
 20
487.7521437387
 30
0.0
 11
-38.7566498275
 21
488.7521437387
 31
0.0
  0
LINE
  5
249
330
1F
100
AcDbEntity
  8
0
  6
Continuous
 62
     7
370
    25
100
AcDbLine
 10
-83.2859391494
 20
494.3521437387
 30
0.0
 11
-83.2859391494
 21
484.7521437387
 31
0.0
  0
SPLINE
  5
24A
330
1F
100
AcDbEntity
  8
0
  6
Continuous
 62
     7
370
    25
100
AcDbSpline
210
0.0
220
0.0
230
1.0
 70
     8
 71
     3
 72
    20
 73
    16
 74
     0
 42
0.000000001
 43
0.00000001
 40
0.0
 40
0.0
 40
0.0
 40
0.0
 40
0.1250000000000019
 40
0.1250000000000019
 40
0.2500000000000037
 40
0.2500000000000037
 40
0.3750000000000056
 40
0.3750000000000056
 40
0.5000000000000074
 40
0.5000000000000074
 40
0.7500000000000038
 40
0.7500000000000038
 40
0.8750000000000019
 40
0.8750000000000019
 40
1.0
 40
1.0
 40
1.0
 40
1.0
 10
907.8433501724774
 20
496.7521437387152
 30
0.0
 10
907.882390903332
 20
496.7521437387152
 30
0.0
 10
907.9209096075318
 20
496.7366071782403
 30
0.0
 10
907.9983163588397
 20
496.6752888262798
 30
0.0
 10
908.0374607768263
 20
496.6288650806929
 30
0.0
 10
908.1146115307415
 20
496.5089142105388
 30
0.0
 10
908.1529391124825
 20
496.4353095662554
 30
0.0
 10
908.2304854329591
 20
496.2605792001598
 30
0.0
 10
908.2694616406279
 20
496.1597285712583
 30
0.0
 10
908.3849564970728
 20
495.8284432912743
 30
0.0
 10
908.462868940743
 20
495.5607631298905
 30
0.0
 10
908.5783488661438
 20
495.1280891038351
 30
0.0
 10
908.6172146620088
 20
494.9765710169839
 30
0.0
 10
908.6949889956775
 20
494.6671452595978
 30
0.0
 10
908.7335987626319
 20
494.510522929904
 30
0.0
 10
908.7726394943587
 20
494.3521437387152
 30
0.0
  0
SPLINE
  5
24B
330
1F
100
AcDbEntity
  8
0
  6
Continuous
 62
     7
370
    25
100
AcDbSpline
210
0.0
220
0.0
230
1.0
 70
     8
 71
     3
 72
    20
 73
    16
 74
     0
 42
0.000000001
 43
0.00000001
 40
0.0
 40
0.0
 40
0.0
 40
0.0
 40
0.1250000000000044
 40
0.1250000000000044
 40
0.2500000000000088
 40
0.2500000000000088
 40
0.3750000000000132
 40
0.3750000000000132
 40
0.5000000000000177
 40
0.5000000000000177
 40
0.7500000000000088
 40
0.7500000000000088
 40
0.8750000000000044
 40
0.8750000000000044
 40
1.0
 40
1.0
 40
1.0
 40
1.0
 10
-83.2859391494038
 20
494.3521437387153
 30
0.0
 10
-83.24689841854938
 20
494.510522926366
 30
0.0
 10
-83.20837971434952
 20
494.6667686510577
 30
0.0
 10
-83.13097296304161
 20
494.9747605004742
 30
0.0
 10
-83.09182854505481
 20
495.1274046079454
 30
0.0
 10
-83.0146777911398
 20
495.4164888971324
 30
0.0
 10
-82.9763502093988
 20
495.5542934353164
 30
0.0
 10
-82.89880388892207
 20
495.8159121109553
 30
0.0
 10
-82.85982768125355
 20
495.938658417638
 30
0.0
 10
-82.74433282480858
 20
496.2699827945857
 30
0.0
 10
-82.66642038113847
 20
496.4489939186138
 30
0.0
 10
-82.55094045573746
 20
496.6286090179948
 30
0.0
 10
-82.51207465987243
 20
496.6748533668625
 30
0.0
 10
-82.43430032620402
 20
496.7366066728737
 30
0.0
 10
-82.39569055924939
 20
496.7521437387152
 30
0.0
 10
-82.3566498275225
 20
496.7521437387152
 30
0.0
  0
LINE
  5
24C
330
1F
100
AcDbEntity
  8
0
  6
Continuous
 62
     7
370
    25
100
AcDbLine
 10
-82.3566498275
 20
496.7521437387
 30
0.0
 11
907.8433501725
 21
496.7521437387
 31
0.0
  0
SPLINE
  5
24D
330
1F
100
AcDbEntity
  8
0
  6
Continuous
 62
     7
370
    25
100
AcDbSpline
210
0.0
220
0.0
230
1.0
 70
     8
 71
     3
 72
     9
 73
     5
 74
     0
 42
0.000000001
 43
0.00000001
 40
0.0
 40
0.0
 40
0.0
 40
0.0
 40
0.4825784287293637
 40
0.9999999999999999
 40
0.9999999999999999
 40
0.9999999999999999
 40
0.9999999999999999
 10
-83.13282005946876
 20
494.9646834778933
 30
0.0
 10
-83.19662825253016
 20
494.876549136577
 30
0.0
 10
-83.3288517197695
 20
494.693916975524
 30
0.0
 10
-83.34717102422596
 20
494.4686840914794
 30
0.0
 10
-83.35664982752245
 20
494.3521437387152
 30
0.0
  0
LINE
  5
24E
330
1F
100
AcDbEntity
  8
0
  6
Continuous
 62
     7
370
    25
100
AcDbLine
 10
-84.7566498275
 20
494.3521437387
 30
0.0
 11
-83.3566498275
 21
494.3521437387
 31
0.0
  0
SPLINE
  5
24F
330
1F
100
AcDbEntity
  8
0
  6
Continuous
 62
     7
370
    25
100
AcDbSpline
210
0.0
220
0.0
230
1.0
 70
     8
 71
     3
 72
    20
 73
    16
 74
     0
 42
0.000000001
 43
0.00000001
 40
0.0
 40
0.0
 40
0.0
 40
0.0
 40
0.1249999999999956
 40
0.1249999999999956
 40
0.2499999999999911
 40
0.2499999999999911
 40
0.3749999999999867
 40
0.3749999999999867
 40
0.4999999999999822
 40
0.4999999999999822
 40
0.7500000000000004
 40
0.7500000000000004
 40
0.8750000000000002
 40
0.8750000000000002
 40
1.0
 40
1.0
 40
1.0
 40
1.0
 10
-82.35664982752245
 20
496.7521437387152
 30
0.0
 10
-82.51502901517316
 20
496.7521437387152
 30
0.0
 10
-82.67127473986491
 20
496.7366071782404
 30
0.0
 10
-82.97926658928145
 20
496.6752888262798
 30
0.0
 10
-83.13191069675263
 20
496.6288650806929
 30
0.0
 10
-83.42099498593974
 20
496.5089142105388
 30
0.0
 10
-83.55879952412387
 20
496.4353095662554
 30
0.0
 10
-83.82041819976277
 20
496.2605792001598
 30
0.0
 10
-83.94316450644523
 20
496.1597285712582
 30
0.0
 10
-84.27448888339273
 20
495.8284432912743
 30
0.0
 10
-84.45350000742103
 20
495.5607631298904
 30
0.0
 10
-84.63311510680188
 20
495.128089103835
 30
0.0
 10
-84.67935945566974
 20
494.9765710169838
 30
0.0
 10
-84.74111276168111
 20
494.6671452595978
 30
0.0
 10
-84.7566498275224
 20
494.510522929904
 30
0.0
 10
-84.75664982752245
 20
494.3521437387152
 30
0.0
  0
LINE
  5
250
330
1F
100
AcDbEntity
  8
0
  6
Continuous
 62
     7
370
    25
100
AcDbLine
 10
910.2433501725
 20
494.3521437387
 30
0.0
 11
908.8433501725
 21
494.3521437387
 31
0.0
  0
SPLINE
  5
251
330
1F
100
AcDbEntity
  8
0
  6
Continuous
 62
     7
370
    25
100
AcDbSpline
210
0.0
220
0.0
230
1.0
 70
     8
 71
     3
 72
     9
 73
     5
 74
     0
 42
0.000000001
 43
0.00000001
 40
0.0
 40
0.0
 40
0.0
 40
0.0
 40
0.6784508005726985
 40
1.0
 40
1.0
 40
1.0
 40
1.0
 10
908.8433501724775
 20
494.3521437387152
 30
0.0
 10
908.830100602013
 20
494.5028509431685
 30
0.0
 10
908.8105714475729
 20
494.724985259063
 30
0.0
 10
908.6697237939337
 20
494.8918183639523
 30
0.0
 10
908.624434343665
 20
494.9454634152673
 30
0.0
  0
SPLINE
  5
252
330
1F
100
AcDbEntity
  8
0
  6
Continuous
 62
     7
370
    25
100
AcDbSpline
210
0.0
220
0.0
230
1.0
 70
     8
 71
     3
 72
    20
 73
    16
 74
     0
 42
0.000000001
 43
0.00000001
 40
0.0
 40
0.0
 40
0.0
 40
0.0
 40
0.1249999999999995
 40
0.1249999999999995
 40
0.2499999999999988
 40
0.2499999999999988
 40
0.3749999999999982
 40
0.3749999999999982
 40
0.4999999999999976
 40
0.4999999999999976
 40
0.7499999999999988
 40
0.7499999999999988
 40
0.8749999999999993
 40
0.8749999999999993
 40
1.0
 40
1.0
 40
1.0
 40
1.0
 10
910.2433501724774
 20
494.3521437387152
 30
0.0
 10
910.2433501724776
 20
494.5105229263659
 30
0.0
 10
910.2278136120026
 20
494.6667686510576
 30
0.0
 10
910.1664952600421
 20
494.9747605004742
 30
0.0
 10
910.120071514455
 20
495.1274046079454
 30
0.0
 10
910.000120644301
 20
495.4164888971324
 30
0.0
 10
909.9265160000176
 20
495.5542934353165
 30
0.0
 10
909.7517856339222
 20
495.8159121109554
 30
0.0
 10
909.6509350050205
 20
495.938658417638
 30
0.0
 10
909.3196497250365
 20
496.2699827945857
 30
0.0
 10
909.0519695636525
 20
496.448993918614
 30
0.0
 10
908.6192955375974
 20
496.6286090179949
 30
0.0
 10
908.4677774507463
 20
496.6748533668626
 30
0.0
 10
908.1583516933603
 20
496.7366066728738
 30
0.0
 10
908.0017293636662
 20
496.7521437387152
 30
0.0
 10
907.8433501724774
 20
496.7521437387152
 30
0.0
  0
LINE
  5
253
330
1F
100
AcDbEntity
  8
0
  6
Continuous
 62
     7
370
    25
100
AcDbLine
 10
-84.7566498275
 20
484.7521437387
 30
0.0
 11
-83.3566498275
 21
484.7521437387
 31
0.0
  0
LINE
  5
254
330
1F
100
AcDbEntity
  8
0
  6
Continuous
 62
     7
370
    25
100
AcDbLine
 10
-84.7566498275
 20
494.3521437387
 30
0.0
 11
-84.7566498275
 21
484.7521437387
 31
0.0
  0
LINE
  5
255
330
1F
100
AcDbEntity
  8
0
  6
Continuous
 62
     7
370
    25
100
AcDbLine
 10
-83.3566498275
 20
494.3521437387
 30
0.0
 11
-83.3566498275
 21
484.7521437387
 31
0.0
  0
LINE
  5
256
330
1F
100
AcDbEntity
  8
0
  6
Continuous
 62
     7
370
    25
100
AcDbLine
 10
910.2433501725
 20
484.7521437387
 30
0.0
 11
908.8433501725
 21
484.7521437387
 31
0.0
  0
LINE
  5
257
330
1F
100
AcDbEntity
  8
0
  6
Continuous
 62
     7
370
    25
100
AcDbLine
 10
908.8433501725
 20
494.3521437387
 30
0.0
 11
908.8433501725
 21
484.7521437387
 31
0.0
  0
LINE
  5
258
330
1F
100
AcDbEntity
  8
0
  6
Continuous
 62
     7
370
    25
100
AcDbLine
 10
910.2433501725
 20
494.3521437387
 30
0.0
 11
910.2433501725
 21
484.7521437387
 31
0.0
  0
LINE
  5
259
330
1F
100
AcDbEntity
  8
0
  6
Continuous
 62
     7
370
    25
100
AcDbLine
 10
851.3748974581
 20
480.2521437387
 30
0.0
 11
851.4312394199
 21
480.2521437387
 31
0.0
  0
LINE
  5
25A
330
1F
100
AcDbEntity
  8
0
  6
Continuous
 62
     7
370
    25
100
AcDbLine
 10
851.9312394199
 20
479.7521437387
 30
0.0
 11
851.8748974581
 21
479.7521437387
 31
0.0
  0
LINE
  5
25B
330
1F
100
AcDbEntity
  8
0
  6
Continuous
 62
     7
370
    25
100
AcDbLine
 10
852.3213086987
 20
480.2521437387
 30
0.0
 11
855.7682983547
 21
480.2521437387
 31
0.0
  0
LINE
  5
25C
330
1F
100
AcDbEntity
  8
0
  6
Continuous
 62
     7
370
    25
100
AcDbLine
 10
855.3622429784
 20
479.7521437387
 30
0.0
 11
852.7770007364
 21
479.7521437387
 31
0.0
  0
LINE
  5
25D
330
1F
100
AcDbEntity
  8
0
  6
Continuous
 62
     7
370
    25
100
AcDbLine
 10
855.7682983547
 20
480.2521437387
 30
0.0
 11
856.778955753
 21
480.2521437387
 31
0.0
  0
LINE
  5
25E
330
1F
100
AcDbEntity
  8
0
  6
Continuous
 62
     7
370
    25
100
AcDbLine
 10
856.3729003767
 20
479.7521437387
 30
0.0
 11
855.3622429784
 21
479.7521437387
 31
0.0
  0
LINE
  5
25F
330
1F
100
AcDbEntity
  8
0
  6
Continuous
 62
     7
370
    25
100
AcDbLine
 10
851.6084712691
 20
480.2521437387
 30
0.0
 11
852.3213086987
 21
480.2521437387
 31
0.0
  0
LINE
  5
260
330
1F
100
AcDbEntity
  8
0
  6
Continuous
 62
     7
370
    25
100
AcDbLine
 10
852.7770007364
 20
479.7521437387
 30
0.0
 11
852.0641633068
 21
479.7521437387
 31
0.0
  0
LINE
  5
261
330
1F
100
AcDbEntity
  8
0
  6
Continuous
 62
     7
370
    25
100
AcDbLine
 10
856.778955753
 20
480.2521437387
 30
0.0
 11
857.1547342479
 21
480.2521437387
 31
0.0
  0
LINE
  5
262
330
1F
100
AcDbEntity
  8
0
  6
Continuous
 62
     7
370
    25
100
AcDbLine
 10
856.6547342479
 20
479.7521437387
 30
0.0
 11
856.3729003767
 21
479.7521437387
 31
0.0
  0
LINE
  5
263
330
1F
100
AcDbEntity
  8
0
  6
Continuous
 62
     7
370
    25
100
AcDbLine
 10
851.4312394199
 20
480.2521437387
 30
0.0
 11
851.6084712691
 21
480.2521437387
 31
0.0
  0
LINE
  5
264
330
1F
100
AcDbEntity
  8
0
  6
Continuous
 62
     7
370
    25
100
AcDbLine
 10
852.0641633068
 20
479.7521437387
 30
0.0
 11
851.9312394199
 21
479.7521437387
 31
0.0
  0
LINE
  5
265
330
1F
100
AcDbEntity
  8
0
  6
Continuous
 62
     7
370
    25
100
AcDbLine
 10
-26.4187648817
 20
479.7521437387
 30
0.0
 11
-27.9994270706
 21
479.7521437387
 31
0.0
  0
LINE
  5
266
330
1F
100
AcDbEntity
  8
0
  6
Continuous
 62
     7
370
    25
100
AcDbLine
 10
-28.0263144669
 20
480.2521437387
 30
0.0
 11
-25.9187648817
 21
480.2521437387
 31
0.0
  0
LINE
  5
267
330
1F
100
AcDbEntity
  8
0
  6
Continuous
 62
     7
370
    25
100
AcDbLine
 10
-27.9994270706
 20
479.7521437387
 30
0.0
 11
-29.7289717549
 21
479.7521437387
 31
0.0
  0
LINE
  5
268
330
1F
100
AcDbEntity
  8
0
  6
Continuous
 62
     7
370
    25
100
AcDbLine
 10
-29.7558591512
 20
480.2521437387
 30
0.0
 11
-28.0263144669
 21
480.2521437387
 31
0.0
  0
LINE
  5
269
330
1F
100
AcDbEntity
  8
0
  6
Continuous
 62
     7
370
    25
100
AcDbLine
 10
-29.7289717549
 20
479.7521437387
 30
0.0
 11
-31.148309566
 21
479.7521437387
 31
0.0
  0
LINE
  5
26A
330
1F
100
AcDbEntity
  8
0
  6
Continuous
 62
     7
370
    25
100
AcDbLine
 10
-31.648309566
 20
480.2521437387
 30
0.0
 11
-29.7558591512
 21
480.2521437387
 31
0.0
  0
LINE
  5
26B
330
1F
100
AcDbEntity
  8
0
  6
Continuous
 62
     7
370
    25
100
AcDbLine
 10
862.7433501725
 20
476.6521437387
 30
0.0
 11
863.9433501725
 21
476.6521437387
 31
0.0
  0
LINE
  5
26C
330
1F
100
AcDbEntity
  8
0
  6
Continuous
 62
     7
370
    25
100
AcDbLine
 10
863.9433501725
 20
457.6521437387
 30
0.0
 11
860.7433501725
 21
457.6521437387
 31
0.0
  0
LINE
  5
26D
330
1F
100
AcDbEntity
  8
0
  6
Continuous
 62
     7
370
    25
100
AcDbLine
 10
860.7433501725
 20
457.6521437387
 30
0.0
 11
860.7433501725
 21
436.6521437387
 31
0.0
  0
ARC
  5
26E
330
1F
100
AcDbEntity
  8
0
  6
Continuous
 62
     7
370
    25
100
AcDbCircle
 10
857.7433501725
 20
436.6521437387
 30
0.0
 40
3.0
100
AcDbArc
 50
270.0
 51
0.0
  0
LINE
  5
26F
330
1F
100
AcDbEntity
  8
0
  6
Continuous
 62
     7
370
    25
100
AcDbLine
 10
857.7433501725
 20
433.6521437387
 30
0.0
 11
813.7433501725
 21
433.6521437387
 31
0.0
  0
ARC
  5
270
330
1F
100
AcDbEntity
  8
0
  6
Continuous
 62
     7
370
    25
100
AcDbCircle
 10
813.7433501725
 20
436.6521437387
 30
0.0
 40
3.0
100
AcDbArc
 50
180.0
 51
270.0
  0
LINE
  5
271
330
1F
100
AcDbEntity
  8
0
  6
Continuous
 62
     7
370
    25
100
AcDbLine
 10
810.7433501725
 20
436.6521437387
 30
0.0
 11
810.7433501725
 21
452.7821437387
 31
0.0
  0
LINE
  5
272
330
1F
100
AcDbEntity
  8
0
  6
Continuous
 62
     7
370
    25
100
AcDbLine
 10
810.7433501725
 20
452.7821437387
 30
0.0
 11
808.2433501725
 21
452.7821437387
 31
0.0
  0
LINE
  5
273
330
1F
100
AcDbEntity
  8
0
  6
Continuous
 62
     7
370
    25
100
AcDbLine
 10
808.2433501725
 20
452.2900929311
 30
0.0
 11
808.2433501725
 21
452.7821437387
 31
0.0
  0
LINE
  5
274
330
1F
100
AcDbEntity
  8
0
  6
Continuous
 62
     7
370
    25
100
AcDbLine
 10
608.2433501725
 20
452.2900929311
 30
0.0
 11
608.2433501725
 21
452.7821437387
 31
0.0
  0
LINE
  5
275
330
1F
100
AcDbEntity
  8
0
  6
Continuous
 62
     7
370
    25
100
AcDbLine
 10
608.2433501725
 20
452.7821437387
 30
0.0
 11
605.7433501725
 21
452.7821437387
 31
0.0
  0
LINE
  5
276
330
1F
100
AcDbEntity
  8
0
  6
Continuous
 62
     7
370
    25
100
AcDbLine
 10
605.7433501725
 20
452.7821437387
 30
0.0
 11
605.7433501725
 21
436.6521437387
 31
0.0
  0
ARC
  5
277
330
1F
100
AcDbEntity
  8
0
  6
Continuous
 62
     7
370
    25
100
AcDbCircle
 10
602.7433501725
 20
436.6521437387
 30
0.0
 40
3.0
100
AcDbArc
 50
270.0
 51
0.0
  0
LINE
  5
278
330
1F
100
AcDbEntity
  8
0
  6
Continuous
 62
     7
370
    25
100
AcDbLine
 10
602.7433501725
 20
433.6521437387
 30
0.0
 11
518.2433501725
 21
433.6521437387
 31
0.0
  0
ARC
  5
279
330
1F
100
AcDbEntity
  8
0
  6
Continuous
 62
     7
370
    25
100
AcDbCircle
 10
518.2433501725
 20
436.6521437387
 30
0.0
 40
3.0
100
AcDbArc
 50
180.0
 51
270.0
  0
LINE
  5
27A
330
1F
100
AcDbEntity
  8
0
  6
Continuous
 62
     7
370
    25
100
AcDbLine
 10
515.2433501725
 20
436.6521437387
 30
0.0
 11
515.2433501725
 21
452.7821437387
 31
0.0
  0
LINE
  5
27B
330
1F
100
AcDbEntity
  8
0
  6
Continuous
 62
     7
370
    25
100
AcDbLine
 10
515.2433501725
 20
452.7821437387
 30
0.0
 11
512.7433501725
 21
452.7821437387
 31
0.0
  0
LINE
  5
27C
330
1F
100
AcDbEntity
  8
0
  6
Continuous
 62
     7
370
    25
100
AcDbLine
 10
512.7433501725
 20
452.2900929311
 30
0.0
 11
512.7433501725
 21
452.7821437387
 31
0.0
  0
LINE
  5
27D
330
1F
100
AcDbEntity
  8
0
  6
Continuous
 62
     7
370
    25
100
AcDbLine
 10
312.7433501725
 20
452.2900929311
 30
0.0
 11
312.7433501725
 21
452.7821437387
 31
0.0
  0
LINE
  5
27E
330
1F
100
AcDbEntity
  8
0
  6
Continuous
 62
     7
370
    25
100
AcDbLine
 10
312.7433501725
 20
452.7821437387
 30
0.0
 11
310.2433501725
 21
452.7821437387
 31
0.0
  0
LINE
  5
27F
330
1F
100
AcDbEntity
  8
0
  6
Continuous
 62
     7
370
    25
100
AcDbLine
 10
310.2433501725
 20
452.7821437387
 30
0.0
 11
310.2433501725
 21
436.6521437387
 31
0.0
  0
ARC
  5
280
330
1F
100
AcDbEntity
  8
0
  6
Continuous
 62
     7
370
    25
100
AcDbCircle
 10
307.2433501725
 20
436.6521437387
 30
0.0
 40
3.0
100
AcDbArc
 50
270.0
 51
0.0
  0
LINE
  5
281
330
1F
100
AcDbEntity
  8
0
  6
Continuous
 62
     7
370
    25
100
AcDbLine
 10
307.2433501725
 20
433.6521437387
 30
0.0
 11
222.7433501725
 21
433.6521437387
 31
0.0
  0
ARC
  5
282
330
1F
100
AcDbEntity
  8
0
  6
Continuous
 62
     7
370
    25
100
AcDbCircle
 10
222.7433501725
 20
436.6521437387
 30
0.0
 40
3.0
100
AcDbArc
 50
180.0
 51
270.0
  0
LINE
  5
283
330
1F
100
AcDbEntity
  8
0
  6
Continuous
 62
     7
370
    25
100
AcDbLine
 10
219.7433501725
 20
436.6521437387
 30
0.0
 11
219.7433501725
 21
452.7821437387
 31
0.0
  0
LINE
  5
284
330
1F
100
AcDbEntity
  8
0
  6
Continuous
 62
     7
370
    25
100
AcDbLine
 10
219.7433501725
 20
452.7821437387
 30
0.0
 11
217.2433501725
 21
452.7821437387
 31
0.0
  0
LINE
  5
285
330
1F
100
AcDbEntity
  8
0
  6
Continuous
 62
     7
370
    25
100
AcDbLine
 10
217.2433501725
 20
452.2900929311
 30
0.0
 11
217.2433501725
 21
452.7821437387
 31
0.0
  0
LINE
  5
286
330
1F
100
AcDbEntity
  8
0
  6
Continuous
 62
     7
370
    25
100
AcDbLine
 10
17.2433501725
 20
452.2900929311
 30
0.0
 11
17.2433501725
 21
452.7821437387
 31
0.0
  0
LINE
  5
287
330
1F
100
AcDbEntity
  8
0
  6
Continuous
 62
     7
370
    25
100
AcDbLine
 10
17.2433501725
 20
452.7821437387
 30
0.0
 11
14.7433501725
 21
452.7821437387
 31
0.0
  0
LINE
  5
288
330
1F
100
AcDbEntity
  8
0
  6
Continuous
 62
     7
370
    25
100
AcDbLine
 10
14.7433501725
 20
452.7821437387
 30
0.0
 11
14.7433501725
 21
436.6521437387
 31
0.0
  0
ARC
  5
289
330
1F
100
AcDbEntity
  8
0
  6
Continuous
 62
     7
370
    25
100
AcDbCircle
 10
11.7433501725
 20
436.6521437387
 30
0.0
 40
3.000000000000004
100
AcDbArc
 50
270.0
 51
0.0
  0
LINE
  5
28A
330
1F
100
AcDbEntity
  8
0
  6
Continuous
 62
     7
370
    25
100
AcDbLine
 10
11.7433501725
 20
433.6521437387
 30
0.0
 11
-32.2566498275
 21
433.6521437387
 31
0.0
  0
ARC
  5
28B
330
1F
100
AcDbEntity
  8
0
  6
Continuous
 62
     7
370
    25
100
AcDbCircle
 10
-32.2566498275
 20
436.6521437387
 30
0.0
 40
3.0
100
AcDbArc
 50
180.0
 51
270.0
  0
LINE
  5
28C
330
1F
100
AcDbEntity
  8
0
  6
Continuous
 62
     7
370
    25
100
AcDbLine
 10
-35.2566498275
 20
436.6521437387
 30
0.0
 11
-35.2566498275
 21
457.6521437387
 31
0.0
  0
LINE
  5
28D
330
1F
100
AcDbEntity
  8
0
  6
Continuous
 62
     7
370
    25
100
AcDbLine
 10
-35.2566498275
 20
457.6521437387
 30
0.0
 11
-38.4566498275
 21
457.6521437387
 31
0.0
  0
LINE
  5
28E
330
1F
100
AcDbEntity
  8
0
  6
Continuous
 62
     7
370
    25
100
AcDbLine
 10
-38.4566498275
 20
476.6521437387
 30
0.0
 11
-37.2566498275
 21
476.6521437387
 31
0.0
  0
LINE
  5
28F
330
1F
100
AcDbEntity
  8
0
  6
Continuous
 62
     7
370
    25
100
AcDbLine
 10
-37.2566498275
 20
476.6521437387
 30
0.0
 11
-37.2566498275
 21
476.8521437387
 31
0.0
  0
LINE
  5
290
330
1F
100
AcDbEntity
  8
0
  6
Continuous
 62
     7
370
    25
100
AcDbLine
 10
862.7433501725
 20
476.8521437387
 30
0.0
 11
862.7433501725
 21
476.6521437387
 31
0.0
  0
LINE
  5
291
330
1F
100
AcDbEntity
  8
0
  6
Continuous
 62
     7
370
    25
100
AcDbLine
 10
512.7433501725
 20
452.2900929311
 30
0.0
 11
512.7433501725
 21
451.3900929311
 31
0.0
  0
LINE
  5
292
330
1F
100
AcDbEntity
  8
0
  6
Continuous
 62
     7
370
    25
100
AcDbLine
 10
312.7433501725
 20
451.3900929311
 30
0.0
 11
312.7433501725
 21
452.2900929311
 31
0.0
  0
LINE
  5
293
330
1F
100
AcDbEntity
  8
0
  6
Continuous
 62
     7
370
    25
100
AcDbLine
 10
217.2433501725
 20
452.2900929311
 30
0.0
 11
217.2433501725
 21
451.3900929311
 31
0.0
  0
LINE
  5
294
330
1F
100
AcDbEntity
  8
0
  6
Continuous
 62
     7
370
    25
100
AcDbLine
 10
17.2433501725
 20
451.3900929311
 30
0.0
 11
17.2433501725
 21
452.2900929311
 31
0.0
  0
LINE
  5
295
330
1F
100
AcDbEntity
  8
0
  6
Continuous
 62
     7
370
    25
100
AcDbLine
 10
808.2433501725
 20
452.2900929311
 30
0.0
 11
808.2433501725
 21
451.3900929311
 31
0.0
  0
LINE
  5
296
330
1F
100
AcDbEntity
  8
0
  6
Continuous
 62
     7
370
    25
100
AcDbLine
 10
608.2433501725
 20
451.3900929311
 30
0.0
 11
608.2433501725
 21
452.2900929311
 31
0.0
  0
LINE
  5
297
330
1F
100
AcDbEntity
  8
0
  6
Continuous
 62
     7
370
    25
100
AcDbLine
 10
863.9433501725
 20
476.6521437387
 30
0.0
 11
864.7433501725
 21
476.6521437387
 31
0.0
  0
LINE
  5
298
330
1F
100
AcDbEntity
  8
0
  6
Continuous
 62
     7
370
    25
100
AcDbLine
 10
865.7433501725
 20
457.6521437387
 30
0.0
 11
865.7433501725
 21
458.2521437387
 31
0.0
  0
LINE
  5
299
330
1F
100
AcDbEntity
  8
0
  6
Continuous
 62
     7
370
    25
100
AcDbLine
 10
865.7433501725
 20
457.6521437387
 30
0.0
 11
863.9433501725
 21
457.6521437387
 31
0.0
  0
LINE
  5
29A
330
1F
100
AcDbEntity
  8
0
  6
Continuous
 62
     7
370
    25
100
AcDbLine
 10
-40.2566498275
 20
457.6521437387
 30
0.0
 11
-40.2566498275
 21
458.2521437387
 31
0.0
  0
LINE
  5
29B
330
1F
100
AcDbEntity
  8
0
  6
Continuous
 62
     7
370
    25
100
AcDbLine
 10
-39.2566498275
 20
476.6521437387
 30
0.0
 11
-38.4566498275
 21
476.6521437387
 31
0.0
  0
LINE
  5
29C
330
1F
100
AcDbEntity
  8
0
  6
Continuous
 62
     7
370
    25
100
AcDbLine
 10
-38.4566498275
 20
457.6521437387
 30
0.0
 11
-40.2566498275
 21
457.6521437387
 31
0.0
  0
LINE
  5
29D
330
1F
100
AcDbEntity
  8
0
  6
Continuous
 62
     7
370
    25
100
AcDbLine
 10
-37.2566498275
 20
476.8521437387
 30
0.0
 11
-37.2566498275
 21
478.6521437387
 31
0.0
  0
LINE
  5
29E
330
1F
100
AcDbEntity
  8
0
  6
Continuous
 62
     7
370
    25
100
AcDbLine
 10
862.7433501725
 20
478.6521437387
 30
0.0
 11
862.7433501725
 21
476.8521437387
 31
0.0
  0
LINE
  5
29F
330
1F
100
AcDbEntity
  8
0
  6
Continuous
 62
     7
370
    25
100
AcDbLine
 10
17.2433501725
 20
451.3900929311
 30
0.0
 11
17.2433501725
 21
444.7652218006
 31
0.0
  0
LINE
  5
2A0
330
1F
100
AcDbEntity
  8
0
  6
Continuous
 62
     7
370
    25
100
AcDbLine
 10
217.2433501725
 20
444.7652218006
 30
0.0
 11
217.2433501725
 21
451.3900929311
 31
0.0
  0
LINE
  5
2A1
330
1F
100
AcDbEntity
  8
0
  6
Continuous
 62
     7
370
    25
100
AcDbLine
 10
312.7433501725
 20
451.3900929311
 30
0.0
 11
312.7433501725
 21
444.7652218006
 31
0.0
  0
LINE
  5
2A2
330
1F
100
AcDbEntity
  8
0
  6
Continuous
 62
     7
370
    25
100
AcDbLine
 10
512.7433501725
 20
444.7652218006
 30
0.0
 11
512.7433501725
 21
451.3900929311
 31
0.0
  0
LINE
  5
2A3
330
1F
100
AcDbEntity
  8
0
  6
Continuous
 62
     7
370
    25
100
AcDbLine
 10
608.2433501725
 20
451.3900929311
 30
0.0
 11
608.2433501725
 21
444.7652218006
 31
0.0
  0
LINE
  5
2A4
330
1F
100
AcDbEntity
  8
0
  6
Continuous
 62
     7
370
    25
100
AcDbLine
 10
808.2433501725
 20
444.7652218006
 30
0.0
 11
808.2433501725
 21
451.3900929311
 31
0.0
  0
LINE
  5
2A5
330
1F
100
AcDbEntity
  8
0
  6
Continuous
 62
     7
370
    25
100
AcDbLine
 10
512.7433501725
 20
444.2652218006
 30
0.0
 11
512.7433501725
 21
444.7652218006
 31
0.0
  0
LINE
  5
2A6
330
1F
100
AcDbEntity
  8
0
  6
Continuous
 62
     7
370
    25
100
AcDbLine
 10
312.7433501725
 20
444.7652218006
 30
0.0
 11
312.7433501725
 21
444.2652218006
 31
0.0
  0
LINE
  5
2A7
330
1F
100
AcDbEntity
  8
0
  6
Continuous
 62
     7
370
    25
100
AcDbLine
 10
808.2433501725
 20
444.2652218006
 30
0.0
 11
808.2433501725
 21
444.7652218006
 31
0.0
  0
LINE
  5
2A8
330
1F
100
AcDbEntity
  8
0
  6
Continuous
 62
     7
370
    25
100
AcDbLine
 10
608.2433501725
 20
444.7652218006
 30
0.0
 11
608.2433501725
 21
444.2652218006
 31
0.0
  0
LINE
  5
2A9
330
1F
100
AcDbEntity
  8
0
  6
Continuous
 62
     7
370
    25
100
AcDbLine
 10
217.2433501725
 20
444.2652218006
 30
0.0
 11
217.2433501725
 21
444.7652218006
 31
0.0
  0
LINE
  5
2AA
330
1F
100
AcDbEntity
  8
0
  6
Continuous
 62
     7
370
    25
100
AcDbLine
 10
17.2433501725
 20
444.7652218006
 30
0.0
 11
17.2433501725
 21
444.2652218006
 31
0.0
  0
ARC
  5
2AB
330
1F
100
AcDbEntity
  8
0
  6
Continuous
 62
     7
370
    25
100
AcDbCircle
 10
611.2433501725
 20
437.7475303469
 30
0.0
 40
3.0
100
AcDbArc
 50
180.0
 51
270.0
  0
LINE
  5
2AC
330
1F
100
AcDbEntity
  8
0
  6
Continuous
 62
     7
370
    25
100
AcDbLine
 10
608.2433501725
 20
437.7475303469
 30
0.0
 11
608.2433501725
 21
444.2652218006
 31
0.0
  0
LINE
  5
2AD
330
1F
100
AcDbEntity
  8
0
  6
Continuous
 62
     7
370
    25
100
AcDbLine
 10
808.2433501725
 20
444.2652218006
 30
0.0
 11
808.2433501725
 21
437.7475303469
 31
0.0
  0
ARC
  5
2AE
330
1F
100
AcDbEntity
  8
0
  6
Continuous
 62
     7
370
    25
100
AcDbCircle
 10
805.2433501725
 20
437.7475303469
 30
0.0
 40
3.0
100
AcDbArc
 50
270.0
 51
0.0
  0
LINE
  5
2AF
330
1F
100
AcDbEntity
  8
0
  6
Continuous
 62
     7
370
    25
100
AcDbLine
 10
805.2433501725
 20
434.7475303469
 30
0.0
 11
611.2433501725
 21
434.7475303469
 31
0.0
  0
ARC
  5
2B0
330
1F
100
AcDbEntity
  8
0
  6
Continuous
 62
     7
370
    25
100
AcDbCircle
 10
315.7433501725
 20
437.7475303469
 30
0.0
 40
3.0
100
AcDbArc
 50
180.0
 51
270.0
  0
LINE
  5
2B1
330
1F
100
AcDbEntity
  8
0
  6
Continuous
 62
     7
370
    25
100
AcDbLine
 10
312.7433501725
 20
437.7475303469
 30
0.0
 11
312.7433501725
 21
444.2652218006
 31
0.0
  0
LINE
  5
2B2
330
1F
100
AcDbEntity
  8
0
  6
Continuous
 62
     7
370
    25
100
AcDbLine
 10
512.7433501725
 20
444.2652218006
 30
0.0
 11
512.7433501725
 21
437.7475303469
 31
0.0
  0
ARC
  5
2B3
330
1F
100
AcDbEntity
  8
0
  6
Continuous
 62
     7
370
    25
100
AcDbCircle
 10
509.7433501725
 20
437.7475303469
 30
0.0
 40
3.000000000000057
100
AcDbArc
 50
270.0
 51
0.0
  0
LINE
  5
2B4
330
1F
100
AcDbEntity
  8
0
  6
Continuous
 62
     7
370
    25
100
AcDbLine
 10
509.7433501725
 20
434.7475303469
 30
0.0
 11
315.7433501725
 21
434.7475303469
 31
0.0
  0
LINE
  5
2B5
330
1F
100
AcDbEntity
  8
0
  6
Continuous
 62
     7
370
    25
100
AcDbLine
 10
17.2433501725
 20
437.7475303469
 30
0.0
 11
17.2433501725
 21
444.2652218006
 31
0.0
  0
LINE
  5
2B6
330
1F
100
AcDbEntity
  8
0
  6
Continuous
 62
     7
370
    25
100
AcDbLine
 10
217.2433501725
 20
444.2652218006
 30
0.0
 11
217.2433501725
 21
437.7475303469
 31
0.0
  0
ARC
  5
2B7
330
1F
100
AcDbEntity
  8
0
  6
Continuous
 62
     7
370
    25
100
AcDbCircle
 10
20.2433501725
 20
437.7475303469
 30
0.0
 40
3.000000000000004
100
AcDbArc
 50
180.0
 51
270.0
  0
ARC
  5
2B8
330
1F
100
AcDbEntity
  8
0
  6
Continuous
 62
     7
370
    25
100
AcDbCircle
 10
214.2433501725
 20
437.7475303469
 30
0.0
 40
3.0
100
AcDbArc
 50
270.0
 51
0.0
  0
LINE
  5
2B9
330
1F
100
AcDbEntity
  8
0
  6
Continuous
 62
     7
370
    25
100
AcDbLine
 10
214.2433501725
 20
434.7475303469
 30
0.0
 11
20.2433501725
 21
434.7475303469
 31
0.0
  0
LINE
  5
2BA
330
1F
100
AcDbEntity
  8
0
  6
Continuous
 62
     7
370
    25
100
AcDbLine
 10
874.4021001725
 20
463.1521437387
 30
0.0
 11
874.4021001725
 21
463.3521437387
 31
0.0
  0
LINE
  5
2BB
330
1F
100
AcDbEntity
  8
0
  6
Continuous
 62
     7
370
    25
100
AcDbLine
 10
874.4021001725
 20
468.9521437387
 30
0.0
 11
874.4021001725
 21
469.1521437387
 31
0.0
  0
LINE
  5
2BC
330
1F
100
AcDbEntity
  8
0
  6
Continuous
 62
     7
370
    25
100
AcDbLine
 10
874.9433501725
 20
467.731547076
 30
0.0
 11
874.9433501725
 21
468.6108937387
 31
0.0
  0
LINE
  5
2BD
330
1F
100
AcDbEntity
  8
0
  6
Continuous
 62
     7
370
    25
100
AcDbLine
 10
874.9433501725
 20
463.6933937387
 30
0.0
 11
874.9433501725
 21
467.731547076
 31
0.0
  0
LINE
  5
2BE
330
1F
100
AcDbEntity
  8
0
  6
Continuous
 62
     7
370
    25
100
AcDbLine
 10
864.2433501725
 20
480.4521437387
 30
0.0
 11
864.2433501725
 21
478.6521437387
 31
0.0
  0
LINE
  5
2BF
330
1F
100
AcDbEntity
  8
0
  6
Continuous
 62
     7
370
    25
100
AcDbLine
 10
864.2433501725
 20
478.6521437387
 30
0.0
 11
-38.7566498275
 21
478.6521437387
 31
0.0
  0
LINE
  5
2C0
330
1F
100
AcDbEntity
  8
0
  6
Continuous
 62
     7
370
    25
100
AcDbLine
 10
-38.7566498275
 20
478.6521437387
 30
0.0
 11
-38.7566498275
 21
480.4521437387
 31
0.0
  0
LINE
  5
2C1
330
1F
100
AcDbEntity
  8
0
  6
Continuous
 62
     7
370
    25
100
AcDbLine
 10
864.2433501725
 20
480.4521437387
 30
0.0
 11
864.7433501725
 21
485.8271437387
 31
0.0
  0
LINE
  5
2C2
330
1F
100
AcDbEntity
  8
0
  6
Continuous
 62
     7
370
    25
100
AcDbLine
 10
-39.2566498275
 20
485.8271437387
 30
0.0
 11
-38.7566498275
 21
480.4521437387
 31
0.0
  0
LINE
  5
2C3
330
1F
100
AcDbEntity
  8
0
  6
Continuous
 62
     7
370
    25
100
AcDbLine
 10
-49.4566498275
 20
463.9348056614
 30
0.0
 11
-49.4566498275
 21
463.6933937387
 31
0.0
  0
LINE
  5
2C4
330
1F
100
AcDbEntity
  8
0
  6
Continuous
 62
     7
370
    25
100
AcDbLine
 10
-49.4566498275
 20
468.6108937387
 30
0.0
 11
-49.4566498275
 21
463.9348056614
 31
0.0
  0
LINE
  5
2C5
330
1F
100
AcDbEntity
  8
0
  6
Continuous
 62
     7
370
    25
100
AcDbLine
 10
-48.9153998275
 20
469.1521437387
 30
0.0
 11
-48.9153998275
 21
468.9521437387
 31
0.0
  0
LINE
  5
2C6
330
1F
100
AcDbEntity
  8
0
  6
Continuous
 62
     7
370
    25
100
AcDbLine
 10
-48.9153998275
 20
463.3521437387
 30
0.0
 11
-48.9153998275
 21
463.1521437387
 31
0.0
  0
SPLINE
  5
2C7
330
1F
100
AcDbEntity
  8
0
  6
Continuous
 62
     7
370
    25
100
AcDbSpline
210
0.0
220
0.0
230
1.0
 70
    24
 71
     3
 72
    15
 73
    11
 74
     0
 42
0.000000001
 43
0.00000001
 40
0.0
 40
0.0
 40
0.0
 40
0.0
 40
0.0346967497918678
 40
0.2211884951269672
 40
0.4076802404620661
 40
0.5080720152630802
 40
0.6105942475634835
 40
0.7131164798638865
 40
0.813508254664901
 40
1.0
 40
1.0
 40
1.0
 40
1.0
 10
-38.25664982752252
 20
460.3788949293113
 30
0.0
 10
-38.25664982752247
 20
460.3721738256799
 30
0.0
 10
-38.25664982752252
 20
460.329327426327
 30
0.0
 10
-38.25664982752247
 20
460.8173683890856
 30
0.0
 10
-38.25664982752275
 20
461.9132794465541
 30
0.0
 10
-38.25664982752247
 20
463.1321765790016
 30
0.0
 10
-38.25664982752264
 20
464.2123518068585
 30
0.0
 10
-38.25664982752242
 20
465.3728287093242
 30
0.0
 10
-38.25664982752252
 20
466.9034036044393
 30
0.0
 10
-38.25664982752264
 20
467.9670294930895
 30
0.0
 10
-38.25664982752252
 20
468.6584510437726
 30
0.0
  0
SPLINE
  5
2C8
330
1F
100
AcDbEntity
  8
0
  6
Continuous
 62
     7
370
    25
100
AcDbSpline
210
0.0
220
0.0
230
1.0
 70
    24
 71
     3
 72
    12
 73
     8
 74
     0
 42
0.000000001
 43
0.00000001
 40
0.0
 40
0.0
 40
0.0
 40
0.0
 40
0.3344405486782643
 40
0.5144757571369878
 40
0.6983315710265388
 40
0.8821873849160881
 40
1.0
 40
1.0
 40
1.0
 40
1.0
 10
-38.25664982752252
 20
468.6584510437726
 30
0.0
 10
-38.25664982752264
 20
469.2825965792744
 30
0.0
 10
-38.25664982752252
 20
470.2427305947519
 30
0.0
 10
-38.25664982752252
 20
471.1506415010472
 30
0.0
 10
-38.25664982752236
 20
471.6563588389634
 30
0.0
 10
-38.25664982752258
 20
471.9279785731016
 30
0.0
 10
-38.25664982752247
 20
471.9261188416419
 30
0.0
 10
-38.25664982752252
 20
471.925392548117
 30
0.0
  0
SPLINE
  5
2C9
330
1F
100
AcDbEntity
  8
0
  6
Continuous
 62
     7
370
    25
100
AcDbSpline
210
0.0
220
0.0
230
1.0
 70
     8
 71
     3
 72
     8
 73
     4
 74
     0
 42
0.000000001
 43
0.00000001
 40
0.0
 40
0.0
 40
0.0
 40
0.0
 40
1.0
 40
1.0
 40
1.0
 40
1.0
 10
-34.25664982752951
 20
465.7687487110276
 30
0.0
 10
-34.25664982752951
 20
466.7511271556004
 30
0.0
 10
-34.43096512790894
 20
467.7066183237901
 30
0.0
 10
-34.70323181492091
 20
468.6470009731177
 30
0.0
  0
SPLINE
  5
2CA
330
1F
100
AcDbEntity
  8
0
  6
Continuous
 62
     7
370
    25
100
AcDbSpline
210
0.0
220
0.0
230
1.0
 70
     8
 71
     3
 72
     8
 73
     4
 74
     0
 42
0.000000001
 43
0.00000001
 40
0.0
 40
0.0
 40
0.0
 40
0.0
 40
1.0
 40
1.0
 40
1.0
 40
1.0
 10
-34.70323181492091
 20
462.8904964489377
 30
0.0
 10
-34.4309651279095
 20
463.8308790982634
 30
0.0
 10
-34.25664982752951
 20
464.7863702664567
 30
0.0
 10
-34.25664982752951
 20
465.7687487110276
 30
0.0
  0
LINE
  5
2CB
330
1F
100
AcDbEntity
  8
0
  6
Continuous
 62
     7
370
    25
100
AcDbLine
 10
-38.2566498275
 20
462.8904964489
 30
0.0
 11
-34.7032318149
 21
462.8904964489
 31
0.0
  0
LINE
  5
2CC
330
1F
100
AcDbEntity
  8
0
  6
Continuous
 62
     7
370
    25
100
AcDbLine
 10
-38.2566498275
 20
468.6470009731
 30
0.0
 11
-34.7032318149
 21
468.6470009731
 31
0.0
  0
LINE
  5
2CD
330
1F
100
AcDbEntity
  8
0
  6
Continuous
 62
     7
370
    25
100
AcDbLine
 10
-34.2566498275
 20
465.768748711
 30
0.0
 11
-34.2566498275
 21
470.277824618
 31
0.0
  0
SPLINE
  5
2CE
330
1F
100
AcDbEntity
  8
0
  6
Continuous
 62
     7
370
    25
100
AcDbSpline
210
0.0
220
0.0
230
1.0
 70
     8
 71
     3
 72
     8
 73
     4
 74
     0
 42
0.000000001
 43
0.00000001
 40
0.0
 40
0.0
 40
0.0
 40
0.0
 40
1.0
 40
1.0
 40
1.0
 40
1.0
 10
-34.70323181492097
 20
468.6470009731239
 30
0.0
 10
-34.43096512790955
 20
469.1798237141887
 30
0.0
 10
-34.25664982752963
 20
469.7212069730833
 30
0.0
 10
-34.25664982752963
 20
470.2778246180117
 30
0.0
  0
LINE
  5
2CF
330
1F
100
AcDbEntity
  8
0
  6
Continuous
 62
     7
370
    25
100
AcDbLine
 10
-34.2566498275
 20
461.6430678317
 30
0.0
 11
-34.2566498275
 21
465.768748711
 31
0.0
  0
SPLINE
  5
2D0
330
1F
100
AcDbEntity
  8
0
  6
Continuous
 62
     7
370
    25
100
AcDbSpline
210
0.0
220
0.0
230
1.0
 70
     8
 71
     3
 72
     8
 73
     4
 74
     0
 42
0.000000001
 43
0.00000001
 40
0.0
 40
0.0
 40
0.0
 40
0.0
 40
1.0
 40
1.0
 40
1.0
 40
1.0
 10
-34.25664982752974
 20
461.6430678317301
 30
0.0
 10
-34.25664982752974
 20
462.0688286313733
 30
0.0
 10
-34.4309651279091
 20
462.4829365406704
 30
0.0
 10
-34.70323181492097
 20
462.890496448932
 30
0.0
  0
SPLINE
  5
2D1
330
1F
100
AcDbEntity
  8
0
  6
Continuous
 62
     7
370
    25
100
AcDbSpline
210
0.0
220
0.0
230
1.0
 70
     8
 71
     3
 72
     8
 73
     4
 74
     0
 42
0.000000001
 43
0.00000001
 40
0.0
 40
0.0
 40
0.0
 40
0.0
 40
1.0
 40
1.0
 40
1.0
 40
1.0
 10
-34.25664982752963
 20
470.2778246180117
 30
0.0
 10
-34.25664982752963
 20
470.8344422629415
 30
0.0
 10
-34.43096512790888
 20
471.3758255218335
 30
0.0
 10
-34.70323181492097
 20
471.9086482628996
 30
0.0
  0
LINE
  5
2D2
330
1F
100
AcDbEntity
  8
0
  6
Continuous
 62
     7
370
    25
100
AcDbLine
 10
-34.7032318149
 20
471.9086482629
 30
0.0
 11
-38.2566498275
 21
471.9086482629
 31
0.0
  0
SPLINE
  5
2D3
330
1F
100
AcDbEntity
  8
0
  6
Continuous
 62
     7
370
    25
100
AcDbSpline
210
0.0
220
0.0
230
1.0
 70
     8
 71
     3
 72
     8
 73
     4
 74
     0
 42
0.000000001
 43
0.00000001
 40
0.0
 40
0.0
 40
0.0
 40
0.0
 40
1.0
 40
1.0
 40
1.0
 40
1.0
 10
-34.70323181492102
 20
460.3956392145281
 30
0.0
 10
-34.43096512790961
 20
460.8031991227891
 30
0.0
 10
-34.25664982752974
 20
461.2173070320876
 30
0.0
 10
-34.25664982752974
 20
461.6430678317301
 30
0.0
  0
LINE
  5
2D4
330
1F
100
AcDbEntity
  8
0
  6
Continuous
 62
     7
370
    25
100
AcDbLine
 10
-38.2566498275
 20
460.3956392145
 30
0.0
 11
-34.7032318149
 21
460.3956392145
 31
0.0
  0
LINE
  5
2D5
330
1F
100
AcDbEntity
  8
0
  6
Continuous
 62
     7
370
    25
100
AcDbLine
 10
-49.2566498275
 20
463.9348056614
 30
0.0
 11
-49.2566498275
 21
463.6933937387
 31
0.0
  0
LINE
  5
2D6
330
1F
100
AcDbEntity
  8
0
  6
Continuous
 62
     7
370
    25
100
AcDbLine
 10
-49.2566498275
 20
468.6108937387
 30
0.0
 11
-49.2566498275
 21
463.9348056614
 31
0.0
  0
LINE
  5
2D7
330
1F
100
AcDbEntity
  8
0
  6
Continuous
 62
     7
370
    25
100
AcDbLine
 10
-48.7153998275
 20
469.1521437387
 30
0.0
 11
-48.7153998275
 21
463.1521437387
 31
0.0
  0
LINE
  5
2D8
330
1F
100
AcDbEntity
  8
0
  6
Continuous
 62
     7
370
    25
100
AcDbLine
 10
-34.7032318149
 20
471.9086482629
 30
0.0
 11
-34.6280440594
 21
471.6986277951
 31
0.0
  0
LINE
  5
2D9
330
1F
100
AcDbEntity
  8
0
  6
Continuous
 62
     7
370
    25
100
AcDbLine
 10
-34.2566498275
 20
470.277824618
 30
0.0
 11
-34.2566498275
 21
471.1521437387
 31
0.0
  0
LINE
  5
2DA
330
1F
100
AcDbEntity
  8
0
  6
Continuous
 62
     7
370
    25
100
AcDbLine
 10
-34.2566498275
 20
461.1521437387
 30
0.0
 11
-34.2566498275
 21
461.6430678317
 31
0.0
  0
LINE
  5
2DB
330
1F
100
AcDbEntity
  8
0
  6
Continuous
 62
     7
370
    25
100
AcDbLine
 10
-41.3087706875
 20
458.2521437387
 30
0.0
 11
-39.4375719652
 21
458.2521437387
 31
0.0
  0
LWPOLYLINE
  5
2DC
330
1F
100
AcDbEntity
  8
0
  6
Continuous
 62
     7
370
    25
100
AcDbPolyline
 90
        9
 70
   128
 43
0.0
 10
-41.9928109741
 20
460.2521437387
 10
-41.9796673318
 20
459.8619630947
 10
-41.9407415077
 20
459.486776874
 10
-41.8775293994
 20
459.1410032727
 10
-41.7924602128
 20
458.8379301763
 10
-41.6888031089
 20
458.5892045141
 10
-41.5705415722
 20
458.4043846737
 10
-41.4422203273
 20
458.2905731779
 10
-41.3087706875
 20
458.2521437387
  0
LINE
  5
2DD
330
1F
100
AcDbEntity
  8
0
  6
Continuous
 62
     7
370
    25
100
AcDbLine
 10
-41.9928109741
 20
472.2521437387
 30
0.0
 11
-41.9928109741
 21
460.2521437387
 31
0.0
  0
LWPOLYLINE
  5
2DE
330
1F
100
AcDbEntity
  8
0
  6
Continuous
 62
     7
370
    25
100
AcDbPolyline
 90
        9
 70
   128
 43
0.0
 10
-41.3087706875
 20
474.2521437387
 10
-41.4422203273
 20
474.2137142995
 10
-41.5705415722
 20
474.0999028037
 10
-41.6888031089
 20
473.9150829633
 10
-41.7924602128
 20
473.6663573011
 10
-41.8775293994
 20
473.3632842048
 10
-41.9407415077
 20
473.0175106034
 10
-41.9796673318
 20
472.6423243827
 10
-41.9928109741
 20
472.2521437387
  0
LINE
  5
2DF
330
1F
100
AcDbEntity
  8
0
  6
Continuous
 62
     7
370
    25
100
AcDbLine
 10
-39.4375719652
 20
474.2521437387
 30
0.0
 11
-41.3087706875
 21
474.2521437387
 31
0.0
  0
LINE
  5
2E0
330
1F
100
AcDbEntity
  8
0
  6
Continuous
 62
     7
370
    25
100
AcDbLine
 10
-41.3087706875
 20
458.2521437387
 30
0.0
 11
-43.188155929
 21
458.2521437387
 31
0.0
  0
LWPOLYLINE
  5
2E1
330
1F
100
AcDbEntity
  8
0
  6
Continuous
 62
     7
370
    25
100
AcDbPolyline
 90
        9
 70
   128
 43
0.0
 10
-43.188155929
 20
458.2521437387
 10
-43.3216055688
 20
458.2905731779
 10
-43.4499268138
 20
458.4043846737
 10
-43.5681883505
 20
458.5892045141
 10
-43.6718454543
 20
458.8379301763
 10
-43.756914641
 20
459.1410032727
 10
-43.8201267493
 20
459.486776874
 10
-43.8590525734
 20
459.8619630947
 10
-43.8721962157
 20
460.2521437387
  0
LINE
  5
2E2
330
1F
100
AcDbEntity
  8
0
  6
Continuous
 62
     7
370
    25
100
AcDbLine
 10
-43.8721962157
 20
472.2521437387
 30
0.0
 11
-43.8721962157
 21
460.2521437387
 31
0.0
  0
LWPOLYLINE
  5
2E3
330
1F
100
AcDbEntity
  8
0
  6
Continuous
 62
     7
370
    25
100
AcDbPolyline
 90
        9
 70
   128
 43
0.0
 10
-43.8721962157
 20
472.2521437387
 10
-43.8590525734
 20
472.6423243827
 10
-43.8201267493
 20
473.0175106034
 10
-43.756914641
 20
473.3632842048
 10
-43.6718454543
 20
473.6663573011
 10
-43.5681883505
 20
473.9150829633
 10
-43.4499268138
 20
474.0999028037
 10
-43.3216055688
 20
474.2137142995
 10
-43.188155929
 20
474.2521437387
  0
LINE
  5
2E4
330
1F
100
AcDbEntity
  8
0
  6
Continuous
 62
     7
370
    25
100
AcDbLine
 10
-43.188155929
 20
474.2521437387
 30
0.0
 11
-41.3087706875
 21
474.2521437387
 31
0.0
  0
LINE
  5
2E5
330
1F
100
AcDbEntity
  8
0
  6
Continuous
 62
     7
370
    25
100
AcDbLine
 10
-39.4375719652
 20
474.2521437387
 30
0.0
 11
-39.2618361779
 21
474.2521437387
 31
0.0
  0
LINE
  5
2E6
330
1F
100
AcDbEntity
  8
0
  6
Continuous
 62
     7
370
    25
100
AcDbLine
 10
-39.2566498275
 20
474.2521437387
 30
0.0
 11
-39.2566498275
 21
458.2521437387
 31
0.0
  0
LINE
  5
2E7
330
1F
100
AcDbEntity
  8
0
  6
Continuous
 62
     7
370
    25
100
AcDbLine
 10
-39.2566498275
 20
458.2521437387
 30
0.0
 11
-39.4375719652
 21
458.2521437387
 31
0.0
  0
LINE
  5
2E8
330
1F
100
AcDbEntity
  8
0
  6
Continuous
 62
     7
370
    25
100
AcDbLine
 10
-39.2618361779
 20
474.2521437387
 30
0.0
 11
-39.2566498275
 21
474.2521437387
 31
0.0
  0
LINE
  5
2E9
330
1F
100
AcDbEntity
  8
0
  6
Continuous
 62
     7
370
    25
100
AcDbLine
 10
-39.2566498275
 20
474.2521437387
 30
0.0
 11
-39.2566498275
 21
489.2521437387
 31
0.0
  0
LINE
  5
2EA
330
1F
100
AcDbEntity
  8
0
  6
Continuous
 62
     7
370
    25
100
AcDbLine
 10
-41.2566498275
 20
474.2521437387
 30
0.0
 11
-41.2566498275
 21
489.2521437387
 31
0.0
  0
LINE
  5
2EB
330
1F
100
AcDbEntity
  8
0
  6
Continuous
 62
     7
370
    25
100
AcDbLine
 10
-41.2549826976
 20
489.3521437387
 30
0.0
 11
-41.2566498275
 21
489.2521437387
 31
0.0
  0
LINE
  5
2EC
330
1F
100
AcDbEntity
  8
0
  6
Continuous
 62
     7
370
    25
100
AcDbLine
 10
-39.2516372646
 20
489.3521437387
 30
0.0
 11
-39.2566498275
 21
489.2521437387
 31
0.0
  0
LWPOLYLINE
  5
2ED
330
1F
100
AcDbEntity
  8
0
  6
Continuous
 62
     7
370
    25
100
AcDbPolyline
 90
        9
 70
   128
 43
0.0
 10
869.3588965607
 20
460.2521437387
 10
869.3457529184
 20
459.8619630947
 10
869.3068270943
 20
459.486776874
 10
869.2436149859
 20
459.1410032727
 10
869.1585457993
 20
458.8379301763
 10
869.0548886955
 20
458.5892045141
 10
868.9366271588
 20
458.4043846737
 10
868.8083059138
 20
458.2905731779
 10
868.674856274
 20
458.2521437387
  0
LINE
  5
2EE
330
1F
100
AcDbEntity
  8
0
  6
Continuous
 62
     7
370
    25
100
AcDbLine
 10
868.674856274
 20
458.2521437387
 30
0.0
 11
866.7954710324
 21
458.2521437387
 31
0.0
  0
LWPOLYLINE
  5
2EF
330
1F
100
AcDbEntity
  8
0
  6
Continuous
 62
     7
370
    25
100
AcDbPolyline
 90
        9
 70
   128
 43
0.0
 10
866.7954710324
 20
458.2521437387
 10
866.9289206722
 20
458.2905731779
 10
867.0572419172
 20
458.4043846737
 10
867.1755034539
 20
458.5892045141
 10
867.2791605577
 20
458.8379301763
 10
867.3642297444
 20
459.1410032727
 10
867.4274418527
 20
459.486776874
 10
867.4663676768
 20
459.8619630947
 10
867.4795113191
 20
460.2521437387
  0
LINE
  5
2F0
330
1F
100
AcDbEntity
  8
0
  6
Continuous
 62
     7
370
    25
100
AcDbLine
 10
864.9242723101
 20
458.2521437387
 30
0.0
 11
866.7954710324
 21
458.2521437387
 31
0.0
  0
LINE
  5
2F1
330
1F
100
AcDbEntity
  8
0
  6
Continuous
 62
     7
370
    25
100
AcDbLine
 10
866.7954710324
 20
474.2521437387
 30
0.0
 11
864.9242723101
 21
474.2521437387
 31
0.0
  0
LWPOLYLINE
  5
2F2
330
1F
100
AcDbEntity
  8
0
  6
Continuous
 62
     7
370
    25
100
AcDbPolyline
 90
        9
 70
   128
 43
0.0
 10
867.4795113191
 20
472.2521437387
 10
867.4663676768
 20
472.6423243827
 10
867.4274418527
 20
473.0175106034
 10
867.3642297444
 20
473.3632842048
 10
867.2791605577
 20
473.6663573011
 10
867.1755034539
 20
473.9150829633
 10
867.0572419172
 20
474.0999028037
 10
866.9289206722
 20
474.2137142995
 10
866.7954710324
 20
474.2521437387
  0
LINE
  5
2F3
330
1F
100
AcDbEntity
  8
0
  6
Continuous
 62
     7
370
    25
100
AcDbLine
 10
867.4795113191
 20
460.2521437387
 30
0.0
 11
867.4795113191
 21
472.2521437387
 31
0.0
  0
LINE
  5
2F4
330
1F
100
AcDbEntity
  8
0
  6
Continuous
 62
     7
370
    25
100
AcDbLine
 10
869.3588965607
 20
460.2521437387
 30
0.0
 11
869.3588965607
 21
472.2521437387
 31
0.0
  0
LINE
  5
2F5
330
1F
100
AcDbEntity
  8
0
  6
Continuous
 62
     7
370
    25
100
AcDbLine
 10
866.7954710324
 20
474.2521437387
 30
0.0
 11
868.674856274
 21
474.2521437387
 31
0.0
  0
LWPOLYLINE
  5
2F6
330
1F
100
AcDbEntity
  8
0
  6
Continuous
 62
     7
370
    25
100
AcDbPolyline
 90
        9
 70
   128
 43
0.0
 10
868.674856274
 20
474.2521437387
 10
868.8083059138
 20
474.2137142995
 10
868.9366271588
 20
474.0999028037
 10
869.0548886955
 20
473.9150829633
 10
869.1585457993
 20
473.6663573011
 10
869.2436149859
 20
473.3632842048
 10
869.3068270943
 20
473.0175106034
 10
869.3457529184
 20
472.6423243827
 10
869.3588965607
 20
472.2521437387
  0
LINE
  5
2F7
330
1F
100
AcDbEntity
  8
0
  6
Continuous
 62
     7
370
    25
100
AcDbLine
 10
864.7485365229
 20
474.2521437387
 30
0.0
 11
864.9242723101
 21
474.2521437387
 31
0.0
  0
LINE
  5
2F8
330
1F
100
AcDbEntity
  8
0
  6
Continuous
 62
     7
370
    25
100
AcDbLine
 10
864.7433501725
 20
458.2521437387
 30
0.0
 11
864.7433501725
 21
474.2521437387
 31
0.0
  0
LINE
  5
2F9
330
1F
100
AcDbEntity
  8
0
  6
Continuous
 62
     7
370
    25
100
AcDbLine
 10
864.9242723101
 20
458.2521437387
 30
0.0
 11
864.7433501725
 21
458.2521437387
 31
0.0
  0
LINE
  5
2FA
330
1F
100
AcDbEntity
  8
0
  6
Continuous
 62
     7
370
    25
100
AcDbLine
 10
864.7485365229
 20
474.2521437387
 30
0.0
 11
864.7433501725
 21
474.2521437387
 31
0.0
  0
LINE
  5
2FB
330
1F
100
AcDbEntity
  8
0
  6
Continuous
 62
     7
370
    25
100
AcDbLine
 10
864.7433501725
 20
489.2521437387
 30
0.0
 11
864.7433501725
 21
474.2521437387
 31
0.0
  0
LINE
  5
2FC
330
1F
100
AcDbEntity
  8
0
  6
Continuous
 62
     7
370
    25
100
AcDbLine
 10
866.7433501725
 20
489.2521437387
 30
0.0
 11
866.7433501725
 21
474.2521437387
 31
0.0
  0
LINE
  5
2FD
330
1F
100
AcDbEntity
  8
0
  6
Continuous
 62
     7
370
    25
100
AcDbLine
 10
866.7433501725
 20
489.2521437387
 30
0.0
 11
866.7416830426
 21
489.3521437387
 31
0.0
  0
LINE
  5
2FE
330
1F
100
AcDbEntity
  8
0
  6
Continuous
 62
     7
370
    25
100
AcDbLine
 10
864.7433501725
 20
489.2521437387
 30
0.0
 11
864.7383376096
 21
489.3521437387
 31
0.0
  0
LINE
  5
2FF
330
1F
100
AcDbEntity
  8
0
  6
Continuous
 62
     7
370
    25
100
AcDbLine
 10
849.4933501725
 20
484.2521437387
 30
0.0
 11
849.4933501725
 21
484.7521437387
 31
0.0
  0
LINE
  5
300
330
1F
100
AcDbEntity
  8
0
  6
Continuous
 62
     7
370
    25
100
AcDbLine
 10
858.9933501725
 20
484.2521437387
 30
0.0
 11
849.4933501725
 21
484.2521437387
 31
0.0
  0
LINE
  5
301
330
1F
100
AcDbEntity
  8
0
  6
Continuous
 62
     7
370
    25
100
AcDbLine
 10
858.9933501725
 20
484.7521437387
 30
0.0
 11
858.9933501725
 21
484.2521437387
 31
0.0
  0
ARC
  5
302
330
1F
100
AcDbEntity
  8
0
  6
Continuous
 62
     7
370
    25
100
AcDbCircle
 10
848.7299501725
 20
485.4887437387
 30
0.0
 40
1.23660000000001
100
AcDbArc
 50
216.5600911004
 51
270.0
  0
LINE
  5
303
330
1F
100
AcDbEntity
  8
0
  6
Continuous
 62
     7
370
    25
100
AcDbLine
 10
859.7567501725
 20
484.2521437387
 30
0.0
 11
858.9933501725
 21
484.2521437387
 31
0.0
  0
ARC
  5
304
330
1F
100
AcDbEntity
  8
0
  6
Continuous
 62
     7
370
    25
100
AcDbCircle
 10
859.7567501725
 20
485.4887437387
 30
0.0
 40
1.236599999999999
100
AcDbArc
 50
270.0
 51
323.4399088996
  0
LINE
  5
305
330
1F
100
AcDbEntity
  8
0
  6
Continuous
 62
     7
370
    25
100
AcDbLine
 10
849.4933501725
 20
484.2521437387
 30
0.0
 11
848.7299501725
 21
484.2521437387
 31
0.0
  0
ARC
  5
306
330
1F
100
AcDbEntity
  8
0
  6
Continuous
 62
     7
370
    25
100
AcDbCircle
 10
-47.7566498275
 20
495.3521437387
 30
0.0
 40
6.000000000000017
100
AcDbArc
 50
216.8698976459
 51
270.0
  0
ARC
  5
307
330
1F
100
AcDbEntity
  8
0
  6
Continuous
 62
     7
370
    25
100
AcDbCircle
 10
873.2433501725
 20
495.3521437387
 30
0.0
 40
6.000000000000035
100
AcDbArc
 50
270.0
 51
323.1301023541
  0
ARC
  5
308
330
1F
100
AcDbEntity
  8
0
  6
Continuous
 62
     7
370
    25
100
AcDbCircle
 10
864.4433501725
 20
83.8722758703
 30
0.0
 40
0.5
100
AcDbArc
 50
180.0
 51
0.0
  0
ARC
  5
309
330
1F
100
AcDbEntity
  8
0
  6
Continuous
 62
     7
370
    25
100
AcDbCircle
 10
864.4433501725
 20
95.4722758705
 30
0.0
 40
0.5
100
AcDbArc
 50
360.0
 51
180.0
  0
LINE
  5
30A
330
1F
100
AcDbEntity
  8
0
  6
Continuous
 62
     7
370
    25
100
AcDbLine
 10
874.4021001725
 20
86.6722758704
 30
0.0
 11
874.9433501725
 21
87.2135258704
 31
0.0
  0
LINE
  5
30B
330
1F
100
AcDbEntity
  8
0
  6
Continuous
 62
     7
370
    25
100
AcDbLine
 10
874.9433501725
 20
92.1310258704
 30
0.0
 11
874.4021001725
 21
92.6722758704
 31
0.0
  0
LINE
  5
30C
330
1F
100
AcDbEntity
  8
0
  6
Continuous
 62
     7
370
    25
100
AcDbLine
 10
874.4021001725
 20
92.6722758704
 30
0.0
 11
865.7433501725
 21
92.6722758704
 31
0.0
  0
LINE
  5
30D
330
1F
100
AcDbEntity
  8
0
  6
Continuous
 62
     7
370
    25
100
AcDbLine
 10
865.7433501725
 20
86.6722758704
 30
0.0
 11
874.4021001725
 21
86.6722758704
 31
0.0
  0
LINE
  5
30E
330
1F
100
AcDbEntity
  8
0
  6
Continuous
 62
     7
370
    25
100
AcDbLine
 10
847.7885647581
 20
81.0440986231
 30
0.0
 11
847.3933501725
 21
81.2722758704
 31
0.0
  0
LINE
  5
30F
330
1F
100
AcDbEntity
  8
0
  6
Continuous
 62
     7
370
    25
100
AcDbLine
 10
841.0933501725
 20
81.2722758704
 30
0.0
 11
840.6628118775
 21
81.02370447
 31
0.0
  0
LINE
  5
310
330
1F
100
AcDbEntity
  8
0
  6
Continuous
 62
     7
370
    25
100
AcDbLine
 10
840.6628118775
 20
78.3208472709
 30
0.0
 11
841.0933501725
 21
78.0722758704
 31
0.0
  0
LINE
  5
311
330
1F
100
AcDbEntity
  8
0
  6
Continuous
 62
     7
370
    25
100
AcDbLine
 10
847.3933501725
 20
78.0722758704
 30
0.0
 11
847.7885647581
 21
78.3004531178
 31
0.0
  0
LINE
  5
312
330
1F
100
AcDbEntity
  8
0
  6
Continuous
 62
     7
370
    25
100
AcDbLine
 10
264.7885647581
 20
81.0440986231
 30
0.0
 11
264.3933501725
 21
81.2722758704
 31
0.0
  0
LINE
  5
313
330
1F
100
AcDbEntity
  8
0
  6
Continuous
 62
     7
370
    25
100
AcDbLine
 10
258.0933501725
 20
81.2722758704
 30
0.0
 11
257.6628118775
 21
81.02370447
 31
0.0
  0
LINE
  5
314
330
1F
100
AcDbEntity
  8
0
  6
Continuous
 62
     7
370
    25
100
AcDbLine
 10
257.6628118775
 20
78.3208472709
 30
0.0
 11
258.0933501725
 21
78.0722758704
 31
0.0
  0
LINE
  5
315
330
1F
100
AcDbEntity
  8
0
  6
Continuous
 62
     7
370
    25
100
AcDbLine
 10
264.3933501725
 20
78.0722758704
 30
0.0
 11
264.7885647581
 21
78.3004531178
 31
0.0
  0
LINE
  5
316
330
1F
100
AcDbEntity
  8
0
  6
Continuous
 62
     7
370
    25
100
AcDbLine
 10
567.7885647581
 20
81.0440986231
 30
0.0
 11
567.3933501725
 21
81.2722758704
 31
0.0
  0
LINE
  5
317
330
1F
100
AcDbEntity
  8
0
  6
Continuous
 62
     7
370
    25
100
AcDbLine
 10
561.0933501725
 20
81.2722758704
 30
0.0
 11
560.6628118775
 21
81.02370447
 31
0.0
  0
LINE
  5
318
330
1F
100
AcDbEntity
  8
0
  6
Continuous
 62
     7
370
    25
100
AcDbLine
 10
560.6628118775
 20
78.3208472709
 30
0.0
 11
561.0933501725
 21
78.0722758704
 31
0.0
  0
LINE
  5
319
330
1F
100
AcDbEntity
  8
0
  6
Continuous
 62
     7
370
    25
100
AcDbLine
 10
567.3933501725
 20
78.0722758704
 30
0.0
 11
567.7885647581
 21
78.3004531178
 31
0.0
  0
LINE
  5
31A
330
1F
100
AcDbEntity
  8
0
  6
Continuous
 62
     7
370
    25
100
AcDbLine
 10
-15.2114352419
 20
81.0440986231
 30
0.0
 11
-15.6066498275
 21
81.2722758704
 31
0.0
  0
LINE
  5
31B
330
1F
100
AcDbEntity
  8
0
  6
Continuous
 62
     7
370
    25
100
AcDbLine
 10
-21.9066498275
 20
81.2722758704
 30
0.0
 11
-22.3371881225
 21
81.02370447
 31
0.0
  0
LINE
  5
31C
330
1F
100
AcDbEntity
  8
0
  6
Continuous
 62
     7
370
    25
100
AcDbLine
 10
-22.3371881225
 20
78.3208472709
 30
0.0
 11
-21.9066498275
 21
78.0722758704
 31
0.0
  0
LINE
  5
31D
330
1F
100
AcDbEntity
  8
0
  6
Continuous
 62
     7
370
    25
100
AcDbLine
 10
-15.6066498275
 20
78.0722758704
 30
0.0
 11
-15.2114352419
 21
78.3004531178
 31
0.0
  0
LINE
  5
31E
330
1F
100
AcDbEntity
  8
0
  6
Continuous
 62
     7
370
    25
100
AcDbLine
 10
-39.7566498275
 20
64.6222758704
 30
0.0
 11
865.2433501725
 21
64.6222758704
 31
0.0
  0
LINE
  5
31F
330
1F
100
AcDbEntity
  8
0
  6
Continuous
 62
     7
370
    25
100
AcDbLine
 10
842.2433501725
 20
86.3722758704
 30
0.0
 11
842.2433501725
 21
81.2722758704
 31
0.0
  0
LINE
  5
320
330
1F
100
AcDbEntity
  8
0
  6
Continuous
 62
     7
370
    25
100
AcDbLine
 10
842.2433501725
 20
78.0722758704
 30
0.0
 11
842.2433501725
 21
77.9722758704
 31
0.0
  0
LINE
  5
321
330
1F
100
AcDbEntity
  8
0
  6
Continuous
 62
     7
370
    25
100
AcDbLine
 10
846.2433501725
 20
77.9722758704
 30
0.0
 11
846.2433501725
 21
78.0722758704
 31
0.0
  0
LINE
  5
322
330
1F
100
AcDbEntity
  8
0
  6
Continuous
 62
     7
370
    25
100
AcDbLine
 10
846.2433501725
 20
81.2722758704
 30
0.0
 11
846.2433501725
 21
86.3722758704
 31
0.0
  0
LINE
  5
323
330
1F
100
AcDbEntity
  8
0
  6
Continuous
 62
     7
370
    25
100
AcDbLine
 10
259.2433501725
 20
86.3722758704
 30
0.0
 11
259.2433501725
 21
81.2722758704
 31
0.0
  0
LINE
  5
324
330
1F
100
AcDbEntity
  8
0
  6
Continuous
 62
     7
370
    25
100
AcDbLine
 10
259.2433501725
 20
78.0722758704
 30
0.0
 11
259.2433501725
 21
77.9722758704
 31
0.0
  0
LINE
  5
325
330
1F
100
AcDbEntity
  8
0
  6
Continuous
 62
     7
370
    25
100
AcDbLine
 10
263.2433501725
 20
77.9722758704
 30
0.0
 11
263.2433501725
 21
78.0722758704
 31
0.0
  0
LINE
  5
326
330
1F
100
AcDbEntity
  8
0
  6
Continuous
 62
     7
370
    25
100
AcDbLine
 10
263.2433501725
 20
81.2722758704
 30
0.0
 11
263.2433501725
 21
86.3722758704
 31
0.0
  0
LINE
  5
327
330
1F
100
AcDbEntity
  8
0
  6
Continuous
 62
     7
370
    25
100
AcDbLine
 10
562.2433501725
 20
86.3722758704
 30
0.0
 11
562.2433501725
 21
81.2722758704
 31
0.0
  0
LINE
  5
328
330
1F
100
AcDbEntity
  8
0
  6
Continuous
 62
     7
370
    25
100
AcDbLine
 10
562.2433501725
 20
78.0722758704
 30
0.0
 11
562.2433501725
 21
77.9722758704
 31
0.0
  0
LINE
  5
329
330
1F
100
AcDbEntity
  8
0
  6
Continuous
 62
     7
370
    25
100
AcDbLine
 10
566.2433501725
 20
77.9722758704
 30
0.0
 11
566.2433501725
 21
78.0722758704
 31
0.0
  0
LINE
  5
32A
330
1F
100
AcDbEntity
  8
0
  6
Continuous
 62
     7
370
    25
100
AcDbLine
 10
566.2433501725
 20
81.2722758704
 30
0.0
 11
566.2433501725
 21
86.3722758704
 31
0.0
  0
LINE
  5
32B
330
1F
100
AcDbEntity
  8
0
  6
Continuous
 62
     7
370
    25
100
AcDbLine
 10
-20.7566498275
 20
86.3722758704
 30
0.0
 11
-20.7566498275
 21
81.2722758704
 31
0.0
  0
LINE
  5
32C
330
1F
100
AcDbEntity
  8
0
  6
Continuous
 62
     7
370
    25
100
AcDbLine
 10
-20.7566498275
 20
78.0722758704
 30
0.0
 11
-20.7566498275
 21
77.9722758704
 31
0.0
  0
LINE
  5
32D
330
1F
100
AcDbEntity
  8
0
  6
Continuous
 62
     7
370
    25
100
AcDbLine
 10
-16.7566498275
 20
77.9722758704
 30
0.0
 11
-16.7566498275
 21
78.0722758704
 31
0.0
  0
LINE
  5
32E
330
1F
100
AcDbEntity
  8
0
  6
Continuous
 62
     7
370
    25
100
AcDbLine
 10
-16.7566498275
 20
81.2722758704
 30
0.0
 11
-16.7566498275
 21
86.3722758704
 31
0.0
  0
ARC
  5
32F
330
1F
100
AcDbEntity
  8
0
  6
Continuous
 62
     7
370
    25
100
AcDbCircle
 10
-38.9566498275
 20
95.4722758705
 30
0.0
 40
0.5
100
AcDbArc
 50
0.0
 51
180.0
  0
ARC
  5
330
330
1F
100
AcDbEntity
  8
0
  6
Continuous
 62
     7
370
    25
100
AcDbCircle
 10
-38.9566498275
 20
83.8722758703
 30
0.0
 40
0.5
100
AcDbArc
 50
180.0
 51
0.0
  0
LINE
  5
331
330
1F
100
AcDbEntity
  8
0
  6
Continuous
 62
     7
370
    25
100
AcDbLine
 10
-48.9153998275
 20
86.6722758704
 30
0.0
 11
-40.2566498275
 21
86.6722758704
 31
0.0
  0
LINE
  5
332
330
1F
100
AcDbEntity
  8
0
  6
Continuous
 62
     7
370
    25
100
AcDbLine
 10
-40.2566498275
 20
92.6722758704
 30
0.0
 11
-48.9153998275
 21
92.6722758704
 31
0.0
  0
LINE
  5
333
330
1F
100
AcDbEntity
  8
0
  6
Continuous
 62
     7
370
    25
100
AcDbLine
 10
-48.9153998275
 20
92.6722758704
 30
0.0
 11
-49.4566498275
 21
92.1310258704
 31
0.0
  0
LINE
  5
334
330
1F
100
AcDbEntity
  8
0
  6
Continuous
 62
     7
370
    25
100
AcDbLine
 10
-49.4566498275
 20
87.2135258704
 30
0.0
 11
-48.9153998275
 21
86.6722758704
 31
0.0
  0
LINE
  5
335
330
1F
100
AcDbEntity
  8
0
  6
Continuous
 62
     7
370
    25
100
AcDbLine
 10
-34.4566498275
 20
94.6722758704
 30
0.0
 11
-34.7861329233
 21
95.2429573325
 31
0.0
  0
LINE
  5
336
330
1F
100
AcDbEntity
  8
0
  6
Continuous
 62
     7
370
    25
100
AcDbLine
 10
-34.7861329233
 20
84.1015944083
 30
0.0
 11
-34.4566498275
 21
84.6722758704
 31
0.0
  0
LINE
  5
337
330
1F
100
AcDbEntity
  8
0
  6
Continuous
 62
     7
370
    25
100
AcDbLine
 10
867.2433501725
 20
66.4722758704
 30
0.0
 11
865.0712571492
 21
66.4722758704
 31
0.0
  0
LINE
  5
338
330
1F
100
AcDbEntity
  8
0
  6
Continuous
 62
     7
370
    25
100
AcDbLine
 10
-39.5845568043
 20
66.4722758704
 30
0.0
 11
-41.7566498275
 21
66.4722758704
 31
0.0
  0
LINE
  5
339
330
1F
100
AcDbEntity
  8
0
  6
Continuous
 62
     7
370
    25
100
AcDbLine
 10
-41.7566498275
 20
66.4722758704
 30
0.0
 11
-47.7566498275
 21
66.4722758704
 31
0.0
  0
LINE
  5
33A
330
1F
100
AcDbEntity
  8
0
  6
Continuous
 62
     7
370
    25
100
AcDbLine
 10
873.2433501725
 20
66.4722758704
 30
0.0
 11
867.2433501725
 21
66.4722758704
 31
0.0
  0
SPLINE
  5
33B
330
1F
100
AcDbEntity
  8
0
  6
Continuous
 62
     7
370
    25
100
AcDbSpline
210
0.0
220
0.0
230
1.0
 70
    24
 71
     3
 72
     9
 73
     5
 74
     0
 42
0.000000001
 43
0.00000001
 40
0.0
 40
0.0
 40
0.0
 40
0.0
 40
0.515394185963663
 40
1.0
 40
1.0
 40
1.0
 40
1.0
 10
864.943350172477
 20
95.34728587043354
 30
0.0
 10
864.943350172477
 20
95.39102771848923
 30
0.0
 10
864.943350172477
 20
95.47589838495573
 30
0.0
 10
864.943350172477
 20
95.45314194971232
 30
0.0
 10
864.943350172477
 20
95.44211404888661
 30
0.0
  0
SPLINE
  5
33C
330
1F
100
AcDbEntity
  8
0
  6
Continuous
 62
     7
370
    25
100
AcDbSpline
210
0.0
220
0.0
230
1.0
 70
    24
 71
     3
 72
    17
 73
    13
 74
     0
 42
0.000000001
 43
0.00000001
 40
0.0
 40
0.0
 40
0.0
 40
0.0
 40
0.0359921626376374
 40
0.1205930661280436
 40
0.2034359252874614
 40
0.3573281084250907
 40
0.5112202915627208
 40
0.5940631507221377
 40
0.6786640542125447
 40
0.7632649577029526
 40
0.8461078168623681
 40
1.0
 40
1.0
 40
1.0
 40
1.0
 10
863.9433501724772
 20
95.44211404889755
 30
0.0
 10
863.9433501724772
 20
95.44926543593883
 30
0.0
 10
863.9433501724774
 20
95.47322642153058
 30
0.0
 10
863.9433501724772
 20
95.25522149529492
 30
0.0
 10
863.943350172477
 20
94.68343439820782
 30
0.0
 10
863.9433501724769
 20
93.4864178221175
 30
0.0
 10
863.943350172477
 20
91.84036106224042
 30
0.0
 10
863.9433501724772
 20
90.35517071002663
 30
0.0
 10
863.9433501724772
 20
89.1591425856524
 30
0.0
 10
863.943350172477
 20
87.98937717286299
 30
0.0
 10
863.9433501724772
 20
86.56742999227917
 30
0.0
 10
863.9433501724772
 20
85.75516271241902
 30
0.0
 10
863.9433501724772
 20
85.2271395529575
 30
0.0
  0
SPLINE
  5
33D
330
1F
100
AcDbEntity
  8
0
  6
Continuous
 62
     7
370
    25
100
AcDbSpline
210
0.0
220
0.0
230
1.0
 70
     8
 71
     3
 72
     8
 73
     4
 74
     0
 42
0.000000001
 43
0.00000001
 40
0.0
 40
0.0
 40
0.0
 40
0.0
 40
1.0
 40
1.0
 40
1.0
 40
1.0
 10
859.9433501724842
 20
92.8840772681121
 30
0.0
 10
859.9433501724842
 20
92.12895646180417
 30
0.0
 10
860.1176654728636
 20
91.39450298786073
 30
0.0
 10
860.3899321598755
 20
90.67166291709039
 30
0.0
  0
SPLINE
  5
33E
330
1F
100
AcDbEntity
  8
0
  6
Continuous
 62
     7
370
    25
100
AcDbSpline
210
0.0
220
0.0
230
1.0
 70
     8
 71
     3
 72
     8
 73
     4
 74
     0
 42
0.000000001
 43
0.00000001
 40
0.0
 40
0.0
 40
0.0
 40
0.0
 40
1.0
 40
1.0
 40
1.0
 40
1.0
 10
860.3899321598756
 20
95.09649161913389
 30
0.0
 10
860.117665472864
 20
94.37365154836462
 30
0.0
 10
859.9433501724842
 20
93.63919807441893
 30
0.0
 10
859.9433501724842
 20
92.8840772681121
 30
0.0
  0
LINE
  5
33F
330
1F
100
AcDbEntity
  8
0
  6
Continuous
 62
     7
370
    25
100
AcDbLine
 10
860.3899321599
 20
95.0964916191
 30
0.0
 11
863.9433501725
 21
95.0964916191
 31
0.0
  0
LINE
  5
340
330
1F
100
AcDbEntity
  8
0
  6
Continuous
 62
     7
370
    25
100
AcDbLine
 10
863.9433501725
 20
90.6716629171
 30
0.0
 11
860.3899321599
 21
90.6716629171
 31
0.0
  0
SPLINE
  5
341
330
1F
100
AcDbEntity
  8
0
  6
Continuous
 62
     7
370
    25
100
AcDbSpline
210
0.0
220
0.0
230
1.0
 70
     8
 71
     3
 72
     8
 73
     4
 74
     0
 42
0.000000001
 43
0.00000001
 40
0.0
 40
0.0
 40
0.0
 40
0.0
 40
1.0
 40
1.0
 40
1.0
 40
1.0
 10
859.943350172484
 20
87.95955504273512
 30
0.0
 10
859.943350172484
 20
87.03388346411482
 30
0.0
 10
860.1176654728635
 20
86.13354711929553
 30
0.0
 10
860.3899321598755
 20
85.24744716838633
 30
0.0
  0
SPLINE
  5
342
330
1F
100
AcDbEntity
  8
0
  6
Continuous
 62
     7
370
    25
100
AcDbSpline
210
0.0
220
0.0
230
1.0
 70
     8
 71
     3
 72
     8
 73
     4
 74
     0
 42
0.000000001
 43
0.00000001
 40
0.0
 40
0.0
 40
0.0
 40
0.0
 40
1.0
 40
1.0
 40
1.0
 40
1.0
 10
860.3899321598753
 20
90.67166291708378
 30
0.0
 10
860.1176654728639
 20
89.78556296617627
 30
0.0
 10
859.943350172484
 20
88.88522662135365
 30
0.0
 10
859.943350172484
 20
87.95955504273512
 30
0.0
  0
LINE
  5
343
330
1F
100
AcDbEntity
  8
0
  6
Continuous
 62
     7
370
    25
100
AcDbLine
 10
863.9433501725
 20
85.2474471684
 30
0.0
 11
860.3899321599
 21
85.2474471684
 31
0.0
  0
LINE
  5
344
330
1F
100
AcDbEntity
  8
0
  6
Continuous
 62
     7
370
    25
100
AcDbLine
 10
859.9433501725
 20
92.8840772681
 30
0.0
 11
859.9433501725
 21
87.9595550427
 31
0.0
  0
SPLINE
  5
345
330
1F
100
AcDbEntity
  8
0
  6
Continuous
 62
     7
370
    25
100
AcDbSpline
210
0.0
220
0.0
230
1.0
 70
     8
 71
     3
 72
     8
 73
     4
 74
     0
 42
0.000000001
 43
0.00000001
 40
0.0
 40
0.0
 40
0.0
 40
0.0
 40
1.0
 40
1.0
 40
1.0
 40
1.0
 10
860.3899321598756
 20
85.24744716838192
 30
0.0
 10
860.1176654728641
 20
85.0841872882435
 30
0.0
 10
859.9433501724842
 20
84.91830441736708
 30
0.0
 10
859.9433501724842
 20
84.74775364505521
 30
0.0
  0
LINE
  5
346
330
1F
100
AcDbEntity
  8
0
  6
Continuous
 62
     7
370
    25
100
AcDbLine
 10
859.9433501725
 20
87.9595550427
 30
0.0
 11
859.9433501725
 21
84.7477536451
 31
0.0
  0
SPLINE
  5
347
330
1F
100
AcDbEntity
  8
0
  6
Continuous
 62
     7
370
    25
100
AcDbSpline
210
0.0
220
0.0
230
1.0
 70
     8
 71
     3
 72
     8
 73
     4
 74
     0
 42
0.000000001
 43
0.00000001
 40
0.0
 40
0.0
 40
0.0
 40
0.0
 40
1.0
 40
1.0
 40
1.0
 40
1.0
 10
859.9433501724842
 20
94.59679809580949
 30
0.0
 10
859.9433501724842
 20
94.7673488681218
 30
0.0
 10
860.1176654728635
 20
94.93323173899738
 30
0.0
 10
860.3899321598756
 20
95.0964916191362
 30
0.0
  0
LINE
  5
348
330
1F
100
AcDbEntity
  8
0
  6
Continuous
 62
     7
370
    25
100
AcDbLine
 10
859.9433501725
 20
92.8840772681
 30
0.0
 11
859.9433501725
 21
94.6676378362
 31
0.0
  0
SPLINE
  5
349
330
1F
100
AcDbEntity
  8
0
  6
Continuous
 62
     7
370
    25
100
AcDbSpline
210
0.0
220
0.0
230
1.0
 70
     8
 71
     3
 72
     8
 73
     4
 74
     0
 42
0.000000001
 43
0.00000001
 40
0.0
 40
0.0
 40
0.0
 40
0.0
 40
1.0
 40
1.0
 40
1.0
 40
1.0
 10
859.9433501724842
 20
84.74775364505521
 30
0.0
 10
859.9433501724842
 20
84.57720287274302
 30
0.0
 10
860.1176654728637
 20
84.41132000186721
 30
0.0
 10
860.3899321598756
 20
84.2480601217285
 30
0.0
  0
LINE
  5
34A
330
1F
100
AcDbEntity
  8
0
  6
Continuous
 62
     7
370
    25
100
AcDbLine
 10
863.9433501725
 20
84.2480601217
 30
0.0
 11
860.3899321599
 21
84.2480601217
 31
0.0
  0
LINE
  5
34B
330
1F
100
AcDbEntity
  8
0
  6
Continuous
 62
     7
370
    25
100
AcDbLine
 10
874.9433501725
 20
87.2135258704
 30
0.0
 11
874.9433501725
 21
92.1310258704
 31
0.0
  0
LINE
  5
34C
330
1F
100
AcDbEntity
  8
0
  6
Continuous
 62
     7
370
    25
100
AcDbLine
 10
874.4021001725
 20
91.599356709
 30
0.0
 11
874.4021001725
 21
92.6722758704
 31
0.0
  0
LINE
  5
34D
330
1F
100
AcDbEntity
  8
0
  6
Continuous
 62
     7
370
    25
100
AcDbLine
 10
874.4021001725
 20
86.6722758704
 30
0.0
 11
874.4021001725
 21
91.599356709
 31
0.0
  0
ARC
  5
34E
330
1F
100
AcDbEntity
  8
0
  6
Continuous
 62
     7
370
    25
100
AcDbCircle
 10
867.2433501725
 20
67.0722758704
 30
0.0
 40
3.00000000000007
100
AcDbArc
 50
227.6305369016
 51
270.0
  0
LINE
  5
34F
330
1F
100
AcDbEntity
  8
0
  6
Continuous
 62
     7
370
    25
100
AcDbLine
 10
879.2433501725
 20
64.0722758704
 30
0.0
 11
867.2433501725
 21
64.0722758704
 31
0.0
  0
ARC
  5
350
330
1F
100
AcDbEntity
  8
0
  6
Continuous
 62
     7
370
    25
100
AcDbCircle
 10
879.2433501725
 20
67.0722758704
 30
0.0
 40
3.000000000000114
100
AcDbArc
 50
270.0
 51
0.0
  0
LINE
  5
351
330
1F
100
AcDbEntity
  8
0
  6
Continuous
 62
     7
370
    25
100
AcDbLine
 10
882.2433501725
 20
68.0722758704
 30
0.0
 11
882.2433501725
 21
67.0722758704
 31
0.0
  0
ARC
  5
352
330
1F
100
AcDbEntity
  8
0
  6
Continuous
 62
     7
370
    25
100
AcDbCircle
 10
885.2433501725
 20
68.0722758704
 30
0.0
 40
3.000000000000114
100
AcDbArc
 50
90.0
 51
180.0
  0
LINE
  5
353
330
1F
100
AcDbEntity
  8
0
  6
Continuous
 62
     7
370
    25
100
AcDbLine
 10
908.7726394944
 20
71.0722758704
 30
0.0
 11
885.2433501725
 21
71.0722758704
 31
0.0
  0
LINE
  5
354
330
1F
100
AcDbEntity
  8
0
  6
Continuous
 62
     7
370
    25
100
AcDbLine
 10
908.7726394944
 20
61.4722758704
 30
0.0
 11
908.7726394944
 21
71.0722758704
 31
0.0
  0
LINE
  5
355
330
1F
100
AcDbEntity
  8
0
  6
Continuous
 62
     7
370
    25
100
AcDbLine
 10
-83.2859391494
 20
61.4722758704
 30
0.0
 11
-83.2859391494
 21
71.0722758704
 31
0.0
  0
LINE
  5
356
330
1F
100
AcDbEntity
  8
0
  6
Continuous
 62
     7
370
    25
100
AcDbLine
 10
-59.7566498275
 20
71.0722758704
 30
0.0
 11
-83.2859391494
 21
71.0722758704
 31
0.0
  0
ARC
  5
357
330
1F
100
AcDbEntity
  8
0
  6
Continuous
 62
     7
370
    25
100
AcDbCircle
 10
-59.7566498275
 20
68.0722758704
 30
0.0
 40
3.000000000000057
100
AcDbArc
 50
0.0
 51
90.0
  0
LINE
  5
358
330
1F
100
AcDbEntity
  8
0
  6
Continuous
 62
     7
370
    25
100
AcDbLine
 10
-56.7566498275
 20
68.0722758704
 30
0.0
 11
-56.7566498275
 21
67.0722758704
 31
0.0
  0
ARC
  5
359
330
1F
100
AcDbEntity
  8
0
  6
Continuous
 62
     7
370
    25
100
AcDbCircle
 10
-53.7566498275
 20
67.0722758704
 30
0.0
 40
3.000000000000057
100
AcDbArc
 50
180.0
 51
270.0
  0
LINE
  5
35A
330
1F
100
AcDbEntity
  8
0
  6
Continuous
 62
     7
370
    25
100
AcDbLine
 10
-53.7566498275
 20
64.0722758704
 30
0.0
 11
-41.7566498275
 21
64.0722758704
 31
0.0
  0
ARC
  5
35B
330
1F
100
AcDbEntity
  8
0
  6
Continuous
 62
     7
370
    25
100
AcDbCircle
 10
-41.7566498275
 20
67.0722758704
 30
0.0
 40
3.000000000000034
100
AcDbArc
 50
270.0
 51
312.3694630984
  0
SPLINE
  5
35C
330
1F
100
AcDbEntity
  8
0
  6
Continuous
 62
     7
370
    25
100
AcDbSpline
210
0.0
220
0.0
230
1.0
 70
     8
 71
     3
 72
    20
 73
    16
 74
     0
 42
0.000000001
 43
0.00000001
 40
0.0
 40
0.0
 40
0.0
 40
0.0
 40
0.125
 40
0.125
 40
0.2500000000000001
 40
0.2500000000000001
 40
0.3750000000000001
 40
0.3750000000000001
 40
0.5000000000000001
 40
0.5000000000000001
 40
0.7500000000000002
 40
0.7500000000000002
 40
0.8750000000000001
 40
0.8750000000000001
 40
1.0
 40
1.0
 40
1.0
 40
1.0
 10
-82.35664982752239
 20
59.07227587043354
 30
0.0
 10
-82.39569055837703
 20
59.07227587043354
 30
0.0
 10
-82.43420926257672
 20
59.08781243090839
 30
0.0
 10
-82.51161601388468
 20
59.14913078286898
 30
0.0
 10
-82.55076043187127
 20
59.19555452845579
 30
0.0
 10
-82.62791118578677
 20
59.31550539860991
 30
0.0
 10
-82.66623876752772
 20
59.38911004289329
 30
0.0
 10
-82.74378508800417
 20
59.56384040898893
 30
0.0
 10
-82.78276129567291
 20
59.6646910378905
 30
0.0
 10
-82.89825615211821
 20
59.9959763178744
 30
0.0
 10
-82.97616859578805
 20
60.26365647925832
 30
0.0
 10
-83.09164852118894
 20
60.6963305053137
 30
0.0
 10
-83.1305143170541
 20
60.84784859216483
 30
0.0
 10
-83.20828865072278
 20
61.15727434955095
 30
0.0
 10
-83.2468984176773
 20
61.31389667924479
 30
0.0
 10
-83.28593914940392
 20
61.47227587043353
 30
0.0
  0
SPLINE
  5
35D
330
1F
100
AcDbEntity
  8
0
  6
Continuous
 62
     7
370
    25
100
AcDbSpline
210
0.0
220
0.0
230
1.0
 70
     8
 71
     3
 72
    20
 73
    16
 74
     0
 42
0.000000001
 43
0.00000001
 40
0.0
 40
0.0
 40
0.0
 40
0.0
 40
0.1250000000000012
 40
0.1250000000000012
 40
0.2500000000000024
 40
0.2500000000000024
 40
0.3750000000000037
 40
0.3750000000000037
 40
0.5000000000000049
 40
0.5000000000000049
 40
0.7500000000000073
 40
0.7500000000000073
 40
0.8750000000000037
 40
0.8750000000000037
 40
1.0
 40
1.0
 40
1.0
 40
1.0
 10
908.7726394943589
 20
61.47227587043344
 30
0.0
 10
908.7335987635043
 20
61.31389668278274
 30
0.0
 10
908.6950800593046
 20
61.15765095809107
 30
0.0
 10
908.6176733079967
 20
60.84965910867447
 30
0.0
 10
908.5785288900101
 20
60.6970150012033
 30
0.0
 10
908.5013781360949
 20
60.40793071201627
 30
0.0
 10
908.4630505543538
 20
60.27012617383224
 30
0.0
 10
908.3855042338771
 20
60.00850749819335
 30
0.0
 10
908.3465280262087
 20
59.88576119151075
 30
0.0
 10
908.2310331697637
 20
59.55443681456305
 30
0.0
 10
908.1531207260934
 20
59.37542569053483
 30
0.0
 10
908.0376408006925
 20
59.19581059115394
 30
0.0
 10
907.9987750048275
 20
59.14956624228624
 30
0.0
 10
907.921000671159
 20
59.08781293627501
 30
0.0
 10
907.8823909042042
 20
59.07227587043356
 30
0.0
 10
907.8433501724775
 20
59.07227587043354
 30
0.0
  0
LINE
  5
35E
330
1F
100
AcDbEntity
  8
0
  6
Continuous
 62
     7
370
    25
100
AcDbLine
 10
907.8433501725
 20
59.0722758704
 30
0.0
 11
-82.3566498275
 21
59.0722758704
 31
0.0
  0
SPLINE
  5
35F
330
1F
100
AcDbEntity
  8
0
  6
Continuous
 62
     7
370
    25
100
AcDbSpline
210
0.0
220
0.0
230
1.0
 70
     8
 71
     3
 72
    20
 73
    16
 74
     0
 42
0.000000001
 43
0.00000001
 40
0.0
 40
0.0
 40
0.0
 40
0.0
 40
0.1249999999999939
 40
0.1249999999999939
 40
0.2499999999999879
 40
0.2499999999999879
 40
0.3749999999999818
 40
0.3749999999999818
 40
0.4999999999999758
 40
0.4999999999999758
 40
0.7499999999999959
 40
0.7499999999999959
 40
0.8749999999999979
 40
0.8749999999999979
 40
1.0
 40
1.0
 40
1.0
 40
1.0
 10
907.8433501724774
 20
59.07227587043352
 30
0.0
 10
908.0017293601284
 20
59.07227587043352
 30
0.0
 10
908.1579750848199
 20
59.08781243090839
 30
0.0
 10
908.4659669342363
 20
59.14913078286899
 30
0.0
 10
908.6186110417077
 20
59.19555452845577
 30
0.0
 10
908.9076953308947
 20
59.31550539860991
 30
0.0
 10
909.0454998690788
 20
59.38911004289331
 30
0.0
 10
909.3071185447177
 20
59.56384040898896
 30
0.0
 10
909.4298648514006
 20
59.66469103789051
 30
0.0
 10
909.761189228348
 20
59.99597631787446
 30
0.0
 10
909.9402003523762
 20
60.26365647925835
 30
0.0
 10
910.1198154517572
 20
60.69633050531375
 30
0.0
 10
910.1660598006248
 20
60.8478485921649
 30
0.0
 10
910.2278131066362
 20
61.15727434955101
 30
0.0
 10
910.2433501724773
 20
61.31389667924478
 30
0.0
 10
910.2433501724774
 20
61.47227587043352
 30
0.0
  0
SPLINE
  5
360
330
1F
100
AcDbEntity
  8
0
  6
Continuous
 62
     7
370
    25
100
AcDbSpline
210
0.0
220
0.0
230
1.0
 70
     8
 71
     3
 72
     9
 73
     5
 74
     0
 42
0.000000001
 43
0.00000001
 40
0.0
 40
0.0
 40
0.0
 40
0.0
 40
0.4825784287294354
 40
1.0
 40
1.0
 40
1.0
 40
1.0
 10
908.6195204044238
 20
60.85973613125528
 30
0.0
 10
908.6833285974853
 20
60.94787047257174
 30
0.0
 10
908.8155520647248
 20
61.13050263362481
 30
0.0
 10
908.833871369181
 20
61.35573551766937
 30
0.0
 10
908.8433501724775
 20
61.47227587043352
 30
0.0
  0
LINE
  5
361
330
1F
100
AcDbEntity
  8
0
  6
Continuous
 62
     7
370
    25
100
AcDbLine
 10
910.2433501725
 20
61.4722758704
 30
0.0
 11
908.8433501725
 21
61.4722758704
 31
0.0
  0
LINE
  5
362
330
1F
100
AcDbEntity
  8
0
  6
Continuous
 62
     7
370
    25
100
AcDbLine
 10
-84.7566498275
 20
61.4722758704
 30
0.0
 11
-83.3566498275
 21
61.4722758704
 31
0.0
  0
SPLINE
  5
363
330
1F
100
AcDbEntity
  8
0
  6
Continuous
 62
     7
370
    25
100
AcDbSpline
210
0.0
220
0.0
230
1.0
 70
     8
 71
     3
 72
     9
 73
     5
 74
     0
 42
0.000000001
 43
0.00000001
 40
0.0
 40
0.0
 40
0.0
 40
0.0
 40
0.6784508005732508
 40
1.0
 40
1.0
 40
1.0
 40
1.0
 10
-83.3566498275225
 20
61.47227587043352
 30
0.0
 10
-83.34340025705811
 20
61.32156866598023
 30
0.0
 10
-83.32387110261801
 20
61.09943435008591
 30
0.0
 10
-83.1830234489791
 20
60.93260124519682
 30
0.0
 10
-83.13773399871039
 20
60.87895619388186
 30
0.0
  0
SPLINE
  5
364
330
1F
100
AcDbEntity
  8
0
  6
Continuous
 62
     7
370
    25
100
AcDbSpline
210
0.0
220
0.0
230
1.0
 70
     8
 71
     3
 72
    20
 73
    16
 74
     0
 42
0.000000001
 43
0.00000001
 40
0.0
 40
0.0
 40
0.0
 40
0.0
 40
0.1250000000000003
 40
0.1250000000000003
 40
0.2500000000000006
 40
0.2500000000000006
 40
0.3750000000000009
 40
0.3750000000000009
 40
0.5000000000000012
 40
0.5000000000000012
 40
0.7500000000000018
 40
0.7500000000000018
 40
0.8750000000000009
 40
0.8750000000000009
 40
1.0
 40
1.0
 40
1.0
 40
1.0
 10
-84.75664982752245
 20
61.47227587043351
 30
0.0
 10
-84.75664982752251
 20
61.31389668278281
 30
0.0
 10
-84.74111326704752
 20
61.15765095809114
 30
0.0
 10
-84.67979491508687
 20
60.84965910867452
 30
0.0
 10
-84.63337116950015
 20
60.6970150012034
 30
0.0
 10
-84.51342029934582
 20
60.40793071201633
 30
0.0
 10
-84.43981565506276
 20
60.27012617383225
 30
0.0
 10
-84.26508528896726
 20
60.00850749819334
 30
0.0
 10
-84.16423466006539
 20
59.88576119151072
 30
0.0
 10
-83.8329493800814
 20
59.55443681456303
 30
0.0
 10
-83.56526921869751
 20
59.37542569053479
 30
0.0
 10
-83.1325951926421
 20
59.19581059115392
 30
0.0
 10
-82.98107710579117
 20
59.14956624228619
 30
0.0
 10
-82.67165134840515
 20
59.08781293627496
 30
0.0
 10
-82.51502901871099
 20
59.07227587043353
 30
0.0
 10
-82.35664982752245
 20
59.07227587043353
 30
0.0
  0
LINE
  5
365
330
1F
100
AcDbEntity
  8
0
  6
Continuous
 62
     7
370
    25
100
AcDbLine
 10
910.2433501725
 20
71.0722758704
 30
0.0
 11
908.8433501725
 21
71.0722758704
 31
0.0
  0
LINE
  5
366
330
1F
100
AcDbEntity
  8
0
  6
Continuous
 62
     7
370
    25
100
AcDbLine
 10
910.2433501725
 20
61.4722758704
 30
0.0
 11
910.2433501725
 21
71.0722758704
 31
0.0
  0
LINE
  5
367
330
1F
100
AcDbEntity
  8
0
  6
Continuous
 62
     7
370
    25
100
AcDbLine
 10
908.8433501725
 20
61.4722758704
 30
0.0
 11
908.8433501725
 21
71.0722758704
 31
0.0
  0
LINE
  5
368
330
1F
100
AcDbEntity
  8
0
  6
Continuous
 62
     7
370
    25
100
AcDbLine
 10
-83.3566498275
 20
61.4722758704
 30
0.0
 11
-83.3566498275
 21
71.0722758704
 31
0.0
  0
LINE
  5
369
330
1F
100
AcDbEntity
  8
0
  6
Continuous
 62
     7
370
    25
100
AcDbLine
 10
-84.7566498275
 20
61.4722758704
 30
0.0
 11
-84.7566498275
 21
71.0722758704
 31
0.0
  0
LINE
  5
36A
330
1F
100
AcDbEntity
  8
0
  6
Continuous
 62
     7
370
    25
100
AcDbLine
 10
-84.7566498275
 20
71.0722758704
 30
0.0
 11
-83.3566498275
 21
71.0722758704
 31
0.0
  0
LINE
  5
36B
330
1F
100
AcDbEntity
  8
0
  6
Continuous
 62
     7
370
    25
100
AcDbLine
 10
864.9433501725
 20
95.1722758704
 30
0.0
 11
864.9433501725
 21
78.1722758704
 31
0.0
  0
LINE
  5
36C
330
1F
100
AcDbEntity
  8
0
  6
Continuous
 62
     7
370
    25
100
AcDbLine
 10
865.7433501725
 20
95.1722758704
 30
0.0
 11
865.7433501725
 21
78.1722758704
 31
0.0
  0
LINE
  5
36D
330
1F
100
AcDbEntity
  8
0
  6
Continuous
 62
     7
370
    25
100
AcDbLine
 10
-40.2566498275
 20
98.1722758704
 30
0.0
 11
-39.4566498275
 21
98.1722758704
 31
0.0
  0
LINE
  5
36E
330
1F
100
AcDbEntity
  8
0
  6
Continuous
 62
     7
370
    25
100
AcDbLine
 10
-39.4566498275
 20
98.1722758704
 30
0.0
 11
-39.4566498275
 21
95.1722758704
 31
0.0
  0
LINE
  5
36F
330
1F
100
AcDbEntity
  8
0
  6
Continuous
 62
     7
370
    25
100
AcDbLine
 10
-40.2566498275
 20
95.1722758704
 30
0.0
 11
-40.2566498275
 21
98.1722758704
 31
0.0
  0
LINE
  5
370
330
1F
100
AcDbEntity
  8
0
  6
Continuous
 62
     7
370
    25
100
AcDbLine
 10
-40.2566498275
 20
78.1722758704
 30
0.0
 11
-40.2566498275
 21
95.1722758704
 31
0.0
  0
LINE
  5
371
330
1F
100
AcDbEntity
  8
0
  6
Continuous
 62
     7
370
    25
100
AcDbLine
 10
-39.4566498275
 20
78.1722758704
 30
0.0
 11
-39.4566498275
 21
95.1722758704
 31
0.0
  0
LINE
  5
372
330
1F
100
AcDbEntity
  8
0
  6
Continuous
 62
     7
370
    25
100
AcDbLine
 10
864.9433501725
 20
98.1722758704
 30
0.0
 11
865.7433501725
 21
98.1722758704
 31
0.0
  0
LINE
  5
373
330
1F
100
AcDbEntity
  8
0
  6
Continuous
 62
     7
370
    25
100
AcDbLine
 10
864.9433501725
 20
95.1722758704
 30
0.0
 11
864.9433501725
 21
98.1722758704
 31
0.0
  0
LINE
  5
374
330
1F
100
AcDbEntity
  8
0
  6
Continuous
 62
     7
370
    25
100
AcDbLine
 10
865.7433501725
 20
98.1722758704
 30
0.0
 11
865.7433501725
 21
95.1722758704
 31
0.0
  0
LINE
  5
375
330
1F
100
AcDbEntity
  8
0
  6
Continuous
 62
     7
370
    25
100
AcDbLine
 10
865.7433501725
 20
75.1722758704
 30
0.0
 11
864.9433501725
 21
75.1722758704
 31
0.0
  0
LINE
  5
376
330
1F
100
AcDbEntity
  8
0
  6
Continuous
 62
     7
370
    25
100
AcDbLine
 10
864.9433501725
 20
75.1722758704
 30
0.0
 11
864.9433501725
 21
78.1722758704
 31
0.0
  0
LINE
  5
377
330
1F
100
AcDbEntity
  8
0
  6
Continuous
 62
     7
370
    25
100
AcDbLine
 10
865.7433501725
 20
78.1722758704
 30
0.0
 11
865.7433501725
 21
75.1722758704
 31
0.0
  0
LINE
  5
378
330
1F
100
AcDbEntity
  8
0
  6
Continuous
 62
     7
370
    25
100
AcDbLine
 10
-39.4566498275
 20
75.1722758704
 30
0.0
 11
-40.2566498275
 21
75.1722758704
 31
0.0
  0
LINE
  5
379
330
1F
100
AcDbEntity
  8
0
  6
Continuous
 62
     7
370
    25
100
AcDbLine
 10
-40.2566498275
 20
75.1722758704
 30
0.0
 11
-40.2566498275
 21
78.1722758704
 31
0.0
  0
LINE
  5
37A
330
1F
100
AcDbEntity
  8
0
  6
Continuous
 62
     7
370
    25
100
AcDbLine
 10
-39.4566498275
 20
78.1722758704
 30
0.0
 11
-39.4566498275
 21
75.1722758704
 31
0.0
  0
LINE
  5
37B
330
1F
100
AcDbEntity
  8
0
  6
Continuous
 62
     7
370
    25
100
AcDbLine
 10
862.7433501725
 20
77.1722758704
 30
0.0
 11
862.7433501725
 21
77.9722758704
 31
0.0
  0
LINE
  5
37C
330
1F
100
AcDbEntity
  8
0
  6
Continuous
 62
     7
370
    25
100
AcDbLine
 10
-37.2566498275
 20
77.1722758704
 30
0.0
 11
-37.2566498275
 21
77.9722758704
 31
0.0
  0
LINE
  5
37D
330
1F
100
AcDbEntity
  8
0
  6
Continuous
 62
     7
370
    25
100
AcDbLine
 10
862.7433501725
 20
77.9722758704
 30
0.0
 11
-37.2566498275
 21
77.9722758704
 31
0.0
  0
LINE
  5
37E
330
1F
100
AcDbEntity
  8
0
  6
Continuous
 62
     7
370
    25
100
AcDbLine
 10
608.2433501725
 20
118.0768892622
 30
0.0
 11
608.2433501725
 21
111.5591978086
 31
0.0
  0
ARC
  5
37F
330
1F
100
AcDbEntity
  8
0
  6
Continuous
 62
     7
370
    25
100
AcDbCircle
 10
611.2433501725
 20
118.0768892622
 30
0.0
 40
3.0
100
AcDbArc
 50
90.0
 51
180.0
  0
LINE
  5
380
330
1F
100
AcDbEntity
  8
0
  6
Continuous
 62
     7
370
    25
100
AcDbLine
 10
805.2433501725
 20
121.0768892622
 30
0.0
 11
611.2433501725
 21
121.0768892622
 31
0.0
  0
ARC
  5
381
330
1F
100
AcDbEntity
  8
0
  6
Continuous
 62
     7
370
    25
100
AcDbCircle
 10
805.2433501725
 20
118.0768892622
 30
0.0
 40
3.0
100
AcDbArc
 50
0.0
 51
90.0
  0
LINE
  5
382
330
1F
100
AcDbEntity
  8
0
  6
Continuous
 62
     7
370
    25
100
AcDbLine
 10
808.2433501725
 20
111.5591978086
 30
0.0
 11
808.2433501725
 21
118.0768892622
 31
0.0
  0
LINE
  5
383
330
1F
100
AcDbEntity
  8
0
  6
Continuous
 62
     7
370
    25
100
AcDbLine
 10
17.2433501725
 20
118.0768892622
 30
0.0
 11
17.2433501725
 21
111.5591978086
 31
0.0
  0
ARC
  5
384
330
1F
100
AcDbEntity
  8
0
  6
Continuous
 62
     7
370
    25
100
AcDbCircle
 10
20.2433501725
 20
118.0768892622
 30
0.0
 40
3.000000000000004
100
AcDbArc
 50
90.0
 51
180.0
  0
ARC
  5
385
330
1F
100
AcDbEntity
  8
0
  6
Continuous
 62
     7
370
    25
100
AcDbCircle
 10
214.2433501725
 20
118.0768892622
 30
0.0
 40
3.0
100
AcDbArc
 50
0.0
 51
90.0
  0
LINE
  5
386
330
1F
100
AcDbEntity
  8
0
  6
Continuous
 62
     7
370
    25
100
AcDbLine
 10
217.2433501725
 20
111.5591978086
 30
0.0
 11
217.2433501725
 21
118.0768892622
 31
0.0
  0
LINE
  5
387
330
1F
100
AcDbEntity
  8
0
  6
Continuous
 62
     7
370
    25
100
AcDbLine
 10
214.2433501725
 20
121.0768892622
 30
0.0
 11
20.2433501725
 21
121.0768892622
 31
0.0
  0
LINE
  5
388
330
1F
100
AcDbEntity
  8
0
  6
Continuous
 62
     7
370
    25
100
AcDbLine
 10
312.7433501725
 20
118.0768892622
 30
0.0
 11
312.7433501725
 21
111.5591978086
 31
0.0
  0
LINE
  5
389
330
1F
100
AcDbEntity
  8
0
  6
Continuous
 62
     7
370
    25
100
AcDbLine
 10
512.7433501725
 20
111.5591978086
 30
0.0
 11
512.7433501725
 21
118.0768892622
 31
0.0
  0
LINE
  5
38A
330
1F
100
AcDbEntity
  8
0
  6
Continuous
 62
     7
370
    25
100
AcDbLine
 10
509.7433501725
 20
121.0768892622
 30
0.0
 11
315.7433501725
 21
121.0768892622
 31
0.0
  0
ARC
  5
38B
330
1F
100
AcDbEntity
  8
0
  6
Continuous
 62
     7
370
    25
100
AcDbCircle
 10
315.7433501725
 20
118.0768892622
 30
0.0
 40
3.0
100
AcDbArc
 50
90.0
 51
180.0
  0
ARC
  5
38C
330
1F
100
AcDbEntity
  8
0
  6
Continuous
 62
     7
370
    25
100
AcDbCircle
 10
509.7433501725
 20
118.0768892622
 30
0.0
 40
3.000000000000057
100
AcDbArc
 50
0.0
 51
90.0
  0
LINE
  5
38D
330
1F
100
AcDbEntity
  8
0
  6
Continuous
 62
     7
370
    25
100
AcDbLine
 10
17.2433501725
 20
110.6591978086
 30
0.0
 11
17.2433501725
 21
111.5591978086
 31
0.0
  0
LINE
  5
38E
330
1F
100
AcDbEntity
  8
0
  6
Continuous
 62
     7
370
    25
100
AcDbLine
 10
217.2433501725
 20
111.5591978086
 30
0.0
 11
217.2433501725
 21
110.6591978086
 31
0.0
  0
LINE
  5
38F
330
1F
100
AcDbEntity
  8
0
  6
Continuous
 62
     7
370
    25
100
AcDbLine
 10
808.2433501725
 20
111.5591978086
 30
0.0
 11
808.2433501725
 21
110.6591978086
 31
0.0
  0
LINE
  5
390
330
1F
100
AcDbEntity
  8
0
  6
Continuous
 62
     7
370
    25
100
AcDbLine
 10
608.2433501725
 20
110.6591978086
 30
0.0
 11
608.2433501725
 21
111.5591978086
 31
0.0
  0
LINE
  5
391
330
1F
100
AcDbEntity
  8
0
  6
Continuous
 62
     7
370
    25
100
AcDbLine
 10
312.7433501725
 20
110.6591978086
 30
0.0
 11
312.7433501725
 21
111.5591978086
 31
0.0
  0
LINE
  5
392
330
1F
100
AcDbEntity
  8
0
  6
Continuous
 62
     7
370
    25
100
AcDbLine
 10
512.7433501725
 20
111.5591978086
 30
0.0
 11
512.7433501725
 21
110.6591978086
 31
0.0
  0
LINE
  5
393
330
1F
100
AcDbEntity
  8
0
  6
Continuous
 62
     7
370
    25
100
AcDbLine
 10
17.2433501725
 20
104.034326678
 30
0.0
 11
17.2433501725
 21
110.6591978086
 31
0.0
  0
LINE
  5
394
330
1F
100
AcDbEntity
  8
0
  6
Continuous
 62
     7
370
    25
100
AcDbLine
 10
217.2433501725
 20
110.6591978086
 30
0.0
 11
217.2433501725
 21
104.034326678
 31
0.0
  0
LINE
  5
395
330
1F
100
AcDbEntity
  8
0
  6
Continuous
 62
     7
370
    25
100
AcDbLine
 10
512.7433501725
 20
110.6591978086
 30
0.0
 11
512.7433501725
 21
104.034326678
 31
0.0
  0
LINE
  5
396
330
1F
100
AcDbEntity
  8
0
  6
Continuous
 62
     7
370
    25
100
AcDbLine
 10
312.7433501725
 20
104.034326678
 30
0.0
 11
312.7433501725
 21
110.6591978086
 31
0.0
  0
LINE
  5
397
330
1F
100
AcDbEntity
  8
0
  6
Continuous
 62
     7
370
    25
100
AcDbLine
 10
808.2433501725
 20
110.6591978086
 30
0.0
 11
808.2433501725
 21
104.034326678
 31
0.0
  0
LINE
  5
398
330
1F
100
AcDbEntity
  8
0
  6
Continuous
 62
     7
370
    25
100
AcDbLine
 10
608.2433501725
 20
104.034326678
 30
0.0
 11
608.2433501725
 21
110.6591978086
 31
0.0
  0
LINE
  5
399
330
1F
100
AcDbEntity
  8
0
  6
Continuous
 62
     7
370
    25
100
AcDbLine
 10
864.9433501725
 20
98.1722758704
 30
0.0
 11
863.9433501725
 21
98.1722758704
 31
0.0
  0
LINE
  5
39A
330
1F
100
AcDbEntity
  8
0
  6
Continuous
 62
     7
370
    25
100
AcDbLine
 10
863.9433501725
 20
79.1722758704
 30
0.0
 11
864.9433501725
 21
79.1722758704
 31
0.0
  0
LINE
  5
39B
330
1F
100
AcDbEntity
  8
0
  6
Continuous
 62
     7
370
    25
100
AcDbLine
 10
-39.4566498275
 20
79.1722758704
 30
0.0
 11
-38.4566498275
 21
79.1722758704
 31
0.0
  0
LINE
  5
39C
330
1F
100
AcDbEntity
  8
0
  6
Continuous
 62
     7
370
    25
100
AcDbLine
 10
-38.4566498275
 20
98.1722758704
 30
0.0
 11
-39.4566498275
 21
98.1722758704
 31
0.0
  0
LINE
  5
39D
330
1F
100
AcDbEntity
  8
0
  6
Continuous
 62
     7
370
    25
100
AcDbLine
 10
-37.2566498275
 20
78.9722758704
 30
0.0
 11
-37.2566498275
 21
77.9722758704
 31
0.0
  0
LINE
  5
39E
330
1F
100
AcDbEntity
  8
0
  6
Continuous
 62
     7
370
    25
100
AcDbLine
 10
862.7433501725
 20
77.9722758704
 30
0.0
 11
862.7433501725
 21
78.9722758704
 31
0.0
  0
LINE
  5
39F
330
1F
100
AcDbEntity
  8
0
  6
Continuous
 62
     7
370
    25
100
AcDbLine
 10
512.7433501725
 20
103.534326678
 30
0.0
 11
512.7433501725
 21
104.034326678
 31
0.0
  0
LINE
  5
3A0
330
1F
100
AcDbEntity
  8
0
  6
Continuous
 62
     7
370
    25
100
AcDbLine
 10
312.7433501725
 20
104.034326678
 30
0.0
 11
312.7433501725
 21
103.534326678
 31
0.0
  0
LINE
  5
3A1
330
1F
100
AcDbEntity
  8
0
  6
Continuous
 62
     7
370
    25
100
AcDbLine
 10
217.2433501725
 20
103.534326678
 30
0.0
 11
217.2433501725
 21
104.034326678
 31
0.0
  0
LINE
  5
3A2
330
1F
100
AcDbEntity
  8
0
  6
Continuous
 62
     7
370
    25
100
AcDbLine
 10
17.2433501725
 20
104.034326678
 30
0.0
 11
17.2433501725
 21
103.534326678
 31
0.0
  0
LINE
  5
3A3
330
1F
100
AcDbEntity
  8
0
  6
Continuous
 62
     7
370
    25
100
AcDbLine
 10
808.2433501725
 20
103.534326678
 30
0.0
 11
808.2433501725
 21
104.034326678
 31
0.0
  0
LINE
  5
3A4
330
1F
100
AcDbEntity
  8
0
  6
Continuous
 62
     7
370
    25
100
AcDbLine
 10
608.2433501725
 20
104.034326678
 30
0.0
 11
608.2433501725
 21
103.534326678
 31
0.0
  0
LINE
  5
3A5
330
1F
100
AcDbEntity
  8
0
  6
Continuous
 62
     7
370
    25
100
AcDbLine
 10
-37.2566498275
 20
79.1722758704
 30
0.0
 11
-37.2566498275
 21
78.9722758704
 31
0.0
  0
LINE
  5
3A6
330
1F
100
AcDbEntity
  8
0
  6
Continuous
 62
     7
370
    25
100
AcDbLine
 10
-38.4566498275
 20
79.1722758704
 30
0.0
 11
-37.2566498275
 21
79.1722758704
 31
0.0
  0
LINE
  5
3A7
330
1F
100
AcDbEntity
  8
0
  6
Continuous
 62
     7
370
    25
100
AcDbLine
 10
-35.2566498275
 20
98.1722758704
 30
0.0
 11
-38.4566498275
 21
98.1722758704
 31
0.0
  0
LINE
  5
3A8
330
1F
100
AcDbEntity
  8
0
  6
Continuous
 62
     7
370
    25
100
AcDbLine
 10
-35.2566498275
 20
119.1722758704
 30
0.0
 11
-35.2566498275
 21
98.1722758704
 31
0.0
  0
ARC
  5
3A9
330
1F
100
AcDbEntity
  8
0
  6
Continuous
 62
     7
370
    25
100
AcDbCircle
 10
-32.2566498275
 20
119.1722758704
 30
0.0
 40
3.0
100
AcDbArc
 50
90.0
 51
180.0
  0
LINE
  5
3AA
330
1F
100
AcDbEntity
  8
0
  6
Continuous
 62
     7
370
    25
100
AcDbLine
 10
11.7433501725
 20
122.1722758704
 30
0.0
 11
-32.2566498275
 21
122.1722758704
 31
0.0
  0
ARC
  5
3AB
330
1F
100
AcDbEntity
  8
0
  6
Continuous
 62
     7
370
    25
100
AcDbCircle
 10
11.7433501725
 20
119.1722758704
 30
0.0
 40
3.000000000000004
100
AcDbArc
 50
0.0
 51
90.0
  0
LINE
  5
3AC
330
1F
100
AcDbEntity
  8
0
  6
Continuous
 62
     7
370
    25
100
AcDbLine
 10
14.7433501725
 20
119.1722758704
 30
0.0
 11
14.7433501725
 21
103.0422758704
 31
0.0
  0
LINE
  5
3AD
330
1F
100
AcDbEntity
  8
0
  6
Continuous
 62
     7
370
    25
100
AcDbLine
 10
14.7433501725
 20
103.0422758704
 30
0.0
 11
17.2433501725
 21
103.0422758704
 31
0.0
  0
LINE
  5
3AE
330
1F
100
AcDbEntity
  8
0
  6
Continuous
 62
     7
370
    25
100
AcDbLine
 10
17.2433501725
 20
103.534326678
 30
0.0
 11
17.2433501725
 21
103.0422758704
 31
0.0
  0
LINE
  5
3AF
330
1F
100
AcDbEntity
  8
0
  6
Continuous
 62
     7
370
    25
100
AcDbLine
 10
217.2433501725
 20
103.534326678
 30
0.0
 11
217.2433501725
 21
103.0422758704
 31
0.0
  0
LINE
  5
3B0
330
1F
100
AcDbEntity
  8
0
  6
Continuous
 62
     7
370
    25
100
AcDbLine
 10
217.2433501725
 20
103.0422758704
 30
0.0
 11
219.7433501725
 21
103.0422758704
 31
0.0
  0
LINE
  5
3B1
330
1F
100
AcDbEntity
  8
0
  6
Continuous
 62
     7
370
    25
100
AcDbLine
 10
219.7433501725
 20
103.0422758704
 30
0.0
 11
219.7433501725
 21
119.1722758704
 31
0.0
  0
ARC
  5
3B2
330
1F
100
AcDbEntity
  8
0
  6
Continuous
 62
     7
370
    25
100
AcDbCircle
 10
222.7433501725
 20
119.1722758704
 30
0.0
 40
3.0
100
AcDbArc
 50
90.0
 51
180.0
  0
LINE
  5
3B3
330
1F
100
AcDbEntity
  8
0
  6
Continuous
 62
     7
370
    25
100
AcDbLine
 10
307.2433501725
 20
122.1722758704
 30
0.0
 11
222.7433501725
 21
122.1722758704
 31
0.0
  0
ARC
  5
3B4
330
1F
100
AcDbEntity
  8
0
  6
Continuous
 62
     7
370
    25
100
AcDbCircle
 10
307.2433501725
 20
119.1722758704
 30
0.0
 40
3.0
100
AcDbArc
 50
0.0
 51
90.0
  0
LINE
  5
3B5
330
1F
100
AcDbEntity
  8
0
  6
Continuous
 62
     7
370
    25
100
AcDbLine
 10
310.2433501725
 20
119.1722758704
 30
0.0
 11
310.2433501725
 21
103.0422758704
 31
0.0
  0
LINE
  5
3B6
330
1F
100
AcDbEntity
  8
0
  6
Continuous
 62
     7
370
    25
100
AcDbLine
 10
310.2433501725
 20
103.0422758704
 30
0.0
 11
312.7433501725
 21
103.0422758704
 31
0.0
  0
LINE
  5
3B7
330
1F
100
AcDbEntity
  8
0
  6
Continuous
 62
     7
370
    25
100
AcDbLine
 10
312.7433501725
 20
103.534326678
 30
0.0
 11
312.7433501725
 21
103.0422758704
 31
0.0
  0
LINE
  5
3B8
330
1F
100
AcDbEntity
  8
0
  6
Continuous
 62
     7
370
    25
100
AcDbLine
 10
512.7433501725
 20
103.534326678
 30
0.0
 11
512.7433501725
 21
103.0422758704
 31
0.0
  0
LINE
  5
3B9
330
1F
100
AcDbEntity
  8
0
  6
Continuous
 62
     7
370
    25
100
AcDbLine
 10
512.7433501725
 20
103.0422758704
 30
0.0
 11
515.2433501725
 21
103.0422758704
 31
0.0
  0
LINE
  5
3BA
330
1F
100
AcDbEntity
  8
0
  6
Continuous
 62
     7
370
    25
100
AcDbLine
 10
515.2433501725
 20
103.0422758704
 30
0.0
 11
515.2433501725
 21
119.1722758704
 31
0.0
  0
ARC
  5
3BB
330
1F
100
AcDbEntity
  8
0
  6
Continuous
 62
     7
370
    25
100
AcDbCircle
 10
518.2433501725
 20
119.1722758704
 30
0.0
 40
3.0
100
AcDbArc
 50
90.0
 51
180.0
  0
LINE
  5
3BC
330
1F
100
AcDbEntity
  8
0
  6
Continuous
 62
     7
370
    25
100
AcDbLine
 10
602.7433501725
 20
122.1722758704
 30
0.0
 11
518.2433501725
 21
122.1722758704
 31
0.0
  0
ARC
  5
3BD
330
1F
100
AcDbEntity
  8
0
  6
Continuous
 62
     7
370
    25
100
AcDbCircle
 10
602.7433501725
 20
119.1722758704
 30
0.0
 40
3.0
100
AcDbArc
 50
0.0
 51
90.0
  0
LINE
  5
3BE
330
1F
100
AcDbEntity
  8
0
  6
Continuous
 62
     7
370
    25
100
AcDbLine
 10
605.7433501725
 20
119.1722758704
 30
0.0
 11
605.7433501725
 21
103.0422758704
 31
0.0
  0
LINE
  5
3BF
330
1F
100
AcDbEntity
  8
0
  6
Continuous
 62
     7
370
    25
100
AcDbLine
 10
605.7433501725
 20
103.0422758704
 30
0.0
 11
608.2433501725
 21
103.0422758704
 31
0.0
  0
LINE
  5
3C0
330
1F
100
AcDbEntity
  8
0
  6
Continuous
 62
     7
370
    25
100
AcDbLine
 10
608.2433501725
 20
103.534326678
 30
0.0
 11
608.2433501725
 21
103.0422758704
 31
0.0
  0
LINE
  5
3C1
330
1F
100
AcDbEntity
  8
0
  6
Continuous
 62
     7
370
    25
100
AcDbLine
 10
808.2433501725
 20
103.534326678
 30
0.0
 11
808.2433501725
 21
103.0422758704
 31
0.0
  0
LINE
  5
3C2
330
1F
100
AcDbEntity
  8
0
  6
Continuous
 62
     7
370
    25
100
AcDbLine
 10
808.2433501725
 20
103.0422758704
 30
0.0
 11
810.7433501725
 21
103.0422758704
 31
0.0
  0
LINE
  5
3C3
330
1F
100
AcDbEntity
  8
0
  6
Continuous
 62
     7
370
    25
100
AcDbLine
 10
810.7433501725
 20
103.0422758704
 30
0.0
 11
810.7433501725
 21
119.1722758704
 31
0.0
  0
ARC
  5
3C4
330
1F
100
AcDbEntity
  8
0
  6
Continuous
 62
     7
370
    25
100
AcDbCircle
 10
813.7433501725
 20
119.1722758704
 30
0.0
 40
3.0
100
AcDbArc
 50
90.0
 51
180.0
  0
LINE
  5
3C5
330
1F
100
AcDbEntity
  8
0
  6
Continuous
 62
     7
370
    25
100
AcDbLine
 10
857.7433501725
 20
122.1722758704
 30
0.0
 11
813.7433501725
 21
122.1722758704
 31
0.0
  0
ARC
  5
3C6
330
1F
100
AcDbEntity
  8
0
  6
Continuous
 62
     7
370
    25
100
AcDbCircle
 10
857.7433501725
 20
119.1722758704
 30
0.0
 40
3.0
100
AcDbArc
 50
0.0
 51
90.0
  0
LINE
  5
3C7
330
1F
100
AcDbEntity
  8
0
  6
Continuous
 62
     7
370
    25
100
AcDbLine
 10
860.7433501725
 20
98.1722758704
 30
0.0
 11
860.7433501725
 21
119.1722758704
 31
0.0
  0
LINE
  5
3C8
330
1F
100
AcDbEntity
  8
0
  6
Continuous
 62
     7
370
    25
100
AcDbLine
 10
863.9433501725
 20
98.1722758704
 30
0.0
 11
860.7433501725
 21
98.1722758704
 31
0.0
  0
LINE
  5
3C9
330
1F
100
AcDbEntity
  8
0
  6
Continuous
 62
     7
370
    25
100
AcDbLine
 10
862.7433501725
 20
79.1722758704
 30
0.0
 11
863.9433501725
 21
79.1722758704
 31
0.0
  0
LINE
  5
3CA
330
1F
100
AcDbEntity
  8
0
  6
Continuous
 62
     7
370
    25
100
AcDbLine
 10
862.7433501725
 20
78.9722758704
 30
0.0
 11
862.7433501725
 21
79.1722758704
 31
0.0
  0
SPLINE
  5
3CB
330
1F
100
AcDbEntity
  8
0
  6
Continuous
 62
     7
370
    25
100
AcDbSpline
210
0.0
220
0.0
230
1.0
 70
     8
 71
     3
 72
    14
 73
    10
 74
     0
 42
0.000000001
 43
0.00000001
 40
0.0
 40
0.0
 40
0.0
 40
0.0
 40
0.25
 40
0.25
 40
0.5
 40
0.5
 40
0.75
 40
0.75
 40
1.0
 40
1.0
 40
1.0
 40
1.0
 10
847.3790898953329
 20
80.7575958850475
 30
0.0
 10
847.4311476042236
 20
80.8524704943581
 30
0.0
 10
847.4844811425519
 20
80.93207541923387
 30
0.0
 10
847.5914131501797
 20
81.04091203412807
 30
0.0
 10
847.6451665166273
 20
81.07023563981859
 30
0.0
 10
847.753345568051
 20
81.07017085807298
 30
0.0
 10
847.8081742646391
 20
81.04001466474662
 30
0.0
 10
847.915081247299
 20
80.93042946338092
 30
0.0
 10
847.9675027622712
 20
80.85188648957873
 30
0.0
 10
848.0192400276734
 20
80.75759588504748
 30
0.0
  0
SPLINE
  5
3CC
330
1F
100
AcDbEntity
  8
0
  6
Continuous
 62
     7
370
    25
100
AcDbSpline
210
0.0
220
0.0
230
1.0
 70
     8
 71
     3
 72
    12
 73
     8
 74
     0
 42
0.000000001
 43
0.00000001
 40
0.0
 40
0.0
 40
0.0
 40
0.0
 40
0.5000000000000171
 40
0.5000000000000171
 40
0.7500000000000085
 40
0.7500000000000085
 40
1.0
 40
1.0
 40
1.0
 40
1.0
 10
847.3790898953331
 20
80.75759588504847
 30
0.0
 10
846.7625595054129
 20
80.948090174472
 30
0.0
 10
846.1367916329629
 20
81.06976458753437
 30
0.0
 10
845.173729923578
 20
81.07042077806561
 30
0.0
 10
844.8530368884483
 20
81.04058677627121
 30
0.0
 10
844.2230786384523
 20
80.93165690616364
 30
0.0
 10
843.9118493704215
 20
80.85296171910075
 30
0.0
 10
843.6032000401368
 20
80.75759588504799
 30
0.0
  0
SPLINE
  5
3CD
330
1F
100
AcDbEntity
  8
0
  6
Continuous
 62
     7
370
    25
100
AcDbSpline
210
0.0
220
0.0
230
1.0
 70
     8
 71
     3
 72
    12
 73
     8
 74
     0
 42
0.000000001
 43
0.00000001
 40
0.0
 40
0.0
 40
0.0
 40
0.0
 40
0.5000000000000031
 40
0.5000000000000031
 40
0.7500000000000016
 40
0.7500000000000016
 40
1.0
 40
1.0
 40
1.0
 40
1.0
 10
843.603200040137
 20
80.75759588504846
 30
0.0
 10
843.0911938884321
 20
80.94809017447199
 30
0.0
 10
842.5715163421637
 20
81.06976458753437
 30
0.0
 10
841.7717284846012
 20
81.0704207780656
 30
0.0
 10
841.5054045377534
 20
81.04058677627121
 30
0.0
 10
840.9822470347519
 20
80.93165690616362
 30
0.0
 10
840.7237824036035
 20
80.85296171910073
 30
0.0
 10
840.4674603172815
 20
80.75759588504798
 30
0.0
  0
SPLINE
  5
3CE
330
1F
100
AcDbEntity
  8
0
  6
Continuous
 62
     7
370
    25
100
AcDbSpline
210
0.0
220
0.0
230
1.0
 70
     8
 71
     3
 72
     9
 73
     5
 74
     0
 42
0.000000001
 43
0.00000001
 40
0.0
 40
0.0
 40
0.0
 40
0.0
 40
0.3722348086954485
 40
1.0
 40
1.0
 40
1.0
 40
1.0
 10
840.4674603172815
 20
80.7575958850475
 30
0.0
 10
840.4954265509533
 20
80.80952019382109
 30
0.0
 10
840.5705571755443
 20
80.94901361990759
 30
0.0
 10
840.6491010337008
 20
80.9570223460127
 30
0.0
 10
840.6984081338422
 20
80.96204994548819
 30
0.0
  0
LINE
  5
3CF
330
1F
100
AcDbEntity
  8
0
  6
Continuous
 62
     7
370
    25
100
AcDbLine
 10
847.3933501725
 20
81.2722758704
 30
0.0
 11
841.0933501725
 21
81.2722758704
 31
0.0
  0
LINE
  5
3D0
330
1F
100
AcDbEntity
  8
0
  6
Continuous
 62
     7
370
    25
100
AcDbLine
 10
847.3790898953
 20
80.757595885
 30
0.0
 11
847.3790898953
 21
78.5869558558
 31
0.0
  0
SPLINE
  5
3D1
330
1F
100
AcDbEntity
  8
0
  6
Continuous
 62
     7
370
    25
100
AcDbSpline
210
0.0
220
0.0
230
1.0
 70
     8
 71
     3
 72
    12
 73
     8
 74
     0
 42
0.000000001
 43
0.00000001
 40
0.0
 40
0.0
 40
0.0
 40
0.0
 40
0.5000000000000207
 40
0.5000000000000207
 40
0.7500000000000103
 40
0.7500000000000103
 40
1.0
 40
1.0
 40
1.0
 40
1.0
 10
843.6032000401368
 20
78.58695585581853
 30
0.0
 10
844.2197304300571
 20
78.39646156639502
 30
0.0
 10
844.8454983025068
 20
78.27478715333264
 30
0.0
 10
845.8085600118917
 20
78.27413096280141
 30
0.0
 10
846.1292530470214
 20
78.30396496459579
 30
0.0
 10
846.7592112970174
 20
78.4128948347034
 30
0.0
 10
847.0704405650483
 20
78.49159002176629
 30
0.0
 10
847.3790898953329
 20
78.58695585581903
 30
0.0
  0
LINE
  5
3D2
330
1F
100
AcDbEntity
  8
0
  6
Continuous
 62
     7
370
    25
100
AcDbLine
 10
843.6032000401
 20
80.757595885
 30
0.0
 11
843.6032000401
 21
78.5869558558
 31
0.0
  0
SPLINE
  5
3D3
330
1F
100
AcDbEntity
  8
0
  6
Continuous
 62
     7
370
    25
100
AcDbSpline
210
0.0
220
0.0
230
1.0
 70
     8
 71
     3
 72
     9
 73
     5
 74
     0
 42
0.000000001
 43
0.00000001
 40
0.0
 40
0.0
 40
0.0
 40
0.0
 40
0.6277651913045451
 40
1.0
 40
1.0
 40
1.0
 40
1.0
 10
840.6984081338423
 20
78.38250179537884
 30
0.0
 10
840.6491010337008
 20
78.38752939485433
 30
0.0
 10
840.5705571755442
 20
78.39553812095944
 30
0.0
 10
840.4954265509534
 20
78.53503154704595
 30
0.0
 10
840.4674603172815
 20
78.58695585581953
 30
0.0
  0
SPLINE
  5
3D4
330
1F
100
AcDbEntity
  8
0
  6
Continuous
 62
     7
370
    25
100
AcDbSpline
210
0.0
220
0.0
230
1.0
 70
     8
 71
     3
 72
    12
 73
     8
 74
     0
 42
0.000000001
 43
0.00000001
 40
0.0
 40
0.0
 40
0.0
 40
0.0
 40
0.5000000000000031
 40
0.5000000000000031
 40
0.7500000000000016
 40
0.7500000000000016
 40
1.0
 40
1.0
 40
1.0
 40
1.0
 10
840.4674603172815
 20
78.58695585581854
 30
0.0
 10
840.9794664689863
 20
78.39646156639503
 30
0.0
 10
841.4991440152546
 20
78.27478715333267
 30
0.0
 10
842.2989318728169
 20
78.27413096280142
 30
0.0
 10
842.5652558196653
 20
78.3039649645958
 30
0.0
 10
843.0884133226667
 20
78.4128948347034
 30
0.0
 10
843.3468779538149
 20
78.49159002176629
 30
0.0
 10
843.603200040137
 20
78.58695585581903
 30
0.0
  0
SPLINE
  5
3D5
330
1F
100
AcDbEntity
  8
0
  6
Continuous
 62
     7
370
    25
100
AcDbSpline
210
0.0
220
0.0
230
1.0
 70
     8
 71
     3
 72
    14
 73
    10
 74
     0
 42
0.000000001
 43
0.00000001
 40
0.0
 40
0.0
 40
0.0
 40
0.0
 40
0.25
 40
0.25
 40
0.5
 40
0.5
 40
0.75
 40
0.75
 40
1.0
 40
1.0
 40
1.0
 40
1.0
 10
847.3790898953329
 20
78.58695585581951
 30
0.0
 10
847.4311476042236
 20
78.4920812465089
 30
0.0
 10
847.4844811425519
 20
78.41247632163316
 30
0.0
 10
847.5914131501797
 20
78.30363970673892
 30
0.0
 10
847.6451665166273
 20
78.27431610104843
 30
0.0
 10
847.753345568051
 20
78.27438088279403
 30
0.0
 10
847.8081742646391
 20
78.3045370761204
 30
0.0
 10
847.915081247299
 20
78.4141222774861
 30
0.0
 10
847.9675027622712
 20
78.49266525128827
 30
0.0
 10
848.0192400276734
 20
78.58695585581953
 30
0.0
  0
LINE
  5
3D6
330
1F
100
AcDbEntity
  8
0
  6
Continuous
 62
     7
370
    25
100
AcDbLine
 10
847.3933501725
 20
78.0722758704
 30
0.0
 11
841.0933501725
 21
78.0722758704
 31
0.0
  0
LINE
  5
3D7
330
1F
100
AcDbEntity
  8
0
  6
Continuous
 62
     7
370
    25
100
AcDbLine
 10
840.4674603173
 20
80.757595885
 30
0.0
 11
840.4674603173
 21
78.5869558558
 31
0.0
  0
LINE
  5
3D8
330
1F
100
AcDbEntity
  8
0
  6
Continuous
 62
     7
370
    25
100
AcDbLine
 10
848.0192400277
 20
80.757595885
 30
0.0
 11
848.0192400277
 21
78.5869558558
 31
0.0
  0
SPLINE
  5
3D9
330
1F
100
AcDbEntity
  8
0
  6
Continuous
 62
     7
370
    25
100
AcDbSpline
210
0.0
220
0.0
230
1.0
 70
     8
 71
     3
 72
    12
 73
     8
 74
     0
 42
0.000000001
 43
0.00000001
 40
0.0
 40
0.0
 40
0.0
 40
0.0
 40
0.5000000000000077
 40
0.5000000000000077
 40
0.7500000000000038
 40
0.7500000000000038
 40
1.0
 40
1.0
 40
1.0
 40
1.0
 10
264.379089895333
 20
80.75759588504852
 30
0.0
 10
263.7625595054127
 20
80.94809017447204
 30
0.0
 10
263.136791632963
 20
81.06976458753441
 30
0.0
 10
262.1737299235781
 20
81.07042077806564
 30
0.0
 10
261.8530368884483
 20
81.04058677627125
 30
0.0
 10
261.2230786384524
 20
80.93165690616367
 30
0.0
 10
260.9118493704216
 20
80.85296171910078
 30
0.0
 10
260.6032000401368
 20
80.75759588504803
 30
0.0
  0
LINE
  5
3DA
330
1F
100
AcDbEntity
  8
0
  6
Continuous
 62
     7
370
    25
100
AcDbLine
 10
264.3790898953
 20
80.757595885
 30
0.0
 11
264.3790898953
 21
78.5869558558
 31
0.0
  0
SPLINE
  5
3DB
330
1F
100
AcDbEntity
  8
0
  6
Continuous
 62
     7
370
    25
100
AcDbSpline
210
0.0
220
0.0
230
1.0
 70
     8
 71
     3
 72
    12
 73
     8
 74
     0
 42
0.000000001
 43
0.00000001
 40
0.0
 40
0.0
 40
0.0
 40
0.0
 40
0.4999999999999887
 40
0.4999999999999887
 40
0.7499999999999943
 40
0.7499999999999943
 40
1.0
 40
1.0
 40
1.0
 40
1.0
 10
260.6032000401368
 20
78.58695585581857
 30
0.0
 10
261.2197304300571
 20
78.39646156639505
 30
0.0
 10
261.8454983025069
 20
78.27478715333268
 30
0.0
 10
262.8085600118917
 20
78.27413096280145
 30
0.0
 10
263.1292530470214
 20
78.30396496459582
 30
0.0
 10
263.7592112970174
 20
78.41289483470342
 30
0.0
 10
264.0704405650483
 20
78.4915900217663
 30
0.0
 10
264.3790898953329
 20
78.58695585581904
 30
0.0
  0
LINE
  5
3DC
330
1F
100
AcDbEntity
  8
0
  6
Continuous
 62
     7
370
    25
100
AcDbLine
 10
260.6032000401
 20
80.757595885
 30
0.0
 11
260.6032000401
 21
78.5869558558
 31
0.0
  0
SPLINE
  5
3DD
330
1F
100
AcDbEntity
  8
0
  6
Continuous
 62
     7
370
    25
100
AcDbSpline
210
0.0
220
0.0
230
1.0
 70
     8
 71
     3
 72
    14
 73
    10
 74
     0
 42
0.000000001
 43
0.00000001
 40
0.0
 40
0.0
 40
0.0
 40
0.0
 40
0.25
 40
0.25
 40
0.5
 40
0.5
 40
0.75
 40
0.75
 40
1.0
 40
1.0
 40
1.0
 40
1.0
 10
264.3790898953329
 20
80.75759588504755
 30
0.0
 10
264.4311476042237
 20
80.85247049435814
 30
0.0
 10
264.4844811425517
 20
80.93207541923391
 30
0.0
 10
264.5914131501799
 20
81.04091203412814
 30
0.0
 10
264.6451665166274
 20
81.07023563981863
 30
0.0
 10
264.7533455680511
 20
81.07017085807304
 30
0.0
 10
264.8081742646391
 20
81.04001466474668
 30
0.0
 10
264.9150812472989
 20
80.93042946338097
 30
0.0
 10
264.9675027622714
 20
80.85188648957879
 30
0.0
 10
265.0192400276734
 20
80.75759588504754
 30
0.0
  0
SPLINE
  5
3DE
330
1F
100
AcDbEntity
  8
0
  6
Continuous
 62
     7
370
    25
100
AcDbSpline
210
0.0
220
0.0
230
1.0
 70
     8
 71
     3
 72
    12
 73
     8
 74
     0
 42
0.000000001
 43
0.00000001
 40
0.0
 40
0.0
 40
0.0
 40
0.0
 40
0.4999999999999921
 40
0.4999999999999921
 40
0.749999999999996
 40
0.749999999999996
 40
1.0
 40
1.0
 40
1.0
 40
1.0
 10
260.603200040137
 20
80.75759588504852
 30
0.0
 10
260.0911938884321
 20
80.94809017447204
 30
0.0
 10
259.5715163421638
 20
81.0697645875344
 30
0.0
 10
258.7717284846013
 20
81.07042077806564
 30
0.0
 10
258.5054045377533
 20
81.04058677627125
 30
0.0
 10
257.9822470347519
 20
80.93165690616367
 30
0.0
 10
257.7237824036035
 20
80.85296171910078
 30
0.0
 10
257.4674603172815
 20
80.75759588504803
 30
0.0
  0
SPLINE
  5
3DF
330
1F
100
AcDbEntity
  8
0
  6
Continuous
 62
     7
370
    25
100
AcDbSpline
210
0.0
220
0.0
230
1.0
 70
     8
 71
     3
 72
     9
 73
     5
 74
     0
 42
0.000000001
 43
0.00000001
 40
0.0
 40
0.0
 40
0.0
 40
0.0
 40
0.3722348086954467
 40
1.0
 40
1.0
 40
1.0
 40
1.0
 10
257.4674603172816
 20
80.75759588504754
 30
0.0
 10
257.4954265509534
 20
80.80952019382111
 30
0.0
 10
257.5705571755442
 20
80.94901361990763
 30
0.0
 10
257.6491010337007
 20
80.95702234601275
 30
0.0
 10
257.6984081338423
 20
80.96204994548822
 30
0.0
  0
LINE
  5
3E0
330
1F
100
AcDbEntity
  8
0
  6
Continuous
 62
     7
370
    25
100
AcDbLine
 10
264.3933501725
 20
81.2722758704
 30
0.0
 11
258.0933501725
 21
81.2722758704
 31
0.0
  0
SPLINE
  5
3E1
330
1F
100
AcDbEntity
  8
0
  6
Continuous
 62
     7
370
    25
100
AcDbSpline
210
0.0
220
0.0
230
1.0
 70
     8
 71
     3
 72
     9
 73
     5
 74
     0
 42
0.000000001
 43
0.00000001
 40
0.0
 40
0.0
 40
0.0
 40
0.0
 40
0.6277651913045433
 40
1.0
 40
1.0
 40
1.0
 40
1.0
 10
257.6984081338423
 20
78.38250179537887
 30
0.0
 10
257.6491010337008
 20
78.38752939485435
 30
0.0
 10
257.5705571755442
 20
78.39553812095949
 30
0.0
 10
257.4954265509533
 20
78.53503154704597
 30
0.0
 10
257.4674603172816
 20
78.58695585581955
 30
0.0
  0
SPLINE
  5
3E2
330
1F
100
AcDbEntity
  8
0
  6
Continuous
 62
     7
370
    25
100
AcDbSpline
210
0.0
220
0.0
230
1.0
 70
     8
 71
     3
 72
    12
 73
     8
 74
     0
 42
0.000000001
 43
0.00000001
 40
0.0
 40
0.0
 40
0.0
 40
0.0
 40
0.5000000000000078
 40
0.5000000000000078
 40
0.7500000000000039
 40
0.7500000000000039
 40
1.0
 40
1.0
 40
1.0
 40
1.0
 10
257.4674603172815
 20
78.58695585581857
 30
0.0
 10
257.9794664689864
 20
78.39646156639505
 30
0.0
 10
258.4991440152547
 20
78.27478715333268
 30
0.0
 10
259.2989318728171
 20
78.27413096280145
 30
0.0
 10
259.5652558196653
 20
78.30396496459583
 30
0.0
 10
260.0884133226666
 20
78.41289483470342
 30
0.0
 10
260.3468779538148
 20
78.49159002176631
 30
0.0
 10
260.603200040137
 20
78.58695585581906
 30
0.0
  0
SPLINE
  5
3E3
330
1F
100
AcDbEntity
  8
0
  6
Continuous
 62
     7
370
    25
100
AcDbSpline
210
0.0
220
0.0
230
1.0
 70
     8
 71
     3
 72
    14
 73
    10
 74
     0
 42
0.000000001
 43
0.00000001
 40
0.0
 40
0.0
 40
0.0
 40
0.0
 40
0.25
 40
0.25
 40
0.5
 40
0.5
 40
0.75
 40
0.75
 40
1.0
 40
1.0
 40
1.0
 40
1.0
 10
264.3790898953329
 20
78.58695585581954
 30
0.0
 10
264.4311476042237
 20
78.49208124650892
 30
0.0
 10
264.4844811425517
 20
78.41247632163319
 30
0.0
 10
264.5914131501799
 20
78.30363970673895
 30
0.0
 10
264.6451665166274
 20
78.27431610104846
 30
0.0
 10
264.7533455680511
 20
78.27438088279405
 30
0.0
 10
264.8081742646391
 20
78.30453707612041
 30
0.0
 10
264.9150812472989
 20
78.41412227748611
 30
0.0
 10
264.9675027622714
 20
78.4926652512883
 30
0.0
 10
265.0192400276734
 20
78.58695585581955
 30
0.0
  0
LINE
  5
3E4
330
1F
100
AcDbEntity
  8
0
  6
Continuous
 62
     7
370
    25
100
AcDbLine
 10
264.3933501725
 20
78.0722758704
 30
0.0
 11
258.0933501725
 21
78.0722758704
 31
0.0
  0
LINE
  5
3E5
330
1F
100
AcDbEntity
  8
0
  6
Continuous
 62
     7
370
    25
100
AcDbLine
 10
257.4674603173
 20
80.757595885
 30
0.0
 11
257.4674603173
 21
78.5869558558
 31
0.0
  0
LINE
  5
3E6
330
1F
100
AcDbEntity
  8
0
  6
Continuous
 62
     7
370
    25
100
AcDbLine
 10
265.0192400277
 20
80.757595885
 30
0.0
 11
265.0192400277
 21
78.5869558558
 31
0.0
  0
SPLINE
  5
3E7
330
1F
100
AcDbEntity
  8
0
  6
Continuous
 62
     7
370
    25
100
AcDbSpline
210
0.0
220
0.0
230
1.0
 70
     8
 71
     3
 72
    14
 73
    10
 74
     0
 42
0.000000001
 43
0.00000001
 40
0.0
 40
0.0
 40
0.0
 40
0.0
 40
0.25
 40
0.25
 40
0.5
 40
0.5
 40
0.75
 40
0.75
 40
1.0
 40
1.0
 40
1.0
 40
1.0
 10
567.3790898953328
 20
80.75759588504751
 30
0.0
 10
567.4311476042236
 20
80.85247049435812
 30
0.0
 10
567.4844811425517
 20
80.93207541923388
 30
0.0
 10
567.5914131501798
 20
81.0409120341281
 30
0.0
 10
567.6451665166273
 20
81.0702356398186
 30
0.0
 10
567.7533455680511
 20
81.070170858073
 30
0.0
 10
567.808174264639
 20
81.04001466474664
 30
0.0
 10
567.915081247299
 20
80.93042946338093
 30
0.0
 10
567.9675027622712
 20
80.85188648957876
 30
0.0
 10
568.0192400276735
 20
80.7575958850475
 30
0.0
  0
SPLINE
  5
3E8
330
1F
100
AcDbEntity
  8
0
  6
Continuous
 62
     7
370
    25
100
AcDbSpline
210
0.0
220
0.0
230
1.0
 70
     8
 71
     3
 72
    12
 73
     8
 74
     0
 42
0.000000001
 43
0.00000001
 40
0.0
 40
0.0
 40
0.0
 40
0.0
 40
0.5000000000000077
 40
0.5000000000000077
 40
0.7500000000000038
 40
0.7500000000000038
 40
1.0
 40
1.0
 40
1.0
 40
1.0
 10
567.379089895333
 20
80.75759588504849
 30
0.0
 10
566.7625595054127
 20
80.948090174472
 30
0.0
 10
566.136791632963
 20
81.06976458753437
 30
0.0
 10
565.1737299235781
 20
81.0704207780656
 30
0.0
 10
564.8530368884484
 20
81.04058677627123
 30
0.0
 10
564.2230786384523
 20
80.93165690616364
 30
0.0
 10
563.9118493704214
 20
80.85296171910075
 30
0.0
 10
563.6032000401368
 20
80.75759588504799
 30
0.0
  0
SPLINE
  5
3E9
330
1F
100
AcDbEntity
  8
0
  6
Continuous
 62
     7
370
    25
100
AcDbSpline
210
0.0
220
0.0
230
1.0
 70
     8
 71
     3
 72
    12
 73
     8
 74
     0
 42
0.000000001
 43
0.00000001
 40
0.0
 40
0.0
 40
0.0
 40
0.0
 40
0.4999999999999921
 40
0.4999999999999921
 40
0.749999999999996
 40
0.749999999999996
 40
1.0
 40
1.0
 40
1.0
 40
1.0
 10
563.6032000401369
 20
80.75759588504849
 30
0.0
 10
563.0911938884323
 20
80.948090174472
 30
0.0
 10
562.5715163421638
 20
81.06976458753437
 30
0.0
 10
561.7717284846013
 20
81.0704207780656
 30
0.0
 10
561.5054045377533
 20
81.04058677627121
 30
0.0
 10
560.9822470347518
 20
80.93165690616364
 30
0.0
 10
560.7237824036036
 20
80.85296171910075
 30
0.0
 10
560.4674603172815
 20
80.75759588504799
 30
0.0
  0
SPLINE
  5
3EA
330
1F
100
AcDbEntity
  8
0
  6
Continuous
 62
     7
370
    25
100
AcDbSpline
210
0.0
220
0.0
230
1.0
 70
     8
 71
     3
 72
     9
 73
     5
 74
     0
 42
0.000000001
 43
0.00000001
 40
0.0
 40
0.0
 40
0.0
 40
0.0
 40
0.3722348086954455
 40
1.0
 40
1.0
 40
1.0
 40
1.0
 10
560.4674603172816
 20
80.7575958850475
 30
0.0
 10
560.4954265509534
 20
80.80952019382109
 30
0.0
 10
560.5705571755442
 20
80.94901361990759
 30
0.0
 10
560.6491010337008
 20
80.9570223460127
 30
0.0
 10
560.6984081338423
 20
80.96204994548819
 30
0.0
  0
LINE
  5
3EB
330
1F
100
AcDbEntity
  8
0
  6
Continuous
 62
     7
370
    25
100
AcDbLine
 10
567.3933501725
 20
81.2722758704
 30
0.0
 11
561.0933501725
 21
81.2722758704
 31
0.0
  0
LINE
  5
3EC
330
1F
100
AcDbEntity
  8
0
  6
Continuous
 62
     7
370
    25
100
AcDbLine
 10
567.3790898953
 20
80.757595885
 30
0.0
 11
567.3790898953
 21
78.5869558558
 31
0.0
  0
SPLINE
  5
3ED
330
1F
100
AcDbEntity
  8
0
  6
Continuous
 62
     7
370
    25
100
AcDbSpline
210
0.0
220
0.0
230
1.0
 70
     8
 71
     3
 72
    12
 73
     8
 74
     0
 42
0.000000001
 43
0.00000001
 40
0.0
 40
0.0
 40
0.0
 40
0.0
 40
0.4999999999999887
 40
0.4999999999999887
 40
0.7499999999999943
 40
0.7499999999999943
 40
1.0
 40
1.0
 40
1.0
 40
1.0
 10
563.6032000401367
 20
78.58695585581853
 30
0.0
 10
564.219730430057
 20
78.396461566395
 30
0.0
 10
564.8454983025068
 20
78.27478715333264
 30
0.0
 10
565.8085600118917
 20
78.27413096280141
 30
0.0
 10
566.1292530470214
 20
78.30396496459579
 30
0.0
 10
566.7592112970174
 20
78.41289483470338
 30
0.0
 10
567.0704405650483
 20
78.49159002176626
 30
0.0
 10
567.3790898953329
 20
78.58695585581901
 30
0.0
  0
LINE
  5
3EE
330
1F
100
AcDbEntity
  8
0
  6
Continuous
 62
     7
370
    25
100
AcDbLine
 10
563.6032000401
 20
80.757595885
 30
0.0
 11
563.6032000401
 21
78.5869558558
 31
0.0
  0
SPLINE
  5
3EF
330
1F
100
AcDbEntity
  8
0
  6
Continuous
 62
     7
370
    25
100
AcDbSpline
210
0.0
220
0.0
230
1.0
 70
     8
 71
     3
 72
     9
 73
     5
 74
     0
 42
0.000000001
 43
0.00000001
 40
0.0
 40
0.0
 40
0.0
 40
0.0
 40
0.6277651913045433
 40
1.0
 40
1.0
 40
1.0
 40
1.0
 10
560.6984081338423
 20
78.38250179537884
 30
0.0
 10
560.6491010337008
 20
78.38752939485433
 30
0.0
 10
560.5705571755442
 20
78.39553812095944
 30
0.0
 10
560.4954265509533
 20
78.53503154704595
 30
0.0
 10
560.4674603172815
 20
78.58695585581953
 30
0.0
  0
SPLINE
  5
3F0
330
1F
100
AcDbEntity
  8
0
  6
Continuous
 62
     7
370
    25
100
AcDbSpline
210
0.0
220
0.0
230
1.0
 70
     8
 71
     3
 72
    12
 73
     8
 74
     0
 42
0.000000001
 43
0.00000001
 40
0.0
 40
0.0
 40
0.0
 40
0.0
 40
0.5000000000000078
 40
0.5000000000000078
 40
0.7500000000000039
 40
0.7500000000000039
 40
1.0
 40
1.0
 40
1.0
 40
1.0
 10
560.4674603172815
 20
78.58695585581853
 30
0.0
 10
560.9794664689864
 20
78.39646156639502
 30
0.0
 10
561.4991440152546
 20
78.27478715333264
 30
0.0
 10
562.2989318728172
 20
78.27413096280141
 30
0.0
 10
562.5652558196653
 20
78.3039649645958
 30
0.0
 10
563.0884133226666
 20
78.4128948347034
 30
0.0
 10
563.3468779538149
 20
78.49159002176629
 30
0.0
 10
563.6032000401369
 20
78.58695585581901
 30
0.0
  0
SPLINE
  5
3F1
330
1F
100
AcDbEntity
  8
0
  6
Continuous
 62
     7
370
    25
100
AcDbSpline
210
0.0
220
0.0
230
1.0
 70
     8
 71
     3
 72
    14
 73
    10
 74
     0
 42
0.000000001
 43
0.00000001
 40
0.0
 40
0.0
 40
0.0
 40
0.0
 40
0.25
 40
0.25
 40
0.5
 40
0.5
 40
0.75
 40
0.75
 40
1.0
 40
1.0
 40
1.0
 40
1.0
 10
567.3790898953328
 20
78.58695585581951
 30
0.0
 10
567.4311476042236
 20
78.4920812465089
 30
0.0
 10
567.4844811425517
 20
78.41247632163315
 30
0.0
 10
567.5914131501798
 20
78.3036397067389
 30
0.0
 10
567.6451665166273
 20
78.27431610104841
 30
0.0
 10
567.7533455680511
 20
78.274380882794
 30
0.0
 10
567.808174264639
 20
78.30453707612037
 30
0.0
 10
567.915081247299
 20
78.41412227748609
 30
0.0
 10
567.9675027622712
 20
78.49266525128826
 30
0.0
 10
568.0192400276735
 20
78.58695585581951
 30
0.0
  0
LINE
  5
3F2
330
1F
100
AcDbEntity
  8
0
  6
Continuous
 62
     7
370
    25
100
AcDbLine
 10
567.3933501725
 20
78.0722758704
 30
0.0
 11
561.0933501725
 21
78.0722758704
 31
0.0
  0
LINE
  5
3F3
330
1F
100
AcDbEntity
  8
0
  6
Continuous
 62
     7
370
    25
100
AcDbLine
 10
560.4674603173
 20
80.757595885
 30
0.0
 11
560.4674603173
 21
78.5869558558
 31
0.0
  0
LINE
  5
3F4
330
1F
100
AcDbEntity
  8
0
  6
Continuous
 62
     7
370
    25
100
AcDbLine
 10
568.0192400277
 20
80.757595885
 30
0.0
 11
568.0192400277
 21
78.5869558558
 31
0.0
  0
SPLINE
  5
3F5
330
1F
100
AcDbEntity
  8
0
  6
Continuous
 62
     7
370
    25
100
AcDbSpline
210
0.0
220
0.0
230
1.0
 70
     8
 71
     3
 72
    14
 73
    10
 74
     0
 42
0.000000001
 43
0.00000001
 40
0.0
 40
0.0
 40
0.0
 40
0.0
 40
0.25
 40
0.25
 40
0.5
 40
0.5
 40
0.75
 40
0.75
 40
1.0
 40
1.0
 40
1.0
 40
1.0
 10
-15.62091010466715
 20
80.75759588504756
 30
0.0
 10
-15.56885239577627
 20
80.85247049435817
 30
0.0
 10
-15.51551885744823
 20
80.93207541923393
 30
0.0
 10
-15.40858684982011
 20
81.04091203412816
 30
0.0
 10
-15.35483348337263
 20
81.07023563981866
 30
0.0
 10
-15.24665443194884
 20
81.07017085807306
 30
0.0
 10
-15.19182573536088
 20
81.04001466474669
 30
0.0
 10
-15.08491875270107
 20
80.93042946338099
 30
0.0
 10
-15.0324972377287
 20
80.8518864895788
 30
0.0
 10
-14.98075997232656
 20
80.75759588504755
 30
0.0
  0
SPLINE
  5
3F6
330
1F
100
AcDbEntity
  8
0
  6
Continuous
 62
     7
370
    25
100
AcDbSpline
210
0.0
220
0.0
230
1.0
 70
     8
 71
     3
 72
    12
 73
     8
 74
     0
 42
0.000000001
 43
0.00000001
 40
0.0
 40
0.0
 40
0.0
 40
0.0
 40
0.5000000000000171
 40
0.5000000000000171
 40
0.7500000000000085
 40
0.7500000000000085
 40
1.0
 40
1.0
 40
1.0
 40
1.0
 10
-15.62091010466698
 20
80.75759588504854
 30
0.0
 10
-16.2374404945872
 20
80.94809017447207
 30
0.0
 10
-16.86320836703709
 20
81.06976458753444
 30
0.0
 10
-17.8262700764219
 20
81.07042077806568
 30
0.0
 10
-18.14696311155178
 20
81.0405867762713
 30
0.0
 10
-18.77692136154763
 20
80.9316569061637
 30
0.0
 10
-19.08815062957858
 20
80.85296171910083
 30
0.0
 10
-19.39679995986315
 20
80.75759588504808
 30
0.0
  0
SPLINE
  5
3F7
330
1F
100
AcDbEntity
  8
0
  6
Continuous
 62
     7
370
    25
100
AcDbSpline
210
0.0
220
0.0
230
1.0
 70
     8
 71
     3
 72
    12
 73
     8
 74
     0
 42
0.000000001
 43
0.00000001
 40
0.0
 40
0.0
 40
0.0
 40
0.0
 40
0.5000000000000031
 40
0.5000000000000031
 40
0.7500000000000016
 40
0.7500000000000016
 40
1.0
 40
1.0
 40
1.0
 40
1.0
 10
-19.39679995986299
 20
80.75759588504854
 30
0.0
 10
-19.90880611156792
 20
80.94809017447206
 30
0.0
 10
-20.42848365783617
 20
81.06976458753444
 30
0.0
 10
-21.22827151539863
 20
81.07042077806567
 30
0.0
 10
-21.49459546224669
 20
81.04058677627128
 30
0.0
 10
-22.01775296524816
 20
80.9316569061637
 30
0.0
 10
-22.27621759639653
 20
80.8529617191008
 30
0.0
 10
-22.53253968271851
 20
80.75759588504805
 30
0.0
  0
SPLINE
  5
3F8
330
1F
100
AcDbEntity
  8
0
  6
Continuous
 62
     7
370
    25
100
AcDbSpline
210
0.0
220
0.0
230
1.0
 70
     8
 71
     3
 72
     9
 73
     5
 74
     0
 42
0.000000001
 43
0.00000001
 40
0.0
 40
0.0
 40
0.0
 40
0.0
 40
0.3722348086954462
 40
1.0
 40
1.0
 40
1.0
 40
1.0
 10
-22.53253968271845
 20
80.75759588504756
 30
0.0
 10
-22.50457344904672
 20
80.80952019382114
 30
0.0
 10
-22.42944282445591
 20
80.94901361990766
 30
0.0
 10
-22.35089896629927
 20
80.95702234601278
 30
0.0
 10
-22.30159186615765
 20
80.96204994548825
 30
0.0
  0
LINE
  5
3F9
330
1F
100
AcDbEntity
  8
0
  6
Continuous
 62
     7
370
    25
100
AcDbLine
 10
-15.6066498275
 20
81.2722758704
 30
0.0
 11
-21.9066498275
 21
81.2722758704
 31
0.0
  0
LINE
  5
3FA
330
1F
100
AcDbEntity
  8
0
  6
Continuous
 62
     7
370
    25
100
AcDbLine
 10
-15.6209101047
 20
80.757595885
 30
0.0
 11
-15.6209101047
 21
78.5869558558
 31
0.0
  0
SPLINE
  5
3FB
330
1F
100
AcDbEntity
  8
0
  6
Continuous
 62
     7
370
    25
100
AcDbSpline
210
0.0
220
0.0
230
1.0
 70
     8
 71
     3
 72
    12
 73
     8
 74
     0
 42
0.000000001
 43
0.00000001
 40
0.0
 40
0.0
 40
0.0
 40
0.0
 40
0.5000000000000207
 40
0.5000000000000207
 40
0.7500000000000103
 40
0.7500000000000103
 40
1.0
 40
1.0
 40
1.0
 40
1.0
 10
-19.39679995986321
 20
78.5869558558186
 30
0.0
 10
-18.78026956994294
 20
78.39646156639509
 30
0.0
 10
-18.15450169749316
 20
78.27478715333271
 30
0.0
 10
-17.19143998810835
 20
78.27413096280148
 30
0.0
 10
-16.87074695297852
 20
78.30396496459588
 30
0.0
 10
-16.24078870298262
 20
78.41289483470345
 30
0.0
 10
-15.92955943495167
 20
78.49159002176634
 30
0.0
 10
-15.6209101046671
 20
78.5869558558191
 30
0.0
  0
LINE
  5
3FC
330
1F
100
AcDbEntity
  8
0
  6
Continuous
 62
     7
370
    25
100
AcDbLine
 10
-19.3967999599
 20
80.757595885
 30
0.0
 11
-19.3967999599
 21
78.5869558558
 31
0.0
  0
SPLINE
  5
3FD
330
1F
100
AcDbEntity
  8
0
  6
Continuous
 62
     7
370
    25
100
AcDbSpline
210
0.0
220
0.0
230
1.0
 70
     8
 71
     3
 72
     9
 73
     5
 74
     0
 42
0.000000001
 43
0.00000001
 40
0.0
 40
0.0
 40
0.0
 40
0.0
 40
0.6277651913045472
 40
1.0
 40
1.0
 40
1.0
 40
1.0
 10
-22.30159186615765
 20
78.3825017953789
 30
0.0
 10
-22.35089896629911
 20
78.38752939485438
 30
0.0
 10
-22.4294428244558
 20
78.3955381209595
 30
0.0
 10
-22.50457344904683
 20
78.53503154704602
 30
0.0
 10
-22.53253968271845
 20
78.5869558558196
 30
0.0
  0
SPLINE
  5
3FE
330
1F
100
AcDbEntity
  8
0
  6
Continuous
 62
     7
370
    25
100
AcDbSpline
210
0.0
220
0.0
230
1.0
 70
     8
 71
     3
 72
    12
 73
     8
 74
     0
 42
0.000000001
 43
0.00000001
 40
0.0
 40
0.0
 40
0.0
 40
0.0
 40
0.5000000000000031
 40
0.5000000000000031
 40
0.7500000000000016
 40
0.7500000000000016
 40
1.0
 40
1.0
 40
1.0
 40
1.0
 10
-22.53253968271857
 20
78.58695585581863
 30
0.0
 10
-22.0205335310138
 20
78.3964615663951
 30
0.0
 10
-21.50085598474532
 20
78.27478715333272
 30
0.0
 10
-20.70106812718286
 20
78.27413096280148
 30
0.0
 10
-20.43474418033497
 20
78.30396496459588
 30
0.0
 10
-19.91158667733339
 20
78.41289483470348
 30
0.0
 10
-19.65312204618519
 20
78.49159002176636
 30
0.0
 10
-19.39679995986304
 20
78.5869558558191
 30
0.0
  0
SPLINE
  5
3FF
330
1F
100
AcDbEntity
  8
0
  6
Continuous
 62
     7
370
    25
100
AcDbSpline
210
0.0
220
0.0
230
1.0
 70
     8
 71
     3
 72
    14
 73
    10
 74
     0
 42
0.000000001
 43
0.00000001
 40
0.0
 40
0.0
 40
0.0
 40
0.0
 40
0.25
 40
0.25
 40
0.5
 40
0.5
 40
0.75
 40
0.75
 40
1.0
 40
1.0
 40
1.0
 40
1.0
 10
-15.62091010466715
 20
78.5869558558196
 30
0.0
 10
-15.56885239577627
 20
78.49208124650897
 30
0.0
 10
-15.51551885744823
 20
78.41247632163324
 30
0.0
 10
-15.40858684982011
 20
78.303639706739
 30
0.0
 10
-15.35483348337263
 20
78.2743161010485
 30
0.0
 10
-15.24665443194884
 20
78.2743808827941
 30
0.0
 10
-15.19182573536088
 20
78.30453707612047
 30
0.0
 10
-15.08491875270107
 20
78.41412227748617
 30
0.0
 10
-15.0324972377287
 20
78.49266525128834
 30
0.0
 10
-14.98075997232656
 20
78.5869558558196
 30
0.0
  0
LINE
  5
400
330
1F
100
AcDbEntity
  8
0
  6
Continuous
 62
     7
370
    25
100
AcDbLine
 10
-15.6066498275
 20
78.0722758704
 30
0.0
 11
-21.9066498275
 21
78.0722758704
 31
0.0
  0
LINE
  5
401
330
1F
100
AcDbEntity
  8
0
  6
Continuous
 62
     7
370
    25
100
AcDbLine
 10
-22.5325396827
 20
80.757595885
 30
0.0
 11
-22.5325396827
 21
78.5869558558
 31
0.0
  0
LINE
  5
402
330
1F
100
AcDbEntity
  8
0
  6
Continuous
 62
     7
370
    25
100
AcDbLine
 10
-14.9807599723
 20
80.757595885
 30
0.0
 11
-14.9807599723
 21
78.5869558558
 31
0.0
  0
LINE
  5
403
330
1F
100
AcDbEntity
  8
0
  6
Continuous
 62
     7
370
    25
100
AcDbLine
 10
-38.7566498275
 20
77.1722758704
 30
0.0
 11
864.2433501725
 21
77.1722758704
 31
0.0
  0
LINE
  5
404
330
1F
100
AcDbEntity
  8
0
  6
Continuous
 62
     7
370
    25
100
AcDbLine
 10
864.2433501725
 20
77.1722758704
 30
0.0
 11
864.2433501725
 21
75.3722758704
 31
0.0
  0
LINE
  5
405
330
1F
100
AcDbEntity
  8
0
  6
Continuous
 62
     7
370
    25
100
AcDbLine
 10
-38.7566498275
 20
75.3722758704
 30
0.0
 11
-38.7566498275
 21
77.1722758704
 31
0.0
  0
LINE
  5
406
330
1F
100
AcDbEntity
  8
0
  6
Continuous
 62
     7
370
    25
100
AcDbLine
 10
-39.6775800601
 20
65.4722758704
 30
0.0
 11
-38.7566498275
 21
75.3722758704
 31
0.0
  0
LINE
  5
407
330
1F
100
AcDbEntity
  8
0
  6
Continuous
 62
     7
370
    25
100
AcDbLine
 10
864.2433501725
 20
75.3722758704
 30
0.0
 11
865.164280405
 21
65.4722758704
 31
0.0
  0
LINE
  5
408
330
1F
100
AcDbEntity
  8
0
  6
Continuous
 62
     7
370
    25
100
AcDbLine
 10
-39.7566498275
 20
64.6222758704
 30
0.0
 11
-39.6775800601
 21
65.4722758704
 31
0.0
  0
LINE
  5
409
330
1F
100
AcDbEntity
  8
0
  6
Continuous
 62
     7
370
    25
100
AcDbLine
 10
865.164280405
 20
65.4722758704
 30
0.0
 11
865.2433501725
 21
64.6222758704
 31
0.0
  0
LINE
  5
40A
330
1F
100
AcDbEntity
  8
0
  6
Continuous
 62
     7
370
    25
100
AcDbLine
 10
843.9265580143
 20
86.3722758704
 30
0.0
 11
846.2433501725
 21
86.3722758704
 31
0.0
  0
LINE
  5
40B
330
1F
100
AcDbEntity
  8
0
  6
Continuous
 62
     7
370
    25
100
AcDbLine
 10
842.2433501725
 20
86.3722758704
 30
0.0
 11
843.9265580143
 21
86.3722758704
 31
0.0
  0
LINE
  5
40C
330
1F
100
AcDbEntity
  8
0
  6
Continuous
 62
     7
370
    25
100
AcDbLine
 10
260.9265580143
 20
86.3722758704
 30
0.0
 11
263.2433501725
 21
86.3722758704
 31
0.0
  0
LINE
  5
40D
330
1F
100
AcDbEntity
  8
0
  6
Continuous
 62
     7
370
    25
100
AcDbLine
 10
259.2433501725
 20
86.3722758704
 30
0.0
 11
260.9265580143
 21
86.3722758704
 31
0.0
  0
LINE
  5
40E
330
1F
100
AcDbEntity
  8
0
  6
Continuous
 62
     7
370
    25
100
AcDbLine
 10
563.9265580143
 20
86.3722758704
 30
0.0
 11
566.2433501725
 21
86.3722758704
 31
0.0
  0
LINE
  5
40F
330
1F
100
AcDbEntity
  8
0
  6
Continuous
 62
     7
370
    25
100
AcDbLine
 10
562.2433501725
 20
86.3722758704
 30
0.0
 11
563.9265580143
 21
86.3722758704
 31
0.0
  0
LINE
  5
410
330
1F
100
AcDbEntity
  8
0
  6
Continuous
 62
     7
370
    25
100
AcDbLine
 10
-19.0734419857
 20
86.3722758704
 30
0.0
 11
-16.7566498275
 21
86.3722758704
 31
0.0
  0
LINE
  5
411
330
1F
100
AcDbEntity
  8
0
  6
Continuous
 62
     7
370
    25
100
AcDbLine
 10
-20.7566498275
 20
86.3722758704
 30
0.0
 11
-19.0734419857
 21
86.3722758704
 31
0.0
  0
LINE
  5
412
330
1F
100
AcDbEntity
  8
0
  6
Continuous
 62
     7
370
    25
100
AcDbLine
 10
865.7433501725
 20
97.5722758704
 30
0.0
 11
866.7433501725
 21
97.5722758704
 31
0.0
  0
LINE
  5
413
330
1F
100
AcDbEntity
  8
0
  6
Continuous
 62
     7
370
    25
100
AcDbLine
 10
866.7433501725
 20
97.5722758704
 30
0.0
 11
866.7433501725
 21
95.5722758704
 31
0.0
  0
LINE
  5
414
330
1F
100
AcDbEntity
  8
0
  6
Continuous
 62
     7
370
    25
100
AcDbLine
 10
864.7433501725
 20
79.1722758704
 30
0.0
 11
864.7433501725
 21
69.9972758704
 31
0.0
  0
LINE
  5
415
330
1F
100
AcDbEntity
  8
0
  6
Continuous
 62
     7
370
    25
100
AcDbLine
 10
866.7433501725
 20
95.5722758704
 30
0.0
 11
866.7433501725
 21
92.6722758704
 31
0.0
  0
LINE
  5
416
330
1F
100
AcDbEntity
  8
0
  6
Continuous
 62
     7
370
    25
100
AcDbLine
 10
866.7433501725
 20
86.6722758704
 30
0.0
 11
866.7433501725
 21
66.5722758704
 31
0.0
  0
LINE
  5
417
330
1F
100
AcDbEntity
  8
0
  6
Continuous
 62
     7
370
    25
100
AcDbLine
 10
866.7416830426
 20
66.4722758704
 30
0.0
 11
866.7433501725
 21
66.5722758704
 31
0.0
  0
LINE
  5
418
330
1F
100
AcDbEntity
  8
0
  6
Continuous
 62
     7
370
    25
100
AcDbLine
 10
866.8036575517
 20
97.5722758704
 30
0.0
 11
866.7433501725
 21
97.5722758704
 31
0.0
  0
LINE
  5
419
330
1F
100
AcDbEntity
  8
0
  6
Continuous
 62
     7
370
    25
100
AcDbLine
 10
866.7433501725
 20
81.5722758704
 30
0.0
 11
866.8036575517
 21
81.5722758704
 31
0.0
  0
LWPOLYLINE
  5
41A
330
1F
100
AcDbEntity
  8
0
  6
Continuous
 62
     7
370
    25
100
AcDbPolyline
 90
        9
 70
   128
 43
0.0
 10
869.3588965607
 20
95.5722758704
 10
869.3457529184
 20
95.9624565145
 10
869.3068270943
 20
96.3376427352
 10
869.2436149859
 20
96.6834163365
 10
869.1585457993
 20
96.9864894328
 10
869.0548886955
 20
97.235215095
 10
868.9366271588
 20
97.4200349355
 10
868.8083059138
 20
97.5338464312
 10
868.674856274
 20
97.5722758704
  0
LINE
  5
41B
330
1F
100
AcDbEntity
  8
0
  6
Continuous
 62
     7
370
    25
100
AcDbLine
 10
869.3588965607
 20
95.5722758704
 30
0.0
 11
869.3588965607
 21
92.6722758704
 31
0.0
  0
LINE
  5
41C
330
1F
100
AcDbEntity
  8
0
  6
Continuous
 62
     7
370
    25
100
AcDbLine
 10
869.3588965607
 20
86.6722758704
 30
0.0
 11
869.3588965607
 21
83.5722758704
 31
0.0
  0
LWPOLYLINE
  5
41D
330
1F
100
AcDbEntity
  8
0
  6
Continuous
 62
     7
370
    25
100
AcDbPolyline
 90
        9
 70
   128
 43
0.0
 10
868.674856274
 20
81.5722758704
 10
868.8083059138
 20
81.6107053096
 10
868.9366271588
 20
81.7245168054
 10
869.0548886955
 20
81.9093366458
 10
869.1585457993
 20
82.1580623081
 10
869.2436149859
 20
82.4611354044
 10
869.3068270943
 20
82.8069090057
 10
869.3457529184
 20
83.1820952264
 10
869.3588965607
 20
83.5722758704
  0
LINE
  5
41E
330
1F
100
AcDbEntity
  8
0
  6
Continuous
 62
     7
370
    25
100
AcDbLine
 10
868.674856274
 20
81.5722758704
 30
0.0
 11
866.8036575517
 21
81.5722758704
 31
0.0
  0
LINE
  5
41F
330
1F
100
AcDbEntity
  8
0
  6
Continuous
 62
     7
370
    25
100
AcDbLine
 10
866.8036575517
 20
97.5722758704
 30
0.0
 11
868.674856274
 21
97.5722758704
 31
0.0
  0
LINE
  5
420
330
1F
100
AcDbEntity
  8
0
  6
Continuous
 62
     7
370
    25
100
AcDbLine
 10
-41.2566498275
 20
97.5722758704
 30
0.0
 11
-40.2566498275
 21
97.5722758704
 31
0.0
  0
LINE
  5
421
330
1F
100
AcDbEntity
  8
0
  6
Continuous
 62
     7
370
    25
100
AcDbLine
 10
-41.2566498275
 20
95.5722758704
 30
0.0
 11
-41.2566498275
 21
97.5722758704
 31
0.0
  0
LINE
  5
422
330
1F
100
AcDbEntity
  8
0
  6
Continuous
 62
     7
370
    25
100
AcDbLine
 10
-39.2566498275
 20
69.9972758704
 30
0.0
 11
-39.2566498275
 21
79.1722758704
 31
0.0
  0
LINE
  5
423
330
1F
100
AcDbEntity
  8
0
  6
Continuous
 62
     7
370
    25
100
AcDbLine
 10
-41.2566498275
 20
66.5722758704
 30
0.0
 11
-41.2566498275
 21
86.6722758704
 31
0.0
  0
LINE
  5
424
330
1F
100
AcDbEntity
  8
0
  6
Continuous
 62
     7
370
    25
100
AcDbLine
 10
-41.2566498275
 20
92.6722758704
 30
0.0
 11
-41.2566498275
 21
95.5722758704
 31
0.0
  0
LINE
  5
425
330
1F
100
AcDbEntity
  8
0
  6
Continuous
 62
     7
370
    25
100
AcDbLine
 10
-41.2566498275
 20
66.5722758704
 30
0.0
 11
-41.2549826976
 21
66.4722758704
 31
0.0
  0
LINE
  5
426
330
1F
100
AcDbEntity
  8
0
  6
Continuous
 62
     7
370
    25
100
AcDbLine
 10
-41.3169572067
 20
81.5722758704
 30
0.0
 11
-41.2566498275
 21
81.5722758704
 31
0.0
  0
LINE
  5
427
330
1F
100
AcDbEntity
  8
0
  6
Continuous
 62
     7
370
    25
100
AcDbLine
 10
-41.2566498275
 20
97.5722758704
 30
0.0
 11
-41.3169572067
 21
97.5722758704
 31
0.0
  0
LWPOLYLINE
  5
428
330
1F
100
AcDbEntity
  8
0
  6
Continuous
 62
     7
370
    25
100
AcDbPolyline
 90
        9
 70
   128
 43
0.0
 10
-43.188155929
 20
97.5722758704
 10
-43.3216055688
 20
97.5338464312
 10
-43.4499268138
 20
97.4200349355
 10
-43.5681883505
 20
97.235215095
 10
-43.6718454543
 20
96.9864894328
 10
-43.756914641
 20
96.6834163365
 10
-43.8201267493
 20
96.3376427352
 10
-43.8590525734
 20
95.9624565145
 10
-43.8721962157
 20
95.5722758704
  0
LINE
  5
429
330
1F
100
AcDbEntity
  8
0
  6
Continuous
 62
     7
370
    25
100
AcDbLine
 10
-43.188155929
 20
97.5722758704
 30
0.0
 11
-41.3169572067
 21
97.5722758704
 31
0.0
  0
LINE
  5
42A
330
1F
100
AcDbEntity
  8
0
  6
Continuous
 62
     7
370
    25
100
AcDbLine
 10
-41.3169572067
 20
81.5722758704
 30
0.0
 11
-43.188155929
 21
81.5722758704
 31
0.0
  0
LWPOLYLINE
  5
42B
330
1F
100
AcDbEntity
  8
0
  6
Continuous
 62
     7
370
    25
100
AcDbPolyline
 90
        9
 70
   128
 43
0.0
 10
-43.8721962157
 20
83.5722758704
 10
-43.8590525734
 20
83.1820952264
 10
-43.8201267493
 20
82.8069090057
 10
-43.756914641
 20
82.4611354044
 10
-43.6718454543
 20
82.1580623081
 10
-43.5681883505
 20
81.9093366458
 10
-43.4499268138
 20
81.7245168054
 10
-43.3216055688
 20
81.6107053096
 10
-43.188155929
 20
81.5722758704
  0
LINE
  5
42C
330
1F
100
AcDbEntity
  8
0
  6
Continuous
 62
     7
370
    25
100
AcDbLine
 10
-43.8721962157
 20
83.5722758704
 30
0.0
 11
-43.8721962157
 21
86.6722758704
 31
0.0
  0
LINE
  5
42D
330
1F
100
AcDbEntity
  8
0
  6
Continuous
 62
     7
370
    25
100
AcDbLine
 10
-43.8721962157
 20
92.6722758704
 30
0.0
 11
-43.8721962157
 21
95.5722758704
 31
0.0
  0
SPLINE
  5
42E
330
1F
100
AcDbEntity
  8
0
  6
Continuous
 62
     7
370
    25
100
AcDbSpline
210
0.0
220
0.0
230
1.0
 70
    24
 71
     3
 72
     9
 73
     5
 74
     0
 42
0.000000001
 43
0.00000001
 40
0.0
 40
0.0
 40
0.0
 40
0.0
 40
0.7059102712402207
 40
1.0
 40
1.0
 40
1.0
 40
1.0
 10
-39.45664982752256
 20
95.44552467982354
 30
0.0
 10
-39.45664982752256
 20
95.4557774491201
 30
0.0
 10
-39.45664982752256
 20
95.47030163117876
 30
0.0
 10
-39.45664982752256
 20
95.37524967457048
 30
0.0
 10
-39.45664982752262
 20
95.34729587043346
 30
0.0
  0
SPLINE
  5
42F
330
1F
100
AcDbEntity
  8
0
  6
Continuous
 62
     7
370
    25
100
AcDbSpline
210
0.0
220
0.0
230
1.0
 70
    24
 71
     3
 72
    12
 73
     8
 74
     0
 42
0.000000001
 43
0.00000001
 40
0.0
 40
0.0
 40
0.0
 40
0.0
 40
0.33444054867826
 40
0.5144757571369805
 40
0.6983315710265304
 40
0.8821873849160754
 40
1.0
 40
1.0
 40
1.0
 40
1.0
 10
-38.45664982752256
 20
92.17858317549006
 30
0.0
 10
-38.4566498275225
 20
92.8027287109919
 30
0.0
 10
-38.4566498275225
 20
93.76286272646949
 30
0.0
 10
-38.45664982752267
 20
94.67077363276476
 30
0.0
 10
-38.45664982752267
 20
95.17649097068092
 30
0.0
 10
-38.45664982752262
 20
95.44811070481914
 30
0.0
 10
-38.45664982752267
 20
95.44625097335937
 30
0.0
 10
-38.45664982752256
 20
95.44552467983448
 30
0.0
  0
SPLINE
  5
430
330
1F
100
AcDbEntity
  8
0
  6
Continuous
 62
     7
370
    25
100
AcDbSpline
210
0.0
220
0.0
230
1.0
 70
    24
 71
     3
 72
    15
 73
    11
 74
     0
 42
0.000000001
 43
0.00000001
 40
0.0
 40
0.0
 40
0.0
 40
0.0
 40
0.034696749791865
 40
0.2211884951269639
 40
0.4076802404620633
 40
0.5080720152630784
 40
0.6105942475634817
 40
0.7131164798638854
 40
0.8135082546649
 40
1.0
 40
1.0
 40
1.0
 40
1.0
 10
-38.45664982752256
 20
83.89902706102876
 30
0.0
 10
-38.4566498275225
 20
83.89230595739734
 30
0.0
 10
-38.45664982752245
 20
83.84945955804456
 30
0.0
 10
-38.45664982752262
 20
84.33750052080303
 30
0.0
 10
-38.45664982752256
 20
85.43341157827162
 30
0.0
 10
-38.45664982752245
 20
86.65230871071908
 30
0.0
 10
-38.45664982752256
 20
87.73248393857605
 30
0.0
 10
-38.45664982752262
 20
88.89296084104174
 30
0.0
 10
-38.45664982752262
 20
90.42353573615685
 30
0.0
 10
-38.45664982752256
 20
91.48716162480693
 30
0.0
 10
-38.45664982752262
 20
92.17858317549008
 30
0.0
  0
SPLINE
  5
431
330
1F
100
AcDbEntity
  8
0
  6
Continuous
 62
     7
370
    25
100
AcDbSpline
210
0.0
220
0.0
230
1.0
 70
     8
 71
     3
 72
     8
 73
     4
 74
     0
 42
0.000000001
 43
0.00000001
 40
0.0
 40
0.0
 40
0.0
 40
0.0
 40
1.0
 40
1.0
 40
1.0
 40
1.0
 10
-34.45664982752955
 20
89.28888084274516
 30
0.0
 10
-34.45664982752955
 20
90.27125928731795
 30
0.0
 10
-34.63096512790897
 20
91.22675045550767
 30
0.0
 10
-34.90323181492094
 20
92.16713310483523
 30
0.0
  0
SPLINE
  5
432
330
1F
100
AcDbEntity
  8
0
  6
Continuous
 62
     7
370
    25
100
AcDbSpline
210
0.0
220
0.0
230
1.0
 70
     8
 71
     3
 72
     8
 73
     4
 74
     0
 42
0.000000001
 43
0.00000001
 40
0.0
 40
0.0
 40
0.0
 40
0.0
 40
1.0
 40
1.0
 40
1.0
 40
1.0
 10
-34.90323181492089
 20
86.41062858065519
 30
0.0
 10
-34.63096512790948
 20
87.35101122998097
 30
0.0
 10
-34.45664982752955
 20
88.30650239817425
 30
0.0
 10
-34.45664982752955
 20
89.28888084274516
 30
0.0
  0
LINE
  5
433
330
1F
100
AcDbEntity
  8
0
  6
Continuous
 62
     7
370
    25
100
AcDbLine
 10
-38.4566498275
 20
86.4106285807
 30
0.0
 11
-34.9032318149
 21
86.4106285807
 31
0.0
  0
LINE
  5
434
330
1F
100
AcDbEntity
  8
0
  6
Continuous
 62
     7
370
    25
100
AcDbLine
 10
-38.4566498275
 20
92.1671331048
 30
0.0
 11
-34.9032318149
 21
92.1671331048
 31
0.0
  0
LINE
  5
435
330
1F
100
AcDbEntity
  8
0
  6
Continuous
 62
     7
370
    25
100
AcDbLine
 10
-34.4566498275
 20
89.2888808427
 30
0.0
 11
-34.4566498275
 21
93.7979567497
 31
0.0
  0
SPLINE
  5
436
330
1F
100
AcDbEntity
  8
0
  6
Continuous
 62
     7
370
    25
100
AcDbSpline
210
0.0
220
0.0
230
1.0
 70
     8
 71
     3
 72
     8
 73
     4
 74
     0
 42
0.000000001
 43
0.00000001
 40
0.0
 40
0.0
 40
0.0
 40
0.0
 40
1.0
 40
1.0
 40
1.0
 40
1.0
 10
-34.90323181492106
 20
92.16713310484137
 30
0.0
 10
-34.63096512790964
 20
92.6999558459062
 30
0.0
 10
-34.45664982752972
 20
93.2413391048008
 30
0.0
 10
-34.45664982752972
 20
93.79795674972924
 30
0.0
  0
LINE
  5
437
330
1F
100
AcDbEntity
  8
0
  6
Continuous
 62
     7
370
    25
100
AcDbLine
 10
-34.4566498275
 20
85.1631999634
 30
0.0
 11
-34.4566498275
 21
89.2888808427
 31
0.0
  0
SPLINE
  5
438
330
1F
100
AcDbEntity
  8
0
  6
Continuous
 62
     7
370
    25
100
AcDbSpline
210
0.0
220
0.0
230
1.0
 70
     8
 71
     3
 72
     8
 73
     4
 74
     0
 42
0.000000001
 43
0.00000001
 40
0.0
 40
0.0
 40
0.0
 40
0.0
 40
1.0
 40
1.0
 40
1.0
 40
1.0
 10
-34.45664982752972
 20
85.16319996344764
 30
0.0
 10
-34.45664982752972
 20
85.58896076309085
 30
0.0
 10
-34.63096512790914
 20
86.00306867238791
 30
0.0
 10
-34.903231814921
 20
86.41062858064959
 30
0.0
  0
SPLINE
  5
439
330
1F
100
AcDbEntity
  8
0
  6
Continuous
 62
     7
370
    25
100
AcDbSpline
210
0.0
220
0.0
230
1.0
 70
     8
 71
     3
 72
     8
 73
     4
 74
     0
 42
0.000000001
 43
0.00000001
 40
0.0
 40
0.0
 40
0.0
 40
0.0
 40
1.0
 40
1.0
 40
1.0
 40
1.0
 10
-34.45664982752972
 20
93.79795674972924
 30
0.0
 10
-34.45664982752972
 20
94.3545743946587
 30
0.0
 10
-34.63096512790914
 20
94.8959576535513
 30
0.0
 10
-34.90323181492106
 20
95.4287803946171
 30
0.0
  0
LINE
  5
43A
330
1F
100
AcDbEntity
  8
0
  6
Continuous
 62
     7
370
    25
100
AcDbLine
 10
-38.4566498275
 20
95.4287803946
 30
0.0
 11
-34.9032318149
 21
95.4287803946
 31
0.0
  0
SPLINE
  5
43B
330
1F
100
AcDbEntity
  8
0
  6
Continuous
 62
     7
370
    25
100
AcDbSpline
210
0.0
220
0.0
230
1.0
 70
     8
 71
     3
 72
     8
 73
     4
 74
     0
 42
0.000000001
 43
0.00000001
 40
0.0
 40
0.0
 40
0.0
 40
0.0
 40
1.0
 40
1.0
 40
1.0
 40
1.0
 10
-34.903231814921
 20
83.91577134624565
 30
0.0
 10
-34.63096512790953
 20
84.32333125450671
 30
0.0
 10
-34.45664982752972
 20
84.73743916380505
 30
0.0
 10
-34.45664982752972
 20
85.16319996344764
 30
0.0
  0
LINE
  5
43C
330
1F
100
AcDbEntity
  8
0
  6
Continuous
 62
     7
370
    25
100
AcDbLine
 10
-34.9032318149
 20
83.9157713462
 30
0.0
 11
-38.4566498275
 21
83.9157713462
 31
0.0
  0
LINE
  5
43D
330
1F
100
AcDbEntity
  8
0
  6
Continuous
 62
     7
370
    25
100
AcDbLine
 10
-48.9153998275
 20
86.9668303262
 30
0.0
 11
-48.9153998275
 21
86.6722758704
 31
0.0
  0
LINE
  5
43E
330
1F
100
AcDbEntity
  8
0
  6
Continuous
 62
     7
370
    25
100
AcDbLine
 10
-48.9153998275
 20
92.6722758704
 30
0.0
 11
-48.9153998275
 21
86.9668303262
 31
0.0
  0
LINE
  5
43F
330
1F
100
AcDbEntity
  8
0
  6
Continuous
 62
     7
370
    25
100
AcDbLine
 10
-49.4566498275
 20
92.1310258704
 30
0.0
 11
-49.4566498275
 21
87.2135258704
 31
0.0
  0
LINE
  5
440
330
1F
100
AcDbEntity
  8
0
  6
Continuous
 62
     7
370
    25
100
AcDbLine
 10
-34.9032318149
 20
95.4287803946
 30
0.0
 11
-34.8280440594
 21
95.2187599268
 31
0.0
  0
LINE
  5
441
330
1F
100
AcDbEntity
  8
0
  6
Continuous
 62
     7
370
    25
100
AcDbLine
 10
-34.4566498275
 20
93.7979567497
 30
0.0
 11
-34.4566498275
 21
94.6722758704
 31
0.0
  0
LINE
  5
442
330
1F
100
AcDbEntity
  8
0
  6
Continuous
 62
     7
370
    25
100
AcDbLine
 10
-34.4566498275
 20
84.6722758704
 30
0.0
 11
-34.4566498275
 21
85.1631999634
 31
0.0
  0
ARC
  5
443
330
1F
100
AcDbEntity
  8
0
  6
Continuous
 62
     7
370
    25
100
AcDbCircle
 10
-47.7566498275
 20
60.4722758704
 30
0.0
 40
6.000000000000114
100
AcDbArc
 50
90.0
 51
143.1301023541
  0
ARC
  5
444
330
1F
100
AcDbEntity
  8
0
  6
Continuous
 62
     7
370
    25
100
AcDbCircle
 10
873.2433501725
 20
60.4722758704
 30
0.0
 40
6.000000000000079
100
AcDbArc
 50
36.8698976459
 51
90.0
  0
LINE
  5
445
330
1F
100
AcDbEntity
  8
0
  6
Continuous
 62
     7
370
    25
100
AcDbLine
 10
-159.39840824
 20
372.6075204992
 30
0.0
 11
-159.7613460183
 21
371.9788938271
 31
0.0
  0
LINE
  5
446
330
1F
100
AcDbEntity
  8
0
  6
Continuous
 62
     7
370
    25
100
AcDbLine
 10
-159.7613460183
 20
365.6788938271
 30
0.0
 11
-159.39840824
 21
365.050267155
 31
0.0
  0
LINE
  5
447
330
1F
100
AcDbEntity
  8
0
  6
Continuous
 62
     7
370
    25
100
AcDbLine
 10
-161.4613460183
 20
372.8288938271
 30
0.0
 11
-163.4613460183
 21
372.8288938271
 31
0.0
  0
LINE
  5
448
330
1F
100
AcDbEntity
  8
0
  6
Continuous
 62
     7
370
    25
100
AcDbLine
 10
-163.4613460183
 20
364.8288938271
 30
0.0
 11
-161.4613460183
 21
364.8288938271
 31
0.0
  0
ARC
  5
449
330
1F
100
AcDbEntity
  8
0
  6
Continuous
 62
     7
370
    25
100
AcDbCircle
 10
-156.533142788
 20
368.8288938271
 30
0.0
 40
8.000000000000016
100
AcDbArc
 50
195.2747479997
 51
210.0
  0
ARC
  5
44A
330
1F
100
AcDbEntity
  8
0
  6
Continuous
 62
     7
370
    25
100
AcDbCircle
 10
-156.533142788
 20
368.8288938271
 30
0.0
 40
8.000000000000016
100
AcDbArc
 50
150.0
 51
164.7252520003
  0
LINE
  5
44B
330
1F
100
AcDbEntity
  8
0
  6
Continuous
 62
     7
370
    25
100
AcDbLine
 10
-159.7613460183
 20
370.8288938271
 30
0.0
 11
-159.8613460183
 21
370.8288938271
 31
0.0
  0
LINE
  5
44C
330
1F
100
AcDbEntity
  8
0
  6
Continuous
 62
     7
370
    25
100
AcDbLine
 10
-159.8613460183
 20
366.8288938271
 30
0.0
 11
-159.7613460183
 21
366.8288938271
 31
0.0
  0
CIRCLE
  5
44D
330
1F
100
AcDbEntity
  8
0
  6
Continuous
 62
     7
370
    25
100
AcDbCircle
 10
-148.1613460183
 20
217.8288938271
 30
0.0
 40
2.458750000016596
  0
CIRCLE
  5
44E
330
1F
100
AcDbEntity
  8
0
  6
Continuous
 62
     7
370
    25
100
AcDbCircle
 10
-148.1613460183
 20
217.8288938271
 30
0.0
 40
3.000000000000018
  0
CIRCLE
  5
44F
330
1F
100
AcDbEntity
  8
0
  6
Continuous
 62
     7
370
    25
100
AcDbCircle
 10
-148.1613460183
 20
393.8288938271
 30
0.0
 40
2.458750000016613
  0
CIRCLE
  5
450
330
1F
100
AcDbEntity
  8
0
  6
Continuous
 62
     7
370
    25
100
AcDbCircle
 10
-148.1613460183
 20
393.8288938271
 30
0.0
 40
3.000000000000047
  0
LINE
  5
451
330
1F
100
AcDbEntity
  8
0
  6
Continuous
 62
     7
370
    25
100
AcDbLine
 10
-176.3613460183
 20
364.358183149
 30
0.0
 11
-166.7613460183
 21
364.358183149
 31
0.0
  0
LINE
  5
452
330
1F
100
AcDbEntity
  8
0
  6
Continuous
 62
     7
370
    25
100
AcDbLine
 10
-176.3613460183
 20
171.2996045052
 30
0.0
 11
-166.7613460183
 21
171.2996045052
 31
0.0
  0
LINE
  5
453
330
1F
100
AcDbEntity
  8
0
  6
Continuous
 62
     7
370
    25
100
AcDbLine
 10
-166.7613460183
 20
171.2996045052
 30
0.0
 11
-166.7613460183
 21
364.358183149
 31
0.0
  0
SPLINE
  5
454
330
1F
100
AcDbEntity
  8
0
  6
Continuous
 62
     7
370
    25
100
AcDbSpline
210
0.0
220
0.0
230
1.0
 70
     8
 71
     3
 72
    20
 73
    16
 74
     0
 42
0.000000001
 43
0.00000001
 40
0.0
 40
0.0
 40
0.0
 40
0.0
 40
0.1249999999999995
 40
0.1249999999999995
 40
0.2499999999999988
 40
0.2499999999999988
 40
0.3749999999999982
 40
0.3749999999999982
 40
0.4999999999999976
 40
0.4999999999999976
 40
0.7499999999999988
 40
0.7499999999999988
 40
0.8749999999999993
 40
0.8749999999999993
 40
1.0
 40
1.0
 40
1.0
 40
1.0
 10
-176.361346018315
 20
171.2996045052113
 30
0.0
 10
-176.5197252059658
 20
171.3386452360659
 30
0.0
 10
-176.6759709306574
 20
171.3771639402657
 30
0.0
 10
-176.9839627800741
 20
171.4545706915736
 30
0.0
 10
-177.1366068875452
 20
171.4937151095603
 30
0.0
 10
-177.4256911767322
 20
171.5708658634754
 30
0.0
 10
-177.5634957149163
 20
171.6091934452165
 30
0.0
 10
-177.8251143905552
 20
171.686739765693
 30
0.0
 10
-177.9478606972378
 20
171.7257159733618
 30
0.0
 10
-178.2791850741855
 20
171.8412108298068
 30
0.0
 10
-178.4581961982138
 20
171.9191232734769
 30
0.0
 10
-178.6378112975947
 20
172.0346031988777
 30
0.0
 10
-178.6840556464624
 20
172.0734689947427
 30
0.0
 10
-178.7458089524736
 20
172.1512433284113
 30
0.0
 10
-178.7613460183151
 20
172.1898530953661
 30
0.0
 10
-178.7613460183151
 20
172.2288938270927
 30
0.0
  0
LINE
  5
455
330
1F
100
AcDbEntity
  8
0
  6
Continuous
 62
     7
370
    25
100
AcDbLine
 10
-178.7613460183
 20
172.2288938271
 30
0.0
 11
-178.7613460183
 21
363.4288938271
 31
0.0
  0
SPLINE
  5
456
330
1F
100
AcDbEntity
  8
0
  6
Continuous
 62
     7
370
    25
100
AcDbSpline
210
0.0
220
0.0
230
1.0
 70
     8
 71
     3
 72
    20
 73
    16
 74
     0
 42
0.000000001
 43
0.00000001
 40
0.0
 40
0.0
 40
0.0
 40
0.0
 40
0.1249999999999939
 40
0.1249999999999939
 40
0.2499999999999879
 40
0.2499999999999879
 40
0.3749999999999818
 40
0.3749999999999818
 40
0.4999999999999758
 40
0.4999999999999758
 40
0.7499999999999959
 40
0.7499999999999959
 40
0.8749999999999979
 40
0.8749999999999979
 40
1.0
 40
1.0
 40
1.0
 40
1.0
 10
-178.7613460183151
 20
363.4288938270925
 30
0.0
 10
-178.7613460183151
 20
363.4679345579471
 30
0.0
 10
-178.7458094578402
 20
363.5064532621469
 30
0.0
 10
-178.6844911058796
 20
363.5838600134549
 30
0.0
 10
-178.6380673602928
 20
363.6230044314416
 30
0.0
 10
-178.5181164901387
 20
363.7001551853567
 30
0.0
 10
-178.4445118458553
 20
363.7384827670978
 30
0.0
 10
-178.2697814797596
 20
363.8160290875743
 30
0.0
 10
-178.1689308508581
 20
363.855005295243
 30
0.0
 10
-177.8376455708741
 20
363.970500151688
 30
0.0
 10
-177.5699654094902
 20
364.0484125953581
 30
0.0
 10
-177.1372913834348
 20
364.163892520759
 30
0.0
 10
-176.9857732965837
 20
364.202758316624
 30
0.0
 10
-176.6763475391976
 20
364.2805326502926
 30
0.0
 10
-176.5197252095038
 20
364.3191424172473
 30
0.0
 10
-176.361346018315
 20
364.3581831489739
 30
0.0
  0
LINE
  5
457
330
1F
100
AcDbEntity
  8
0
  6
Continuous
 62
     7
370
    25
100
AcDbLine
 10
-176.3613460183
 20
365.8288938271
 30
0.0
 11
-176.3613460183
 21
364.4288938271
 31
0.0
  0
SPLINE
  5
458
330
1F
100
AcDbEntity
  8
0
  6
Continuous
 62
     7
370
    25
100
AcDbSpline
210
0.0
220
0.0
230
1.0
 70
     8
 71
     3
 72
     9
 73
     5
 74
     0
 42
0.000000001
 43
0.00000001
 40
0.0
 40
0.0
 40
0.0
 40
0.0
 40
0.7584558214378685
 40
1.0
 40
1.0
 40
1.0
 40
1.0
 10
-176.3613460183151
 20
364.4288938270925
 30
0.0
 10
-176.5130537962513
 20
364.4178392912591
 30
0.0
 10
-176.7130757008214
 20
364.4032642355723
 30
0.0
 10
-176.8636297922128
 20
364.2801678519725
 30
0.0
 10
-176.8999952565472
 20
364.2504346371119
 30
0.0
  0
SPLINE
  5
459
330
1F
100
AcDbEntity
  8
0
  6
Continuous
 62
     7
370
    25
100
AcDbSpline
210
0.0
220
0.0
230
1.0
 70
     8
 71
     3
 72
    20
 73
    16
 74
     0
 42
0.000000001
 43
0.00000001
 40
0.0
 40
0.0
 40
0.0
 40
0.0
 40
0.1250000000000012
 40
0.1250000000000012
 40
0.2500000000000024
 40
0.2500000000000024
 40
0.3750000000000037
 40
0.3750000000000037
 40
0.5000000000000049
 40
0.5000000000000049
 40
0.7500000000000073
 40
0.7500000000000073
 40
0.8750000000000037
 40
0.8750000000000037
 40
1.0
 40
1.0
 40
1.0
 40
1.0
 10
-176.3613460183151
 20
365.8288938270925
 30
0.0
 10
-176.5197252059658
 20
365.8288938270925
 30
0.0
 10
-176.6759709306575
 20
365.8133572666177
 30
0.0
 10
-176.9839627800741
 20
365.752038914657
 30
0.0
 10
-177.1366068875453
 20
365.7056151690703
 30
0.0
 10
-177.4256911767323
 20
365.5856642989161
 30
0.0
 10
-177.5634957149163
 20
365.5120596546327
 30
0.0
 10
-177.8251143905552
 20
365.3373292885371
 30
0.0
 10
-177.9478606972378
 20
365.2364786596356
 30
0.0
 10
-178.2791850741855
 20
364.9051933796516
 30
0.0
 10
-178.4581961982137
 20
364.6375132182678
 30
0.0
 10
-178.6378112975946
 20
364.2048391922123
 30
0.0
 10
-178.6840556464623
 20
364.0533211053612
 30
0.0
 10
-178.7458089524736
 20
363.7438953479752
 30
0.0
 10
-178.761346018315
 20
363.5872730182814
 30
0.0
 10
-178.761346018315
 20
363.4288938270926
 30
0.0
  0
SPLINE
  5
45A
330
1F
100
AcDbEntity
  8
0
  6
Continuous
 62
     7
370
    25
100
AcDbSpline
210
0.0
220
0.0
230
1.0
 70
     8
 71
     3
 72
    20
 73
    16
 74
     0
 42
0.000000001
 43
0.00000001
 40
0.0
 40
0.0
 40
0.0
 40
0.0
 40
0.1250000000000019
 40
0.1250000000000019
 40
0.2500000000000037
 40
0.2500000000000037
 40
0.3750000000000056
 40
0.3750000000000056
 40
0.5000000000000074
 40
0.5000000000000074
 40
0.7500000000000038
 40
0.7500000000000038
 40
0.8750000000000019
 40
0.8750000000000019
 40
1.0
 40
1.0
 40
1.0
 40
1.0
 10
-178.761346018315
 20
172.2288938270928
 30
0.0
 10
-178.761346018315
 20
172.0705146394421
 30
0.0
 10
-178.7458094578402
 20
171.9142689147503
 30
0.0
 10
-178.6844911058796
 20
171.6062770653337
 30
0.0
 10
-178.6380673602928
 20
171.4536329578625
 30
0.0
 10
-178.5181164901387
 20
171.1645486686755
 30
0.0
 10
-178.4445118458553
 20
171.0267441304915
 30
0.0
 10
-178.2697814797596
 20
170.7651254548525
 30
0.0
 10
-178.1689308508581
 20
170.6423791481699
 30
0.0
 10
-177.8376455708741
 20
170.3110547712222
 30
0.0
 10
-177.5699654094903
 20
170.1320436471939
 30
0.0
 10
-177.1372913834348
 20
169.952428547813
 30
0.0
 10
-176.9857732965837
 20
169.9061841989453
 30
0.0
 10
-176.6763475391976
 20
169.8444308929341
 30
0.0
 10
-176.5197252095038
 20
169.8288938270927
 30
0.0
 10
-176.361346018315
 20
169.8288938270927
 30
0.0
  0
SPLINE
  5
45B
330
1F
100
AcDbEntity
  8
0
  6
Continuous
 62
     7
370
    25
100
AcDbSpline
210
0.0
220
0.0
230
1.0
 70
     8
 71
     3
 72
     9
 73
     5
 74
     0
 42
0.000000001
 43
0.00000001
 40
0.0
 40
0.0
 40
0.0
 40
0.0
 40
0.4258694941520698
 40
0.9999999999999999
 40
0.9999999999999999
 40
0.9999999999999999
 40
0.9999999999999999
 10
-176.9177374453241
 20
171.4189723897699
 30
0.0
 10
-176.8473332687193
 20
171.3690507649254
 30
0.0
 10
-176.6820146028567
 20
171.2518279407269
 30
0.0
 10
-176.4783030406004
 20
171.2372585555654
 30
0.0
 10
-176.3613460183151
 20
171.2288938270927
 30
0.0
  0
LINE
  5
45C
330
1F
100
AcDbEntity
  8
0
  6
Continuous
 62
     7
370
    25
100
AcDbLine
 10
-176.3613460183
 20
169.8288938271
 30
0.0
 11
-176.3613460183
 21
171.2288938271
 31
0.0
  0
LINE
  5
45D
330
1F
100
AcDbEntity
  8
0
  6
Continuous
 62
     7
370
    25
100
AcDbLine
 10
-176.3613460183
 20
365.8288938271
 30
0.0
 11
-166.7613460183
 21
365.8288938271
 31
0.0
  0
LINE
  5
45E
330
1F
100
AcDbEntity
  8
0
  6
Continuous
 62
     7
370
    25
100
AcDbLine
 10
-176.3613460183
 20
364.4288938271
 30
0.0
 11
-166.7613460183
 21
364.4288938271
 31
0.0
  0
LINE
  5
45F
330
1F
100
AcDbEntity
  8
0
  6
Continuous
 62
     7
370
    25
100
AcDbLine
 10
-166.7613460183
 20
365.8288938271
 30
0.0
 11
-166.7613460183
 21
364.4288938271
 31
0.0
  0
LINE
  5
460
330
1F
100
AcDbEntity
  8
0
  6
Continuous
 62
     7
370
    25
100
AcDbLine
 10
-166.7613460183
 20
169.8288938271
 30
0.0
 11
-166.7613460183
 21
171.2288938271
 31
0.0
  0
LINE
  5
461
330
1F
100
AcDbEntity
  8
0
  6
Continuous
 62
     7
370
    25
100
AcDbLine
 10
-176.3613460183
 20
171.2288938271
 30
0.0
 11
-166.7613460183
 21
171.2288938271
 31
0.0
  0
LINE
  5
462
330
1F
100
AcDbEntity
  8
0
  6
Continuous
 62
     7
370
    25
100
AcDbLine
 10
-176.3613460183
 20
169.8288938271
 30
0.0
 11
-166.7613460183
 21
169.8288938271
 31
0.0
  0
ARC
  5
463
330
1F
100
AcDbEntity
  8
0
  6
Continuous
 62
     7
370
    25
100
AcDbCircle
 10
-142.6613460183
 20
397.3288938271
 30
0.0
 40
3.0
100
AcDbArc
 50
0.0
 51
90.0
  0
LINE
  5
464
330
1F
100
AcDbEntity
  8
0
  6
Continuous
 62
     7
370
    25
100
AcDbLine
 10
-139.6613460183
 20
363.1288938271
 30
0.0
 11
-139.6613460183
 21
397.3288938271
 31
0.0
  0
LINE
  5
465
330
1F
100
AcDbEntity
  8
0
  6
Continuous
 62
     7
370
    25
100
AcDbLine
 10
-158.6613460183
 20
380.3288938271
 30
0.0
 11
-158.6613460183
 21
363.1288938271
 31
0.0
  0
LINE
  5
466
330
1F
100
AcDbEntity
  8
0
  6
Continuous
 62
     7
370
    25
100
AcDbLine
 10
-162.6613460183
 20
380.3288938271
 30
0.0
 11
-158.6613460183
 21
380.3288938271
 31
0.0
  0
LINE
  5
467
330
1F
100
AcDbEntity
  8
0
  6
Continuous
 62
     7
370
    25
100
AcDbLine
 10
-162.6613460183
 20
397.3288938271
 30
0.0
 11
-162.6613460183
 21
380.3288938271
 31
0.0
  0
ARC
  5
468
330
1F
100
AcDbEntity
  8
0
  6
Continuous
 62
     7
370
    25
100
AcDbCircle
 10
-159.6613460183
 20
397.3288938271
 30
0.0
 40
3.0
100
AcDbArc
 50
90.0
 51
180.0
  0
LINE
  5
469
330
1F
100
AcDbEntity
  8
0
  6
Continuous
 62
     7
370
    25
100
AcDbLine
 10
-142.6613460183
 20
400.3288938271
 30
0.0
 11
-159.6613460183
 21
400.3288938271
 31
0.0
  0
CIRCLE
  5
46A
330
1F
100
AcDbEntity
  8
0
  6
Continuous
 62
     7
370
    25
100
AcDbCircle
 10
-148.1613460183
 20
393.8288938271
 30
0.0
 40
3.249999999999716
  0
CIRCLE
  5
46B
330
1F
100
AcDbEntity
  8
0
  6
Continuous
 62
     7
370
    25
100
AcDbCircle
 10
-148.1613460183
 20
368.8288938271
 30
0.0
 40
3.249999999999829
  0
LINE
  5
46C
330
1F
100
AcDbEntity
  8
0
  6
Continuous
 62
     7
370
    25
100
AcDbLine
 10
-158.6613460183
 20
361.3288938271
 30
0.0
 11
-158.6613460183
 21
363.1288938271
 31
0.0
  0
LINE
  5
46D
330
1F
100
AcDbEntity
  8
0
  6
Continuous
 62
     7
370
    25
100
AcDbLine
 10
-139.6613460183
 20
361.3288938271
 30
0.0
 11
-158.6613460183
 21
361.3288938271
 31
0.0
  0
LINE
  5
46E
330
1F
100
AcDbEntity
  8
0
  6
Continuous
 62
     7
370
    25
100
AcDbLine
 10
-139.6613460183
 20
363.1288938271
 30
0.0
 11
-139.6613460183
 21
361.3288938271
 31
0.0
  0
ARC
  5
46F
330
1F
100
AcDbEntity
  8
0
  6
Continuous
 62
     7
370
    25
100
AcDbCircle
 10
-158.8613460183
 20
363.1288938271
 30
0.0
 40
1.800000000000011
100
AcDbArc
 50
180.0
 51
270.0
  0
ARC
  5
470
330
1F
100
AcDbEntity
  8
0
  6
Continuous
 62
     7
370
    25
100
AcDbCircle
 10
-158.8613460183
 20
363.1288938271
 30
0.0
 40
1.0
100
AcDbArc
 50
180.0
 51
270.0
  0
LINE
  5
471
330
1F
100
AcDbEntity
  8
0
  6
Continuous
 62
     7
370
    25
100
AcDbLine
 10
-158.8613460183
 20
361.3288938271
 30
0.0
 11
-158.6613460183
 21
361.3288938271
 31
0.0
  0
LINE
  5
472
330
1F
100
AcDbEntity
  8
0
  6
Continuous
 62
     7
370
    25
100
AcDbLine
 10
-158.8613460183
 20
362.1288938271
 30
0.0
 11
-158.6613460183
 21
362.1288938271
 31
0.0
  0
LINE
  5
473
330
1F
100
AcDbEntity
  8
0
  6
Continuous
 62
     7
370
    25
100
AcDbLine
 10
-160.6613460183
 20
373.3288938271
 30
0.0
 11
-159.8613460183
 21
373.3288938271
 31
0.0
  0
LINE
  5
474
330
1F
100
AcDbEntity
  8
0
  6
Continuous
 62
     7
370
    25
100
AcDbLine
 10
-159.8613460183
 20
363.1288938271
 30
0.0
 11
-159.8613460183
 21
373.3288938271
 31
0.0
  0
LINE
  5
475
330
1F
100
AcDbEntity
  8
0
  6
Continuous
 62
     7
370
    25
100
AcDbLine
 10
-115.6613460183
 20
362.1288938271
 30
0.0
 11
-115.6613460183
 21
361.3288938271
 31
0.0
  0
LINE
  5
476
330
1F
100
AcDbEntity
  8
0
  6
Continuous
 62
     7
370
    25
100
AcDbLine
 10
-115.6613460183
 20
361.3288938271
 30
0.0
 11
-118.6613460183
 21
361.3288938271
 31
0.0
  0
LINE
  5
477
330
1F
100
AcDbEntity
  8
0
  6
Continuous
 62
     7
370
    25
100
AcDbLine
 10
-118.6613460183
 20
362.1288938271
 30
0.0
 11
-115.6613460183
 21
362.1288938271
 31
0.0
  0
LINE
  5
478
330
1F
100
AcDbEntity
  8
0
  6
Continuous
 62
     7
370
    25
100
AcDbLine
 10
-139.6613460183
 20
361.3288938271
 30
0.0
 11
-118.6613460183
 21
361.3288938271
 31
0.0
  0
LINE
  5
479
330
1F
100
AcDbEntity
  8
0
  6
Continuous
 62
     7
370
    25
100
AcDbLine
 10
-139.6613460183
 20
362.1288938271
 30
0.0
 11
-118.6613460183
 21
362.1288938271
 31
0.0
  0
ARC
  5
47A
330
1F
100
AcDbEntity
  8
0
  6
Continuous
 62
     7
370
    25
100
AcDbCircle
 10
-134.2992952107
 20
363.1288938271
 30
0.0
 40
0.9999999999999432
100
AcDbArc
 50
270.0
 51
300.0
  0
LINE
  5
47B
330
1F
100
AcDbEntity
  8
0
  6
Continuous
 62
     7
370
    25
100
AcDbLine
 10
-126.7744240801
 20
365.3949192309
 30
0.0
 11
-132.4313460183
 21
362.1288938271
 31
0.0
  0
LINE
  5
47C
330
1F
100
AcDbEntity
  8
0
  6
Continuous
 62
     7
370
    25
100
AcDbLine
 10
-127.1744240801
 20
366.0877395539
 30
0.0
 11
-133.7992952107
 21
362.2628684233
 31
0.0
  0
LINE
  5
47D
330
1F
100
AcDbEntity
  8
0
  6
Continuous
 62
     7
370
    25
100
AcDbLine
 10
-116.7567326265
 20
366.3288938271
 30
0.0
 11
-116.7567326265
 21
365.5288938271
 31
0.0
  0
LINE
  5
47E
330
1F
100
AcDbEntity
  8
0
  6
Continuous
 62
     7
370
    25
100
AcDbLine
 10
-116.7567326265
 20
365.5288938271
 30
0.0
 11
-119.7567326265
 21
365.5288938271
 31
0.0
  0
LINE
  5
47F
330
1F
100
AcDbEntity
  8
0
  6
Continuous
 62
     7
370
    25
100
AcDbLine
 10
-119.7567326265
 20
366.3288938271
 30
0.0
 11
-116.7567326265
 21
366.3288938271
 31
0.0
  0
LINE
  5
480
330
1F
100
AcDbEntity
  8
0
  6
Continuous
 62
     7
370
    25
100
AcDbLine
 10
-126.2744240801
 20
366.3288938271
 30
0.0
 11
-119.7567326265
 21
366.3288938271
 31
0.0
  0
LINE
  5
481
330
1F
100
AcDbEntity
  8
0
  6
Continuous
 62
     7
370
    25
100
AcDbLine
 10
-126.2744240801
 20
365.5288938271
 30
0.0
 11
-119.7567326265
 21
365.5288938271
 31
0.0
  0
ARC
  5
482
330
1F
100
AcDbEntity
  8
0
  6
Continuous
 62
     7
370
    25
100
AcDbCircle
 10
-126.2744240801
 20
364.5288938271
 30
0.0
 40
1.800000000000011
100
AcDbArc
 50
90.0
 51
120.0
  0
ARC
  5
483
330
1F
100
AcDbEntity
  8
0
  6
Continuous
 62
     7
370
    25
100
AcDbCircle
 10
-126.2744240801
 20
364.5288938271
 30
0.0
 40
1.0
100
AcDbArc
 50
90.0
 51
120.0
  0
CIRCLE
  5
484
330
1F
100
AcDbEntity
  8
0
  6
Continuous
 62
     7
370
    25
100
AcDbCircle
 10
-148.1613460183
 20
368.8288938271
 30
0.0
 40
2.458750000016595
  0
CIRCLE
  5
485
330
1F
100
AcDbEntity
  8
0
  6
Continuous
 62
     7
370
    25
100
AcDbCircle
 10
-148.1613460183
 20
368.8288938271
 30
0.0
 40
3.000000000000003
  0
SPLINE
  5
486
330
1F
100
AcDbEntity
  8
0
  6
Continuous
 62
     7
370
    25
100
AcDbSpline
210
0.0
220
0.0
230
1.0
 70
     8
 71
     3
 72
    12
 73
     8
 74
     0
 42
0.000000001
 43
0.00000001
 40
0.0
 40
0.0
 40
0.0
 40
0.0
 40
0.5000000000000031
 40
0.5000000000000031
 40
0.7500000000000016
 40
0.7500000000000016
 40
1.0
 40
1.0
 40
1.0
 40
1.0
 10
-159.24666603293
 20
367.3880645052221
 30
0.0
 10
-159.4371603223535
 20
366.9717634215677
 30
0.0
 10
-159.5588347354159
 20
366.5492248935792
 30
0.0
 10
-159.5594909259472
 20
365.8989347541184
 30
0.0
 10
-159.5296569241528
 20
365.682392536204
 30
0.0
 10
-159.4207270540452
 20
365.2570245309636
 30
0.0
 10
-159.3420318669823
 20
365.0468725519784
 30
0.0
 10
-159.2466660329296
 20
364.8384626296657
 30
0.0
  0
LINE
  5
487
330
1F
100
AcDbEntity
  8
0
  6
Continuous
 62
     7
370
    25
100
AcDbLine
 10
-159.2466660329
 20
364.8384626297
 30
0.0
 11
-159.3445410702
 21
365.08136738
 31
0.0
  0
SPLINE
  5
488
330
1F
100
AcDbEntity
  8
0
  6
Continuous
 62
     7
370
    25
100
AcDbSpline
210
0.0
220
0.0
230
1.0
 70
     8
 71
     3
 72
    12
 73
     8
 74
     0
 42
0.000000001
 43
0.00000001
 40
0.0
 40
0.0
 40
0.0
 40
0.0
 40
0.5000000000000207
 40
0.5000000000000207
 40
0.7500000000000103
 40
0.7500000000000103
 40
1.0
 40
1.0
 40
1.0
 40
1.0
 10
-159.2466660329301
 20
372.8193250245195
 30
0.0
 10
-159.4371603223535
 20
372.5840652320765
 30
0.0
 10
-159.5588347354159
 20
372.3452805392259
 30
0.0
 10
-159.5594909259472
 20
371.977789006669
 30
0.0
 10
-159.5296569241528
 20
371.8554168120195
 30
0.0
 10
-159.4207270540452
 20
371.6150331268601
 30
0.0
 10
-159.3420318669823
 20
371.4962721797985
 30
0.0
 10
-159.2466660329296
 20
371.3784957026489
 30
0.0
  0
SPLINE
  5
489
330
1F
100
AcDbEntity
  8
0
  6
Continuous
 62
     7
370
    25
100
AcDbSpline
210
0.0
220
0.0
230
1.0
 70
     8
 71
     3
 72
    14
 73
    10
 74
     0
 42
0.000000001
 43
0.00000001
 40
0.0
 40
0.0
 40
0.0
 40
0.0
 40
0.25
 40
0.25
 40
0.5
 40
0.5
 40
0.75
 40
0.75
 40
1.0
 40
1.0
 40
1.0
 40
1.0
 10
-159.2466660329291
 20
371.378495702649
 30
0.0
 10
-159.3415406422397
 20
371.0539894733603
 30
0.0
 10
-159.4211455671154
 20
370.721530250966
 30
0.0
 10
-159.5299821820096
 20
370.0549603360578
 30
0.0
 10
-159.5593057877001
 20
369.7198840787825
 30
0.0
 10
-159.5592410059545
 20
369.0455406085549
 30
0.0
 10
-159.5290848126282
 20
368.703761187876
 30
0.0
 10
-159.4194996112625
 20
368.0373472682712
 30
0.0
 10
-159.3409566374603
 20
367.7105732223184
 30
0.0
 10
-159.2466660329291
 20
367.3880645052221
 30
0.0
  0
LINE
  5
48A
330
1F
100
AcDbEntity
  8
0
  6
Continuous
 62
     7
370
    25
100
AcDbLine
 10
-159.7613460183
 20
365.6788938271
 30
0.0
 11
-159.7613460183
 21
371.9788938271
 31
0.0
  0
LINE
  5
48B
330
1F
100
AcDbEntity
  8
0
  6
Continuous
 62
     7
370
    25
100
AcDbLine
 10
-158.6613460183
 20
367.3880645052
 30
0.0
 11
-159.2466660329
 21
367.3880645052
 31
0.0
  0
LINE
  5
48C
330
1F
100
AcDbEntity
  8
0
  6
Continuous
 62
     7
370
    25
100
AcDbLine
 10
-158.6613460183
 20
371.3784957026
 30
0.0
 11
-159.2466660329
 21
371.3784957026
 31
0.0
  0
LINE
  5
48D
330
1F
100
AcDbEntity
  8
0
  6
Continuous
 62
     7
370
    25
100
AcDbLine
 10
-158.6613460183
 20
364.8384626297
 30
0.0
 11
-159.2466660329
 21
364.8384626297
 31
0.0
  0
LINE
  5
48E
330
1F
100
AcDbEntity
  8
0
  6
Continuous
 62
     7
370
    25
100
AcDbLine
 10
-158.6613460183
 20
372.8193250245
 30
0.0
 11
-159.2466660329
 21
372.8193250245
 31
0.0
  0
LINE
  5
48F
330
1F
100
AcDbEntity
  8
0
  6
Continuous
 62
     7
370
    25
100
AcDbLine
 10
-162.4613460183
 20
378.8288938271
 30
0.0
 11
-172.3613460183
 21
378.8288938271
 31
0.0
  0
LINE
  5
490
330
1F
100
AcDbEntity
  8
0
  6
Continuous
 62
     7
370
    25
100
AcDbLine
 10
-162.4613460183
 20
378.0288938271
 30
0.0
 11
-162.4613460183
 21
378.8288938271
 31
0.0
  0
LINE
  5
491
330
1F
100
AcDbEntity
  8
0
  6
Continuous
 62
     7
370
    25
100
AcDbLine
 10
-172.3613460183
 20
378.0288938271
 30
0.0
 11
-162.4613460183
 21
378.0288938271
 31
0.0
  0
LINE
  5
492
330
1F
100
AcDbEntity
  8
0
  6
Continuous
 62
     7
370
    25
100
AcDbLine
 10
-172.3613460183
 20
378.0288938271
 30
0.0
 11
-172.3613460183
 21
377.9288938271
 31
0.0
  0
LINE
  5
493
330
1F
100
AcDbEntity
  8
0
  6
Continuous
 62
     7
370
    25
100
AcDbLine
 10
-172.3613460183
 20
377.9288938271
 30
0.0
 11
-167.2113460183
 21
377.9288938271
 31
0.0
  0
LINE
  5
494
330
1F
100
AcDbEntity
  8
0
  6
Continuous
 62
     7
370
    25
100
AcDbLine
 10
-167.2113460183
 20
377.1288938271
 30
0.0
 11
-167.2113460183
 21
377.9288938271
 31
0.0
  0
LINE
  5
495
330
1F
100
AcDbEntity
  8
0
  6
Continuous
 62
     7
370
    25
100
AcDbLine
 10
-172.3613460183
 20
377.1288938271
 30
0.0
 11
-167.2113460183
 21
377.1288938271
 31
0.0
  0
ARC
  5
496
330
1F
100
AcDbEntity
  8
0
  6
Continuous
 62
     7
370
    25
100
AcDbCircle
 10
-172.3613460183
 20
377.9788938271
 30
0.0
 40
0.8499999999999659
100
AcDbArc
 50
90.0
 51
270.0
  0
LINE
  5
497
330
1F
100
AcDbEntity
  8
0
  6
Continuous
 62
     7
370
    25
100
AcDbLine
 10
-162.4613460183
 20
359.6288938271
 30
0.0
 11
-166.7613460183
 21
359.6288938271
 31
0.0
  0
LINE
  5
498
330
1F
100
AcDbEntity
  8
0
  6
Continuous
 62
     7
370
    25
100
AcDbLine
 10
-162.4613460183
 20
358.8288938271
 30
0.0
 11
-162.4613460183
 21
359.6288938271
 31
0.0
  0
LINE
  5
499
330
1F
100
AcDbEntity
  8
0
  6
Continuous
 62
     7
370
    25
100
AcDbLine
 10
-162.4613460183
 20
358.8288938271
 30
0.0
 11
-166.7613460183
 21
358.8288938271
 31
0.0
  0
LINE
  5
49A
330
1F
100
AcDbEntity
  8
0
  6
Continuous
 62
     7
370
    25
100
AcDbLine
 10
-160.6613460183
 20
360.6288938271
 30
0.0
 11
-160.6613460183
 21
377.0288938271
 31
0.0
  0
ARC
  5
49B
330
1F
100
AcDbEntity
  8
0
  6
Continuous
 62
     7
370
    25
100
AcDbCircle
 10
-162.4613460183
 20
360.6288938271
 30
0.0
 40
1.800000000000125
100
AcDbArc
 50
270.0
 51
0.0
  0
LINE
  5
49C
330
1F
100
AcDbEntity
  8
0
  6
Continuous
 62
     7
370
    25
100
AcDbLine
 10
-161.4613460183
 20
360.6288938271
 30
0.0
 11
-161.4613460183
 21
377.0288938271
 31
0.0
  0
ARC
  5
49D
330
1F
100
AcDbEntity
  8
0
  6
Continuous
 62
     7
370
    25
100
AcDbCircle
 10
-162.4613460183
 20
377.0288938271
 30
0.0
 40
1.000000000000057
100
AcDbArc
 50
360.0
 51
90.0
  0
ARC
  5
49E
330
1F
100
AcDbEntity
  8
0
  6
Continuous
 62
     7
370
    25
100
AcDbCircle
 10
-162.4613460183
 20
377.0288938271
 30
0.0
 40
1.800000000000068
100
AcDbArc
 50
0.0
 51
90.0
  0
ARC
  5
49F
330
1F
100
AcDbEntity
  8
0
  6
Continuous
 62
     7
370
    25
100
AcDbCircle
 10
-162.4613460183
 20
360.6288938271
 30
0.0
 40
1.000000000000057
100
AcDbArc
 50
270.0
 51
0.0
  0
LINE
  5
4A0
330
1F
100
AcDbEntity
  8
0
  6
Continuous
 62
     7
370
    25
100
AcDbLine
 10
-163.4613460183
 20
372.8288938271
 30
0.0
 11
-163.4613460183
 21
364.8288938271
 31
0.0
  0
LWPOLYLINE
  5
4A1
330
1F
100
AcDbEntity
  8
0
  6
Continuous
 62
     7
370
    25
100
AcDbPolyline
 90
        3
 70
   128
 43
0.0
 10
-164.4673901349
 20
369.5526752297
 10
-164.4717906599
 20
369.5099799009
 10
-164.4880155086
 20
369.326281572
  0
ARC
  5
4A2
330
1F
100
AcDbEntity
  8
0
  6
Continuous
 62
     7
370
    25
100
AcDbCircle
 10
-163.9636225841
 20
369.6394094095
 30
0.0
 40
0.6107675350077124
100
AcDbArc
 50
210.8424581413
 51
243.3898036633
  0
ARC
  5
4A3
330
1F
100
AcDbEntity
  8
0
  6
Continuous
 62
     7
370
    25
100
AcDbCircle
 10
-155.0806886628
 20
368.4978964582
 30
0.0
 40
9.17581504358184
100
AcDbArc
 50
177.9327321272
 51
179.6562101039
  0
ARC
  5
4A4
330
1F
100
AcDbEntity
  8
0
  6
Continuous
 62
     7
370
    25
100
AcDbCircle
 10
-156.7243661206
 20
368.734756552
 30
0.0
 40
7.786288415100844
100
AcDbArc
 50
184.3702527064
 51
195.2299003794
  0
ARC
  5
4A5
330
1F
100
AcDbEntity
  8
0
  6
Continuous
 62
     7
370
    25
100
AcDbCircle
 10
-164.0160744533
 20
366.7843927108
 30
0.0
 40
0.2406805056720446
100
AcDbArc
 50
156.7420981704
 51
203.2579018296
  0
ARC
  5
4A6
330
1F
100
AcDbEntity
  8
0
  6
Continuous
 62
     7
370
    25
100
AcDbCircle
 10
-156.7243661206
 20
368.9248318469
 30
0.0
 40
7.786288415099593
100
AcDbArc
 50
184.3702527064
 51
195.2299003794
  0
ARC
  5
4A7
330
1F
100
AcDbEntity
  8
0
  6
Continuous
 62
     7
370
    25
100
AcDbCircle
 10
-163.9636225841
 20
368.0183782446
 30
0.0
 40
0.610767535008801
100
AcDbArc
 50
116.6101963367
 51
149.1575418587
  0
ARC
  5
4A8
330
1F
100
AcDbEntity
  8
0
  6
Continuous
 62
     7
370
    25
100
AcDbCircle
 10
-155.1575604427
 20
369.1568753397
 30
0.0
 40
9.098942710239967
100
AcDbArc
 50
176.2668736478
 51
183.7331263523
  0
ARC
  5
4A9
330
1F
100
AcDbEntity
  8
0
  6
Continuous
 62
     7
370
    25
100
AcDbCircle
 10
-163.9636225841
 20
369.2032290294
 30
0.0
 40
0.6107675350084335
100
AcDbArc
 50
116.6101963367
 51
149.1575418587
  0
ARC
  5
4AA
330
1F
100
AcDbEntity
  8
0
  6
Continuous
 62
     7
370
    25
100
AcDbCircle
 10
-156.7243661206
 20
368.9230311022
 30
0.0
 40
7.786288415100188
100
AcDbArc
 50
164.7700996206
 51
175.6297472936
  0
ARC
  5
4AB
330
1F
100
AcDbEntity
  8
0
  6
Continuous
 62
     7
370
    25
100
AcDbCircle
 10
-164.1041122397
 20
370.8944962039
 30
0.0
 40
0.1522432420595275
100
AcDbArc
 50
150.9451665855
 51
179.1449116553
  0
LINE
  5
4AC
330
1F
100
AcDbEntity
  8
0
  6
Continuous
 62
     7
370
    25
100
AcDbLine
 10
-164.4880155086
 20
369.516356867
 30
0.0
 11
-164.2494598507
 21
369.516356867
 31
0.0
  0
LINE
  5
4AD
330
1F
100
AcDbEntity
  8
0
  6
Continuous
 62
     7
370
    25
100
AcDbLine
 10
-164.4880155086
 20
368.1414307872
 30
0.0
 11
-164.4711485169
 21
368.1414307872
 31
0.0
  0
LINE
  5
4AE
330
1F
100
AcDbEntity
  8
0
  6
Continuous
 62
     7
370
    25
100
AcDbLine
 10
-164.4880155086
 20
369.326281572
 30
0.0
 11
-164.2549651922
 21
369.326281572
 31
0.0
  0
LINE
  5
4AF
330
1F
100
AcDbEntity
  8
0
  6
Continuous
 62
     7
370
    25
100
AcDbLine
 10
-140.2613460183
 20
310.1632006645
 30
0.0
 11
-140.2613460183
 21
305.0221244276
 31
0.0
  0
ARC
  5
4B0
330
1F
100
AcDbEntity
  8
0
  6
Continuous
 62
     7
370
    25
100
AcDbCircle
 10
-142.2028571291
 20
305.0843670035
 30
0.0
 40
1.942508566655354
100
AcDbArc
 50
268.2745645851
 51
358.1637932023
  0
LINE
  5
4B1
330
1F
100
AcDbEntity
  8
0
  6
Continuous
 62
     7
370
    25
100
AcDbLine
 10
-142.2613460183
 20
303.142739186
 30
0.0
 11
-154.2613460183
 21
303.142739186
 31
0.0
  0
ARC
  5
4B2
330
1F
100
AcDbEntity
  8
0
  6
Continuous
 62
     7
370
    25
100
AcDbCircle
 10
-154.3198349075
 20
305.0843670035
 30
0.0
 40
1.942508566655356
100
AcDbArc
 50
181.8362067977
 51
271.7254354149
  0
LINE
  5
4B3
330
1F
100
AcDbEntity
  8
0
  6
Continuous
 62
     7
370
    25
100
AcDbLine
 10
-156.2613460183
 20
305.0221244276
 30
0.0
 11
-156.2613460183
 21
310.1632006645
 31
0.0
  0
LINE
  5
4B4
330
1F
100
AcDbEntity
  8
0
  6
Continuous
 62
     7
370
    25
100
AcDbLine
 10
-140.2613460183
 20
305.0221244276
 30
0.0
 11
-140.2613460183
 21
304.338084141
 31
0.0
  0
ARC
  5
4B5
330
1F
100
AcDbEntity
  8
0
  6
Continuous
 62
     7
370
    25
100
AcDbCircle
 10
-142.2028571291
 20
304.4003267168
 30
0.0
 40
1.942508566655303
100
AcDbArc
 50
268.2745645851
 51
358.1637932023
  0
LINE
  5
4B6
330
1F
100
AcDbEntity
  8
0
  6
Continuous
 62
     7
370
    25
100
AcDbLine
 10
-142.2613460183
 20
302.4586988994
 30
0.0
 11
-154.2613460183
 21
302.4586988994
 31
0.0
  0
LINE
  5
4B7
330
1F
100
AcDbEntity
  8
0
  6
Continuous
 62
     7
370
    25
100
AcDbLine
 10
-156.2613460183
 20
304.338084141
 30
0.0
 11
-156.2613460183
 21
305.0221244276
 31
0.0
  0
ARC
  5
4B8
330
1F
100
AcDbEntity
  8
0
  6
Continuous
 62
     7
370
    25
100
AcDbCircle
 10
-154.3198349075
 20
304.4003267168
 30
0.0
 40
1.942508566655244
100
AcDbArc
 50
181.8362067977
 51
271.7254354149
  0
LINE
  5
4B9
330
1F
100
AcDbEntity
  8
0
  6
Continuous
 62
     7
370
    25
100
AcDbLine
 10
-156.2613460183
 20
310.5052208078
 30
0.0
 11
-156.2613460183
 21
310.1632006645
 31
0.0
  0
LINE
  5
4BA
330
1F
100
AcDbEntity
  8
0
  6
Continuous
 62
     7
370
    25
100
AcDbLine
 10
-140.2613460183
 20
310.1632006645
 30
0.0
 11
-140.2613460183
 21
310.5052208078
 31
0.0
  0
LINE
  5
4BB
330
1F
100
AcDbEntity
  8
0
  6
Continuous
 62
     7
370
    25
100
AcDbLine
 10
-166.7613460183
 20
310.3288938271
 30
0.0
 11
-156.2613460183
 21
310.3288938271
 31
0.0
  0
LINE
  5
4BC
330
1F
100
AcDbEntity
  8
0
  6
Continuous
 62
     7
370
    25
100
AcDbLine
 10
-142.2613460183
 20
325.3288938271
 30
0.0
 11
-166.7613460183
 21
325.3288938271
 31
0.0
  0
ARC
  5
4BD
330
1F
100
AcDbEntity
  8
0
  6
Continuous
 62
     7
370
    25
100
AcDbCircle
 10
-142.2613460183
 20
323.3288938271
 30
0.0
 40
2.000000000000028
100
AcDbArc
 50
0.0
 51
90.0
  0
LINE
  5
4BE
330
1F
100
AcDbEntity
  8
0
  6
Continuous
 62
     7
370
    25
100
AcDbLine
 10
-140.2613460183
 20
310.5052208078
 30
0.0
 11
-140.2613460183
 21
323.3288938271
 31
0.0
  0
CIRCLE
  5
4BF
330
1F
100
AcDbEntity
  8
0
  6
Continuous
 62
     7
370
    25
100
AcDbCircle
 10
-148.1613460183
 20
317.8288938271
 30
0.0
 40
3.5
  0
ARC
  5
4C0
330
1F
100
AcDbEntity
  8
0
  6
Continuous
 62
     7
370
    25
100
AcDbCircle
 10
-142.2028571291
 20
205.0843670035
 30
0.0
 40
1.942508566655271
100
AcDbArc
 50
268.2745645851
 51
358.1637932023
  0
LINE
  5
4C1
330
1F
100
AcDbEntity
  8
0
  6
Continuous
 62
     7
370
    25
100
AcDbLine
 10
-140.2613460183
 20
205.0221244276
 30
0.0
 11
-140.2613460183
 21
204.338084141
 31
0.0
  0
ARC
  5
4C2
330
1F
100
AcDbEntity
  8
0
  6
Continuous
 62
     7
370
    25
100
AcDbCircle
 10
-142.2028571291
 20
204.4003267168
 30
0.0
 40
1.942508566655274
100
AcDbArc
 50
268.2745645851
 51
358.1637932023
  0
LINE
  5
4C3
330
1F
100
AcDbEntity
  8
0
  6
Continuous
 62
     7
370
    25
100
AcDbLine
 10
-142.2613460183
 20
202.4586988994
 30
0.0
 11
-154.2613460183
 21
202.4586988994
 31
0.0
  0
LINE
  5
4C4
330
1F
100
AcDbEntity
  8
0
  6
Continuous
 62
     7
370
    25
100
AcDbLine
 10
-142.2613460183
 20
203.142739186
 30
0.0
 11
-154.2613460183
 21
203.142739186
 31
0.0
  0
LINE
  5
4C5
330
1F
100
AcDbEntity
  8
0
  6
Continuous
 62
     7
370
    25
100
AcDbLine
 10
-140.2613460183
 20
210.1632006645
 30
0.0
 11
-140.2613460183
 21
205.0221244276
 31
0.0
  0
ARC
  5
4C6
330
1F
100
AcDbEntity
  8
0
  6
Continuous
 62
     7
370
    25
100
AcDbCircle
 10
-154.3198349075
 20
205.0843670035
 30
0.0
 40
1.942508566655299
100
AcDbArc
 50
181.8362067977
 51
271.7254354149
  0
LINE
  5
4C7
330
1F
100
AcDbEntity
  8
0
  6
Continuous
 62
     7
370
    25
100
AcDbLine
 10
-156.2613460183
 20
205.0221244276
 30
0.0
 11
-156.2613460183
 21
210.1632006645
 31
0.0
  0
LINE
  5
4C8
330
1F
100
AcDbEntity
  8
0
  6
Continuous
 62
     7
370
    25
100
AcDbLine
 10
-156.2613460183
 20
204.338084141
 30
0.0
 11
-156.2613460183
 21
205.0221244276
 31
0.0
  0
ARC
  5
4C9
330
1F
100
AcDbEntity
  8
0
  6
Continuous
 62
     7
370
    25
100
AcDbCircle
 10
-154.3198349075
 20
204.4003267168
 30
0.0
 40
1.942508566655245
100
AcDbArc
 50
181.8362067977
 51
271.7254354149
  0
LINE
  5
4CA
330
1F
100
AcDbEntity
  8
0
  6
Continuous
 62
     7
370
    25
100
AcDbLine
 10
-140.2613460183
 20
210.1632006645
 30
0.0
 11
-140.2613460183
 21
210.5052208078
 31
0.0
  0
LINE
  5
4CB
330
1F
100
AcDbEntity
  8
0
  6
Continuous
 62
     7
370
    25
100
AcDbLine
 10
-156.2613460183
 20
210.5052208078
 30
0.0
 11
-156.2613460183
 21
210.1632006645
 31
0.0
  0
LINE
  5
4CC
330
1F
100
AcDbEntity
  8
0
  6
Continuous
 62
     7
370
    25
100
AcDbLine
 10
-166.7613460183
 20
210.3288938271
 30
0.0
 11
-156.2613460183
 21
210.3288938271
 31
0.0
  0
CIRCLE
  5
4CD
330
1F
100
AcDbEntity
  8
0
  6
Continuous
 62
     7
370
    25
100
AcDbCircle
 10
-148.1613460183
 20
217.8288938271
 30
0.0
 40
3.5
  0
LINE
  5
4CE
330
1F
100
AcDbEntity
  8
0
  6
Continuous
 62
     7
370
    25
100
AcDbLine
 10
-142.2613460183
 20
225.3288938271
 30
0.0
 11
-166.7613460183
 21
225.3288938271
 31
0.0
  0
ARC
  5
4CF
330
1F
100
AcDbEntity
  8
0
  6
Continuous
 62
     7
370
    25
100
AcDbCircle
 10
-142.2613460183
 20
223.3288938271
 30
0.0
 40
2.0
100
AcDbArc
 50
0.0
 51
90.0
  0
LINE
  5
4D0
330
1F
100
AcDbEntity
  8
0
  6
Continuous
 62
     7
370
    25
100
AcDbLine
 10
-140.2613460183
 20
210.5052208078
 30
0.0
 11
-140.2613460183
 21
223.3288938271
 31
0.0
  0
CIRCLE
  5
4D1
330
1F
100
AcDbEntity
  8
0
  6
Continuous
 62
     7
370
    25
100
AcDbCircle
 10
-148.1613460183
 20
317.8288938271
 30
0.0
 40
2.458750000016531
  0
CIRCLE
  5
4D2
330
1F
100
AcDbEntity
  8
0
  6
Continuous
 62
     7
370
    25
100
AcDbCircle
 10
-148.1613460183
 20
317.8288938271
 30
0.0
 40
2.999999999999994
  0
ENDSEC
  0
SECTION
  2
OBJECTS
  0
DICTIONARY
  5
C
330
0
100
AcDbDictionary
281
     1
  3
ACAD_GROUP
350
D
  3
ACAD_LAYOUT
350
1A
  3
ACAD_MLINESTYLE
350
17
  3
ACAD_PLOTSETTINGS
350
19
  3
ACAD_PLOTSTYLENAME
350
E
  3
ACAD_SCALELIST
350
47
  0
DICTIONARY
  5
D
102
{ACAD_REACTORS
330
C
102
}
330
C
100
AcDbDictionary
281
     1
  0
DICTIONARY
  5
1A
102
{ACAD_REACTORS
330
C
102
}
330
C
100
AcDbDictionary
281
     1
  3
Layout1
350
1E
  3
Layout2
350
26
  3
Model
350
22
  0
DICTIONARY
  5
17
102
{ACAD_REACTORS
330
C
102
}
330
C
100
AcDbDictionary
281
     1
  3
Standard
350
18
  0
DICTIONARY
  5
19
102
{ACAD_REACTORS
330
C
102
}
330
C
100
AcDbDictionary
281
     1
  0
ACDBDICTIONARYWDFLT
  5
E
102
{ACAD_REACTORS
330
C
102
}
330
C
100
AcDbDictionary
281
     1
  3
Normal
350
F
100
AcDbDictionaryWithDefault
340
F
  0
DICTIONARY
  5
47
102
{ACAD_REACTORS
330
C
102
}
330
C
100
AcDbDictionary
281
     1
  3
A0
350
48
  3
A1
350
49
  3
A2
350
4A
  3
A3
350
4B
  3
A4
350
4C
  3
A5
350
4D
  3
A6
350
4E
  3
A7
350
4F
  3
A8
350
50
  3
A9
350
51
  3
B0
350
52
  3
B1
350
53
  3
B2
350
54
  3
B3
350
55
  3
B4
350
56
  3
B5
350
57
  3
B6
350
58
  3
B7
350
59
  3
B8
350
5A
  3
B9
350
5B
  3
C0
350
5C
  3
C1
350
5D
  3
C2
350
5E
  3
C3
350
5F
  3
C4
350
60
  3
C5
350
61
  3
C6
350
62
  3
C7
350
63
  3
C8
350
64
  3
C9
350
65
  3
D0
350
66
  3
D1
350
67
  3
D2
350
68
  0
LAYOUT
  5
1E
102
{ACAD_REACTORS
330
1A
102
}
330
1A
100
AcDbPlotSettings
  1

  2
none_device
  4

  6

 40
0.0
 41
0.0
 42
0.0
 43
0.0
 44
0.0
 45
0.0
 46
0.0
 47
0.0
 48
0.0
 49
0.0
140
0.0
141
0.0
142
1.0
143
1.0
 70
   688
 72
     1
 73
     0
 74
     5
  7

 75
    16
147
1.0
148
0.0
149
0.0
100
AcDbLayout
  1
Layout1
 70
     1
 71
     1
 10
0.0
 20
0.0
 11
420.0
 21
297.0
 12
0.0
 22
0.0
 32
0.0
 14
1.0000000000E+20
 24
1.0000000000E+20
 34
1.0000000000E+20
 15
-1.0000000000E+20
 25
-1.0000000000E+20
 35
-1.0000000000E+20
146
0.0
 13
0.0
 23
0.0
 33
0.0
 16
1.0
 26
0.0
 36
0.0
 17
0.0
 27
1.0
 37
0.0
 76
     0
330
1B
  0
LAYOUT
  5
26
102
{ACAD_REACTORS
330
1A
102
}
330
1A
100
AcDbPlotSettings
  1

  2
none_device
  4

  6

 40
0.0
 41
0.0
 42
0.0
 43
0.0
 44
0.0
 45
0.0
 46
0.0
 47
0.0
 48
0.0
 49
0.0
140
0.0
141
0.0
142
1.0
143
1.0
 70
   688
 72
     1
 73
     0
 74
     5
  7

 75
    16
147
1.0
148
0.0
149
0.0
100
AcDbLayout
  1
Layout2
 70
     1
 71
     2
 10
0.0
 20
0.0
 11
0.0
 21
0.0
 12
0.0
 22
0.0
 32
0.0
 14
0.0
 24
0.0
 34
0.0
 15
0.0
 25
0.0
 35
0.0
146
0.0
 13
0.0
 23
0.0
 33
0.0
 16
1.0
 26
0.0
 36
0.0
 17
0.0
 27
1.0
 37
0.0
 76
     0
330
23
  0
LAYOUT
  5
22
102
{ACAD_REACTORS
330
1A
102
}
330
1A
100
AcDbPlotSettings
  1

  2
none_device
  4
Letter_(8.50_x_11.00_Inches)
  6

 40
6.35
 41
6.35
 42
6.35000508
 43
6.35000508
 44
215.9
 45
279.4
 46
0.0
 47
0.0
 48
0.0
 49
0.0
140
0.0
141
0.0
142
1.0
143
1.0
 70
  1712
 72
     1
 73
     0
 74
     0
  7

 75
     0
147
1.0
148
0.0
149
0.0
100
AcDbLayout
  1
Model
 70
     1
 71
     0
 10
0.0
 20
0.0
 11
841.0
 21
594.0
 12
0.0
 22
0.0
 32
0.0
 14
0.0
 24
0.0
 34
0.0
 15
841.0
 25
594.0
 35
0.0
146
0.0
 13
0.0
 23
0.0
 33
0.0
 16
1.0
 26
0.0
 36
0.0
 17
0.0
 27
1.0
 37
0.0
 76
     0
330
1F
331
29
  0
MLINESTYLE
  5
18
102
{ACAD_REACTORS
330
17
102
}
330
17
100
AcDbMlineStyle
  2
Standard
 70
     0
  3

 62
   256
 51
90.0
 52
90.0
 71
     2
 49
0.5
 62
   256
  6
BYLAYER
 49
-0.5
 62
   256
  6
BYLAYER
  0
ACDBPLACEHOLDER
  5
F
102
{ACAD_REACTORS
330
E
102
}
330
E
  0
SCALE
  5
48
102
{ACAD_REACTORS
330
47
102
}
330
47
100
AcDbScale
 70
     0
300
1:1
140
1.0
141
1.0
290
     1
  0
SCALE
  5
49
102
{ACAD_REACTORS
330
47
102
}
330
47
100
AcDbScale
 70
     0
300
1:2
140
1.0
141
2.0
290
     0
  0
SCALE
  5
4A
102
{ACAD_REACTORS
330
47
102
}
330
47
100
AcDbScale
 70
     0
300
1:4
140
1.0
141
4.0
290
     0
  0
SCALE
  5
4B
102
{ACAD_REACTORS
330
47
102
}
330
47
100
AcDbScale
 70
     0
300
1:5
140
1.0
141
5.0
290
     0
  0
SCALE
  5
4C
102
{ACAD_REACTORS
330
47
102
}
330
47
100
AcDbScale
 70
     0
300
1:8
140
1.0
141
8.0
290
     0
  0
SCALE
  5
4D
102
{ACAD_REACTORS
330
47
102
}
330
47
100
AcDbScale
 70
     0
300
1:10
140
1.0
141
10.0
290
     0
  0
SCALE
  5
4E
102
{ACAD_REACTORS
330
47
102
}
330
47
100
AcDbScale
 70
     0
300
1:16
140
1.0
141
16.0
290
     0
  0
SCALE
  5
4F
102
{ACAD_REACTORS
330
47
102
}
330
47
100
AcDbScale
 70
     0
300
1:20
140
1.0
141
20.0
290
     0
  0
SCALE
  5
50
102
{ACAD_REACTORS
330
47
102
}
330
47
100
AcDbScale
 70
     0
300
1:30
140
1.0
141
30.0
290
     0
  0
SCALE
  5
51
102
{ACAD_REACTORS
330
47
102
}
330
47
100
AcDbScale
 70
     0
300
1:40
140
1.0
141
40.0
290
     0
  0
SCALE
  5
52
102
{ACAD_REACTORS
330
47
102
}
330
47
100
AcDbScale
 70
     0
300
1:50
140
1.0
141
50.0
290
     0
  0
SCALE
  5
53
102
{ACAD_REACTORS
330
47
102
}
330
47
100
AcDbScale
 70
     0
300
1:100
140
1.0
141
100.0
290
     0
  0
SCALE
  5
54
102
{ACAD_REACTORS
330
47
102
}
330
47
100
AcDbScale
 70
     0
300
2:1
140
2.0
141
1.0
290
     0
  0
SCALE
  5
55
102
{ACAD_REACTORS
330
47
102
}
330
47
100
AcDbScale
 70
     0
300
4:1
140
4.0
141
1.0
290
     0
  0
SCALE
  5
56
102
{ACAD_REACTORS
330
47
102
}
330
47
100
AcDbScale
 70
     0
300
8:1
140
8.0
141
1.0
290
     0
  0
SCALE
  5
57
102
{ACAD_REACTORS
330
47
102
}
330
47
100
AcDbScale
 70
     0
300
10:1
140
10.0
141
1.0
290
     0
  0
SCALE
  5
58
102
{ACAD_REACTORS
330
47
102
}
330
47
100
AcDbScale
 70
     0
300
100:1
140
100.0
141
1.0
290
     0
  0
SCALE
  5
59
102
{ACAD_REACTORS
330
47
102
}
330
47
100
AcDbScale
 70
     0
300
1/128" = 1'-0"
140
0.0078125
141
12.0
290
     0
  0
SCALE
  5
5A
102
{ACAD_REACTORS
330
47
102
}
330
47
100
AcDbScale
 70
     0
300
1/64" = 1'-0"
140
0.015625
141
12.0
290
     0
  0
SCALE
  5
5B
102
{ACAD_REACTORS
330
47
102
}
330
47
100
AcDbScale
 70
     0
300
1/32" = 1'-0"
140
0.03125
141
12.0
290
     0
  0
SCALE
  5
5C
102
{ACAD_REACTORS
330
47
102
}
330
47
100
AcDbScale
 70
     0
300
1/16" = 1'-0"
140
0.0625
141
12.0
290
     0
  0
SCALE
  5
5D
102
{ACAD_REACTORS
330
47
102
}
330
47
100
AcDbScale
 70
     0
300
3/32" = 1'-0"
140
0.09375
141
12.0
290
     0
  0
SCALE
  5
5E
102
{ACAD_REACTORS
330
47
102
}
330
47
100
AcDbScale
 70
     0
300
1/8" = 1'-0"
140
0.125
141
12.0
290
     0
  0
SCALE
  5
5F
102
{ACAD_REACTORS
330
47
102
}
330
47
100
AcDbScale
 70
     0
300
3/16" = 1'-0"
140
0.1875
141
12.0
290
     0
  0
SCALE
  5
60
102
{ACAD_REACTORS
330
47
102
}
330
47
100
AcDbScale
 70
     0
300
1/4" = 1'-0"
140
0.25
141
12.0
290
     0
  0
SCALE
  5
61
102
{ACAD_REACTORS
330
47
102
}
330
47
100
AcDbScale
 70
     0
300
3/8" = 1'-0"
140
0.375
141
12.0
290
     0
  0
SCALE
  5
62
102
{ACAD_REACTORS
330
47
102
}
330
47
100
AcDbScale
 70
     0
300
1/2" = 1'-0"
140
0.5
141
12.0
290
     0
  0
SCALE
  5
63
102
{ACAD_REACTORS
330
47
102
}
330
47
100
AcDbScale
 70
     0
300
3/4" = 1'-0"
140
0.75
141
12.0
290
     0
  0
SCALE
  5
64
102
{ACAD_REACTORS
330
47
102
}
330
47
100
AcDbScale
 70
     0
300
1" = 1'-0"
140
1.0
141
12.0
290
     0
  0
SCALE
  5
65
102
{ACAD_REACTORS
330
47
102
}
330
47
100
AcDbScale
 70
     0
300
1-1/2" = 1'-0"
140
1.5
141
12.0
290
     0
  0
SCALE
  5
66
102
{ACAD_REACTORS
330
47
102
}
330
47
100
AcDbScale
 70
     0
300
3" = 1'-0"
140
3.0
141
12.0
290
     0
  0
SCALE
  5
67
102
{ACAD_REACTORS
330
47
102
}
330
47
100
AcDbScale
 70
     0
300
6" = 1'-0"
140
6.0
141
12.0
290
     0
  0
SCALE
  5
68
102
{ACAD_REACTORS
330
47
102
}
330
47
100
AcDbScale
 70
     0
300
1'-0" = 1'-0"
140
12.0
141
12.0
290
     0
  0
ENDSEC
  0
EOF
